  0
SECTION
  2
HEADER
  9
$ACADVER
  1
AC1009
  9
$INSBASE
 10
0
 20
0
 30
0
  9
$EXTMIN
 10
0
 20
0
  9
$EXTMAX
 10
420
 20
297
  9
$LIMMIN
 10
0
 20
0
  9
$LIMMAX
 10
420
 20
297
  9
$LTSCALE
 40
1
  0
ENDSEC
  0
SECTION
  2
TABLES
  0
TABLE
  2
LTYPE
 70
     9
  0
LTYPE
  2
CONTINUOUS
 70
    64
  3
実線
 72
    65
 73
     0
 40
0.0
  0
LTYPE
  2
DASHED1
 70
    64
  3
--  --  --  --  --  --  --  --  
 72
    65
 73
     2
 40
2.5
 49
1.25
 49
-1.25
  0
LTYPE
  2
DASHED2
 70
    64
  3
----    ----    ----    ----    
 72
    65
 73
     2
 40
5.0
 49
2.5
 49
-2.5
  0
LTYPE
  2
DASHED3
 70
    64
  3
------  ------  ------  ------  
 72
    65
 73
     2
 40
5.0
 49
3.75
 49
-1.25
  0
LTYPE
  2
CENTER1
 70
    64
  3
----- - ----- - ----- - ----- - 
 72
    65
 73
     4
 40
10.0
 49
6.25
 49
-1.25
 49
1.25
 49
-1.25
  0
LTYPE
  2
CENTER2
 70
    64
  3
----------  --  ----------  --  
 72
    65
 73
     4
 40
20.0
 49
12.5
 49
-2.5
 49
2.5
 49
-2.5
  0
LTYPE
  2
PHANTOM1
 70
    64
  3
--- - - --- - - --- - - --- - - 
 72
    65
 73
     6
 40
10.0
 49
3.25
 49
-1.25
 49
1.25
 49
-1.25
 49
1.25
 49
-1.25
  0
LTYPE
  2
PHANTOM2
 70
    64
  3
--------  -  -  --------  -  -  
 72
    65
 73
     6
 40
20.0
 49
10.0
 49
-2.5
 49
1.25
 49
-2.5
 49
1.25
 49
-2.5
  0
LTYPE
  2
DOT
 70
    64
  3
-   -   -   -   -   -   -   -   
 72
    65
 73
     2
 40
2.5
 49
0.625
 49
-1.875
  0
LTYPE
  2
DUMMY
 70
    64
  3
ダミー
 72
    65
 73
     0
 40
0.0
  0
LTYPE
  2
RAND1
 70
    64
  3
ランダム線1
 72
    65
 73
     4
 40
10.0
 49
1.0
 49
-2.0
 49
3.0
 49
-4.0
  0
LTYPE
  2
RAND2
 70
    64
  3
ランダム線2
 72
    65
 73
     4
 40
14.0
 49
2.0
 49
-3.0
 49
4.0
 49
-5.0
  0
LTYPE
  2
RAND3
 70
    64
  3
ランダム線3
 72
    65
 73
     4
 40
18.0
 49
3.0
 49
-4.0
 49
5.0
 49
-6.0
  0
LTYPE
  2
RAND4
 70
    64
  3
ランダム線4
 72
    65
 73
     4
 40
22.0
 49
4.0
 49
-5.0
 49
6.0
 49
-7.0
  0
LTYPE
  2
RAND5
 70
    64
  3
ランダム線5
 72
    65
 73
     4
 40
26.0
 49
5.0
 49
-6.0
 49
7.0
 49
-8.0
  0
LTYPE
  2
LONG1
 70
    64
  3
----------  --  ----------  --  
 72
    65
 73
     4
 40
40.0
 49
32.5
 49
-2.5
 49
2.5
 49
-2.5
  0
LTYPE
  2
LONG2
 70
    64
  3
--------  -  -  --------  -  -  
 72
    65
 73
     6
 40
40.0
 49
30.0
 49
-2.5
 49
1.25
 49
-2.5
 49
1.25
 49
-2.5
  0
LTYPE
  2
LONG3
 70
    64
  3
+++++++++++++++..+++++++++++++++
 72
    65
 73
     2
 40
40.0
 49
37.5
 49
-2.5
  0
LTYPE
  2
LONG4
 70
    64
  3
+++++++++++++++..+++++++++++++++
 72
    65
 73
     2
 40
80.0
 49
75.0
 49
-5.0
  0
LTYPE
  2
LONG5
 70
    64
  3
----------  --  ----------  --  
 72
    65
 73
     4
 40
60.0
 49
37.5
 49
-7.5
 49
7.5
 49
-7.5
  0
LTYPE
  2
dashed
 70
   64
  3
-------   -------------   ------
 72
   65
 73
    2
 40
7.5
 49
6
 49
-1.5
  0
LTYPE
  2
dashed_spaced
 70
   64
  3
----        --------        ----
 72
   65
 73
    2
 40
12
 49
6
 49
-6
  0
LTYPE
  2
long_dashed_dotted
 70
   64
  3
------------- --- --------------
 72
   65
 73
    4
 40
15.25
 49
12
 49
-1.5
 49
0.25
 49
-1.5
  0
LTYPE
  2
long_dashed_double-dotted
 70
   64
  3
----------- --- --- ------------
 72
   65
 73
    6
 40
17
 49
12
 49
-1.5
 49
0.25
 49
-1.5
 49
0.25
 49
-1.5
  0
LTYPE
  2
long_dashed_triplicate-dotted
 70
   64
  3
--------- --- --- --- ----------
 72
   65
 73
    8
 40
18.75
 49
12
 49
-1.5
 49
0.25
 49
-1.5
 49
0.25
 49
-1.5
 49
0.25
 49
-1.5
  0
LTYPE
  2
dotted
 70
   64
  3
   -       -       -       -    
 72
   65
 73
    2
 40
1.75
 49
0.25
 49
-1.5
  0
LTYPE
  2
chain
 70
   64
  3
-------------- -- --------------
 72
   65
 73
    4
 40
18.5
 49
12
 49
-1.5
 49
3.5
 49
-1.5
  0
LTYPE
  2
chain_double_dash
 70
   64
  3
------------ -- -- -------------
 72
   65
 73
    6
 40
23.5
 49
12
 49
-1.5
 49
3.5
 49
-1.5
 49
3.5
 49
-1.5
  0
LTYPE
  2
dashed_dotted
 70
   64
  3
-----------     -     ----------
 72
   65
 73
    4
 40
9.25
 49
6
 49
-1.5
 49
0.25
 49
-1.5
  0
LTYPE
  2
double-dashed_dotted
 70
   64
  3
------   -----------   -   -----
 72
   65
 73
    6
 40
16.75
 49
6
 49
-1.5
 49
6
 49
-1.5
 49
0.25
 49
-1.5
  0
LTYPE
  2
dashed_double-dotted
 70
   64
  3
---------    -    -    ---------
 72
   65
 73
    6
 40
11
 49
6
 49
-1.5
 49
0.25
 49
-1.5
 49
0.25
 49
-1.5
  0
LTYPE
  2
double-dashed_double-dotted
 70
   64
  3
-----   ---------   -   -   ----
 72
   65
 73
    8
 40
18.5
 49
6
 49
-1.5
 49
6
 49
-1.5
 49
0.25
 49
-1.5
 49
0.25
 49
-1.5
  0
LTYPE
  2
dashed_triplicate-dotted
 70
   64
  3
-------    -    -    -    ------
 72
   65
 73
    8
 40
12.75
 49
6
 49
-1.5
 49
0.25
 49
-1.5
 49
0.25
 49
-1.5
 49
0.25
 49
-1.5
  0
LTYPE
  2
double-dashed_triplicate-dotted
 70
   64
  3
-----  ---------  -  -  -  -----
 72
   65
 73
   10
 40
20.25
 49
6
 49
-1.5
 49
6
 49
-1.5
 49
0.25
 49
-1.5
 49
0.25
 49
-1.5
 49
0.25
 49
-1.5
  0
LTYPE
  2
undefined
 70
   64
  3
--------------------------------
 72
   65
 73
    0
 40
0
  0
LTYPE
  2
PLINE2
 70
   64
  3
------     -----------     -----
 72
   65
 73
    2
 40
3
 49
2.1000000000000001
 49
-0.9
  0
LTYPE
  2
PLINE3
 70
   64
  3
------------   ---   -----------
 72
   65
 73
    4
 40
10
 49
7
 49
-1
 49
1
 49
-1
  0
LTYPE
  2
PLINE4
 70
   64
  3
---------   ---   ---   --------
 72
   65
 73
    6
 40
10
 49
5
 49
-1
 49
1
 49
-1
 49
1
 49
-1
  0
LTYPE
  2
PLINE5
 70
   64
  3
------     -----------     -----
 72
   65
 73
    2
 40
5
 49
3.5
 49
-1.5
  0
LTYPE
  2
PLINE6
 70
   64
  3
------------   ---   -----------
 72
   65
 73
    4
 40
15
 49
10.5
 49
-1.5
 49
1.5
 49
-1.5
  0
LTYPE
  2
PLINE7
 70
   64
  3
---------   ---   ---   --------
 72
   65
 73
    6
 40
15
 49
7.5
 49
-1.5
 49
1.5
 49
-1.5
 49
1.5
 49
-1.5
  0
LTYPE
  2
PLINE8
 70
   64
  3
------     -----------     -----
 72
   65
 73
    2
 40
7
 49
4.9000000000000004
 49
-2.1000000000000001
  0
LTYPE
  2
PLINE9
 70
   64
  3
------------   ---   -----------
 72
   65
 73
    4
 40
20
 49
14
 49
-2
 49
2
 49
-2
  0
LTYPE
  2
PLINE10
 70
   64
  3
---------   ---   ---   --------
 72
   65
 73
    6
 40
20
 49
10
 49
-2
 49
2
 49
-2
 49
2
 49
-2
  0
LTYPE
  2
PLINE11
 70
   64
  3
------     -----------     -----
 72
   65
 73
    2
 40
8.9999999999999982
 49
6.299999999999998
 49
-2.7000000000000002
  0
LTYPE
  2
PLINE12
 70
   64
  3
------------   ---   -----------
 72
   65
 73
    4
 40
25
 49
17.5
 49
-2.5
 49
2.5
 49
-2.5
  0
LTYPE
  2
PLINE13
 70
   64
  3
---------   ---   ---   --------
 72
   65
 73
    6
 40
25
 49
12.5
 49
-2.5
 49
2.5
 49
-2.5
 49
2.5
 49
-2.5
  0
LTYPE
  2
PLINE14
 70
   64
  3
------     -----------     -----
 72
   65
 73
    2
 40
10.999999999999998
 49
7.7000000000000002
 49
-3.299999999999998
  0
LTYPE
  2
PLINE15
 70
   64
  3
------------   ---   -----------
 72
   65
 73
    4
 40
30
 49
21
 49
-3
 49
3
 49
-3
  0
LTYPE
  2
PLINE16
 70
   64
  3
---------   ---   ---   --------
 72
   65
 73
    6
 40
30
 49
15
 49
-3
 49
3
 49
-3
 49
3
 49
-3
  0
ENDTAB
  0
TABLE
  2
STYLE
  5
3
100
AcDbSymbolTable
 70
     1
  0
STYLE
  5
10
100
AcDbSymbolTableRecord
100
AcDbTextStyleTableRecord
  2
STANDARD
 70
     0
 40
0.0
 41
1.0
 50
0.0
 71
     0
 42
0.2
  3
txt
  4
bigfont.shx
  0
STYLE
  5
26
100
AcDbSymbolTableRecord
100
AcDbTextStyleTableRecord
  2
TATEGAKI
 70
    68
 40
0.0
 41
1.0
 50
0.0
 71
     0
 42
1.0
  3
txt
  4
bigfont.shx
  0
ENDTAB
  0
TABLE
  2
LAYER
 70
    5
  0
LAYER
  2
_0-2_寸法
 70
   64
 62
    7
  6
CONTINUOUS
  0
LAYER
  2
_0-3_躯体
 70
   64
 62
    7
  6
CONTINUOUS
  0
LAYER
  2
_0-4_笠木
 70
   64
 62
    7
  6
CONTINUOUS
  0
LAYER
  2
_0-5_受金具
 70
   64
 62
    7
  6
CONTINUOUS
  0
LAYER
  2
ADD_LINE
 70
   64
 62
    7
  6
CONTINUOUS
  0
ENDTAB
  0
ENDSEC
  0
SECTION
  2
BLOCKS
  0
BLOCK
  2
-000-_Dot
 70
   64
 10
0
 20
0
 30
0
  0
CIRCLE
  8
_0-0_0
  6
CONTINUOUS
 62
    7
 10
0
 20
0
 40
0.5
  0
LINE
  8
_0-0_0
  6
CONTINUOUS
 62
    7
 10
0.5
 20
0
 11
-0.5
 21
0
  0
LINE
  8
_0-0_0
  6
CONTINUOUS
 62
    7
 10
-1
 20
0
 11
-2
 21
0
  0
ENDBLK
  0
BLOCK
  2
-001-_D4
 70
   64
 10
0
 20
0
 30
0
  0
LINE
  8
_0-2_寸法
  6
CONTINUOUS
 62
    4
 10
559.71555583095665
 20
-2047.4464169554501
 11
586.36099795223902
 21
-2047.4464169554501
  0
LINE
  8
_0-2_寸法
  6
CONTINUOUS
 62
    4
 10
559.39052595223905
 20
-2079.2376769554521
 11
586.36099795223902
 21
-2079.2376769554521
  0
LINE
  8
_0-2_寸法
  6
CONTINUOUS
 62
    4
 10
586.36099795223902
 20
-2049.4464169554522
 11
586.36099795223902
 21
-2077.2376769554521
  0
INSERT
  2
-000-_Dot
  8
_0-2_寸法
 10
586.36099795223902
 20
-2047.4464169554501
 41
1
 42
1
 50
90
  0
INSERT
  2
-000-_Dot
  8
_0-2_寸法
 10
586.36099795223902
 20
-2079.2376769554521
 41
1
 42
1
 50
270
  0
TEXT
  8
_0-2_寸法
 62
    7
 10
584.36099795223925
 20
-2068.7670469554523
 40
10
 41
1
 50
90
  1
16
  0
POINT
  8
_0-1_Defpoints
 62
    7
 10
559.71555583095665
 20
-2047.4464169554501
  0
POINT
  8
_0-1_Defpoints
 62
    7
 10
559.39052595223905
 20
-2079.2376769554521
  0
POINT
  8
_0-1_Defpoints
 62
    7
 10
586.36099795223902
 20
-2079.2376769554521
  0
ENDBLK
  0
BLOCK
  2
-002-_D5
 70
   64
 10
0
 20
0
 30
0
  0
LINE
  8
_0-2_寸法
  6
CONTINUOUS
 62
    4
 10
559.39052595223905
 20
-2079.2376769554521
 11
586.36099795223902
 21
-2079.2376769554521
  0
LINE
  8
_0-2_寸法
  6
CONTINUOUS
 62
    4
 10
559.71555583095665
 20
-2147.4464169554522
 11
586.36099795223902
 21
-2147.4464169554522
  0
LINE
  8
_0-2_寸法
  6
CONTINUOUS
 62
    4
 10
586.36099795223902
 20
-2081.2376769554521
 11
586.36099795223902
 21
-2145.4464169554522
  0
INSERT
  2
-000-_Dot
  8
_0-2_寸法
 10
586.36099795223902
 20
-2079.2376769554521
 41
1
 42
1
 50
90
  0
INSERT
  2
-000-_Dot
  8
_0-2_寸法
 10
586.36099795223902
 20
-2147.4464169554522
 41
1
 42
1
 50
270
  0
TEXT
  8
_0-2_寸法
 62
    7
 10
584.36099795223925
 20
-2118.7670469554523
 40
10
 41
1
 50
90
  1
34
  0
POINT
  8
_0-1_Defpoints
 62
    7
 10
559.39052595223905
 20
-2079.2376769554521
  0
POINT
  8
_0-1_Defpoints
 62
    7
 10
559.71555583095665
 20
-2147.4464169554522
  0
POINT
  8
_0-1_Defpoints
 62
    7
 10
586.36099795223902
 20
-2147.4464169554522
  0
ENDBLK
  0
BLOCK
  2
-003-_D6
 70
   64
 10
0
 20
0
 30
0
  0
LINE
  8
_0-2_寸法
  6
CONTINUOUS
 62
    4
 10
559.71555583095665
 20
-2147.4464169554522
 11
609.36851795223902
 21
-2147.4464169554522
  0
LINE
  8
_0-2_寸法
  6
CONTINUOUS
 62
    4
 10
559.71555583095665
 20
-2047.4464169554501
 11
609.36851795223902
 21
-2047.4464169554501
  0
LINE
  8
_0-2_寸法
  6
CONTINUOUS
 62
    4
 10
609.36851795223902
 20
-2145.4464169554522
 11
609.36851795223902
 21
-2049.4464169554522
  0
INSERT
  2
-000-_Dot
  8
_0-2_寸法
 10
609.36851795223902
 20
-2147.4464169554522
 41
1
 42
1
 50
270
  0
INSERT
  2
-000-_Dot
  8
_0-2_寸法
 10
609.36851795223902
 20
-2047.4464169554501
 41
1
 42
1
 50
90
  0
TEXT
  8
_0-2_寸法
 62
    7
 10
607.36851795223924
 20
-2102.8714169554523
 40
10
 41
1
 50
90
  1
50
  0
POINT
  8
_0-1_Defpoints
 62
    7
 10
559.71555583095665
 20
-2147.4464169554522
  0
POINT
  8
_0-1_Defpoints
 62
    7
 10
559.71555583095665
 20
-2047.4464169554501
  0
POINT
  8
_0-1_Defpoints
 62
    7
 10
609.36851795223902
 20
-2047.4464169554501
  0
ENDBLK
  0
BLOCK
  2
-004-_D7
 70
   64
 10
0
 20
0
 30
0
  0
LINE
  8
_0-2_寸法
  6
CONTINUOUS
 62
    4
 10
504.76535795223901
 20
-2041.260786909128
 11
504.76535795223901
 21
-2032.875168955452
  0
LINE
  8
_0-2_寸法
  6
CONTINUOUS
 62
    4
 10
502.76535795223901
 20
-2032.875168955452
 11
427.16535795223882
 21
-2032.875168955452
  0
INSERT
  2
-000-_Dot
  8
_0-2_寸法
 10
504.76535795223901
 20
-2032.875168955452
 41
1
 42
1
 50
0
  0
INSERT
  2
-000-_Dot
  8
_0-2_寸法
 10
425.16535795223899
 20
-2032.875168955452
 41
1
 42
1
 50
180
  0
TEXT
  8
_0-2_寸法
 62
    7
 10
459.54035795223876
 20
-2030.8751689554499
 40
10
 41
1
 50
0
  1
40
  0
POINT
  8
_0-1_Defpoints
 62
    7
 10
504.76535795223901
 20
-2041.260786909128
  0
POINT
  8
_0-1_Defpoints
 62
    7
 10
425.16535795223899
 20
-2032.875168955452
  0
POINT
  8
_0-1_Defpoints
 62
    7
 10
425.16535795223899
 20
-2032.875168955452
  0
ENDBLK
  0
BLOCK
  2
-005-_D8
 70
   64
 10
0
 20
0
 30
0
  0
LINE
  8
_0-2_寸法
  6
CONTINUOUS
 62
    4
 10
504.76535795223901
 20
-2041.260786909128
 11
504.76535795223901
 21
-2011.305256955452
  0
LINE
  8
_0-2_寸法
  6
CONTINUOUS
 62
    4
 10
304.14480595223881
 20
-2041.260786909128
 11
304.14480595223881
 21
-2011.305256955452
  0
LINE
  8
_0-2_寸法
  6
CONTINUOUS
 62
    4
 10
502.76535795223901
 20
-2011.305256955452
 11
306.14480595223898
 21
-2011.305256955452
  0
INSERT
  2
-000-_Dot
  8
_0-2_寸法
 10
504.76535795223901
 20
-2011.305256955452
 41
1
 42
1
 50
0
  0
INSERT
  2
-000-_Dot
  8
_0-2_寸法
 10
304.14480595223881
 20
-2011.305256955452
 41
1
 42
1
 50
180
  0
TEXT
  8
_0-2_寸法
 62
    7
 10
396.10508195223878
 20
-2009.305256955452
 40
10
 41
1
 50
0
  1
100
  0
POINT
  8
_0-1_Defpoints
 62
    7
 10
504.76535795223901
 20
-2041.260786909128
  0
POINT
  8
_0-1_Defpoints
 62
    7
 10
304.14480595223881
 20
-2041.260786909128
  0
POINT
  8
_0-1_Defpoints
 62
    7
 10
304.14480595223881
 20
-2011.305256955452
  0
ENDBLK
  0
BLOCK
  2
-006-_D9
 70
   64
 10
0
 20
0
 30
0
  0
LINE
  8
_0-2_寸法
  6
CONTINUOUS
 62
    4
 10
504.76535795223901
 20
-2041.260786909128
 11
504.76535795223901
 21
-2011.305256955452
  0
LINE
  8
_0-2_寸法
  6
CONTINUOUS
 62
    4
 10
554.76535795223901
 20
-2041.260786909128
 11
554.76535795223901
 21
-2011.305256955452
  0
LINE
  8
_0-2_寸法
  6
CONTINUOUS
 62
    4
 10
506.76535795223901
 20
-2011.305256955452
 11
552.76535795223901
 21
-2011.305256955452
  0
INSERT
  2
-000-_Dot
  8
_0-2_寸法
 10
504.76535795223901
 20
-2011.305256955452
 41
1
 42
1
 50
180
  0
INSERT
  2
-000-_Dot
  8
_0-2_寸法
 10
554.76535795223901
 20
-2011.305256955452
 41
1
 42
1
 50
0
  0
TEXT
  8
_0-2_寸法
 62
    7
 10
524.34035795223906
 20
-2009.305256955452
 40
10
 41
1
 50
0
  1
25
  0
POINT
  8
_0-1_Defpoints
 62
    7
 10
504.76535795223901
 20
-2041.260786909128
  0
POINT
  8
_0-1_Defpoints
 62
    7
 10
554.76535795223901
 20
-2041.260786909128
  0
POINT
  8
_0-1_Defpoints
 62
    7
 10
554.76535795223901
 20
-2011.305256955452
  0
ENDBLK
  0
BLOCK
  2
-007-_D10
 70
   64
 10
0
 20
0
 30
0
  0
LINE
  8
_0-2_寸法
  6
CONTINUOUS
 62
    4
 10
287.13737538774859
 20
-2099.4464169554522
 11
222.76523395223879
 21
-2099.4464169554522
  0
LINE
  8
_0-2_寸法
  6
CONTINUOUS
 62
    4
 10
287.13737538774859
 20
-2119.4464169554522
 11
222.76523395223879
 21
-2119.4464169554522
  0
LINE
  8
_0-2_寸法
  6
CONTINUOUS
 62
    4
 10
222.76523395223879
 20
-2101.4464169554522
 11
222.76523395223879
 21
-2117.4464169554522
  0
INSERT
  2
-000-_Dot
  8
_0-2_寸法
 10
222.76523395223879
 20
-2099.4464169554522
 41
1
 42
1
 50
90
  0
INSERT
  2
-000-_Dot
  8
_0-2_寸法
 10
222.76523395223879
 20
-2119.4464169554522
 41
1
 42
1
 50
270
  0
TEXT
  8
_0-2_寸法
 62
    7
 10
220.76523395223921
 20
-2114.8714169554523
 40
10
 41
1
 50
90
  1
10
  0
POINT
  8
_0-1_Defpoints
 62
    7
 10
287.13737538774859
 20
-2099.4464169554522
  0
POINT
  8
_0-1_Defpoints
 62
    7
 10
287.13737538774859
 20
-2119.4464169554522
  0
POINT
  8
_0-1_Defpoints
 62
    7
 10
222.76523395223879
 20
-2119.4464169554522
  0
ENDBLK
  0
BLOCK
  2
-008-_D11
 70
   64
 10
0
 20
0
 30
0
  0
LINE
  8
_0-2_寸法
  6
CONTINUOUS
 62
    4
 10
287.13737538774859
 20
-2119.4464169554522
 11
222.76523395223879
 21
-2119.4464169554522
  0
LINE
  8
_0-2_寸法
  6
CONTINUOUS
 62
    4
 10
287.13737538774859
 20
-2239.4464169554499
 11
222.76523395223879
 21
-2239.4464169554499
  0
LINE
  8
_0-2_寸法
  6
CONTINUOUS
 62
    4
 10
222.76523395223879
 20
-2121.4464169554522
 11
222.76523395223879
 21
-2237.4464169554522
  0
INSERT
  2
-000-_Dot
  8
_0-2_寸法
 10
222.76523395223879
 20
-2119.4464169554522
 41
1
 42
1
 50
90
  0
INSERT
  2
-000-_Dot
  8
_0-2_寸法
 10
222.76523395223879
 20
-2239.4464169554499
 41
1
 42
1
 50
270
  0
TEXT
  8
_0-2_寸法
 62
    7
 10
220.76523395223921
 20
-2184.8714169554523
 40
10
 41
1
 50
90
  1
60
  0
POINT
  8
_0-1_Defpoints
 62
    7
 10
287.13737538774859
 20
-2119.4464169554522
  0
POINT
  8
_0-1_Defpoints
 62
    7
 10
287.13737538774859
 20
-2239.4464169554499
  0
POINT
  8
_0-1_Defpoints
 62
    7
 10
222.76523395223879
 20
-2239.4464169554499
  0
ENDBLK
  0
BLOCK
  2
-009-_D12
 70
   64
 10
0
 20
0
 30
0
  0
LINE
  8
_0-2_寸法
  6
CONTINUOUS
 62
    4
 10
287.13737538774859
 20
-2147.4464169554522
 11
254.444477952239
 21
-2147.4464169554522
  0
LINE
  8
_0-2_寸法
  6
CONTINUOUS
 62
    4
 10
287.13737538774859
 20
-2239.4464169554499
 11
254.444477952239
 21
-2239.4464169554499
  0
LINE
  8
_0-2_寸法
  6
CONTINUOUS
 62
    4
 10
254.444477952239
 20
-2149.4464169554522
 11
254.444477952239
 21
-2237.4464169554522
  0
INSERT
  2
-000-_Dot
  8
_0-2_寸法
 10
254.444477952239
 20
-2147.4464169554522
 41
1
 42
1
 50
90
  0
INSERT
  2
-000-_Dot
  8
_0-2_寸法
 10
254.444477952239
 20
-2239.4464169554499
 41
1
 42
1
 50
270
  0
TEXT
  8
_0-2_寸法
 62
    7
 10
252.4444779522392
 20
-2198.8714169554523
 40
10
 41
1
 50
90
  1
46
  0
POINT
  8
_0-1_Defpoints
 62
    7
 10
287.13737538774859
 20
-2147.4464169554522
  0
POINT
  8
_0-1_Defpoints
 62
    7
 10
287.13737538774859
 20
-2239.4464169554499
  0
POINT
  8
_0-1_Defpoints
 62
    7
 10
254.444477952239
 20
-2239.4464169554499
  0
ENDBLK
  0
BLOCK
  2
-010-_D13
 70
   64
 10
0
 20
0
 30
0
  0
LINE
  8
_0-2_寸法
  6
CONTINUOUS
 62
    4
 10
304.14480595223881
 20
-2256.040806161076
 11
304.14480595223881
 21
-2284.2910769554501
  0
LINE
  8
_0-2_寸法
  6
CONTINUOUS
 62
    4
 10
334.76535795223901
 20
-2256.040806161076
 11
334.76535795223901
 21
-2284.2910769554501
  0
LINE
  8
_0-2_寸法
  6
CONTINUOUS
 62
    4
 10
302.14480595223898
 20
-2284.2910769554501
 11
300.14480595223898
 21
-2284.2910769554501
  0
LINE
  8
_0-2_寸法
  6
CONTINUOUS
 62
    4
 10
336.76535795223901
 20
-2284.2910769554501
 11
338.76535795223901
 21
-2284.2910769554501
  0
INSERT
  2
-000-_Dot
  8
_0-2_寸法
 10
304.14480595223881
 20
-2284.2910769554501
 41
1
 42
1
 50
0
  0
INSERT
  2
-000-_Dot
  8
_0-2_寸法
 10
334.76535795223901
 20
-2284.2910769554501
 41
1
 42
1
 50
180
  0
TEXT
  8
_0-2_寸法
 62
    7
 10
305.25508195223881
 20
-2282.2910769554519
 40
10
 41
1
 50
0
  1
15~20
  0
POINT
  8
_0-1_Defpoints
 62
    7
 10
304.14480595223881
 20
-2256.040806161076
  0
POINT
  8
_0-1_Defpoints
 62
    7
 10
334.76535795223901
 20
-2256.040806161076
  0
POINT
  8
_0-1_Defpoints
 62
    7
 10
334.76535795223901
 20
-2284.2910769554501
  0
ENDBLK
  0
ENDSEC
  0
SECTION
  2
ENTITIES
  0
LINE
  8
_0-5_受金具
  6
CONTINUOUS
 62
    3
 10
193.89621033333333
 20
144.18804766666653
 11
204.89621033333324
 21
144.18804766666653
  0
LINE
  8
_0-5_受金具
  6
CONTINUOUS
 62
    3
 10
204.89621033333324
 20
142.18804766666653
 11
200.89621033333324
 21
142.18804766666653
  0
LINE
  8
_0-3_躯体
  6
CONTINUOUS
 62
    2
 10
199.02463833333334
 20
129.38804766666635
 11
298.19621033333334
 21
129.38804766666635
  0
LINE
  8
_0-3_躯体
  6
CONTINUOUS
 62
    2
 10
245.60597833333333
 20
20.845171666667511
 11
190.19621033333334
 21
76.25493966666636
  0
LINE
  8
_0-3_躯体
  6
CONTINUOUS
 62
    2
 10
248.43440433333333
 20
20.845171666667511
 11
190.19621033333334
 21
79.083367666666391
  0
LINE
  8
_0-3_躯体
  6
CONTINUOUS
 62
    2
 10
251.26283233333322
 20
20.845171666667511
 11
190.19621033333334
 21
81.911793666667336
  0
LINE
  8
_0-4_笠木
  6
CONTINUOUS
 62
    3
 10
271.04928433333322
 20
155.67789766666647
 11
175.41320633333333
 21
145.91911366666636
  0
LINE
  8
_0-4_笠木
  6
CONTINUOUS
 62
    3
 10
271.73253433333332
 20
154.23982766666745
 11
177.53063633333323
 21
144.62738966666643
  0
LINE
  8
_0-5_受金具
  6
CONTINUOUS
 62
    3
 10
232.89621033333333
 20
134.88804766666635
 11
200.89621033333324
 21
134.88804766666635
  0
LINE
  8
_0-5_受金具
  6
CONTINUOUS
 62
    3
 10
174.39621033333333
 20
100.38804766666635
 11
180.58344633333334
 21
130.88228166666636
  0
LINE
  8
_0-5_受金具
  6
CONTINUOUS
 62
    3
 10
176.47230233333335
 20
95.53322166666635
 11
183.34081233333325
 21
129.38516366666636
  0
LINE
  8
_0-3_躯体
  6
CONTINUOUS
 62
    3
 10
188.19621033333334
 20
20.845171666667511
 11
188.19621033333334
 21
121.38804766666635
  0
LINE
  8
_0-3_躯体
  6
CONTINUOUS
 62
    2
 10
190.19621033333334
 20
20.845171666667511
 11
190.19621033333334
 21
120.55961966666746
  0
LINE
  8
_0-4_笠木
  6
CONTINUOUS
 62
    3
 10
172.88593433333324
 20
143.69184166666651
 11
172.88593433333324
 21
85.890283666666392
  0
LINE
  8
_0-4_笠木
  6
CONTINUOUS
 62
    3
 10
174.38593433333324
 20
95.390283666667528
 11
174.38593433333324
 21
141.1454696666674
  0
LINE
  8
_0-4_笠木
  6
CONTINUOUS
 62
    3
 10
174.38593433333324
 20
92.390629666666428
 11
174.38593433333324
 21
85.890283666666392
  0
ARC
  8
_0-4_笠木
  6
CONTINUOUS
 62
    3
 10
173.38593433333324
 20
85.890283666666392
 40
0.5
 50
180
 51
270
  0
ARC
  8
_0-4_笠木
  6
CONTINUOUS
 62
    3
 10
173.88593433333332
 20
85.890283666666392
 40
0.5
 50
270
 51
0
  0
LINE
  8
_0-4_笠木
  6
CONTINUOUS
 62
    3
 10
173.38593433333324
 20
85.390283666666392
 11
173.88593433333332
 21
85.390283666666392
  0
LINE
  8
_0-4_笠木
  6
CONTINUOUS
 62
    3
 10
178.38593433333324
 20
95.133805666666376
 11
178.38593433333324
 21
94.765341666667382
  0
LINE
  8
_0-4_笠木
  6
CONTINUOUS
 62
    3
 10
177.34300233333335
 20
93.336675666667361
 11
174.38593433333324
 21
92.390629666666428
  0
ARC
  8
_0-4_笠木
  6
CONTINUOUS
 62
    3
 10
176.88593433333324
 20
94.765341666667382
 40
1.5
 50
287.74086799999895
 51
0.0000000000000254
  0
LINE
  8
_0-5_受金具
  6
CONTINUOUS
 62
    3
 10
174.93109033333334
 20
95.425449666667419
 11
176.47230233333335
 21
95.53322166666635
  0
LINE
  8
_0-4_笠木
  6
CONTINUOUS
 62
    3
 10
174.38593433333324
 20
95.390283666667528
 11
177.85105633333333
 21
95.632587666666495
  0
LINE
  8
_0-4_笠木
  6
CONTINUOUS
 62
    3
 10
174.38593433333324
 20
100.39028366666639
 11
174.38593433333324
 21
95.92646766666644
  0
LINE
  8
_0-5_受金具
  6
CONTINUOUS
 62
    3
 10
174.39621033333333
 20
100.38804766666635
 11
174.39621033333333
 21
95.924231666667538
  0
ARC
  8
_0-5_受金具
  6
CONTINUOUS
 62
    3
 10
174.89621033333324
 20
95.924231666667538
 40
0.5
 50
180
 51
273.99999999999977
  0
ARC
  8
_0-4_笠木
  6
CONTINUOUS
 62
    3
 10
177.88593433333324
 20
95.133805666666376
 40
0.5
 50
0
 51
93.999999999999773
  0
LINE
  8
_0-5_受金具
  6
CONTINUOUS
 62
    3
 10
193.89621033333333
 20
146.29406166666649
 11
193.89621033333333
 21
144.18804766666653
  0
LINE
  8
_0-4_笠木
  6
CONTINUOUS
 62
    3
 10
172.88593433333324
 20
143.69184166666651
 11
175.41320633333333
 21
145.91911366666636
  0
ARC
  8
_0-5_受金具
  6
CONTINUOUS
 62
    3
 10
185.48360033333324
 20
129.88804766666635
 40
5
 50
90
 51
168.5304700000016
  0
ARC
  8
_0-4_笠木
  6
CONTINUOUS
 62
    3
 10
177.88593433333324
 20
141.1454696666674
 40
3.5
 50
95.826342000000196
 51
180
  0
ARC
  8
_0-5_受金具
  6
CONTINUOUS
 62
    3
 10
185.79089033333324
 20
128.88804766666635
 40
2.5
 50
90
 51
168.5304700000016
  0
LINE
  8
_0-3_躯体
  6
CONTINUOUS
 62
    3
 10
188.19621033333334
 20
121.38804766666635
 11
198.19621033333323
 21
131.38804766666635
  0
LINE
  8
_0-3_躯体
  6
CONTINUOUS
 62
    2
 10
190.19621033333334
 20
120.55961966666746
 11
199.02463833333334
 21
129.38804766666635
  0
LINE
  8
_0-5_受金具
  6
CONTINUOUS
 62
    3
 10
185.48360033333324
 20
134.88804766666635
 11
197.89621033333324
 21
134.88804766666635
  0
LINE
  8
_0-5_受金具
  6
CONTINUOUS
 62
    3
 10
198.39621033333333
 20
141.68804766666744
 11
198.39621033333333
 21
135.38804766666635
  0
LINE
  8
_0-5_受金具
  6
CONTINUOUS
 62
    3
 10
200.39621033333333
 20
141.68804766666744
 11
200.39621033333333
 21
135.38804766666635
  0
ARC
  8
_0-5_受金具
  6
CONTINUOUS
 62
    3
 10
200.89621033333324
 20
135.38804766666635
 40
0.5
 50
180
 51
270
  0
ARC
  8
_0-5_受金具
  6
CONTINUOUS
 62
    3
 10
197.89621033333324
 20
135.38804766666635
 40
0.5
 50
270
 51
0
  0
LINE
  8
_0-5_受金具
  6
CONTINUOUS
 62
    3
 10
193.89621033333333
 20
142.18804766666653
 11
197.89621033333324
 21
142.18804766666653
  0
ARC
  8
_0-5_受金具
  6
CONTINUOUS
 62
    3
 10
193.89621033333333
 20
142.68804766666653
 40
0.5
 50
180
 51
270
  0
ARC
  8
_0-5_受金具
  6
CONTINUOUS
 62
    3
 10
193.89621033333333
 20
143.68804766666744
 40
0.5
 50
90
 51
180
  0
LINE
  8
_0-5_受金具
  6
CONTINUOUS
 62
    3
 10
193.39621033333324
 20
143.68804766666744
 11
193.39621033333324
 21
142.68804766666653
  0
ARC
  8
_0-5_受金具
  6
CONTINUOUS
 62
    3
 10
200.89621033333324
 20
141.68804766666744
 40
0.5
 50
90
 51
180
  0
ARC
  8
_0-5_受金具
  6
CONTINUOUS
 62
    3
 10
197.89621033333324
 20
141.68804766666744
 40
0.5
 50
0
 51
90
  0
TEXT
  8
_0-2_寸法
 62
    7
 10
41.47338133333335
 20
247.48816166666597
 40
40
 41
0.73811
 50
0
  1
Ｍ６－１００
  0
LINE
  8
_0-5_受金具
  6
PLINE2
 62
    2
 10
238.50240833333334
 20
116.58766766666645
 11
239.42020833333333
 21
122.09447166666746
  0
LINE
  8
_0-5_受金具
  6
PLINE2
 62
    2
 10
239.51620233333333
 20
116.58766766666645
 11
240.40660233333324
 21
121.93007166666735
  0
LINE
  8
_0-5_受金具
  6
PLINE2
 62
    2
 10
227.42688833333324
 20
116.58766766666645
 11
226.53648633333333
 21
121.93007166666735
  0
LINE
  8
_0-5_受金具
  6
PLINE2
 62
    2
 10
228.44068233333334
 20
116.58766766666645
 11
227.52288033333332
 21
122.09447166666746
  0
LINE
  8
_0-5_受金具
  6
PLINE2
 62
    2
 10
231.13658633333333
 20
118.4734036666664
 11
231.03191433333322
 21
116.47614366666653
  0
LINE
  8
_0-5_受金具
  6
PLINE2
 62
    2
 10
235.65583433333333
 20
118.4734036666664
 11
235.76050633333324
 21
116.47614366666653
  0
LINE
  8
_0-5_受金具
  6
PLINE2
 62
    2
 10
231.27379633333322
 20
92.430531666666411
 11
232.89621033333333
 21
123.38804766666635
  0
LINE
  8
_0-5_受金具
  6
PLINE2
 62
    2
 10
235.51862633333334
 20
92.430531666666411
 11
233.89621033333324
 21
123.38804766666635
  0
LINE
  8
_0-3_躯体
  6
CONTINUOUS
 62
    2
 10
286.07357433333334
 20
92.256553666667514
 11
248.94208033333334
 21
129.38804766666635
  0
LINE
  8
_0-3_躯体
  6
CONTINUOUS
 62
    2
 10
284.28042233333321
 20
91.221275666667452
 11
246.11365233333322
 21
129.38804766666635
  0
LINE
  8
_0-3_躯体
  6
CONTINUOUS
 62
    2
 10
282.55098433333342
 20
90.222783666666373
 11
243.28522433333333
 21
129.38804766666635
  0
LINE
  8
_0-3_躯体
  6
CONTINUOUS
 62
    3
 10
298.19621033333334
 20
90.017955666667376
 11
298.19621033333334
 21
181.49241766666648
  0
LINE
  8
_0-2_寸法
  6
PLINE3
 62
    2
 10
233.39621033333333
 20
141.20773566666639
 11
233.39621033333333
 21
87.941277666666338
  0
LINE
  8
_0-3_躯体
  6
CONTINUOUS
 62
    3
 10
261.19621033333334
 20
77.893599666666432
 11
287.26800833333334
 21
92.946159666666517
  0
LINE
  8
_0-3_躯体
  6
CONTINUOUS
 62
    2
 10
262.19621033333323
 20
76.16154966666636
 11
292.85058433333336
 21
93.859859666666352
  0
LINE
  8
_0-3_躯体
  6
CONTINUOUS
 62
    2
 10
263.19621033333334
 20
74.429499666666516
 11
295.26800833333334
 21
92.946159666666517
  0
LINE
  8
_0-3_躯体
  6
CONTINUOUS
 62
    2
 10
264.19621033333323
 20
72.697447666667358
 11
296.97621233333325
 21
91.622989666666399
  0
LINE
  8
_0-3_躯体
  6
CONTINUOUS
 62
    3
 10
265.19621033333334
 20
70.965397666666377
 11
298.19621033333334
 21
90.017955666667376
  0
LINE
  8
_0-3_躯体
  6
CONTINUOUS
 62
    2
 10
264.19621033333323
 20
47.414707666666345
 11
323.19621033333334
 21
106.41470766666635
  0
LINE
  8
_0-3_躯体
  6
CONTINUOUS
 62
    2
 10
264.19621033333323
 20
44.586281666667446
 11
323.19621033333334
 21
103.58628166666654
  0
LINE
  8
_0-3_躯体
  6
CONTINUOUS
 62
    2
 10
264.19621033333323
 20
41.757853666666506
 11
323.19621033333334
 21
100.75785366666742
  0
LINE
  8
_0-3_躯体
  6
CONTINUOUS
 62
    3
 10
256.19621033333334
 20
20.845171666667511
 11
256.19621033333334
 21
69.233345666667446
  0
LINE
  8
_0-3_躯体
  6
CONTINUOUS
 62
    2
 10
258.19621033333334
 20
20.845171666667511
 11
258.19621033333334
 21
69.233345666667446
  0
LINE
  8
_0-3_躯体
  6
CONTINUOUS
 62
    2
 10
260.19621033333334
 20
20.845171666667511
 11
260.19621033333334
 21
69.233345666667446
  0
LINE
  8
_0-3_躯体
  6
CONTINUOUS
 62
    2
 10
262.19621033333323
 20
20.845171666667511
 11
262.19621033333323
 21
69.233345666667446
  0
LINE
  8
_0-3_躯体
  6
CONTINUOUS
 62
    3
 10
264.19621033333323
 20
20.845171666667511
 11
264.19621033333323
 21
69.233345666667446
  0
LINE
  8
_0-5_受金具
  6
PLINE2
 62
    2
 10
236.44087433333334
 20
103.49395966666634
 11
236.54554633333322
 21
101.49670166666647
  0
LINE
  8
_0-5_受金具
  6
PLINE2
 62
    2
 10
230.35154833333323
 20
103.49395966666634
 11
230.24687633333323
 21
101.49670166666647
  0
LINE
  8
_0-5_受金具
  6
PLINE2
 62
    2
 10
233.33690433333334
 20
95.447353666667368
 11
235.27060633333323
 21
97.163023666666504
  0
LINE
  8
_0-5_受金具
  6
PLINE2
 62
    2
 10
227.98793633333324
 20
96.608225666666385
 11
227.88326433333324
 21
94.610965666666516
  0
LINE
  8
_0-5_受金具
  6
PLINE2
 62
    2
 10
227.88326433333324
 20
94.610965666666516
 11
229.77585233333335
 21
92.509035666667387
  0
LINE
  8
_0-5_受金具
  6
PLINE2
 62
    2
 10
231.37846833333333
 20
94.427789666666513
 11
227.88326433333324
 21
94.610965666666516
  0
LINE
  8
_0-5_受金具
  6
PLINE2
 62
    2
 10
229.77585233333335
 20
92.509035666667387
 11
231.27379633333322
 21
92.430531666666411
  0
LINE
  8
_0-5_受金具
  6
PLINE2
 62
    2
 10
230.24687633333323
 20
101.49670166666647
 11
228.24961633333334
 21
101.6013736666664
  0
LINE
  8
_0-5_受金具
  6
PLINE2
 62
    2
 10
228.14494433333334
 20
99.604113666667445
 11
230.08986833333333
 21
98.500811666666323
  0
LINE
  8
_0-5_受金具
  6
PLINE2
 62
    2
 10
229.98519633333322
 20
96.503553666666448
 11
227.98793633333324
 21
96.608225666666385
  0
LINE
  8
_0-5_受金具
  6
PLINE2
 62
    2
 10
228.24961633333334
 20
101.6013736666664
 11
228.14494433333334
 21
99.604113666667445
  0
LINE
  8
_0-5_受金具
  6
PLINE2
 62
    2
 10
230.08986833333333
 20
98.500811666666323
 11
229.98519633333322
 21
96.503553666666448
  0
LINE
  8
_0-5_受金具
  6
PLINE2
 62
    2
 10
231.52676633333334
 20
97.25749166666742
 11
233.39621033333333
 21
95.388047666666353
  0
LINE
  8
_0-5_受金具
  6
PLINE2
 62
    2
 10
238.80448633333333
 20
96.608225666666385
 11
238.90915633333324
 21
94.610965666666516
  0
LINE
  8
_0-5_受金具
  6
PLINE2
 62
    2
 10
235.41395433333324
 20
94.427789666666513
 11
238.90915633333324
 21
94.610965666666516
  0
LINE
  8
_0-5_受金具
  6
PLINE2
 62
    2
 10
237.01657033333322
 20
92.509035666667387
 11
235.51862633333334
 21
92.430531666666411
  0
LINE
  8
_0-5_受金具
  6
PLINE2
 62
    2
 10
238.90915633333324
 20
94.610965666666516
 11
237.01657033333322
 21
92.509035666667387
  0
LINE
  8
_0-5_受金具
  6
PLINE2
 62
    2
 10
238.64747833333334
 20
99.604113666667445
 11
236.70255433333324
 21
98.500811666666323
  0
LINE
  8
_0-5_受金具
  6
PLINE2
 62
    2
 10
236.70255433333324
 20
98.500811666666323
 11
236.80722633333335
 21
96.503553666666448
  0
LINE
  8
_0-5_受金具
  6
PLINE2
 62
    2
 10
236.80722633333335
 20
96.503553666666448
 11
238.80448633333333
 21
96.608225666666385
  0
LINE
  8
_0-5_受金具
  6
PLINE2
 62
    2
 10
236.54554633333322
 20
101.49670166666647
 11
238.54280633333335
 21
101.6013736666664
  0
LINE
  8
_0-5_受金具
  6
PLINE2
 62
    2
 10
238.54280633333335
 20
101.6013736666664
 11
238.64747833333334
 21
99.604113666667445
  0
LINE
  8
_0-5_受金具
  6
PLINE2
 62
    2
 10
228.66830433333323
 20
109.59040966666635
 11
230.61322833333332
 21
108.48710766666636
  0
LINE
  8
_0-5_受金具
  6
PLINE2
 62
    2
 10
228.51129633333323
 20
106.59452166666642
 11
228.40662433333324
 21
104.59726166666633
  0
LINE
  8
_0-5_受金具
  6
PLINE2
 62
    2
 10
228.40662433333324
 20
104.59726166666633
 11
230.35154833333323
 21
103.49395966666634
  0
LINE
  8
_0-5_受金具
  6
PLINE2
 62
    2
 10
230.61322833333332
 20
108.48710766666636
 11
230.50855633333325
 21
106.4898496666674
  0
LINE
  8
_0-5_受金具
  6
PLINE2
 62
    2
 10
230.50855633333325
 20
106.4898496666674
 11
228.51129633333323
 21
106.59452166666642
  0
LINE
  8
_0-5_受金具
  6
PLINE2
 62
    2
 10
228.92364433333324
 20
111.58766766666645
 11
227.42688833333324
 21
116.58766766666645
  0
LINE
  8
_0-5_受金具
  6
PLINE2
 62
    2
 10
230.87490633333323
 20
113.48025566666638
 11
230.77023633333334
 21
111.48299566666651
  0
LINE
  8
_0-5_受金具
  6
PLINE2
 62
    2
 10
229.98636233333323
 20
111.53197366666745
 11
228.44068233333334
 21
116.58766766666645
  0
LINE
  8
_0-5_受金具
  6
PLINE2
 62
    2
 10
228.77297633333333
 20
111.58766766666645
 11
228.66830433333323
 21
109.59040966666635
  0
LINE
  8
_0-5_受金具
  6
PLINE2
 62
    2
 10
230.77023633333334
 20
111.48299566666651
 11
228.77297633333333
 21
111.58766766666645
  0
LINE
  8
_0-5_受金具
  6
PLINE2
 62
    2
 10
231.03191433333322
 20
116.47614366666653
 11
229.03465633333334
 21
116.58081566666647
  0
LINE
  8
_0-5_受金具
  6
PLINE2
 62
    2
 10
229.03465633333334
 20
116.58081566666647
 11
228.92998433333332
 21
114.58355766666637
  0
LINE
  8
_0-5_受金具
  6
PLINE2
 62
    2
 10
228.92998433333332
 20
114.58355766666637
 11
230.87490633333323
 21
113.48025566666638
  0
LINE
  8
_0-5_受金具
  6
PLINE2
 62
    2
 10
238.12411833333334
 20
109.59040966666635
 11
236.17919433333324
 21
108.48710766666636
  0
LINE
  8
_0-5_受金具
  6
PLINE2
 62
    2
 10
238.28112633333333
 20
106.59452166666642
 11
238.38579833333324
 21
104.59726166666633
  0
LINE
  8
_0-5_受金具
  6
PLINE2
 62
    2
 10
238.38579833333324
 20
104.59726166666633
 11
236.44087433333334
 21
103.49395966666634
  0
LINE
  8
_0-5_受金具
  6
PLINE2
 62
    2
 10
236.17919433333324
 20
108.48710766666636
 11
236.28386633333332
 21
106.4898496666674
  0
LINE
  8
_0-5_受金具
  6
PLINE2
 62
    2
 10
236.28386633333332
 20
106.4898496666674
 11
238.28112633333333
 21
106.59452166666642
  0
LINE
  8
_0-5_受金具
  6
PLINE2
 62
    2
 10
238.01944633333324
 20
111.58766766666645
 11
239.51620233333333
 21
116.58766766666645
  0
LINE
  8
_0-5_受金具
  6
PLINE2
 62
    2
 10
236.95672633333322
 20
111.53197366666745
 11
238.50240833333334
 21
116.58766766666645
  0
LINE
  8
_0-5_受金具
  6
PLINE2
 62
    2
 10
235.91751433333334
 20
113.48025566666638
 11
236.02218633333322
 21
111.48299566666651
  0
LINE
  8
_0-5_受金具
  6
PLINE2
 62
    2
 10
236.02218633333322
 20
111.48299566666651
 11
238.01944633333324
 21
111.58766766666645
  0
LINE
  8
_0-5_受金具
  6
PLINE2
 62
    2
 10
238.01944633333324
 20
111.58766766666645
 11
238.12411833333334
 21
109.59040966666635
  0
LINE
  8
_0-5_受金具
  6
PLINE2
 62
    2
 10
235.76050633333324
 20
116.47614366666653
 11
237.75776633333334
 21
116.58081566666647
  0
LINE
  8
_0-5_受金具
  6
PLINE2
 62
    2
 10
237.86243833333324
 20
114.58355766666637
 11
235.91751433333334
 21
113.48025566666638
  0
LINE
  8
_0-5_受金具
  6
PLINE2
 62
    2
 10
237.75776633333334
 20
116.58081566666647
 11
237.86243833333324
 21
114.58355766666637
  0
ARC
  8
_0-3_躯体
  6
CONTINUOUS
 62
    2
 10
266.1962103333326
 20
69.233345666667446
 40
7.9999999999991731
 50
119.99999999999511
 51
180.00000000000321
  0
ARC
  8
_0-3_躯体
  6
CONTINUOUS
 62
    2
 10
266.19621033333323
 20
69.233345666667446
 40
5.9999999999999991
 50
119.9999999999977
 51
180
  0
ARC
  8
_0-3_躯体
  6
CONTINUOUS
 62
    3
 10
266.19621033333362
 20
69.233345666667446
 40
10.000000000000149
 50
119.99999999999841
 51
180.00000000000003
  0
ARC
  8
_0-3_躯体
  6
CONTINUOUS
 62
    3
 10
266.19621033333323
 20
69.233345666667446
 40
2
 50
119.9999999999973
 51
180
  0
ARC
  8
_0-3_躯体
  6
CONTINUOUS
 62
    2
 10
266.19621033333402
 20
69.233345666667446
 40
4.0000000000008233
 50
120.00000000000291
 51
179.99999999999343
  0
LINE
  8
_0-2_寸法
  6
PLINE2
 62
    3
 10
298.19621033333334
 20
20.845171666667511
 11
298.19621033333334
 21
90.017955666667376
  0
ARC
  8
_0-3_躯体
  6
CONTINUOUS
 62
    3
 10
291.26800833333334
 20
86.017955666666467
 40
7.999999999999952
 50
29.999997999998691
 51
119.99999999999788
  0
LINE
  8
_0-5_受金具
  6
CONTINUOUS
 62
    2
 10
274.09097833333334
 20
168.35774766666736
 11
287.22564833333325
 21
181.49241766666648
  0
LINE
  8
_0-3_躯体
  6
CONTINUOUS
 62
    3
 10
298.19621033333334
 20
181.49241766666648
 11
273.19621033333334
 21
181.49241766666648
  0
ARC
  8
_0-4_笠木
  6
CONTINUOUS
 62
    3
 10
286.68593433333342
 20
156.19016766666641
 40
0.5
 50
270.01352899999989
 51
0
  0
LINE
  8
_0-4_笠木
  6
CONTINUOUS
 62
    3
 10
272.88593433333324
 20
165.69028366666635
 11
289.08593833333322
 21
165.69028366666635
  0
LINE
  8
_0-5_受金具
  6
CONTINUOUS
 62
    2
 10
286.27275633333335
 20
165.69028366666635
 11
288.19621033333334
 21
167.61373966666633
  0
LINE
  8
_0-5_受金具
  6
CONTINUOUS
 62
    2
 10
284.15143633333321
 20
165.69028366666635
 11
288.19621033333334
 21
169.73505966666744
  0
LINE
  8
_0-5_受金具
  6
CONTINUOUS
 62
    2
 10
282.03011433333336
 20
165.69028366666635
 11
288.19621033333334
 21
171.8563796666665
  0
LINE
  8
_0-5_受金具
  6
CONTINUOUS
 62
    2
 10
279.90879433333322
 20
165.69028366666635
 11
288.19621033333334
 21
173.97769966666738
  0
LINE
  8
_0-5_受金具
  6
CONTINUOUS
 62
    2
 10
277.78747433333325
 20
165.69028366666635
 11
288.19621033333334
 21
176.09901966666735
  0
LINE
  8
_0-5_受金具
  6
CONTINUOUS
 62
    2
 10
275.66615433333334
 20
165.69028366666635
 11
288.19621033333334
 21
178.2203396666664
  0
LINE
  8
_0-5_受金具
  6
CONTINUOUS
 62
    2
 10
273.54483433333337
 20
165.69028366666635
 11
288.19621033333334
 21
180.34166166666637
  0
LINE
  8
_0-3_躯体
  6
CONTINUOUS
 62
    2
 10
295.48333833333322
 20
212.03922566666597
 11
273.19621033333334
 21
189.7520976666674
  0
LINE
  8
_0-3_躯体
  6
CONTINUOUS
 62
    2
 10
298.31176633333325
 20
212.03922566666597
 11
273.19621033333334
 21
186.92367166666747
  0
LINE
  8
_0-3_躯体
  6
CONTINUOUS
 62
    2
 10
301.14019433333334
 20
212.03922566666597
 11
273.19621033333334
 21
184.09524366666642
  0
LINE
  8
_0-5_受金具
  6
CONTINUOUS
 62
    2
 10
274.54772233333324
 20
170.9358116666665
 11
285.10432833333334
 21
181.49241766666648
  0
LINE
  8
_0-5_受金具
  6
CONTINUOUS
 62
    2
 10
274.69432433333327
 20
173.2037356666674
 11
282.98300833333326
 21
181.49241766666648
  0
ARC
  8
_0-5_受金具
  6
CONTINUOUS
 62
    3
 10
252.61287833333324
 20
173.49241766666637
 40
22.083334000000001
 50
339.31045000000358
 51
21.239310999996516
  0
LINE
  8
_0-5_受金具
  6
CONTINUOUS
 62
    3
 10
233.89621033333324
 20
134.88804766666635
 11
279.39621033333333
 21
134.88804766666635
  0
LINE
  8
_0-5_受金具
  6
CONTINUOUS
 62
    3
 10
220.89621033333333
 20
136.38804766666635
 11
245.89621033333333
 21
136.38804766666635
  0
LINE
  8
_0-5_受金具
  6
CONTINUOUS
 62
    3
 10
204.89621033333324
 20
147.41650966666634
 11
204.89621033333324
 21
144.18804766666653
  0
ARC
  8
_0-5_受金具
  6
CONTINUOUS
 62
    3
 10
204.89621033333324
 20
143.68804766666744
 40
0.5
 50
0
 51
90
  0
LINE
  8
_0-5_受金具
  6
CONTINUOUS
 62
    3
 10
205.39621033333333
 20
142.68804766666653
 11
205.39621033333333
 21
143.68804766666744
  0
ARC
  8
_0-5_受金具
  6
CONTINUOUS
 62
    3
 10
204.89621033333324
 20
142.68804766666653
 40
0.5
 50
270
 51
0
  0
LINE
  8
_0-5_受金具
  6
CONTINUOUS
 62
    3
 10
220.89621033333333
 20
135.38804766666635
 11
220.89621033333333
 21
136.38804766666635
  0
LINE
  8
_0-5_受金具
  6
PLINE2
 62
    2
 10
238.39621033333324
 20
131.38804766666635
 11
237.39621033333333
 21
126.38804766666635
  0
LINE
  8
_0-5_受金具
  6
PLINE2
 62
    2
 10
228.39621033333324
 20
131.38804766666635
 11
229.39621033333333
 21
126.38804766666635
  0
LINE
  8
_0-5_受金具
  6
PLINE2
 62
    2
 10
232.39621033333324
 20
131.38804766666635
 11
233.39621033333333
 21
126.38804766666635
  0
LINE
  8
_0-5_受金具
  6
PLINE2
 62
    2
 10
234.39621033333324
 20
131.38804766666635
 11
233.39621033333333
 21
126.38804766666635
  0
LINE
  8
_0-5_受金具
  6
PLINE2
 62
    2
 10
233.39621033333333
 20
126.38804766666635
 11
233.39621033333333
 21
131.38804766666635
  0
LINE
  8
_0-5_受金具
  6
PLINE2
 62
    2
 10
229.39621033333333
 20
131.38804766666635
 11
229.39621033333333
 21
123.38804766666635
  0
LINE
  8
_0-5_受金具
  6
PLINE2
 62
    2
 10
237.39621033333333
 20
131.38804766666635
 11
237.39621033333333
 21
123.38804766666635
  0
LINE
  8
_0-2_寸法
  6
PLINE12
 62
    2
 10
233.39621033333333
 20
139.80212966666636
 11
233.39621033333333
 21
125.02160766666634
  0
LINE
  8
_0-5_受金具
  6
PLINE2
 62
    2
 10
233.89621033333324
 20
123.38804766666635
 11
233.39621033333333
 21
123.38804766666635
  0
ARC
  8
_0-5_受金具
  6
PLINE2
 62
    2
 10
227.02968433333334
 20
122.01227166666649
 40
0.5
 50
9.4623219999936126
 51
189.46232199999349
  0
LINE
  8
_0-5_受金具
  6
PLINE2
 62
    2
 10
229.39621033333333
 20
119.38804766666635
 11
229.39621033333333
 21
123.38804766666635
  0
LINE
  8
_0-5_受金具
  6
PLINE2
 62
    2
 10
229.39621033333333
 20
119.38804766666635
 11
231.13658633333333
 21
118.4734036666664
  0
LINE
  8
_0-5_受金具
  6
PLINE2
 62
    2
 10
232.89621033333333
 20
123.38804766666635
 11
233.39621033333333
 21
123.38804766666635
  0
LINE
  8
_0-5_受金具
  6
PLINE2
 62
    2
 10
237.39621033333333
 20
119.38804766666635
 11
237.39621033333333
 21
123.38804766666635
  0
LINE
  8
_0-5_受金具
  6
PLINE2
 62
    2
 10
237.39621033333333
 20
119.38804766666635
 11
235.65583433333333
 21
118.4734036666664
  0
ARC
  8
_0-5_受金具
  6
PLINE2
 62
    2
 10
239.91340433333335
 20
122.01227166666649
 40
0.5
 50
350.53767799999338
 51
170.53767800000631
  0
ARC
  8
_0-5_受金具
  6
CONTINUOUS
 62
    3
 10
233.39621033333333
 20
134.38804766666635
 40
5.4000000000000004
 50
51.317813000002303
 51
90
  0
LINE
  8
_0-5_受金具
  6
CONTINUOUS
 62
    3
 10
233.39621033333333
 20
134.38804766666635
 11
233.89621033333324
 21
134.88804766666635
  0
LINE
  8
_0-5_受金具
  6
PLINE2
 62
    2
 10
238.39621033333324
 20
131.38804766666635
 11
233.39621033333333
 21
131.38804766666635
  0
ARC
  8
_0-5_受金具
  6
CONTINUOUS
 62
    3
 10
231.89344833333323
 20
136.2593376666664
 40
3
 50
128.61463799999743
 51
177.5410740000037
  0
LINE
  8
_0-5_受金具
  6
CONTINUOUS
 62
    3
 10
232.89621033333333
 20
134.88804766666635
 11
233.39621033333333
 21
134.38804766666635
  0
LINE
  8
_0-5_受金具
  6
PLINE2
 62
    2
 10
228.39621033333324
 20
131.38804766666635
 11
233.39621033333333
 21
131.38804766666635
  0
ARC
  8
_0-5_受金具
  6
CONTINUOUS
 62
    3
 10
233.39621033333333
 20
134.38804766666635
 40
5.4000000000000004
 50
90
 51
128.85106200000371
  0
ARC
  8
_0-5_受金具
  6
CONTINUOUS
 62
    3
 10
234.89897433333334
 20
136.2593376666664
 40
3
 50
2.4589259999962492
 51
51.385362000002537
  0
LINE
  8
_0-5_受金具
  6
CONTINUOUS
 62
    3
 10
280.89621033333333
 20
163.38804766666635
 11
280.89621033333333
 21
136.38804766666635
  0
LINE
  8
_0-5_受金具
  6
CONTINUOUS
 62
    3
 10
283.39621033333333
 20
159.38804766666635
 11
283.39621033333333
 21
131.38804766666635
  0
LINE
  8
_0-5_受金具
  6
CONTINUOUS
 62
    3
 10
245.89621033333333
 20
136.38804766666635
 11
245.89621033333333
 21
135.38804766666635
  0
ARC
  8
_0-5_受金具
  6
CONTINUOUS
 62
    3
 10
279.39621033333333
 20
136.38804766666635
 40
1.5
 50
270
 51
0
  0
LINE
  8
_0-4_笠木
  6
CONTINUOUS
 62
    3
 10
285.88593433333335
 20
164.19028366666635
 11
285.88593433333335
 21
158.69028366666635
  0
LINE
  8
_0-5_受金具
  6
CONTINUOUS
 62
    3
 10
284.05421033333334
 20
162.64915366666651
 11
285.28258633333326
 21
159.66415766666637
  0
LINE
  8
_0-4_笠木
  6
CONTINUOUS
 62
    3
 10
272.88593433333324
 20
157.51454766666643
 11
272.88593433333324
 21
165.69028366666635
  0
LINE
  8
_0-4_笠木
  6
CONTINUOUS
 62
    3
 10
274.38593433333324
 20
164.19028366666635
 11
274.38593433333324
 21
156.89322766666646
  0
LINE
  8
_0-4_笠木
  6
CONTINUOUS
 62
    3
 10
271.04928433333322
 20
155.67789766666647
 11
272.88593433333324
 21
157.51454766666643
  0
LINE
  8
_0-4_笠木
  6
CONTINUOUS
 62
    3
 10
271.73253433333332
 20
154.23982766666745
 11
274.38593433333324
 21
156.89322766666646
  0
LINE
  8
_0-4_笠木
  6
CONTINUOUS
 62
    3
 10
284.09322633333335
 20
158.3793436666665
 11
285.73773633333326
 21
155.91258166666739
  0
ARC
  8
_0-4_笠木
  6
CONTINUOUS
 62
    3
 10
286.15376033333325
 20
156.18993166666633
 40
0.5
 50
213.69006799999954
 51
270.00000000000006
  0
LINE
  8
_0-4_笠木
  6
CONTINUOUS
 62
    3
 10
286.15376033333325
 20
155.6899936666664
 11
286.68605233333335
 21
155.69016766666732
  0
ARC
  8
_0-4_笠木
  6
CONTINUOUS
 62
    3
 10
284.25963633333333
 20
158.49028366666653
 40
0.2
 50
90
 51
213.69006799999951
  0
LINE
  8
_0-5_受金具
  6
CONTINUOUS
 62
    3
 10
283.39621033333333
 20
159.38804766666635
 11
285.09763433333336
 21
159.38804766666635
  0
LINE
  8
_0-4_笠木
  6
CONTINUOUS
 62
    3
 10
285.88593433333335
 20
158.69028366666635
 11
284.25963633333333
 21
158.69028366666635
  0
ARC
  8
_0-5_受金具
  6
CONTINUOUS
 62
    3
 10
285.09763433333336
 20
159.5880476666664
 40
0.2
 50
270
 51
22.367984999994558
  0
LINE
  8
_0-4_笠木
  6
CONTINUOUS
 62
    3
 10
274.38593433333324
 20
164.19028366666635
 11
285.88593433333335
 21
164.19028366666635
  0
LINE
  8
_0-5_受金具
  6
CONTINUOUS
 62
    3
 10
281.39621033333333
 20
163.88804766666749
 11
282.20469233333336
 21
163.88804766666749
  0
ARC
  8
_0-5_受金具
  6
CONTINUOUS
 62
    3
 10
281.39621033333333
 20
163.38804766666635
 40
0.5
 50
90
 51
180
  0
ARC
  8
_0-5_受金具
  6
CONTINUOUS
 62
    3
 10
282.20469233333336
 20
161.88804766666635
 40
2
 50
22.367984999994555
 51
90
  0
LINE
  8
_0-3_躯体
  6
CONTINUOUS
 62
    3
 10
273.19621033333334
 20
215.59553966666601
 11
273.19621033333334
 21
181.49241766666648
  0
LINE
  8
_0-5_受金具
  6
CONTINUOUS
 62
    2
 10
274.02444633333334
 20
178.89781766666647
 11
276.61904633333324
 21
181.49241766666648
  0
LINE
  8
_0-5_受金具
  6
CONTINUOUS
 62
    2
 10
274.62564833333334
 20
175.25637966666636
 11
280.86168833333335
 21
181.49241766666648
  0
LINE
  8
_0-5_受金具
  6
CONTINUOUS
 62
    2
 10
274.39217833333333
 20
177.14422966666643
 11
278.74036633333333
 21
181.49241766666648
  0
LINE
  8
_0-5_受金具
  6
CONTINUOUS
 62
    2
 10
273.54242233333321
 20
180.53711566666743
 11
274.49772633333322
 21
181.49241766666648
  0
LINE
  8
_0-5_受金具
  6
CONTINUOUS
 62
    2
 10
288.19621033333334
 20
165.69028366666635
 11
288.19621033333334
 21
181.49241766666648
  0
LINE
  8
_0-5_受金具
  6
CONTINUOUS
 62
    2
 10
288.19621033333334
 20
181.49241766666648
 11
298.19621033333334
 21
165.49241766666637
  0
LINE
  8
_0-4_笠木
  6
CONTINUOUS
 62
    3
 10
287.18593433333325
 20
164.19028366666635
 11
287.18593433333325
 21
156.19016766666641
  0
LINE
  8
_0-5_受金具
  6
CONTINUOUS
 62
    2
 10
291.19621033333323
 20
165.49241766666637
 11
298.19621033333334
 21
165.49241766666637
  0
LINE
  8
_0-4_笠木
  6
CONTINUOUS
 62
    3
 10
289.38593833333334
 20
168.69028366666635
 11
289.38593833333334
 21
165.99028366666744
  0
LINE
  8
_0-4_笠木
  6
CONTINUOUS
 62
    3
 10
291.18593833333335
 20
168.69028366666635
 11
291.18594033333335
 21
164.69028366666635
  0
ARC
  8
_0-4_笠木
  6
CONTINUOUS
 62
    3
 10
289.08593833333322
 20
165.99028366666744
 40
0.2999999999999999
 50
270
 51
0
  0
LINE
  8
_0-4_笠木
  6
CONTINUOUS
 62
    3
 10
287.18593433333325
 20
164.19028366666635
 11
290.68594033333335
 21
164.19028366666635
  0
ARC
  8
_0-4_笠木
  6
CONTINUOUS
 62
    3
 10
290.68594033333335
 20
164.69028366666635
 40
0.5
 50
270
 51
0
  0
LINE
  8
_0-4_笠木
  6
CONTINUOUS
 62
    3
 10
289.38594233333333
 20
168.69028366666635
 11
291.18593833333335
 21
168.69028366666635
  0
INSERT
  2
-001-_D4
  8
_0-2_寸法
 10
20.813531357213833
 20
1205.1112561443924
 41
0.5
 42
0.5
 50
0
  0
INSERT
  2
-002-_D5
  8
_0-2_寸法
 10
20.813531357213833
 20
1205.1112561443924
 41
0.5
 42
0.5
 50
0
  0
INSERT
  2
-003-_D6
  8
_0-2_寸法
 10
20.813531357213833
 20
1205.1112561443924
 41
0.5
 42
0.5
 50
0
  0
INSERT
  2
-004-_D7
  8
_0-2_寸法
 10
20.813531357213833
 20
1205.1112561443924
 41
0.5
 42
0.5
 50
0
  0
INSERT
  2
-005-_D8
  8
_0-2_寸法
 10
20.813531357213833
 20
1205.1112561443924
 41
0.5
 42
0.5
 50
0
  0
INSERT
  2
-006-_D9
  8
_0-2_寸法
 10
20.813531357213833
 20
1205.1112561443924
 41
0.5
 42
0.5
 50
0
  0
INSERT
  2
-007-_D10
  8
_0-2_寸法
 10
20.813531357213833
 20
1205.1112561443924
 41
0.5
 42
0.5
 50
0
  0
INSERT
  2
-008-_D11
  8
_0-2_寸法
 10
20.813531357213833
 20
1205.1112561443924
 41
0.5
 42
0.5
 50
0
  0
INSERT
  2
-009-_D12
  8
_0-2_寸法
 10
20.813531357213833
 20
1205.1112561443924
 41
0.5
 42
0.5
 50
0
  0
INSERT
  2
-010-_D13
  8
_0-2_寸法
 10
20.813531357213833
 20
1205.1112561443924
 41
0.5
 42
0.5
 50
0
  0
LINE
  8
_0-5_受金具
  6
CONTINUOUS
 62
    2
 10
273.27202465536845
 20
165.69028245889854
 11
288.19621033333334
 21
165.69028245889854
  0
LINE
  8
_0-5_受金具
  6
CONTINUOUS
 62
    2
 10
273.19621222554144
 20
181.49241806900545
 11
298.19621033333334
 21
181.49241769939238
  0
LINE
  8
_0-5_受金具
  6
CONTINUOUS
 62
    2
 10
196.23709033333324
 20
146.53292566666642
 11
193.89621033333333
 21
144.19204766666644
  0
LINE
  8
_0-5_受金具
  6
CONTINUOUS
 62
    2
 10
199.39138433333324
 20
146.85479166666642
 11
196.72463833333325
 21
144.18804766666653
  0
LINE
  8
_0-5_受金具
  6
CONTINUOUS
 62
    2
 10
202.54122233333334
 20
147.17620566666642
 11
199.55306633333333
 21
144.18804766666653
  0
LINE
  8
_0-5_受金具
  6
CONTINUOUS
 62
    2
 10
204.89621033333324
 20
146.70276566666644
 11
202.38149233333334
 21
144.18804766666653
  0
LINE
  8
_0-5_受金具
  6
CONTINUOUS
 62
    3
 10
185.79089033333324
 20
131.38804766666635
 11
283.39621033333333
 21
131.38804766666635
  0
LINE
  8
_0-3_躯体
  6
CONTINUOUS
 62
    3
 10
198.19621033333323
 20
131.38804766666635
 11
298.19621033333334
 21
131.38804766666635
  0
LINE
  8
_0-5_受金具
  6
CONTINUOUS
 62
    2
 10
298.19621033333334
 20
165.49241766666637
 11
298.19621033333334
 21
181.49241769939238
  0
ENDSEC
  0
EOF
