  0
SECTION
  2
HEADER
  9
$ACADVER
  1
AC1009
  9
$INSBASE
 10
0
 20
0
 30
0
  9
$EXTMIN
 10
0
 20
0
  9
$EXTMAX
 10
841
 20
594
  9
$LIMMIN
 10
0
 20
0
  9
$LIMMAX
 10
841
 20
594
  9
$LTSCALE
 40
1
  0
ENDSEC
  0
SECTION
  2
TABLES
  0
TABLE
  2
LTYPE
 70
     9
  0
LTYPE
  2
CONTINUOUS
 70
    64
  3
実線
 72
    65
 73
     0
 40
0.0
  0
LTYPE
  2
DASHED1
 70
    64
  3
--  --  --  --  --  --  --  --  
 72
    65
 73
     2
 40
2.5
 49
1.25
 49
-1.25
  0
LTYPE
  2
DASHED2
 70
    64
  3
----    ----    ----    ----    
 72
    65
 73
     2
 40
5.0
 49
2.5
 49
-2.5
  0
LTYPE
  2
DASHED3
 70
    64
  3
------  ------  ------  ------  
 72
    65
 73
     2
 40
5.0
 49
3.75
 49
-1.25
  0
LTYPE
  2
CENTER1
 70
    64
  3
----- - ----- - ----- - ----- - 
 72
    65
 73
     4
 40
10.0
 49
6.25
 49
-1.25
 49
1.25
 49
-1.25
  0
LTYPE
  2
CENTER2
 70
    64
  3
----------  --  ----------  --  
 72
    65
 73
     4
 40
20.0
 49
12.5
 49
-2.5
 49
2.5
 49
-2.5
  0
LTYPE
  2
PHANTOM1
 70
    64
  3
--- - - --- - - --- - - --- - - 
 72
    65
 73
     6
 40
10.0
 49
3.25
 49
-1.25
 49
1.25
 49
-1.25
 49
1.25
 49
-1.25
  0
LTYPE
  2
PHANTOM2
 70
    64
  3
--------  -  -  --------  -  -  
 72
    65
 73
     6
 40
20.0
 49
10.0
 49
-2.5
 49
1.25
 49
-2.5
 49
1.25
 49
-2.5
  0
LTYPE
  2
DOT
 70
    64
  3
-   -   -   -   -   -   -   -   
 72
    65
 73
     2
 40
2.5
 49
0.625
 49
-1.875
  0
LTYPE
  2
DUMMY
 70
    64
  3
ダミー
 72
    65
 73
     0
 40
0.0
  0
LTYPE
  2
RAND1
 70
    64
  3
ランダム線1
 72
    65
 73
     4
 40
10.0
 49
1.0
 49
-2.0
 49
3.0
 49
-4.0
  0
LTYPE
  2
RAND2
 70
    64
  3
ランダム線2
 72
    65
 73
     4
 40
14.0
 49
2.0
 49
-3.0
 49
4.0
 49
-5.0
  0
LTYPE
  2
RAND3
 70
    64
  3
ランダム線3
 72
    65
 73
     4
 40
18.0
 49
3.0
 49
-4.0
 49
5.0
 49
-6.0
  0
LTYPE
  2
RAND4
 70
    64
  3
ランダム線4
 72
    65
 73
     4
 40
22.0
 49
4.0
 49
-5.0
 49
6.0
 49
-7.0
  0
LTYPE
  2
RAND5
 70
    64
  3
ランダム線5
 72
    65
 73
     4
 40
26.0
 49
5.0
 49
-6.0
 49
7.0
 49
-8.0
  0
LTYPE
  2
LONG1
 70
    64
  3
----------  --  ----------  --  
 72
    65
 73
     4
 40
40.0
 49
32.5
 49
-2.5
 49
2.5
 49
-2.5
  0
LTYPE
  2
LONG2
 70
    64
  3
--------  -  -  --------  -  -  
 72
    65
 73
     6
 40
40.0
 49
30.0
 49
-2.5
 49
1.25
 49
-2.5
 49
1.25
 49
-2.5
  0
LTYPE
  2
LONG3
 70
    64
  3
+++++++++++++++..+++++++++++++++
 72
    65
 73
     2
 40
40.0
 49
37.5
 49
-2.5
  0
LTYPE
  2
LONG4
 70
    64
  3
+++++++++++++++..+++++++++++++++
 72
    65
 73
     2
 40
80.0
 49
75.0
 49
-5.0
  0
LTYPE
  2
LONG5
 70
    64
  3
----------  --  ----------  --  
 72
    65
 73
     4
 40
60.0
 49
37.5
 49
-7.5
 49
7.5
 49
-7.5
  0
LTYPE
  2
dashed
 70
   64
  3
-------   -------------   ------
 72
   65
 73
    2
 40
7.5
 49
6
 49
-1.5
  0
LTYPE
  2
dashed_spaced
 70
   64
  3
----        --------        ----
 72
   65
 73
    2
 40
12
 49
6
 49
-6
  0
LTYPE
  2
long_dashed_dotted
 70
   64
  3
------------- --- --------------
 72
   65
 73
    4
 40
15.25
 49
12
 49
-1.5
 49
0.25
 49
-1.5
  0
LTYPE
  2
long_dashed_double-dotted
 70
   64
  3
----------- --- --- ------------
 72
   65
 73
    6
 40
17
 49
12
 49
-1.5
 49
0.25
 49
-1.5
 49
0.25
 49
-1.5
  0
LTYPE
  2
long_dashed_triplicate-dotted
 70
   64
  3
--------- --- --- --- ----------
 72
   65
 73
    8
 40
18.75
 49
12
 49
-1.5
 49
0.25
 49
-1.5
 49
0.25
 49
-1.5
 49
0.25
 49
-1.5
  0
LTYPE
  2
dotted
 70
   64
  3
   -       -       -       -    
 72
   65
 73
    2
 40
1.75
 49
0.25
 49
-1.5
  0
LTYPE
  2
chain
 70
   64
  3
-------------- -- --------------
 72
   65
 73
    4
 40
18.5
 49
12
 49
-1.5
 49
3.5
 49
-1.5
  0
LTYPE
  2
chain_double_dash
 70
   64
  3
------------ -- -- -------------
 72
   65
 73
    6
 40
23.5
 49
12
 49
-1.5
 49
3.5
 49
-1.5
 49
3.5
 49
-1.5
  0
LTYPE
  2
dashed_dotted
 70
   64
  3
-----------     -     ----------
 72
   65
 73
    4
 40
9.25
 49
6
 49
-1.5
 49
0.25
 49
-1.5
  0
LTYPE
  2
double-dashed_dotted
 70
   64
  3
------   -----------   -   -----
 72
   65
 73
    6
 40
16.75
 49
6
 49
-1.5
 49
6
 49
-1.5
 49
0.25
 49
-1.5
  0
LTYPE
  2
dashed_double-dotted
 70
   64
  3
---------    -    -    ---------
 72
   65
 73
    6
 40
11
 49
6
 49
-1.5
 49
0.25
 49
-1.5
 49
0.25
 49
-1.5
  0
LTYPE
  2
double-dashed_double-dotted
 70
   64
  3
-----   ---------   -   -   ----
 72
   65
 73
    8
 40
18.5
 49
6
 49
-1.5
 49
6
 49
-1.5
 49
0.25
 49
-1.5
 49
0.25
 49
-1.5
  0
LTYPE
  2
dashed_triplicate-dotted
 70
   64
  3
-------    -    -    -    ------
 72
   65
 73
    8
 40
12.75
 49
6
 49
-1.5
 49
0.25
 49
-1.5
 49
0.25
 49
-1.5
 49
0.25
 49
-1.5
  0
LTYPE
  2
double-dashed_triplicate-dotted
 70
   64
  3
-----  ---------  -  -  -  -----
 72
   65
 73
   10
 40
20.25
 49
6
 49
-1.5
 49
6
 49
-1.5
 49
0.25
 49
-1.5
 49
0.25
 49
-1.5
 49
0.25
 49
-1.5
  0
LTYPE
  2
undefined
 70
   64
  3
--------------------------------
 72
   65
 73
    0
 40
0
  0
LTYPE
  2
PLINE2
 70
   64
  3
------     -----------     -----
 72
   65
 73
    2
 40
3
 49
2.1000000000000001
 49
-0.9
  0
LTYPE
  2
PLINE3
 70
   64
  3
------------   ---   -----------
 72
   65
 73
    4
 40
10
 49
7
 49
-1
 49
1
 49
-1
  0
LTYPE
  2
PLINE4
 70
   64
  3
---------   ---   ---   --------
 72
   65
 73
    6
 40
10
 49
5
 49
-1
 49
1
 49
-1
 49
1
 49
-1
  0
LTYPE
  2
PLINE5
 70
   64
  3
------     -----------     -----
 72
   65
 73
    2
 40
5
 49
3.5
 49
-1.5
  0
LTYPE
  2
PLINE6
 70
   64
  3
------------   ---   -----------
 72
   65
 73
    4
 40
15
 49
10.5
 49
-1.5
 49
1.5
 49
-1.5
  0
LTYPE
  2
PLINE7
 70
   64
  3
---------   ---   ---   --------
 72
   65
 73
    6
 40
15
 49
7.5
 49
-1.5
 49
1.5
 49
-1.5
 49
1.5
 49
-1.5
  0
LTYPE
  2
PLINE8
 70
   64
  3
------     -----------     -----
 72
   65
 73
    2
 40
7
 49
4.9000000000000004
 49
-2.1000000000000001
  0
LTYPE
  2
PLINE9
 70
   64
  3
------------   ---   -----------
 72
   65
 73
    4
 40
20
 49
14
 49
-2
 49
2
 49
-2
  0
LTYPE
  2
PLINE10
 70
   64
  3
---------   ---   ---   --------
 72
   65
 73
    6
 40
20
 49
10
 49
-2
 49
2
 49
-2
 49
2
 49
-2
  0
LTYPE
  2
PLINE11
 70
   64
  3
------     -----------     -----
 72
   65
 73
    2
 40
9
 49
6.2999999999999989
 49
-2.7000000000000002
  0
LTYPE
  2
PLINE12
 70
   64
  3
------------   ---   -----------
 72
   65
 73
    4
 40
25
 49
17.5
 49
-2.5
 49
2.5
 49
-2.5
  0
LTYPE
  2
PLINE13
 70
   64
  3
---------   ---   ---   --------
 72
   65
 73
    6
 40
25
 49
12.5
 49
-2.5
 49
2.5
 49
-2.5
 49
2.5
 49
-2.5
  0
LTYPE
  2
PLINE14
 70
   64
  3
------     -----------     -----
 72
   65
 73
    2
 40
11
 49
7.7000000000000002
 49
-3.2999999999999989
  0
LTYPE
  2
PLINE15
 70
   64
  3
------------   ---   -----------
 72
   65
 73
    4
 40
30
 49
21
 49
-3
 49
3
 49
-3
  0
LTYPE
  2
PLINE16
 70
   64
  3
---------   ---   ---   --------
 72
   65
 73
    6
 40
30
 49
15
 49
-3
 49
3
 49
-3
 49
3
 49
-3
  0
ENDTAB
  0
TABLE
  2
STYLE
  5
3
100
AcDbSymbolTable
 70
     1
  0
STYLE
  5
10
100
AcDbSymbolTableRecord
100
AcDbTextStyleTableRecord
  2
STANDARD
 70
     0
 40
0.0
 41
1.0
 50
0.0
 71
     0
 42
0.2
  3
txt
  4
bigfont.shx
  0
STYLE
  5
26
100
AcDbSymbolTableRecord
100
AcDbTextStyleTableRecord
  2
TATEGAKI
 70
    68
 40
0.0
 41
1.0
 50
0.0
 71
     0
 42
1.0
  3
txt
  4
bigfont.shx
  0
ENDTAB
  0
TABLE
  2
LAYER
 70
    5
  0
LAYER
  2
_0-2_寸法
 70
   64
 62
    7
  6
CONTINUOUS
  0
LAYER
  2
_0-3_躯体
 70
   64
 62
    7
  6
CONTINUOUS
  0
LAYER
  2
_0-4_笠木
 70
   64
 62
    7
  6
CONTINUOUS
  0
LAYER
  2
_0-5_受金具
 70
   64
 62
    7
  6
CONTINUOUS
  0
LAYER
  2
ADD_LINE
 70
   64
 62
    7
  6
CONTINUOUS
  0
ENDTAB
  0
ENDSEC
  0
SECTION
  2
BLOCKS
  0
BLOCK
  2
-000-_Dot
 70
   64
 10
0
 20
0
 30
0
  0
CIRCLE
  8
_0-0_0
  6
CONTINUOUS
 62
    7
 10
0
 20
0
 40
1.25
  0
LINE
  8
_0-0_0
  6
CONTINUOUS
 62
    7
 10
1.25
 20
0
 11
-1.25
 21
0
  0
LINE
  8
_0-0_0
  6
CONTINUOUS
 62
    7
 10
-2.5
 20
0
 11
-5
 21
0
  0
ENDBLK
  0
BLOCK
  2
-001-_D28
 70
   64
 10
0
 20
0
 30
0
  0
LINE
  8
_0-2_寸法
  6
CONTINUOUS
 62
    4
 10
8353.9028000487851
 20
3461.9792108660145
 11
8493.2701792240841
 21
3461.9792108660145
  0
LINE
  8
_0-2_寸法
  6
CONTINUOUS
 62
    4
 10
8353.9028000487851
 20
3386.9792108660145
 11
8493.2701792240841
 21
3386.9792108660145
  0
LINE
  8
_0-2_寸法
  6
CONTINUOUS
 62
    4
 10
8493.2701792240841
 20
3456.9792108660145
 11
8493.2701792240841
 21
3391.9792108660145
  0
INSERT
  2
-000-_Dot
  8
_0-2_寸法
 10
8493.2701792240841
 20
3461.9792108660145
 41
1
 42
1
 50
90
  0
INSERT
  2
-000-_Dot
  8
_0-2_寸法
 10
8493.2701792240841
 20
3386.9792108660145
 41
1
 42
1
 50
270
  0
TEXT
  8
_0-2_寸法
 62
    7
 10
8488.2701792240841
 20
3410.9167108660158
 40
25
 41
1
 50
90
  1
15
  0
POINT
  8
_0-1_Defpoints
 62
    7
 10
8353.9028000487851
 20
3461.9792108660145
  0
POINT
  8
_0-1_Defpoints
 62
    7
 10
8353.9028000487851
 20
3386.9792108660145
  0
POINT
  8
_0-1_Defpoints
 62
    7
 10
8493.2701792240841
 20
3386.9792108660145
  0
ENDBLK
  0
BLOCK
  2
-002-_D29
 70
   64
 10
0
 20
0
 30
0
  0
LINE
  8
_0-2_寸法
  6
CONTINUOUS
 62
    4
 10
8353.9028000487851
 20
3386.9792108660145
 11
8493.2701792240841
 21
3386.9792108660145
  0
LINE
  8
_0-2_寸法
  6
CONTINUOUS
 62
    4
 10
8353.9028000487851
 20
3116.9792108660149
 11
8493.2701792240841
 21
3116.9792108660149
  0
LINE
  8
_0-2_寸法
  6
CONTINUOUS
 62
    4
 10
8493.2701792240841
 20
3381.9792108660145
 11
8493.2701792240841
 21
3121.9792108660149
  0
INSERT
  2
-000-_Dot
  8
_0-2_寸法
 10
8493.2701792240841
 20
3386.9792108660145
 41
1
 42
1
 50
90
  0
INSERT
  2
-000-_Dot
  8
_0-2_寸法
 10
8493.2701792240841
 20
3116.9792108660149
 41
1
 42
1
 50
270
  0
TEXT
  8
_0-2_寸法
 62
    7
 10
8488.2701792240841
 20
3238.4167108660163
 40
25
 41
1
 50
90
  1
54
  0
POINT
  8
_0-1_Defpoints
 62
    7
 10
8353.9028000487851
 20
3386.9792108660145
  0
POINT
  8
_0-1_Defpoints
 62
    7
 10
8353.9028000487851
 20
3116.9792108660149
  0
POINT
  8
_0-1_Defpoints
 62
    7
 10
8493.2701792240841
 20
3116.9792108660149
  0
ENDBLK
  0
BLOCK
  2
-003-_D30
 70
   64
 10
0
 20
0
 30
0
  0
LINE
  8
_0-2_寸法
  6
CONTINUOUS
 62
    4
 10
8353.9028000487851
 20
3116.9792108660149
 11
8493.2701792240841
 21
3116.9792108660149
  0
LINE
  8
_0-2_寸法
  6
CONTINUOUS
 62
    4
 10
8353.9028000487851
 20
2684.7342108660146
 11
8493.2701792240841
 21
2684.7342108660146
  0
LINE
  8
_0-2_寸法
  6
CONTINUOUS
 62
    4
 10
8493.2701792240841
 20
3111.9792108660149
 11
8493.2701792240841
 21
2689.7342108660141
  0
INSERT
  2
-000-_Dot
  8
_0-2_寸法
 10
8493.2701792240841
 20
3116.9792108660149
 41
1
 42
1
 50
90
  0
INSERT
  2
-000-_Dot
  8
_0-2_寸法
 10
8493.2701792240841
 20
2684.7342108660146
 41
1
 42
1
 50
270
  0
TEXT
  8
_0-2_寸法
 62
    7
 10
8488.2701792240841
 20
2887.2942108660159
 40
25
 41
1
 50
90
  1
86
  0
POINT
  8
_0-1_Defpoints
 62
    7
 10
8353.9028000487851
 20
3116.9792108660149
  0
POINT
  8
_0-1_Defpoints
 62
    7
 10
8353.9028000487851
 20
2684.7342108660146
  0
POINT
  8
_0-1_Defpoints
 62
    7
 10
8493.2701792240841
 20
2684.7342108660146
  0
ENDBLK
  0
BLOCK
  2
-004-_D31
 70
   64
 10
0
 20
0
 30
0
  0
LINE
  8
_0-2_寸法
  6
CONTINUOUS
 62
    4
 10
8000.0251792240897
 20
2661.0841710913546
 11
8000.0251792240897
 21
2587.7592108660147
  0
LINE
  8
_0-2_寸法
  6
CONTINUOUS
 62
    4
 10
8031.0251792240852
 20
2661.0841710913546
 11
8031.0251792240852
 21
2587.7592108660147
  0
LINE
  8
_0-2_寸法
  6
CONTINUOUS
 62
    4
 10
7995.0251792240852
 20
2587.7592108660147
 11
7990.0251792240897
 21
2587.7592108660147
  0
LINE
  8
_0-2_寸法
  6
CONTINUOUS
 62
    4
 10
8036.0251792240852
 20
2587.7592108660147
 11
8041.0251792240852
 21
2587.7592108660147
  0
INSERT
  2
-000-_Dot
  8
_0-2_寸法
 10
8000.0251792240897
 20
2587.7592108660147
 41
1
 42
1
 50
0
  0
INSERT
  2
-000-_Dot
  8
_0-2_寸法
 10
8031.0251792240852
 20
2587.7592108660147
 41
1
 42
1
 50
180
  0
TEXT
  8
_0-2_寸法
 62
    7
 10
7994.6501792240897
 20
2592.7592108660147
 40
25
 41
1
 50
0
  1
6.2
  0
POINT
  8
_0-1_Defpoints
 62
    7
 10
8000.0251792240897
 20
2661.0841710913546
  0
POINT
  8
_0-1_Defpoints
 62
    7
 10
8031.0251792240852
 20
2661.0841710913546
  0
POINT
  8
_0-1_Defpoints
 62
    7
 10
8031.0251792240852
 20
2587.7592108660147
  0
ENDBLK
  0
BLOCK
  2
-005-_D32
 70
   64
 10
0
 20
0
 30
0
  0
LINE
  8
_0-2_寸法
  6
CONTINUOUS
 62
    4
 10
7966.5697089825444
 20
2684.7342108660146
 11
7854.9501792240844
 21
2684.7342108660146
  0
LINE
  8
_0-2_寸法
  6
CONTINUOUS
 62
    4
 10
7966.5697089825444
 20
3229.7342108660141
 11
7854.9501792240844
 21
3229.7342108660141
  0
LINE
  8
_0-2_寸法
  6
CONTINUOUS
 62
    4
 10
7854.9501792240844
 20
2689.7342108660141
 11
7854.9501792240844
 21
3224.7342108660146
  0
INSERT
  2
-000-_Dot
  8
_0-2_寸法
 10
7854.9501792240844
 20
2684.7342108660146
 41
1
 42
1
 50
270
  0
INSERT
  2
-000-_Dot
  8
_0-2_寸法
 10
7854.9501792240844
 20
3229.7342108660141
 41
1
 42
1
 50
90
  0
TEXT
  8
_0-2_寸法
 62
    7
 10
7849.9501792240844
 20
2936.3592108660155
 40
25
 41
1
 50
90
  1
109
  0
POINT
  8
_0-1_Defpoints
 62
    7
 10
7966.5697089825444
 20
2684.7342108660146
  0
POINT
  8
_0-1_Defpoints
 62
    7
 10
7966.5697089825444
 20
3229.7342108660141
  0
POINT
  8
_0-1_Defpoints
 62
    7
 10
7854.9501792240844
 20
3229.7342108660141
  0
ENDBLK
  0
BLOCK
  2
-006-_D33
 70
   64
 10
0
 20
0
 30
0
  0
LINE
  8
_0-2_寸法
  6
CONTINUOUS
 62
    4
 10
7966.5697089825444
 20
3229.7342108660141
 11
7854.9501792240844
 21
3229.7342108660141
  0
LINE
  8
_0-2_寸法
  6
CONTINUOUS
 62
    4
 10
7966.5697089825444
 20
3386.9792108660145
 11
7854.9501792240844
 21
3386.9792108660145
  0
LINE
  8
_0-2_寸法
  6
CONTINUOUS
 62
    4
 10
7854.9501792240844
 20
3234.7342108660141
 11
7854.9501792240844
 21
3381.9792108660145
  0
INSERT
  2
-000-_Dot
  8
_0-2_寸法
 10
7854.9501792240844
 20
3229.7342108660141
 41
1
 42
1
 50
270
  0
INSERT
  2
-000-_Dot
  8
_0-2_寸法
 10
7854.9501792240844
 20
3386.9792108660145
 41
1
 42
1
 50
90
  0
TEXT
  8
_0-2_寸法
 62
    7
 10
7849.9501792240844
 20
3294.7942108660159
 40
25
 41
1
 50
90
  1
31
  0
POINT
  8
_0-1_Defpoints
 62
    7
 10
7966.5697089825444
 20
3229.7342108660141
  0
POINT
  8
_0-1_Defpoints
 62
    7
 10
7966.5697089825444
 20
3386.9792108660145
  0
POINT
  8
_0-1_Defpoints
 62
    7
 10
7854.9501792240844
 20
3386.9792108660145
  0
ENDBLK
  0
BLOCK
  2
-007-_D34
 70
   64
 10
0
 20
0
 30
0
  0
LINE
  8
_0-2_寸法
  6
CONTINUOUS
 62
    4
 10
7966.5697089825444
 20
3386.9792108660145
 11
7934.9501792240844
 21
3386.9792108660145
  0
LINE
  8
_0-2_寸法
  6
CONTINUOUS
 62
    4
 10
7966.5697089825444
 20
3241.9792108660145
 11
7934.9501792240844
 21
3241.9792108660145
  0
LINE
  8
_0-2_寸法
  6
CONTINUOUS
 62
    4
 10
7934.9501792240844
 20
3381.9792108660145
 11
7934.9501792240844
 21
3246.9792108660145
  0
INSERT
  2
-000-_Dot
  8
_0-2_寸法
 10
7934.9501792240844
 20
3386.9792108660145
 41
1
 42
1
 50
90
  0
INSERT
  2
-000-_Dot
  8
_0-2_寸法
 10
7934.9501792240844
 20
3241.9792108660145
 41
1
 42
1
 50
270
  0
TEXT
  8
_0-2_寸法
 62
    7
 10
7929.9501792240844
 20
3300.9167108660149
 40
25
 41
1
 50
90
  1
29
  0
POINT
  8
_0-1_Defpoints
 62
    7
 10
7966.5697089825444
 20
3386.9792108660145
  0
POINT
  8
_0-1_Defpoints
 62
    7
 10
7966.5697089825444
 20
3241.9792108660145
  0
POINT
  8
_0-1_Defpoints
 62
    7
 10
7934.9501792240844
 20
3241.9792108660145
  0
ENDBLK
  0
BLOCK
  2
-008-_D35
 70
   64
 10
0
 20
0
 30
0
  0
LINE
  8
_0-2_寸法
  6
CONTINUOUS
 62
    4
 10
7966.5697089825444
 20
3386.9792108660145
 11
7759.1501792240852
 21
3386.9792108660145
  0
LINE
  8
_0-2_寸法
  6
CONTINUOUS
 62
    4
 10
7966.5697089825444
 20
2684.7342108660146
 11
7759.1501792240852
 21
2684.7342108660146
  0
LINE
  8
_0-2_寸法
  6
CONTINUOUS
 62
    4
 10
7759.1501792240852
 20
3381.9792108660145
 11
7759.1501792240852
 21
2689.7342108660141
  0
INSERT
  2
-000-_Dot
  8
_0-2_寸法
 10
7759.1501792240852
 20
3386.9792108660145
 41
1
 42
1
 50
90
  0
INSERT
  2
-000-_Dot
  8
_0-2_寸法
 10
7759.1501792240852
 20
2684.7342108660146
 41
1
 42
1
 50
270
  0
TEXT
  8
_0-2_寸法
 62
    7
 10
7754.1501792240852
 20
3014.9817108660159
 40
25
 41
1
 50
90
  1
140
  0
POINT
  8
_0-1_Defpoints
 62
    7
 10
7966.5697089825444
 20
3386.9792108660145
  0
POINT
  8
_0-1_Defpoints
 62
    7
 10
7966.5697089825444
 20
2684.7342108660146
  0
POINT
  8
_0-1_Defpoints
 62
    7
 10
7759.1501792240852
 20
2684.7342108660146
  0
ENDBLK
  0
BLOCK
  2
-009-_D36
 70
   64
 10
0
 20
0
 30
0
  0
LINE
  8
_0-2_寸法
  6
CONTINUOUS
 62
    4
 10
8221.4501792240844
 20
3464.7386342540071
 11
8221.4501792240844
 21
3508.9286342540072
  0
LINE
  8
_0-2_寸法
  6
CONTINUOUS
 62
    4
 10
8146.4501792240853
 20
3464.7386342540071
 11
8146.4501792240853
 21
3508.9286342540072
  0
LINE
  8
_0-2_寸法
  6
CONTINUOUS
 62
    4
 10
8216.4501792240899
 20
3508.9286342540072
 11
8151.4501792240853
 21
3508.9286342540072
  0
INSERT
  2
-000-_Dot
  8
_0-2_寸法
 10
8221.4501792240844
 20
3508.9286342540072
 41
1
 42
1
 50
0
  0
INSERT
  2
-000-_Dot
  8
_0-2_寸法
 10
8146.4501792240853
 20
3508.9286342540072
 41
1
 42
1
 50
180
  0
TEXT
  8
_0-2_寸法
 62
    7
 10
8170.3876792240899
 20
3513.9286342540072
 40
25
 41
1
 50
0
  1
15
  0
POINT
  8
_0-1_Defpoints
 62
    7
 10
8221.4501792240844
 20
3464.7386342540071
  0
POINT
  8
_0-1_Defpoints
 62
    7
 10
8146.4501792240853
 20
3464.7386342540071
  0
POINT
  8
_0-1_Defpoints
 62
    7
 10
8146.4501792240853
 20
3508.9286342540072
  0
ENDBLK
  0
BLOCK
  2
-010-_D37
 70
   64
 10
0
 20
0
 30
0
  0
LINE
  8
_0-2_寸法
  6
CONTINUOUS
 62
    4
 10
8146.4501792240853
 20
3464.7386342540071
 11
8146.4501792240853
 21
3508.9286342540072
  0
LINE
  8
_0-2_寸法
  6
CONTINUOUS
 62
    4
 10
8000.0251792240897
 20
3464.7386342540071
 11
8000.0251792240897
 21
3508.9286342540072
  0
LINE
  8
_0-2_寸法
  6
CONTINUOUS
 62
    4
 10
8141.4501792240853
 20
3508.9286342540072
 11
8005.0251792240897
 21
3508.9286342540072
  0
INSERT
  2
-000-_Dot
  8
_0-2_寸法
 10
8146.4501792240853
 20
3508.9286342540072
 41
1
 42
1
 50
0
  0
INSERT
  2
-000-_Dot
  8
_0-2_寸法
 10
8000.0251792240897
 20
3508.9286342540072
 41
1
 42
1
 50
180
  0
TEXT
  8
_0-2_寸法
 62
    7
 10
8045.0501792240902
 20
3513.9286342540072
 40
25
 41
1
 50
0
  1
29.3
  0
POINT
  8
_0-1_Defpoints
 62
    7
 10
8146.4501792240853
 20
3464.7386342540071
  0
POINT
  8
_0-1_Defpoints
 62
    7
 10
8000.0251792240897
 20
3464.7386342540071
  0
POINT
  8
_0-1_Defpoints
 62
    7
 10
8000.0251792240897
 20
3508.9286342540072
  0
ENDBLK
  0
BLOCK
  2
-011-_D38
 70
   64
 10
0
 20
0
 30
0
  0
LINE
  8
_0-2_寸法
  6
CONTINUOUS
 62
    4
 10
8000.0251792240897
 20
3464.7386342540071
 11
8000.0251792240897
 21
3583.878634254007
  0
LINE
  8
_0-2_寸法
  6
CONTINUOUS
 62
    4
 10
8221.4501792240844
 20
3464.7386342540071
 11
8221.4501792240844
 21
3583.878634254007
  0
LINE
  8
_0-2_寸法
  6
CONTINUOUS
 62
    4
 10
8005.0251792240897
 20
3583.878634254007
 11
8216.4501792240899
 21
3583.878634254007
  0
INSERT
  2
-000-_Dot
  8
_0-2_寸法
 10
8000.0251792240897
 20
3583.878634254007
 41
1
 42
1
 50
180
  0
INSERT
  2
-000-_Dot
  8
_0-2_寸法
 10
8221.4501792240844
 20
3583.878634254007
 41
1
 42
1
 50
0
  0
TEXT
  8
_0-2_寸法
 62
    7
 10
8082.5501792240848
 20
3588.878634254007
 40
25
 41
1
 50
0
  1
44.3
  0
POINT
  8
_0-1_Defpoints
 62
    7
 10
8000.0251792240897
 20
3464.7386342540071
  0
POINT
  8
_0-1_Defpoints
 62
    7
 10
8221.4501792240844
 20
3464.7386342540071
  0
POINT
  8
_0-1_Defpoints
 62
    7
 10
8221.4501792240844
 20
3583.878634254007
  0
ENDBLK
  0
ENDSEC
  0
SECTION
  2
ENTITIES
  0
LINE
  8
_0-3_躯体
  6
CONTINUOUS
 62
    3
 10
423.46900000000005
 20
416.88778100000002
 11
441.77800000000002
 21
435.19678099999999
  0
LINE
  8
_0-3_躯体
  6
CONTINUOUS
 62
    3
 10
423.46900000000005
 20
418.88778100000002
 11
440.11300000000006
 21
435.53178099999991
  0
LINE
  8
_0-3_躯体
  6
CONTINUOUS
 62
    3
 10
423.46900000000005
 20
414.88778100000002
 11
443.77800000000002
 21
435.19678099999999
  0
LINE
  8
_0-5_受金具
  6
CONTINUOUS
 62
    4
 10
440.45700000000011
 20
380.05141099999992
 11
423.45700000000011
 21
380.05141099999992
  0
LINE
  8
_0-5_受金具
  6
CONTINUOUS
 62
    4
 10
436.45700000000011
 20
365.05141099999992
 11
423.45700000000011
 21
365.05141099999992
  0
LINE
  8
_0-5_受金具
  6
CONTINUOUS
 62
    3
 10
435.59500000000003
 20
366.29941099999996
 11
424.73299999999995
 21
377.16141100000004
  0
LINE
  8
_0-5_受金具
  6
CONTINUOUS
 62
    3
 10
434.01502800000003
 20
365.05141099999992
 11
425.49700000000007
 21
373.56841099999986
  0
LINE
  8
_0-5_受金具
  6
CONTINUOUS
 62
    3
 10
431.18599999999992
 20
365.05141099999992
 11
425.40400000000091
 21
370.83341099999984
  0
LINE
  8
_0-5_受金具
  6
CONTINUOUS
 62
    3
 10
435.59500000000003
 20
372.90537699999993
 11
427.73997800000097
 21
365.05141099999992
  0
LINE
  8
_0-5_受金具
  6
CONTINUOUS
 62
    3
 10
435.59500000000003
 20
375.73441099999991
 11
424.91200000000003
 21
365.05141099999992
  0
LINE
  8
_0-5_受金具
  6
CONTINUOUS
 62
    3
 10
435.59500000000003
 20
378.56239099999993
 11
424.63670600000091
 21
367.60512900000003
  0
LINE
  8
_0-5_受金具
  6
CONTINUOUS
 62
    4
 10
431.64799999999991
 20
359.57241099999999
 11
428.448000000001
 21
359.57241099999999
  0
LINE
  8
_0-5_受金具
  6
CONTINUOUS
 62
    4
 10
428.448000000001
 20
361.07241099999999
 11
432.94800000000009
 21
361.07241099999999
  0
LINE
  8
_0-4_笠木
  6
CONTINUOUS
 62
    4
 10
427.08999999999992
 20
355.13041099999987
 11
430.10200000000009
 21
356.90941099999998
  0
LINE
  8
_0-4_笠木
  6
CONTINUOUS
 62
    4
 10
427.94000000000005
 20
353.76341099999991
 11
429.92599999999993
 21
354.88541099999998
  0
LINE
  8
_0-5_受金具
  6
CONTINUOUS
 62
    4
 10
433.95700000000102
 20
363.55141099999992
 11
425.95700000000011
 21
363.55141099999992
  0
LINE
  8
_0-5_受金具
  6
CONTINUOUS
 62
    3
 10
427.50000000000091
 20
380.05141099999992
 11
435.59500000000003
 21
371.95641099999989
  0
LINE
  8
_0-5_受金具
  6
CONTINUOUS
 62
    3
 10
424.67100000000005
 20
380.05141099999992
 11
435.59500000000003
 21
369.12741099999982
  0
LINE
  8
_0-5_受金具
  6
CONTINUOUS
 62
    3
 10
425.42122800000107
 20
371.21763899999996
 11
434.25500000000011
 21
380.05141099999992
  0
LINE
  8
_0-5_受金具
  6
CONTINUOUS
 62
    3
 10
425.4072440000009
 20
374.03266099999985
 11
431.42704400000093
 21
380.05141099999992
  0
ARC
  8
_0-5_受金具
  6
CONTINUOUS
 62
    4
 10
429.34799999999996
 20
345.00641099999996
 40
1
 50
0
 51
112.4830929999973
  0
ARC
  8
_0-5_受金具
  6
CONTINUOUS
 62
    4
 10
428.948000000001
 20
341.90441099999998
 40
0.9
 50
180
 51
291.37576300000001
  0
LINE
  8
_0-5_受金具
  6
CONTINUOUS
 62
    4
 10
421.45700000000102
 20
312.55141100000003
 11
433.95700000000102
 21
312.55141100000003
  0
LINE
  8
_0-5_受金具
  6
CONTINUOUS
 62
    4
 10
420.45700000000011
 20
311.05141100000003
 11
436.45700000000011
 21
311.05141100000003
  0
LINE
  8
_0-5_受金具
  6
CONTINUOUS
 62
    4
 10
421.47200000000089
 20
247.93841099999997
 11
438.45700000000011
 21
272.13241099999993
  0
LINE
  8
_0-3_躯体
  6
CONTINUOUS
 62
    7
 10
440.45700000000011
 20
271.58441099999993
 11
423.47200000000089
 21
247.30641100000003
  0
LINE
  8
_0-3_躯体
  6
CONTINUOUS
 62
    3
 10
500.9079999999999
 20
250.43755299999998
 11
423.47200000000089
 21
173.001553
  0
LINE
  8
_0-3_躯体
  6
CONTINUOUS
 62
    3
 10
500.9079999999999
 20
252.43755299999987
 11
423.47200000000089
 21
175.001553
  0
LINE
  8
_0-3_躯体
  6
CONTINUOUS
 62
    3
 10
500.9079999999999
 20
248.43755299999987
 11
423.47200000000089
 21
171.001553
  0
LINE
  8
_0-4_笠木
  6
CONTINUOUS
 62
    4
 10
394.17200000000093
 20
333.60241099999985
 11
430.67200000000093
 21
348.60241099999996
  0
LINE
  8
_0-4_笠木
  6
CONTINUOUS
 62
    4
 10
395.87200000000007
 20
332.46341099999984
 11
430.67200000000093
 21
346.76541099999997
  0
LINE
  8
_0-5_受金具
  6
CONTINUOUS
 62
    4
 10
421.44800000000009
 20
313.59241099999997
 11
421.44800000000009
 21
312.60741099999984
  0
LINE
  8
_0-5_受金具
  6
CONTINUOUS
 62
    4
 10
421.45700000000102
 20
312.55141100000003
 11
421.45700000000102
 21
313.55141100000003
  0
ARC
  8
_0-5_受金具
  6
CONTINUOUS
 62
    4
 10
420.98700000000008
 20
320.57941099999994
 40
7.9849999999999994
 50
273.30242900000053
 51
309.22680699999614
  0
ARC
  8
_0-5_受金具
  6
CONTINUOUS
 62
    4
 10
421.45700000000102
 20
310.55141100000003
 40
3
 50
90
 51
180
  0
LINE
  8
_0-5_受金具
  6
CONTINUOUS
 62
    4
 10
414.94800000000009
 20
313.59241099999997
 11
414.94800000000009
 21
310.59241099999986
  0
LINE
  8
_0-5_受金具
  6
CONTINUOUS
 62
    4
 10
416.94800000000009
 20
310.59241099999986
 11
416.94800000000009
 21
313.59241099999997
  0
ARC
  8
_0-5_受金具
  6
CONTINUOUS
 62
    4
 10
399.14799999999991
 20
312.59241099999997
 40
1
 50
90
 51
180
  0
LINE
  8
_0-4_笠木
  6
CONTINUOUS
 62
    4
 10
394.17200000000093
 20
225.10241099999985
 11
394.17200000000093
 21
333.60241099999985
  0
LINE
  8
_0-4_笠木
  6
CONTINUOUS
 62
    4
 10
395.87200000000007
 20
227.78541099999984
 11
395.87200000000007
 21
332.46341099999984
  0
LINE
  8
_0-5_受金具
  6
CONTINUOUS
 62
    4
 10
421.47200000000089
 20
158.46821899999998
 11
421.47200000000089
 21
247.93841099999997
  0
LINE
  8
_0-3_躯体
  6
CONTINUOUS
 62
    7
 10
423.47200000000089
 20
158.46821899999998
 11
423.47200000000089
 21
247.30641100000003
  0
LINE
  8
_0-5_受金具
  6
CONTINUOUS
 62
    4
 10
398.14799999999991
 20
312.59241099999997
 11
398.14799999999991
 21
227.84241099999997
  0
ARC
  8
_0-4_笠木
  6
CONTINUOUS
 62
    4
 10
397.37200000000007
 20
227.60241099999996
 40
3
 50
270
 51
0
  0
ARC
  8
_0-4_笠木
  6
CONTINUOUS
 62
    4
 10
397.32199999999989
 20
227.65241100000003
 40
1.45
 50
270
 51
1.066763999998283
  0
ARC
  8
_0-4_笠木
  6
CONTINUOUS
 62
    4
 10
397.32199999999989
 20
227.65241100000003
 40
1.45
 50
183.75625600000069
 51
268.97274800000457
  0
LINE
  8
_0-4_笠木
  6
CONTINUOUS
 62
    4
 10
394.67200000000093
 20
224.60241099999996
 11
397.37200000000007
 21
224.60241099999996
  0
ARC
  8
_0-4_笠木
  6
CONTINUOUS
 62
    4
 10
394.67200000000093
 20
225.10241099999985
 40
0.5
 50
180
 51
270
  0
ARC
  8
_0-5_受金具
  6
CONTINUOUS
 62
    4
 10
396.99800000000005
 20
227.84241099999997
 40
1.149999999999999
 50
270
 51
0
  0
LINE
  8
_0-4_笠木
  6
CONTINUOUS
 62
    4
 10
395.87200000000007
 20
227.78541099999984
 11
395.87200000000007
 21
227.557411
  0
ARC
  8
_0-4_笠木
  6
CONTINUOUS
 62
    4
 10
397.32199999999989
 20
227.65241100000003
 40
1.45
 50
174.2618870000008
 51
174.37983700000041
  0
ARC
  8
_0-5_受金具
  6
CONTINUOUS
 62
    4
 10
396.99800000000005
 20
227.84241099999997
 40
1.149999999999999
 50
180
 51
270
  0
ARC
  8
_0-4_笠木
  6
CONTINUOUS
 62
    4
 10
399.57199999999989
 20
229.30241100000001
 40
0.8
 50
90
 51
180
  0
ARC
  8
_0-4_笠木
  6
CONTINUOUS
 62
    4
 10
399.57199999999989
 20
229.30241100000001
 40
0.8
 50
0
 51
90
  0
LINE
  8
_0-4_笠木
  6
CONTINUOUS
 62
    4
 10
398.77199999999993
 20
229.30241100000001
 11
398.77199999999993
 21
227.72941100000003
  0
LINE
  8
_0-4_笠木
  6
CONTINUOUS
 62
    4
 10
398.77199999999993
 20
227.72941100000003
 11
398.77199999999993
 21
227.67941099999985
  0
LINE
  8
_0-4_笠木
  6
CONTINUOUS
 62
    4
 10
400.37200000000007
 20
227.60241099999996
 11
400.37200000000007
 21
229.30241100000001
  0
ARC
  8
_0-5_受金具
  6
CONTINUOUS
 62
    4
 10
415.948000000001
 20
310.59241099999986
 40
1
 50
180
 51
270
  0
ARC
  8
_0-5_受金具
  6
CONTINUOUS
 62
    4
 10
415.948000000001
 20
310.59241099999986
 40
1
 50
270
 51
0
  0
LINE
  8
_0-5_受金具
  6
CONTINUOUS
 62
    4
 10
418.45700000000102
 20
310.55141100000003
 11
418.45700000000102
 21
308.05141100000003
  0
LINE
  8
_0-5_受金具
  6
CONTINUOUS
 62
    4
 10
419.95700000000102
 20
308.05141100000003
 11
419.95700000000102
 21
309.55141100000003
  0
LINE
  8
_0-5_受金具
  6
CONTINUOUS
 62
    4
 10
418.45700000000102
 20
308.05141100000003
 11
419.95700000000102
 21
308.05141100000003
  0
LINE
  8
_0-5_受金具
  6
CONTINUOUS
 62
    4
 10
419.95700000000102
 20
309.55141100000003
 11
419.95700000000102
 21
310.55141100000003
  0
ARC
  8
_0-5_受金具
  6
CONTINUOUS
 62
    4
 10
420.45700000000011
 20
310.55141100000003
 40
0.5
 50
90
 51
180
  0
LINE
  8
_0-3_躯体
  6
CONTINUOUS
 62
    7
 10
423.45700000000011
 20
435.53178099999991
 11
423.45700000000011
 21
380.05141099999992
  0
ARC
  8
_0-5_受金具
  6
CONTINUOUS
 62
    4
 10
410.56999999999994
 20
372.55141099999992
 40
14.911
 50
329.80136100000288
 51
30.198626999997007
  0
LINE
  8
_0-5_受金具
  6
CONTINUOUS
 62
    4
 10
398.7650000000001
 20
330.93641099999991
 11
426.66499999999996
 21
342.49941100000001
  0
LINE
  8
_0-5_受金具
  6
CONTINUOUS
 62
    4
 10
396.46600000000103
 20
332.47841099999994
 11
428.96599999999989
 21
345.92941099999985
  0
LINE
  8
_0-5_受金具
  6
CONTINUOUS
 62
    4
 10
414.94800000000009
 20
313.59241099999997
 11
399.14799999999991
 21
313.59241099999997
  0
LINE
  8
_0-5_受金具
  6
CONTINUOUS
 62
    4
 10
425.5920000000001
 20
315.89241099999992
 11
399.14799999999991
 21
315.89241099999992
  0
LINE
  8
_0-5_受金具
  6
CONTINUOUS
 62
    4
 10
398.14799999999991
 20
316.89241099999992
 11
398.14799999999991
 21
330.15241100000003
  0
LINE
  8
_0-5_受金具
  6
CONTINUOUS
 62
    4
 10
398.14799999999991
 20
316.89241099999992
 11
398.14799999999991
 21
330.15241100000003
  0
LINE
  8
_0-5_受金具
  6
CONTINUOUS
 62
    4
 10
398.14799999999991
 20
316.89241099999992
 11
398.14799999999991
 21
330.15241100000003
  0
ARC
  8
_0-5_受金具
  6
CONTINUOUS
 62
    4
 10
399.14799999999991
 20
316.89241099999992
 40
1
 50
180
 51
270
  0
ARC
  8
_0-5_受金具
  6
CONTINUOUS
 62
    4
 10
396.84800000000109
 20
331.55441099999985
 40
1
 50
112.46117399999481
 51
180
  0
ARC
  8
_0-5_受金具
  6
CONTINUOUS
 62
    4
 10
399.14799999999991
 20
330.01241099999993
 40
1
 50
112.51411399999452
 51
180
  0
LINE
  8
_0-5_受金具
  6
CONTINUOUS
 62
    4
 10
421.44800000000009
 20
313.59241099999997
 11
416.94800000000009
 21
313.59241099999997
  0
ARC
  8
_0-5_受金具
  6
CONTINUOUS
 62
    4
 10
425.64799999999991
 20
315.09241099999986
 40
0.8
 50
321.23956300000242
 51
93.009025999998883
  0
LINE
  8
_0-5_受金具
  6
CONTINUOUS
 62
    4
 10
425.5920000000001
 20
315.89241099999992
 11
425.65900000000011
 21
315.89241099999992
  0
LINE
  8
_0-5_受金具
  6
CONTINUOUS
 62
    4
 10
426.27199999999993
 20
314.59141099999999
 11
426.03700000000003
 21
314.39341100000001
  0
LINE
  8
_0-5_受金具
  6
CONTINUOUS
 62
    4
 10
424.95700000000011
 20
362.55141099999992
 11
424.95700000000011
 21
351.05141099999992
  0
LINE
  8
_0-5_受金具
  6
CONTINUOUS
 62
    4
 10
423.45700000000011
 20
365.05141099999992
 11
423.45700000000011
 21
352.15941099999998
  0
LINE
  8
_0-5_受金具
  6
CONTINUOUS
 62
    4
 10
423.45700000000011
 20
352.15941099999998
 11
418.01600000000008
 21
350.485411
  0
LINE
  8
_0-5_受金具
  6
CONTINUOUS
 62
    4
 10
418.01600000000008
 20
350.485411
 11
418.45700000000102
 21
349.05141099999992
  0
LINE
  8
_0-5_受金具
  6
CONTINUOUS
 62
    4
 10
426.94200000000001
 20
342.61341099999993
 11
426.66499999999996
 21
342.49841100000003
  0
LINE
  8
_0-5_受金具
  6
CONTINUOUS
 62
    4
 10
428.048
 20
341.93841099999986
 11
428.048
 21
341.90441099999998
  0
LINE
  8
_0-5_受金具
  6
CONTINUOUS
 62
    4
 10
428.048
 20
341.87441100000001
 11
428.048
 21
341.90441099999998
  0
ARC
  8
_0-5_受金具
  6
CONTINUOUS
 62
    4
 10
427.24800000000096
 20
341.87441100000001
 40
0.8
 50
0
 51
112.493125999995
  0
LINE
  8
_0-5_受金具
  6
CONTINUOUS
 62
    4
 10
424.95700000000011
 20
351.05141099999992
 11
418.45700000000102
 21
349.05141099999992
  0
ARC
  8
_0-4_笠木
  6
CONTINUOUS
 62
    4
 10
427.5150000000001
 20
354.44641100000001
 40
0.8050000000000001
 50
121.85454599999622
 51
301.89215099999552
  0
ARC
  8
_0-5_受金具
  6
CONTINUOUS
 62
    4
 10
425.95700000000011
 20
362.55141099999992
 40
1
 50
90
 51
180
  0
ARC
  8
_0-5_受金具
  6
CONTINUOUS
 62
    4
 10
428.448000000001
 20
362.07241099999987
 40
2.5
 50
180
 51
270
  0
ARC
  8
_0-5_受金具
  6
CONTINUOUS
 62
    4
 10
426.69800000000009
 20
362.32241099999999
 40
0.75
 50
90
 51
180
  0
LINE
  8
_0-5_受金具
  6
CONTINUOUS
 62
    4
 10
425.94800000000009
 20
362.07241099999987
 11
425.94800000000009
 21
362.32241099999999
  0
ARC
  8
_0-5_受金具
  6
CONTINUOUS
 62
    4
 10
426.69800000000009
 20
362.32241099999999
 40
0.75
 50
0
 51
90
  0
LINE
  8
_0-5_受金具
  6
CONTINUOUS
 62
    4
 10
427.44800000000009
 20
362.32241099999999
 11
427.44800000000009
 21
362.07241099999987
  0
ARC
  8
_0-5_受金具
  6
CONTINUOUS
 62
    4
 10
428.448000000001
 20
362.07241099999987
 40
1
 50
180
 51
270
  0
LINE
  8
_0-5_受金具
  6
CONTINUOUS
 62
    3
 10
428.35805000000005
 20
365.05141099999992
 11
424.99700000000098
 21
368.41141099999993
  0
LINE
  8
_0-5_受金具
  6
CONTINUOUS
 62
    3
 10
424.16153800000006
 20
366.41887299999985
 11
425.529
 21
365.05141099999992
  0
LINE
  8
_0-5_受金具
  6
CONTINUOUS
 62
    3
 10
424.96960399999989
 20
376.42301499999996
 11
428.59799999999996
 21
380.05141099999992
  0
LINE
  8
_0-5_受金具
  6
CONTINUOUS
 62
    3
 10
425.77000000000089
 20
380.05141099999992
 11
424.22300000000109
 21
378.50441099999989
  0
ARC
  8
_0-5_受金具
  6
CONTINUOUS
 62
    4
 10
433.95700000000102
 20
313.55141100000003
 40
1
 50
270
 51
0
  0
LINE
  8
_0-5_受金具
  6
CONTINUOUS
 62
    4
 10
436.45700000000011
 20
311.05141100000003
 11
436.45700000000011
 21
314.05141100000003
  0
LINE
  8
_0-5_受金具
  6
CONTINUOUS
 62
    4
 10
438.45700000000011
 20
272.13241099999993
 11
438.45700000000011
 21
380.05141099999992
  0
LINE
  8
_0-3_躯体
  6
CONTINUOUS
 62
    7
 10
440.45700000000011
 20
380.05141099999992
 11
440.45700000000011
 21
271.58441099999993
  0
LINE
  8
_0-3_躯体
  6
CONTINUOUS
 62
    3
 10
501.00299999999993
 20
346.96441099999993
 11
440.45700000000011
 21
286.41841099999999
  0
LINE
  8
_0-3_躯体
  6
CONTINUOUS
 62
    3
 10
500.9079999999999
 20
342.86941100000001
 11
440.45700000000011
 21
282.41841099999999
  0
LINE
  8
_0-3_躯体
  6
CONTINUOUS
 62
    3
 10
501.00299999999993
 20
344.86941100000001
 11
440.45700000000011
 21
284.32341099999985
  0
LINE
  8
_0-5_受金具
  6
CONTINUOUS
 62
    4
 10
435.59500000000003
 20
365.05141099999992
 11
435.59500000000003
 21
380.05141099999992
  0
LINE
  8
_0-5_受金具
  6
CONTINUOUS
 62
    3
 10
435.59500000000003
 20
380.05141099999992
 11
438.45700000000011
 21
365.05141099999992
  0
LINE
  8
_0-3_躯体
  6
CONTINUOUS
 62
    3
 10
440.45700000000011
 20
357.73003700000004
 11
500.9079999999999
 21
418.18103699999995
  0
LINE
  8
_0-3_躯体
  6
CONTINUOUS
 62
    3
 10
440.45700000000011
 20
355.73003699999992
 11
500.9079999999999
 21
416.18103699999995
  0
LINE
  8
_0-3_躯体
  6
CONTINUOUS
 62
    3
 10
440.45700000000011
 20
353.73003700000004
 11
500.9079999999999
 21
414.18103700000006
  0
LINE
  8
_0-5_受金具
  6
PLINE2
 62
    3
 10
470.24367400000006
 20
341.19800499999997
 11
472.24093199999993
 21
341.30267700000002
  0
LINE
  8
_0-5_受金具
  6
PLINE2
 62
    3
 10
470.24367400000006
 20
330.90481699999998
 11
472.24093199999993
 21
330.80014499999993
  0
LINE
  8
_0-5_受金具
  6
PLINE2
 62
    3
 10
479.41451600000005
 20
333.92899699999987
 11
448.45700000000102
 21
335.55141099999992
  0
LINE
  8
_0-5_受金具
  6
PLINE2
 62
    3
 10
479.41451600000005
 20
338.17382499999997
 11
448.45700000000102
 21
336.55141099999992
  0
LINE
  8
_0-5_受金具
  6
PLINE2
 62
    3
 10
455.25737800000002
 20
341.15760699999998
 11
449.75057400000105
 21
342.07540900000004
  0
LINE
  8
_0-5_受金具
  6
CONTINUOUS
 62
    4
 10
429.27600000000007
 20
341.06641100000002
 11
434.31200000000104
 21
343.03441099999986
  0
LINE
  8
_0-5_受金具
  6
CONTINUOUS
 62
    4
 10
434.95700000000011
 20
343.55141099999992
 11
436.95700000000011
 21
341.55141099999992
  0
LINE
  8
_0-5_受金具
  6
CONTINUOUS
 62
    4
 10
438.45700000000011
 20
329.92941099999985
 11
438.45700000000011
 21
342.67341099999999
  0
LINE
  8
_0-5_受金具
  6
PLINE2
 62
    3
 10
460.25737800000002
 20
340.67464499999994
 11
455.25737800000002
 21
342.17140100000006
  0
LINE
  8
_0-5_受金具
  6
PLINE2
 62
    3
 10
452.45700000000011
 20
340.05141099999992
 11
448.45700000000102
 21
340.05141099999992
  0
LINE
  8
_0-5_受金具
  6
PLINE2
 62
    3
 10
455.25737800000002
 20
330.082087
 11
449.91497400000003
 21
329.191687
  0
LINE
  8
_0-5_受金具
  6
PLINE2
 62
    3
 10
455.25737800000002
 20
331.09588099999996
 11
449.75057400000105
 21
330.17808100000002
  0
ARC
  8
_0-5_受金具
  6
PLINE2
 62
    3
 10
449.83277399999997
 20
329.68488500000001
 40
0.5
 50
99.462321999993762
 51
279.46232199999372
  0
LINE
  8
_0-5_受金具
  6
PLINE2
 62
    3
 10
452.45700000000011
 20
332.05141099999992
 11
448.45700000000102
 21
332.05141099999992
  0
LINE
  8
_0-5_受金具
  6
CONTINUOUS
 62
    4
 10
436.45700000000011
 20
327.92941099999996
 11
436.45700000000011
 21
315.55141100000003
  0
LINE
  8
_0-5_受金具
  6
CONTINUOUS
 62
    4
 10
434.95700000000011
 20
328.55141099999992
 11
434.95700000000011
 21
314.05141100000003
  0
LINE
  8
_0-5_受金具
  6
CONTINUOUS
 62
    4
 10
436.45700000000011
 20
315.55141100000003
 11
437.95700000000011
 21
315.55141100000003
  0
LINE
  8
_0-5_受金具
  6
CONTINUOUS
 62
    4
 10
437.95700000000011
 20
315.55141100000003
 11
436.45700000000011
 21
315.55141100000003
  0
LINE
  8
_0-5_受金具
  6
CONTINUOUS
 62
    4
 10
436.45700000000011
 20
314.05141100000003
 11
437.95700000000011
 21
314.05141100000003
  0
LINE
  8
_0-5_受金具
  6
CONTINUOUS
 62
    4
 10
434.95700000000011
 20
314.05141100000003
 11
434.95700000000011
 21
313.55141100000003
  0
LINE
  8
_0-5_受金具
  6
CONTINUOUS
 62
    4
 10
437.95700000000011
 20
314.05141100000003
 11
437.95700000000011
 21
315.55141100000003
  0
LINE
  8
_0-5_受金具
  6
PLINE2
 62
    3
 10
436.95700000000011
 20
337.55141099999992
 11
440.45700000000011
 21
337.55141099999992
  0
LINE
  8
_0-5_受金具
  6
PLINE2
 62
    3
 10
436.95700000000011
 20
334.55141099999992
 11
440.45700000000011
 21
334.55141099999992
  0
LINE
  8
_0-5_受金具
  6
PLINE2
 62
    3
 10
436.95700000000011
 20
333.55141099999992
 11
440.45700000000011
 21
333.55141099999992
  0
LINE
  8
_0-5_受金具
  6
PLINE2
 62
    3
 10
436.95700000000011
 20
338.55141099999992
 11
440.45700000000011
 21
338.55141099999992
  0
LINE
  8
_0-5_受金具
  6
CONTINUOUS
 62
    4
 10
436.94900000000007
 20
335.74341099999992
 11
436.95700000000011
 21
330.55141099999992
  0
ARC
  8
_0-5_受金具
  6
CONTINUOUS
 62
    3
 10
438.95700000000011
 20
336.05141099999992
 40
5.4000000000000004
 50
180
 51
218.85106200000371
  0
LINE
  8
_0-5_受金具
  6
CONTINUOUS
 62
    4
 10
436.45700000000011
 20
327.92941099999996
 11
438.45700000000011
 21
329.92941099999985
  0
LINE
  8
_0-5_受金具
  6
CONTINUOUS
 62
    4
 10
434.95700000000011
 20
328.55141099999992
 11
436.95700000000011
 21
330.55141099999992
  0
ARC
  8
_0-5_受金具
  6
CONTINUOUS
 62
    3
 10
437.08571000000006
 20
334.54864900000007
 40
3
 50
218.61463799999814
 51
267.54107400000368
  0
ARC
  8
_0-5_受金具
  6
CONTINUOUS
 62
    3
 10
438.95700000000011
 20
336.05141099999992
 40
5.4000000000000004
 50
141.31781300000159
 51
180
  0
LINE
  8
_0-5_受金具
  6
CONTINUOUS
 62
    4
 10
436.95700000000011
 20
341.55141099999992
 11
436.95700000000011
 21
336.35141099999998
  0
LINE
  8
_0-5_受金具
  6
CONTINUOUS
 62
    4
 10
437.25700000000006
 20
336.05141099999992
 11
436.94900000000007
 21
335.74341099999992
  0
LINE
  8
_0-5_受金具
  6
CONTINUOUS
 62
    4
 10
437.25700000000006
 20
336.05141099999992
 11
436.95700000000011
 21
336.35141099999998
  0
ARC
  8
_0-5_受金具
  6
CONTINUOUS
 62
    3
 10
437.08571000000006
 20
337.55417299999999
 40
3
 50
92.458925999996254
 51
141.38536200000181
  0
LINE
  8
_0-5_受金具
  6
PLINE2
 62
    3
 10
440.45700000000011
 20
331.05141099999992
 11
440.45700000000011
 21
336.05141099999992
  0
LINE
  8
_0-5_受金具
  6
PLINE2
 62
    3
 10
440.45700000000011
 20
332.05141099999992
 11
448.45700000000102
 21
332.05141099999992
  0
LINE
  8
_0-5_受金具
  6
PLINE2
 62
    3
 10
440.45700000000011
 20
331.05141099999992
 11
445.45700000000011
 21
332.05141099999992
  0
LINE
  8
_0-5_受金具
  6
PLINE2
 62
    3
 10
440.45700000000011
 20
337.05141099999992
 11
445.45700000000011
 21
336.05141099999992
  0
LINE
  8
_0-5_受金具
  6
PLINE2
 62
    3
 10
445.45700000000011
 20
336.05141099999992
 11
440.45700000000011
 21
336.05141099999992
  0
LINE
  8
_0-5_受金具
  6
PLINE2
 62
    3
 10
440.45700000000011
 20
340.05141099999992
 11
448.45700000000102
 21
340.05141099999992
  0
LINE
  8
_0-5_受金具
  6
PLINE2
 62
    3
 10
440.45700000000011
 20
341.05141099999992
 11
445.45700000000011
 21
340.05141099999992
  0
LINE
  8
_0-5_受金具
  6
PLINE2
 62
    3
 10
440.45700000000011
 20
335.05141099999992
 11
445.45700000000011
 21
336.05141099999992
  0
LINE
  8
_0-5_受金具
  6
PLINE2
 62
    3
 10
440.45700000000011
 20
341.05141099999992
 11
440.45700000000011
 21
336.05141099999992
  0
LINE
  8
_0-5_受金具
  6
PLINE2
 62
    3
 10
448.45700000000102
 20
335.55141099999992
 11
448.45700000000102
 21
336.05141099999992
  0
LINE
  8
_0-5_受金具
  6
PLINE2
 62
    3
 10
448.45700000000102
 20
336.55141099999992
 11
448.45700000000102
 21
336.05141099999992
  0
LINE
  8
_0-5_受金具
  6
PLINE2
 62
    3
 10
460.25737800000002
 20
340.67464499999994
 11
462.25463799999989
 21
340.77931699999999
  0
LINE
  8
_0-5_受金具
  6
PLINE2
 62
    3
 10
460.25737800000002
 20
331.42817700000001
 11
462.25463799999989
 21
331.32350499999995
  0
LINE
  8
_0-5_受金具
  6
PLINE2
 62
    3
 10
455.26423
 20
331.68985499999997
 11
457.26149000000009
 21
331.58518500000002
  0
LINE
  8
_0-5_受金具
  6
PLINE2
 62
    3
 10
460.31307199999992
 20
332.64156299999991
 11
455.25737800000002
 21
331.09588099999996
  0
LINE
  8
_0-5_受金具
  6
PLINE2
 62
    3
 10
460.25737800000002
 20
331.57884300000001
 11
455.25737800000002
 21
330.082087
  0
LINE
  8
_0-5_受金具
  6
PLINE2
 62
    3
 10
452.45700000000011
 20
332.05141099999992
 11
453.37164400000006
 21
333.791787
  0
LINE
  8
_0-5_受金具
  6
PLINE2
 62
    3
 10
455.36890199999993
 20
333.68711499999984
 11
455.26423
 21
331.68985499999997
  0
LINE
  8
_0-5_受金具
  6
PLINE2
 62
    3
 10
453.37164400000006
 20
333.791787
 11
455.36890199999993
 21
333.68711499999984
  0
LINE
  8
_0-5_受金具
  6
PLINE2
 62
    3
 10
457.26149000000009
 20
331.58518500000002
 11
458.36479000000008
 21
333.53010699999993
  0
LINE
  8
_0-5_受金具
  6
PLINE2
 62
    3
 10
460.36205000000109
 20
333.42543499999999
 11
460.25737800000002
 21
331.42817700000001
  0
LINE
  8
_0-5_受金具
  6
PLINE2
 62
    3
 10
458.36479000000008
 20
333.53010699999993
 11
460.36205000000109
 21
333.42543499999999
  0
LINE
  8
_0-5_受金具
  6
PLINE2
 62
    3
 10
455.26423
 20
340.41296699999998
 11
457.26149000000009
 21
340.51763900000003
  0
LINE
  8
_0-5_受金具
  6
PLINE2
 62
    3
 10
460.31307199999992
 20
339.61192699999992
 11
455.25737800000002
 21
341.15760699999998
  0
LINE
  8
_0-5_受金具
  6
PLINE2
 62
    3
 10
452.45700000000011
 20
340.05141099999992
 11
453.37164400000006
 21
338.31103499999983
  0
LINE
  8
_0-5_受金具
  6
PLINE2
 62
    3
 10
455.36890199999993
 20
338.415707
 11
455.26423
 21
340.41296699999998
  0
LINE
  8
_0-5_受金具
  6
PLINE2
 62
    3
 10
453.37164400000006
 20
338.31103499999983
 11
455.36890199999993
 21
338.415707
  0
LINE
  8
_0-5_受金具
  6
PLINE2
 62
    3
 10
457.26149000000009
 20
340.51763900000003
 11
458.36479000000008
 21
338.57271500000002
  0
LINE
  8
_0-5_受金具
  6
PLINE2
 62
    3
 10
460.36205000000109
 20
338.67738699999984
 11
460.25737800000002
 21
340.67464499999994
  0
LINE
  8
_0-5_受金具
  6
PLINE2
 62
    3
 10
458.36479000000008
 20
338.57271500000002
 11
460.36205000000109
 21
338.67738699999984
  0
LINE
  8
_0-5_受金具
  6
PLINE2
 62
    3
 10
465.25052600000095
 20
331.16649700000005
 11
467.24778400000105
 21
331.061825
  0
LINE
  8
_0-5_受金具
  6
PLINE2
 62
    3
 10
463.3579380000001
 20
333.26842699999997
 11
465.35519800000088
 21
333.16375499999992
  0
LINE
  8
_0-5_受金具
  6
PLINE2
 62
    3
 10
462.25463799999989
 20
331.32350499999995
 11
463.3579380000001
 21
333.26842699999997
  0
LINE
  8
_0-5_受金具
  6
PLINE2
 62
    3
 10
465.35519800000088
 20
333.16375499999992
 11
465.25052600000095
 21
331.16649700000005
  0
LINE
  8
_0-5_受金具
  6
PLINE2
 62
    3
 10
468.35108600000103
 20
333.00674700000002
 11
470.34834599999999
 21
332.90207499999997
  0
LINE
  8
_0-5_受金具
  6
PLINE2
 62
    3
 10
467.24778400000105
 20
331.061825
 11
468.35108600000103
 21
333.00674700000002
  0
LINE
  8
_0-5_受金具
  6
PLINE2
 62
    3
 10
470.34834599999999
 20
332.90207499999997
 11
470.24367400000006
 21
330.90481699999998
  0
LINE
  8
_0-5_受金具
  6
PLINE2
 62
    3
 10
465.25052600000095
 20
340.93632500000001
 11
467.24778400000105
 21
341.04099700000006
  0
LINE
  8
_0-5_受金具
  6
PLINE2
 62
    3
 10
463.3579380000001
 20
338.83439499999986
 11
465.35519800000088
 21
338.93906700000002
  0
LINE
  8
_0-5_受金具
  6
PLINE2
 62
    3
 10
462.25463799999989
 20
340.77931699999999
 11
463.3579380000001
 21
338.83439499999986
  0
LINE
  8
_0-5_受金具
  6
PLINE2
 62
    3
 10
465.35519800000088
 20
338.93906700000002
 11
465.25052600000095
 21
340.93632500000001
  0
LINE
  8
_0-5_受金具
  6
PLINE2
 62
    3
 10
468.35108600000103
 20
339.09607499999993
 11
470.34834599999999
 21
339.20074699999986
  0
LINE
  8
_0-5_受金具
  6
PLINE2
 62
    3
 10
467.24778400000105
 20
341.04099700000006
 11
468.35108600000103
 21
339.09607499999993
  0
LINE
  8
_0-5_受金具
  6
PLINE2
 62
    3
 10
470.34834599999999
 20
339.20074699999986
 11
470.24367400000006
 21
341.19800499999997
  0
LINE
  8
_0-5_受金具
  6
PLINE2
 62
    3
 10
455.25737800000002
 20
342.17140100000006
 11
449.91497400000003
 21
343.06180100000006
  0
ARC
  8
_0-4_笠木
  6
CONTINUOUS
 62
    4
 10
430.67200000000093
 20
355.52241099999992
 40
1.5
 50
0
 51
112.3406449999954
  0
LINE
  8
_0-5_受金具
  6
CONTINUOUS
 62
    4
 10
432.64799999999991
 20
347.32241099999987
 11
432.64799999999991
 21
358.57241099999999
  0
LINE
  8
_0-5_受金具
  6
CONTINUOUS
 62
    4
 10
434.95700000000011
 20
343.55141099999992
 11
434.95700000000011
 21
362.55141099999992
  0
LINE
  8
_0-5_受金具
  6
CONTINUOUS
 62
    4
 10
436.45700000000011
 20
344.17341099999999
 11
436.45700000000011
 21
360.55141099999992
  0
LINE
  8
_0-4_笠木
  6
CONTINUOUS
 62
    4
 10
432.17200000000093
 20
348.60241099999996
 11
432.17200000000093
 21
355.52241099999992
  0
LINE
  8
_0-4_笠木
  6
CONTINUOUS
 62
    4
 10
430.67200000000093
 20
348.60241099999996
 11
430.67200000000093
 21
354.45041100000003
  0
ARC
  8
_0-5_受金具
  6
CONTINUOUS
 62
    4
 10
433.94800000000009
 20
343.96641099999999
 40
1
 50
291.33352699999551
 51
339.83593999999948
  0
LINE
  8
_0-4_笠木
  6
CONTINUOUS
 62
    4
 10
432.17200000000093
 20
348.60241099999996
 11
432.17200000000093
 21
345.21941100000004
  0
ARC
  8
_0-4_笠木
  6
CONTINUOUS
 62
    4
 10
431.17200000000093
 20
345.34941099999992
 40
0.5
 50
180
 51
292.31164600000022
  0
LINE
  8
_0-5_受金具
  6
CONTINUOUS
 62
    4
 10
432.64799999999991
 20
347.32241099999987
 11
432.64799999999991
 21
345.02241099999992
  0
LINE
  8
_0-5_受金具
  6
CONTINUOUS
 62
    4
 10
432.64799999999991
 20
347.32241099999987
 11
432.64799999999991
 21
344.84141099999999
  0
LINE
  8
_0-4_笠木
  6
CONTINUOUS
 62
    4
 10
431.36200000000008
 20
344.88641099999995
 11
432.17200000000093
 21
345.21941100000004
  0
LINE
  8
_0-5_受金具
  6
CONTINUOUS
 62
    4
 10
430.34700000000089
 20
343.95341099999985
 11
432.65000000000009
 21
344.83741099999997
  0
LINE
  8
_0-5_受金具
  6
CONTINUOUS
 62
    4
 10
430.34799999999996
 20
344.84141099999999
 11
430.34799999999996
 21
344.01241099999993
  0
LINE
  8
_0-5_受金具
  6
CONTINUOUS
 62
    4
 10
430.34799999999996
 20
344.84141099999999
 11
430.34799999999996
 21
345.00641099999996
  0
LINE
  8
_0-5_受金具
  6
CONTINUOUS
 62
    4
 10
430.34700000000089
 20
344.01541099999997
 11
430.34700000000089
 21
343.95341099999985
  0
LINE
  8
_0-4_笠木
  6
CONTINUOUS
 62
    4
 10
430.67200000000093
 20
348.60241099999996
 11
430.67200000000093
 21
348.47641099999998
  0
LINE
  8
_0-4_笠木
  6
CONTINUOUS
 62
    4
 10
430.67200000000093
 20
346.84241099999997
 11
430.67200000000093
 21
346.76541099999997
  0
LINE
  8
_0-4_笠木
  6
CONTINUOUS
 62
    4
 10
430.67200000000093
 20
346.76541099999997
 11
430.67200000000093
 21
345.34941099999992
  0
LINE
  8
_0-4_笠木
  6
CONTINUOUS
 62
    4
 10
430.67200000000093
 20
346.76541099999997
 11
430.67200000000093
 21
345.34941099999992
  0
LINE
  8
_0-5_受金具
  6
CONTINUOUS
 62
    4
 10
436.45700000000011
 20
344.17341099999999
 11
438.45700000000011
 21
342.17341099999999
  0
ARC
  8
_0-4_笠木
  6
CONTINUOUS
 62
    4
 10
430.17200000000093
 20
354.45041100000003
 40
0.5
 50
0
 51
119.4889069999972
  0
ARC
  8
_0-5_受金具
  6
PLINE2
 62
    3
 10
449.83277399999997
 20
342.56860499999993
 40
0.5
 50
80.537677999993406
 51
260.53767799999332
  0
ARC
  8
_0-5_受金具
  6
CONTINUOUS
 62
    4
 10
433.95700000000102
 20
362.55141099999992
 40
1
 50
0
 51
90
  0
LINE
  8
_0-5_受金具
  6
CONTINUOUS
 62
    4
 10
436.45700000000011
 20
362.05141099999992
 11
436.45700000000011
 21
365.05141099999992
  0
ARC
  8
_0-5_受金具
  6
CONTINUOUS
 62
    4
 10
432.94800000000009
 20
359.07241099999999
 40
2
 50
0
 51
90
  0
ARC
  8
_0-5_受金具
  6
CONTINUOUS
 62
    4
 10
431.64799999999991
 20
358.57241099999999
 40
1
 50
0
 51
90
  0
LINE
  8
_0-5_受金具
  6
CONTINUOUS
 62
    4
 10
436.45700000000011
 20
360.55141099999992
 11
438.45700000000011
 21
360.55141099999992
  0
LINE
  8
_0-5_受金具
  6
CONTINUOUS
 62
    4
 10
438.45700000000011
 20
362.05141099999992
 11
436.45700000000011
 21
362.05141099999992
  0
LINE
  8
_0-5_受金具
  6
CONTINUOUS
 62
    4
 10
438.45700000000011
 20
360.55141099999992
 11
438.45700000000011
 21
362.05141099999992
  0
LINE
  8
_0-5_受金具
  6
CONTINUOUS
 62
    3
 10
433.39814000000092
 20
365.05141099999992
 11
435.59500000000003
 21
367.24957899999993
  0
LINE
  8
_0-5_受金具
  6
CONTINUOUS
 62
    3
 10
430.5690000000011
 20
365.05141099999992
 11
435.59500000000003
 21
370.07741099999987
  0
LINE
  8
_0-5_受金具
  6
CONTINUOUS
 62
    4
 10
436.45700000000011
 20
365.05141099999992
 11
438.45700000000011
 21
365.05141099999992
  0
LINE
  8
_0-5_受金具
  6
PLINE2
 62
    3
 10
474.58755600000109
 20
334.18196699999999
 11
476.45700000000011
 21
336.05141099999992
  0
LINE
  8
_0-5_受金具
  6
PLINE2
 62
    3
 10
475.23682200000098
 20
330.64313700000002
 11
477.23408000000109
 21
330.53846499999997
  0
LINE
  8
_0-5_受金具
  6
PLINE2
 62
    3
 10
472.24093199999993
 20
330.80014499999993
 11
473.34423399999991
 21
332.74506699999984
  0
LINE
  8
_0-5_受金具
  6
PLINE2
 62
    3
 10
475.34149400000092
 20
332.64039500000001
 11
475.23682200000098
 21
330.64313700000002
  0
LINE
  8
_0-5_受金具
  6
PLINE2
 62
    3
 10
473.34423399999991
 20
332.74506699999984
 11
475.34149400000092
 21
332.64039500000001
  0
LINE
  8
_0-5_受金具
  6
PLINE2
 62
    3
 10
477.41725599999995
 20
334.03366899999992
 11
477.23408000000109
 21
330.53846499999997
  0
LINE
  8
_0-5_受金具
  6
PLINE2
 62
    3
 10
477.23408000000109
 20
330.53846499999997
 11
479.33601200000089
 21
332.43105300000002
  0
LINE
  8
_0-5_受金具
  6
PLINE2
 62
    3
 10
479.33601200000089
 20
332.43105300000002
 11
479.41451600000005
 21
333.92899699999987
  0
LINE
  8
_0-5_受金具
  6
PLINE2
 62
    3
 10
475.23682200000098
 20
341.45968500000004
 11
477.23408000000109
 21
341.56435699999986
  0
LINE
  8
_0-5_受金具
  6
PLINE2
 62
    3
 10
476.39769400000091
 20
335.99210500000004
 11
474.68202199999996
 21
337.92580700000008
  0
LINE
  8
_0-5_受金具
  6
PLINE2
 62
    3
 10
473.34423399999991
 20
339.357755
 11
475.34149400000092
 21
339.46242699999993
  0
LINE
  8
_0-5_受金具
  6
PLINE2
 62
    3
 10
472.24093199999993
 20
341.30267700000002
 11
473.34423399999991
 21
339.357755
  0
LINE
  8
_0-5_受金具
  6
PLINE2
 62
    3
 10
475.34149400000092
 20
339.46242699999993
 11
475.23682200000098
 21
341.45968500000004
  0
LINE
  8
_0-5_受金具
  6
PLINE2
 62
    3
 10
477.41725599999995
 20
338.06915300000003
 11
477.23408000000109
 21
341.56435699999986
  0
LINE
  8
_0-5_受金具
  6
PLINE2
 62
    3
 10
477.23408000000109
 20
341.56435699999986
 11
479.33601200000089
 21
339.67176899999993
  0
LINE
  8
_0-5_受金具
  6
PLINE2
 62
    3
 10
479.33601200000089
 20
339.67176899999993
 11
479.41451600000005
 21
338.17382499999997
  0
LINE
  8
_0-5_受金具
  6
CONTINUOUS
 62
    3
 10
433.15700000000106
 20
380.05141099999992
 11
435.59500000000003
 21
377.61341099999993
  0
LINE
  8
_0-5_受金具
  6
CONTINUOUS
 62
    3
 10
430.32800000000088
 20
380.05141099999992
 11
435.59500000000003
 21
374.78441099999998
  0
LINE
  8
_0-5_受金具
  6
CONTINUOUS
 62
    4
 10
395.84799999999996
 20
331.55441099999985
 11
395.84799999999996
 21
227.84241099999997
  0
LINE
  8
_0-5_受金具
  6
CONTINUOUS
 62
    4
 10
434.94800000000009
 20
359.07241099999999
 11
434.88670943377292
 21
343.62170155866443
  0
INSERT
  2
-001-_D28
  8
_0-2_寸法
 10
-1205.833035844817
 20
-312.34443117320302
 41
0.2
 42
0.2
 50
0
  0
INSERT
  2
-002-_D29
  8
_0-2_寸法
 10
-1205.833035844817
 20
-312.34443117320302
 41
0.2
 42
0.2
 50
0
  0
INSERT
  2
-003-_D30
  8
_0-2_寸法
 10
-1205.833035844817
 20
-312.34443117320302
 41
0.2
 42
0.2
 50
0
  0
INSERT
  2
-004-_D31
  8
_0-2_寸法
 10
-1205.833035844817
 20
-312.34443117320302
 41
0.2
 42
0.2
 50
0
  0
INSERT
  2
-005-_D32
  8
_0-2_寸法
 10
-1205.833035844817
 20
-312.34443117320302
 41
0.2
 42
0.2
 50
0
  0
INSERT
  2
-006-_D33
  8
_0-2_寸法
 10
-1205.833035844817
 20
-312.34443117320302
 41
0.2
 42
0.2
 50
0
  0
INSERT
  2
-007-_D34
  8
_0-2_寸法
 10
-1205.833035844817
 20
-312.34443117320302
 41
0.2
 42
0.2
 50
0
  0
INSERT
  2
-008-_D35
  8
_0-2_寸法
 10
-1205.833035844817
 20
-312.34443117320302
 41
0.2
 42
0.2
 50
0
  0
INSERT
  2
-009-_D36
  8
_0-2_寸法
 10
-1205.833035844817
 20
-312.34443117320302
 41
0.2
 42
0.2
 50
0
  0
INSERT
  2
-010-_D37
  8
_0-2_寸法
 10
-1205.833035844817
 20
-312.34443117320302
 41
0.2
 42
0.2
 50
0
  0
INSERT
  2
-011-_D38
  8
_0-2_寸法
 10
-1205.833035844817
 20
-312.34443117320302
 41
0.2
 42
0.2
 50
0
  0
LINE
  8
_0-5_受金具
  6
CONTINUOUS
 62
    4
 10
423.45737973538007
 20
365.05118669961166
 11
435.59500000000003
 21
365.05141099999992
  0
LINE
  8
_0-5_受金具
  6
CONTINUOUS
 62
    4
 10
440.45700000000011
 20
271.58441099999993
 11
423.47200000000089
 21
247.30641100000003
  0
LINE
  8
_0-5_受金具
  6
CONTINUOUS
 62
    4
 10
423.47200000000089
 20
247.30641100000003
 11
423.47200000000089
 21
158.46821899999998
  0
LINE
  8
_0-3_躯体
  6
CONTINUOUS
 62
    7
 10
423.45700000000011
 20
380.05141099999992
 11
440.45700000000011
 21
380.05141099999992
  0
LINE
  8
_0-5_受金具
  6
CONTINUOUS
 62
    4
 10
440.45700000000011
 20
271.58441099999993
 11
440.45700000000011
 21
380.05141099999992
  0
ENDSEC
  0
EOF
