  0
SECTION
  2
HEADER
  9
$ACADVER
  1
AC1009
  9
$INSBASE
 10
0
 20
0
 30
0
  9
$EXTMIN
 10
0
 20
0
  9
$EXTMAX
 10
841
 20
594
  9
$LIMMIN
 10
0
 20
0
  9
$LIMMAX
 10
841
 20
594
  9
$LTSCALE
 40
1
  0
ENDSEC
  0
SECTION
  2
TABLES
  0
TABLE
  2
LTYPE
 70
     9
  0
LTYPE
  2
CONTINUOUS
 70
    64
  3
実線
 72
    65
 73
     0
 40
0.0
  0
LTYPE
  2
DASHED1
 70
    64
  3
--  --  --  --  --  --  --  --  
 72
    65
 73
     2
 40
2.5
 49
1.25
 49
-1.25
  0
LTYPE
  2
DASHED2
 70
    64
  3
----    ----    ----    ----    
 72
    65
 73
     2
 40
5.0
 49
2.5
 49
-2.5
  0
LTYPE
  2
DASHED3
 70
    64
  3
------  ------  ------  ------  
 72
    65
 73
     2
 40
5.0
 49
3.75
 49
-1.25
  0
LTYPE
  2
CENTER1
 70
    64
  3
----- - ----- - ----- - ----- - 
 72
    65
 73
     4
 40
10.0
 49
6.25
 49
-1.25
 49
1.25
 49
-1.25
  0
LTYPE
  2
CENTER2
 70
    64
  3
----------  --  ----------  --  
 72
    65
 73
     4
 40
20.0
 49
12.5
 49
-2.5
 49
2.5
 49
-2.5
  0
LTYPE
  2
PHANTOM1
 70
    64
  3
--- - - --- - - --- - - --- - - 
 72
    65
 73
     6
 40
10.0
 49
3.25
 49
-1.25
 49
1.25
 49
-1.25
 49
1.25
 49
-1.25
  0
LTYPE
  2
PHANTOM2
 70
    64
  3
--------  -  -  --------  -  -  
 72
    65
 73
     6
 40
20.0
 49
10.0
 49
-2.5
 49
1.25
 49
-2.5
 49
1.25
 49
-2.5
  0
LTYPE
  2
DOT
 70
    64
  3
-   -   -   -   -   -   -   -   
 72
    65
 73
     2
 40
2.5
 49
0.625
 49
-1.875
  0
LTYPE
  2
DUMMY
 70
    64
  3
ダミー
 72
    65
 73
     0
 40
0.0
  0
LTYPE
  2
RAND1
 70
    64
  3
ランダム線1
 72
    65
 73
     4
 40
10.0
 49
1.0
 49
-2.0
 49
3.0
 49
-4.0
  0
LTYPE
  2
RAND2
 70
    64
  3
ランダム線2
 72
    65
 73
     4
 40
14.0
 49
2.0
 49
-3.0
 49
4.0
 49
-5.0
  0
LTYPE
  2
RAND3
 70
    64
  3
ランダム線3
 72
    65
 73
     4
 40
18.0
 49
3.0
 49
-4.0
 49
5.0
 49
-6.0
  0
LTYPE
  2
RAND4
 70
    64
  3
ランダム線4
 72
    65
 73
     4
 40
22.0
 49
4.0
 49
-5.0
 49
6.0
 49
-7.0
  0
LTYPE
  2
RAND5
 70
    64
  3
ランダム線5
 72
    65
 73
     4
 40
26.0
 49
5.0
 49
-6.0
 49
7.0
 49
-8.0
  0
LTYPE
  2
LONG1
 70
    64
  3
----------  --  ----------  --  
 72
    65
 73
     4
 40
40.0
 49
32.5
 49
-2.5
 49
2.5
 49
-2.5
  0
LTYPE
  2
LONG2
 70
    64
  3
--------  -  -  --------  -  -  
 72
    65
 73
     6
 40
40.0
 49
30.0
 49
-2.5
 49
1.25
 49
-2.5
 49
1.25
 49
-2.5
  0
LTYPE
  2
LONG3
 70
    64
  3
+++++++++++++++..+++++++++++++++
 72
    65
 73
     2
 40
40.0
 49
37.5
 49
-2.5
  0
LTYPE
  2
LONG4
 70
    64
  3
+++++++++++++++..+++++++++++++++
 72
    65
 73
     2
 40
80.0
 49
75.0
 49
-5.0
  0
LTYPE
  2
LONG5
 70
    64
  3
----------  --  ----------  --  
 72
    65
 73
     4
 40
60.0
 49
37.5
 49
-7.5
 49
7.5
 49
-7.5
  0
LTYPE
  2
dashed
 70
   64
  3
-------   -------------   ------
 72
   65
 73
    2
 40
7.5
 49
6
 49
-1.5
  0
LTYPE
  2
dashed_spaced
 70
   64
  3
----        --------        ----
 72
   65
 73
    2
 40
12
 49
6
 49
-6
  0
LTYPE
  2
long_dashed_dotted
 70
   64
  3
------------- --- --------------
 72
   65
 73
    4
 40
15.25
 49
12
 49
-1.5
 49
0.25
 49
-1.5
  0
LTYPE
  2
long_dashed_double-dotted
 70
   64
  3
----------- --- --- ------------
 72
   65
 73
    6
 40
17
 49
12
 49
-1.5
 49
0.25
 49
-1.5
 49
0.25
 49
-1.5
  0
LTYPE
  2
long_dashed_triplicate-dotted
 70
   64
  3
--------- --- --- --- ----------
 72
   65
 73
    8
 40
18.75
 49
12
 49
-1.5
 49
0.25
 49
-1.5
 49
0.25
 49
-1.5
 49
0.25
 49
-1.5
  0
LTYPE
  2
dotted
 70
   64
  3
   -       -       -       -    
 72
   65
 73
    2
 40
1.75
 49
0.25
 49
-1.5
  0
LTYPE
  2
chain
 70
   64
  3
-------------- -- --------------
 72
   65
 73
    4
 40
18.5
 49
12
 49
-1.5
 49
3.5
 49
-1.5
  0
LTYPE
  2
chain_double_dash
 70
   64
  3
------------ -- -- -------------
 72
   65
 73
    6
 40
23.5
 49
12
 49
-1.5
 49
3.5
 49
-1.5
 49
3.5
 49
-1.5
  0
LTYPE
  2
dashed_dotted
 70
   64
  3
-----------     -     ----------
 72
   65
 73
    4
 40
9.25
 49
6
 49
-1.5
 49
0.25
 49
-1.5
  0
LTYPE
  2
double-dashed_dotted
 70
   64
  3
------   -----------   -   -----
 72
   65
 73
    6
 40
16.75
 49
6
 49
-1.5
 49
6
 49
-1.5
 49
0.25
 49
-1.5
  0
LTYPE
  2
dashed_double-dotted
 70
   64
  3
---------    -    -    ---------
 72
   65
 73
    6
 40
11
 49
6
 49
-1.5
 49
0.25
 49
-1.5
 49
0.25
 49
-1.5
  0
LTYPE
  2
double-dashed_double-dotted
 70
   64
  3
-----   ---------   -   -   ----
 72
   65
 73
    8
 40
18.5
 49
6
 49
-1.5
 49
6
 49
-1.5
 49
0.25
 49
-1.5
 49
0.25
 49
-1.5
  0
LTYPE
  2
dashed_triplicate-dotted
 70
   64
  3
-------    -    -    -    ------
 72
   65
 73
    8
 40
12.75
 49
6
 49
-1.5
 49
0.25
 49
-1.5
 49
0.25
 49
-1.5
 49
0.25
 49
-1.5
  0
LTYPE
  2
double-dashed_triplicate-dotted
 70
   64
  3
-----  ---------  -  -  -  -----
 72
   65
 73
   10
 40
20.25
 49
6
 49
-1.5
 49
6
 49
-1.5
 49
0.25
 49
-1.5
 49
0.25
 49
-1.5
 49
0.25
 49
-1.5
  0
LTYPE
  2
undefined
 70
   64
  3
--------------------------------
 72
   65
 73
    0
 40
0
  0
LTYPE
  2
PLINE2
 70
   64
  3
------     -----------     -----
 72
   65
 73
    2
 40
3
 49
2.1000000000000001
 49
-0.9
  0
LTYPE
  2
PLINE3
 70
   64
  3
------------   ---   -----------
 72
   65
 73
    4
 40
10
 49
7
 49
-1
 49
1
 49
-1
  0
LTYPE
  2
PLINE4
 70
   64
  3
---------   ---   ---   --------
 72
   65
 73
    6
 40
10
 49
5
 49
-1
 49
1
 49
-1
 49
1
 49
-1
  0
LTYPE
  2
PLINE5
 70
   64
  3
------     -----------     -----
 72
   65
 73
    2
 40
5
 49
3.5
 49
-1.5
  0
LTYPE
  2
PLINE6
 70
   64
  3
------------   ---   -----------
 72
   65
 73
    4
 40
15
 49
10.5
 49
-1.5
 49
1.5
 49
-1.5
  0
LTYPE
  2
PLINE7
 70
   64
  3
---------   ---   ---   --------
 72
   65
 73
    6
 40
15
 49
7.5
 49
-1.5
 49
1.5
 49
-1.5
 49
1.5
 49
-1.5
  0
LTYPE
  2
PLINE8
 70
   64
  3
------     -----------     -----
 72
   65
 73
    2
 40
7
 49
4.9000000000000004
 49
-2.1000000000000001
  0
LTYPE
  2
PLINE9
 70
   64
  3
------------   ---   -----------
 72
   65
 73
    4
 40
20
 49
14
 49
-2
 49
2
 49
-2
  0
LTYPE
  2
PLINE10
 70
   64
  3
---------   ---   ---   --------
 72
   65
 73
    6
 40
20
 49
10
 49
-2
 49
2
 49
-2
 49
2
 49
-2
  0
LTYPE
  2
PLINE11
 70
   64
  3
------     -----------     -----
 72
   65
 73
    2
 40
8.9999999999999982
 49
6.299999999999998
 49
-2.7000000000000002
  0
LTYPE
  2
PLINE12
 70
   64
  3
------------   ---   -----------
 72
   65
 73
    4
 40
25
 49
17.5
 49
-2.5
 49
2.5
 49
-2.5
  0
LTYPE
  2
PLINE13
 70
   64
  3
---------   ---   ---   --------
 72
   65
 73
    6
 40
25
 49
12.5
 49
-2.5
 49
2.5
 49
-2.5
 49
2.5
 49
-2.5
  0
LTYPE
  2
PLINE14
 70
   64
  3
------     -----------     -----
 72
   65
 73
    2
 40
10.999999999999998
 49
7.7000000000000002
 49
-3.299999999999998
  0
LTYPE
  2
PLINE15
 70
   64
  3
------------   ---   -----------
 72
   65
 73
    4
 40
30
 49
21
 49
-3
 49
3
 49
-3
  0
LTYPE
  2
PLINE16
 70
   64
  3
---------   ---   ---   --------
 72
   65
 73
    6
 40
30
 49
15
 49
-3
 49
3
 49
-3
 49
3
 49
-3
  0
ENDTAB
  0
TABLE
  2
STYLE
  5
3
100
AcDbSymbolTable
 70
     1
  0
STYLE
  5
10
100
AcDbSymbolTableRecord
100
AcDbTextStyleTableRecord
  2
STANDARD
 70
     0
 40
0.0
 41
1.0
 50
0.0
 71
     0
 42
0.2
  3
txt
  4
bigfont.shx
  0
STYLE
  5
26
100
AcDbSymbolTableRecord
100
AcDbTextStyleTableRecord
  2
TATEGAKI
 70
    68
 40
0.0
 41
1.0
 50
0.0
 71
     0
 42
1.0
  3
txt
  4
bigfont.shx
  0
ENDTAB
  0
TABLE
  2
LAYER
 70
    5
  0
LAYER
  2
_0-2_寸法
 70
   64
 62
    7
  6
CONTINUOUS
  0
LAYER
  2
_0-3_躯体
 70
   64
 62
    7
  6
CONTINUOUS
  0
LAYER
  2
_0-4_笠木
 70
   64
 62
    7
  6
CONTINUOUS
  0
LAYER
  2
_0-5_受金具
 70
   64
 62
    7
  6
CONTINUOUS
  0
LAYER
  2
ADD_LINE
 70
   64
 62
    7
  6
CONTINUOUS
  0
ENDTAB
  0
ENDSEC
  0
SECTION
  2
BLOCKS
  0
BLOCK
  2
-000-_Dot
 70
   64
 10
0
 20
0
 30
0
  0
CIRCLE
  8
_0-0_0
  6
CONTINUOUS
 62
    7
 10
0
 20
0
 40
1
  0
LINE
  8
_0-0_0
  6
CONTINUOUS
 62
    7
 10
1
 20
0
 11
-1
 21
0
  0
LINE
  8
_0-0_0
  6
CONTINUOUS
 62
    7
 10
-2
 20
0
 11
-4
 21
0
  0
ENDBLK
  0
BLOCK
  2
-001-_D4
 70
   64
 10
0
 20
0
 30
0
  0
LINE
  8
_0-2_寸法
  6
CONTINUOUS
 62
    4
 10
6818.6907442554002
 20
2374.6496674697687
 11
6818.6907442554002
 21
2410.5479495747491
  0
LINE
  8
_0-2_寸法
  6
CONTINUOUS
 62
    4
 10
6886.8860002554002
 20
2374.6496674697687
 11
6886.8860002554002
 21
2410.5479495747491
  0
LINE
  8
_0-2_寸法
  6
CONTINUOUS
 62
    4
 10
6890.8860002554002
 20
2410.5479495747491
 11
6894.8860002554002
 21
2410.5479495747491
  0
LINE
  8
_0-2_寸法
  6
CONTINUOUS
 62
    4
 10
6814.6907442554002
 20
2410.5479495747491
 11
6779.0716966363516
 21
2410.5479495747491
  0
INSERT
  2
-000-_Dot
  8
_0-2_寸法
 10
6886.8860002554002
 20
2410.5479495747491
 41
1
 42
1
 50
180
  0
INSERT
  2
-000-_Dot
  8
_0-2_寸法
 10
6818.6907442554002
 20
2410.5479495747491
 41
1
 42
1
 50
0
  0
TEXT
  8
_0-2_寸法
 62
    7
 10
6784.031220445876
 20
2414.5479495747491
 40
20
 41
1
 50
0
  1
18
  0
POINT
  8
_0-1_Defpoints
 62
    7
 10
6818.6907442554002
 20
2374.6496674697687
  0
POINT
  8
_0-1_Defpoints
 62
    7
 10
6886.8860002554002
 20
2374.6496674697687
  0
POINT
  8
_0-1_Defpoints
 62
    7
 10
6886.8860002554002
 20
2410.5479495747491
  0
ENDBLK
  0
BLOCK
  2
-002-_D5
 70
   64
 10
0
 20
0
 30
0
  0
LINE
  8
_0-2_寸法
  6
CONTINUOUS
 62
    4
 10
6982.201246548876
 20
2435.4936674697678
 11
7090.3947442553999
 21
2435.4936674697678
  0
LINE
  8
_0-2_寸法
  6
CONTINUOUS
 62
    4
 10
6982.201246548876
 20
2374.6496674697687
 11
7090.3947442553999
 21
2374.6496674697687
  0
LINE
  8
_0-2_寸法
  6
CONTINUOUS
 62
    4
 10
7090.3947442553999
 20
2431.4936674697678
 11
7090.3947442553999
 21
2378.6496674697687
  0
INSERT
  2
-000-_Dot
  8
_0-2_寸法
 10
7090.3947442553999
 20
2435.4936674697678
 41
1
 42
1
 50
90
  0
INSERT
  2
-000-_Dot
  8
_0-2_寸法
 10
7090.3947442553999
 20
2374.6496674697687
 41
1
 42
1
 50
270
  0
TEXT
  8
_0-2_寸法
 62
    7
 10
7086.3947442553917
 20
2394.2216674697697
 40
20
 41
1
 50
90
  1
15
  0
POINT
  8
_0-1_Defpoints
 62
    7
 10
6982.201246548876
 20
2435.4936674697678
  0
POINT
  8
_0-1_Defpoints
 62
    7
 10
6982.201246548876
 20
2374.6496674697687
  0
POINT
  8
_0-1_Defpoints
 62
    7
 10
7090.3947442553999
 20
2374.6496674697687
  0
ENDBLK
  0
BLOCK
  2
-003-_D6
 70
   64
 10
0
 20
0
 30
0
  0
LINE
  8
_0-2_寸法
  6
CONTINUOUS
 62
    4
 10
6982.201246548876
 20
2374.6496674697687
 11
7090.3947442553999
 21
2374.6496674697687
  0
LINE
  8
_0-2_寸法
  6
CONTINUOUS
 62
    4
 10
6982.201246548876
 20
2194.7776674697689
 11
7090.3947442553999
 21
2194.7776674697689
  0
LINE
  8
_0-2_寸法
  6
CONTINUOUS
 62
    4
 10
7090.3947442553999
 20
2370.6496674697692
 11
7090.3947442553999
 21
2198.7776674697689
  0
INSERT
  2
-000-_Dot
  8
_0-2_寸法
 10
7090.3947442553999
 20
2374.6496674697687
 41
1
 42
1
 50
90
  0
INSERT
  2
-000-_Dot
  8
_0-2_寸法
 10
7090.3947442553999
 20
2194.7776674697689
 41
1
 42
1
 50
270
  0
TEXT
  8
_0-2_寸法
 62
    7
 10
7086.3947442553917
 20
2273.86366746977
 40
20
 41
1
 50
90
  1
45
  0
POINT
  8
_0-1_Defpoints
 62
    7
 10
6982.201246548876
 20
2374.6496674697687
  0
POINT
  8
_0-1_Defpoints
 62
    7
 10
6982.201246548876
 20
2194.7776674697689
  0
POINT
  8
_0-1_Defpoints
 62
    7
 10
7090.3947442553999
 20
2194.7776674697689
  0
ENDBLK
  0
BLOCK
  2
-004-_D7
 70
   64
 10
0
 20
0
 30
0
  0
LINE
  8
_0-2_寸法
  6
CONTINUOUS
 62
    4
 10
6982.201246548876
 20
2194.7776674697689
 11
7090.3947442553999
 21
2194.7776674697689
  0
LINE
  8
_0-2_寸法
  6
CONTINUOUS
 62
    4
 10
6982.201246548876
 20
1948.6496674697685
 11
7090.3947442553999
 21
1948.6496674697685
  0
LINE
  8
_0-2_寸法
  6
CONTINUOUS
 62
    4
 10
7090.3947442553999
 20
2190.7776674697689
 11
7090.3947442553999
 21
1952.6496674697685
  0
INSERT
  2
-000-_Dot
  8
_0-2_寸法
 10
7090.3947442553999
 20
2194.7776674697689
 41
1
 42
1
 50
90
  0
INSERT
  2
-000-_Dot
  8
_0-2_寸法
 10
7090.3947442553999
 20
1948.6496674697685
 41
1
 42
1
 50
270
  0
TEXT
  8
_0-2_寸法
 62
    7
 10
7086.3947442553917
 20
2049.1636674697688
 40
20
 41
1
 50
90
  1
61.5
  0
POINT
  8
_0-1_Defpoints
 62
    7
 10
6982.201246548876
 20
2194.7776674697689
  0
POINT
  8
_0-1_Defpoints
 62
    7
 10
6982.201246548876
 20
1948.6496674697685
  0
POINT
  8
_0-1_Defpoints
 62
    7
 10
7090.3947442553999
 20
1948.6496674697685
  0
ENDBLK
  0
BLOCK
  2
-005-_D8
 70
   64
 10
0
 20
0
 30
0
  0
LINE
  8
_0-2_寸法
  6
CONTINUOUS
 62
    4
 10
6886.8907442554
 20
2467.7294392419649
 11
6886.8907442554
 21
2536.449251469769
  0
LINE
  8
_0-2_寸法
  6
CONTINUOUS
 62
    4
 10
6839.6907442554002
 20
2467.7294392419649
 11
6839.6907442554002
 21
2536.449251469769
  0
LINE
  8
_0-2_寸法
  6
CONTINUOUS
 62
    4
 10
6890.8907442554
 20
2536.449251469769
 11
6894.8907442554
 21
2536.449251469769
  0
LINE
  8
_0-2_寸法
  6
CONTINUOUS
 62
    4
 10
6835.6907442554002
 20
2536.449251469769
 11
6831.6907442554002
 21
2536.449251469769
  0
INSERT
  2
-000-_Dot
  8
_0-2_寸法
 10
6886.8907442554
 20
2536.449251469769
 41
1
 42
1
 50
180
  0
INSERT
  2
-000-_Dot
  8
_0-2_寸法
 10
6839.6907442554002
 20
2536.449251469769
 41
1
 42
1
 50
0
  0
TEXT
  8
_0-2_寸法
 62
    7
 10
6840.7407442553995
 20
2540.449251469769
 40
20
 41
1
 50
0
  1
11.8
  0
POINT
  8
_0-1_Defpoints
 62
    7
 10
6886.8907442554
 20
2467.7294392419649
  0
POINT
  8
_0-1_Defpoints
 62
    7
 10
6839.6907442554002
 20
2467.7294392419649
  0
POINT
  8
_0-1_Defpoints
 62
    7
 10
6839.6907442554002
 20
2536.449251469769
  0
ENDBLK
  0
BLOCK
  2
-006-_D9
 70
   64
 10
0
 20
0
 30
0
  0
LINE
  8
_0-2_寸法
  6
CONTINUOUS
 62
    4
 10
6839.6907442554002
 20
2467.7294392419649
 11
6839.6907442554002
 21
2536.449251469769
  0
LINE
  8
_0-2_寸法
  6
CONTINUOUS
 62
    4
 10
6559.6907442554002
 20
2467.7294392419649
 11
6559.6907442554002
 21
2536.449251469769
  0
LINE
  8
_0-2_寸法
  6
CONTINUOUS
 62
    4
 10
6835.6907442554002
 20
2536.449251469769
 11
6563.6907442554002
 21
2536.449251469769
  0
INSERT
  2
-000-_Dot
  8
_0-2_寸法
 10
6839.6907442554002
 20
2536.449251469769
 41
1
 42
1
 50
0
  0
INSERT
  2
-000-_Dot
  8
_0-2_寸法
 10
6559.6907442554002
 20
2536.449251469769
 41
1
 42
1
 50
180
  0
TEXT
  8
_0-2_寸法
 62
    7
 10
6688.8407442553998
 20
2540.449251469769
 40
20
 41
1
 50
0
  1
70
  0
POINT
  8
_0-1_Defpoints
 62
    7
 10
6839.6907442554002
 20
2467.7294392419649
  0
POINT
  8
_0-1_Defpoints
 62
    7
 10
6559.6907442554002
 20
2467.7294392419649
  0
POINT
  8
_0-1_Defpoints
 62
    7
 10
6559.6907442554002
 20
2536.449251469769
  0
ENDBLK
  0
BLOCK
  2
-007-_D10
 70
   64
 10
0
 20
0
 30
0
  0
LINE
  8
_0-2_寸法
  6
CONTINUOUS
 62
    4
 10
6529.4955070173437
 20
2374.6496674697687
 11
6507.7867442553998
 21
2374.6496674697687
  0
LINE
  8
_0-2_寸法
  6
CONTINUOUS
 62
    4
 10
6529.4955070173437
 20
2330.4976674697687
 11
6507.7867442553998
 21
2330.4976674697687
  0
LINE
  8
_0-2_寸法
  6
CONTINUOUS
 62
    4
 10
6507.7867442553998
 20
2370.6496674697692
 11
6507.7867442553998
 21
2334.4976674697687
  0
INSERT
  2
-000-_Dot
  8
_0-2_寸法
 10
6507.7867442553998
 20
2374.6496674697687
 41
1
 42
1
 50
90
  0
INSERT
  2
-000-_Dot
  8
_0-2_寸法
 10
6507.7867442553998
 20
2330.4976674697687
 41
1
 42
1
 50
270
  0
TEXT
  8
_0-2_寸法
 62
    7
 10
6503.7867442553998
 20
2341.7236674697701
 40
20
 41
1
 50
90
  1
11
  0
POINT
  8
_0-1_Defpoints
 62
    7
 10
6529.4955070173437
 20
2374.6496674697687
  0
POINT
  8
_0-1_Defpoints
 62
    7
 10
6529.4955070173437
 20
2330.4976674697687
  0
POINT
  8
_0-1_Defpoints
 62
    7
 10
6507.7867442553998
 20
2330.4976674697687
  0
ENDBLK
  0
BLOCK
  2
-008-_D11
 70
   64
 10
0
 20
0
 30
0
  0
LINE
  8
_0-2_寸法
  6
CONTINUOUS
 62
    4
 10
6529.4955070173437
 20
2374.6496674697687
 11
6443.7867442553998
 21
2374.6496674697687
  0
LINE
  8
_0-2_寸法
  6
CONTINUOUS
 62
    4
 10
6529.4955070173437
 20
2288.6696674697691
 11
6443.7867442553998
 21
2288.6696674697691
  0
LINE
  8
_0-2_寸法
  6
CONTINUOUS
 62
    4
 10
6443.7867442553998
 20
2370.6496674697692
 11
6443.7867442553998
 21
2292.6696674697682
  0
INSERT
  2
-000-_Dot
  8
_0-2_寸法
 10
6443.7867442553998
 20
2374.6496674697687
 41
1
 42
1
 50
90
  0
INSERT
  2
-000-_Dot
  8
_0-2_寸法
 10
6443.7867442553998
 20
2288.6696674697691
 41
1
 42
1
 50
270
  0
TEXT
  8
_0-2_寸法
 62
    7
 10
6439.7867442553998
 20
2309.1096674697692
 40
20
 41
1
 50
90
  1
21.5
  0
POINT
  8
_0-1_Defpoints
 62
    7
 10
6529.4955070173437
 20
2374.6496674697687
  0
POINT
  8
_0-1_Defpoints
 62
    7
 10
6529.4955070173437
 20
2288.6696674697691
  0
POINT
  8
_0-1_Defpoints
 62
    7
 10
6443.7867442553998
 20
2288.6696674697691
  0
ENDBLK
  0
BLOCK
  2
-009-_D12
 70
   64
 10
0
 20
0
 30
0
  0
LINE
  8
_0-2_寸法
  6
CONTINUOUS
 62
    4
 10
6529.4955070173437
 20
2288.6696674697691
 11
6443.7867442553998
 21
2288.6696674697691
  0
LINE
  8
_0-2_寸法
  6
CONTINUOUS
 62
    4
 10
6529.4955070173437
 20
2248.6496674697682
 11
6443.7867442553998
 21
2248.6496674697682
  0
LINE
  8
_0-2_寸法
  6
CONTINUOUS
 62
    4
 10
6443.7867442553998
 20
2284.6696674697678
 11
6443.7867442553998
 21
2252.6496674697692
  0
INSERT
  2
-000-_Dot
  8
_0-2_寸法
 10
6443.7867442553998
 20
2288.6696674697691
 41
1
 42
1
 50
90
  0
INSERT
  2
-000-_Dot
  8
_0-2_寸法
 10
6443.7867442553998
 20
2248.6496674697682
 41
1
 42
1
 50
270
  0
TEXT
  8
_0-2_寸法
 62
    7
 10
6439.7867442553998
 20
2257.8096674697699
 40
20
 41
1
 50
90
  1
10
  0
POINT
  8
_0-1_Defpoints
 62
    7
 10
6529.4955070173437
 20
2288.6696674697691
  0
POINT
  8
_0-1_Defpoints
 62
    7
 10
6529.4955070173437
 20
2248.6496674697682
  0
POINT
  8
_0-1_Defpoints
 62
    7
 10
6443.7867442553998
 20
2248.6496674697682
  0
ENDBLK
  0
BLOCK
  2
-010-_D13
 70
   64
 10
0
 20
0
 30
0
  0
LINE
  8
_0-2_寸法
  6
CONTINUOUS
 62
    4
 10
6529.4955070173437
 20
2248.6496674697682
 11
6443.7867442553998
 21
2248.6496674697682
  0
LINE
  8
_0-2_寸法
  6
CONTINUOUS
 62
    4
 10
6529.4955070173437
 20
1948.6496674697685
 11
6443.7867442553998
 21
1948.6496674697685
  0
LINE
  8
_0-2_寸法
  6
CONTINUOUS
 62
    4
 10
6443.7867442553998
 20
2244.6496674697682
 11
6443.7867442553998
 21
1952.6496674697685
  0
INSERT
  2
-000-_Dot
  8
_0-2_寸法
 10
6443.7867442553998
 20
2248.6496674697682
 41
1
 42
1
 50
90
  0
INSERT
  2
-000-_Dot
  8
_0-2_寸法
 10
6443.7867442553998
 20
1948.6496674697685
 41
1
 42
1
 50
270
  0
TEXT
  8
_0-2_寸法
 62
    7
 10
6439.7867442553998
 20
2087.7996674697697
 40
20
 41
1
 50
90
  1
75
  0
POINT
  8
_0-1_Defpoints
 62
    7
 10
6529.4955070173437
 20
2248.6496674697682
  0
POINT
  8
_0-1_Defpoints
 62
    7
 10
6529.4955070173437
 20
1948.6496674697685
  0
POINT
  8
_0-1_Defpoints
 62
    7
 10
6443.7867442553998
 20
1948.6496674697685
  0
ENDBLK
  0
BLOCK
  2
-011-_D14
 70
   64
 10
0
 20
0
 30
0
  0
LINE
  8
_0-2_寸法
  6
CONTINUOUS
 62
    4
 10
6529.4955070173437
 20
1948.6496674697685
 11
6367.7867442553998
 21
1948.6496674697685
  0
LINE
  8
_0-2_寸法
  6
CONTINUOUS
 62
    4
 10
6529.4955070173437
 20
2374.6496674697687
 11
6367.7867442553998
 21
2374.6496674697687
  0
LINE
  8
_0-2_寸法
  6
CONTINUOUS
 62
    4
 10
6367.7867442553998
 20
1952.6496674697685
 11
6367.7867442553998
 21
2370.6496674697692
  0
INSERT
  2
-000-_Dot
  8
_0-2_寸法
 10
6367.7867442553998
 20
1948.6496674697685
 41
1
 42
1
 50
270
  0
INSERT
  2
-000-_Dot
  8
_0-2_寸法
 10
6367.7867442553998
 20
2374.6496674697687
 41
1
 42
1
 50
90
  0
TEXT
  8
_0-2_寸法
 62
    7
 10
6363.7867442553998
 20
2133.2496674697695
 40
20
 41
1
 50
90
  1
106.5
  0
POINT
  8
_0-1_Defpoints
 62
    7
 10
6529.4955070173437
 20
1948.6496674697685
  0
POINT
  8
_0-1_Defpoints
 62
    7
 10
6529.4955070173437
 20
2374.6496674697687
  0
POINT
  8
_0-1_Defpoints
 62
    7
 10
6367.7867442553998
 20
2374.6496674697687
  0
ENDBLK
  0
BLOCK
  2
-012-_D15
 70
   64
 10
0
 20
0
 30
0
  0
LINE
  8
_0-2_寸法
  6
CONTINUOUS
 62
    4
 10
6559.6907442554002
 20
1831.2031390352183
 11
6559.6907442554002
 21
1737.3892514697684
  0
LINE
  8
_0-2_寸法
  6
CONTINUOUS
 62
    4
 10
6886.8907442554
 20
1831.2031390352183
 11
6886.8907442554
 21
1737.3892514697684
  0
LINE
  8
_0-2_寸法
  6
CONTINUOUS
 62
    4
 10
6563.6907442554002
 20
1737.3892514697684
 11
6882.8907442554
 21
1737.3892514697684
  0
INSERT
  2
-000-_Dot
  8
_0-2_寸法
 10
6559.6907442554002
 20
1737.3892514697684
 41
1
 42
1
 50
180
  0
INSERT
  2
-000-_Dot
  8
_0-2_寸法
 10
6886.8907442554
 20
1737.3892514697684
 41
1
 42
1
 50
0
  0
TEXT
  8
_0-2_寸法
 62
    7
 10
6694.8907442554
 20
1746.627346707864
 40
20
 41
1
 50
0
  1
 (82)
  0
POINT
  8
_0-1_Defpoints
 62
    7
 10
6559.6907442554002
 20
1831.2031390352183
  0
POINT
  8
_0-1_Defpoints
 62
    7
 10
6886.8907442554
 20
1831.2031390352183
  0
POINT
  8
_0-1_Defpoints
 62
    7
 10
6886.8907442554
 20
1737.3892514697684
  0
ENDBLK
  0
ENDSEC
  0
SECTION
  2
ENTITIES
  0
LINE
  8
_0-4_笠木
  6
CONTINUOUS
 62
    4
 10
378.61250000000018
 20
333.02251499999988
 11
448.61250000000018
 21
343.02751500000011
  0
LINE
  8
_0-3_躯体
  6
CONTINUOUS
 62
    4
 10
460.41250000000014
 20
301.02551500000004
 11
404.60150000000021
 21
288.43351499999994
  0
LINE
  8
_0-5_受金具
  6
CONTINUOUS
 62
    4
 10
381.62050000000022
 20
331.24451499999998
 11
450.45050000000015
 21
340.92551500000002
  0
LINE
  8
_0-5_受金具
  6
CONTINUOUS
 62
    4
 10
383.92050000000017
 20
329.25551499999995
 11
452.00650000000019
 21
338.8195149999998
  0
LINE
  8
_0-4_笠木
  6
CONTINUOUS
 62
    4
 10
380.11250000000018
 20
331.72151499999995
 11
455.31250000000023
 21
342.52851499999997
  0
LINE
  8
_0-4_笠木
  6
CONTINUOUS
 62
    4
 10
378.61250000000018
 20
258.52251499999994
 11
378.61250000000018
 21
333.02251499999988
  0
LINE
  8
_0-5_受金具
  6
CONTINUOUS
 62
    4
 10
380.76250000000005
 20
260.77151499999991
 11
380.76250000000005
 21
330.25551499999995
  0
LINE
  8
_0-5_受金具
  6
CONTINUOUS
 62
    4
 10
383.06250000000023
 20
260.77151499999991
 11
383.06250000000023
 21
328.26551499999994
  0
LINE
  8
_0-4_笠木
  6
CONTINUOUS
 62
    4
 10
380.11250000000018
 20
331.72151499999995
 11
380.11250000000018
 21
263.38851499999993
  0
LINE
  8
_0-3_躯体
  6
CONTINUOUS
 62
    4
 10
404.60150000000021
 20
158.46821899999992
 11
404.60150000000021
 21
288.43351499999994
  0
CIRCLE
  8
_0-3_躯体
  6
CONTINUOUS
 62
    3
 10
435.39566000000013
 20
162.82654499999984
 40
0.4699760000000002
  0
CIRCLE
  8
_0-3_躯体
  6
CONTINUOUS
 62
    3
 10
420.31078600000023
 20
175.81011100000001
 40
0.4699760000000002
  0
CIRCLE
  8
_0-3_躯体
  6
CONTINUOUS
 62
    3
 10
409.1545000000001
 20
189.76789899999994
 40
0.5
  0
CIRCLE
  8
_0-3_躯体
  6
CONTINUOUS
 62
    3
 10
438.93350000000009
 20
188.70089900000005
 40
0.5
  0
CIRCLE
  8
_0-3_躯体
  6
CONTINUOUS
 62
    3
 10
427.65710000000013
 20
197.73395099999993
 40
0.4699760000000002
  0
ARC
  8
_0-4_笠木
  6
CONTINUOUS
 62
    4
 10
383.96250000000009
 20
261.772515
 40
0.75
 50
90
 51
180
  0
LINE
  8
_0-4_笠木
  6
CONTINUOUS
 62
    4
 10
380.61250000000018
 20
260.82251500000001
 11
380.61250000000018
 21
262.52251499999994
  0
ARC
  8
_0-4_笠木
  6
CONTINUOUS
 62
    4
 10
383.96250000000009
 20
261.772515
 40
0.75
 50
0
 51
90
  0
ARC
  8
_0-5_受金具
  6
CONTINUOUS
 62
    4
 10
381.91250000000014
 20
260.77151499999991
 40
1.149999999999999
 50
270
 51
0
  0
ARC
  8
_0-4_笠木
  6
CONTINUOUS
 62
    4
 10
381.91250000000014
 20
260.82251500000001
 40
1.3
 50
270
 51
0
  0
ARC
  8
_0-4_笠木
  6
CONTINUOUS
 62
    4
 10
381.91250000000014
 20
260.82251500000001
 40
2.799999999999998
 50
270
 51
0
  0
ARC
  8
_0-4_笠木
  6
CONTINUOUS
 62
    4
 10
379.11250000000018
 20
258.52251499999994
 40
0.5
 50
180
 51
270
  0
LINE
  8
_0-4_笠木
  6
CONTINUOUS
 62
    4
 10
379.11250000000018
 20
258.02251499999994
 11
381.91250000000014
 21
258.02251499999994
  0
ARC
  8
_0-4_笠木
  6
CONTINUOUS
 62
    4
 10
381.91250000000014
 20
260.82251500000001
 40
1.3
 50
180
 51
270
  0
ARC
  8
_0-5_受金具
  6
CONTINUOUS
 62
    4
 10
381.91250000000014
 20
260.77151499999991
 40
1.149999999999999
 50
180
 51
270
  0
LINE
  8
_0-4_笠木
  6
CONTINUOUS
 62
    4
 10
383.21250000000009
 20
261.772515
 11
383.21250000000009
 21
260.82251500000001
  0
LINE
  8
_0-4_笠木
  6
CONTINUOUS
 62
    4
 10
384.71250000000009
 20
260.82251500000001
 11
384.71250000000009
 21
261.772515
  0
CIRCLE
  8
_0-3_躯体
  6
CONTINUOUS
 62
    3
 10
415.46577800000023
 20
210.22150500000004
 40
0.5
  0
CIRCLE
  8
_0-3_躯体
  6
CONTINUOUS
 62
    3
 10
414.99981400000024
 20
229.08753899999994
 40
0.4699760000000002
  0
CIRCLE
  8
_0-3_躯体
  6
CONTINUOUS
 62
    3
 10
435.39566000000013
 20
215.40516299999985
 40
0.4699760000000002
  0
CIRCLE
  8
_0-3_躯体
  6
CONTINUOUS
 62
    3
 10
417.9815000000001
 20
250.30051500000002
 40
0.5
  0
CIRCLE
  8
_0-3_躯体
  6
CONTINUOUS
 62
    3
 10
432.38451800000007
 20
238.33684500000004
 40
0.5
  0
LINE
  8
_0-4_笠木
  6
CONTINUOUS
 62
    4
 10
380.61250000000018
 20
262.52251499999994
 11
380.11250000000018
 21
263.38851499999993
  0
LINE
  8
_0-4_笠木
  6
CONTINUOUS
 62
    4
 10
380.11250000000018
 20
264.0795149999999
 11
380.11250000000018
 21
263.38851499999993
  0
CIRCLE
  8
_0-3_躯体
  6
CONTINUOUS
 62
    3
 10
417.22063000000003
 20
284.82320300000003
 40
0.5
  0
CIRCLE
  8
_0-3_躯体
  6
CONTINUOUS
 62
    3
 10
423.49230800000009
 20
269.72038900000001
 40
0.37019
  0
CIRCLE
  8
_0-3_躯体
  6
CONTINUOUS
 62
    3
 10
440.44517400000018
 20
264.78026099999994
 40
0.4699760000000002
  0
CIRCLE
  8
_0-3_躯体
  6
CONTINUOUS
 62
    3
 10
432.70542600000022
 20
274.79105499999991
 40
0.144774
  0
CIRCLE
  8
_0-3_躯体
  6
CONTINUOUS
 62
    3
 10
437.18848800000023
 20
282.33743299999992
 40
0.4699760000000002
  0
ARC
  8
_0-5_受金具
  6
CONTINUOUS
 62
    4
 10
381.76250000000005
 20
330.25551499999995
 40
1
 50
98.170654000000894
 51
180
  0
ARC
  8
_0-5_受金具
  6
CONTINUOUS
 62
    4
 10
384.06250000000023
 20
328.26551499999994
 40
1
 50
98.162505999998174
 51
180
  0
LINE
  8
_0-5_受金具
  6
CONTINUOUS
 62
    4
 10
460.40050000000019
 20
322.05451500000004
 11
460.40050000000019
 21
319.55451500000004
  0
LINE
  8
_0-5_受金具
  6
CONTINUOUS
 62
    4
 10
457.62850000000003
 20
336.38151499999992
 11
457.62850000000003
 21
319.55451500000004
  0
LINE
  8
_0-3_躯体
  6
CONTINUOUS
 62
    3
 10
460.41250000000014
 20
285.87791100000004
 11
516.36350000000016
 21
341.82891100000006
  0
LINE
  8
_0-3_躯体
  6
CONTINUOUS
 62
    7
 10
460.41250000000014
 20
158.46821899999992
 11
460.41250000000014
 21
379.76451500000007
  0
LINE
  8
_0-3_躯体
  6
CONTINUOUS
 62
    3
 10
460.41250000000014
 20
283.87791100000004
 11
516.36350000000016
 21
339.82891100000006
  0
LINE
  8
_0-3_躯体
  6
CONTINUOUS
 62
    3
 10
460.41250000000014
 20
281.87791099999993
 11
516.36350000000016
 21
337.82891100000006
  0
LINE
  8
_0-3_躯体
  6
CONTINUOUS
 62
    3
 10
460.41250000000014
 20
191.32330699999983
 11
516.36350000000016
 21
247.27430699999991
  0
LINE
  8
_0-3_躯体
  6
CONTINUOUS
 62
    3
 10
460.41250000000014
 20
189.323307
 11
516.36350000000016
 21
245.27430699999985
  0
LINE
  8
_0-3_躯体
  6
CONTINUOUS
 62
    3
 10
460.41250000000014
 20
187.2693069999998
 11
516.36350000000016
 21
243.22030700000005
  0
LINE
  8
_0-3_躯体
  6
CONTINUOUS
 62
    4
 10
450.41250000000014
 20
158.46821899999992
 11
450.41250000000014
 21
262.861515
  0
LINE
  8
_0-3_躯体
  6
CONTINUOUS
 62
    3
 10
454.41249999999923
 20
158.46821899999992
 11
454.41249999999923
 21
270.83451499999984
  0
LINE
  8
_0-3_躯体
  6
CONTINUOUS
 62
    3
 10
456.41250000000014
 20
158.46821899999992
 11
456.41250000000014
 21
272.02651499999985
  0
LINE
  8
_0-3_躯体
  6
CONTINUOUS
 62
    3
 10
458.41250000000014
 20
158.46821899999992
 11
458.41250000000014
 21
272.65951499999994
  0
LINE
  8
_0-3_躯体
  6
CONTINUOUS
 62
    3
 10
452.41249999999923
 20
158.46821899999992
 11
452.41249999999923
 21
268.73451499999982
  0
CIRCLE
  8
_0-3_躯体
  6
CONTINUOUS
 62
    3
 10
445.23850000000016
 20
174.63589899999994
 40
0.5
  0
CIRCLE
  8
_0-3_躯体
  6
CONTINUOUS
 62
    3
 10
444.9574120000002
 20
249.86731299999991
 40
0.4699760000000002
  0
CIRCLE
  8
_0-3_躯体
  6
CONTINUOUS
 62
    3
 10
454.60589200000004
 20
276.14445499999994
 40
0.4699760000000002
  0
ARC
  8
_0-3_躯体
  6
CONTINUOUS
 62
    4
 10
460.41250000000014
 20
262.861515
 40
10
 50
90
 51
180
  0
CIRCLE
  8
_0-3_躯体
  6
CONTINUOUS
 62
    3
 10
448.54306999999903
 20
290.106357
 40
0.4699760000000002
  0
LINE
  8
_0-5_受金具
  6
CONTINUOUS
 62
    4
 10
460.40050000000019
 20
319.55451500000004
 11
457.60050000000024
 21
319.55451500000004
  0
LINE
  8
_0-3_躯体
  6
CONTINUOUS
 62
    3
 10
442.78450000000021
 20
418.88778100000002
 11
459.42850000000021
 21
435.53178100000002
  0
LINE
  8
_0-3_躯体
  6
CONTINUOUS
 62
    7
 10
442.77250000000004
 20
435.53178100000002
 11
442.77250000000004
 21
379.76451500000007
  0
LINE
  8
_0-5_受金具
  6
CONTINUOUS
 62
    3
 10
453.74850000000015
 20
376.93851500000005
 11
450.92250000000013
 21
379.76451500000007
  0
LINE
  8
_0-5_受金具
  6
CONTINUOUS
 62
    3
 10
453.74850000000015
 20
379.76451500000007
 11
460.41250000000014
 21
364.38451500000008
  0
LINE
  8
_0-5_受金具
  6
CONTINUOUS
 62
    4
 10
453.74850000000015
 20
364.522515
 11
453.74850000000015
 21
379.76451500000007
  0
LINE
  8
_0-5_受金具
  6
CONTINUOUS
 62
    3
 10
444.02430200000003
 20
376.53331700000001
 11
447.25550000000021
 21
379.76451500000007
  0
ARC
  8
_0-5_受金具
  6
CONTINUOUS
 62
    4
 10
424.54665999999906
 20
370.84554899999978
 40
20.291112000000432
 50
340.26146400000164
 51
26.075193999996532
  0
LINE
  8
_0-5_受金具
  6
CONTINUOUS
 62
    3
 10
453.74850000000015
 20
377.77149700000007
 11
444.72967000000017
 21
368.75381700000003
  0
LINE
  8
_0-5_受金具
  6
CONTINUOUS
 62
    3
 10
452.91250000000014
 20
379.76451500000007
 11
444.82089800000017
 21
371.67291099999977
  0
LINE
  8
_0-5_受金具
  6
CONTINUOUS
 62
    3
 10
444.55301400000008
 20
374.2330290000001
 11
450.08450000000016
 21
379.76451500000007
  0
LINE
  8
_0-5_受金具
  6
CONTINUOUS
 62
    3
 10
453.74850000000015
 20
374.10949100000005
 11
448.09454400000004
 21
379.76451500000007
  0
LINE
  8
_0-5_受金具
  6
CONTINUOUS
 62
    3
 10
453.74850000000015
 20
371.28152899999986
 11
445.26446800000008
 21
379.76451500000007
  0
LINE
  8
_0-5_受金具
  6
CONTINUOUS
 62
    3
 10
453.74850000000015
 20
368.45251500000006
 11
443.06834600000002
 21
379.13266900000008
  0
LINE
  8
_0-3_躯体
  6
CONTINUOUS
 62
    3
 10
516.36350000000016
 20
424.60300100000006
 11
460.41250000000014
 21
368.65200099999993
  0
LINE
  8
_0-3_躯体
  6
CONTINUOUS
 62
    3
 10
516.36350000000016
 20
428.60300100000006
 11
460.41250000000014
 21
372.65200099999993
  0
LINE
  8
_0-3_躯体
  6
CONTINUOUS
 62
    3
 10
516.36350000000016
 20
426.60300100000006
 11
460.41250000000014
 21
370.65200100000004
  0
LINE
  8
_0-5_受金具
  6
PLINE2
 62
    3
 10
483.31344000000013
 20
356.26749900000004
 11
485.31069800000023
 21
356.37217099999998
  0
LINE
  8
_0-5_受金具
  6
PLINE2
 62
    3
 10
483.31344000000013
 20
350.70153100000005
 11
485.31069800000023
 21
350.59685899999977
  0
LINE
  8
_0-5_受金具
  6
PLINE2
 62
    3
 10
499.37001600000008
 20
351.36210100000005
 11
468.41249999999923
 21
352.98451499999999
  0
LINE
  8
_0-5_受金具
  6
PLINE2
 62
    3
 10
499.37001600000008
 20
355.60693100000003
 11
468.41249999999923
 21
353.98451499999999
  0
LINE
  8
_0-5_受金具
  6
PLINE2
 62
    3
 10
480.26857400000017
 20
350.07466699999998
 11
475.21288000000004
 21
348.52898700000003
  0
LINE
  8
_0-5_受金具
  6
PLINE2
 62
    3
 10
480.21288000000004
 20
349.01194699999996
 11
475.21288000000004
 21
347.51519300000007
  0
LINE
  8
_0-5_受金具
  6
PLINE2
 62
    3
 10
460.41250000000014
 20
348.4845150000001
 11
465.41250000000014
 21
349.48451499999999
  0
LINE
  8
_0-4_笠木
  6
CONTINUOUS
 62
    4
 10
448.61250000000018
 20
353.22251500000004
 11
448.61250000000018
 21
343.02751500000011
  0
LINE
  8
_0-5_受金具
  6
CONTINUOUS
 62
    4
 10
457.60050000000024
 20
340.75451499999997
 11
457.60050000000024
 21
353.15851500000008
  0
LINE
  8
_0-4_笠木
  6
CONTINUOUS
 62
    4
 10
450.11249999999905
 20
343.24251500000003
 11
450.11249999999905
 21
363.02251500000011
  0
LINE
  8
_0-5_受金具
  6
CONTINUOUS
 62
    4
 10
459.90050000000019
 20
361.98451499999999
 11
459.90050000000019
 21
343.15451500000006
  0
LINE
  8
_0-5_受金具
  6
CONTINUOUS
 62
    4
 10
459.90050000000019
 20
340.65451500000006
 11
459.90050000000019
 21
322.05451500000004
  0
LINE
  8
_0-5_受金具
  6
CONTINUOUS
 62
    4
 10
459.90050000000019
 20
322.05451500000004
 11
460.40050000000019
 21
322.05451500000004
  0
LINE
  8
_0-5_受金具
  6
CONTINUOUS
 62
    4
 10
454.63750000000005
 20
342.42551499999979
 11
450.30050000000006
 21
340.92551500000002
  0
LINE
  8
_0-4_笠木
  6
CONTINUOUS
 62
    4
 10
450.11249999999905
 20
343.24251500000003
 11
456.82050000000004
 21
344.16951500000005
  0
LINE
  8
_0-5_受金具
  6
CONTINUOUS
 62
    4
 10
460.40050000000019
 20
343.15451500000006
 11
460.40050000000019
 21
340.65451500000006
  0
LINE
  8
_0-5_受金具
  6
CONTINUOUS
 62
    4
 10
455.30050000000006
 20
341.65451500000006
 11
455.30050000000006
 21
339.35451499999988
  0
LINE
  8
_0-4_笠木
  6
CONTINUOUS
 62
    4
 10
455.31250000000023
 20
342.52851499999997
 11
455.31250000000023
 21
339.52851499999997
  0
LINE
  8
_0-4_笠木
  6
CONTINUOUS
 62
    4
 10
456.82050000000004
 20
344.16951500000005
 11
456.82050000000004
 21
339.52851499999997
  0
ARC
  8
_0-5_受金具
  6
CONTINUOUS
 62
    4
 10
456.62850000000003
 20
336.1815150000001
 40
1
 50
0
 51
98.28414200000168
  0
LINE
  8
_0-5_受金具
  6
CONTINUOUS
 62
    4
 10
455.29950000000008
 20
339.32251500000007
 11
457.59950000000003
 21
339.65751499999999
  0
ARC
  8
_0-5_受金具
  6
CONTINUOUS
 62
    4
 10
454.0005000000001
 20
337.81951500000002
 40
1
 50
180
 51
278.27587900000339
  0
LINE
  8
_0-5_受金具
  6
CONTINUOUS
 62
    4
 10
454.14450000000011
 20
336.8295149999999
 11
456.48450000000003
 21
337.1705149999998
  0
LINE
  8
_0-5_受金具
  6
CONTINUOUS
 62
    4
 10
455.63150000000019
 20
337.04651499999977
 11
456.48450000000003
 21
337.1705149999998
  0
ARC
  8
_0-5_受金具
  6
CONTINUOUS
 62
    4
 10
452.0005000000001
 20
337.8305150000001
 40
1
 50
0
 51
98.28414200000168
  0
LINE
  8
_0-5_受金具
  6
CONTINUOUS
 62
    4
 10
453.0005000000001
 20
337.8305150000001
 11
453.0005000000001
 21
337.81951500000002
  0
LINE
  8
_0-5_受金具
  6
CONTINUOUS
 62
    4
 10
455.30050000000006
 20
339.35451499999988
 11
455.30050000000006
 21
339.31851500000005
  0
LINE
  8
_0-4_笠木
  6
CONTINUOUS
 62
    4
 10
455.31250000000023
 20
339.52851499999997
 11
456.81250000000023
 21
339.52851499999997
  0
LINE
  8
_0-5_受金具
  6
CONTINUOUS
 62
    4
 10
457.60050000000024
 20
340.75451499999997
 11
457.60050000000024
 21
340.65351499999997
  0
LINE
  8
_0-5_受金具
  6
CONTINUOUS
 62
    4
 10
457.60050000000024
 20
339.85751500000003
 11
457.60050000000024
 21
339.65751499999999
  0
LINE
  8
_0-5_受金具
  6
CONTINUOUS
 62
    4
 10
457.60050000000024
 20
340.65351499999997
 11
457.60050000000024
 21
339.85751500000003
  0
LINE
  8
_0-5_受金具
  6
CONTINUOUS
 62
    4
 10
460.40050000000019
 20
340.65451500000006
 11
459.90050000000019
 21
340.65451500000006
  0
LINE
  8
_0-5_受金具
  6
CONTINUOUS
 62
    4
 10
455.30050000000006
 20
341.65451500000006
 11
455.30050000000006
 21
341.95251500000006
  0
ARC
  8
_0-5_受金具
  6
CONTINUOUS
 62
    4
 10
454.80050000000006
 20
341.95251500000006
 40
0.5
 50
0
 51
109.01440399999422
  0
LINE
  8
_0-5_受金具
  6
CONTINUOUS
 62
    4
 10
459.90050000000019
 20
343.15451500000006
 11
460.40050000000019
 21
343.15451500000006
  0
LINE
  8
_0-5_受金具
  6
PLINE2
 62
    3
 10
475.21288000000004
 20
347.51519300000007
 11
469.87047600000005
 21
346.62479099999996
  0
LINE
  8
_0-5_受金具
  6
PLINE2
 62
    3
 10
475.21288000000004
 20
348.52898700000003
 11
469.70607600000017
 21
347.61118499999986
  0
ARC
  8
_0-5_受金具
  6
PLINE2
 62
    3
 10
469.78827600000022
 20
347.11798900000008
 40
0.5
 50
99.462321999993776
 51
279.46232199999372
  0
LINE
  8
_0-5_受金具
  6
PLINE2
 62
    3
 10
460.41250000000014
 20
357.48451499999999
 11
468.41249999999923
 21
357.48451499999999
  0
LINE
  8
_0-5_受金具
  6
PLINE2
 62
    3
 10
460.41250000000014
 20
358.48451499999999
 11
465.41250000000014
 21
357.48451499999999
  0
LINE
  8
_0-5_受金具
  6
PLINE2
 62
    3
 10
460.41250000000014
 20
349.48451499999999
 11
468.41249999999923
 21
349.48451499999999
  0
LINE
  8
_0-5_受金具
  6
PLINE2
 62
    3
 10
460.41250000000014
 20
352.4845150000001
 11
465.41250000000014
 21
353.48451499999999
  0
LINE
  8
_0-5_受金具
  6
PLINE2
 62
    3
 10
460.41250000000014
 20
354.48451499999999
 11
465.41250000000014
 21
353.48451499999999
  0
LINE
  8
_0-5_受金具
  6
PLINE2
 62
    3
 10
465.41250000000014
 20
353.48451499999999
 11
460.41250000000014
 21
353.48451499999999
  0
LINE
  8
_0-5_受金具
  6
CONTINUOUS
 62
    4
 10
460.40050000000019
 20
364.38451500000008
 11
460.40050000000019
 21
361.98451499999999
  0
LINE
  8
_0-4_笠木
  6
CONTINUOUS
 62
    4
 10
456.81250000000023
 20
364.522515
 11
456.81250000000023
 21
361.522515
  0
ARC
  8
_0-4_笠木
  6
CONTINUOUS
 62
    4
 10
444.36250000000018
 20
363.772515
 40
0.75
 50
180
 51
270
  0
LINE
  8
_0-5_受金具
  6
CONTINUOUS
 62
    4
 10
457.60050000000024
 20
353.79051500000003
 11
457.60050000000024
 21
364.38451500000008
  0
LINE
  8
_0-4_笠木
  6
CONTINUOUS
 62
    4
 10
455.31250000000023
 20
363.02251500000011
 11
450.11249999999905
 21
363.02251500000011
  0
LINE
  8
_0-4_笠木
  6
CONTINUOUS
 62
    4
 10
448.61250000000018
 20
363.02251500000011
 11
448.61250000000018
 21
353.82251500000007
  0
LINE
  8
_0-4_笠木
  6
CONTINUOUS
 62
    4
 10
448.91250000000014
 20
353.522515
 11
448.61250000000018
 21
353.22251500000004
  0
LINE
  8
_0-4_笠木
  6
CONTINUOUS
 62
    4
 10
448.91250000000014
 20
353.522515
 11
448.61150000000021
 21
353.82351500000004
  0
LINE
  8
_0-4_笠木
  6
CONTINUOUS
 62
    4
 10
448.61250000000018
 20
363.02251500000011
 11
444.36250000000018
 21
363.02251500000011
  0
ARC
  8
_0-5_受金具
  6
CONTINUOUS
 62
    3
 10
459.50340400000005
 20
353.55895700000008
 40
5.4000000000000004
 50
141.31781300000151
 51
180
  0
ARC
  8
_0-5_受金具
  6
CONTINUOUS
 62
    3
 10
457.63211400000023
 20
352.05619499999978
 40
3
 50
218.614637999998
 51
267.54107400000362
  0
ARC
  8
_0-5_受金具
  6
CONTINUOUS
 62
    3
 10
459.50340400000005
 20
353.55895700000008
 40
5.4000000000000004
 50
180
 51
218.85106200000371
  0
LINE
  8
_0-5_受金具
  6
PLINE2
 62
    3
 10
457.60050000000024
 20
351.9845150000001
 11
460.41250000000014
 21
351.9845150000001
  0
LINE
  8
_0-5_受金具
  6
PLINE2
 62
    3
 10
457.59149999999909
 20
350.98451499999999
 11
460.41250000000014
 21
350.98451499999999
  0
LINE
  8
_0-5_受金具
  6
PLINE2
 62
    3
 10
457.59149999999909
 20
354.98451499999999
 11
460.41250000000014
 21
354.98451499999999
  0
LINE
  8
_0-5_受金具
  6
CONTINUOUS
 62
    4
 10
457.90050000000019
 20
353.48451499999999
 11
457.57850000000008
 21
353.80651499999988
  0
LINE
  8
_0-5_受金具
  6
CONTINUOUS
 62
    4
 10
457.90050000000019
 20
353.48451499999999
 11
457.60550000000012
 21
353.19051500000012
  0
ARC
  8
_0-5_受金具
  6
CONTINUOUS
 62
    3
 10
457.63211400000023
 20
355.06171899999981
 40
3
 50
92.458925999996254
 51
141.38536200000181
  0
LINE
  8
_0-4_笠木
  6
CONTINUOUS
 62
    4
 10
456.81250000000023
 20
361.522515
 11
455.31250000000023
 21
361.522515
  0
LINE
  8
_0-4_笠木
  6
CONTINUOUS
 62
    4
 10
455.31250000000023
 20
361.522515
 11
455.31250000000023
 21
363.02251500000011
  0
LINE
  8
_0-5_受金具
  6
PLINE2
 62
    3
 10
457.60050000000024
 20
355.9845150000001
 11
460.41250000000014
 21
355.9845150000001
  0
LINE
  8
_0-5_受金具
  6
CONTINUOUS
 62
    4
 10
460.40050000000019
 20
361.98451499999999
 11
459.90050000000019
 21
361.98451499999999
  0
LINE
  8
_0-5_受金具
  6
CONTINUOUS
 62
    3
 10
453.74850000000015
 20
369.28649300000006
 11
449.02850000000012
 21
364.56751500000007
  0
LINE
  8
_0-4_笠木
  6
CONTINUOUS
 62
    4
 10
444.36250000000018
 20
364.522515
 11
455.31250000000023
 21
364.522515
  0
LINE
  8
_0-5_受金具
  6
CONTINUOUS
 62
    3
 10
453.74850000000015
 20
372.11551500000007
 11
446.16049999999905
 21
364.52751499999988
  0
LINE
  8
_0-5_受金具
  6
CONTINUOUS
 62
    3
 10
453.74850000000015
 20
374.94351500000005
 11
444.04938600000014
 21
365.24440100000004
  0
LINE
  8
_0-5_受金具
  6
CONTINUOUS
 62
    3
 10
453.74850000000015
 20
365.62451499999997
 11
444.41709199999923
 21
374.95592499999998
  0
LINE
  8
_0-5_受金具
  6
CONTINUOUS
 62
    3
 10
444.81864400000018
 20
371.72637100000009
 11
451.93650000000002
 21
364.60851500000012
  0
LINE
  8
_0-5_受金具
  6
CONTINUOUS
 62
    3
 10
444.75059400000009
 20
368.96665700000005
 11
449.14650000000006
 21
364.56951500000002
  0
ARC
  8
_0-4_笠木
  6
CONTINUOUS
 62
    4
 10
444.36250000000018
 20
363.772515
 40
0.75
 50
90
 51
180
  0
LINE
  8
_0-5_受金具
  6
CONTINUOUS
 62
    3
 10
444.3705080000002
 20
366.51608099999987
 11
446.35850000000005
 21
364.52951500000006
  0
LINE
  8
_0-5_受金具
  6
CONTINUOUS
 62
    3
 10
453.74850000000015
 20
366.45851499999992
 11
451.89750000000004
 21
364.60751499999992
  0
LINE
  8
_0-4_笠木
  6
CONTINUOUS
 62
    4
 10
455.31250000000023
 20
364.522515
 11
456.81250000000023
 21
364.522515
  0
LINE
  8
_0-5_受金具
  6
CONTINUOUS
 62
    4
 10
457.60050000000024
 20
364.38451500000008
 11
460.41250000000014
 21
364.38451500000008
  0
LINE
  8
_0-5_受金具
  6
CONTINUOUS
 62
    4
 10
457.60050000000024
 20
364.20651499999997
 11
457.60050000000024
 21
364.3065150000001
  0
LINE
  8
_0-5_受金具
  6
PLINE2
 62
    3
 10
472.41250000000014
 20
357.48451499999999
 11
473.32714400000009
 21
355.74413900000002
  0
LINE
  8
_0-5_受金具
  6
PLINE2
 62
    3
 10
475.21288000000004
 20
359.60450500000002
 11
469.87047600000005
 21
360.49490700000001
  0
LINE
  8
_0-5_受金具
  6
PLINE2
 62
    3
 10
475.21288000000004
 20
358.59071300000005
 11
469.70607600000017
 21
359.50851299999988
  0
LINE
  8
_0-5_受金具
  6
PLINE2
 62
    3
 10
472.41250000000014
 20
349.48451499999999
 11
473.32714400000009
 21
351.22489100000007
  0
LINE
  8
_0-5_受金具
  6
PLINE2
 62
    3
 10
472.41250000000014
 20
349.48451499999999
 11
468.41249999999923
 21
349.48451499999999
  0
LINE
  8
_0-5_受金具
  6
PLINE2
 62
    3
 10
468.41249999999923
 20
353.98451499999999
 11
468.41249999999923
 21
353.48451499999999
  0
LINE
  8
_0-5_受金具
  6
PLINE2
 62
    3
 10
468.41249999999923
 20
352.98451499999999
 11
468.41249999999923
 21
353.48451499999999
  0
LINE
  8
_0-5_受金具
  6
PLINE2
 62
    3
 10
472.41250000000014
 20
357.48451499999999
 11
468.41249999999923
 21
357.48451499999999
  0
ARC
  8
_0-5_受金具
  6
PLINE2
 62
    3
 10
469.78827600000022
 20
360.00170899999989
 40
0.5
 50
80.537678000006267
 51
260.53767800000611
  0
LINE
  8
_0-5_受金具
  6
PLINE2
 62
    3
 10
475.32440399999905
 20
355.84881100000007
 11
475.21973200000002
 21
357.84607100000005
  0
LINE
  8
_0-5_受金具
  6
PLINE2
 62
    3
 10
478.32029200000011
 20
350.96321100000011
 11
480.31755200000021
 21
350.85853900000006
  0
LINE
  8
_0-5_受金具
  6
PLINE2
 62
    3
 10
475.21973200000002
 20
349.12296100000003
 11
477.21699000000012
 21
349.01828899999998
  0
LINE
  8
_0-5_受金具
  6
PLINE2
 62
    3
 10
475.32440399999905
 20
351.12021899999979
 11
475.21973200000002
 21
349.12296100000003
  0
LINE
  8
_0-5_受金具
  6
PLINE2
 62
    3
 10
473.32714400000009
 20
351.22489100000007
 11
475.32440399999905
 21
351.12021899999979
  0
LINE
  8
_0-5_受金具
  6
PLINE2
 62
    3
 10
477.21699000000012
 20
349.01828899999998
 11
478.32029200000011
 21
350.96321100000011
  0
LINE
  8
_0-5_受金具
  6
PLINE2
 62
    3
 10
473.32714400000009
 20
355.74413900000002
 11
475.32440399999905
 21
355.84881100000007
  0
LINE
  8
_0-5_受金具
  6
PLINE2
 62
    3
 10
480.21288000000004
 20
348.86128099999996
 11
482.21013800000014
 21
348.7566089999998
  0
LINE
  8
_0-5_受金具
  6
PLINE2
 62
    3
 10
480.31755200000021
 20
350.85853900000006
 11
480.21288000000004
 21
348.86128099999996
  0
LINE
  8
_0-5_受金具
  6
PLINE2
 62
    3
 10
482.21013800000014
 20
348.7566089999998
 11
483.31344000000013
 21
350.70153100000005
  0
LINE
  8
_0-5_受金具
  6
PLINE2
 62
    3
 10
478.32029200000011
 20
356.00581899999997
 11
480.31755200000021
 21
356.11049100000002
  0
LINE
  8
_0-5_受金具
  6
PLINE2
 62
    3
 10
480.26857400000017
 20
357.04503100000011
 11
475.21288000000004
 21
358.59071300000005
  0
LINE
  8
_0-5_受金具
  6
PLINE2
 62
    3
 10
480.21288000000004
 20
358.10775100000012
 11
475.21288000000004
 21
359.60450500000002
  0
LINE
  8
_0-5_受金具
  6
PLINE2
 62
    3
 10
475.21973200000002
 20
357.84607100000005
 11
477.21699000000012
 21
357.95074299999987
  0
LINE
  8
_0-5_受金具
  6
PLINE2
 62
    3
 10
477.21699000000012
 20
357.95074299999987
 11
478.32029200000011
 21
356.00581899999997
  0
LINE
  8
_0-5_受金具
  6
PLINE2
 62
    3
 10
480.21288000000004
 20
358.10775100000012
 11
482.21013800000014
 21
358.21242300000006
  0
LINE
  8
_0-5_受金具
  6
PLINE2
 62
    3
 10
480.31755200000021
 20
356.11049100000002
 11
480.21288000000004
 21
358.10775100000012
  0
LINE
  8
_0-5_受金具
  6
PLINE2
 62
    3
 10
482.21013800000014
 20
358.21242300000006
 11
483.31344000000013
 21
356.26749900000004
  0
LINE
  8
_0-5_受金具
  6
PLINE2
 62
    3
 10
497.1895820000002
 20
347.97156900000004
 11
499.29151200000024
 21
349.86415699999986
  0
LINE
  8
_0-5_受金具
  6
PLINE2
 62
    3
 10
497.3727580000002
 20
351.4667730000001
 11
497.1895820000002
 21
347.97156900000004
  0
LINE
  8
_0-5_受金具
  6
PLINE2
 62
    3
 10
492.19643400000018
 20
348.23324900000011
 11
493.29973600000017
 21
350.17817300000002
  0
LINE
  8
_0-5_受金具
  6
PLINE2
 62
    3
 10
495.29699400000004
 20
350.07350100000008
 11
495.1923220000001
 21
348.07624099999987
  0
LINE
  8
_0-5_受金具
  6
PLINE2
 62
    3
 10
487.20328600000016
 20
348.49492899999996
 11
488.30658800000015
 21
350.43985299999997
  0
LINE
  8
_0-5_受金具
  6
PLINE2
 62
    3
 10
490.30384600000002
 20
350.33518100000003
 11
490.19917400000008
 21
348.33792100000005
  0
LINE
  8
_0-5_受金具
  6
PLINE2
 62
    3
 10
485.31069800000023
 20
350.59685899999977
 11
485.20602800000006
 21
348.59960100000012
  0
LINE
  8
_0-5_受金具
  6
PLINE2
 62
    3
 10
485.20602800000006
 20
348.59960100000012
 11
487.20328600000016
 21
348.49492899999996
  0
LINE
  8
_0-5_受金具
  6
PLINE2
 62
    3
 10
490.19917400000008
 20
348.33792100000005
 11
492.19643400000018
 21
348.23324900000011
  0
LINE
  8
_0-5_受金具
  6
PLINE2
 62
    3
 10
495.1923220000001
 20
348.07624099999987
 11
497.1895820000002
 21
347.97156900000004
  0
LINE
  8
_0-5_受金具
  6
PLINE2
 62
    3
 10
493.29973600000017
 20
356.79085900000007
 11
495.29699400000004
 21
356.89553099999989
  0
LINE
  8
_0-5_受金具
  6
PLINE2
 62
    3
 10
493.29973600000017
 20
350.17817300000002
 11
495.29699400000004
 21
350.07350100000008
  0
LINE
  8
_0-5_受金具
  6
PLINE2
 62
    3
 10
488.30658800000015
 20
350.43985299999997
 11
490.30384600000002
 21
350.33518100000003
  0
LINE
  8
_0-5_受金具
  6
PLINE2
 62
    3
 10
488.30658800000015
 20
356.529179
 11
490.30384600000002
 21
356.63385100000005
  0
LINE
  8
_0-5_受金具
  6
PLINE2
 62
    3
 10
485.20602800000006
 20
358.36943100000008
 11
487.20328600000016
 21
358.47410300000001
  0
LINE
  8
_0-5_受金具
  6
PLINE2
 62
    3
 10
485.31069800000023
 20
356.37217099999998
 11
485.20602800000006
 21
358.36943100000008
  0
LINE
  8
_0-5_受金具
  6
PLINE2
 62
    3
 10
487.20328600000016
 20
358.47410300000001
 11
488.30658800000015
 21
356.529179
  0
LINE
  8
_0-5_受金具
  6
PLINE2
 62
    3
 10
490.19917400000008
 20
358.63110899999992
 11
492.19643400000018
 21
358.73578099999986
  0
LINE
  8
_0-5_受金具
  6
PLINE2
 62
    3
 10
490.30384600000002
 20
356.63385100000005
 11
490.19917400000008
 21
358.63110899999992
  0
LINE
  8
_0-5_受金具
  6
PLINE2
 62
    3
 10
492.19643400000018
 20
358.73578099999986
 11
493.29973600000017
 21
356.79085900000007
  0
LINE
  8
_0-5_受金具
  6
PLINE2
 62
    3
 10
497.3727580000002
 20
355.50225900000009
 11
497.1895820000002
 21
358.99746100000004
  0
LINE
  8
_0-5_受金具
  6
PLINE2
 62
    3
 10
499.29151200000024
 20
357.10487499999988
 11
499.37001600000008
 21
355.60693100000003
  0
LINE
  8
_0-5_受金具
  6
PLINE2
 62
    3
 10
494.54305599999907
 20
351.61507100000006
 11
496.41250000000014
 21
353.48451499999999
  0
LINE
  8
_0-5_受金具
  6
PLINE2
 62
    3
 10
499.29151200000024
 20
349.86415699999986
 11
499.37001600000008
 21
351.36210100000005
  0
LINE
  8
_0-5_受金具
  6
PLINE2
 62
    3
 10
496.35319400000003
 20
353.425209
 11
494.63752400000021
 21
355.35891100000003
  0
LINE
  8
_0-5_受金具
  6
PLINE2
 62
    3
 10
495.1923220000001
 20
358.89278899999999
 11
497.1895820000002
 21
358.99746100000004
  0
LINE
  8
_0-5_受金具
  6
PLINE2
 62
    3
 10
495.29699400000004
 20
356.89553099999989
 11
495.1923220000001
 21
358.89278899999999
  0
LINE
  8
_0-5_受金具
  6
PLINE2
 62
    3
 10
497.1895820000002
 20
358.99746100000004
 11
499.29151200000024
 21
357.10487499999988
  0
LINE
  8
_0-3_躯体
  6
CONTINUOUS
 62
    7
 10
460.41250000000014
 20
379.76451500000007
 11
442.77250000000004
 21
379.76451500000007
  0
LINE
  8
_0-5_受金具
  6
CONTINUOUS
 62
    3
 10
443.28746000000024
 20
378.62447300000008
 11
444.42750000000024
 21
379.76451500000007
  0
LINE
  8
_0-3_躯体
  6
CONTINUOUS
 62
    3
 10
442.78450000000021
 20
414.88778100000002
 11
463.09350000000018
 21
435.19678099999987
  0
LINE
  8
_0-3_躯体
  6
CONTINUOUS
 62
    3
 10
442.78450000000021
 20
416.88778099999979
 11
461.09350000000018
 21
435.19678099999987
  0
INSERT
  2
-001-_D4
  8
_0-2_寸法
 10
-1261.3101860638499
 20
-229.13990186744218
 41
0.25
 42
0.25
 50
0
  0
INSERT
  2
-002-_D5
  8
_0-2_寸法
 10
-1261.3101860638499
 20
-229.13990186744218
 41
0.25
 42
0.25
 50
0
  0
INSERT
  2
-003-_D6
  8
_0-2_寸法
 10
-1261.3101860638499
 20
-229.13990186744218
 41
0.25
 42
0.25
 50
0
  0
INSERT
  2
-004-_D7
  8
_0-2_寸法
 10
-1261.3101860638499
 20
-229.13990186744218
 41
0.25
 42
0.25
 50
0
  0
INSERT
  2
-005-_D8
  8
_0-2_寸法
 10
-1261.3101860638499
 20
-229.13990186744218
 41
0.25
 42
0.25
 50
0
  0
INSERT
  2
-006-_D9
  8
_0-2_寸法
 10
-1261.3101860638499
 20
-229.13990186744218
 41
0.25
 42
0.25
 50
0
  0
INSERT
  2
-007-_D10
  8
_0-2_寸法
 10
-1261.3101860638499
 20
-229.13990186744218
 41
0.25
 42
0.25
 50
0
  0
INSERT
  2
-008-_D11
  8
_0-2_寸法
 10
-1261.3101860638499
 20
-229.13990186744218
 41
0.25
 42
0.25
 50
0
  0
INSERT
  2
-009-_D12
  8
_0-2_寸法
 10
-1261.3101860638499
 20
-229.13990186744218
 41
0.25
 42
0.25
 50
0
  0
INSERT
  2
-010-_D13
  8
_0-2_寸法
 10
-1261.3101860638499
 20
-229.13990186744218
 41
0.25
 42
0.25
 50
0
  0
INSERT
  2
-011-_D14
  8
_0-2_寸法
 10
-1261.3101860638499
 20
-229.13990186744218
 41
0.25
 42
0.25
 50
0
  0
INSERT
  2
-012-_D15
  8
_0-2_寸法
 10
-1261.3101860638499
 20
-229.13990186744218
 41
0.25
 42
0.25
 50
0
  0
LINE
  8
_0-5_受金具
  6
CONTINUOUS
 62
    4
 10
453.74850000000015
 20
364.522515
 11
443.82743973608422
 21
364.522515
  0
LINE
  8
_0-5_受金具
  6
CONTINUOUS
 62
    4
 10
460.41250000000014
 20
379.76451399298446
 11
442.77250126043214
 21
379.76451399298446
  0
LINE
  8
_0-5_受金具
  6
CONTINUOUS
 62
    4
 10
460.41250000000014
 20
364.38451500000008
 11
460.41250000000014
 21
379.76451399298446
  0
ENDSEC
  0
EOF
