  0
SECTION
  2
HEADER
  9
$ACADVER
  1
AC1009
  9
$INSBASE
 10
0
 20
0
 30
0
  9
$EXTMIN
 10
0
 20
0
  9
$EXTMAX
 10
841
 20
594
  9
$LIMMIN
 10
0
 20
0
  9
$LIMMAX
 10
841
 20
594
  9
$LTSCALE
 40
1
  0
ENDSEC
  0
SECTION
  2
TABLES
  0
TABLE
  2
LTYPE
 70
     9
  0
LTYPE
  2
CONTINUOUS
 70
    64
  3
実線
 72
    65
 73
     0
 40
0.0
  0
LTYPE
  2
DASHED1
 70
    64
  3
--  --  --  --  --  --  --  --  
 72
    65
 73
     2
 40
2.5
 49
1.25
 49
-1.25
  0
LTYPE
  2
DASHED2
 70
    64
  3
----    ----    ----    ----    
 72
    65
 73
     2
 40
5.0
 49
2.5
 49
-2.5
  0
LTYPE
  2
DASHED3
 70
    64
  3
------  ------  ------  ------  
 72
    65
 73
     2
 40
5.0
 49
3.75
 49
-1.25
  0
LTYPE
  2
CENTER1
 70
    64
  3
----- - ----- - ----- - ----- - 
 72
    65
 73
     4
 40
10.0
 49
6.25
 49
-1.25
 49
1.25
 49
-1.25
  0
LTYPE
  2
CENTER2
 70
    64
  3
----------  --  ----------  --  
 72
    65
 73
     4
 40
20.0
 49
12.5
 49
-2.5
 49
2.5
 49
-2.5
  0
LTYPE
  2
PHANTOM1
 70
    64
  3
--- - - --- - - --- - - --- - - 
 72
    65
 73
     6
 40
10.0
 49
3.25
 49
-1.25
 49
1.25
 49
-1.25
 49
1.25
 49
-1.25
  0
LTYPE
  2
PHANTOM2
 70
    64
  3
--------  -  -  --------  -  -  
 72
    65
 73
     6
 40
20.0
 49
10.0
 49
-2.5
 49
1.25
 49
-2.5
 49
1.25
 49
-2.5
  0
LTYPE
  2
DOT
 70
    64
  3
-   -   -   -   -   -   -   -   
 72
    65
 73
     2
 40
2.5
 49
0.625
 49
-1.875
  0
LTYPE
  2
DUMMY
 70
    64
  3
ダミー
 72
    65
 73
     0
 40
0.0
  0
LTYPE
  2
RAND1
 70
    64
  3
ランダム線1
 72
    65
 73
     4
 40
10.0
 49
1.0
 49
-2.0
 49
3.0
 49
-4.0
  0
LTYPE
  2
RAND2
 70
    64
  3
ランダム線2
 72
    65
 73
     4
 40
14.0
 49
2.0
 49
-3.0
 49
4.0
 49
-5.0
  0
LTYPE
  2
RAND3
 70
    64
  3
ランダム線3
 72
    65
 73
     4
 40
18.0
 49
3.0
 49
-4.0
 49
5.0
 49
-6.0
  0
LTYPE
  2
RAND4
 70
    64
  3
ランダム線4
 72
    65
 73
     4
 40
22.0
 49
4.0
 49
-5.0
 49
6.0
 49
-7.0
  0
LTYPE
  2
RAND5
 70
    64
  3
ランダム線5
 72
    65
 73
     4
 40
26.0
 49
5.0
 49
-6.0
 49
7.0
 49
-8.0
  0
LTYPE
  2
LONG1
 70
    64
  3
----------  --  ----------  --  
 72
    65
 73
     4
 40
40.0
 49
32.5
 49
-2.5
 49
2.5
 49
-2.5
  0
LTYPE
  2
LONG2
 70
    64
  3
--------  -  -  --------  -  -  
 72
    65
 73
     6
 40
40.0
 49
30.0
 49
-2.5
 49
1.25
 49
-2.5
 49
1.25
 49
-2.5
  0
LTYPE
  2
LONG3
 70
    64
  3
+++++++++++++++..+++++++++++++++
 72
    65
 73
     2
 40
40.0
 49
37.5
 49
-2.5
  0
LTYPE
  2
LONG4
 70
    64
  3
+++++++++++++++..+++++++++++++++
 72
    65
 73
     2
 40
80.0
 49
75.0
 49
-5.0
  0
LTYPE
  2
LONG5
 70
    64
  3
----------  --  ----------  --  
 72
    65
 73
     4
 40
60.0
 49
37.5
 49
-7.5
 49
7.5
 49
-7.5
  0
LTYPE
  2
dashed
 70
   64
  3
-------   -------------   ------
 72
   65
 73
    2
 40
7.5
 49
6
 49
-1.5
  0
LTYPE
  2
dashed_spaced
 70
   64
  3
----        --------        ----
 72
   65
 73
    2
 40
12
 49
6
 49
-6
  0
LTYPE
  2
long_dashed_dotted
 70
   64
  3
------------- --- --------------
 72
   65
 73
    4
 40
15.25
 49
12
 49
-1.5
 49
0.25
 49
-1.5
  0
LTYPE
  2
long_dashed_double-dotted
 70
   64
  3
----------- --- --- ------------
 72
   65
 73
    6
 40
17
 49
12
 49
-1.5
 49
0.25
 49
-1.5
 49
0.25
 49
-1.5
  0
LTYPE
  2
long_dashed_triplicate-dotted
 70
   64
  3
--------- --- --- --- ----------
 72
   65
 73
    8
 40
18.75
 49
12
 49
-1.5
 49
0.25
 49
-1.5
 49
0.25
 49
-1.5
 49
0.25
 49
-1.5
  0
LTYPE
  2
dotted
 70
   64
  3
   -       -       -       -    
 72
   65
 73
    2
 40
1.75
 49
0.25
 49
-1.5
  0
LTYPE
  2
chain
 70
   64
  3
-------------- -- --------------
 72
   65
 73
    4
 40
18.5
 49
12
 49
-1.5
 49
3.5
 49
-1.5
  0
LTYPE
  2
chain_double_dash
 70
   64
  3
------------ -- -- -------------
 72
   65
 73
    6
 40
23.5
 49
12
 49
-1.5
 49
3.5
 49
-1.5
 49
3.5
 49
-1.5
  0
LTYPE
  2
dashed_dotted
 70
   64
  3
-----------     -     ----------
 72
   65
 73
    4
 40
9.25
 49
6
 49
-1.5
 49
0.25
 49
-1.5
  0
LTYPE
  2
double-dashed_dotted
 70
   64
  3
------   -----------   -   -----
 72
   65
 73
    6
 40
16.75
 49
6
 49
-1.5
 49
6
 49
-1.5
 49
0.25
 49
-1.5
  0
LTYPE
  2
dashed_double-dotted
 70
   64
  3
---------    -    -    ---------
 72
   65
 73
    6
 40
11
 49
6
 49
-1.5
 49
0.25
 49
-1.5
 49
0.25
 49
-1.5
  0
LTYPE
  2
double-dashed_double-dotted
 70
   64
  3
-----   ---------   -   -   ----
 72
   65
 73
    8
 40
18.5
 49
6
 49
-1.5
 49
6
 49
-1.5
 49
0.25
 49
-1.5
 49
0.25
 49
-1.5
  0
LTYPE
  2
dashed_triplicate-dotted
 70
   64
  3
-------    -    -    -    ------
 72
   65
 73
    8
 40
12.75
 49
6
 49
-1.5
 49
0.25
 49
-1.5
 49
0.25
 49
-1.5
 49
0.25
 49
-1.5
  0
LTYPE
  2
double-dashed_triplicate-dotted
 70
   64
  3
-----  ---------  -  -  -  -----
 72
   65
 73
   10
 40
20.25
 49
6
 49
-1.5
 49
6
 49
-1.5
 49
0.25
 49
-1.5
 49
0.25
 49
-1.5
 49
0.25
 49
-1.5
  0
LTYPE
  2
undefined
 70
   64
  3
--------------------------------
 72
   65
 73
    0
 40
0
  0
LTYPE
  2
PLINE2
 70
   64
  3
------     -----------     -----
 72
   65
 73
    2
 40
3
 49
2.1000000000000001
 49
-0.9
  0
LTYPE
  2
PLINE3
 70
   64
  3
------------   ---   -----------
 72
   65
 73
    4
 40
10
 49
7
 49
-1
 49
1
 49
-1
  0
LTYPE
  2
PLINE4
 70
   64
  3
---------   ---   ---   --------
 72
   65
 73
    6
 40
10
 49
5
 49
-1
 49
1
 49
-1
 49
1
 49
-1
  0
LTYPE
  2
PLINE5
 70
   64
  3
------     -----------     -----
 72
   65
 73
    2
 40
5
 49
3.5
 49
-1.5
  0
LTYPE
  2
PLINE6
 70
   64
  3
------------   ---   -----------
 72
   65
 73
    4
 40
15
 49
10.5
 49
-1.5
 49
1.5
 49
-1.5
  0
LTYPE
  2
PLINE7
 70
   64
  3
---------   ---   ---   --------
 72
   65
 73
    6
 40
15
 49
7.5
 49
-1.5
 49
1.5
 49
-1.5
 49
1.5
 49
-1.5
  0
LTYPE
  2
PLINE8
 70
   64
  3
------     -----------     -----
 72
   65
 73
    2
 40
7
 49
4.9000000000000004
 49
-2.1000000000000001
  0
LTYPE
  2
PLINE9
 70
   64
  3
------------   ---   -----------
 72
   65
 73
    4
 40
20
 49
14
 49
-2
 49
2
 49
-2
  0
LTYPE
  2
PLINE10
 70
   64
  3
---------   ---   ---   --------
 72
   65
 73
    6
 40
20
 49
10
 49
-2
 49
2
 49
-2
 49
2
 49
-2
  0
LTYPE
  2
PLINE11
 70
   64
  3
------     -----------     -----
 72
   65
 73
    2
 40
9
 49
6.2999999999999989
 49
-2.7000000000000002
  0
LTYPE
  2
PLINE12
 70
   64
  3
------------   ---   -----------
 72
   65
 73
    4
 40
25
 49
17.5
 49
-2.5
 49
2.5
 49
-2.5
  0
LTYPE
  2
PLINE13
 70
   64
  3
---------   ---   ---   --------
 72
   65
 73
    6
 40
25
 49
12.5
 49
-2.5
 49
2.5
 49
-2.5
 49
2.5
 49
-2.5
  0
LTYPE
  2
PLINE14
 70
   64
  3
------     -----------     -----
 72
   65
 73
    2
 40
11
 49
7.7000000000000002
 49
-3.2999999999999989
  0
LTYPE
  2
PLINE15
 70
   64
  3
------------   ---   -----------
 72
   65
 73
    4
 40
30
 49
21
 49
-3
 49
3
 49
-3
  0
LTYPE
  2
PLINE16
 70
   64
  3
---------   ---   ---   --------
 72
   65
 73
    6
 40
30
 49
15
 49
-3
 49
3
 49
-3
 49
3
 49
-3
  0
ENDTAB
  0
TABLE
  2
STYLE
  5
3
100
AcDbSymbolTable
 70
     1
  0
STYLE
  5
10
100
AcDbSymbolTableRecord
100
AcDbTextStyleTableRecord
  2
STANDARD
 70
     0
 40
0.0
 41
1.0
 50
0.0
 71
     0
 42
0.2
  3
txt
  4
bigfont.shx
  0
STYLE
  5
26
100
AcDbSymbolTableRecord
100
AcDbTextStyleTableRecord
  2
TATEGAKI
 70
    68
 40
0.0
 41
1.0
 50
0.0
 71
     0
 42
1.0
  3
txt
  4
bigfont.shx
  0
ENDTAB
  0
TABLE
  2
LAYER
 70
    5
  0
LAYER
  2
_0-2_寸法
 70
   64
 62
    7
  6
CONTINUOUS
  0
LAYER
  2
_0-3_躯体
 70
   64
 62
    7
  6
CONTINUOUS
  0
LAYER
  2
_0-4_笠木
 70
   64
 62
    7
  6
CONTINUOUS
  0
LAYER
  2
_0-5_受金具
 70
   64
 62
    7
  6
CONTINUOUS
  0
LAYER
  2
ADD_LINE
 70
   64
 62
    7
  6
CONTINUOUS
  0
ENDTAB
  0
ENDSEC
  0
SECTION
  2
BLOCKS
  0
BLOCK
  2
-000-_Dot
 70
   64
 10
0
 20
0
 30
0
  0
CIRCLE
  8
_0-0_0
  6
CONTINUOUS
 62
    7
 10
0
 20
0
 40
1.25
  0
LINE
  8
_0-0_0
  6
CONTINUOUS
 62
    7
 10
1.25
 20
0
 11
-1.25
 21
0
  0
LINE
  8
_0-0_0
  6
CONTINUOUS
 62
    7
 10
-2.5
 20
0
 11
-5
 21
0
  0
ENDBLK
  0
BLOCK
  2
-001-_D4
 70
   64
 10
0
 20
0
 30
0
  0
LINE
  8
_0-2_寸法
  6
CONTINUOUS
 62
    4
 10
8325.9968286515086
 20
2304.2321532719548
 11
8325.9968286515086
 21
2239.9126532508399
  0
LINE
  8
_0-2_寸法
  6
CONTINUOUS
 62
    4
 10
8355.9968286515141
 20
2304.2321532719548
 11
8355.9968286515141
 21
2239.9126532508399
  0
LINE
  8
_0-2_寸法
  6
CONTINUOUS
 62
    4
 10
8330.9968286515086
 20
2239.9126532508399
 11
8350.9968286515086
 21
2239.9126532508399
  0
INSERT
  2
-000-_Dot
  8
_0-2_寸法
 10
8325.9968286515086
 20
2239.9126532508399
 41
1
 42
1
 50
180
  0
INSERT
  2
-000-_Dot
  8
_0-2_寸法
 10
8355.9968286515141
 20
2239.9126532508399
 41
1
 42
1
 50
0
  0
TEXT
  8
_0-2_寸法
 62
    7
 10
8334.7468286515086
 20
2244.9126532508403
 40
25
 41
1
 50
0
  1
6
  0
POINT
  8
_0-1_Defpoints
 62
    7
 10
8325.9968286515086
 20
2304.2321532719548
  0
POINT
  8
_0-1_Defpoints
 62
    7
 10
8355.9968286515141
 20
2304.2321532719548
  0
POINT
  8
_0-1_Defpoints
 62
    7
 10
8355.9968286515141
 20
2239.9126532508399
  0
ENDBLK
  0
BLOCK
  2
-002-_D5
 70
   64
 10
0
 20
0
 30
0
  0
LINE
  8
_0-2_寸法
  6
CONTINUOUS
 62
    4
 10
8596.4102838110539
 20
2955.8826532508401
 11
8805.2618286515153
 21
2955.8826532508401
  0
LINE
  8
_0-2_寸法
  6
CONTINUOUS
 62
    4
 10
8596.4102838110539
 20
2881.1926532508401
 11
8805.2618286515153
 21
2881.1926532508401
  0
LINE
  8
_0-2_寸法
  6
CONTINUOUS
 62
    4
 10
8805.2618286515153
 20
2950.8826532508401
 11
8805.2618286515153
 21
2886.1926532508396
  0
INSERT
  2
-000-_Dot
  8
_0-2_寸法
 10
8805.2618286515153
 20
2955.8826532508401
 41
1
 42
1
 50
90
  0
INSERT
  2
-000-_Dot
  8
_0-2_寸法
 10
8805.2618286515153
 20
2881.1926532508401
 41
1
 42
1
 50
270
  0
TEXT
  8
_0-2_寸法
 62
    7
 10
8800.2618286515099
 20
2904.9751532508408
 40
25
 41
1
 50
90
  1
15
  0
POINT
  8
_0-1_Defpoints
 62
    7
 10
8596.4102838110539
 20
2955.8826532508401
  0
POINT
  8
_0-1_Defpoints
 62
    7
 10
8596.4102838110539
 20
2881.1926532508401
  0
POINT
  8
_0-1_Defpoints
 62
    7
 10
8805.2618286515153
 20
2881.1926532508401
  0
ENDBLK
  0
BLOCK
  2
-003-_D6
 70
   64
 10
0
 20
0
 30
0
  0
LINE
  8
_0-2_寸法
  6
CONTINUOUS
 62
    4
 10
8596.4102838110539
 20
2881.1926532508401
 11
8805.2618286515153
 21
2881.1926532508401
  0
LINE
  8
_0-2_寸法
  6
CONTINUOUS
 62
    4
 10
8596.4102838110539
 20
2701.2126532508396
 11
8805.2618286515153
 21
2701.2126532508396
  0
LINE
  8
_0-2_寸法
  6
CONTINUOUS
 62
    4
 10
8805.2618286515153
 20
2876.1926532508396
 11
8805.2618286515153
 21
2706.2126532508396
  0
INSERT
  2
-000-_Dot
  8
_0-2_寸法
 10
8805.2618286515153
 20
2881.1926532508401
 41
1
 42
1
 50
90
  0
INSERT
  2
-000-_Dot
  8
_0-2_寸法
 10
8805.2618286515153
 20
2701.2126532508396
 41
1
 42
1
 50
270
  0
TEXT
  8
_0-2_寸法
 62
    7
 10
8800.2618286515099
 20
2777.6401532508416
 40
25
 41
1
 50
90
  1
37
  0
POINT
  8
_0-1_Defpoints
 62
    7
 10
8596.4102838110539
 20
2881.1926532508401
  0
POINT
  8
_0-1_Defpoints
 62
    7
 10
8596.4102838110539
 20
2701.2126532508396
  0
POINT
  8
_0-1_Defpoints
 62
    7
 10
8805.2618286515153
 20
2701.2126532508396
  0
ENDBLK
  0
BLOCK
  2
-004-_D7
 70
   64
 10
0
 20
0
 30
0
  0
LINE
  8
_0-2_寸法
  6
CONTINUOUS
 62
    4
 10
8596.4102838110539
 20
2701.2126532508396
 11
8805.2618286515153
 21
2701.2126532508396
  0
LINE
  8
_0-2_寸法
  6
CONTINUOUS
 62
    4
 10
8596.4102838110539
 20
2348.6926532508401
 11
8805.2618286515099
 21
2348.6926532508401
  0
LINE
  8
_0-2_寸法
  6
CONTINUOUS
 62
    4
 10
8805.2618286515153
 20
2696.21265325084
 11
8805.2618286515099
 21
2353.6926532508401
  0
INSERT
  2
-000-_Dot
  8
_0-2_寸法
 10
8805.2618286515153
 20
2701.2126532508396
 41
1
 42
1
 50
90
  0
INSERT
  2
-000-_Dot
  8
_0-2_寸法
 10
8805.2618286515099
 20
2348.6926532508401
 41
1
 42
1
 50
270
  0
TEXT
  8
_0-2_寸法
 62
    7
 10
8800.2618286515099
 20
2496.7651532508412
 40
25
 41
1
 50
90
  1
69.5
  0
POINT
  8
_0-1_Defpoints
 62
    7
 10
8596.4102838110539
 20
2701.2126532508396
  0
POINT
  8
_0-1_Defpoints
 62
    7
 10
8596.4102838110539
 20
2348.6926532508401
  0
POINT
  8
_0-1_Defpoints
 62
    7
 10
8805.2618286515099
 20
2348.6926532508401
  0
ENDBLK
  0
BLOCK
  2
-005-_D8
 70
   64
 10
0
 20
0
 30
0
  0
LINE
  8
_0-2_寸法
  6
CONTINUOUS
 62
    4
 10
8536.0268286515147
 20
2966.353705139677
 11
8536.0268286515147
 21
3009.9776532508404
  0
LINE
  8
_0-2_寸法
  6
CONTINUOUS
 62
    4
 10
8450.9968286515141
 20
2966.353705139677
 11
8450.9968286515141
 21
3009.9776532508404
  0
LINE
  8
_0-2_寸法
  6
CONTINUOUS
 62
    4
 10
8531.0268286515093
 20
3009.9776532508404
 11
8455.9968286515141
 21
3009.9776532508404
  0
INSERT
  2
-000-_Dot
  8
_0-2_寸法
 10
8536.0268286515147
 20
3009.9776532508404
 41
1
 42
1
 50
0
  0
INSERT
  2
-000-_Dot
  8
_0-2_寸法
 10
8450.9968286515141
 20
3009.9776532508404
 41
1
 42
1
 50
180
  0
TEXT
  8
_0-2_寸法
 62
    7
 10
8465.3243286515135
 20
3014.9776532508404
 40
25
 41
1
 50
0
  1
17.5
  0
POINT
  8
_0-1_Defpoints
 62
    7
 10
8536.0268286515147
 20
2966.353705139677
  0
POINT
  8
_0-1_Defpoints
 62
    7
 10
8450.9968286515141
 20
2966.353705139677
  0
POINT
  8
_0-1_Defpoints
 62
    7
 10
8450.9968286515141
 20
3009.9776532508404
  0
ENDBLK
  0
BLOCK
  2
-006-_D9
 70
   64
 10
0
 20
0
 30
0
  0
LINE
  8
_0-2_寸法
  6
CONTINUOUS
 62
    4
 10
8450.9968286515141
 20
2966.353705139677
 11
8450.9968286515141
 21
3009.9776532508404
  0
LINE
  8
_0-2_寸法
  6
CONTINUOUS
 62
    4
 10
8325.9968286515086
 20
2966.353705139677
 11
8325.9968286515086
 21
3009.9776532508404
  0
LINE
  8
_0-2_寸法
  6
CONTINUOUS
 62
    4
 10
8445.9968286515141
 20
3009.9776532508404
 11
8330.9968286515086
 21
3009.9776532508404
  0
INSERT
  2
-000-_Dot
  8
_0-2_寸法
 10
8450.9968286515141
 20
3009.9776532508404
 41
1
 42
1
 50
0
  0
INSERT
  2
-000-_Dot
  8
_0-2_寸法
 10
8325.9968286515086
 20
3009.9776532508404
 41
1
 42
1
 50
180
  0
TEXT
  8
_0-2_寸法
 62
    7
 10
8374.9343286515086
 20
3014.9776532508404
 40
25
 41
1
 50
0
  1
25
  0
POINT
  8
_0-1_Defpoints
 62
    7
 10
8450.9968286515141
 20
2966.353705139677
  0
POINT
  8
_0-1_Defpoints
 62
    7
 10
8325.9968286515086
 20
2966.353705139677
  0
POINT
  8
_0-1_Defpoints
 62
    7
 10
8325.9968286515086
 20
3009.9776532508404
  0
ENDBLK
  0
BLOCK
  2
-007-_D10
 70
   64
 10
0
 20
0
 30
0
  0
LINE
  8
_0-2_寸法
  6
CONTINUOUS
 62
    4
 10
8325.9968286515086
 20
2966.353705139677
 11
8325.9968286515086
 21
3082.2621332508402
  0
LINE
  8
_0-2_寸法
  6
CONTINUOUS
 62
    4
 10
8536.0268286515147
 20
2966.353705139677
 11
8536.0268286515147
 21
3082.2621332508402
  0
LINE
  8
_0-2_寸法
  6
CONTINUOUS
 62
    4
 10
8330.9968286515086
 20
3082.2621332508402
 11
8531.0268286515093
 21
3082.2621332508402
  0
INSERT
  2
-000-_Dot
  8
_0-2_寸法
 10
8325.9968286515086
 20
3082.2621332508402
 41
1
 42
1
 50
180
  0
INSERT
  2
-000-_Dot
  8
_0-2_寸法
 10
8536.0268286515147
 20
3082.2621332508402
 41
1
 42
1
 50
0
  0
TEXT
  8
_0-2_寸法
 62
    7
 10
8402.8243286515135
 20
3087.2621332508402
 40
25
 41
1
 50
0
  1
42.5
  0
POINT
  8
_0-1_Defpoints
 62
    7
 10
8325.9968286515086
 20
2966.353705139677
  0
POINT
  8
_0-1_Defpoints
 62
    7
 10
8536.0268286515147
 20
2966.353705139677
  0
POINT
  8
_0-1_Defpoints
 62
    7
 10
8536.0268286515147
 20
3082.2621332508402
  0
ENDBLK
  0
BLOCK
  2
-008-_D11
 70
   64
 10
0
 20
0
 30
0
  0
LINE
  8
_0-2_寸法
  6
CONTINUOUS
 62
    4
 10
8299.1530715780391
 20
2881.1926532508401
 11
8262.5718286515093
 21
2881.1926532508401
  0
LINE
  8
_0-2_寸法
  6
CONTINUOUS
 62
    4
 10
8299.1530715780391
 20
2813.7126532508396
 11
8262.5718286515093
 21
2813.7126532508396
  0
LINE
  8
_0-2_寸法
  6
CONTINUOUS
 62
    4
 10
8262.5718286515093
 20
2886.1926532508396
 11
8262.5718286515093
 21
2891.1926532508396
  0
LINE
  8
_0-2_寸法
  6
CONTINUOUS
 62
    4
 10
8262.5718286515093
 20
2808.7126532508396
 11
8262.5718286515093
 21
2803.71265325084
  0
INSERT
  2
-000-_Dot
  8
_0-2_寸法
 10
8262.5718286515093
 20
2881.1926532508401
 41
1
 42
1
 50
270
  0
INSERT
  2
-000-_Dot
  8
_0-2_寸法
 10
8262.5718286515093
 20
2813.7126532508396
 41
1
 42
1
 50
90
  0
TEXT
  8
_0-2_寸法
 62
    7
 10
8257.5718286515093
 20
2819.2651532508416
 40
25
 41
1
 50
90
  1
13.5
  0
POINT
  8
_0-1_Defpoints
 62
    7
 10
8299.1530715780391
 20
2881.1926532508401
  0
POINT
  8
_0-1_Defpoints
 62
    7
 10
8299.1530715780391
 20
2813.7126532508396
  0
POINT
  8
_0-1_Defpoints
 62
    7
 10
8262.5718286515093
 20
2813.7126532508396
  0
ENDBLK
  0
BLOCK
  2
-009-_D12
 70
   64
 10
0
 20
0
 30
0
  0
LINE
  8
_0-2_寸法
  6
CONTINUOUS
 62
    4
 10
8299.1530715780391
 20
2881.1926532508401
 11
8181.9290786515148
 21
2881.1926532508401
  0
LINE
  8
_0-2_寸法
  6
CONTINUOUS
 62
    4
 10
8299.1530715780391
 20
2773.6926532508396
 11
8181.9290786515148
 21
2773.6926532508396
  0
LINE
  8
_0-2_寸法
  6
CONTINUOUS
 62
    4
 10
8181.9290786515148
 20
2876.1926532508396
 11
8181.9290786515148
 21
2778.6926532508396
  0
INSERT
  2
-000-_Dot
  8
_0-2_寸法
 10
8181.9290786515148
 20
2881.1926532508401
 41
1
 42
1
 50
90
  0
INSERT
  2
-000-_Dot
  8
_0-2_寸法
 10
8181.9290786515148
 20
2773.6926532508396
 41
1
 42
1
 50
270
  0
TEXT
  8
_0-2_寸法
 62
    7
 10
8176.9290786515103
 20
2799.2551532508405
 40
25
 41
1
 50
90
  1
21.5
  0
POINT
  8
_0-1_Defpoints
 62
    7
 10
8299.1530715780391
 20
2881.1926532508401
  0
POINT
  8
_0-1_Defpoints
 62
    7
 10
8299.1530715780391
 20
2773.6926532508396
  0
POINT
  8
_0-1_Defpoints
 62
    7
 10
8181.9290786515148
 20
2773.6926532508396
  0
ENDBLK
  0
BLOCK
  2
-010-_D13
 70
   64
 10
0
 20
0
 30
0
  0
LINE
  8
_0-2_寸法
  6
CONTINUOUS
 62
    4
 10
8299.1530715780391
 20
2773.6926532508396
 11
8181.9290786515148
 21
2773.6926532508396
  0
LINE
  8
_0-2_寸法
  6
CONTINUOUS
 62
    4
 10
8299.1530715780391
 20
2723.6926532508396
 11
8181.9290786515148
 21
2723.6926532508396
  0
LINE
  8
_0-2_寸法
  6
CONTINUOUS
 62
    4
 10
8181.9290786515148
 20
2768.6926532508396
 11
8181.9290786515148
 21
2728.6926532508396
  0
INSERT
  2
-000-_Dot
  8
_0-2_寸法
 10
8181.9290786515148
 20
2773.6926532508396
 41
1
 42
1
 50
90
  0
INSERT
  2
-000-_Dot
  8
_0-2_寸法
 10
8181.9290786515148
 20
2723.6926532508396
 41
1
 42
1
 50
270
  0
TEXT
  8
_0-2_寸法
 62
    7
 10
8176.9290786515103
 20
2735.1301532508414
 40
25
 41
1
 50
90
  1
10
  0
POINT
  8
_0-1_Defpoints
 62
    7
 10
8299.1530715780391
 20
2773.6926532508396
  0
POINT
  8
_0-1_Defpoints
 62
    7
 10
8299.1530715780391
 20
2723.6926532508396
  0
POINT
  8
_0-1_Defpoints
 62
    7
 10
8181.9290786515148
 20
2723.6926532508396
  0
ENDBLK
  0
BLOCK
  2
-011-_D14
 70
   64
 10
0
 20
0
 30
0
  0
LINE
  8
_0-2_寸法
  6
CONTINUOUS
 62
    4
 10
8299.1530715780391
 20
2723.6926532508396
 11
8181.9290786515148
 21
2723.6926532508396
  0
LINE
  8
_0-2_寸法
  6
CONTINUOUS
 62
    4
 10
8299.1530715780391
 20
2348.6926532508401
 11
8181.9290786515103
 21
2348.6926532508401
  0
LINE
  8
_0-2_寸法
  6
CONTINUOUS
 62
    4
 10
8181.9290786515148
 20
2718.6926532508396
 11
8181.9290786515103
 21
2353.6926532508401
  0
INSERT
  2
-000-_Dot
  8
_0-2_寸法
 10
8181.9290786515148
 20
2723.6926532508396
 41
1
 42
1
 50
90
  0
INSERT
  2
-000-_Dot
  8
_0-2_寸法
 10
8181.9290786515103
 20
2348.6926532508401
 41
1
 42
1
 50
270
  0
TEXT
  8
_0-2_寸法
 62
    7
 10
8176.9290786515103
 20
2522.6301532508414
 40
25
 41
1
 50
90
  1
75
  0
POINT
  8
_0-1_Defpoints
 62
    7
 10
8299.1530715780391
 20
2723.6926532508396
  0
POINT
  8
_0-1_Defpoints
 62
    7
 10
8299.1530715780391
 20
2348.6926532508401
  0
POINT
  8
_0-1_Defpoints
 62
    7
 10
8181.9290786515103
 20
2348.6926532508401
  0
ENDBLK
  0
BLOCK
  2
-012-_D15
 70
   64
 10
0
 20
0
 30
0
  0
LINE
  8
_0-2_寸法
  6
CONTINUOUS
 62
    4
 10
8299.1530715780391
 20
2348.6926532508401
 11
8095.0518286515098
 21
2348.6926532508401
  0
LINE
  8
_0-2_寸法
  6
CONTINUOUS
 62
    4
 10
8299.1530715780391
 20
2881.1926532508401
 11
8095.0518286515144
 21
2881.1926532508401
  0
LINE
  8
_0-2_寸法
  6
CONTINUOUS
 62
    4
 10
8095.0518286515098
 20
2353.6926532508401
 11
8095.0518286515144
 21
2876.1926532508396
  0
INSERT
  2
-000-_Dot
  8
_0-2_寸法
 10
8095.0518286515098
 20
2348.6926532508401
 41
1
 42
1
 50
270
  0
INSERT
  2
-000-_Dot
  8
_0-2_寸法
 10
8095.0518286515144
 20
2881.1926532508401
 41
1
 42
1
 50
90
  0
TEXT
  8
_0-2_寸法
 62
    7
 10
8090.0518286515098
 20
2594.0676532508414
 40
25
 41
1
 50
90
  1
107
  0
POINT
  8
_0-1_Defpoints
 62
    7
 10
8299.1530715780391
 20
2348.6926532508401
  0
POINT
  8
_0-1_Defpoints
 62
    7
 10
8299.1530715780391
 20
2881.1926532508401
  0
POINT
  8
_0-1_Defpoints
 62
    7
 10
8095.0518286515144
 20
2881.1926532508401
  0
ENDBLK
  0
ENDSEC
  0
SECTION
  2
ENTITIES
  0
LINE
  8
_0-5_受金具
  6
CONTINUOUS
 62
    3
 10
425.92251999999962
 20
379.76451500000019
 11
431.91950000000065
 21
373.76648900000009
  0
LINE
  8
_0-5_受金具
  6
CONTINUOUS
 62
    3
 10
423.09350000000063
 20
379.76451500000019
 11
431.91950000000065
 21
370.93851500000017
  0
ARC
  8
_0-5_受金具
  6
CONTINUOUS
 62
    4
 10
426.92550000000051
 20
360.26251500000001
 40
1
 50
140.06974799999574
 51
270
  0
ARC
  8
_0-5_受金具
  6
CONTINUOUS
 62
    4
 10
431.62550000000056
 20
356.46251500000005
 40
7
 50
104.0362470000033
 51
139.02581800000081
  0
LINE
  8
_0-4_笠木
  6
CONTINUOUS
 62
    4
 10
430.41950000000065
 20
363.25851499999999
 11
425.41950000000065
 21
363.25851499999999
  0
LINE
  8
_0-5_受金具
  6
CONTINUOUS
 62
    3
 10
424.94949999999972
 20
364.7585150000001
 11
431.91950000000065
 21
371.72851500000013
  0
LINE
  8
_0-5_受金具
  6
CONTINUOUS
 62
    3
 10
422.12150000000065
 20
364.7585150000001
 11
431.91950000000065
 21
374.55651499999999
  0
LINE
  8
_0-5_受金具
  6
CONTINUOUS
 62
    4
 10
425.02550000000065
 20
339.76251500000012
 11
431.92550000000051
 21
339.76251500000012
  0
LINE
  8
_0-5_受金具
  6
CONTINUOUS
 62
    4
 10
431.92550000000051
 20
341.76251500000001
 11
424.72549999999956
 21
341.76251500000001
  0
LINE
  8
_0-4_笠木
  6
CONTINUOUS
 62
    4
 10
424.21950000000061
 20
341.75851499999999
 11
431.16950000000065
 21
341.75851499999999
  0
LINE
  8
_0-4_笠木
  6
CONTINUOUS
 62
    4
 10
425.41950000000065
 20
343.25851499999999
 11
431.16950000000065
 21
343.25851499999999
  0
CIRCLE
  8
_0-3_躯体
  6
CONTINUOUS
 62
    3
 10
426.31408400000055
 20
251.63923300000016
 40
0.2881559999999999
  0
LINE
  8
_0-4_笠木
  6
CONTINUOUS
 62
    4
 10
419.66950000000065
 20
364.7585150000001
 11
431.91950000000065
 21
364.7585150000001
  0
LINE
  8
_0-5_受金具
  6
CONTINUOUS
 62
    3
 10
420.26450000000068
 20
379.76451500000019
 11
431.91950000000065
 21
368.10951499999999
  0
LINE
  8
_0-5_受金具
  6
CONTINUOUS
 62
    3
 10
431.91950000000065
 20
365.28151500000013
 11
419.45650000000069
 21
377.74451500000009
  0
LINE
  8
_0-5_受金具
  6
CONTINUOUS
 62
    3
 10
429.61449999999968
 20
364.7585150000001
 11
419.92371000000071
 21
374.44930700000009
  0
LINE
  8
_0-5_受金具
  6
CONTINUOUS
 62
    3
 10
426.78550000000064
 20
364.7585150000001
 11
420.03561000000059
 21
371.50840500000015
  0
LINE
  8
_0-3_躯体
  6
CONTINUOUS
 62
    3
 10
418.9315000000006
 20
416.8877809999999
 11
437.24049999999966
 21
435.19678099999999
  0
LINE
  8
_0-3_躯体
  6
CONTINUOUS
 62
    3
 10
418.9315000000006
 20
418.8877809999999
 11
435.5755000000006
 21
435.53178099999991
  0
LINE
  8
_0-3_躯体
  6
CONTINUOUS
 62
    7
 10
418.91950000000065
 20
379.76451500000019
 11
438.9254999999996
 21
379.76451500000019
  0
LINE
  8
_0-3_躯体
  6
CONTINUOUS
 62
    3
 10
418.9315000000006
 20
414.8877809999999
 11
439.24049999999966
 21
435.19678099999999
  0
LINE
  8
_0-5_受金具
  6
CONTINUOUS
 62
    3
 10
431.91950000000065
 20
377.38450300000011
 11
419.33449999999971
 21
364.80051500000013
  0
LINE
  8
_0-5_受金具
  6
CONTINUOUS
 62
    3
 10
419.77457799999956
 20
368.06859300000008
 11
431.47049999999967
 21
379.76451500000019
  0
LINE
  8
_0-5_受金具
  6
CONTINUOUS
 62
    3
 10
420.02821800000061
 20
371.15125699999999
 11
428.64251199999967
 21
379.76451500000019
  0
LINE
  8
_0-5_受金具
  6
CONTINUOUS
 62
    4
 10
435.92550000000051
 20
289.28051500000004
 11
414.75749999999971
 21
268.11251500000014
  0
LINE
  8
_0-3_躯体
  6
CONTINUOUS
 62
    4
 10
438.9254999999996
 20
288.03851500000002
 11
417.75750000000062
 21
266.87051500000007
  0
LINE
  8
_0-5_受金具
  6
CONTINUOUS
 62
    4
 10
395.42550000000051
 20
330.36251500000003
 11
395.42550000000051
 21
261.16251500000004
  0
LINE
  8
_0-5_受金具
  6
CONTINUOUS
 62
    4
 10
397.42550000000051
 20
328.96251499999994
 11
397.42550000000051
 21
261.16251500000004
  0
LINE
  8
_0-4_笠木
  6
CONTINUOUS
 62
    4
 10
393.91949999999952
 20
333.25851499999999
 11
393.91949999999952
 21
259.25851500000005
  0
LINE
  8
_0-4_笠木
  6
CONTINUOUS
 62
    4
 10
395.41949999999952
 20
332.15851500000008
 11
395.41949999999952
 21
259.75851500000005
  0
LINE
  8
_0-5_受金具
  6
CONTINUOUS
 62
    4
 10
414.75749999999971
 20
158.46821900000003
 11
414.75749999999971
 21
268.11251500000014
  0
LINE
  8
_0-3_躯体
  6
CONTINUOUS
 62
    4
 10
417.75750000000062
 20
158.46821900000003
 11
417.75750000000062
 21
266.87051500000007
  0
CIRCLE
  8
_0-3_躯体
  6
CONTINUOUS
 62
    3
 10
421.41520999999966
 20
176.09858700000007
 40
0.2881559999999999
  0
CIRCLE
  8
_0-3_躯体
  6
CONTINUOUS
 62
    3
 10
422.62336999999957
 20
200.85876299999995
 40
0.2881559999999999
  0
CIRCLE
  8
_0-3_躯体
  6
CONTINUOUS
 62
    3
 10
421.08750000000055
 20
214.74251500000003
 40
0.5
  0
CIRCLE
  8
_0-3_躯体
  6
CONTINUOUS
 62
    3
 10
425.81330999999955
 20
228.88053700000012
 40
0.2881559999999999
  0
CIRCLE
  8
_0-3_躯体
  6
CONTINUOUS
 62
    3
 10
422.81041600000071
 20
222.31569500000006
 40
0.113024
  0
CIRCLE
  8
_0-3_躯体
  6
CONTINUOUS
 62
    3
 10
422.69053599999961
 20
240.01797500000004
 40
0.2330039999999999
  0
ARC
  8
_0-4_笠木
  6
CONTINUOUS
 62
    4
 10
394.91949999999952
 20
259.25851500000005
 40
1
 50
179.94264199999924
 51
270.057342999995
  0
ARC
  8
_0-4_笠木
  6
CONTINUOUS
 62
    4
 10
394.9175000000007
 20
259.24551500000007
 40
1
 50
180
 51
270
  0
LINE
  8
_0-4_笠木
  6
CONTINUOUS
 62
    4
 10
393.91749999999956
 20
259.23451500000004
 11
393.91749999999956
 21
259.24551500000007
  0
ARC
  8
_0-4_笠木
  6
CONTINUOUS
 62
    4
 10
399.21950000000061
 20
262.05851500000006
 40
0.6999999999999999
 50
0.0817339999995553
 51
89.918266000003712
  0
ARC
  8
_0-4_笠木
  6
CONTINUOUS
 62
    4
 10
398.91949999999952
 20
259.25851500000005
 40
1
 50
270.057342999995
 51
0.057238999999028
  0
ARC
  8
_0-4_笠木
  6
CONTINUOUS
 62
    4
 10
398.91949999999952
 20
259.25851500000005
 40
1
 50
270
 51
0
  0
LINE
  8
_0-4_笠木
  6
CONTINUOUS
 62
    4
 10
399.91950000000065
 20
259.25851500000005
 11
399.91950000000065
 21
262.05851500000006
  0
LINE
  8
_0-4_笠木
  6
CONTINUOUS
 62
    4
 10
398.41949999999952
 20
259.75851500000005
 11
398.41949999999952
 21
262.05851500000006
  0
ARC
  8
_0-5_受金具
  6
CONTINUOUS
 62
    4
 10
396.42550000000051
 20
260.99151500000005
 40
1
 50
270
 51
0
  0
LINE
  8
_0-4_笠木
  6
CONTINUOUS
 62
    4
 10
395.41949999999952
 20
259.75851500000005
 11
398.41949999999952
 21
259.75851500000005
  0
LINE
  8
_0-4_笠木
  6
CONTINUOUS
 62
    4
 10
394.91949999999952
 20
258.25851500000005
 11
398.91949999999952
 21
258.25851500000005
  0
ARC
  8
_0-5_受金具
  6
CONTINUOUS
 62
    4
 10
396.42550000000051
 20
260.99151500000005
 40
1
 50
180
 51
270
  0
LINE
  8
_0-5_受金具
  6
CONTINUOUS
 62
    4
 10
395.42550000000051
 20
260.99151500000005
 11
395.42550000000051
 21
261.16251500000004
  0
LINE
  8
_0-4_笠木
  6
CONTINUOUS
 62
    4
 10
394.90650000000051
 20
258.24551500000013
 11
394.9175000000007
 21
258.24551500000013
  0
LINE
  8
_0-5_受金具
  6
CONTINUOUS
 62
    4
 10
397.42550000000051
 20
260.99151500000005
 11
397.42550000000051
 21
261.16251500000004
  0
LINE
  8
_0-4_笠木
  6
CONTINUOUS
 62
    4
 10
398.74649999999951
 20
258.25851500000005
 11
398.91949999999952
 21
258.25851500000005
  0
LINE
  8
_0-4_笠木
  6
CONTINUOUS
 62
    4
 10
399.1195000000007
 20
262.75851500000005
 11
399.21950000000061
 21
262.75851500000005
  0
ARC
  8
_0-4_笠木
  6
CONTINUOUS
 62
    4
 10
399.1195000000007
 20
262.05851500000006
 40
0.6999999999999999
 50
89.918266000003698
 51
179.91802999999831
  0
CIRCLE
  8
_0-3_躯体
  6
CONTINUOUS
 62
    3
 10
420.99149999999963
 20
261.43251500000002
 40
0.5
  0
LINE
  8
_0-3_躯体
  6
CONTINUOUS
 62
    7
 10
418.91950000000065
 20
435.53178099999991
 11
418.91950000000065
 21
379.76451500000019
  0
LINE
  8
_0-5_受金具
  6
CONTINUOUS
 62
    4
 10
424.22549999999956
 20
339.6625150000001
 11
399.12549999999965
 21
331.36251500000003
  0
LINE
  8
_0-4_笠木
  6
CONTINUOUS
 62
    4
 10
423.91950000000065
 20
343.25851499999999
 11
393.91949999999952
 21
333.25851499999999
  0
LINE
  8
_0-4_笠木
  6
CONTINUOUS
 62
    4
 10
424.21950000000061
 20
341.75851499999999
 11
395.41949999999952
 21
332.15851500000008
  0
ARC
  8
_0-5_受金具
  6
CONTINUOUS
 62
    4
 10
399.92550000000051
 20
328.96251499999994
 40
2.5
 50
108.3914789999975
 51
179.97706599999884
  0
ARC
  8
_0-5_受金具
  6
CONTINUOUS
 62
    4
 10
397.9254999999996
 20
330.36251500000003
 40
2.5
 50
108.3914789999975
 51
179.97706599999884
  0
LINE
  8
_0-5_受金具
  6
CONTINUOUS
 62
    3
 10
421.12850000000071
 20
364.7585150000001
 11
419.49190600000065
 21
366.39510900000016
  0
ARC
  8
_0-5_受金具
  6
CONTINUOUS
 62
    4
 10
391.92851353758056
 20
371.91151500000092
 40
28.109987001417295
 50
343.77770229141629
 51
16.222301708584084
  0
LINE
  8
_0-5_受金具
  6
CONTINUOUS
 62
    3
 10
423.95750000000066
 20
364.7585150000001
 11
419.87076399999955
 21
368.84525100000008
  0
LINE
  8
_0-4_笠木
  6
CONTINUOUS
 62
    4
 10
423.91950000000065
 20
353.45851500000015
 11
423.91950000000065
 21
343.25851499999999
  0
LINE
  8
_0-4_笠木
  6
CONTINUOUS
 62
    4
 10
425.41950000000065
 20
363.25851499999999
 11
425.41950000000065
 21
343.25851499999999
  0
LINE
  8
_0-5_受金具
  6
CONTINUOUS
 62
    4
 10
425.02550000000065
 20
339.76251500000012
 11
424.71850000000063
 21
339.76251500000012
  0
LINE
  8
_0-5_受金具
  6
CONTINUOUS
 62
    4
 10
424.22549999999956
 20
339.6625150000001
 11
424.6665000000005
 21
339.75751500000001
  0
ARC
  8
_0-5_受金具
  6
CONTINUOUS
 62
    4
 10
424.72549999999956
 20
339.26251500000001
 40
2.5
 50
89.977088999993981
 51
108.3914789999975
  0
LINE
  8
_0-4_笠木
  6
CONTINUOUS
 62
    4
 10
423.91950000000065
 20
363.25851499999999
 11
423.91950000000065
 21
354.05851499999994
  0
LINE
  8
_0-4_笠木
  6
CONTINUOUS
 62
    4
 10
424.21950000000061
 20
353.75851499999999
 11
423.91950000000065
 21
354.05851499999994
  0
LINE
  8
_0-4_笠木
  6
CONTINUOUS
 62
    4
 10
424.21950000000061
 20
353.75851499999999
 11
423.91950000000065
 21
353.45851500000015
  0
LINE
  8
_0-4_笠木
  6
CONTINUOUS
 62
    4
 10
423.91950000000065
 20
363.25851499999999
 11
419.66950000000065
 21
363.25851499999999
  0
LINE
  8
_0-5_受金具
  6
CONTINUOUS
 62
    4
 10
418.91950000000065
 20
364.05851500000006
 11
418.91950000000065
 21
363.95851500000015
  0
ARC
  8
_0-4_笠木
  6
CONTINUOUS
 62
    4
 10
419.61949999999956
 20
363.95851500000015
 40
0.6999999999999999
 50
180
 51
270.08184799999873
  0
ARC
  8
_0-4_笠木
  6
CONTINUOUS
 62
    4
 10
419.66950000000065
 20
364.00851499999999
 40
0.75
 50
90
 51
180
  0
LINE
  8
_0-5_受金具
  6
CONTINUOUS
 62
    4
 10
426.34049999999957
 20
361.05251500000008
 11
426.15849999999955
 21
360.87051500000018
  0
ARC
  8
_0-5_受金具
  6
CONTINUOUS
 62
    4
 10
426.92550000000051
 20
360.26251500000001
 40
1
 50
126.5032810000031
 51
127.44283300000389
  0
LINE
  8
_0-5_受金具
  6
CONTINUOUS
 62
    3
 10
419.96681000000058
 20
373.91782499999999
 11
425.81350000000066
 21
379.76451500000019
  0
LINE
  8
_0-5_受金具
  6
CONTINUOUS
 62
    3
 10
419.66973600000051
 20
376.44978500000013
 11
422.98554800000056
 21
379.76451500000019
  0
LINE
  8
_0-5_受金具
  6
CONTINUOUS
 62
    3
 10
420.1562840000006
 20
379.76451500000019
 11
419.17750000000069
 21
378.78451500000017
  0
LINE
  8
_0-3_躯体
  6
CONTINUOUS
 62
    3
 10
438.9254999999996
 20
272.32148700000005
 11
499.26950000000056
 21
332.6654870000001
  0
LINE
  8
_0-3_躯体
  6
CONTINUOUS
 62
    3
 10
438.9254999999996
 20
268.32148700000005
 11
499.16550000000052
 21
328.56148700000006
  0
LINE
  8
_0-3_躯体
  6
CONTINUOUS
 62
    3
 10
438.9254999999996
 20
270.32148700000005
 11
499.16550000000052
 21
330.56148700000006
  0
LINE
  8
_0-3_躯体
  6
CONTINUOUS
 62
    7
 10
438.9254999999996
 20
158.46821900000003
 11
438.9254999999996
 21
379.76451500000019
  0
LINE
  8
_0-3_躯体
  6
CONTINUOUS
 62
    3
 10
438.9254999999996
 20
181.03979700000014
 11
499.16550000000052
 21
241.27979700000003
  0
LINE
  8
_0-3_躯体
  6
CONTINUOUS
 62
    3
 10
438.9254999999996
 20
179.03979700000002
 11
499.16550000000052
 21
239.27979700000003
  0
LINE
  8
_0-3_躯体
  6
CONTINUOUS
 62
    3
 10
499.16550000000052
 20
237.27979700000003
 11
438.9254999999996
 21
177.03979700000014
  0
CIRCLE
  8
_0-3_躯体
  6
CONTINUOUS
 62
    3
 10
430.56535600000052
 20
165.99495900000005
 40
0.2881559999999999
  0
CIRCLE
  8
_0-3_躯体
  6
CONTINUOUS
 62
    3
 10
429.89241799999968
 20
189.87336700000003
 40
0.5
  0
CIRCLE
  8
_0-3_躯体
  6
CONTINUOUS
 62
    3
 10
435.19037000000071
 20
207.63026300000007
 40
0.5
  0
CIRCLE
  8
_0-3_躯体
  6
CONTINUOUS
 62
    3
 10
430.76355000000058
 20
219.53690700000004
 40
0.2881559999999999
  0
CIRCLE
  8
_0-3_躯体
  6
CONTINUOUS
 62
    3
 10
435.1451140000006
 20
233.26005700000002
 40
0.5
  0
CIRCLE
  8
_0-3_躯体
  6
CONTINUOUS
 62
    3
 10
431.92336600000067
 20
243.69494700000007
 40
0.5
  0
CIRCLE
  8
_0-3_躯体
  6
CONTINUOUS
 62
    3
 10
435.29112200000054
 20
253.61950300000007
 40
0.3935599999999999
  0
CIRCLE
  8
_0-3_躯体
  6
CONTINUOUS
 62
    3
 10
431.3046560000007
 20
265.76902500000006
 40
0.2881559999999999
  0
CIRCLE
  8
_0-3_躯体
  6
CONTINUOUS
 62
    3
 10
432.47605600000065
 20
275.82318100000003
 40
0.2881559999999999
  0
LINE
  8
_0-3_躯体
  6
CONTINUOUS
 62
    3
 10
438.9254999999996
 20
362.40591300000017
 11
499.16550000000052
 21
422.64591300000018
  0
LINE
  8
_0-3_躯体
  6
CONTINUOUS
 62
    3
 10
438.9254999999996
 20
360.40591300000017
 11
499.16550000000052
 21
420.64591300000018
  0
LINE
  8
_0-3_躯体
  6
CONTINUOUS
 62
    3
 10
438.9254999999996
 20
358.40591300000017
 11
499.16550000000052
 21
418.64591300000018
  0
LINE
  8
_0-5_受金具
  6
CONTINUOUS
 62
    4
 10
432.9254999999996
 20
328.76251500000001
 11
432.9254999999996
 21
338.76251500000001
  0
LINE
  8
_0-5_受金具
  6
CONTINUOUS
 62
    4
 10
434.9254999999996
 20
359.26251500000001
 11
434.9254999999996
 21
330.76251500000001
  0
LINE
  8
_0-5_受金具
  6
CONTINUOUS
 62
    4
 10
435.92550000000051
 20
379.76451500000019
 11
435.92550000000051
 21
289.28051500000004
  0
LINE
  8
_0-5_受金具
  6
CONTINUOUS
 62
    4
 10
435.92550000000051
 20
330.76251500000001
 11
435.92550000000051
 21
328.76251500000001
  0
LINE
  8
_0-5_受金具
  6
CONTINUOUS
 62
    4
 10
435.92550000000051
 20
328.76251500000001
 11
432.9254999999996
 21
328.76251500000001
  0
LINE
  8
_0-5_受金具
  6
CONTINUOUS
 62
    4
 10
434.9254999999996
 20
330.76251500000001
 11
435.92550000000051
 21
330.76251500000001
  0
LINE
  8
_0-5_受金具
  6
PLINE2
 62
    3
 10
468.71217399999955
 20
356.40910900000006
 11
470.70943400000056
 21
356.51378100000011
  0
LINE
  8
_0-5_受金具
  6
PLINE2
 62
    3
 10
477.88301600000068
 20
353.38492900000017
 11
446.92550000000051
 21
351.76251500000001
  0
LINE
  8
_0-5_受金具
  6
PLINE2
 62
    3
 10
468.71217399999955
 20
346.11592100000018
 11
470.70943400000056
 21
346.01124900000002
  0
LINE
  8
_0-5_受金具
  6
PLINE2
 62
    3
 10
477.88301600000068
 20
349.14010100000007
 11
446.92550000000051
 21
350.76251500000001
  0
LINE
  8
_0-5_受金具
  6
CONTINUOUS
 62
    4
 10
435.92550000000051
 20
361.26251500000012
 11
431.91950000000065
 21
379.7155150000001
  0
LINE
  8
_0-5_受金具
  6
CONTINUOUS
 62
    4
 10
431.91950000000065
 20
364.7585150000001
 11
431.91950000000065
 21
379.76451500000019
  0
LINE
  8
_0-5_受金具
  6
CONTINUOUS
 62
    3
 10
427.77748999999972
 20
364.7585150000001
 11
431.91950000000065
 21
368.89948100000004
  0
LINE
  8
_0-5_受金具
  6
PLINE2
 62
    3
 10
450.9254999999996
 20
355.26251500000001
 11
446.92550000000051
 21
355.26251500000001
  0
ARC
  8
_0-5_受金具
  6
PLINE2
 62
    3
 10
448.3012760000006
 20
357.77970900000014
 40
0.5
 50
80.537677999993406
 51
260.53767799999332
  0
ARC
  8
_0-5_受金具
  6
PLINE2
 62
    3
 10
448.3012760000006
 20
344.8959890000001
 40
0.5
 50
99.462321999993762
 51
279.46232199999372
  0
LINE
  8
_0-5_受金具
  6
PLINE2
 62
    3
 10
450.9254999999996
 20
347.26251500000001
 11
446.92550000000051
 21
347.26251500000001
  0
LINE
  8
_0-5_受金具
  6
PLINE2
 62
    3
 10
446.92550000000051
 20
351.76251500000001
 11
446.92550000000051
 21
351.26251500000001
  0
LINE
  8
_0-5_受金具
  6
PLINE2
 62
    3
 10
438.9254999999996
 20
356.26251500000012
 11
438.9254999999996
 21
351.26251500000001
  0
LINE
  8
_0-5_受金具
  6
CONTINUOUS
 62
    4
 10
432.9254999999996
 20
359.26251500000001
 11
432.9254999999996
 21
351.56251500000008
  0
ARC
  8
_0-5_受金具
  6
CONTINUOUS
 62
    3
 10
434.9254999999996
 20
351.26251500000001
 40
5.4000000000000004
 50
141.31781300000159
 51
180
  0
LINE
  8
_0-5_受金具
  6
PLINE2
 62
    3
 10
438.9254999999996
 20
352.26251500000012
 11
443.92550000000051
 21
351.26251500000001
  0
LINE
  8
_0-5_受金具
  6
PLINE2
 62
    3
 10
432.9254999999996
 20
349.76251500000001
 11
438.9254999999996
 21
349.76251500000001
  0
LINE
  8
_0-5_受金具
  6
PLINE2
 62
    3
 10
432.9254999999996
 20
348.76251500000012
 11
438.9254999999996
 21
348.76251500000012
  0
LINE
  8
_0-5_受金具
  6
CONTINUOUS
 62
    4
 10
432.9254999999996
 20
350.96251500000005
 11
432.9254999999996
 21
342.76251500000001
  0
ARC
  8
_0-4_笠木
  6
CONTINUOUS
 62
    4
 10
431.16950000000065
 20
342.50851499999999
 40
0.75
 50
0
 51
90
  0
ARC
  8
_0-4_笠木
  6
CONTINUOUS
 62
    4
 10
431.16950000000065
 20
342.50851499999999
 40
0.75
 50
270
 51
0
  0
ARC
  8
_0-5_受金具
  6
CONTINUOUS
 62
    4
 10
431.92550000000051
 20
338.76251500000001
 40
1
 50
0.0572959999999985
 51
90
  0
LINE
  8
_0-4_笠木
  6
CONTINUOUS
 62
    4
 10
431.91950000000065
 20
342.55851500000006
 11
431.91950000000065
 21
342.45851500000015
  0
ARC
  8
_0-5_受金具
  6
CONTINUOUS
 62
    4
 10
431.92550000000051
 20
342.76251500000001
 40
1
 50
270
 51
0
  0
ARC
  8
_0-5_受金具
  6
CONTINUOUS
 62
    3
 10
433.05420999999956
 20
349.75975300000005
 40
3
 50
218.61463799999814
 51
267.54107400000368
  0
ARC
  8
_0-5_受金具
  6
CONTINUOUS
 62
    3
 10
434.9254999999996
 20
351.26251500000001
 40
5.4000000000000004
 50
180
 51
218.85106200000371
  0
LINE
  8
_0-5_受金具
  6
CONTINUOUS
 62
    4
 10
433.22550000000069
 20
351.26251500000001
 11
432.9254999999996
 21
351.56251500000008
  0
LINE
  8
_0-5_受金具
  6
CONTINUOUS
 62
    4
 10
433.22550000000069
 20
351.26251500000001
 11
432.9254999999996
 21
350.96251500000005
  0
LINE
  8
_0-5_受金具
  6
PLINE2
 62
    3
 10
443.92550000000051
 20
351.26251500000001
 11
438.9254999999996
 21
351.26251500000001
  0
LINE
  8
_0-5_受金具
  6
PLINE2
 62
    3
 10
438.9254999999996
 20
347.26251500000001
 11
446.92550000000051
 21
347.26251500000001
  0
LINE
  8
_0-5_受金具
  6
PLINE2
 62
    3
 10
438.9254999999996
 20
346.26251500000001
 11
443.92550000000051
 21
347.26251500000001
  0
LINE
  8
_0-5_受金具
  6
PLINE2
 62
    3
 10
438.9254999999996
 20
350.26251500000001
 11
443.92550000000051
 21
351.26251500000001
  0
LINE
  8
_0-5_受金具
  6
PLINE2
 62
    3
 10
438.9254999999996
 20
346.26251500000001
 11
438.9254999999996
 21
351.26251500000001
  0
LINE
  8
_0-5_受金具
  6
PLINE2
 62
    3
 10
446.92550000000051
 20
350.76251500000001
 11
446.92550000000051
 21
351.26251500000001
  0
LINE
  8
_0-5_受金具
  6
PLINE2
 62
    3
 10
432.9254999999996
 20
353.76251500000001
 11
438.9254999999996
 21
353.76251500000001
  0
LINE
  8
_0-5_受金具
  6
PLINE2
 62
    3
 10
432.9254999999996
 20
352.76251500000012
 11
438.9254999999996
 21
352.76251500000012
  0
ARC
  8
_0-5_受金具
  6
CONTINUOUS
 62
    3
 10
433.05420999999956
 20
352.76527700000008
 40
3
 50
92.458925999996254
 51
141.38536200000181
  0
LINE
  8
_0-5_受金具
  6
CONTINUOUS
 62
    4
 10
432.9254999999996
 20
359.26251500000001
 11
426.92550000000051
 21
359.26251500000001
  0
LINE
  8
_0-5_受金具
  6
CONTINUOUS
 62
    4
 10
432.9254999999996
 20
359.26251500000001
 11
426.92550000000051
 21
359.26251500000001
  0
LINE
  8
_0-5_受金具
  6
CONTINUOUS
 62
    4
 10
432.9254999999996
 20
359.26251500000001
 11
426.92550000000051
 21
359.26251500000001
  0
LINE
  8
_0-5_受金具
  6
CONTINUOUS
 62
    4
 10
432.9254999999996
 20
359.26251500000001
 11
426.92550000000051
 21
359.26251500000001
  0
ARC
  8
_0-4_笠木
  6
CONTINUOUS
 62
    4
 10
430.41950000000065
 20
363.25851499999999
 40
1.5
 50
270
 51
0
  0
LINE
  8
_0-5_受金具
  6
CONTINUOUS
 62
    4
 10
435.92550000000051
 20
361.26251500000012
 11
429.9254999999996
 21
361.26251500000012
  0
LINE
  8
_0-5_受金具
  6
CONTINUOUS
 62
    3
 10
430.60649999999964
 20
364.7585150000001
 11
431.91950000000065
 21
366.07151500000009
  0
LINE
  8
_0-4_笠木
  6
CONTINUOUS
 62
    4
 10
430.41950000000065
 20
361.75851499999999
 11
430.41950000000065
 21
363.25851499999999
  0
LINE
  8
_0-5_受金具
  6
CONTINUOUS
 62
    4
 10
429.9254999999996
 20
361.26251500000012
 11
429.9254999999996
 21
363.26251500000001
  0
LINE
  8
_0-5_受金具
  6
CONTINUOUS
 62
    4
 10
431.91950000000065
 20
364.7585150000001
 11
431.91950000000065
 21
361.26251500000012
  0
LINE
  8
_0-5_受金具
  6
CONTINUOUS
 62
    4
 10
435.92550000000051
 20
361.26251500000012
 11
435.92550000000051
 21
359.26251500000001
  0
LINE
  8
_0-5_受金具
  6
CONTINUOUS
 62
    4
 10
435.92550000000051
 20
359.26251500000001
 11
434.9254999999996
 21
359.26251500000001
  0
LINE
  8
_0-4_笠木
  6
CONTINUOUS
 62
    4
 10
431.91950000000065
 20
364.7585150000001
 11
431.91950000000065
 21
363.25851499999999
  0
LINE
  8
_0-5_受金具
  6
PLINE2
 62
    3
 10
438.9254999999996
 20
355.26251500000001
 11
446.92550000000051
 21
355.26251500000001
  0
LINE
  8
_0-5_受金具
  6
PLINE2
 62
    3
 10
438.9254999999996
 20
356.26251500000012
 11
443.92550000000051
 21
355.26251500000001
  0
LINE
  8
_0-5_受金具
  6
PLINE2
 62
    3
 10
458.78157399999964
 20
347.852667
 11
453.72587799999951
 21
346.30698499999994
  0
LINE
  8
_0-5_受金具
  6
PLINE2
 62
    3
 10
458.72587799999951
 20
346.7899470000001
 11
453.72587799999951
 21
345.29319100000009
  0
LINE
  8
_0-5_受金具
  6
PLINE2
 62
    3
 10
456.83329200000071
 20
348.74121100000002
 11
458.83055000000058
 21
348.63653900000008
  0
LINE
  8
_0-5_受金具
  6
PLINE2
 62
    3
 10
453.72587799999951
 20
345.29319100000009
 11
448.38347399999952
 21
344.40279100000009
  0
LINE
  8
_0-5_受金具
  6
PLINE2
 62
    3
 10
453.72587799999951
 20
346.30698499999994
 11
448.21907600000054
 21
345.389185
  0
LINE
  8
_0-5_受金具
  6
PLINE2
 62
    3
 10
451.84014399999955
 20
349.00289100000009
 11
453.83740399999965
 21
348.89821900000015
  0
LINE
  8
_0-5_受金具
  6
PLINE2
 62
    3
 10
450.9254999999996
 20
347.26251500000001
 11
451.84014399999955
 21
349.00289100000009
  0
LINE
  8
_0-5_受金具
  6
PLINE2
 62
    3
 10
453.83740399999965
 20
348.89821900000015
 11
453.73273200000062
 21
346.90095900000017
  0
LINE
  8
_0-5_受金具
  6
PLINE2
 62
    3
 10
455.7299900000005
 20
346.79628700000001
 11
456.83329200000071
 21
348.74121100000002
  0
LINE
  8
_0-5_受金具
  6
PLINE2
 62
    3
 10
453.73273200000062
 20
346.90095900000017
 11
455.7299900000005
 21
346.79628700000001
  0
LINE
  8
_0-5_受金具
  6
PLINE2
 62
    3
 10
461.8264400000005
 20
348.47953100000007
 11
463.8236980000006
 21
348.37485900000001
  0
LINE
  8
_0-5_受金具
  6
PLINE2
 62
    3
 10
463.8236980000006
 20
348.37485900000001
 11
463.71902599999953
 21
346.37760100000003
  0
LINE
  8
_0-5_受金具
  6
PLINE2
 62
    3
 10
463.71902599999953
 20
346.37760100000003
 11
465.71628599999963
 21
346.27292900000009
  0
LINE
  8
_0-5_受金具
  6
PLINE2
 62
    3
 10
458.83055000000058
 20
348.63653900000008
 11
458.72587799999951
 21
346.6392810000001
  0
LINE
  8
_0-5_受金具
  6
PLINE2
 62
    3
 10
460.72313800000052
 20
346.53460900000016
 11
461.8264400000005
 21
348.47953100000007
  0
LINE
  8
_0-5_受金具
  6
PLINE2
 62
    3
 10
458.72587799999951
 20
346.6392810000001
 11
460.72313800000052
 21
346.53460900000016
  0
LINE
  8
_0-5_受金具
  6
PLINE2
 62
    3
 10
465.71628599999963
 20
346.27292900000009
 11
466.81958799999961
 21
348.217851
  0
LINE
  8
_0-5_受金具
  6
PLINE2
 62
    3
 10
468.81684600000062
 20
348.11317899999995
 11
468.71217399999955
 21
346.11592100000018
  0
LINE
  8
_0-5_受金具
  6
PLINE2
 62
    3
 10
466.81958799999961
 20
348.217851
 11
468.81684600000062
 21
348.11317899999995
  0
LINE
  8
_0-5_受金具
  6
PLINE2
 62
    3
 10
458.78157399999964
 20
354.8230309999999
 11
453.72587799999951
 21
356.36871100000008
  0
LINE
  8
_0-5_受金具
  6
PLINE2
 62
    3
 10
458.72587799999951
 20
355.88574900000015
 11
453.72587799999951
 21
357.38250500000015
  0
LINE
  8
_0-5_受金具
  6
PLINE2
 62
    3
 10
456.83329200000071
 20
353.78381900000011
 11
458.83055000000058
 21
353.88849100000004
  0
LINE
  8
_0-5_受金具
  6
PLINE2
 62
    3
 10
453.72587799999951
 20
356.36871100000008
 11
448.21907600000054
 21
357.28651100000013
  0
LINE
  8
_0-5_受金具
  6
PLINE2
 62
    3
 10
453.72587799999951
 20
357.38250500000015
 11
448.38347399999952
 21
358.27290500000004
  0
LINE
  8
_0-5_受金具
  6
PLINE2
 62
    3
 10
451.84014399999955
 20
353.52213900000004
 11
453.83740399999965
 21
353.62681100000009
  0
LINE
  8
_0-5_受金具
  6
PLINE2
 62
    3
 10
450.9254999999996
 20
355.26251500000001
 11
451.84014399999955
 21
353.52213900000004
  0
LINE
  8
_0-5_受金具
  6
PLINE2
 62
    3
 10
453.83740399999965
 20
353.62681100000009
 11
453.73273200000062
 21
355.62407100000007
  0
LINE
  8
_0-5_受金具
  6
PLINE2
 62
    3
 10
455.7299900000005
 20
355.72874100000001
 11
456.83329200000071
 21
353.78381900000011
  0
LINE
  8
_0-5_受金具
  6
PLINE2
 62
    3
 10
453.73273200000062
 20
355.62407100000007
 11
455.7299900000005
 21
355.72874100000001
  0
LINE
  8
_0-5_受金具
  6
PLINE2
 62
    3
 10
461.8264400000005
 20
354.04549900000006
 11
463.8236980000006
 21
354.15017100000011
  0
LINE
  8
_0-5_受金具
  6
PLINE2
 62
    3
 10
463.8236980000006
 20
354.15017100000011
 11
463.71902599999953
 21
356.14742899999999
  0
LINE
  8
_0-5_受金具
  6
PLINE2
 62
    3
 10
463.71902599999953
 20
356.14742899999999
 11
465.71628599999963
 21
356.25210100000004
  0
LINE
  8
_0-5_受金具
  6
PLINE2
 62
    3
 10
458.83055000000058
 20
353.88849100000004
 11
458.72587799999951
 21
355.88574900000015
  0
LINE
  8
_0-5_受金具
  6
PLINE2
 62
    3
 10
460.72313800000052
 20
355.99042100000008
 11
461.8264400000005
 21
354.04549900000006
  0
LINE
  8
_0-5_受金具
  6
PLINE2
 62
    3
 10
458.72587799999951
 20
355.88574900000015
 11
460.72313800000052
 21
355.99042100000008
  0
LINE
  8
_0-5_受金具
  6
PLINE2
 62
    3
 10
465.71628599999963
 20
356.25210100000004
 11
466.81958799999961
 21
354.30717900000002
  0
LINE
  8
_0-5_受金具
  6
PLINE2
 62
    3
 10
468.81684600000062
 20
354.41185100000007
 11
468.71217399999955
 21
356.40910900000006
  0
LINE
  8
_0-5_受金具
  6
PLINE2
 62
    3
 10
466.81958799999961
 20
354.30717900000002
 11
468.81684600000062
 21
354.41185100000007
  0
LINE
  8
_0-5_受金具
  6
CONTINUOUS
 62
    3
 10
431.91950000000065
 20
379.42201100000011
 11
431.58011000000056
 21
379.76451500000019
  0
LINE
  8
_0-5_受金具
  6
CONTINUOUS
 62
    3
 10
428.75049999999965
 20
379.76451500000019
 11
431.91950000000065
 21
376.59551500000009
  0
LINE
  8
_0-3_躯体
  6
CONTINUOUS
 62
    4
 10
438.92249999999967
 20
379.76451500000019
 11
438.92249999999967
 21
379.69651500000009
  0
LINE
  8
_0-5_受金具
  6
PLINE2
 62
    3
 10
474.86619400000063
 20
351.20320900000002
 11
473.15052400000059
 21
353.13691100000017
  0
LINE
  8
_0-5_受金具
  6
PLINE2
 62
    3
 10
473.70532200000071
 20
345.854241
 11
475.70258000000058
 21
345.74956900000018
  0
LINE
  8
_0-5_受金具
  6
PLINE2
 62
    3
 10
473.05605600000058
 20
349.39307100000008
 11
474.92550000000051
 21
351.26251500000001
  0
LINE
  8
_0-5_受金具
  6
PLINE2
 62
    3
 10
470.70943400000056
 20
346.01124900000002
 11
471.81273400000055
 21
347.95617100000015
  0
LINE
  8
_0-5_受金具
  6
PLINE2
 62
    3
 10
471.81273400000055
 20
347.95617100000015
 11
473.80999400000064
 21
347.85149899999999
  0
LINE
  8
_0-5_受金具
  6
PLINE2
 62
    3
 10
473.80999400000064
 20
347.85149899999999
 11
473.70532200000071
 21
345.854241
  0
LINE
  8
_0-5_受金具
  6
PLINE2
 62
    3
 10
475.88575600000058
 20
349.24477300000012
 11
475.70258000000058
 21
345.74956900000018
  0
LINE
  8
_0-5_受金具
  6
PLINE2
 62
    3
 10
477.80451200000061
 20
347.64215500000012
 11
477.88301600000068
 21
349.14010100000007
  0
LINE
  8
_0-5_受金具
  6
PLINE2
 62
    3
 10
475.70258000000058
 20
345.74956900000018
 11
477.80451200000061
 21
347.64215500000012
  0
LINE
  8
_0-5_受金具
  6
PLINE2
 62
    3
 10
473.70532200000071
 20
356.67078900000001
 11
475.70258000000058
 21
356.77546100000006
  0
LINE
  8
_0-5_受金具
  6
PLINE2
 62
    3
 10
470.70943400000056
 20
356.51378100000011
 11
471.81273400000055
 21
354.56885900000009
  0
LINE
  8
_0-5_受金具
  6
PLINE2
 62
    3
 10
473.80999400000064
 20
354.67353099999991
 11
473.70532200000071
 21
356.67078900000001
  0
LINE
  8
_0-5_受金具
  6
PLINE2
 62
    3
 10
471.81273400000055
 20
354.56885900000009
 11
473.80999400000064
 21
354.67353099999991
  0
LINE
  8
_0-5_受金具
  6
PLINE2
 62
    3
 10
475.88575600000058
 20
353.28025700000012
 11
475.70258000000058
 21
356.77546100000006
  0
LINE
  8
_0-5_受金具
  6
PLINE2
 62
    3
 10
475.70258000000058
 20
356.77546100000006
 11
477.80451200000061
 21
354.88287300000013
  0
LINE
  8
_0-5_受金具
  6
PLINE2
 62
    3
 10
477.80451200000061
 20
354.88287300000013
 11
477.88301600000068
 21
353.38492900000017
  0
LINE
  8
_0-5_受金具
  6
CONTINUOUS
 62
    4
 10
397.13673020728561
 20
332.73482236079928
 11
423.9367302072867
 21
341.63482236079926
  0
LINE
  8
_0-4_笠木
  6
CONTINUOUS
 62
    4
 10
431.91950000000065
 20
364.7585150000001
 11
419.66950000000065
 21
364.7585150000001
  0
INSERT
  2
-001-_D4
  8
_0-2_寸法
 10
-1271.2798657303022
 20
-211.48001565016796
 41
0.2
 42
0.2
 50
0
  0
INSERT
  2
-002-_D5
  8
_0-2_寸法
 10
-1271.2798657303022
 20
-211.48001565016796
 41
0.2
 42
0.2
 50
0
  0
INSERT
  2
-003-_D6
  8
_0-2_寸法
 10
-1271.2798657303022
 20
-211.48001565016796
 41
0.2
 42
0.2
 50
0
  0
INSERT
  2
-004-_D7
  8
_0-2_寸法
 10
-1271.2798657303022
 20
-211.48001565016796
 41
0.2
 42
0.2
 50
0
  0
INSERT
  2
-005-_D8
  8
_0-2_寸法
 10
-1271.2798657303022
 20
-211.48001565016796
 41
0.2
 42
0.2
 50
0
  0
INSERT
  2
-006-_D9
  8
_0-2_寸法
 10
-1271.2798657303022
 20
-211.48001565016796
 41
0.2
 42
0.2
 50
0
  0
INSERT
  2
-007-_D10
  8
_0-2_寸法
 10
-1271.2798657303022
 20
-211.48001565016796
 41
0.2
 42
0.2
 50
0
  0
INSERT
  2
-008-_D11
  8
_0-2_寸法
 10
-1271.2798657303022
 20
-211.48001565016796
 41
0.2
 42
0.2
 50
0
  0
INSERT
  2
-009-_D12
  8
_0-2_寸法
 10
-1271.2798657303022
 20
-211.48001565016796
 41
0.2
 42
0.2
 50
0
  0
INSERT
  2
-010-_D13
  8
_0-2_寸法
 10
-1271.2798657303022
 20
-211.48001565016796
 41
0.2
 42
0.2
 50
0
  0
INSERT
  2
-011-_D14
  8
_0-2_寸法
 10
-1271.2798657303022
 20
-211.48001565016796
 41
0.2
 42
0.2
 50
0
  0
INSERT
  2
-012-_D15
  8
_0-2_寸法
 10
-1271.2798657303022
 20
-211.48001565016796
 41
0.2
 42
0.2
 50
0
  0
LINE
  8
_0-5_受金具
  6
CONTINUOUS
 62
    4
 10
431.91950000000065
 20
364.7585150000001
 11
419.11317760061161
 21
364.7585150000001
  0
LINE
  8
_0-5_受金具
  6
CONTINUOUS
 62
    4
 10
431.91950000000065
 20
361.26251500000012
 11
435.92550000000051
 21
361.26251500000012
  0
LINE
  8
_0-5_受金具
  6
CONTINUOUS
 62
    4
 10
435.92550000000051
 20
361.26251500000012
 11
435.92550000000051
 21
379.76451500000019
  0
LINE
  8
_0-5_受金具
  6
CONTINUOUS
 62
    4
 10
438.92250940399072
 20
379.76445780596589
 11
418.91930193855364
 21
379.76445780596589
  0
LINE
  8
_0-5_受金具
  6
CONTINUOUS
 62
    4
 10
438.9254999999996
 20
288.03851500000002
 11
417.75750000000062
 21
266.87051500000007
  0
LINE
  8
_0-5_受金具
  6
CONTINUOUS
 62
    4
 10
417.75750000000062
 20
266.87051500000007
 11
417.75750000000062
 21
158.46821900000003
  0
LINE
  8
_0-5_受金具
  6
CONTINUOUS
 62
    4
 10
438.9254999999996
 20
288.03851500000002
 11
438.92250940399072
 21
379.76445780596589
  0
ENDSEC
  0
EOF
