  0
SECTION
  2
HEADER
  9
$ACADVER
  1
AC1009
  9
$INSBASE
 10
0
 20
0
 30
0
  9
$EXTMIN
 10
0
 20
0
  9
$EXTMAX
 10
841
 20
594
  9
$LIMMIN
 10
0
 20
0
  9
$LIMMAX
 10
841
 20
594
  9
$LTSCALE
 40
1
  0
ENDSEC
  0
SECTION
  2
TABLES
  0
TABLE
  2
LTYPE
 70
     9
  0
LTYPE
  2
CONTINUOUS
 70
    64
  3
実線
 72
    65
 73
     0
 40
0.0
  0
LTYPE
  2
DASHED1
 70
    64
  3
--  --  --  --  --  --  --  --  
 72
    65
 73
     2
 40
2.5
 49
1.25
 49
-1.25
  0
LTYPE
  2
DASHED2
 70
    64
  3
----    ----    ----    ----    
 72
    65
 73
     2
 40
5.0
 49
2.5
 49
-2.5
  0
LTYPE
  2
DASHED3
 70
    64
  3
------  ------  ------  ------  
 72
    65
 73
     2
 40
5.0
 49
3.75
 49
-1.25
  0
LTYPE
  2
CENTER1
 70
    64
  3
----- - ----- - ----- - ----- - 
 72
    65
 73
     4
 40
10.0
 49
6.25
 49
-1.25
 49
1.25
 49
-1.25
  0
LTYPE
  2
CENTER2
 70
    64
  3
----------  --  ----------  --  
 72
    65
 73
     4
 40
20.0
 49
12.5
 49
-2.5
 49
2.5
 49
-2.5
  0
LTYPE
  2
PHANTOM1
 70
    64
  3
--- - - --- - - --- - - --- - - 
 72
    65
 73
     6
 40
10.0
 49
3.25
 49
-1.25
 49
1.25
 49
-1.25
 49
1.25
 49
-1.25
  0
LTYPE
  2
PHANTOM2
 70
    64
  3
--------  -  -  --------  -  -  
 72
    65
 73
     6
 40
20.0
 49
10.0
 49
-2.5
 49
1.25
 49
-2.5
 49
1.25
 49
-2.5
  0
LTYPE
  2
DOT
 70
    64
  3
-   -   -   -   -   -   -   -   
 72
    65
 73
     2
 40
2.5
 49
0.625
 49
-1.875
  0
LTYPE
  2
DUMMY
 70
    64
  3
ダミー
 72
    65
 73
     0
 40
0.0
  0
LTYPE
  2
RAND1
 70
    64
  3
ランダム線1
 72
    65
 73
     4
 40
10.0
 49
1.0
 49
-2.0
 49
3.0
 49
-4.0
  0
LTYPE
  2
RAND2
 70
    64
  3
ランダム線2
 72
    65
 73
     4
 40
14.0
 49
2.0
 49
-3.0
 49
4.0
 49
-5.0
  0
LTYPE
  2
RAND3
 70
    64
  3
ランダム線3
 72
    65
 73
     4
 40
18.0
 49
3.0
 49
-4.0
 49
5.0
 49
-6.0
  0
LTYPE
  2
RAND4
 70
    64
  3
ランダム線4
 72
    65
 73
     4
 40
22.0
 49
4.0
 49
-5.0
 49
6.0
 49
-7.0
  0
LTYPE
  2
RAND5
 70
    64
  3
ランダム線5
 72
    65
 73
     4
 40
26.0
 49
5.0
 49
-6.0
 49
7.0
 49
-8.0
  0
LTYPE
  2
LONG1
 70
    64
  3
----------  --  ----------  --  
 72
    65
 73
     4
 40
40.0
 49
32.5
 49
-2.5
 49
2.5
 49
-2.5
  0
LTYPE
  2
LONG2
 70
    64
  3
--------  -  -  --------  -  -  
 72
    65
 73
     6
 40
40.0
 49
30.0
 49
-2.5
 49
1.25
 49
-2.5
 49
1.25
 49
-2.5
  0
LTYPE
  2
LONG3
 70
    64
  3
+++++++++++++++..+++++++++++++++
 72
    65
 73
     2
 40
40.0
 49
37.5
 49
-2.5
  0
LTYPE
  2
LONG4
 70
    64
  3
+++++++++++++++..+++++++++++++++
 72
    65
 73
     2
 40
80.0
 49
75.0
 49
-5.0
  0
LTYPE
  2
LONG5
 70
    64
  3
----------  --  ----------  --  
 72
    65
 73
     4
 40
60.0
 49
37.5
 49
-7.5
 49
7.5
 49
-7.5
  0
LTYPE
  2
dashed
 70
   64
  3
-------   -------------   ------
 72
   65
 73
    2
 40
7.5
 49
6
 49
-1.5
  0
LTYPE
  2
dashed_spaced
 70
   64
  3
----        --------        ----
 72
   65
 73
    2
 40
12
 49
6
 49
-6
  0
LTYPE
  2
long_dashed_dotted
 70
   64
  3
------------- --- --------------
 72
   65
 73
    4
 40
15.25
 49
12
 49
-1.5
 49
0.25
 49
-1.5
  0
LTYPE
  2
long_dashed_double-dotted
 70
   64
  3
----------- --- --- ------------
 72
   65
 73
    6
 40
17
 49
12
 49
-1.5
 49
0.25
 49
-1.5
 49
0.25
 49
-1.5
  0
LTYPE
  2
long_dashed_triplicate-dotted
 70
   64
  3
--------- --- --- --- ----------
 72
   65
 73
    8
 40
18.75
 49
12
 49
-1.5
 49
0.25
 49
-1.5
 49
0.25
 49
-1.5
 49
0.25
 49
-1.5
  0
LTYPE
  2
dotted
 70
   64
  3
   -       -       -       -    
 72
   65
 73
    2
 40
1.75
 49
0.25
 49
-1.5
  0
LTYPE
  2
chain
 70
   64
  3
-------------- -- --------------
 72
   65
 73
    4
 40
18.5
 49
12
 49
-1.5
 49
3.5
 49
-1.5
  0
LTYPE
  2
chain_double_dash
 70
   64
  3
------------ -- -- -------------
 72
   65
 73
    6
 40
23.5
 49
12
 49
-1.5
 49
3.5
 49
-1.5
 49
3.5
 49
-1.5
  0
LTYPE
  2
dashed_dotted
 70
   64
  3
-----------     -     ----------
 72
   65
 73
    4
 40
9.25
 49
6
 49
-1.5
 49
0.25
 49
-1.5
  0
LTYPE
  2
double-dashed_dotted
 70
   64
  3
------   -----------   -   -----
 72
   65
 73
    6
 40
16.75
 49
6
 49
-1.5
 49
6
 49
-1.5
 49
0.25
 49
-1.5
  0
LTYPE
  2
dashed_double-dotted
 70
   64
  3
---------    -    -    ---------
 72
   65
 73
    6
 40
11
 49
6
 49
-1.5
 49
0.25
 49
-1.5
 49
0.25
 49
-1.5
  0
LTYPE
  2
double-dashed_double-dotted
 70
   64
  3
-----   ---------   -   -   ----
 72
   65
 73
    8
 40
18.5
 49
6
 49
-1.5
 49
6
 49
-1.5
 49
0.25
 49
-1.5
 49
0.25
 49
-1.5
  0
LTYPE
  2
dashed_triplicate-dotted
 70
   64
  3
-------    -    -    -    ------
 72
   65
 73
    8
 40
12.75
 49
6
 49
-1.5
 49
0.25
 49
-1.5
 49
0.25
 49
-1.5
 49
0.25
 49
-1.5
  0
LTYPE
  2
double-dashed_triplicate-dotted
 70
   64
  3
-----  ---------  -  -  -  -----
 72
   65
 73
   10
 40
20.25
 49
6
 49
-1.5
 49
6
 49
-1.5
 49
0.25
 49
-1.5
 49
0.25
 49
-1.5
 49
0.25
 49
-1.5
  0
LTYPE
  2
undefined
 70
   64
  3
--------------------------------
 72
   65
 73
    0
 40
0
  0
LTYPE
  2
PLINE2
 70
   64
  3
------     -----------     -----
 72
   65
 73
    2
 40
3
 49
2.1000000000000001
 49
-0.9
  0
LTYPE
  2
PLINE3
 70
   64
  3
------------   ---   -----------
 72
   65
 73
    4
 40
10
 49
7
 49
-1
 49
1
 49
-1
  0
LTYPE
  2
PLINE4
 70
   64
  3
---------   ---   ---   --------
 72
   65
 73
    6
 40
10
 49
5
 49
-1
 49
1
 49
-1
 49
1
 49
-1
  0
LTYPE
  2
PLINE5
 70
   64
  3
------     -----------     -----
 72
   65
 73
    2
 40
5
 49
3.5
 49
-1.5
  0
LTYPE
  2
PLINE6
 70
   64
  3
------------   ---   -----------
 72
   65
 73
    4
 40
15
 49
10.5
 49
-1.5
 49
1.5
 49
-1.5
  0
LTYPE
  2
PLINE7
 70
   64
  3
---------   ---   ---   --------
 72
   65
 73
    6
 40
15
 49
7.5
 49
-1.5
 49
1.5
 49
-1.5
 49
1.5
 49
-1.5
  0
LTYPE
  2
PLINE8
 70
   64
  3
------     -----------     -----
 72
   65
 73
    2
 40
7
 49
4.9000000000000004
 49
-2.1000000000000001
  0
LTYPE
  2
PLINE9
 70
   64
  3
------------   ---   -----------
 72
   65
 73
    4
 40
20
 49
14
 49
-2
 49
2
 49
-2
  0
LTYPE
  2
PLINE10
 70
   64
  3
---------   ---   ---   --------
 72
   65
 73
    6
 40
20
 49
10
 49
-2
 49
2
 49
-2
 49
2
 49
-2
  0
LTYPE
  2
PLINE11
 70
   64
  3
------     -----------     -----
 72
   65
 73
    2
 40
9
 49
6.2999999999999989
 49
-2.7000000000000002
  0
LTYPE
  2
PLINE12
 70
   64
  3
------------   ---   -----------
 72
   65
 73
    4
 40
25
 49
17.5
 49
-2.5
 49
2.5
 49
-2.5
  0
LTYPE
  2
PLINE13
 70
   64
  3
---------   ---   ---   --------
 72
   65
 73
    6
 40
25
 49
12.5
 49
-2.5
 49
2.5
 49
-2.5
 49
2.5
 49
-2.5
  0
LTYPE
  2
PLINE14
 70
   64
  3
------     -----------     -----
 72
   65
 73
    2
 40
11
 49
7.7000000000000002
 49
-3.2999999999999989
  0
LTYPE
  2
PLINE15
 70
   64
  3
------------   ---   -----------
 72
   65
 73
    4
 40
30
 49
21
 49
-3
 49
3
 49
-3
  0
LTYPE
  2
PLINE16
 70
   64
  3
---------   ---   ---   --------
 72
   65
 73
    6
 40
30
 49
15
 49
-3
 49
3
 49
-3
 49
3
 49
-3
  0
ENDTAB
  0
TABLE
  2
STYLE
  5
3
100
AcDbSymbolTable
 70
     1
  0
STYLE
  5
10
100
AcDbSymbolTableRecord
100
AcDbTextStyleTableRecord
  2
STANDARD
 70
     0
 40
0.0
 41
1.0
 50
0.0
 71
     0
 42
0.2
  3
txt
  4
bigfont.shx
  0
STYLE
  5
26
100
AcDbSymbolTableRecord
100
AcDbTextStyleTableRecord
  2
TATEGAKI
 70
    68
 40
0.0
 41
1.0
 50
0.0
 71
     0
 42
1.0
  3
txt
  4
bigfont.shx
  0
ENDTAB
  0
TABLE
  2
LAYER
 70
    6
  0
LAYER
  2
_0-2_2
 70
   64
 62
    7
  6
CONTINUOUS
  0
LAYER
  2
_0-3_3
 70
   64
 62
    7
  6
CONTINUOUS
  0
LAYER
  2
_0-5_5
 70
   64
 62
    7
  6
CONTINUOUS
  0
LAYER
  2
_0-6_6
 70
   64
 62
    7
  6
CONTINUOUS
  0
LAYER
  2
_0-7_7
 70
   64
 62
    7
  6
CONTINUOUS
  0
LAYER
  2
ADD_LINE
 70
   64
 62
    7
  6
CONTINUOUS
  0
ENDTAB
  0
ENDSEC
  0
SECTION
  2
BLOCKS
  0
BLOCK
  2
-000-_Dot
 70
   64
 10
0
 20
0
 30
0
  0
CIRCLE
  8
_0-0_0
  6
CONTINUOUS
 62
    7
 10
0
 20
0
 40
1
  0
LINE
  8
_0-0_0
  6
CONTINUOUS
 62
    7
 10
1
 20
0
 11
-1
 21
0
  0
LINE
  8
_0-0_0
  6
CONTINUOUS
 62
    7
 10
-2
 20
0
 11
-4
 21
0
  0
ENDBLK
  0
BLOCK
  2
-001-_D78
 70
   64
 10
0
 20
0
 30
0
  0
LINE
  8
_0-2_2
  6
CONTINUOUS
 62
    4
 10
2382.5170884634495
 20
1370.7894827223815
 11
2347.299909997947
 21
1370.7894827223815
  0
LINE
  8
_0-2_2
  6
CONTINUOUS
 62
    4
 10
2382.5170884634495
 20
1190.7894827223815
 11
2347.299909997947
 21
1190.7894827223815
  0
LINE
  8
_0-2_2
  6
CONTINUOUS
 62
    4
 10
2347.299909997947
 20
1366.7894827223815
 11
2347.299909997947
 21
1194.7894827223815
  0
INSERT
  2
-000-_Dot
  8
_0-2_2
 10
2347.299909997947
 20
1370.7894827223815
 41
1
 42
1
 50
90
  0
INSERT
  2
-000-_Dot
  8
_0-2_2
 10
2347.299909997947
 20
1190.7894827223815
 41
1
 42
1
 50
270
  0
TEXT
  8
_0-2_2
 62
    7
 10
2343.2999099979465
 20
1269.9394827223816
 40
20
 41
1
 50
90
  1
45
  0
POINT
  8
_0-1_1
 62
    7
 10
2382.5170884634495
 20
1370.7894827223815
  0
POINT
  8
_0-1_1
 62
    7
 10
2382.5170884634495
 20
1190.7894827223815
  0
POINT
  8
_0-1_1
 62
    7
 10
2347.299909997947
 20
1190.7894827223815
  0
ENDBLK
  0
BLOCK
  2
-002-_D79
 70
   64
 10
0
 20
0
 30
0
  0
LINE
  8
_0-2_2
  6
CONTINUOUS
 62
    4
 10
2382.5170884634495
 20
1190.7894827223815
 11
2347.299909997947
 21
1190.7894827223815
  0
LINE
  8
_0-2_2
  6
CONTINUOUS
 62
    4
 10
2382.5170884634495
 20
1070.7894827223815
 11
2347.299909997947
 21
1070.7894827223815
  0
LINE
  8
_0-2_2
  6
CONTINUOUS
 62
    4
 10
2347.299909997947
 20
1186.7894827223815
 11
2347.299909997947
 21
1074.7894827223815
  0
INSERT
  2
-000-_Dot
  8
_0-2_2
 10
2347.299909997947
 20
1190.7894827223815
 41
1
 42
1
 50
90
  0
INSERT
  2
-000-_Dot
  8
_0-2_2
 10
2347.299909997947
 20
1070.7894827223815
 41
1
 42
1
 50
270
  0
TEXT
  8
_0-2_2
 62
    7
 10
2343.2999099979465
 20
1119.9394827223816
 40
20
 41
1
 50
90
  1
30
  0
POINT
  8
_0-1_1
 62
    7
 10
2382.5170884634495
 20
1190.7894827223815
  0
POINT
  8
_0-1_1
 62
    7
 10
2382.5170884634495
 20
1070.7894827223815
  0
POINT
  8
_0-1_1
 62
    7
 10
2347.299909997947
 20
1070.7894827223815
  0
ENDBLK
  0
BLOCK
  2
-003-_D80
 70
   64
 10
0
 20
0
 30
0
  0
LINE
  8
_0-2_2
  6
CONTINUOUS
 62
    4
 10
2874.4999099979468
 20
837.42301643913004
 11
2874.4999099979468
 21
769.4647547223816
  0
LINE
  8
_0-2_2
  6
CONTINUOUS
 62
    4
 10
2794.4999099979468
 20
837.42301643913004
 11
2794.4999099979468
 21
769.4647547223816
  0
LINE
  8
_0-2_2
  6
CONTINUOUS
 62
    4
 10
2870.4999099979464
 20
769.4647547223816
 11
2798.4999099979468
 21
769.4647547223816
  0
INSERT
  2
-000-_Dot
  8
_0-2_2
 10
2874.4999099979468
 20
769.4647547223816
 41
1
 42
1
 50
0
  0
INSERT
  2
-000-_Dot
  8
_0-2_2
 10
2794.4999099979468
 20
769.4647547223816
 41
1
 42
1
 50
180
  0
TEXT
  8
_0-2_2
 62
    7
 10
2823.6499099979465
 20
773.4647547223816
 40
20
 41
1
 50
0
  1
20
  0
POINT
  8
_0-1_1
 62
    7
 10
2874.4999099979468
 20
837.42301643913004
  0
POINT
  8
_0-1_1
 62
    7
 10
2794.4999099979468
 20
837.42301643913004
  0
POINT
  8
_0-1_1
 62
    7
 10
2794.4999099979468
 20
769.4647547223816
  0
ENDBLK
  0
BLOCK
  2
-004-_D81
 70
   64
 10
0
 20
0
 30
0
  0
LINE
  8
_0-2_2
  6
CONTINUOUS
 62
    4
 10
2794.4999099979468
 20
837.42301643913004
 11
2794.4999099979468
 21
769.4647547223816
  0
LINE
  8
_0-2_2
  6
CONTINUOUS
 62
    4
 10
2734.4999099979464
 20
837.42301643913004
 11
2734.4999099979464
 21
769.4647547223816
  0
LINE
  8
_0-2_2
  6
CONTINUOUS
 62
    4
 10
2790.4999099979468
 20
769.4647547223816
 11
2738.4999099979464
 21
769.4647547223816
  0
INSERT
  2
-000-_Dot
  8
_0-2_2
 10
2794.4999099979468
 20
769.4647547223816
 41
1
 42
1
 50
0
  0
INSERT
  2
-000-_Dot
  8
_0-2_2
 10
2734.4999099979464
 20
769.4647547223816
 41
1
 42
1
 50
180
  0
TEXT
  8
_0-2_2
 62
    7
 10
2753.6499099979469
 20
773.4647547223816
 40
20
 41
1
 50
0
  1
15
  0
POINT
  8
_0-1_1
 62
    7
 10
2794.4999099979468
 20
837.42301643913004
  0
POINT
  8
_0-1_1
 62
    7
 10
2734.4999099979464
 20
837.42301643913004
  0
POINT
  8
_0-1_1
 62
    7
 10
2734.4999099979464
 20
769.4647547223816
  0
ENDBLK
  0
BLOCK
  2
-005-_D82
 70
   64
 10
0
 20
0
 30
0
  0
LINE
  8
_0-2_2
  6
CONTINUOUS
 62
    4
 10
2734.4999099979464
 20
837.42301643913004
 11
2734.4999099979464
 21
769.4647547223816
  0
LINE
  8
_0-2_2
  6
CONTINUOUS
 62
    4
 10
2547.299909997947
 20
837.42301643913004
 11
2547.299909997947
 21
769.4647547223816
  0
LINE
  8
_0-2_2
  6
CONTINUOUS
 62
    4
 10
2730.4999099979468
 20
769.4647547223816
 11
2551.299909997947
 21
769.4647547223816
  0
INSERT
  2
-000-_Dot
  8
_0-2_2
 10
2734.4999099979464
 20
769.4647547223816
 41
1
 42
1
 50
0
  0
INSERT
  2
-000-_Dot
  8
_0-2_2
 10
2547.299909997947
 20
769.4647547223816
 41
1
 42
1
 50
180
  0
TEXT
  8
_0-2_2
 62
    7
 10
2595.7999099979465
 20
773.4647547223816
 40
20
 41
1
 50
0
  1
４６．８
  0
POINT
  8
_0-1_1
 62
    7
 10
2734.4999099979464
 20
837.42301643913004
  0
POINT
  8
_0-1_1
 62
    7
 10
2547.299909997947
 20
837.42301643913004
  0
POINT
  8
_0-1_1
 62
    7
 10
2547.299909997947
 20
769.4647547223816
  0
ENDBLK
  0
BLOCK
  2
-006-_D83
 70
   64
 10
0
 20
0
 30
0
  0
LINE
  8
_0-2_2
  6
CONTINUOUS
 62
    4
 10
2874.4999099979468
 20
837.42301643913004
 11
2874.4999099979468
 21
709.4647547223816
  0
LINE
  8
_0-2_2
  6
CONTINUOUS
 62
    4
 10
2547.299909997947
 20
837.42301643913004
 11
2547.299909997947
 21
709.4647547223816
  0
LINE
  8
_0-2_2
  6
CONTINUOUS
 62
    4
 10
2870.4999099979464
 20
709.4647547223816
 11
2551.299909997947
 21
709.4647547223816
  0
INSERT
  2
-000-_Dot
  8
_0-2_2
 10
2874.4999099979468
 20
709.4647547223816
 41
1
 42
1
 50
0
  0
INSERT
  2
-000-_Dot
  8
_0-2_2
 10
2547.299909997947
 20
709.4647547223816
 41
1
 42
1
 50
180
  0
TEXT
  8
_0-2_2
 62
    7
 10
2665.799909997947
 20
713.4647547223816
 40
20
 41
1
 50
0
  1
８１．８
  0
POINT
  8
_0-1_1
 62
    7
 10
2874.4999099979468
 20
837.42301643913004
  0
POINT
  8
_0-1_1
 62
    7
 10
2547.299909997947
 20
837.42301643913004
  0
POINT
  8
_0-1_1
 62
    7
 10
2547.299909997947
 20
709.4647547223816
  0
ENDBLK
  0
BLOCK
  2
-007-_D84
 70
   64
 10
0
 20
0
 30
0
  0
LINE
  8
_0-2_2
  6
CONTINUOUS
 62
    4
 10
2946.7558869585482
 20
1370.7894827223815
 11
3194.4999099979468
 21
1370.7894827223815
  0
LINE
  8
_0-2_2
  6
CONTINUOUS
 62
    4
 10
2946.7558869585482
 20
1326.7894827223815
 11
3194.4999099979468
 21
1326.7894827223815
  0
LINE
  8
_0-2_2
  6
CONTINUOUS
 62
    4
 10
3194.4999099979468
 20
1366.7894827223815
 11
3194.4999099979468
 21
1330.7894827223815
  0
INSERT
  2
-000-_Dot
  8
_0-2_2
 10
3194.4999099979468
 20
1370.7894827223815
 41
1
 42
1
 50
90
  0
INSERT
  2
-000-_Dot
  8
_0-2_2
 10
3194.4999099979468
 20
1326.7894827223815
 41
1
 42
1
 50
270
  0
TEXT
  8
_0-2_2
 62
    7
 10
3190.4999099979464
 20
1337.9394827223821
 40
20
 41
1
 50
90
  1
11
  0
POINT
  8
_0-1_1
 62
    7
 10
2946.7558869585482
 20
1370.7894827223815
  0
POINT
  8
_0-1_1
 62
    7
 10
2946.7558869585482
 20
1326.7894827223815
  0
POINT
  8
_0-1_1
 62
    7
 10
3194.4999099979468
 20
1326.7894827223815
  0
ENDBLK
  0
BLOCK
  2
-008-_D85
 70
   64
 10
0
 20
0
 30
0
  0
LINE
  8
_0-2_2
  6
CONTINUOUS
 62
    4
 10
2946.7558869585482
 20
1326.7894827223815
 11
3194.4999099979468
 21
1326.7894827223815
  0
LINE
  8
_0-2_2
  6
CONTINUOUS
 62
    4
 10
2946.7558869585482
 20
1190.7894827223815
 11
3194.4999099979468
 21
1190.7894827223815
  0
LINE
  8
_0-2_2
  6
CONTINUOUS
 62
    4
 10
3194.4999099979468
 20
1322.7894827223815
 11
3194.4999099979468
 21
1194.7894827223815
  0
INSERT
  2
-000-_Dot
  8
_0-2_2
 10
3194.4999099979468
 20
1326.7894827223815
 41
1
 42
1
 50
90
  0
INSERT
  2
-000-_Dot
  8
_0-2_2
 10
3194.4999099979468
 20
1190.7894827223815
 41
1
 42
1
 50
270
  0
TEXT
  8
_0-2_2
 62
    7
 10
3190.4999099979464
 20
1247.9394827223821
 40
20
 41
1
 50
90
  1
34
  0
POINT
  8
_0-1_1
 62
    7
 10
2946.7558869585482
 20
1326.7894827223815
  0
POINT
  8
_0-1_1
 62
    7
 10
2946.7558869585482
 20
1190.7894827223815
  0
POINT
  8
_0-1_1
 62
    7
 10
3194.4999099979468
 20
1190.7894827223815
  0
ENDBLK
  0
BLOCK
  2
-009-_D86
 70
   64
 10
0
 20
0
 30
0
  0
LINE
  8
_0-2_2
  6
CONTINUOUS
 62
    4
 10
2946.7558869585482
 20
1190.7894827223815
 11
3194.4999099979468
 21
1190.7894827223815
  0
LINE
  8
_0-2_2
  6
CONTINUOUS
 62
    4
 10
3066.6714219979467
 20
114.78948272238176
 11
3194.4999099979464
 21
114.78948272238172
  0
LINE
  8
_0-2_2
  6
CONTINUOUS
 62
    4
 10
3194.4999099979468
 20
1186.7894827223815
 11
3194.4999099979464
 21
118.78948272238172
  0
INSERT
  2
-000-_Dot
  8
_0-2_2
 10
3194.4999099979468
 20
1190.7894827223815
 41
1
 42
1
 50
90
  0
INSERT
  2
-000-_Dot
  8
_0-2_2
 10
3194.4999099979464
 20
114.78948272238172
 41
1
 42
1
 50
270
  0
TEXT
  8
_0-2_2
 62
    7
 10
3190.4999099979464
 20
607.68948272238197
 40
20
 41
1
 50
90
  1
Ｈ２６９
  0
POINT
  8
_0-1_1
 62
    7
 10
2946.7558869585482
 20
1190.7894827223815
  0
POINT
  8
_0-1_1
 62
    7
 10
3066.6714219979467
 20
114.78948272238176
  0
POINT
  8
_0-1_1
 62
    7
 10
3194.4999099979464
 20
114.78948272238172
  0
ENDBLK
  0
BLOCK
  2
-010-_D87
 70
   64
 10
0
 20
0
 30
0
  0
LINE
  8
_0-2_2
  6
CONTINUOUS
 62
    4
 10
2946.7558869585482
 20
1190.7894827223815
 11
3134.4999099979464
 21
1190.7894827223815
  0
LINE
  8
_0-2_2
  6
CONTINUOUS
 62
    4
 10
2946.7558869585482
 20
1050.7894827223815
 11
3134.4999099979464
 21
1050.7894827223815
  0
LINE
  8
_0-2_2
  6
CONTINUOUS
 62
    4
 10
3134.4999099979464
 20
1186.7894827223815
 11
3134.4999099979464
 21
1054.7894827223815
  0
INSERT
  2
-000-_Dot
  8
_0-2_2
 10
3134.4999099979464
 20
1190.7894827223815
 41
1
 42
1
 50
90
  0
INSERT
  2
-000-_Dot
  8
_0-2_2
 10
3134.4999099979464
 20
1050.7894827223815
 41
1
 42
1
 50
270
  0
TEXT
  8
_0-2_2
 62
    7
 10
3130.4999099979459
 20
1109.9394827223821
 40
20
 41
1
 50
90
  1
35
  0
POINT
  8
_0-1_1
 62
    7
 10
2946.7558869585482
 20
1190.7894827223815
  0
POINT
  8
_0-1_1
 62
    7
 10
2946.7558869585482
 20
1050.7894827223815
  0
POINT
  8
_0-1_1
 62
    7
 10
3134.4999099979464
 20
1050.7894827223815
  0
ENDBLK
  0
BLOCK
  2
-011-_D88
 70
   64
 10
0
 20
0
 30
0
  0
LINE
  8
_0-2_2
  6
CONTINUOUS
 62
    4
 10
2946.7558869585482
 20
1050.7894827223815
 11
3134.4999099979464
 21
1050.7894827223815
  0
LINE
  8
_0-2_2
  6
CONTINUOUS
 62
    4
 10
2946.7558869585478
 20
182.78948272238176
 11
3134.4999099979464
 21
182.78948272238171
  0
LINE
  8
_0-2_2
  6
CONTINUOUS
 62
    4
 10
3134.4999099979464
 20
1046.7894827223815
 11
3134.4999099979464
 21
186.78948272238171
  0
INSERT
  2
-000-_Dot
  8
_0-2_2
 10
3134.4999099979464
 20
1050.7894827223815
 41
1
 42
1
 50
90
  0
INSERT
  2
-000-_Dot
  8
_0-2_2
 10
3134.4999099979464
 20
182.78948272238171
 41
1
 42
1
 50
270
  0
TEXT
  8
_0-2_2
 62
    7
 10
3130.4999099979459
 20
548.28948272238199
 40
20
 41
1
 50
90
  1
ボードＨ寸法
  0
POINT
  8
_0-1_1
 62
    7
 10
2946.7558869585482
 20
1050.7894827223815
  0
POINT
  8
_0-1_1
 62
    7
 10
2946.7558869585478
 20
182.78948272238176
  0
POINT
  8
_0-1_1
 62
    7
 10
3134.4999099979464
 20
182.78948272238171
  0
ENDBLK
  0
BLOCK
  2
-012-_D89
 70
   64
 10
0
 20
0
 30
0
  0
LINE
  8
_0-2_2
  6
CONTINUOUS
 62
    4
 10
2946.7558869585478
 20
182.78948272238176
 11
3134.4999099979464
 21
182.78948272238171
  0
LINE
  8
_0-2_2
  6
CONTINUOUS
 62
    4
 10
3066.6714219979467
 20
114.78948272238176
 11
3134.4999099979464
 21
114.78948272238176
  0
LINE
  8
_0-2_2
  6
CONTINUOUS
 62
    4
 10
3134.4999099979464
 20
178.78948272238171
 11
3134.4999099979464
 21
118.78948272238176
  0
INSERT
  2
-000-_Dot
  8
_0-2_2
 10
3134.4999099979464
 20
182.78948272238171
 41
1
 42
1
 50
90
  0
INSERT
  2
-000-_Dot
  8
_0-2_2
 10
3134.4999099979464
 20
114.78948272238176
 41
1
 42
1
 50
270
  0
TEXT
  8
_0-2_2
 62
    7
 10
3130.4999099979459
 20
137.93948272238225
 40
20
 41
1
 50
90
  1
17
  0
POINT
  8
_0-1_1
 62
    7
 10
2946.7558869585478
 20
182.78948272238176
  0
POINT
  8
_0-1_1
 62
    7
 10
3066.6714219979467
 20
114.78948272238176
  0
POINT
  8
_0-1_1
 62
    7
 10
3134.4999099979464
 20
114.78948272238176
  0
ENDBLK
  0
BLOCK
  2
-013-_D90
 70
   64
 10
0
 20
0
 30
0
  0
LINE
  8
_0-2_2
  6
CONTINUOUS
 62
    4
 10
2946.7558869585478
 20
182.78948272238176
 11
3074.4999099979468
 21
182.78948272238171
  0
LINE
  8
_0-2_2
  6
CONTINUOUS
 62
    4
 10
2946.7558869585478
 20
242.78948272238176
 11
3074.4999099979468
 21
242.78948272238171
  0
LINE
  8
_0-2_2
  6
CONTINUOUS
 62
    4
 10
3074.4999099979468
 20
186.78948272238171
 11
3074.4999099979468
 21
238.78948272238176
  0
INSERT
  2
-000-_Dot
  8
_0-2_2
 10
3074.4999099979468
 20
182.78948272238171
 41
1
 42
1
 50
270
  0
INSERT
  2
-000-_Dot
  8
_0-2_2
 10
3074.4999099979468
 20
242.78948272238171
 41
1
 42
1
 50
90
  0
TEXT
  8
_0-2_2
 62
    7
 10
3070.4999099979468
 20
201.93948272238225
 40
20
 41
1
 50
90
  1
15
  0
POINT
  8
_0-1_1
 62
    7
 10
2946.7558869585478
 20
182.78948272238176
  0
POINT
  8
_0-1_1
 62
    7
 10
2946.7558869585478
 20
242.78948272238176
  0
POINT
  8
_0-1_1
 62
    7
 10
3074.4999099979468
 20
242.78948272238171
  0
ENDBLK
  0
BLOCK
  2
-014-_D91
 70
   64
 10
0
 20
0
 30
0
  0
LINE
  8
_0-2_2
  6
CONTINUOUS
 62
    4
 10
2946.7558869585478
 20
242.78948272238176
 11
3074.4999099979468
 21
242.78948272238171
  0
LINE
  8
_0-2_2
  6
CONTINUOUS
 62
    4
 10
2946.7558869585482
 20
1002.7894827223816
 11
3074.4999099979468
 21
1002.7894827223816
  0
LINE
  8
_0-2_2
  6
CONTINUOUS
 62
    4
 10
3074.4999099979468
 20
246.78948272238171
 11
3074.4999099979468
 21
998.78948272238165
  0
INSERT
  2
-000-_Dot
  8
_0-2_2
 10
3074.4999099979468
 20
242.78948272238171
 41
1
 42
1
 50
270
  0
INSERT
  2
-000-_Dot
  8
_0-2_2
 10
3074.4999099979468
 20
1002.7894827223816
 41
1
 42
1
 50
90
  0
TEXT
  8
_0-2_2
 62
    7
 10
3070.4999099979468
 20
577.68948272238197
 40
20
 41
1
 50
90
  1
開口寸法
  0
POINT
  8
_0-1_1
 62
    7
 10
2946.7558869585478
 20
242.78948272238176
  0
POINT
  8
_0-1_1
 62
    7
 10
2946.7558869585482
 20
1002.7894827223816
  0
POINT
  8
_0-1_1
 62
    7
 10
3074.4999099979468
 20
1002.7894827223816
  0
ENDBLK
  0
BLOCK
  2
-015-_D92
 70
   64
 10
0
 20
0
 30
0
  0
LINE
  8
_0-2_2
  6
CONTINUOUS
 62
    4
 10
2946.7558869585482
 20
1002.7894827223816
 11
3074.4999099979468
 21
1002.7894827223816
  0
LINE
  8
_0-2_2
  6
CONTINUOUS
 62
    4
 10
2946.7558869585482
 20
1050.7894827223815
 11
3074.4999099979473
 21
1050.7894827223815
  0
LINE
  8
_0-2_2
  6
CONTINUOUS
 62
    4
 10
3074.4999099979468
 20
1006.7894827223816
 11
3074.4999099979473
 21
1046.7894827223815
  0
INSERT
  2
-000-_Dot
  8
_0-2_2
 10
3074.4999099979468
 20
1002.7894827223816
 41
1
 42
1
 50
270
  0
INSERT
  2
-000-_Dot
  8
_0-2_2
 10
3074.4999099979473
 20
1050.7894827223815
 41
1
 42
1
 50
90
  0
TEXT
  8
_0-2_2
 62
    7
 10
3070.4999099979468
 20
1015.939482722382
 40
20
 41
1
 50
90
  1
12
  0
POINT
  8
_0-1_1
 62
    7
 10
2946.7558869585482
 20
1002.7894827223816
  0
POINT
  8
_0-1_1
 62
    7
 10
2946.7558869585482
 20
1050.7894827223815
  0
POINT
  8
_0-1_1
 62
    7
 10
3074.4999099979473
 20
1050.7894827223815
  0
ENDBLK
  0
BLOCK
  2
-016-_D93
 70
   64
 10
0
 20
0
 30
0
  0
LINE
  8
_0-2_2
  6
CONTINUOUS
 62
    4
 10
2764.4999099979468
 20
-73.210517277618194
 11
2764.4999099979468
 21
-125.21051727761824
  0
LINE
  8
_0-2_2
  6
CONTINUOUS
 62
    4
 10
2547.299909997947
 20
-73.210517277618194
 11
2547.299909997947
 21
-125.21051727761824
  0
LINE
  8
_0-2_2
  6
CONTINUOUS
 62
    4
 10
2760.4999099979468
 20
-125.21051727761824
 11
2551.299909997947
 21
-125.21051727761824
  0
INSERT
  2
-000-_Dot
  8
_0-2_2
 10
2764.4999099979468
 20
-125.21051727761824
 41
1
 42
1
 50
0
  0
INSERT
  2
-000-_Dot
  8
_0-2_2
 10
2547.299909997947
 20
-125.21051727761824
 41
1
 42
1
 50
180
  0
TEXT
  8
_0-2_2
 62
    7
 10
2610.799909997947
 20
-121.21051727761819
 40
20
 41
1
 50
0
  1
５４．３
  0
POINT
  8
_0-1_1
 62
    7
 10
2764.4999099979468
 20
-73.210517277618194
  0
POINT
  8
_0-1_1
 62
    7
 10
2547.299909997947
 20
-73.210517277618194
  0
POINT
  8
_0-1_1
 62
    7
 10
2547.299909997947
 20
-125.21051727761824
  0
ENDBLK
  0
ENDSEC
  0
SECTION
  2
ENTITIES
  0
LINE
  8
_0-3_3
  6
CONTINUOUS
 62
    3
 10
406.85000000000002
 20
491.20284600000002
 11
383.80284799999993
 21
514.25
  0
LINE
  8
_0-3_3
  6
CONTINUOUS
 62
    3
 10
380.9744199999999
 20
514.25
 11
406.85000000000002
 21
488.37441999999999
  0
LINE
  8
_0-3_3
  6
CONTINUOUS
 62
    3
 10
406.85000000000002
 20
485.54599199999984
 11
378.14599399999986
 21
514.25
  0
LINE
  8
_0-3_3
  6
CONTINUOUS
 62
    4
 10
406.85000000000002
 20
464.25
 11
376.85000000000002
 21
464.25
  0
LINE
  8
_0-6_6
  6
CONTINUOUS
 62
    4
 10
379.85000000000002
 20
406.25
 11
441.85000000000002
 21
406.25
  0
LINE
  8
_0-3_3
  6
CONTINUOUS
 62
    4
 10
504.69287799999984
 20
140.25000000000003
 11
391.85000000000002
 21
140.25000000000003
  0
LINE
  8
_0-6_6
  6
CONTINUOUS
 62
    4
 10
458.64999999999998
 20
422.75
 11
388.64999999999998
 21
432.75
  0
LINE
  8
_0-6_6
  6
CONTINUOUS
 62
    4
 10
453.49435599999993
 20
419.38601200000005
 11
385.3943559999999
 21
429.32072800000003
  0
LINE
  8
_0-6_6
  6
CONTINUOUS
 62
    4
 10
383.09308999999985
 20
431.58473400000003
 11
456.64999999999998
 21
420.94999999999993
  0
LINE
  8
_0-6_6
  6
CONTINUOUS
 62
    4
 10
457.14999999999986
 20
421.44905600000004
 11
381.94999999999993
 21
432.191914
  0
LINE
  8
_0-6_6
  6
CONTINUOUS
 62
    4
 10
441.85000000000002
 20
409.25
 11
376.85000000000002
 21
409.25
  0
LINE
  8
_0-3_3
  6
CONTINUOUS
 62
    3
 10
376.85000000000002
 20
211.25515800000008
 11
301.85000000000002
 21
286.25515799999999
  0
LINE
  8
_0-3_3
  6
CONTINUOUS
 62
    3
 10
378.10000000000002
 20
267.61669999999998
 11
378.10000000000002
 21
344.091228
  0
LINE
  8
_0-3_3
  6
CONTINUOUS
 62
    3
 10
379.35000000000002
 20
343.58012600000006
 11
379.35000000000002
 21
267.61669999999998
  0
LINE
  8
_0-3_3
  6
CONTINUOUS
 62
    3
 10
380.60000000000002
 20
267.61669999999998
 11
380.60000000000002
 21
342.557188
  0
LINE
  8
_0-3_3
  6
CONTINUOUS
 62
    4
 10
376.85000000000002
 20
344.25
 11
376.85000000000002
 21
267.61669999999998
  0
LINE
  8
_0-3_3
  6
CONTINUOUS
 62
    4
 10
381.85000000000002
 20
267.61669999999998
 11
381.85000000000002
 21
339.25
  0
LINE
  8
_0-3_3
  6
CONTINUOUS
 62
    3
 10
381.85000000000002
 20
113.74027000000004
 11
391.85000000000002
 21
123.74027000000004
  0
LINE
  8
_0-3_3
  6
CONTINUOUS
 62
    3
 10
381.85000000000002
 20
110.91184200000012
 11
391.85000000000002
 21
120.91184200000012
  0
LINE
  8
_0-3_3
  6
CONTINUOUS
 62
    3
 10
381.85000000000002
 20
108.08341600000008
 11
391.85000000000002
 21
118.08341600000008
  0
LINE
  8
_0-3_3
  6
CONTINUOUS
 62
    3
 10
381.85000000000002
 20
105.25498800000005
 11
391.85000000000002
 21
115.25498800000005
  0
LINE
  8
_0-3_3
  6
CONTINUOUS
 62
    3
 10
391.85000000000002
 20
112.22555200000014
 11
381.85000000000002
 21
122.22555200000014
  0
LINE
  8
_0-3_3
  6
CONTINUOUS
 62
    3
 10
391.85000000000002
 20
109.3971240000001
 11
381.85000000000002
 21
119.3971240000001
  0
LINE
  8
_0-3_3
  6
CONTINUOUS
 62
    3
 10
391.85000000000002
 20
106.56869800000007
 11
381.85000000000002
 21
116.56869800000007
  0
LINE
  8
_0-3_3
  6
CONTINUOUS
 62
    4
 10
391.85000000000002
 20
140.25000000000003
 11
391.85000000000002
 21
102.42656200000013
  0
LINE
  8
_0-3_3
  6
CONTINUOUS
 62
    3
 10
378.10000000000002
 20
102.42656200000013
 11
378.10000000000002
 21
262.68329799999998
  0
LINE
  8
_0-3_3
  6
CONTINUOUS
 62
    3
 10
379.35000000000002
 20
262.68329799999998
 11
379.35000000000002
 21
102.42656200000013
  0
LINE
  8
_0-3_3
  6
CONTINUOUS
 62
    3
 10
380.60000000000002
 20
102.42656200000013
 11
380.60000000000002
 21
262.68329799999998
  0
LINE
  8
_0-3_3
  6
CONTINUOUS
 62
    4
 10
376.85000000000002
 20
262.68329799999998
 11
376.85000000000002
 21
102.42656200000013
  0
LINE
  8
_0-3_3
  6
CONTINUOUS
 62
    4
 10
381.85000000000002
 20
102.42656200000013
 11
381.85000000000002
 21
262.68329799999998
  0
LINE
  8
_0-3_3
  6
CONTINUOUS
 62
    3
 10
387.50685399999975
 20
102.42656200000013
 11
381.85000000000002
 21
108.08341600000008
  0
LINE
  8
_0-3_3
  6
CONTINUOUS
 62
    3
 10
381.85207600000001
 20
102.42656200000013
 11
391.85000000000002
 21
112.4241880000001
  0
LINE
  8
_0-3_3
  6
CONTINUOUS
 62
    3
 10
384.67842799999994
 20
102.42656200000013
 11
391.85000000000002
 21
109.5981340000001
  0
LINE
  8
_0-3_3
  6
CONTINUOUS
 62
    3
 10
391.85000000000002
 20
103.74027000000004
 11
381.85000000000002
 21
113.74027000000004
  0
LINE
  8
_0-3_3
  6
CONTINUOUS
 62
    3
 10
390.33528199999978
 20
102.42656200000013
 11
381.85000000000002
 21
110.91184200000012
  0
LINE
  8
_0-3_3
  6
CONTINUOUS
 62
    3
 10
384.67842799999994
 20
102.42656200000013
 11
381.85000000000002
 21
105.25498800000005
  0
LINE
  8
_0-3_3
  6
CONTINUOUS
 62
    3
 10
387.50685399999975
 20
102.42656200000013
 11
391.85000000000002
 21
106.76970800000007
  0
LINE
  8
_0-3_3
  6
CONTINUOUS
 62
    3
 10
390.33528199999978
 20
102.42656200000013
 11
391.85000000000002
 21
103.94128000000003
  0
LINE
  8
_0-3_3
  6
CONTINUOUS
 62
    3
 10
381.85000000000002
 20
127.88240600000009
 11
391.85000000000002
 21
137.88240600000009
  0
LINE
  8
_0-3_3
  6
CONTINUOUS
 62
    3
 10
381.85000000000002
 20
130.71083200000001
 11
391.38916599999993
 21
140.25000000000003
  0
LINE
  8
_0-3_3
  6
CONTINUOUS
 62
    3
 10
381.85000000000002
 20
133.53926000000004
 11
388.56074000000001
 21
140.25000000000003
  0
LINE
  8
_0-3_3
  6
CONTINUOUS
 62
    3
 10
391.85000000000002
 20
126.36768800000007
 11
381.85000000000002
 21
136.36768800000007
  0
LINE
  8
_0-3_3
  6
CONTINUOUS
 62
    3
 10
391.85000000000002
 20
129.19611400000011
 11
381.85000000000002
 21
139.19611400000011
  0
LINE
  8
_0-3_3
  6
CONTINUOUS
 62
    3
 10
391.85000000000002
 20
132.02454200000014
 11
383.62454199999991
 21
140.25000000000003
  0
LINE
  8
_0-3_3
  6
CONTINUOUS
 62
    3
 10
391.85000000000002
 20
134.85296800000006
 11
386.45296999999982
 21
140.25000000000003
  0
LINE
  8
_0-3_3
  6
CONTINUOUS
 62
    3
 10
381.85000000000002
 20
116.56869800000007
 11
391.85000000000002
 21
126.56869800000007
  0
LINE
  8
_0-3_3
  6
CONTINUOUS
 62
    3
 10
381.85000000000002
 20
119.3971240000001
 11
391.85000000000002
 21
129.3971240000001
  0
LINE
  8
_0-3_3
  6
CONTINUOUS
 62
    3
 10
381.85000000000002
 20
122.22555200000014
 11
391.85000000000002
 21
132.22555200000014
  0
LINE
  8
_0-3_3
  6
CONTINUOUS
 62
    3
 10
381.85000000000002
 20
125.05397800000006
 11
391.85000000000002
 21
135.05397800000006
  0
LINE
  8
_0-3_3
  6
CONTINUOUS
 62
    3
 10
391.85000000000002
 20
115.05397800000006
 11
381.85000000000002
 21
125.05397800000006
  0
LINE
  8
_0-3_3
  6
CONTINUOUS
 62
    3
 10
391.85000000000002
 20
117.88240600000009
 11
381.85000000000002
 21
127.88240600000009
  0
LINE
  8
_0-3_3
  6
CONTINUOUS
 62
    3
 10
391.85000000000002
 20
120.71083200000001
 11
381.85000000000002
 21
130.71083200000001
  0
LINE
  8
_0-3_3
  6
CONTINUOUS
 62
    3
 10
391.85000000000002
 20
123.53926000000004
 11
381.85000000000002
 21
133.53926000000004
  0
LINE
  8
_0-3_3
  6
CONTINUOUS
 62
    3
 10
381.85000000000002
 20
136.36768800000007
 11
385.73231199999987
 21
140.25000000000003
  0
LINE
  8
_0-3_3
  6
CONTINUOUS
 62
    4
 10
391.85000000000002
 20
140.25000000000003
 11
381.85000000000002
 21
140.25000000000003
  0
LINE
  8
_0-3_3
  6
CONTINUOUS
 62
    3
 10
381.85000000000002
 20
139.19611400000011
 11
382.90388599999983
 21
140.25000000000003
  0
LINE
  8
_0-3_3
  6
CONTINUOUS
 62
    3
 10
391.85000000000002
 20
137.68139600000009
 11
389.28139599999997
 21
140.25000000000003
  0
LINE
  8
_0-3_3
  6
CONTINUOUS
 62
    3
 10
376.85000000000002
 20
208.42673200000004
 11
301.85000000000002
 21
283.42673200000002
  0
LINE
  8
_0-3_3
  6
CONTINUOUS
 62
    3
 10
301.85000000000002
 20
280.5983040000001
 11
376.85000000000002
 21
205.5983040000001
  0
LINE
  8
_0-3_3
  6
CONTINUOUS
 62
    4
 10
376.85000000000002
 20
454.25
 11
376.85000000000002
 21
451.75
  0
LINE
  8
_0-6_6
  6
CONTINUOUS
 62
    4
 10
379.64999999999998
 20
443.75
 11
379.64999999999998
 21
454.25
  0
LINE
  8
_0-6_6
  6
CONTINUOUS
 62
    4
 10
388.64999999999998
 20
443.75
 11
388.64999999999998
 21
452.75
  0
LINE
  8
_0-6_6
  6
CONTINUOUS
 62
    4
 10
387.14999999999986
 20
432.96428400000002
 11
387.14999999999986
 21
452.75
  0
LINE
  8
_0-3_3
  6
CONTINUOUS
 62
    4
 10
376.85000000000002
 20
464.25
 11
376.85000000000002
 21
409.25
  0
LINE
  8
_0-3_3
  6
CONTINUOUS
 62
    3
 10
376.85000000000002
 20
390.6558940000001
 11
301.85000000000002
 21
465.6558940000001
  0
LINE
  8
_0-3_3
  6
CONTINUOUS
 62
    3
 10
301.85000000000002
 20
462.82746800000007
 11
376.85000000000002
 21
387.82746800000007
  0
LINE
  8
_0-3_3
  6
CONTINUOUS
 62
    3
 10
376.85000000000002
 20
384.99904000000004
 11
301.85000000000002
 21
459.99904000000004
  0
LINE
  8
_0-3_3
  6
CONTINUOUS
 62
    4
 10
376.85000000000002
 20
344.25
 11
376.85000000000002
 21
379.25
  0
LINE
  8
_0-6_6
  6
CONTINUOUS
 62
    4
 10
379.85000000000002
 20
406.25
 11
379.85000000000002
 21
359.25
  0
LINE
  8
_0-6_6
  6
CONTINUOUS
 62
    4
 10
376.85000000000002
 20
359.25
 11
376.85000000000002
 21
409.25
  0
LINE
  8
_0-6_6
  6
CONTINUOUS
 62
    4
 10
383.85000000000002
 20
321.25
 11
383.85000000000002
 21
333.25
  0
LINE
  8
_0-6_6
  6
CONTINUOUS
 62
    4
 10
383.85000000000002
 20
321.25
 11
381.85000000000002
 21
321.25
  0
LINE
  8
_0-6_6
  6
PLINE2
 62
    3
 10
368.21776199999988
 20
338.56103399999995
 11
370.44999999999982
 21
338.56103399999995
  0
LINE
  8
_0-6_6
  6
PLINE2
 62
    3
 10
370.44999999999982
 20
338.16777000000002
 11
368.29085399999997
 21
338.16777000000002
  0
LINE
  8
_0-6_6
  6
PLINE2
 62
    3
 10
368.21776199999988
 20
328.938964
 11
370.44999999999982
 21
328.938964
  0
LINE
  8
_0-6_6
  6
PLINE2
 62
    3
 10
370.44999999999982
 20
329.33222799999999
 11
368.29085399999997
 21
329.33222799999999
  0
LINE
  8
_0-6_6
  6
PLINE2
 62
    3
 10
376.85000000000002
 20
330.55000000000007
 11
366.44999999999982
 21
330.55000000000007
  0
LINE
  8
_0-6_6
  6
PLINE2
 62
    3
 10
366.44999999999982
 20
336.94999999999999
 11
376.85000000000002
 21
336.94999999999999
  0
LINE
  8
_0-6_6
  6
PLINE2
 62
    3
 10
356.11339399999986
 20
331.71821999999997
 11
354.51436799999999
 21
331.66237999999998
  0
LINE
  8
_0-6_6
  6
PLINE2
 62
    3
 10
356.11339399999986
 20
335.78177799999997
 11
354.51436799999999
 21
335.83761800000002
  0
LINE
  8
_0-6_6
  6
PLINE2
 62
    3
 10
368.46395999999993
 20
334.14975600000002
 11
347.27687400000002
 21
334.88962400000003
  0
LINE
  8
_0-6_6
  6
PLINE2
 62
    3
 10
347.27687400000002
 20
332.61037399999998
 11
368.46395999999993
 21
333.35024200000009
  0
LINE
  8
_0-6_6
  6
PLINE2
 62
    3
 10
351.31631800000002
 20
335.949296
 11
351.37215600000002
 21
337.54832199999998
  0
LINE
  8
_0-6_6
  6
PLINE2
 62
    3
 10
349.77313199999992
 20
337.60416000000009
 11
347.31875400000001
 21
336.0888940000001
  0
LINE
  8
_0-6_6
  6
PLINE2
 62
    3
 10
354.51436799999999
 20
335.83761800000002
 11
354.57020799999998
 21
337.43664200000001
  0
LINE
  8
_0-6_6
  6
PLINE2
 62
    3
 10
353.37093799999991
 20
337.478522
 11
352.9153419999999
 21
335.89345600000001
  0
LINE
  8
_0-6_6
  6
PLINE2
 62
    3
 10
349.67541199999982
 20
334.80586599999998
 11
349.77313199999992
 21
337.60416000000009
  0
LINE
  8
_0-6_6
  6
PLINE2
 62
    3
 10
349.77313199999992
 20
329.89583800000003
 11
347.31875400000001
 21
331.41110400000002
  0
LINE
  8
_0-6_6
  6
PLINE2
 62
    3
 10
347.31875400000001
 20
331.41110400000002
 11
347.27687400000002
 21
332.61037399999998
  0
LINE
  8
_0-6_6
  6
PLINE2
 62
    3
 10
347.27687400000002
 20
334.88962400000003
 11
347.31875400000001
 21
336.0888940000001
  0
LINE
  8
_0-6_6
  6
PLINE2
 62
    3
 10
351.31631800000002
 20
331.550702
 11
351.37215600000002
 21
329.95167800000002
  0
LINE
  8
_0-6_6
  6
PLINE2
 62
    3
 10
354.51436799999999
 20
331.66237999999998
 11
354.57020799999998
 21
330.06335600000011
  0
LINE
  8
_0-6_6
  6
PLINE2
 62
    3
 10
353.37093799999991
 20
330.02147600000001
 11
352.9153419999999
 21
331.6065420000001
  0
LINE
  8
_0-6_6
  6
PLINE2
 62
    3
 10
349.77313199999992
 20
329.89583800000003
 11
349.67541199999982
 21
332.69413200000008
  0
LINE
  8
_0-6_6
  6
PLINE2
 62
    3
 10
351.37215600000002
 20
329.95167800000002
 11
349.77313199999992
 21
329.89583800000003
  0
LINE
  8
_0-6_6
  6
PLINE2
 62
    3
 10
354.57020799999998
 20
330.06335600000011
 11
353.37093799999991
 21
330.02147600000001
  0
LINE
  8
_0-6_6
  6
PLINE2
 62
    3
 10
350.13873799999999
 20
333.75
 11
351.83681999999976
 21
334.73038800000006
  0
LINE
  8
_0-6_6
  6
PLINE2
 62
    3
 10
351.83681999999976
 20
332.76961000000006
 11
350.13873799999999
 21
333.75
  0
LINE
  8
_0-6_6
  6
PLINE2
 62
    3
 10
352.9153419999999
 20
335.89345600000001
 11
351.31631800000002
 21
335.949296
  0
LINE
  8
_0-6_6
  6
PLINE2
 62
    3
 10
352.9153419999999
 20
331.6065420000001
 11
351.31631800000002
 21
331.550702
  0
LINE
  8
_0-6_6
  6
PLINE2
 62
    3
 10
351.37215600000002
 20
337.54832199999998
 11
349.77313199999992
 21
337.60416000000009
  0
LINE
  8
_0-6_6
  6
PLINE2
 62
    3
 10
354.57020799999998
 20
337.43664200000001
 11
353.37093799999991
 21
337.478522
  0
LINE
  8
_0-6_6
  6
PLINE2
 62
    3
 10
359.76703999999972
 20
337.25516599999997
 11
359.31144399999982
 21
335.67010000000005
  0
LINE
  8
_0-6_6
  6
PLINE2
 62
    3
 10
362.96509000000003
 20
337.14348799999999
 11
362.50949400000002
 21
335.55842200000006
  0
LINE
  8
_0-6_6
  6
PLINE2
 62
    3
 10
364.10851999999988
 20
335.50258200000007
 11
364.16435999999976
 21
337.101608
  0
LINE
  8
_0-6_6
  6
PLINE2
 62
    3
 10
360.91046999999992
 20
335.61426000000006
 11
360.96630799999991
 21
337.21328599999998
  0
LINE
  8
_0-6_6
  6
PLINE2
 62
    3
 10
366.107302
 20
335.43278400000008
 11
366.56289800000002
 21
337.01784800000007
  0
LINE
  8
_0-6_6
  6
PLINE2
 62
    3
 10
357.71241799999984
 20
335.72593999999998
 11
357.76825799999983
 21
337.32496400000002
  0
LINE
  8
_0-6_6
  6
PLINE2
 62
    3
 10
356.56898799999988
 20
337.36684400000001
 11
356.11339399999986
 21
335.78177799999997
  0
LINE
  8
_0-6_6
  6
PLINE2
 62
    3
 10
362.96509000000003
 20
330.35651199999995
 11
362.50949400000002
 21
331.941576
  0
LINE
  8
_0-6_6
  6
PLINE2
 62
    3
 10
360.95200799999975
 20
330.6962200000001
 11
368.29085399999997
 21
329.33222799999999
  0
LINE
  8
_0-6_6
  6
PLINE2
 62
    3
 10
368.21776199999988
 20
328.938964
 11
360.96630799999991
 21
330.28671199999997
  0
LINE
  8
_0-6_6
  6
PLINE2
 62
    3
 10
359.76703999999972
 20
330.24483400000008
 11
359.31144399999982
 21
331.82989800000007
  0
LINE
  8
_0-6_6
  6
PLINE2
 62
    3
 10
360.96630799999991
 20
330.28671199999997
 11
360.91046999999992
 21
331.88573800000006
  0
LINE
  8
_0-6_6
  6
PLINE2
 62
    3
 10
357.71241799999984
 20
331.77406000000008
 11
357.76825799999983
 21
330.1750340000001
  0
LINE
  8
_0-6_6
  6
PLINE2
 62
    3
 10
356.56898799999988
 20
330.1331540000001
 11
356.11339399999986
 21
331.71821999999997
  0
LINE
  8
_0-6_6
  6
PLINE2
 62
    3
 10
357.76825799999983
 20
330.1750340000001
 11
356.56898799999988
 21
330.1331540000001
  0
LINE
  8
_0-6_6
  6
PLINE2
 62
    3
 10
360.96630799999991
 20
330.28671199999997
 11
359.76703999999972
 21
330.24483400000008
  0
LINE
  8
_0-6_6
  6
PLINE2
 62
    3
 10
359.31144399999982
 20
331.82989800000007
 11
357.71241799999984
 21
331.77406000000008
  0
LINE
  8
_0-6_6
  6
PLINE2
 62
    3
 10
359.31144399999982
 20
335.67010000000005
 11
357.71241799999984
 21
335.72593999999998
  0
LINE
  8
_0-6_6
  6
PLINE2
 62
    3
 10
360.91046999999992
 20
331.88573800000006
 11
362.50949400000002
 21
331.941576
  0
LINE
  8
_0-6_6
  6
PLINE2
 62
    3
 10
362.50949400000002
 20
335.55842200000006
 11
360.91046999999992
 21
335.61426000000006
  0
LINE
  8
_0-6_6
  6
PLINE2
 62
    3
 10
364.16435999999976
 20
330.39838999999995
 11
364.10851999999988
 21
331.9974160000001
  0
LINE
  8
_0-6_6
  6
PLINE2
 62
    3
 10
366.56289800000002
 20
330.48215000000005
 11
366.107302
 21
332.06721599999997
  0
LINE
  8
_0-6_6
  6
PLINE2
 62
    3
 10
364.16435999999976
 20
330.39838999999995
 11
362.96509000000003
 21
330.35651199999995
  0
LINE
  8
_0-6_6
  6
PLINE2
 62
    3
 10
366.107302
 20
335.43278400000008
 11
364.10851999999988
 21
335.50258200000007
  0
LINE
  8
_0-6_6
  6
PLINE2
 62
    3
 10
366.107302
 20
332.06721599999997
 11
364.10851999999988
 21
331.9974160000001
  0
LINE
  8
_0-6_6
  6
PLINE2
 62
    3
 10
368.43603999999982
 20
333.35024200000009
 11
368.46395999999993
 21
334.14975600000002
  0
LINE
  8
_0-6_6
  6
PLINE2
 62
    3
 10
368.29085399999997
 20
338.16777000000002
 11
360.95200799999975
 21
336.80377800000008
  0
LINE
  8
_0-6_6
  6
PLINE2
 62
    3
 10
360.96630799999991
 20
337.21328599999998
 11
368.21776199999988
 21
338.56103399999995
  0
LINE
  8
_0-6_6
  6
PLINE2
 62
    3
 10
357.76825799999983
 20
337.32496400000002
 11
356.56898799999988
 21
337.36684400000001
  0
LINE
  8
_0-6_6
  6
PLINE2
 62
    3
 10
360.96630799999991
 20
337.21328599999998
 11
359.76703999999972
 21
337.25516599999997
  0
LINE
  8
_0-6_6
  6
PLINE2
 62
    3
 10
364.16435999999976
 20
337.101608
 11
362.96509000000003
 21
337.14348799999999
  0
ARC
  8
_0-3_3
  6
CONTINUOUS
 62
    4
 10
376.84999866461271
 20
346.24999921269057
 40
8.0000007873095171
 50
331.04498556400802
 51
89.999990435993837
  0
LINE
  8
_0-3_3
  6
CONTINUOUS
 62
    3
 10
382.02157399999999
 20
346.25
 11
376.85000000000002
 21
351.42157200000008
  0
LINE
  8
_0-3_3
  6
CONTINUOUS
 62
    3
 10
380.60735999999986
 20
346.25
 11
376.85000000000002
 21
350.00735799999995
  0
LINE
  8
_0-3_3
  6
CONTINUOUS
 62
    3
 10
379.35000000000002
 20
346.093144
 11
376.85000000000002
 21
348.593144
  0
LINE
  8
_0-3_3
  6
CONTINUOUS
 62
    3
 10
379.35000000000002
 20
344.67893199999997
 11
376.85000000000002
 21
347.17893199999997
  0
LINE
  8
_0-3_3
  6
CONTINUOUS
 62
    3
 10
383.43578599999989
 20
346.25
 11
376.85000000000002
 21
352.8357860000001
  0
LINE
  8
_0-3_3
  6
CONTINUOUS
 62
    3
 10
384.85000000000002
 20
346.24778200000003
 11
376.85000000000002
 21
354.24772400000006
  0
LINE
  8
_0-3_3
  6
CONTINUOUS
 62
    3
 10
380.16370799999993
 20
346.25
 11
383.91562799999974
 21
350.00191799999999
  0
LINE
  8
_0-3_3
  6
CONTINUOUS
 62
    3
 10
381.57792199999994
 20
346.25
 11
384.35319199999992
 21
349.02526799999998
  0
LINE
  8
_0-3_3
  6
CONTINUOUS
 62
    3
 10
382.99213599999985
 20
346.25
 11
384.67170399999998
 21
347.92956800000002
  0
LINE
  8
_0-3_3
  6
CONTINUOUS
 62
    3
 10
376.85000000000002
 20
344.35050400000011
 11
383.376304
 21
350.8768080000001
  0
LINE
  8
_0-3_3
  6
CONTINUOUS
 62
    3
 10
376.85000000000002
 20
345.76471800000002
 11
382.74428999999986
 21
351.65900600000009
  0
LINE
  8
_0-6_6
  6
CONTINUOUS
 62
    3
 10
384.88598999999988
 20
336.9325
 11
385.96509600000002
 21
338.01160399999998
  0
ARC
  8
_0-6_6
  6
CONTINUOUS
 62
    4
 10
384.64999999999998
 20
332.15000000000009
 40
1.6000000000000001
 50
270
 51
0
  0
LINE
  8
_0-6_6
  6
CONTINUOUS
 62
    3
 10
385.99621799999977
 20
329.50765000000001
 11
384.92930199999989
 21
330.574566
  0
LINE
  8
_0-6_6
  6
CONTINUOUS
 62
    3
 10
383.85000000000002
 20
328.82544200000007
 11
388.33021799999983
 21
333.30565800000011
  0
ARC
  8
_0-6_6
  6
CONTINUOUS
 62
    4
 10
384.64999999999998
 20
335.35000000000002
 40
1.6000000000000001
 50
0
 51
90
  0
ARC
  8
_0-6_6
  6
CONTINUOUS
 62
    4
 10
383.35000000000014
 20
333.75
 40
4.9999999999999778
 50
275.73917000000063
 51
84.260829999999345
  0
LINE
  8
_0-6_6
  6
CONTINUOUS
 62
    3
 10
388.32517599999983
 20
334.24762800000008
 11
383.85000000000002
 21
338.72277200000008
  0
LINE
  8
_0-6_6
  6
CONTINUOUS
 62
    4
 10
383.85000000000002
 20
334.25
 11
383.85000000000002
 21
346.25
  0
LINE
  8
_0-6_6
  6
PLINE2
 62
    3
 10
370.44999999999982
 20
328.938964
 11
370.44999999999982
 21
329.33222799999999
  0
LINE
  8
_0-6_6
  6
PLINE2
 62
    3
 10
376.85000000000002
 20
330.12681399999985
 11
374.44999999999982
 21
330.55000000000007
  0
LINE
  8
_0-6_6
  6
CONTINUOUS
 62
    4
 10
384.64999999999998
 20
330.55000000000007
 11
383.85000000000002
 21
330.55000000000007
  0
LINE
  8
_0-6_6
  6
CONTINUOUS
 62
    3
 10
385.04396199999985
 20
329.04569400000003
 11
383.85000000000002
 21
330.23965600000008
  0
LINE
  8
_0-6_6
  6
CONTINUOUS
 62
    3
 10
383.89558599999998
 20
328.77985400000011
 11
383.85000000000002
 21
328.82544200000007
  0
LINE
  8
_0-6_6
  6
CONTINUOUS
 62
    3
 10
383.85000000000002
 20
330.23965600000008
 11
384.16034400000001
 21
330.55000000000007
  0
LINE
  8
_0-6_6
  6
CONTINUOUS
 62
    4
 10
383.85000000000002
 20
333.25
 11
383.35000000000002
 21
333.75
  0
LINE
  8
_0-6_6
  6
CONTINUOUS
 62
    4
 10
383.85000000000002
 20
334.25
 11
383.35000000000002
 21
333.75
  0
LINE
  8
_0-6_6
  6
CONTINUOUS
 62
    4
 10
383.85000000000002
 20
334.25
 11
383.85000000000002
 21
333.25
  0
LINE
  8
_0-3_3
  6
CONTINUOUS
 62
    3
 10
378.73272799999995
 20
343.88199000000009
 11
376.85000000000002
 21
345.76471800000002
  0
ARC
  8
_0-3_3
  6
CONTINUOUS
 62
    4
 10
376.85000000000002
 20
339.25
 40
5
 50
359.99999999999977
 51
90.000000000000043
  0
LINE
  8
_0-6_6
  6
PLINE2
 62
    3
 10
370.44999999999982
 20
338.56103399999995
 11
370.44999999999982
 21
338.16777000000002
  0
LINE
  8
_0-6_6
  6
PLINE2
 62
    3
 10
376.85000000000002
 20
337.37318399999998
 11
374.44999999999982
 21
336.94999999999999
  0
LINE
  8
_0-3_3
  6
CONTINUOUS
 62
    3
 10
376.95153599999992
 20
344.24896799999999
 11
376.85000000000002
 21
344.35050400000011
  0
LINE
  8
_0-6_6
  6
CONTINUOUS
 62
    4
 10
381.85000000000002
 20
344.25
 11
381.85000000000002
 21
339.25
  0
LINE
  8
_0-3_3
  6
CONTINUOUS
 62
    3
 10
381.64654999999993
 20
340.66177399999998
 11
381.85000000000002
 21
340.86522200000002
  0
LINE
  8
_0-3_3
  6
CONTINUOUS
 62
    3
 10
381.85000000000002
 20
340.76471800000002
 11
381.48198999999988
 21
341.1327280000001
  0
LINE
  8
_0-6_6
  6
CONTINUOUS
 62
    4
 10
384.64999999999998
 20
336.94999999999999
 11
383.85000000000002
 21
336.94999999999999
  0
LINE
  8
_0-6_6
  6
CONTINUOUS
 62
    3
 10
384.21072399999991
 20
336.94999999999999
 11
383.85000000000002
 21
337.31072200000006
  0
LINE
  8
_0-6_6
  6
CONTINUOUS
 62
    3
 10
383.85000000000002
 20
337.31072200000006
 11
385.0068
 21
338.46752199999997
  0
LINE
  8
_0-6_6
  6
CONTINUOUS
 62
    3
 10
383.85000000000002
 20
338.72277200000008
 11
383.85196799999994
 21
338.724738
  0
LINE
  8
_0-3_3
  6
CONTINUOUS
 62
    3
 10
381.84611399999994
 20
339.44712199999998
 11
381.85000000000002
 21
339.45101000000011
  0
LINE
  8
_0-6_6
  6
CONTINUOUS
 62
    4
 10
383.85000000000002
 20
346.25
 11
379.35000000000002
 21
346.25
  0
LINE
  8
_0-3_3
  6
CONTINUOUS
 62
    3
 10
381.85000000000002
 20
343.593144
 11
381.19314599999984
 21
344.25
  0
LINE
  8
_0-3_3
  6
CONTINUOUS
 62
    3
 10
381.85000000000002
 20
342.17893199999997
 11
379.77893200000005
 21
344.25
  0
LINE
  8
_0-3_3
  6
CONTINUOUS
 62
    3
 10
380.65274799999986
 20
342.496398
 11
381.85000000000002
 21
343.69364999999999
  0
LINE
  8
_0-3_3
  6
CONTINUOUS
 62
    3
 10
381.23075199999994
 20
341.66018799999995
 11
381.85000000000002
 21
342.27943599999998
  0
LINE
  8
_0-6_6
  6
CONTINUOUS
 62
    4
 10
379.35000000000002
 20
344.25
 11
381.85000000000002
 21
344.25
  0
LINE
  8
_0-3_3
  6
CONTINUOUS
 62
    3
 10
378.02394199999992
 20
344.110232
 11
379.35000000000002
 21
345.4362900000001
  0
LINE
  8
_0-3_3
  6
CONTINUOUS
 62
    3
 10
379.06200799999999
 20
343.73408400000005
 11
379.57792200000006
 21
344.25
  0
LINE
  8
_0-3_3
  6
CONTINUOUS
 62
    3
 10
379.93048600000009
 20
343.18835000000001
 11
380.99213599999996
 21
344.25
  0
LINE
  8
_0-6_6
  6
CONTINUOUS
 62
    4
 10
379.35000000000002
 20
346.25
 11
379.35000000000002
 21
344.25
  0
LINE
  8
_0-3_3
  6
CONTINUOUS
 62
    3
 10
384.46706000000006
 20
343.80451199999999
 11
383.85000000000002
 21
344.42157200000008
  0
LINE
  8
_0-3_3
  6
CONTINUOUS
 62
    3
 10
384.06446199999982
 20
342.79289799999998
 11
383.85000000000002
 21
343.00735800000007
  0
LINE
  8
_0-3_3
  6
CONTINUOUS
 62
    3
 10
384.74255200000005
 20
344.94323400000007
 11
383.85000000000002
 21
345.8357860000001
  0
LINE
  8
_0-3_3
  6
CONTINUOUS
 62
    3
 10
383.85000000000002
 20
345.69364999999999
 11
384.83832799999982
 21
346.68197800000007
  0
LINE
  8
_0-3_3
  6
CONTINUOUS
 62
    3
 10
383.85000000000002
 20
344.27943599999998
 11
384.78234599999973
 21
345.21178200000008
  0
LINE
  8
_0-3_3
  6
CONTINUOUS
 62
    3
 10
383.85000000000002
 20
342.86522200000002
 11
384.28718399999991
 21
343.30240600000002
  0
LINE
  8
_0-6_6
  6
CONTINUOUS
 62
    3
 10
386.24593199999993
 20
335.46401400000002
 11
387.42675399999996
 21
336.64483600000005
  0
LINE
  8
_0-6_6
  6
CONTINUOUS
 62
    3
 10
387.4475799999999
 20
330.88471600000003
 11
386.24862399999984
 21
332.08367199999998
  0
LINE
  8
_0-6_6
  6
CONTINUOUS
 62
    3
 10
386.79340599999989
 20
330.12467800000002
 11
385.83887199999992
 21
331.07921199999998
  0
LINE
  8
_0-6_6
  6
CONTINUOUS
 62
    3
 10
385.87060799999995
 20
329.43183600000009
 11
387.66816399999993
 21
331.22939200000008
  0
LINE
  8
_0-6_6
  6
CONTINUOUS
 62
    4
 10
386.24999999999989
 20
335.35000000000002
 11
386.24999999999989
 21
332.15000000000009
  0
LINE
  8
_0-6_6
  6
CONTINUOUS
 62
    3
 10
388.27477599999975
 20
332.8859480000001
 11
386.24999999999989
 21
334.91072200000008
  0
LINE
  8
_0-6_6
  6
CONTINUOUS
 62
    3
 10
387.95182199999988
 20
331.79468799999995
 11
386.24999999999989
 21
333.49651000000006
  0
LINE
  8
_0-6_6
  6
CONTINUOUS
 62
    3
 10
386.24999999999989
 20
334.05386800000008
 11
387.9366859999999
 21
335.74055400000009
  0
LINE
  8
_0-6_6
  6
CONTINUOUS
 62
    3
 10
386.24999999999989
 20
332.63965599999995
 11
388.26709399999993
 21
334.65674800000011
  0
LINE
  8
_0-6_6
  6
CONTINUOUS
 62
    3
 10
387.59138199999984
 20
336.3977680000001
 11
385.99777000000006
 21
337.9913820000001
  0
LINE
  8
_0-6_6
  6
CONTINUOUS
 62
    3
 10
385.81471599999998
 20
336.44701199999997
 11
386.76747799999987
 21
337.39977399999998
  0
LINE
  8
_0-3_3
  6
CONTINUOUS
 62
    3
 10
376.85000000000002
 20
348.593144
 11
381.21263199999987
 21
352.95577600000001
  0
LINE
  8
_0-3_3
  6
CONTINUOUS
 62
    3
 10
376.85000000000002
 20
350.00735799999995
 11
380.30710199999987
 21
353.46445999999997
  0
LINE
  8
_0-3_3
  6
CONTINUOUS
 62
    3
 10
376.85000000000002
 20
351.42157200000008
 11
379.29548599999976
 21
353.86705799999999
  0
LINE
  8
_0-3_3
  6
CONTINUOUS
 62
    3
 10
376.85000000000002
 20
352.8357860000001
 11
378.15676599999983
 21
354.14255000000003
  0
LINE
  8
_0-3_3
  6
CONTINUOUS
 62
    3
 10
376.85000000000002
 20
347.17893199999997
 11
382.02328799999998
 21
352.35221999999999
  0
LINE
  8
_0-3_3
  6
CONTINUOUS
 62
    3
 10
376.85000000000002
 20
354.24772400000006
 11
376.85227399999997
 21
354.24999800000001
  0
LINE
  8
_0-3_3
  6
CONTINUOUS
 62
    3
 10
384.69448599999998
 20
347.81972800000005
 11
378.41972799999996
 21
354.09448400000008
  0
LINE
  8
_0-3_3
  6
CONTINUOUS
 62
    3
 10
383.90320399999973
 20
350.02522199999999
 11
380.62522200000001
 21
353.30320400000005
  0
LINE
  8
_0-6_6
  6
CONTINUOUS
 62
    4
 10
376.85000000000002
 20
359.25
 11
379.85000000000002
 21
359.25
  0
LINE
  8
_0-6_6
  6
CONTINUOUS
 62
    4
 10
376.85000000000002
 20
411.75
 11
376.85000000000002
 21
409.25
  0
LINE
  8
_0-6_6
  6
CONTINUOUS
 62
    4
 10
379.64999999999998
 20
426.67792400000008
 11
379.64999999999998
 21
409.25
  0
LINE
  8
_0-6_6
  6
PLINE2
 62
    3
 10
376.85000000000002
 20
375.25
 11
363.85000000000002
 21
375.25
  0
LINE
  8
_0-6_6
  6
PLINE2
 62
    3
 10
363.85000000000002
 20
383.25
 11
376.85000000000002
 21
383.25
  0
LINE
  8
_0-6_6
  6
PLINE2
 62
    3
 10
355.49629999999991
 20
383.63145600000007
 11
354.92680399999972
 21
381.650126
  0
LINE
  8
_0-6_6
  6
PLINE2
 62
    3
 10
355.49629999999991
 20
374.86854200000005
 11
354.92680399999972
 21
376.849874
  0
LINE
  8
_0-6_6
  6
PLINE2
 62
    3
 10
366.36744999999974
 20
379.74969400000009
 11
339.88359400000002
 21
380.674532
  0
LINE
  8
_0-6_6
  6
PLINE2
 62
    3
 10
339.88359400000002
 20
377.825468
 11
366.36744999999974
 21
378.75030400000003
  0
LINE
  8
_0-6_6
  6
PLINE2
 62
    3
 10
345.58352600000001
 20
378.02451400000007
 11
343.46092199999987
 21
379.25
  0
LINE
  8
_0-6_6
  6
PLINE2
 62
    3
 10
347.50117199999988
 20
374.58934600000009
 11
346.93167800000003
 21
376.57067800000004
  0
LINE
  8
_0-6_6
  6
PLINE2
 62
    3
 10
345.0026959999999
 20
374.50209600000005
 11
343.00391400000001
 21
374.43229800000006
  0
LINE
  8
_0-6_6
  6
PLINE2
 62
    3
 10
343.00391400000001
 20
374.43229800000006
 11
339.93594199999995
 21
376.32638000000009
  0
LINE
  8
_0-6_6
  6
PLINE2
 62
    3
 10
339.93594199999995
 20
376.32638000000009
 11
339.88359400000002
 21
377.825468
  0
LINE
  8
_0-6_6
  6
PLINE2
 62
    3
 10
343.00391400000001
 20
374.43229800000006
 11
342.88176599999974
 21
377.93016599999999
  0
LINE
  8
_0-6_6
  6
PLINE2
 62
    3
 10
346.93167800000003
 20
376.57067800000004
 11
344.93289599999991
 21
376.50087799999994
  0
LINE
  8
_0-6_6
  6
PLINE2
 62
    3
 10
344.93289599999991
 20
376.50087799999994
 11
345.0026959999999
 21
374.50209600000005
  0
LINE
  8
_0-6_6
  6
PLINE2
 62
    3
 10
351.49873599999989
 20
374.72894400000007
 11
350.92924199999993
 21
376.71027600000002
  0
LINE
  8
_0-6_6
  6
PLINE2
 62
    3
 10
350.92924199999993
 20
376.71027600000002
 11
348.93045999999993
 21
376.64047600000004
  0
LINE
  8
_0-6_6
  6
PLINE2
 62
    3
 10
348.93045999999993
 20
376.64047600000004
 11
349.00025799999992
 21
374.64169400000003
  0
LINE
  8
_0-6_6
  6
PLINE2
 62
    3
 10
349.00025799999992
 20
374.64169400000003
 11
347.50117199999988
 21
374.58934600000009
  0
LINE
  8
_0-6_6
  6
PLINE2
 62
    3
 10
354.92680399999972
 20
376.849874
 11
352.92802399999982
 21
376.78007400000001
  0
LINE
  8
_0-6_6
  6
PLINE2
 62
    3
 10
352.92802399999982
 20
376.78007400000001
 11
352.99782199999993
 21
374.78129200000001
  0
LINE
  8
_0-6_6
  6
PLINE2
 62
    3
 10
352.99782199999993
 20
374.78129200000001
 11
351.49873599999989
 21
374.72894400000007
  0
LINE
  8
_0-6_6
  6
PLINE2
 62
    3
 10
347.50117199999988
 20
383.91065200000003
 11
346.93167800000003
 21
381.92932199999996
  0
LINE
  8
_0-6_6
  6
PLINE2
 62
    3
 10
344.93289599999991
 20
381.99911999999995
 11
345.0026959999999
 21
383.99790200000007
  0
LINE
  8
_0-6_6
  6
PLINE2
 62
    3
 10
343.00391400000001
 20
384.06769999999995
 11
339.93594199999995
 21
382.17361800000003
  0
LINE
  8
_0-6_6
  6
PLINE2
 62
    3
 10
342.88176599999974
 20
380.56983200000002
 11
343.00391400000001
 21
384.06769999999995
  0
LINE
  8
_0-6_6
  6
PLINE2
 62
    3
 10
343.46092199999987
 20
379.25
 11
345.58352600000001
 21
380.47548600000005
  0
LINE
  8
_0-6_6
  6
PLINE2
 62
    3
 10
339.88359400000002
 20
380.674532
 11
339.93594199999995
 21
382.17361800000003
  0
LINE
  8
_0-6_6
  6
PLINE2
 62
    3
 10
346.93167800000003
 20
381.92932199999996
 11
344.93289599999991
 21
381.99911999999995
  0
LINE
  8
_0-6_6
  6
PLINE2
 62
    3
 10
345.0026959999999
 20
383.99790200000007
 11
343.00391400000001
 21
384.06769999999995
  0
LINE
  8
_0-6_6
  6
PLINE2
 62
    3
 10
348.93045999999993
 20
381.85952200000008
 11
349.00025799999992
 21
383.85830400000009
  0
LINE
  8
_0-6_6
  6
PLINE2
 62
    3
 10
351.49873599999989
 20
383.77105400000005
 11
350.92924199999993
 21
381.78972399999998
  0
LINE
  8
_0-6_6
  6
PLINE2
 62
    3
 10
350.92924199999993
 20
381.78972399999998
 11
348.93045999999993
 21
381.85952200000008
  0
LINE
  8
_0-6_6
  6
PLINE2
 62
    3
 10
354.92680399999972
 20
381.650126
 11
352.92802399999982
 21
381.71992399999999
  0
LINE
  8
_0-6_6
  6
PLINE2
 62
    3
 10
352.99782199999993
 20
383.71870600000011
 11
351.49873599999989
 21
383.77105400000005
  0
LINE
  8
_0-6_6
  6
PLINE2
 62
    3
 10
352.92802399999982
 20
381.71992399999999
 11
352.99782199999993
 21
383.71870600000011
  0
LINE
  8
_0-6_6
  6
PLINE2
 62
    3
 10
349.00025799999992
 20
383.85830400000009
 11
347.50117199999988
 21
383.91065200000003
  0
LINE
  8
_0-6_6
  6
PLINE2
 62
    3
 10
363.42162599999995
 20
377.14652000000001
 11
360.92314999999996
 21
377.05927000000008
  0
LINE
  8
_0-6_6
  6
PLINE2
 62
    3
 10
356.97750999999994
 20
375.43277599999999
 11
366.15106600000001
 21
373.72778600000004
  0
LINE
  8
_0-6_6
  6
PLINE2
 62
    3
 10
366.0597019999999
 20
373.23620400000004
 11
356.99538599999983
 21
374.9208900000001
  0
LINE
  8
_0-6_6
  6
PLINE2
 62
    3
 10
356.92558599999984
 20
376.91967199999999
 11
358.92436800000007
 21
376.98947199999998
  0
LINE
  8
_0-6_6
  6
PLINE2
 62
    3
 10
356.99538599999983
 20
374.9208900000001
 11
356.92558599999984
 21
376.91967199999999
  0
LINE
  8
_0-6_6
  6
PLINE2
 62
    3
 10
356.99538599999983
 20
374.9208900000001
 11
355.49629999999991
 21
374.86854200000005
  0
LINE
  8
_0-6_6
  6
PLINE2
 62
    3
 10
360.99294799999996
 20
375.06048800000008
 11
359.49386199999992
 21
375.00814000000003
  0
LINE
  8
_0-6_6
  6
PLINE2
 62
    3
 10
359.49386199999992
 20
375.00814000000003
 11
358.92436800000007
 21
376.98947199999998
  0
LINE
  8
_0-6_6
  6
PLINE2
 62
    3
 10
360.99294799999996
 20
375.06048800000008
 11
360.92314999999996
 21
377.05927000000008
  0
LINE
  8
_0-6_6
  6
PLINE2
 62
    3
 10
368.85000000000002
 20
373.23620400000004
 11
368.85000000000002
 21
373.72778600000004
  0
LINE
  8
_0-6_6
  6
PLINE2
 62
    3
 10
366.0597019999999
 20
373.23620400000004
 11
368.85000000000002
 21
373.23620400000004
  0
LINE
  8
_0-6_6
  6
PLINE2
 62
    3
 10
368.85000000000002
 20
373.72778600000004
 11
366.15106600000001
 21
373.72778600000004
  0
LINE
  8
_0-6_6
  6
PLINE2
 62
    3
 10
363.99112200000002
 20
375.16518800000006
 11
363.42162599999995
 21
377.14652000000001
  0
LINE
  8
_0-6_6
  6
PLINE2
 62
    3
 10
363.42162599999995
 20
381.35347999999999
 11
360.92314999999996
 21
381.44072800000004
  0
LINE
  8
_0-6_6
  6
PLINE2
 62
    3
 10
366.15106600000001
 20
384.77221199999997
 11
356.97750999999994
 21
383.06722200000002
  0
LINE
  8
_0-6_6
  6
PLINE2
 62
    3
 10
356.99538599999983
 20
383.57910800000002
 11
366.0597019999999
 21
385.26379400000008
  0
LINE
  8
_0-6_6
  6
PLINE2
 62
    3
 10
358.92436800000007
 20
381.51052800000002
 11
356.92558599999984
 21
381.58032600000001
  0
LINE
  8
_0-6_6
  6
PLINE2
 62
    3
 10
356.99538599999983
 20
383.57910800000002
 11
355.49629999999991
 21
383.63145600000007
  0
LINE
  8
_0-6_6
  6
PLINE2
 62
    3
 10
356.92558599999984
 20
381.58032600000001
 11
356.99538599999983
 21
383.57910800000002
  0
LINE
  8
_0-6_6
  6
PLINE2
 62
    3
 10
360.99294799999996
 20
383.43951000000004
 11
359.49386199999992
 21
383.49186000000009
  0
LINE
  8
_0-6_6
  6
PLINE2
 62
    3
 10
359.49386199999992
 20
383.49186000000009
 11
358.92436800000007
 21
381.51052800000002
  0
LINE
  8
_0-6_6
  6
PLINE2
 62
    3
 10
360.92314999999996
 20
381.44072800000004
 11
360.99294799999996
 21
383.43951000000004
  0
LINE
  8
_0-6_6
  6
PLINE2
 62
    3
 10
366.33254999999997
 20
378.75030400000003
 11
366.36744999999974
 21
379.74969400000009
  0
LINE
  8
_0-6_6
  6
PLINE2
 62
    3
 10
363.42162599999995
 20
381.35347999999999
 11
363.99112200000002
 21
383.33481200000006
  0
LINE
  8
_0-6_6
  6
PLINE2
 62
    3
 10
366.0597019999999
 20
385.26379400000008
 11
368.85000000000002
 21
385.26379400000008
  0
LINE
  8
_0-6_6
  6
PLINE2
 62
    3
 10
368.85000000000002
 20
384.77221199999997
 11
366.15106600000001
 21
384.77221199999997
  0
LINE
  8
_0-6_6
  6
PLINE2
 62
    3
 10
368.85000000000002
 20
385.26379400000008
 11
368.85000000000002
 21
384.77221199999997
  0
LINE
  8
_0-6_6
  6
CONTINUOUS
 62
    4
 10
382.85000000000002
 20
381.25
 11
382.85000000000002
 21
377.25
  0
LINE
  8
_0-6_6
  6
PLINE2
 62
    3
 10
379.85000000000002
 20
369.25
 11
376.85000000000002
 21
369.25
  0
LINE
  8
_0-6_6
  6
PLINE2
 62
    3
 10
376.85000000000002
 20
374.72101800000007
 11
373.85000000000002
 21
375.25
  0
ARC
  8
_0-6_6
  6
CONTINUOUS
 62
    4
 10
380.85000000000002
 20
377.25
 40
2
 50
270
 51
0
  0
LINE
  8
_0-6_6
  6
CONTINUOUS
 62
    4
 10
380.85000000000002
 20
375.25
 11
379.85000000000002
 21
375.25
  0
LINE
  8
_0-6_6
  6
PLINE2
 62
    3
 10
376.85000000000002
 20
383.77897999999993
 11
373.85000000000002
 21
383.25
  0
ARC
  8
_0-6_6
  6
CONTINUOUS
 62
    4
 10
380.85000000000002
 20
381.25
 40
2
 50
0
 51
90
  0
LINE
  8
_0-6_6
  6
CONTINUOUS
 62
    4
 10
380.85000000000002
 20
383.25
 11
379.85000000000002
 21
383.25
  0
LINE
  8
_0-6_6
  6
PLINE2
 62
    3
 10
379.85000000000002
 20
389.25
 11
376.85000000000002
 21
389.25
  0
LINE
  8
_0-6_6
  6
CONTINUOUS
 62
    4
 10
379.64999999999998
 20
409.25
 11
376.85000000000002
 21
409.25
  0
LINE
  8
_0-6_6
  6
PLINE2
 62
    3
 10
376.85000000000002
 20
439.25
 11
363.85000000000002
 21
439.25
  0
LINE
  8
_0-6_6
  6
PLINE2
 62
    3
 10
363.85000000000002
 20
447.25
 11
376.85000000000002
 21
447.25
  0
LINE
  8
_0-6_6
  6
PLINE2
 62
    3
 10
355.49629999999991
 20
447.63145599999996
 11
354.92680399999972
 21
445.650126
  0
LINE
  8
_0-6_6
  6
PLINE2
 62
    3
 10
355.49629999999991
 20
438.86854199999993
 11
354.92680399999972
 21
440.849874
  0
LINE
  8
_0-6_6
  6
PLINE2
 62
    3
 10
366.36744999999974
 20
443.74969400000009
 11
339.88359400000002
 21
444.674532
  0
LINE
  8
_0-6_6
  6
PLINE2
 62
    3
 10
339.88359400000002
 20
441.825468
 11
366.36744999999974
 21
442.75030400000003
  0
LINE
  8
_0-6_6
  6
PLINE2
 62
    3
 10
339.93594199999995
 20
440.32638000000009
 11
339.88359400000002
 21
441.825468
  0
LINE
  8
_0-6_6
  6
PLINE2
 62
    3
 10
343.00391400000001
 20
438.43229800000006
 11
342.88176599999974
 21
441.93016599999999
  0
LINE
  8
_0-6_6
  6
PLINE2
 62
    3
 10
347.50117199999988
 20
438.58934600000009
 11
346.93167800000003
 21
440.57067800000004
  0
LINE
  8
_0-6_6
  6
PLINE2
 62
    3
 10
345.0026959999999
 20
438.50209599999994
 11
343.00391400000001
 21
438.43229800000006
  0
LINE
  8
_0-6_6
  6
PLINE2
 62
    3
 10
343.00391400000001
 20
438.43229800000006
 11
339.93594199999995
 21
440.32638000000009
  0
LINE
  8
_0-6_6
  6
PLINE2
 62
    3
 10
346.93167800000003
 20
440.57067800000004
 11
344.93289599999991
 21
440.50087800000006
  0
LINE
  8
_0-6_6
  6
PLINE2
 62
    3
 10
344.93289599999991
 20
440.50087800000006
 11
345.0026959999999
 21
438.50209599999994
  0
LINE
  8
_0-6_6
  6
PLINE2
 62
    3
 10
351.49873599999989
 20
438.72894400000007
 11
350.92924199999993
 21
440.71027600000002
  0
LINE
  8
_0-6_6
  6
PLINE2
 62
    3
 10
350.92924199999993
 20
440.71027600000002
 11
348.93045999999993
 21
440.64047600000004
  0
LINE
  8
_0-6_6
  6
PLINE2
 62
    3
 10
348.93045999999993
 20
440.64047600000004
 11
349.00025799999992
 21
438.64169400000003
  0
LINE
  8
_0-6_6
  6
PLINE2
 62
    3
 10
349.00025799999992
 20
438.64169400000003
 11
347.50117199999988
 21
438.58934600000009
  0
LINE
  8
_0-6_6
  6
PLINE2
 62
    3
 10
354.92680399999972
 20
440.849874
 11
352.92802399999982
 21
440.78007400000001
  0
LINE
  8
_0-6_6
  6
PLINE2
 62
    3
 10
352.92802399999982
 20
440.78007400000001
 11
352.99782199999993
 21
438.78129200000001
  0
LINE
  8
_0-6_6
  6
PLINE2
 62
    3
 10
352.99782199999993
 20
438.78129200000001
 11
351.49873599999989
 21
438.72894400000007
  0
LINE
  8
_0-6_6
  6
PLINE2
 62
    3
 10
347.50117199999988
 20
447.91065200000003
 11
346.93167800000003
 21
445.92932200000007
  0
LINE
  8
_0-6_6
  6
PLINE2
 62
    3
 10
344.93289599999991
 20
445.99912000000006
 11
345.0026959999999
 21
447.99790199999995
  0
LINE
  8
_0-6_6
  6
PLINE2
 62
    3
 10
343.00391400000001
 20
448.06769999999995
 11
339.93594199999995
 21
446.17361800000003
  0
LINE
  8
_0-6_6
  6
PLINE2
 62
    3
 10
342.88176599999974
 20
444.56983200000002
 11
343.00391400000001
 21
448.06769999999995
  0
LINE
  8
_0-6_6
  6
PLINE2
 62
    3
 10
343.46092199999987
 20
443.25
 11
345.58352600000001
 21
444.47548600000005
  0
LINE
  8
_0-6_6
  6
PLINE2
 62
    3
 10
345.58352600000001
 20
442.02451399999995
 11
343.46092199999987
 21
443.25
  0
LINE
  8
_0-6_6
  6
PLINE2
 62
    3
 10
339.88359400000002
 20
444.674532
 11
339.93594199999995
 21
446.17361800000003
  0
LINE
  8
_0-6_6
  6
PLINE2
 62
    3
 10
346.93167800000003
 20
445.92932200000007
 11
344.93289599999991
 21
445.99912000000006
  0
LINE
  8
_0-6_6
  6
PLINE2
 62
    3
 10
345.0026959999999
 20
447.99790199999995
 11
343.00391400000001
 21
448.06769999999995
  0
LINE
  8
_0-6_6
  6
PLINE2
 62
    3
 10
352.92802399999982
 20
445.71992399999999
 11
352.99782199999993
 21
447.71870600000011
  0
LINE
  8
_0-6_6
  6
PLINE2
 62
    3
 10
348.93045999999993
 20
445.85952200000008
 11
349.00025799999992
 21
447.85830400000009
  0
LINE
  8
_0-6_6
  6
PLINE2
 62
    3
 10
351.49873599999989
 20
447.77105399999994
 11
350.92924199999993
 21
445.78972399999998
  0
LINE
  8
_0-6_6
  6
PLINE2
 62
    3
 10
350.92924199999993
 20
445.78972399999998
 11
348.93045999999993
 21
445.85952200000008
  0
LINE
  8
_0-6_6
  6
PLINE2
 62
    3
 10
354.92680399999972
 20
445.650126
 11
352.92802399999982
 21
445.71992399999999
  0
LINE
  8
_0-6_6
  6
PLINE2
 62
    3
 10
349.00025799999992
 20
447.85830400000009
 11
347.50117199999988
 21
447.91065200000003
  0
LINE
  8
_0-6_6
  6
PLINE2
 62
    3
 10
352.99782199999993
 20
447.71870600000011
 11
351.49873599999989
 21
447.77105399999994
  0
LINE
  8
_0-6_6
  6
PLINE2
 62
    3
 10
363.42162599999995
 20
441.14652000000001
 11
360.92314999999996
 21
441.05927000000008
  0
LINE
  8
_0-6_6
  6
PLINE2
 62
    3
 10
356.97750999999994
 20
439.43277599999999
 11
366.15106600000001
 21
437.72778600000004
  0
LINE
  8
_0-6_6
  6
PLINE2
 62
    3
 10
366.0597019999999
 20
437.23620400000004
 11
356.99538599999983
 21
438.9208900000001
  0
LINE
  8
_0-6_6
  6
PLINE2
 62
    3
 10
356.92558599999984
 20
440.91967199999999
 11
358.92436800000007
 21
440.98947199999998
  0
LINE
  8
_0-6_6
  6
PLINE2
 62
    3
 10
356.99538599999983
 20
438.9208900000001
 11
356.92558599999984
 21
440.91967199999999
  0
LINE
  8
_0-6_6
  6
PLINE2
 62
    3
 10
356.99538599999983
 20
438.9208900000001
 11
355.49629999999991
 21
438.86854199999993
  0
LINE
  8
_0-6_6
  6
PLINE2
 62
    3
 10
360.99294799999996
 20
439.06048800000008
 11
359.49386199999992
 21
439.00814000000003
  0
LINE
  8
_0-6_6
  6
PLINE2
 62
    3
 10
359.49386199999992
 20
439.00814000000003
 11
358.92436800000007
 21
440.98947199999998
  0
LINE
  8
_0-6_6
  6
PLINE2
 62
    3
 10
360.99294799999996
 20
439.06048800000008
 11
360.92314999999996
 21
441.05927000000008
  0
LINE
  8
_0-6_6
  6
PLINE2
 62
    3
 10
366.0597019999999
 20
437.23620400000004
 11
368.85000000000002
 21
437.23620400000004
  0
LINE
  8
_0-6_6
  6
PLINE2
 62
    3
 10
368.85000000000002
 20
437.72778600000004
 11
366.15106600000001
 21
437.72778600000004
  0
LINE
  8
_0-6_6
  6
PLINE2
 62
    3
 10
363.99112200000002
 20
439.16518799999994
 11
363.42162599999995
 21
441.14652000000001
  0
LINE
  8
_0-6_6
  6
PLINE2
 62
    3
 10
368.85000000000002
 20
437.23620400000004
 11
368.85000000000002
 21
437.72778600000004
  0
LINE
  8
_0-6_6
  6
PLINE2
 62
    3
 10
363.42162599999995
 20
445.35347999999999
 11
360.92314999999996
 21
445.44072800000004
  0
LINE
  8
_0-6_6
  6
PLINE2
 62
    3
 10
366.15106600000001
 20
448.77221199999985
 11
356.97750999999994
 21
447.06722200000002
  0
LINE
  8
_0-6_6
  6
PLINE2
 62
    3
 10
356.99538599999983
 20
447.57910800000002
 11
366.0597019999999
 21
449.26379400000008
  0
LINE
  8
_0-6_6
  6
PLINE2
 62
    3
 10
359.49386199999992
 20
447.49186000000009
 11
358.92436800000007
 21
445.51052800000002
  0
LINE
  8
_0-6_6
  6
PLINE2
 62
    3
 10
360.92314999999996
 20
445.44072800000004
 11
360.99294799999996
 21
447.43951000000004
  0
LINE
  8
_0-6_6
  6
PLINE2
 62
    3
 10
356.92558599999984
 20
445.58032600000001
 11
356.99538599999983
 21
447.57910800000002
  0
LINE
  8
_0-6_6
  6
PLINE2
 62
    3
 10
358.92436800000007
 20
445.51052800000002
 11
356.92558599999984
 21
445.58032600000001
  0
LINE
  8
_0-6_6
  6
PLINE2
 62
    3
 10
356.99538599999983
 20
447.57910800000002
 11
355.49629999999991
 21
447.63145599999996
  0
LINE
  8
_0-6_6
  6
PLINE2
 62
    3
 10
360.99294799999996
 20
447.43951000000004
 11
359.49386199999992
 21
447.49186000000009
  0
LINE
  8
_0-6_6
  6
PLINE2
 62
    3
 10
363.42162599999995
 20
445.35347999999999
 11
363.99112200000002
 21
447.33481200000006
  0
LINE
  8
_0-6_6
  6
PLINE2
 62
    3
 10
366.33254999999997
 20
442.75030400000003
 11
366.36744999999974
 21
443.74969400000009
  0
LINE
  8
_0-6_6
  6
PLINE2
 62
    3
 10
366.0597019999999
 20
449.26379400000008
 11
368.85000000000002
 21
449.26379400000008
  0
LINE
  8
_0-6_6
  6
PLINE2
 62
    3
 10
368.85000000000002
 20
448.77221199999985
 11
366.15106600000001
 21
448.77221199999985
  0
LINE
  8
_0-6_6
  6
PLINE2
 62
    3
 10
368.85000000000002
 20
449.26379400000008
 11
368.85000000000002
 21
448.77221199999985
  0
LINE
  8
_0-6_6
  6
CONTINUOUS
 62
    4
 10
376.85000000000002
 20
433
 11
376.85000000000002
 21
430.5
  0
LINE
  8
_0-6_6
  6
CONTINUOUS
 62
    4
 10
379.64999999999998
 20
430.15873800000008
 11
379.64999999999998
 21
442.75
  0
LINE
  8
_0-6_6
  6
CONTINUOUS
 62
    4
 10
380.44999999999982
 20
433.92142799999999
 11
380.44999999999982
 21
430.04203200000006
  0
LINE
  8
_0-6_6
  6
CONTINUOUS
 62
    4
 10
381.94999999999993
 20
432.191914
 11
381.94999999999993
 21
430.59502400000008
  0
ARC
  8
_0-6_6
  6
CONTINUOUS
 62
    4
 10
382.94999999999982
 20
430.59502400000008
 40
1
 50
81.77327799999577
 51
180
  0
LINE
  8
_0-6_6
  6
CONTINUOUS
 62
    4
 10
377.35000000000002
 20
430.5
 11
377.35000000000002
 21
411.75
  0
LINE
  8
_0-6_6
  6
CONTINUOUS
 62
    4
 10
377.35000000000002
 20
411.75
 11
376.85000000000002
 21
411.75
  0
LINE
  8
_0-6_6
  6
CONTINUOUS
 62
    4
 10
376.85000000000002
 20
430.5
 11
377.35000000000002
 21
430.5
  0
LINE
  8
_0-6_6
  6
CONTINUOUS
 62
    4
 10
381.94999999999993
 20
429.82320600000003
 11
379.64999999999998
 21
430.15873800000008
  0
LINE
  8
_0-6_6
  6
CONTINUOUS
 62
    4
 10
380.79435599999999
 20
427.66745000000003
 11
383.10564399999976
 21
427.33027000000004
  0
ARC
  8
_0-6_6
  6
CONTINUOUS
 62
    4
 10
380.64999999999998
 20
426.67792400000008
 40
1
 50
81.69999999999439
 51
180
  0
LINE
  8
_0-6_6
  6
CONTINUOUS
 62
    4
 10
381.94999999999993
 20
430.59502400000008
 11
381.94999999999993
 21
429.82320600000003
  0
ARC
  8
_0-6_6
  6
CONTINUOUS
 62
    4
 10
383.24999999999989
 20
428.319794
 40
1
 50
261.6999999999943
 51
0.0000000000000127
  0
ARC
  8
_0-6_6
  6
CONTINUOUS
 62
    4
 10
385.24999999999989
 20
428.33120200000008
 40
1
 50
81.69999999999439
 51
180
  0
LINE
  8
_0-6_6
  6
CONTINUOUS
 62
    4
 10
384.24999999999977
 20
428.33120200000008
 11
384.24999999999977
 21
428.319794
  0
LINE
  8
_0-6_6
  6
CONTINUOUS
 62
    4
 10
380.44999999999982
 20
433.92142799999999
 11
387.14999999999986
 21
432.96428400000002
  0
LINE
  8
_0-6_6
  6
CONTINUOUS
 62
    4
 10
377.35000000000002
 20
451.75
 11
377.35000000000002
 21
433
  0
LINE
  8
_0-6_6
  6
CONTINUOUS
 62
    4
 10
382.64999999999986
 20
445.25
 11
382.64999999999986
 21
441.25
  0
LINE
  8
_0-6_6
  6
PLINE2
 62
    3
 10
379.64999999999998
 20
440.25
 11
377.35000000000002
 21
440.25
  0
LINE
  8
_0-6_6
  6
CONTINUOUS
 62
    4
 10
377.35000000000002
 20
433
 11
376.85000000000002
 21
433
  0
LINE
  8
_0-6_6
  6
PLINE2
 62
    3
 10
376.85000000000002
 20
438.72101800000007
 11
373.85000000000002
 21
439.25
  0
ARC
  8
_0-6_6
  6
CONTINUOUS
 62
    4
 10
380.64999999999998
 20
441.25
 40
2
 50
270
 51
0
  0
LINE
  8
_0-6_6
  6
CONTINUOUS
 62
    4
 10
380.64999999999998
 20
439.25
 11
379.64999999999998
 21
439.25
  0
LINE
  8
_0-6_6
  6
PLINE2
 62
    3
 10
379.64999999999998
 20
446.25
 11
377.35000000000002
 21
446.25
  0
LINE
  8
_0-6_6
  6
PLINE2
 62
    3
 10
376.85000000000002
 20
447.77897999999993
 11
373.85000000000002
 21
447.25
  0
LINE
  8
_0-6_6
  6
CONTINUOUS
 62
    4
 10
376.85000000000002
 20
451.75
 11
377.35000000000002
 21
451.75
  0
ARC
  8
_0-6_6
  6
CONTINUOUS
 62
    4
 10
380.64999999999998
 20
445.25
 40
2
 50
0
 51
90
  0
LINE
  8
_0-6_6
  6
CONTINUOUS
 62
    4
 10
379.64999999999998
 20
443.75
 11
379.14999999999998
 21
443.25
  0
LINE
  8
_0-6_6
  6
CONTINUOUS
 62
    4
 10
379.64999999999998
 20
442.75
 11
379.14999999999998
 21
443.25
  0
LINE
  8
_0-6_6
  6
CONTINUOUS
 62
    4
 10
380.64999999999998
 20
447.25
 11
379.64999999999998
 21
447.25
  0
LINE
  8
_0-6_6
  6
CONTINUOUS
 62
    4
 10
388.64999999999998
 20
432.75
 11
388.64999999999998
 21
442.75
  0
LINE
  8
_0-6_6
  6
CONTINUOUS
 62
    4
 10
388.64999999999998
 20
443.75
 11
388.14999999999998
 21
443.25
  0
LINE
  8
_0-6_6
  6
CONTINUOUS
 62
    4
 10
388.64999999999998
 20
442.75
 11
388.14999999999998
 21
443.25
  0
LINE
  8
_0-5_5
  6
CONTINUOUS
 62
    3
 10
384.61230599999976
 20
462.7352800000001
 11
386.12702400000001
 21
464.25
  0
LINE
  8
_0-5_5
  6
CONTINUOUS
 62
    3
 10
387.44073399999991
 20
454.25
 11
384.61230599999976
 21
457.07842600000004
  0
LINE
  8
_0-6_6
  6
CONTINUOUS
 62
    4
 10
381.94999999999993
 20
452.75
 11
387.14999999999986
 21
452.75
  0
LINE
  8
_0-5_5
  6
CONTINUOUS
 62
    3
 10
384.61230599999976
 20
459.90685400000007
 11
388.95545199999992
 21
464.25
  0
LINE
  8
_0-5_5
  6
CONTINUOUS
 62
    3
 10
384.61469199999999
 20
454.25
 11
394.61474799999985
 21
464.25
  0
LINE
  8
_0-5_5
  6
CONTINUOUS
 62
    3
 10
384.61230599999976
 20
457.07842600000004
 11
391.78387999999995
 21
464.25
  0
LINE
  8
_0-5_5
  6
CONTINUOUS
 62
    3
 10
393.09758799999997
 20
454.25
 11
384.61230599999976
 21
462.7352800000001
  0
LINE
  8
_0-5_5
  6
CONTINUOUS
 62
    3
 10
390.26915999999983
 20
454.25
 11
384.61230599999976
 21
459.90685400000007
  0
LINE
  8
_0-5_5
  6
CONTINUOUS
 62
    4
 10
394.85000000000002
 20
454.25
 11
381.94999999999993
 21
454.25
  0
LINE
  8
_0-5_5
  6
CONTINUOUS
 62
    4
 10
384.61230599999976
 20
464.25
 11
384.61230599999976
 21
454.25
  0
LINE
  8
_0-5_5
  6
PLINE3
 62
    3
 10
384.61230599999976
 20
454.25
 11
376.85000000000002
 21
464.25
  0
LINE
  8
_0-5_5
  6
PLINE3
 62
    3
 10
384.61230599999976
 20
464.25
 11
376.85000000000002
 21
454.25
  0
LINE
  8
_0-5_5
  6
CONTINUOUS
 62
    4
 10
379.64999999999998
 20
454.25
 11
376.85000000000002
 21
454.25
  0
LINE
  8
_0-5_5
  6
CONTINUOUS
 62
    4
 10
381.94999999999993
 20
454.25
 11
379.64999999999998
 21
454.25
  0
LINE
  8
_0-6_6
  6
CONTINUOUS
 62
    4
 10
381.94999999999993
 20
454.25
 11
381.94999999999993
 21
452.75
  0
ARC
  8
_0-5_5
  6
CONTINUOUS
 62
    4
 10
406.85000238231305
 20
459.25
 40
13.000002199058271
 50
157.38013903835659
 51
202.6198609616433
  0
LINE
  8
_0-5_5
  6
CONTINUOUS
 62
    3
 10
394.09104999999977
 20
461.74182000000008
 11
391.58286999999996
 21
464.25
  0
LINE
  8
_0-5_5
  6
CONTINUOUS
 62
    3
 10
394.29380800000001
 20
455.88220600000011
 11
385.92601400000001
 21
464.25
  0
LINE
  8
_0-5_5
  6
CONTINUOUS
 62
    3
 10
393.85035399999992
 20
459.154088
 11
388.75444199999993
 21
464.25
  0
LINE
  8
_0-5_5
  6
CONTINUOUS
 62
    3
 10
390.26915999999983
 20
454.25
 11
393.92017999999985
 21
457.90101800000002
  0
LINE
  8
_0-6_6
  6
CONTINUOUS
 62
    4
 10
388.64999999999998
 20
452.75
 11
394.85000000000002
 21
452.75
  0
LINE
  8
_0-5_5
  6
CONTINUOUS
 62
    3
 10
387.44073399999991
 20
454.25
 11
393.93631599999992
 21
460.74558200000001
  0
LINE
  8
_0-6_6
  6
CONTINUOUS
 62
    4
 10
394.85000000000002
 20
452.75
 11
394.85000000000002
 21
454.25
  0
LINE
  8
_0-5_5
  6
CONTINUOUS
 62
    3
 10
393.09758799999997
 20
454.25
 11
394.38993199999982
 21
455.54234400000007
  0
LINE
  8
_0-5_5
  6
CONTINUOUS
 62
    3
 10
394.72431599999982
 20
463.93698000000006
 11
394.41129599999988
 21
464.25
  0
LINE
  8
_0-7_7
  6
CONTINUOUS
 62
    4
 10
423.64999999999986
 20
267.61669999999998
 11
423.64999999999986
 21
374.25
  0
LINE
  8
_0-7_7
  6
CONTINUOUS
 62
    4
 10
438.64999999999998
 20
267.61669999999998
 11
438.64999999999998
 21
374.25
  0
LINE
  8
_0-5_5
  6
PLINE2
 62
    3
 10
429.02758599999993
 20
101.29248400000009
 11
430.64999999999998
 21
132.25000000000003
  0
LINE
  8
_0-5_5
  6
PLINE2
 62
    3
 10
436.03491399999984
 20
115.4564740000001
 11
436.13958599999989
 21
113.45921400000012
  0
LINE
  8
_0-5_5
  6
PLINE2
 62
    3
 10
433.27241399999991
 20
101.29248400000009
 11
431.64999999999998
 21
132.25000000000003
  0
LINE
  8
_0-5_5
  6
PLINE2
 62
    3
 10
426.265086
 20
115.4564740000001
 11
426.16041399999995
 21
113.45921400000012
  0
LINE
  8
_0-2_2
  6
PLINE3
 62
    3
 10
431.14999999999998
 20
95.250000000000028
 11
431.14999999999998
 21
159.25
  0
LINE
  8
_0-3_3
  6
CONTINUOUS
 62
    3
 10
437.54145000000005
 20
139.25000000000003
 11
400.71801199999982
 21
102.42656200000013
  0
LINE
  8
_0-3_3
  6
CONTINUOUS
 62
    3
 10
403.54643999999985
 20
102.42656200000013
 11
440.36987799999974
 21
139.25000000000003
  0
LINE
  8
_0-3_3
  6
CONTINUOUS
 62
    3
 10
443.19830399999989
 20
139.25000000000003
 11
406.374866
 21
102.42656200000013
  0
LINE
  8
_0-5_5
  6
PLINE2
 62
    3
 10
431.09069399999987
 20
104.30930600000002
 11
433.02439599999991
 21
106.02497600000007
  0
LINE
  8
_0-5_5
  6
PLINE2
 62
    3
 10
429.28055600000005
 20
106.11944400000007
 11
431.14999999999998
 21
104.25000000000003
  0
LINE
  8
_0-5_5
  6
PLINE2
 62
    3
 10
425.74172599999986
 20
105.47017800000006
 11
425.63705399999992
 21
103.47291800000008
  0
LINE
  8
_0-5_5
  6
PLINE2
 62
    3
 10
429.13225799999998
 20
103.28974200000007
 11
425.63705399999992
 21
103.47291800000008
  0
LINE
  8
_0-5_5
  6
PLINE2
 62
    3
 10
425.63705399999992
 20
103.47291800000008
 11
427.52964199999974
 21
101.37098800000004
  0
LINE
  8
_0-5_5
  6
PLINE2
 62
    3
 10
427.52964199999974
 20
101.37098800000004
 11
429.02758599999993
 21
101.29248400000009
  0
LINE
  8
_0-5_5
  6
PLINE2
 62
    3
 10
426.00340599999993
 20
110.46332600000008
 11
425.89873399999999
 21
108.4660660000001
  0
LINE
  8
_0-5_5
  6
PLINE2
 62
    3
 10
425.89873399999999
 20
108.4660660000001
 11
427.84365799999989
 21
107.36276600000011
  0
LINE
  8
_0-5_5
  6
PLINE2
 62
    3
 10
427.73898599999995
 20
105.36550600000012
 11
425.74172599999986
 21
105.47017800000006
  0
LINE
  8
_0-5_5
  6
PLINE2
 62
    3
 10
427.84365799999989
 20
107.36276600000011
 11
427.73898599999995
 21
105.36550600000012
  0
LINE
  8
_0-5_5
  6
PLINE2
 62
    3
 10
426.16041399999995
 20
113.45921400000012
 11
428.10533599999997
 21
112.35591200000002
  0
LINE
  8
_0-5_5
  6
PLINE2
 62
    3
 10
428.00066400000003
 20
110.35865400000003
 11
426.00340599999993
 21
110.46332600000008
  0
LINE
  8
_0-5_5
  6
PLINE2
 62
    3
 10
428.10533599999997
 20
112.35591200000002
 11
428.00066400000003
 21
110.35865400000003
  0
LINE
  8
_0-5_5
  6
PLINE2
 62
    3
 10
436.55827399999987
 20
105.47017800000006
 11
436.66294599999992
 21
103.47291800000008
  0
LINE
  8
_0-5_5
  6
PLINE2
 62
    3
 10
433.16774399999997
 20
103.28974200000007
 11
436.66294599999992
 21
103.47291800000008
  0
LINE
  8
_0-5_5
  6
PLINE2
 62
    3
 10
436.66294599999992
 20
103.47291800000008
 11
434.77035999999976
 21
101.37098800000004
  0
LINE
  8
_0-5_5
  6
PLINE2
 62
    3
 10
434.77035999999976
 20
101.37098800000004
 11
433.27241399999991
 21
101.29248400000009
  0
LINE
  8
_0-5_5
  6
PLINE2
 62
    3
 10
436.29659400000003
 20
110.46332600000008
 11
436.40126599999985
 21
108.4660660000001
  0
LINE
  8
_0-5_5
  6
PLINE2
 62
    3
 10
436.40126599999985
 20
108.4660660000001
 11
434.45634399999972
 21
107.36276600000011
  0
LINE
  8
_0-5_5
  6
PLINE2
 62
    3
 10
434.561016
 20
105.36550600000012
 11
436.55827399999987
 21
105.47017800000006
  0
LINE
  8
_0-5_5
  6
PLINE2
 62
    3
 10
434.45634399999972
 20
107.36276600000011
 11
434.561016
 21
105.36550600000012
  0
LINE
  8
_0-5_5
  6
PLINE2
 62
    3
 10
436.13958599999989
 20
113.45921400000012
 11
434.19466399999999
 21
112.35591200000002
  0
LINE
  8
_0-5_5
  6
PLINE2
 62
    3
 10
434.29933599999993
 20
110.35865400000003
 11
436.29659400000003
 21
110.46332600000008
  0
LINE
  8
_0-5_5
  6
PLINE2
 62
    3
 10
434.19466399999999
 20
112.35591200000002
 11
434.29933599999993
 21
110.35865400000003
  0
LINE
  8
_0-7_7
  6
CONTINUOUS
 62
    4
 10
423.64999999999986
 20
262.68329799999998
 11
423.64999999999986
 21
162.25000000000003
  0
LINE
  8
_0-7_7
  6
CONTINUOUS
 62
    4
 10
438.64999999999998
 20
262.68329799999998
 11
438.64999999999998
 21
162.25000000000003
  0
LINE
  8
_0-5_5
  6
CONTINUOUS
 62
    4
 10
430.85000000000002
 20
157.25000000000003
 11
431.14999999999998
 21
156.95000000000007
  0
LINE
  8
_0-5_5
  6
CONTINUOUS
 62
    4
 10
431.14999999999998
 20
156.95000000000007
 11
431.44999999999982
 21
157.25000000000003
  0
LINE
  8
_0-5_5
  6
CONTINUOUS
 62
    4
 10
440.94999999999993
 20
145.5500000000001
 11
440.94999999999993
 21
171.95000000000007
  0
LINE
  8
_0-5_5
  6
CONTINUOUS
 62
    4
 10
428.64999999999986
 20
157.25000000000003
 11
428.64999999999986
 21
155.25000000000003
  0
LINE
  8
_0-5_5
  6
CONTINUOUS
 62
    4
 10
433.64999999999998
 20
157.25000000000003
 11
433.64999999999998
 21
155.25000000000003
  0
LINE
  8
_0-5_5
  6
CONTINUOUS
 62
    4
 10
421.35000000000002
 20
184.95000000000007
 11
421.35000000000002
 21
145.5500000000001
  0
LINE
  8
_0-5_5
  6
CONTINUOUS
 62
    4
 10
429.14999999999998
 20
148.25000000000003
 11
433.14999999999998
 21
148.25000000000003
  0
LINE
  8
_0-5_5
  6
CONTINUOUS
 62
    4
 10
431.14999999999998
 20
144.95000000000007
 11
431.44999999999982
 21
145.25000000000003
  0
LINE
  8
_0-5_5
  6
CONTINUOUS
 62
    4
 10
430.85000000000002
 20
145.25000000000003
 11
431.44999999999982
 21
145.25000000000003
  0
LINE
  8
_0-5_5
  6
CONTINUOUS
 62
    4
 10
425.89999999999986
 20
143.45000000000007
 11
436.39999999999998
 21
143.45000000000007
  0
LINE
  8
_0-5_5
  6
CONTINUOUS
 62
    4
 10
423.14999999999998
 20
155.25000000000003
 11
439.14999999999998
 21
155.25000000000003
  0
LINE
  8
_0-5_5
  6
PLINE2
 62
    3
 10
431.64999999999998
 20
132.25000000000003
 11
431.14999999999998
 21
132.25000000000003
  0
LINE
  8
_0-5_5
  6
PLINE2
 62
    3
 10
432.14999999999986
 20
140.25000000000003
 11
431.14999999999998
 21
135.25000000000003
  0
LINE
  8
_0-5_5
  6
PLINE2
 62
    3
 10
431.14999999999998
 20
135.25000000000003
 11
431.14999999999998
 21
140.25000000000003
  0
LINE
  8
_0-5_5
  6
PLINE2
 62
    3
 10
430.14999999999998
 20
140.25000000000003
 11
431.14999999999998
 21
135.25000000000003
  0
LINE
  8
_0-5_5
  6
PLINE2
 62
    3
 10
426.14999999999998
 20
140.25000000000003
 11
427.14999999999998
 21
135.25000000000003
  0
LINE
  8
_0-5_5
  6
PLINE2
 62
    3
 10
427.14999999999998
 20
140.25000000000003
 11
427.14999999999998
 21
132.25000000000003
  0
LINE
  8
_0-5_5
  6
PLINE2
 62
    3
 10
428.89037599999983
 20
127.33535600000008
 11
428.78570400000001
 21
125.33809600000009
  0
LINE
  8
_0-5_5
  6
PLINE2
 62
    3
 10
428.78570400000001
 20
125.33809600000009
 11
426.78844599999991
 21
125.44276800000003
  0
LINE
  8
_0-5_5
  6
PLINE2
 62
    3
 10
424.83139999999992
 20
125.10760000000008
 11
423.83904399999983
 21
131.91122200000009
  0
LINE
  8
_0-5_5
  6
PLINE2
 62
    3
 10
426.78844599999991
 20
125.44276800000003
 11
426.68377399999997
 21
123.44551000000004
  0
LINE
  8
_0-5_5
  6
PLINE2
 62
    3
 10
427.59094399999992
 20
120.44962000000012
 11
425.77109199999973
 21
125.44962000000012
  0
LINE
  8
_0-5_5
  6
PLINE2
 62
    3
 10
426.52676600000007
 20
120.44962000000012
 11
426.4220939999999
 21
118.45236200000002
  0
LINE
  8
_0-5_5
  6
PLINE2
 62
    3
 10
426.4220939999999
 20
118.45236200000002
 11
428.36701600000004
 21
117.34906000000004
  0
LINE
  8
_0-5_5
  6
PLINE2
 62
    3
 10
428.26234399999976
 20
115.35180200000005
 11
426.265086
 21
115.4564740000001
  0
LINE
  8
_0-5_5
  6
PLINE2
 62
    3
 10
428.36701600000004
 20
117.34906000000004
 11
428.26234399999976
 21
115.35180200000005
  0
LINE
  8
_0-5_5
  6
PLINE2
 62
    3
 10
426.68377399999997
 20
123.44551000000004
 11
428.62869599999988
 21
122.34220800000006
  0
LINE
  8
_0-5_5
  6
PLINE2
 62
    3
 10
428.52402399999983
 20
120.34494800000007
 11
426.52676600000007
 21
120.44962000000012
  0
LINE
  8
_0-5_5
  6
PLINE2
 62
    3
 10
426.52676600000007
 20
120.44962000000012
 11
424.83139999999992
 21
125.10760000000008
  0
LINE
  8
_0-5_5
  6
PLINE2
 62
    3
 10
428.62869599999988
 20
122.34220800000006
 11
428.52402399999983
 21
120.34494800000007
  0
LINE
  8
_0-5_5
  6
PLINE2
 62
    3
 10
424.82765999999992
 20
132.05364200000011
 11
425.77109199999973
 21
125.44962000000012
  0
LINE
  8
_0-5_5
  6
PLINE2
 62
    3
 10
427.14999999999998
 20
128.25000000000003
 11
427.14999999999998
 21
132.25000000000003
  0
LINE
  8
_0-5_5
  6
PLINE2
 62
    3
 10
427.14999999999998
 20
128.25000000000003
 11
428.89037599999983
 21
127.33535600000008
  0
ARC
  8
_0-5_5
  6
PLINE2
 62
    3
 10
424.23485599999992
 20
131.96895400000008
 40
0.4
 50
98.130101999997805
 51
188.29846599999979
  0
LINE
  8
_0-5_5
  6
PLINE2
 62
    3
 10
424.17828799999995
 20
132.36493400000009
 11
424.37511200000006
 21
132.39305200000004
  0
ARC
  8
_0-5_5
  6
PLINE2
 62
    3
 10
424.43168000000003
 20
131.99707200000003
 40
0.4
 50
8.1301020000014788
 51
98.130101999997805
  0
LINE
  8
_0-5_5
  6
PLINE2
 62
    3
 10
430.64999999999998
 20
132.25000000000003
 11
431.14999999999998
 21
132.25000000000003
  0
LINE
  8
_0-5_5
  6
CONTINUOUS
 62
    4
 10
425.39999999999998
 20
145.25000000000003
 11
425.39999999999998
 21
154.95000000000007
  0
LINE
  8
_0-5_5
  6
CONTINUOUS
 62
    4
 10
423.89999999999998
 20
150.25000000000003
 11
423.89999999999998
 21
145.25000000000003
  0
ARC
  8
_0-5_5
  6
CONTINUOUS
 62
    4
 10
429.14999999999998
 20
146.25000000000003
 40
2
 50
90
 51
180
  0
LINE
  8
_0-5_5
  6
CONTINUOUS
 62
    4
 10
423.89999999999998
 20
148.25000000000003
 11
423.20681000000002
 21
145.47723800000009
  0
ARC
  8
_0-5_5
  6
CONTINUOUS
 62
    4
 10
423.69999999999982
 20
144.95000000000007
 40
0.2999999999999999
 50
90
 51
180
  0
LINE
  8
_0-5_5
  6
CONTINUOUS
 62
    4
 10
418.69999999999982
 20
140.25000000000003
 11
425.10000000000002
 21
140.25000000000003
  0
LINE
  8
_0-5_5
  6
CONTINUOUS
 62
    4
 10
418.39999999999986
 20
141.45000000000007
 11
418.39999999999986
 21
140.5500000000001
  0
ARC
  8
_0-5_5
  6
CONTINUOUS
 62
    4
 10
418.69999999999982
 20
140.5500000000001
 40
0.2999999999999999
 50
180
 51
270
  0
LINE
  8
_0-5_5
  6
CONTINUOUS
 62
    4
 10
423.39999999999998
 20
141.75000000000003
 11
418.69999999999982
 21
141.75000000000003
  0
ARC
  8
_0-5_5
  6
CONTINUOUS
 62
    4
 10
418.69999999999982
 20
141.45000000000007
 40
0.2999999999999999
 50
90
 51
180
  0
LINE
  8
_0-5_5
  6
CONTINUOUS
 62
    4
 10
423.39999999999998
 20
141.75000000000003
 11
423.39999999999998
 21
144.95000000000007
  0
ARC
  8
_0-5_5
  6
CONTINUOUS
 62
    4
 10
421.64999999999998
 20
145.5500000000001
 40
0.2999999999999999
 50
180
 51
270
  0
ARC
  8
_0-5_5
  6
CONTINUOUS
 62
    4
 10
422.91576799999984
 20
145.5500000000001
 40
0.2999999999999999
 50
270
 51
345.963756999998
  0
LINE
  8
_0-5_5
  6
CONTINUOUS
 62
    4
 10
421.64999999999998
 20
145.25000000000003
 11
422.91576799999984
 21
145.25000000000003
  0
LINE
  8
_0-5_5
  6
CONTINUOUS
 62
    3
 10
429.14999999999998
 20
143.45000000000007
 11
429.14999999999998
 21
140.25000000000003
  0
LINE
  8
_0-5_5
  6
CONTINUOUS
 62
    4
 10
425.39999999999998
 20
142.95000000000007
 11
425.39999999999998
 21
140.5500000000001
  0
ARC
  8
_0-5_5
  6
CONTINUOUS
 62
    4
 10
425.10000000000002
 20
140.5500000000001
 40
0.2999999999999999
 50
270
 51
0
  0
LINE
  8
_0-5_5
  6
CONTINUOUS
 62
    4
 10
430.85000000000002
 20
145.25000000000003
 11
425.39999999999998
 21
145.25000000000003
  0
ARC
  8
_0-5_5
  6
CONTINUOUS
 62
    4
 10
425.89999999999986
 20
142.95000000000007
 40
0.5
 50
90
 51
180
  0
LINE
  8
_0-5_5
  6
CONTINUOUS
 62
    4
 10
423.89999999999998
 20
145.25000000000003
 11
423.69999999999982
 21
145.25000000000003
  0
LINE
  8
_0-5_5
  6
CONTINUOUS
 62
    4
 10
427.14999999999998
 20
146.25000000000003
 11
427.14999999999998
 21
145.25000000000003
  0
LINE
  8
_0-5_5
  6
CONTINUOUS
 62
    4
 10
430.85000000000002
 20
145.25000000000003
 11
431.14999999999998
 21
144.95000000000007
  0
ARC
  8
_0-5_5
  6
CONTINUOUS
 62
    4
 10
423.69999999999982
 20
150.5500000000001
 40
0.2999999999999999
 50
180
 51
270
  0
LINE
  8
_0-5_5
  6
CONTINUOUS
 62
    4
 10
423.39999999999998
 20
153.25000000000003
 11
423.84318999999982
 21
155.02276000000009
  0
LINE
  8
_0-5_5
  6
CONTINUOUS
 62
    4
 10
423.44999999999982
 20
155.25000000000003
 11
425.44999999999982
 21
155.25000000000003
  0
LINE
  8
_0-5_5
  6
CONTINUOUS
 62
    4
 10
423.14999999999998
 20
149.75000000000003
 11
423.60000000000002
 21
149.75000000000003
  0
LINE
  8
_0-5_5
  6
CONTINUOUS
 62
    4
 10
423.39999999999998
 20
153.25000000000003
 11
423.39999999999998
 21
150.5500000000001
  0
LINE
  8
_0-5_5
  6
CONTINUOUS
 62
    4
 10
423.14999999999998
 20
155.25000000000003
 11
423.14999999999998
 21
149.75000000000003
  0
LINE
  8
_0-5_5
  6
CONTINUOUS
 62
    4
 10
423.89999999999998
 20
150.25000000000003
 11
423.69999999999982
 21
150.25000000000003
  0
ARC
  8
_0-5_5
  6
CONTINUOUS
 62
    4
 10
423.60000000000002
 20
149.45000000000007
 40
0.2999999999999999
 50
0
 51
90
  0
LINE
  8
_0-5_5
  6
CONTINUOUS
 62
    4
 10
423.89999999999998
 20
148.25000000000003
 11
423.89999999999998
 21
149.45000000000007
  0
ARC
  8
_0-5_5
  6
CONTINUOUS
 62
    4
 10
424.13423399999999
 20
154.95000000000007
 40
0.2999999999999999
 50
90
 51
165.963756999998
  0
ARC
  8
_0-5_5
  6
CONTINUOUS
 62
    4
 10
425.10000000000002
 20
154.95000000000007
 40
0.2999999999999999
 50
0
 51
90
  0
LINE
  8
_0-5_5
  6
CONTINUOUS
 62
    4
 10
424.13423399999999
 20
155.25000000000003
 11
425.10000000000002
 21
155.25000000000003
  0
LINE
  8
_0-5_5
  6
PLINE2
 62
    3
 10
436.14999999999986
 20
140.25000000000003
 11
435.14999999999998
 21
135.25000000000003
  0
LINE
  8
_0-5_5
  6
PLINE2
 62
    3
 10
435.14999999999998
 20
140.25000000000003
 11
435.14999999999998
 21
132.25000000000003
  0
LINE
  8
_0-5_5
  6
PLINE2
 62
    3
 10
437.46860199999992
 20
125.10760000000008
 11
438.46095600000001
 21
131.91122200000009
  0
LINE
  8
_0-5_5
  6
PLINE2
 62
    3
 10
437.46860199999992
 20
125.10760000000008
 11
438.46095600000001
 21
131.91122200000009
  0
LINE
  8
_0-5_5
  6
PLINE2
 62
    3
 10
435.62046799999985
 20
123.36458000000007
 11
435.51155600000004
 21
125.44276800000003
  0
LINE
  8
_0-5_5
  6
PLINE2
 62
    3
 10
433.40962400000001
 20
127.33535600000008
 11
433.51429599999994
 21
125.33809600000009
  0
LINE
  8
_0-5_5
  6
PLINE2
 62
    3
 10
433.51429599999994
 20
125.33809600000009
 11
435.51155600000004
 21
125.44276800000003
  0
LINE
  8
_0-5_5
  6
PLINE2
 62
    3
 10
434.70905800000003
 20
120.44962000000012
 11
436.52890799999977
 21
125.44962000000012
  0
LINE
  8
_0-5_5
  6
PLINE2
 62
    3
 10
435.77323599999988
 20
120.44962000000012
 11
435.87790800000005
 21
118.45236200000002
  0
LINE
  8
_0-5_5
  6
PLINE2
 62
    3
 10
435.87790800000005
 20
118.45236200000002
 11
433.93298399999992
 21
117.34906000000004
  0
LINE
  8
_0-5_5
  6
PLINE2
 62
    3
 10
434.03765599999974
 20
115.35180200000005
 11
436.03491399999984
 21
115.4564740000001
  0
LINE
  8
_0-5_5
  6
PLINE2
 62
    3
 10
433.93298399999992
 20
117.34906000000004
 11
434.03765599999974
 21
115.35180200000005
  0
LINE
  8
_0-5_5
  6
PLINE2
 62
    3
 10
435.42707999999993
 20
123.26294600000008
 11
433.68670599999984
 21
122.34830200000013
  0
LINE
  8
_0-5_5
  6
PLINE2
 62
    3
 10
433.77597600000001
 20
120.34494800000007
 11
435.77323599999988
 21
120.44962000000012
  0
LINE
  8
_0-5_5
  6
PLINE2
 62
    3
 10
433.68670599999984
 20
122.34830200000013
 11
435.62046799999985
 21
123.36458000000007
  0
LINE
  8
_0-5_5
  6
PLINE2
 62
    3
 10
433.67130399999974
 20
122.34220800000006
 11
433.77597600000001
 21
120.34494800000007
  0
LINE
  8
_0-5_5
  6
PLINE2
 62
    3
 10
435.77323599999988
 20
120.44962000000012
 11
437.46860199999992
 21
125.10760000000008
  0
LINE
  8
_0-5_5
  6
PLINE2
 62
    3
 10
435.14999999999998
 20
128.25000000000003
 11
435.14999999999998
 21
132.25000000000003
  0
LINE
  8
_0-5_5
  6
PLINE2
 62
    3
 10
437.47233999999992
 20
132.05364200000011
 11
436.52890799999977
 21
125.44962000000012
  0
LINE
  8
_0-5_5
  6
PLINE2
 62
    3
 10
437.47233999999992
 20
132.05364200000011
 11
436.52890799999977
 21
125.44962000000012
  0
LINE
  8
_0-5_5
  6
PLINE2
 62
    3
 10
435.14999999999998
 20
128.25000000000003
 11
433.40962400000001
 21
127.33535600000008
  0
ARC
  8
_0-5_5
  6
PLINE2
 62
    3
 10
438.06514399999992
 20
131.96895400000008
 40
0.4
 50
351.70153400000004
 51
81.869898000002237
  0
LINE
  8
_0-5_5
  6
PLINE2
 62
    3
 10
438.121712
 20
132.36493400000009
 11
437.9248879999999
 21
132.39305200000004
  0
ARC
  8
_0-5_5
  6
PLINE2
 62
    3
 10
437.86831999999993
 20
131.99707200000003
 40
0.4
 50
81.869898000002209
 51
171.86989799999853
  0
ARC
  8
_0-5_5
  6
PLINE2
 62
    3
 10
438.06514399999992
 20
131.96895400000008
 40
0.4
 50
351.70153400000004
 51
81.869898000002237
  0
LINE
  8
_0-5_5
  6
PLINE2
 62
    3
 10
438.121712
 20
132.36493400000009
 11
437.9248879999999
 21
132.39305200000004
  0
ARC
  8
_0-5_5
  6
PLINE2
 62
    3
 10
437.86831999999993
 20
131.99707200000003
 40
0.4
 50
81.869898000002209
 51
171.86989799999853
  0
LINE
  8
_0-5_5
  6
CONTINUOUS
 62
    4
 10
438.39999999999986
 20
150.25000000000003
 11
438.39999999999986
 21
145.25000000000003
  0
LINE
  8
_0-5_5
  6
CONTINUOUS
 62
    4
 10
436.89999999999998
 20
145.25000000000003
 11
436.89999999999998
 21
154.95000000000007
  0
LINE
  8
_0-5_5
  6
CONTINUOUS
 62
    4
 10
438.39999999999986
 20
148.25000000000003
 11
439.09318999999982
 21
145.47723800000009
  0
ARC
  8
_0-5_5
  6
CONTINUOUS
 62
    4
 10
433.14999999999998
 20
146.25000000000003
 40
2
 50
0
 51
90
  0
ARC
  8
_0-5_5
  6
CONTINUOUS
 62
    4
 10
438.60000000000002
 20
144.95000000000007
 40
0.2999999999999999
 50
0
 51
90
  0
ARC
  8
_0-5_5
  6
CONTINUOUS
 62
    4
 10
438.60000000000002
 20
140.5500000000001
 40
0.2999999999999999
 50
270
 51
0
  0
LINE
  8
_0-5_5
  6
CONTINUOUS
 62
    4
 10
436.89999999999998
 20
142.95000000000007
 11
436.89999999999998
 21
140.5500000000001
  0
LINE
  8
_0-5_5
  6
CONTINUOUS
 62
    3
 10
433.14999999999998
 20
143.45000000000007
 11
433.14999999999998
 21
140.25000000000003
  0
ARC
  8
_0-5_5
  6
CONTINUOUS
 62
    4
 10
437.19999999999982
 20
140.5500000000001
 40
0.2999999999999999
 50
180
 51
270
  0
LINE
  8
_0-5_5
  6
CONTINUOUS
 62
    4
 10
437.19999999999982
 20
140.25000000000003
 11
438.60000000000002
 21
140.25000000000003
  0
LINE
  8
_0-5_5
  6
CONTINUOUS
 62
    4
 10
436.89999999999998
 20
145.25000000000003
 11
431.44999999999982
 21
145.25000000000003
  0
LINE
  8
_0-5_5
  6
CONTINUOUS
 62
    4
 10
438.39999999999986
 20
145.25000000000003
 11
438.60000000000002
 21
145.25000000000003
  0
ARC
  8
_0-5_5
  6
CONTINUOUS
 62
    4
 10
436.39999999999998
 20
142.95000000000007
 40
0.5
 50
0
 51
90
  0
LINE
  8
_0-5_5
  6
CONTINUOUS
 62
    4
 10
435.14999999999998
 20
146.25000000000003
 11
435.14999999999998
 21
145.25000000000003
  0
LINE
  8
_0-5_5
  6
CONTINUOUS
 62
    4
 10
438.89999999999986
 20
140.5500000000001
 11
438.89999999999986
 21
144.95000000000007
  0
ARC
  8
_0-5_5
  6
CONTINUOUS
 62
    4
 10
439.38423399999999
 20
145.5500000000001
 40
0.2999999999999999
 50
194.03624300000192
 51
270
  0
ARC
  8
_0-5_5
  6
CONTINUOUS
 62
    4
 10
440.64999999999986
 20
145.5500000000001
 40
0.2999999999999999
 50
270
 51
0
  0
LINE
  8
_0-5_5
  6
CONTINUOUS
 62
    4
 10
439.38423399999999
 20
145.25000000000003
 11
440.64999999999986
 21
145.25000000000003
  0
ARC
  8
_0-5_5
  6
CONTINUOUS
 62
    4
 10
438.60000000000002
 20
150.5500000000001
 40
0.2999999999999999
 50
270
 51
0
  0
LINE
  8
_0-5_5
  6
CONTINUOUS
 62
    4
 10
438.89999999999986
 20
153.25000000000003
 11
438.45681000000002
 21
155.02276000000009
  0
LINE
  8
_0-5_5
  6
CONTINUOUS
 62
    4
 10
439.14999999999998
 20
149.75000000000003
 11
438.69999999999993
 21
149.75000000000003
  0
LINE
  8
_0-5_5
  6
CONTINUOUS
 62
    4
 10
436.85000000000002
 20
155.25000000000003
 11
438.85000000000002
 21
155.25000000000003
  0
LINE
  8
_0-5_5
  6
CONTINUOUS
 62
    4
 10
438.39999999999986
 20
150.25000000000003
 11
438.60000000000002
 21
150.25000000000003
  0
ARC
  8
_0-5_5
  6
CONTINUOUS
 62
    4
 10
438.69999999999993
 20
149.45000000000007
 40
0.2999999999999999
 50
90
 51
180
  0
LINE
  8
_0-5_5
  6
CONTINUOUS
 62
    4
 10
438.39999999999986
 20
148.25000000000003
 11
438.39999999999986
 21
149.45000000000007
  0
ARC
  8
_0-5_5
  6
CONTINUOUS
 62
    4
 10
438.16576799999984
 20
154.95000000000007
 40
0.2999999999999999
 50
14.03624300000194
 51
90
  0
ARC
  8
_0-5_5
  6
CONTINUOUS
 62
    4
 10
437.19999999999982
 20
154.95000000000007
 40
0.2999999999999999
 50
90
 51
180
  0
LINE
  8
_0-5_5
  6
CONTINUOUS
 62
    4
 10
438.16576799999984
 20
155.25000000000003
 11
437.19999999999982
 21
155.25000000000003
  0
LINE
  8
_0-5_5
  6
CONTINUOUS
 62
    4
 10
438.89999999999986
 20
153.25000000000003
 11
438.89999999999986
 21
150.5500000000001
  0
LINE
  8
_0-5_5
  6
CONTINUOUS
 62
    4
 10
439.14999999999998
 20
155.25000000000003
 11
439.14999999999998
 21
149.75000000000003
  0
LINE
  8
_0-7_7
  6
CONTINUOUS
 62
    4
 10
423.64999999999986
 20
162.25000000000003
 11
438.64999999999998
 21
162.25000000000003
  0
LINE
  8
_0-5_5
  6
CONTINUOUS
 62
    4
 10
422.85000000000002
 20
183.75000000000003
 11
422.85000000000002
 21
173.25000000000003
  0
LINE
  8
_0-5_5
  6
CONTINUOUS
 62
    4
 10
423.14999999999998
 20
172.95000000000007
 11
423.14999999999998
 21
162.25000000000003
  0
LINE
  8
_0-5_5
  6
CONTINUOUS
 62
    4
 10
423.14999999999998
 20
162.25000000000003
 11
426.14999999999998
 21
162.25000000000003
  0
LINE
  8
_0-5_5
  6
CONTINUOUS
 62
    4
 10
426.14999999999998
 20
160.75000000000003
 11
423.14999999999998
 21
160.75000000000003
  0
LINE
  8
_0-5_5
  6
CONTINUOUS
 62
    4
 10
423.14999999999998
 20
157.25000000000003
 11
430.85000000000002
 21
157.25000000000003
  0
LINE
  8
_0-5_5
  6
CONTINUOUS
 62
    4
 10
423.14999999999998
 20
160.75000000000003
 11
423.14999999999998
 21
157.25000000000003
  0
LINE
  8
_0-5_5
  6
CONTINUOUS
 62
    4
 10
426.14999999999998
 20
162.25000000000003
 11
426.14999999999998
 21
160.75000000000003
  0
ARC
  8
_0-5_5
  6
CONTINUOUS
 62
    4
 10
422.85000000000002
 20
172.95000000000007
 40
0.2999999999999999
 50
0
 51
90
  0
LINE
  8
_0-5_5
  6
CONTINUOUS
 62
    4
 10
423.14999999999998
 20
184.0500000000001
 11
423.14999999999998
 21
184.95000000000007
  0
ARC
  8
_0-5_5
  6
CONTINUOUS
 62
    4
 10
421.64999999999998
 20
184.95000000000007
 40
0.2999999999999999
 50
90
 51
180
  0
ARC
  8
_0-5_5
  6
CONTINUOUS
 62
    4
 10
422.85000000000002
 20
184.95000000000007
 40
0.2999999999999999
 50
0
 51
90
  0
LINE
  8
_0-5_5
  6
CONTINUOUS
 62
    4
 10
422.85000000000002
 20
185.25000000000003
 11
421.64999999999998
 21
185.25000000000003
  0
ARC
  8
_0-5_5
  6
CONTINUOUS
 62
    4
 10
422.85000000000002
 20
184.0500000000001
 40
0.2999999999999999
 50
270
 51
0
  0
LINE
  8
_0-5_5
  6
CONTINUOUS
 62
    4
 10
439.14999999999998
 20
162.25000000000003
 11
439.14999999999998
 21
171.95000000000007
  0
LINE
  8
_0-5_5
  6
CONTINUOUS
 62
    4
 10
439.14999999999998
 20
162.25000000000003
 11
436.14999999999986
 21
162.25000000000003
  0
LINE
  8
_0-5_5
  6
CONTINUOUS
 62
    4
 10
436.14999999999986
 20
160.75000000000003
 11
439.14999999999998
 21
160.75000000000003
  0
LINE
  8
_0-5_5
  6
CONTINUOUS
 62
    4
 10
431.44999999999982
 20
157.25000000000003
 11
439.14999999999998
 21
157.25000000000003
  0
LINE
  8
_0-5_5
  6
CONTINUOUS
 62
    4
 10
436.14999999999986
 20
162.25000000000003
 11
436.14999999999986
 21
160.75000000000003
  0
LINE
  8
_0-5_5
  6
CONTINUOUS
 62
    4
 10
439.14999999999998
 20
157.25000000000003
 11
439.14999999999998
 21
160.75000000000003
  0
ARC
  8
_0-5_5
  6
CONTINUOUS
 62
    4
 10
439.44999999999982
 20
171.95000000000007
 40
0.2999999999999999
 50
90
 51
180
  0
LINE
  8
_0-5_5
  6
CONTINUOUS
 62
    4
 10
439.44999999999982
 20
172.25000000000003
 11
440.64999999999986
 21
172.25000000000003
  0
ARC
  8
_0-5_5
  6
CONTINUOUS
 62
    4
 10
440.64999999999986
 20
171.95000000000007
 40
0.2999999999999999
 50
0
 51
90
  0
LINE
  8
_0-5_5
  6
CONTINUOUS
 62
    4
 10
423.64999999999986
 20
379.44999999999993
 11
423.64999999999986
 21
364.55000000000007
  0
LINE
  8
_0-5_5
  6
CONTINUOUS
 62
    4
 10
421.85000000000002
 20
371.94999999999993
 11
421.85000000000002
 21
364.55000000000007
  0
LINE
  8
_0-5_5
  6
CONTINUOUS
 62
    4
 10
441.04999999999973
 20
363.45000000000005
 11
441.04999999999973
 21
384.44999999999993
  0
LINE
  8
_0-5_5
  6
CONTINUOUS
 62
    4
 10
439.85000000000002
 20
363.45000000000005
 11
439.85000000000002
 21
384.44999999999993
  0
LINE
  8
_0-5_5
  6
CONTINUOUS
 62
    3
 10
439.85000000000002
 20
381.95000000000005
 11
439.85000000000002
 21
363.94999999999999
  0
LINE
  8
_0-5_5
  6
CONTINUOUS
 62
    3
 10
439.04999999999973
 20
363.94999999999999
 11
439.04999999999973
 21
381.15000000000009
  0
LINE
  8
_0-6_6
  6
CONTINUOUS
 62
    4
 10
458.64999999999998
 20
422.75
 11
458.64999999999998
 21
347.75
  0
LINE
  8
_0-6_6
  6
CONTINUOUS
 62
    4
 10
457.14999999999986
 20
354.75
 11
457.14999999999986
 21
421.44905600000004
  0
LINE
  8
_0-6_6
  6
CONTINUOUS
 62
    4
 10
456.64999999999998
 20
420.38529800000003
 11
456.64999999999998
 21
350.90000000000009
  0
LINE
  8
_0-6_6
  6
CONTINUOUS
 62
    4
 10
454.35000000000002
 20
418.3964860000001
 11
454.35000000000002
 21
350.90000000000009
  0
ARC
  8
_0-5_5
  6
CONTINUOUS
 62
    4
 10
423.35000000000002
 20
364.55000000000007
 40
0.2999999999999999
 50
270
 51
0
  0
LINE
  8
_0-5_5
  6
CONTINUOUS
 62
    4
 10
422.14999999999998
 20
364.25
 11
423.35000000000002
 21
364.25
  0
ARC
  8
_0-5_5
  6
CONTINUOUS
 62
    4
 10
422.14999999999998
 20
364.55000000000007
 40
0.2999999999999999
 50
180
 51
270
  0
ARC
  8
_0-5_5
  6
CONTINUOUS
 62
    4
 10
439.14999999999998
 20
362.55000000000007
 40
0.2999999999999999
 50
180
 51
270
  0
ARC
  8
_0-5_5
  6
CONTINUOUS
 62
    4
 10
439.14999999999998
 20
363.15000000000009
 40
0.2999999999999999
 50
90
 51
180
  0
LINE
  8
_0-5_5
  6
CONTINUOUS
 62
    4
 10
442.04999999999984
 20
362.55000000000007
 11
442.04999999999984
 21
363.15000000000009
  0
LINE
  8
_0-5_5
  6
CONTINUOUS
 62
    4
 10
438.85000000000002
 20
363.15000000000009
 11
438.85000000000002
 21
362.55000000000007
  0
ARC
  8
_0-5_5
  6
CONTINUOUS
 62
    4
 10
441.74999999999989
 20
362.55000000000007
 40
0.2999999999999999
 50
270
 51
0
  0
LINE
  8
_0-5_5
  6
CONTINUOUS
 62
    4
 10
439.14999999999998
 20
362.25
 11
441.74999999999989
 21
362.25
  0
ARC
  8
_0-5_5
  6
CONTINUOUS
 62
    4
 10
441.74999999999989
 20
363.15000000000009
 40
0.2999999999999999
 50
0
 51
90
  0
LINE
  8
_0-5_5
  6
CONTINUOUS
 62
    4
 10
441.04999999999973
 20
363.45000000000005
 11
441.74999999999989
 21
363.45000000000005
  0
LINE
  8
_0-5_5
  6
CONTINUOUS
 62
    4
 10
439.85000000000002
 20
363.45000000000005
 11
439.14999999999998
 21
363.45000000000005
  0
LINE
  8
_0-5_5
  6
CONTINUOUS
 62
    3
 10
439.85000000000002
 20
363.94999999999999
 11
439.04999999999973
 21
363.94999999999999
  0
LINE
  8
_0-6_6
  6
CONTINUOUS
 62
    4
 10
454.35000000000002
 20
353.75
 11
452.85000000000002
 21
353.75
  0
ARC
  8
_0-6_6
  6
CONTINUOUS
 62
    4
 10
455.85000000000002
 20
350.75
 40
3
 50
180
 51
270
  0
LINE
  8
_0-6_6
  6
CONTINUOUS
 62
    4
 10
452.85000000000002
 20
350.75
 11
452.85000000000002
 21
353.75
  0
LINE
  8
_0-6_6
  6
CONTINUOUS
 62
    4
 10
455.85000000000002
 20
347.75
 11
458.64999999999998
 21
347.75
  0
ARC
  8
_0-6_6
  6
CONTINUOUS
 62
    4
 10
455.49999999999989
 20
350.90000000000009
 40
1.149999999999999
 50
180
 51
0
  0
LINE
  8
_0-6_6
  6
CONTINUOUS
 62
    4
 10
457.14999999999986
 20
354.75
 11
456.64999999999998
 21
354.75
  0
LINE
  8
_0-5_5
  6
CONTINUOUS
 62
    4
 10
432.85000000000002
 20
409.25
 11
432.85000000000002
 21
410.25
  0
LINE
  8
_0-5_5
  6
CONTINUOUS
 62
    4
 10
420.85000000000002
 20
410.25
 11
420.85000000000002
 21
409.25
  0
LINE
  8
_0-5_5
  6
CONTINUOUS
 62
    4
 10
433.35000000000002
 20
404.44999999999993
 11
430.64999999999998
 21
404.44999999999993
  0
LINE
  8
_0-5_5
  6
CONTINUOUS
 62
    4
 10
420.85000000000002
 20
404.44999999999993
 11
432.85000000000002
 21
404.44999999999993
  0
LINE
  8
_0-5_5
  6
CONTINUOUS
 62
    4
 10
432.85000000000002
 20
403.45000000000005
 11
420.85000000000002
 21
403.45000000000005
  0
LINE
  8
_0-5_5
  6
CONTINUOUS
 62
    4
 10
432.85000000000002
 20
409.25
 11
420.85000000000002
 21
409.25
  0
LINE
  8
_0-5_5
  6
CONTINUOUS
 62
    3
 10
431.64999999999998
 20
391.44999999999993
 11
430.14999999999998
 21
395.44999999999993
  0
LINE
  8
_0-5_5
  6
CONTINUOUS
 62
    3
 10
431.51709999999991
 20
394.94999999999993
 11
430.65789999999993
 21
394.94999999999993
  0
LINE
  8
_0-5_5
  6
CONTINUOUS
 62
    3
 10
430.65789999999993
 20
394.94999999999993
 11
431.78290000000004
 21
391.94999999999993
  0
LINE
  8
_0-5_5
  6
CONTINUOUS
 62
    3
 10
431.64999999999998
 20
391.44999999999993
 11
431.14209999999991
 21
391.94999999999993
  0
LINE
  8
_0-5_5
  6
CONTINUOUS
 62
    4
 10
421.64999999999998
 20
397.75
 11
432.04999999999973
 21
397.75
  0
LINE
  8
_0-5_5
  6
CONTINUOUS
 62
    4
 10
431.35000000000002
 20
399.30000000000007
 11
422.35000000000002
 21
399.30000000000007
  0
LINE
  8
_0-5_5
  6
CONTINUOUS
 62
    4
 10
439.04999999999973
 20
406.25
 11
430.64999999999998
 21
406.25
  0
LINE
  8
_0-7_7
  6
CONTINUOUS
 62
    4
 10
423.64999999999986
 20
374.25
 11
438.64999999999998
 21
374.25
  0
LINE
  8
_0-5_5
  6
CONTINUOUS
 62
    7
 10
439.85000000000002
 20
381.95000000000005
 11
421.85000000000002
 21
381.95000000000005
  0
LINE
  8
_0-5_5
  6
CONTINUOUS
 62
    3
 10
421.85000000000002
 20
381.95000000000005
 11
439.85000000000002
 21
381.95000000000005
  0
LINE
  8
_0-5_5
  6
CONTINUOUS
 62
    3
 10
422.64999999999998
 20
381.15000000000009
 11
439.04999999999973
 21
381.15000000000009
  0
LINE
  8
_0-5_5
  6
CONTINUOUS
 62
    4
 10
431.85000000000002
 20
395.94999999999993
 11
419.14999999999998
 21
395.94999999999993
  0
LINE
  8
_0-2_2
  6
PLINE3
 62
    3
 10
418.96661199999983
 20
393.44999999999993
 11
441.61233000000004
 21
393.44999999999993
  0
LINE
  8
_0-5_5
  6
CONTINUOUS
 62
    4
 10
417.35000000000002
 20
372.25
 11
417.35000000000002
 21
397.44999999999993
  0
LINE
  8
_0-5_5
  6
CONTINUOUS
 62
    4
 10
419.14999999999998
 20
373.94999999999993
 11
419.14999999999998
 21
395.94999999999993
  0
LINE
  8
_0-5_5
  6
CONTINUOUS
 62
    4
 10
422.64999999999998
 20
373.94999999999993
 11
422.64999999999998
 21
379.44999999999993
  0
LINE
  8
_0-5_5
  6
CONTINUOUS
 62
    3
 10
421.85000000000002
 20
381.95000000000005
 11
421.85000000000002
 21
373.94999999999993
  0
LINE
  8
_0-5_5
  6
CONTINUOUS
 62
    3
 10
422.64999999999998
 20
373.94999999999993
 11
422.64999999999998
 21
381.15000000000009
  0
LINE
  8
_0-5_5
  6
CONTINUOUS
 62
    4
 10
421.85000000000002
 20
371.94999999999993
 11
417.64999999999998
 21
371.94999999999993
  0
ARC
  8
_0-5_5
  6
CONTINUOUS
 62
    4
 10
417.64999999999998
 20
372.25
 40
0.2999999999999999
 50
180
 51
270
  0
LINE
  8
_0-5_5
  6
CONTINUOUS
 62
    4
 10
422.64999999999998
 20
373.94999999999993
 11
419.14999999999998
 21
373.94999999999993
  0
LINE
  8
_0-5_5
  6
CONTINUOUS
 62
    3
 10
421.85000000000002
 20
373.94999999999993
 11
422.64999999999998
 21
373.94999999999993
  0
ARC
  8
_0-5_5
  6
CONTINUOUS
 62
    4
 10
423.14999999999998
 20
379.44999999999993
 40
0.5
 50
0
 51
180
  0
LINE
  8
_0-5_5
  6
CONTINUOUS
 62
    4
 10
418.54999999999973
 20
404.44999999999993
 11
414.64999999999998
 21
404.44999999999993
  0
LINE
  8
_0-5_5
  6
CONTINUOUS
 62
    4
 10
423.04999999999973
 20
406.25
 11
414.64999999999998
 21
406.25
  0
LINE
  8
_0-5_5
  6
CONTINUOUS
 62
    4
 10
414.35000000000002
 20
405.94999999999993
 11
414.35000000000002
 21
404.75
  0
ARC
  8
_0-5_5
  6
CONTINUOUS
 62
    4
 10
414.64999999999998
 20
404.75
 40
0.2999999999999999
 50
180
 51
270
  0
ARC
  8
_0-5_5
  6
CONTINUOUS
 62
    4
 10
414.64999999999998
 20
405.94999999999993
 40
0.2999999999999999
 50
90
 51
180
  0
LINE
  8
_0-5_5
  6
PLINE2
 62
    3
 10
414.35000000000002
 20
409.25
 11
414.35000000000002
 21
406.25
  0
LINE
  8
_0-5_5
  6
CONTINUOUS
 62
    4
 10
419.85000000000002
 20
400.45000000000005
 11
419.85000000000002
 21
397.75
  0
LINE
  8
_0-5_5
  6
CONTINUOUS
 62
    4
 10
421.64999999999998
 20
397.75
 11
421.64999999999998
 21
401.94999999999993
  0
LINE
  8
_0-5_5
  6
CONTINUOUS
 62
    4
 10
426.85000000000002
 20
403.45000000000005
 11
426.85000000000002
 21
399.30000000000007
  0
LINE
  8
_0-5_5
  6
CONTINUOUS
 62
    4
 10
426.85000000000002
 20
403.45000000000005
 11
426.85000000000002
 21
399.30000000000007
  0
LINE
  8
_0-5_5
  6
CONTINUOUS
 62
    4
 10
422.35000000000002
 20
399.30000000000007
 11
421.85000000000002
 21
399.80000000000007
  0
LINE
  8
_0-5_5
  6
CONTINUOUS
 62
    3
 10
424.14999999999986
 20
394.94999999999993
 11
422.64999999999998
 21
393.44999999999993
  0
LINE
  8
_0-5_5
  6
CONTINUOUS
 62
    3
 10
422.64999999999998
 20
393.44999999999993
 11
424.14999999999986
 21
391.94999999999993
  0
LINE
  8
_0-5_5
  6
CONTINUOUS
 62
    3
 10
428.64999999999986
 20
391.94999999999993
 11
422.64999999999998
 21
393.44999999999993
  0
LINE
  8
_0-5_5
  6
CONTINUOUS
 62
    4
 10
419.85000000000002
 20
397.75
 11
417.64999999999998
 21
397.75
  0
ARC
  8
_0-5_5
  6
CONTINUOUS
 62
    4
 10
417.64999999999998
 20
397.44999999999993
 40
0.2999999999999999
 50
90
 51
180
  0
LINE
  8
_0-5_5
  6
CONTINUOUS
 62
    3
 10
428.64999999999986
 20
391.94999999999993
 11
428.64999999999986
 21
394.59559800000011
  0
LINE
  8
_0-5_5
  6
CONTINUOUS
 62
    3
 10
431.14209999999991
 20
391.94999999999993
 11
430.01709999999991
 21
394.94999999999993
  0
LINE
  8
_0-5_5
  6
CONTINUOUS
 62
    3
 10
429.15789999999993
 20
394.94999999999993
 11
430.28289999999993
 21
391.94999999999993
  0
LINE
  8
_0-5_5
  6
CONTINUOUS
 62
    3
 10
429.64209999999991
 20
391.94999999999993
 11
428.51709999999991
 21
394.94999999999993
  0
LINE
  8
_0-5_5
  6
CONTINUOUS
 62
    3
 10
430.14999999999998
 20
391.44999999999993
 11
428.64999999999986
 21
395.44999999999993
  0
LINE
  8
_0-5_5
  6
CONTINUOUS
 62
    3
 10
424.14999999999986
 20
394.94999999999993
 11
424.14999999999986
 21
393.07500000000005
  0
LINE
  8
_0-5_5
  6
CONTINUOUS
 62
    3
 10
424.14999999999986
 20
391.94999999999993
 11
428.64999999999986
 21
391.94999999999993
  0
LINE
  8
_0-5_5
  6
CONTINUOUS
 62
    3
 10
428.51709999999991
 20
391.94999999999993
 11
428.64999999999986
 21
391.44999999999993
  0
LINE
  8
_0-5_5
  6
CONTINUOUS
 62
    3
 10
428.64999999999986
 20
391.44999999999993
 11
429.15789999999993
 21
391.94999999999993
  0
LINE
  8
_0-5_5
  6
CONTINUOUS
 62
    3
 10
431.14209999999991
 20
391.94999999999993
 11
430.28289999999993
 21
391.94999999999993
  0
LINE
  8
_0-5_5
  6
CONTINUOUS
 62
    3
 10
429.64209999999991
 20
391.94999999999993
 11
428.64999999999986
 21
391.94999999999993
  0
LINE
  8
_0-5_5
  6
CONTINUOUS
 62
    3
 10
430.28289999999993
 20
391.94999999999993
 11
430.14999999999998
 21
391.44999999999993
  0
LINE
  8
_0-5_5
  6
CONTINUOUS
 62
    3
 10
430.14999999999998
 20
391.44999999999993
 11
429.64209999999991
 21
391.94999999999993
  0
LINE
  8
_0-5_5
  6
CONTINUOUS
 62
    3
 10
428.51709999999991
 20
394.94999999999993
 11
424.14999999999986
 21
394.94999999999993
  0
LINE
  8
_0-5_5
  6
CONTINUOUS
 62
    3
 10
429.96249999999998
 20
394.94999999999993
 11
429.15789999999993
 21
394.94999999999993
  0
LINE
  8
_0-5_5
  6
CONTINUOUS
 62
    3
 10
430.01709999999991
 20
394.94999999999993
 11
430.14999999999998
 21
395.44999999999993
  0
LINE
  8
_0-5_5
  6
CONTINUOUS
 62
    3
 10
430.14999999999998
 20
395.44999999999993
 11
430.65789999999993
 21
394.94999999999993
  0
LINE
  8
_0-5_5
  6
CONTINUOUS
 62
    3
 10
428.51709999999991
 20
394.94999999999993
 11
428.64999999999986
 21
395.44999999999993
  0
LINE
  8
_0-5_5
  6
CONTINUOUS
 62
    3
 10
428.64999999999986
 20
395.44999999999993
 11
429.15789999999993
 21
394.94999999999993
  0
LINE
  8
_0-5_5
  6
CONTINUOUS
 62
    4
 10
423.35000000000002
 20
404.75
 11
423.35000000000002
 21
405.94999999999993
  0
LINE
  8
_0-5_5
  6
CONTINUOUS
 62
    4
 10
419.85000000000002
 20
400.45000000000005
 11
418.85000000000002
 21
400.45000000000005
  0
ARC
  8
_0-5_5
  6
CONTINUOUS
 62
    4
 10
418.85000000000002
 20
400.75
 40
0.2999999999999999
 50
180
 51
270
  0
LINE
  8
_0-5_5
  6
CONTINUOUS
 62
    4
 10
418.54999999999973
 20
404.44999999999993
 11
418.54999999999973
 21
400.75
  0
ARC
  8
_0-5_5
  6
CONTINUOUS
 62
    4
 10
423.04999999999973
 20
404.75
 40
0.2999999999999999
 50
270
 51
0
  0
LINE
  8
_0-5_5
  6
CONTINUOUS
 62
    4
 10
420.35000000000002
 20
404.44999999999993
 11
423.04999999999973
 21
404.44999999999993
  0
LINE
  8
_0-5_5
  6
CONTINUOUS
 62
    4
 10
420.35000000000002
 20
402.25
 11
420.35000000000002
 21
404.44999999999993
  0
LINE
  8
_0-5_5
  6
CONTINUOUS
 62
    4
 10
420.35000000000002
 20
402.25
 11
421.35000000000002
 21
402.25
  0
ARC
  8
_0-5_5
  6
CONTINUOUS
 62
    4
 10
421.35000000000002
 20
401.94999999999993
 40
0.2999999999999999
 50
0
 51
90
  0
LINE
  8
_0-5_5
  6
CONTINUOUS
 62
    4
 10
420.85000000000002
 20
403.45000000000005
 11
420.85000000000002
 21
404.44999999999993
  0
LINE
  8
_0-5_5
  6
CONTINUOUS
 62
    4
 10
421.85000000000002
 20
399.80000000000007
 11
421.85000000000002
 21
403.45000000000005
  0
ARC
  8
_0-5_5
  6
CONTINUOUS
 62
    4
 10
423.04999999999973
 20
405.94999999999993
 40
0.2999999999999999
 50
0
 51
90
  0
LINE
  8
_0-5_5
  6
CONTINUOUS
 62
    3
 10
429.60000000000002
 20
406.25
 11
429.60000000000002
 21
404.44999999999993
  0
LINE
  8
_0-5_5
  6
CONTINUOUS
 62
    4
 10
430.10000000000002
 20
406.25
 11
430.10000000000002
 21
404.44999999999993
  0
LINE
  8
_0-5_5
  6
CONTINUOUS
 62
    4
 10
430.35000000000002
 20
405.94999999999993
 11
430.35000000000002
 21
404.75
  0
LINE
  8
_0-5_5
  6
CONTINUOUS
 62
    3
 10
424.10000000000002
 20
406.25
 11
424.10000000000002
 21
404.44999999999993
  0
LINE
  8
_0-5_5
  6
CONTINUOUS
 62
    4
 10
423.60000000000002
 20
406.25
 11
423.60000000000002
 21
404.44999999999993
  0
ARC
  8
_0-5_5
  6
CONTINUOUS
 62
    4
 10
430.64999999999998
 20
404.75
 40
0.2999999999999999
 50
180
 51
270
  0
ARC
  8
_0-5_5
  6
CONTINUOUS
 62
    4
 10
430.64999999999998
 20
405.94999999999993
 40
0.2999999999999999
 50
90
 51
180
  0
LINE
  8
_0-5_5
  6
CONTINUOUS
 62
    4
 10
435.04999999999973
 20
393.25
 11
435.04999999999973
 21
385.75
  0
LINE
  8
_0-5_5
  6
CONTINUOUS
 62
    4
 10
433.85000000000002
 20
400.45000000000005
 11
433.85000000000002
 21
384.75
  0
LINE
  8
_0-5_5
  6
CONTINUOUS
 62
    4
 10
435.04999999999973
 20
385.75
 11
442.24999999999989
 21
385.75
  0
LINE
  8
_0-5_5
  6
CONTINUOUS
 62
    4
 10
439.85000000000002
 20
384.44999999999993
 11
434.14999999999998
 21
384.44999999999993
  0
ARC
  8
_0-5_5
  6
CONTINUOUS
 62
    4
 10
434.14999999999998
 20
384.75
 40
0.2999999999999999
 50
180
 51
270
  0
ARC
  8
_0-5_5
  6
CONTINUOUS
 62
    4
 10
442.24999999999989
 20
385.44999999999993
 40
0.2999999999999999
 50
0
 51
90
  0
ARC
  8
_0-5_5
  6
CONTINUOUS
 62
    4
 10
442.24999999999989
 20
384.75
 40
0.2999999999999999
 50
270
 51
0
  0
LINE
  8
_0-5_5
  6
CONTINUOUS
 62
    4
 10
442.54999999999984
 20
384.75
 11
442.54999999999984
 21
385.44999999999993
  0
LINE
  8
_0-5_5
  6
CONTINUOUS
 62
    4
 10
441.04999999999973
 20
384.44999999999993
 11
442.24999999999989
 21
384.44999999999993
  0
LINE
  8
_0-5_5
  6
CONTINUOUS
 62
    4
 10
435.04999999999973
 20
393.65000000000009
 11
435.04999999999973
 21
400.15000000000009
  0
LINE
  8
_0-5_5
  6
CONTINUOUS
 62
    4
 10
432.04999999999973
 20
397.75
 11
432.04999999999973
 21
401.94999999999993
  0
LINE
  8
_0-5_5
  6
CONTINUOUS
 62
    4
 10
431.85000000000002
 20
399.80000000000007
 11
431.35000000000002
 21
399.30000000000007
  0
LINE
  8
_0-5_5
  6
CONTINUOUS
 62
    3
 10
435.04999999999973
 20
389.935428
 11
435.04999999999973
 21
397.02253999999994
  0
ARC
  8
_0-5_5
  6
CONTINUOUS
 62
    3
 10
428.31663399999991
 20
393.43484000000001
 40
9.33338
 50
2.4562860000007301
 51
16.025697000000228
  0
LINE
  8
_0-5_5
  6
CONTINUOUS
 62
    4
 10
431.85000000000002
 20
395.94999999999993
 11
431.85000000000002
 21
390.25
  0
LINE
  8
_0-5_5
  6
CONTINUOUS
 62
    3
 10
434.14209999999991
 20
391.94999999999993
 11
433.01709999999991
 21
394.94999999999993
  0
LINE
  8
_0-5_5
  6
CONTINUOUS
 62
    3
 10
433.65789999999993
 20
394.94999999999993
 11
434.78289999999993
 21
391.94999999999993
  0
LINE
  8
_0-5_5
  6
CONTINUOUS
 62
    3
 10
434.64999999999998
 20
391.44999999999993
 11
433.14999999999998
 21
395.44999999999993
  0
LINE
  8
_0-5_5
  6
CONTINUOUS
 62
    3
 10
433.14999999999998
 20
391.44999999999993
 11
431.64999999999998
 21
395.44999999999993
  0
LINE
  8
_0-5_5
  6
CONTINUOUS
 62
    3
 10
432.15790000000004
 20
394.94999999999993
 11
433.28289999999993
 21
391.94999999999993
  0
LINE
  8
_0-5_5
  6
CONTINUOUS
 62
    3
 10
432.64209999999991
 20
391.94999999999993
 11
431.51709999999991
 21
394.94999999999993
  0
LINE
  8
_0-5_5
  6
CONTINUOUS
 62
    4
 10
434.85000000000002
 20
393.44999999999993
 11
435.04999999999973
 21
393.65000000000009
  0
LINE
  8
_0-5_5
  6
CONTINUOUS
 62
    4
 10
434.85000000000002
 20
393.44999999999993
 11
435.04999999999973
 21
393.25
  0
LINE
  8
_0-5_5
  6
CONTINUOUS
 62
    3
 10
435.04999999999973
 20
391.94999999999993
 11
434.78289999999993
 21
391.94999999999993
  0
ARC
  8
_0-5_5
  6
CONTINUOUS
 62
    4
 10
432.14999999999986
 20
390.25
 40
0.2999999999999999
 50
180
 51
270
  0
ARC
  8
_0-5_5
  6
CONTINUOUS
 62
    4
 10
433.54999999999973
 20
390.25
 40
0.2999999999999999
 50
270
 51
0
  0
LINE
  8
_0-5_5
  6
CONTINUOUS
 62
    4
 10
432.14999999999986
 20
389.95000000000005
 11
433.54999999999973
 21
389.95000000000005
  0
LINE
  8
_0-5_5
  6
CONTINUOUS
 62
    4
 10
433.85000000000002
 20
393.15000000000009
 11
433.54999999999973
 21
393.44999999999993
  0
LINE
  8
_0-5_5
  6
CONTINUOUS
 62
    4
 10
433.54999999999973
 20
393.44999999999993
 11
433.85000000000002
 21
393.75
  0
LINE
  8
_0-5_5
  6
CONTINUOUS
 62
    3
 10
434.64999999999998
 20
391.44999999999993
 11
434.14209999999991
 21
391.94999999999993
  0
LINE
  8
_0-5_5
  6
CONTINUOUS
 62
    3
 10
434.78289999999993
 20
391.94999999999993
 11
434.64999999999998
 21
391.44999999999993
  0
LINE
  8
_0-5_5
  6
CONTINUOUS
 62
    3
 10
434.14209999999991
 20
391.94999999999993
 11
433.28289999999993
 21
391.94999999999993
  0
LINE
  8
_0-5_5
  6
CONTINUOUS
 62
    3
 10
432.64209999999991
 20
391.94999999999993
 11
431.78290000000004
 21
391.94999999999993
  0
LINE
  8
_0-5_5
  6
CONTINUOUS
 62
    3
 10
431.78290000000004
 20
391.94999999999993
 11
431.64999999999998
 21
391.44999999999993
  0
LINE
  8
_0-5_5
  6
CONTINUOUS
 62
    3
 10
433.28289999999993
 20
391.94999999999993
 11
433.14999999999998
 21
391.44999999999993
  0
LINE
  8
_0-5_5
  6
CONTINUOUS
 62
    3
 10
433.14999999999998
 20
391.44999999999993
 11
432.64209999999991
 21
391.94999999999993
  0
LINE
  8
_0-5_5
  6
CONTINUOUS
 62
    3
 10
434.64999999999998
 20
391.44999999999993
 11
434.14209999999991
 21
391.94999999999993
  0
LINE
  8
_0-5_5
  6
CONTINUOUS
 62
    3
 10
436.25000599999987
 20
393.83484200000009
 11
437.64143799999999
 21
393.83484200000009
  0
LINE
  8
_0-5_5
  6
CONTINUOUS
 62
    3
 10
436.25000599999987
 20
393.03483800000004
 11
436.25000599999987
 21
393.83484200000009
  0
LINE
  8
_0-5_5
  6
CONTINUOUS
 62
    3
 10
437.64143799999999
 20
393.03483800000004
 11
436.25000599999987
 21
393.03483800000004
  0
LINE
  8
_0-5_5
  6
CONTINUOUS
 62
    3
 10
436.25000599999987
 20
390.04041599999994
 11
435.04999999999973
 21
389.935428
  0
ARC
  8
_0-5_5
  6
CONTINUOUS
 62
    3
 10
436.09527999999989
 20
391.29839000000004
 40
1.266672
 50
274.99999999999977
 51
344.64198099999987
  0
ARC
  8
_0-5_5
  6
CONTINUOUS
 62
    3
 10
428.31663399999991
 20
393.43484000000001
 40
9.33338
 50
344.64208000000048
 51
357.54371399999923
  0
LINE
  8
_0-5_5
  6
CONTINUOUS
 62
    3
 10
435.04999999999973
 20
394.94999999999993
 11
433.65789999999993
 21
394.94999999999993
  0
LINE
  8
_0-5_5
  6
CONTINUOUS
 62
    3
 10
433.14999999999998
 20
395.44999999999993
 11
433.65789999999993
 21
394.94999999999993
  0
LINE
  8
_0-5_5
  6
CONTINUOUS
 62
    3
 10
433.01709999999991
 20
394.94999999999993
 11
433.14999999999998
 21
395.44999999999993
  0
LINE
  8
_0-5_5
  6
CONTINUOUS
 62
    3
 10
433.01709999999991
 20
394.94999999999993
 11
432.15790000000004
 21
394.94999999999993
  0
LINE
  8
_0-5_5
  6
CONTINUOUS
 62
    3
 10
431.51709999999991
 20
394.94999999999993
 11
431.64999999999998
 21
395.44999999999993
  0
LINE
  8
_0-5_5
  6
CONTINUOUS
 62
    3
 10
431.64999999999998
 20
395.44999999999993
 11
432.15790000000004
 21
394.94999999999993
  0
LINE
  8
_0-5_5
  6
CONTINUOUS
 62
    3
 10
436.25000599999987
 20
396.91560000000004
 11
435.04999999999973
 21
397.02253999999994
  0
ARC
  8
_0-5_5
  6
CONTINUOUS
 62
    3
 10
436.06985199999997
 20
395.66180400000007
 40
1.266672
 50
16.025697000000228
 51
84.999989000003481
  0
LINE
  8
_0-5_5
  6
CONTINUOUS
 62
    4
 10
435.14999999999998
 20
404.44999999999993
 11
439.04999999999973
 21
404.44999999999993
  0
ARC
  8
_0-5_5
  6
CONTINUOUS
 62
    4
 10
434.85000000000002
 20
400.75
 40
0.2999999999999999
 50
270
 51
0
  0
ARC
  8
_0-5_5
  6
CONTINUOUS
 62
    4
 10
434.74999999999977
 20
400.15000000000009
 40
0.2999999999999999
 50
0
 51
90
  0
LINE
  8
_0-5_5
  6
CONTINUOUS
 62
    4
 10
433.35000000000002
 20
402.25
 11
433.35000000000002
 21
404.44999999999993
  0
ARC
  8
_0-5_5
  6
CONTINUOUS
 62
    4
 10
432.35000000000002
 20
401.94999999999993
 40
0.2999999999999999
 50
90
 51
180
  0
LINE
  8
_0-5_5
  6
CONTINUOUS
 62
    4
 10
433.35000000000002
 20
402.25
 11
432.35000000000002
 21
402.25
  0
ARC
  8
_0-5_5
  6
CONTINUOUS
 62
    4
 10
434.14999999999998
 20
400.15000000000009
 40
0.2999999999999999
 50
90
 51
180
  0
LINE
  8
_0-5_5
  6
CONTINUOUS
 62
    4
 10
434.14999999999998
 20
400.45000000000005
 11
434.74999999999977
 21
400.45000000000005
  0
LINE
  8
_0-5_5
  6
CONTINUOUS
 62
    4
 10
432.85000000000002
 20
404.44999999999993
 11
432.85000000000002
 21
403.45000000000005
  0
LINE
  8
_0-5_5
  6
CONTINUOUS
 62
    4
 10
431.85000000000002
 20
403.45000000000005
 11
431.85000000000002
 21
399.80000000000007
  0
LINE
  8
_0-5_5
  6
CONTINUOUS
 62
    4
 10
433.85000000000002
 20
400.45000000000005
 11
434.85000000000002
 21
400.45000000000005
  0
LINE
  8
_0-5_5
  6
CONTINUOUS
 62
    4
 10
435.14999999999998
 20
404.44999999999993
 11
435.14999999999998
 21
400.75
  0
LINE
  8
_0-5_5
  6
PLINE2
 62
    3
 10
434.35000000000002
 20
409.25
 11
434.35000000000002
 21
406.25
  0
LINE
  8
_0-5_5
  6
CONTINUOUS
 62
    4
 10
439.35000000000002
 20
404.75
 11
439.35000000000002
 21
405.94999999999993
  0
ARC
  8
_0-5_5
  6
CONTINUOUS
 62
    4
 10
439.04999999999973
 20
404.75
 40
0.2999999999999999
 50
270
 51
0
  0
ARC
  8
_0-5_5
  6
CONTINUOUS
 62
    4
 10
439.04999999999973
 20
405.94999999999993
 40
0.2999999999999999
 50
0
 51
90
  0
LINE
  8
_0-5_5
  6
CONTINUOUS
 62
    4
 10
441.85000000000002
 20
406.25
 11
441.85000000000002
 21
409.25
  0
LINE
  8
_0-5_5
  6
CONTINUOUS
 62
    4
 10
431.85000000000002
 20
410.25
 11
421.85000000000002
 21
410.25
  0
LINE
  8
_0-5_5
  6
CONTINUOUS
 62
    4
 10
432.85000000000002
 20
410.25
 11
420.85000000000002
 21
410.25
  0
LINE
  8
_0-5_5
  6
CONTINUOUS
 62
    4
 10
422.35000000000002
 20
414.40000000000009
 11
431.35000000000002
 21
414.40000000000009
  0
LINE
  8
_0-5_5
  6
CONTINUOUS
 62
    4
 10
421.85000000000002
 20
410.25
 11
421.85000000000002
 21
413.90000000000009
  0
LINE
  8
_0-5_5
  6
CONTINUOUS
 62
    4
 10
421.85000000000002
 20
413.90000000000009
 11
422.35000000000002
 21
414.40000000000009
  0
LINE
  8
_0-5_5
  6
CONTINUOUS
 62
    3
 10
429.60000000000002
 20
416.44999999999993
 11
429.60000000000002
 21
414.40000000000009
  0
LINE
  8
_0-5_5
  6
CONTINUOUS
 62
    4
 10
430.10000000000002
 20
415.94999999999993
 11
430.10000000000002
 21
414.40000000000009
  0
LINE
  8
_0-5_5
  6
CONTINUOUS
 62
    3
 10
424.10000000000002
 20
416.44999999999993
 11
424.10000000000002
 21
414.40000000000009
  0
LINE
  8
_0-5_5
  6
CONTINUOUS
 62
    4
 10
423.60000000000002
 20
415.94999999999993
 11
423.60000000000002
 21
414.40000000000009
  0
LINE
  8
_0-5_5
  6
CONTINUOUS
 62
    4
 10
426.85000000000002
 20
414.40000000000009
 11
426.85000000000002
 21
410.25
  0
LINE
  8
_0-5_5
  6
CONTINUOUS
 62
    3
 10
430.10000000000002
 20
415.94999999999993
 11
423.60000000000002
 21
415.94999999999993
  0
LINE
  8
_0-5_5
  6
CONTINUOUS
 62
    4
 10
429.60000000000002
 20
416.44999999999993
 11
424.10000000000002
 21
416.44999999999993
  0
LINE
  8
_0-5_5
  6
CONTINUOUS
 62
    4
 10
424.10000000000002
 20
416.44999999999993
 11
423.60000000000002
 21
415.94999999999993
  0
LINE
  8
_0-5_5
  6
CONTINUOUS
 62
    4
 10
429.60000000000002
 20
416.44999999999993
 11
430.10000000000002
 21
415.94999999999993
  0
LINE
  8
_0-5_5
  6
CONTINUOUS
 62
    4
 10
431.85000000000002
 20
413.90000000000009
 11
431.85000000000002
 21
410.25
  0
LINE
  8
_0-5_5
  6
CONTINUOUS
 62
    4
 10
431.35000000000002
 20
414.40000000000009
 11
431.85000000000002
 21
413.90000000000009
  0
ARC
  8
_0-6_6
  6
CONTINUOUS
 62
    4
 10
453.35000000000002
 20
418.3964860000001
 40
1
 50
0
 51
81.69999999999439
  0
LINE
  8
_0-3_3
  6
CONTINUOUS
 62
    4
 10
406.85000000000002
 20
464.25
 11
406.85000000000002
 21
514.25
  0
INSERT
  2
-001-_D78
  8
_0-2_2
 10
-259.97497749948673
 20
111.55262931940459
 41
0.25
 42
0.25
 50
0
  0
INSERT
  2
-002-_D79
  8
_0-2_2
 10
-259.97497749948673
 20
111.55262931940459
 41
0.25
 42
0.25
 50
0
  0
INSERT
  2
-003-_D80
  8
_0-2_2
 10
-259.97497749948673
 20
111.55262931940459
 41
0.25
 42
0.25
 50
0
  0
INSERT
  2
-004-_D81
  8
_0-2_2
 10
-259.97497749948673
 20
111.55262931940459
 41
0.25
 42
0.25
 50
0
  0
INSERT
  2
-005-_D82
  8
_0-2_2
 10
-259.97497749948673
 20
111.55262931940459
 41
0.25
 42
0.25
 50
0
  0
INSERT
  2
-006-_D83
  8
_0-2_2
 10
-259.97497749948673
 20
111.55262931940459
 41
0.25
 42
0.25
 50
0
  0
INSERT
  2
-007-_D84
  8
_0-2_2
 10
-259.97497749948673
 20
111.55262931940459
 41
0.25
 42
0.25
 50
0
  0
INSERT
  2
-008-_D85
  8
_0-2_2
 10
-259.97497749948673
 20
111.55262931940459
 41
0.25
 42
0.25
 50
0
  0
INSERT
  2
-009-_D86
  8
_0-2_2
 10
-259.97497749948673
 20
111.55262931940459
 41
0.25
 42
0.25
 50
0
  0
INSERT
  2
-010-_D87
  8
_0-2_2
 10
-259.97497749948673
 20
111.55262931940459
 41
0.25
 42
0.25
 50
0
  0
INSERT
  2
-011-_D88
  8
_0-2_2
 10
-259.97497749948673
 20
111.55262931940459
 41
0.25
 42
0.25
 50
0
  0
INSERT
  2
-012-_D89
  8
_0-2_2
 10
-259.97497749948673
 20
111.55262931940459
 41
0.25
 42
0.25
 50
0
  0
INSERT
  2
-013-_D90
  8
_0-2_2
 10
-259.97497749948673
 20
111.55262931940459
 41
0.25
 42
0.25
 50
0
  0
INSERT
  2
-014-_D91
  8
_0-2_2
 10
-259.97497749948673
 20
111.55262931940459
 41
0.25
 42
0.25
 50
0
  0
INSERT
  2
-015-_D92
  8
_0-2_2
 10
-259.97497749948673
 20
111.55262931940459
 41
0.25
 42
0.25
 50
0
  0
INSERT
  2
-016-_D93
  8
_0-2_2
 10
-259.97497749948673
 20
111.55262931940459
 41
0.25
 42
0.25
 50
0
  0
ENDSEC
  0
EOF
