  0
SECTION
  2
HEADER
  9
$ACADVER
  1
AC1015
  9
$ACADMAINTVER
 70
    20
  9
$DWGCODEPAGE
  3
ANSI_932
  9
$INSBASE
 10
0.0
 20
0.0
 30
0.0
  9
$EXTMIN
 10
1213.770347655196
 20
463.3730149009907
 30
-0.0000000349181948
  9
$EXTMAX
 10
5845.720960283055
 20
2621.819933167202
 30
0.0000000814935746
  9
$LIMMIN
 10
0.0
 20
0.0
  9
$LIMMAX
 10
420.0
 20
297.0
  9
$ORTHOMODE
 70
     0
  9
$REGENMODE
 70
     1
  9
$FILLMODE
 70
     1
  9
$QTEXTMODE
 70
     0
  9
$MIRRTEXT
 70
     1
  9
$LTSCALE
 40
1.0
  9
$ATTMODE
 70
     1
  9
$TEXTSIZE
 40
5.0
  9
$TRACEWID
 40
0.05
  9
$TEXTSTYLE
  7
ACAD
  9
$CLAYER
  8
0
  9
$CELTYPE
  6
CONTINUOUS
  9
$CECOLOR
 62
   256
  9
$CELTSCALE
 40
1.0
  9
$DISPSILH
 70
     0
  9
$DIMSCALE
 40
1.0
  9
$DIMASZ
 40
1.0
  9
$DIMEXO
 40
0.0
  9
$DIMDLI
 40
0.38
  9
$DIMRND
 40
0.0
  9
$DIMDLE
 40
0.0
  9
$DIMEXE
 40
0.0
  9
$DIMTP
 40
0.0
  9
$DIMTM
 40
0.0
  9
$DIMTXT
 40
5.0
  9
$DIMCEN
 40
0.09
  9
$DIMTSZ
 40
0.0
  9
$DIMTOL
 70
     0
  9
$DIMLIM
 70
     0
  9
$DIMTIH
 70
     0
  9
$DIMTOH
 70
     1
  9
$DIMSE1
 70
     0
  9
$DIMSE2
 70
     0
  9
$DIMTAD
 70
     1
  9
$DIMZIN
 70
     0
  9
$DIMBLK
  1
Dot
  9
$DIMASO
 70
     1
  9
$DIMSHO
 70
     1
  9
$DIMPOST
  1

  9
$DIMAPOST
  1

  9
$DIMALT
 70
     0
  9
$DIMALTD
 70
     2
  9
$DIMALTF
 40
25.4
  9
$DIMLFAC
 40
1.0
  9
$DIMTOFL
 70
     0
  9
$DIMTVP
 40
0.0
  9
$DIMTIX
 70
     1
  9
$DIMSOXD
 70
     0
  9
$DIMSAH
 70
     0
  9
$DIMBLK1
  1

  9
$DIMBLK2
  1

  9
$DIMSTYLE
  2
AutoCAD
  9
$DIMCLRD
 70
     4
  9
$DIMCLRE
 70
     4
  9
$DIMCLRT
 70
     3
  9
$DIMTFAC
 40
1.0
  9
$DIMGAP
 40
1.0
  9
$DIMJUST
 70
     0
  9
$DIMSD1
 70
     0
  9
$DIMSD2
 70
     0
  9
$DIMTOLJ
 70
     1
  9
$DIMTZIN
 70
     0
  9
$DIMALTZ
 70
     0
  9
$DIMALTTZ
 70
     0
  9
$DIMUPT
 70
     0
  9
$DIMDEC
 70
     0
  9
$DIMTDEC
 70
     0
  9
$DIMALTU
 70
     2
  9
$DIMALTTD
 70
     2
  9
$DIMTXSTY
  7
ACAD
  9
$DIMAUNIT
 70
     0
  9
$DIMADEC
 70
     0
  9
$DIMALTRND
 40
0.0
  9
$DIMAZIN
 70
     0
  9
$DIMDSEP
 70
    46
  9
$DIMATFIT
 70
     0
  9
$DIMFRAC
 70
     0
  9
$DIMLDRBLK
  1
None
  9
$DIMLUNIT
 70
     2
  9
$DIMLWD
 70
    -2
  9
$DIMLWE
 70
    -2
  9
$DIMTMOVE
 70
     0
  9
$LUNITS
 70
     2
  9
$LUPREC
 70
     4
  9
$SKETCHINC
 40
0.1
  9
$FILLETRAD
 40
0.0
  9
$AUNITS
 70
     0
  9
$AUPREC
 70
     0
  9
$MENU
  1
.
  9
$ELEVATION
 40
0.0
  9
$PELEVATION
 40
0.0
  9
$THICKNESS
 40
0.0
  9
$LIMCHECK
 70
     0
  9
$CHAMFERA
 40
0.0
  9
$CHAMFERB
 40
0.0
  9
$CHAMFERC
 40
0.0
  9
$CHAMFERD
 40
0.0
  9
$SKPOLY
 70
     0
  9
$TDCREATE
 40
2454316.693457674
  9
$TDUCREATE
 40
2454316.318457674
  9
$TDUPDATE
 40
2454743.486742257
  9
$TDUUPDATE
 40
2454743.111742257
  9
$TDINDWG
 40
0.2455992824
  9
$TDUSRTIMER
 40
0.2455992824
  9
$USRTIMER
 70
     1
  9
$ANGBASE
 50
0.0
  9
$ANGDIR
 70
     0
  9
$PDMODE
 70
     0
  9
$PDSIZE
 40
0.0
  9
$PLINEWID
 40
0.0
  9
$SPLFRAME
 70
     0
  9
$SPLINETYPE
 70
     6
  9
$SPLINESEGS
 70
     8
  9
$HANDSEED
  5
7059
  9
$SURFTAB1
 70
     6
  9
$SURFTAB2
 70
     6
  9
$SURFTYPE
 70
     6
  9
$SURFU
 70
     6
  9
$SURFV
 70
     6
  9
$UCSBASE
  2

  9
$UCSNAME
  2

  9
$UCSORG
 10
0.0
 20
0.0
 30
0.0
  9
$UCSXDIR
 10
1.0
 20
0.0
 30
0.0
  9
$UCSYDIR
 10
0.0
 20
1.0
 30
0.0
  9
$UCSORTHOREF
  2

  9
$UCSORTHOVIEW
 70
     0
  9
$UCSORGTOP
 10
0.0
 20
0.0
 30
0.0
  9
$UCSORGBOTTOM
 10
0.0
 20
0.0
 30
0.0
  9
$UCSORGLEFT
 10
0.0
 20
0.0
 30
0.0
  9
$UCSORGRIGHT
 10
0.0
 20
0.0
 30
0.0
  9
$UCSORGFRONT
 10
0.0
 20
0.0
 30
0.0
  9
$UCSORGBACK
 10
0.0
 20
0.0
 30
0.0
  9
$PUCSBASE
  2

  9
$PUCSNAME
  2

  9
$PUCSORG
 10
0.0
 20
0.0
 30
0.0
  9
$PUCSXDIR
 10
1.0
 20
0.0
 30
0.0
  9
$PUCSYDIR
 10
0.0
 20
1.0
 30
0.0
  9
$PUCSORTHOREF
  2

  9
$PUCSORTHOVIEW
 70
     0
  9
$PUCSORGTOP
 10
0.0
 20
0.0
 30
0.0
  9
$PUCSORGBOTTOM
 10
0.0
 20
0.0
 30
0.0
  9
$PUCSORGLEFT
 10
0.0
 20
0.0
 30
0.0
  9
$PUCSORGRIGHT
 10
0.0
 20
0.0
 30
0.0
  9
$PUCSORGFRONT
 10
0.0
 20
0.0
 30
0.0
  9
$PUCSORGBACK
 10
0.0
 20
0.0
 30
0.0
  9
$USERI1
 70
     0
  9
$USERI2
 70
     0
  9
$USERI3
 70
     0
  9
$USERI4
 70
     0
  9
$USERI5
 70
     0
  9
$USERR1
 40
0.0
  9
$USERR2
 40
0.0
  9
$USERR3
 40
0.0
  9
$USERR4
 40
0.0
  9
$USERR5
 40
0.0
  9
$WORLDVIEW
 70
     1
  9
$SHADEDGE
 70
     3
  9
$SHADEDIF
 70
    70
  9
$TILEMODE
 70
     1
  9
$MAXACTVP
 70
    48
  9
$PINSBASE
 10
0.0
 20
0.0
 30
0.0
  9
$PLIMCHECK
 70
     0
  9
$PEXTMIN
 10
1.000000000000000E+20
 20
1.000000000000000E+20
 30
1.000000000000000E+20
  9
$PEXTMAX
 10
-1.000000000000000E+20
 20
-1.000000000000000E+20
 30
-1.000000000000000E+20
  9
$PLIMMIN
 10
0.0
 20
0.0
  9
$PLIMMAX
 10
12.0
 20
9.0
  9
$UNITMODE
 70
     0
  9
$VISRETAIN
 70
     0
  9
$PLINEGEN
 70
     0
  9
$PSLTSCALE
 70
     1
  9
$TREEDEPTH
 70
  3020
  9
$CMLSTYLE
  2
Standard
  9
$CMLJUST
 70
     0
  9
$CMLSCALE
 40
1.0
  9
$PROXYGRAPHICS
 70
     1
  9
$MEASUREMENT
 70
     0
  9
$CELWEIGHT
370
    -1
  9
$ENDCAPS
280
     0
  9
$JOINSTYLE
280
     0
  9
$LWDISPLAY
290
     0
  9
$INSUNITS
 70
     0
  9
$HYPERLINKBASE
  1

  9
$STYLESHEET
  1

  9
$XEDIT
290
     1
  9
$CEPSNTYPE
380
     0
  9
$PSTYLEMODE
290
     1
  9
$FINGERPRINTGUID
  2
{CC7D6DEE-A9F1-4F3E-AC95-C84B62CCA3FD}
  9
$VERSIONGUID
  2
{715E0452-FB20-4DD7-95C7-B8CCBB7ABE01}
  9
$EXTNAMES
290
     1
  9
$PSVPSCALE
 40
0.0
  9
$OLESTARTUP
290
     0
  0
ENDSEC
  0
SECTION
  2
CLASSES
  0
CLASS
  1
ACDBDICTIONARYWDFLT
  2
AcDbDictionaryWithDefault
  3
ObjectDBX Classes
 90
        0
280
     0
281
     0
  0
CLASS
  1
ACDBPLACEHOLDER
  2
AcDbPlaceHolder
  3
ObjectDBX Classes
 90
        0
280
     0
281
     0
  0
CLASS
  1
LAYOUT
  2
AcDbLayout
  3
ObjectDBX Classes
 90
        0
280
     0
281
     0
  0
CLASS
  1
DICTIONARYVAR
  2
AcDbDictionaryVar
  3
ObjectDBX Classes
 90
        0
280
     0
281
     0
  0
CLASS
  1
TABLESTYLE
  2
AcDbTableStyle
  3
ObjectDBX Classes
 90
     4095
280
     0
281
     0
  0
CLASS
  1
MATERIAL
  2
AcDbMaterial
  3
ObjectDBX Classes
 90
     1153
280
     0
281
     0
  0
CLASS
  1
VISUALSTYLE
  2
AcDbVisualStyle
  3
ObjectDBX Classes
 90
     4095
280
     0
281
     0
  0
ENDSEC
  0
SECTION
  2
TABLES
  0
TABLE
  2
VPORT
  5
8
330
0
100
AcDbSymbolTable
 70
     1
  0
VPORT
  5
6FF0
330
8
100
AcDbSymbolTableRecord
100
AcDbViewportTableRecord
  2
*Active
 70
     0
 10
0.0
 20
0.0
 11
1.0
 21
1.0
 12
3529.745653969126
 22
1542.596474034097
 13
0.0
 23
0.0
 14
1.0
 24
1.0
 15
0.0
 25
0.0
 16
0.0
 26
0.0
 36
1.0
 17
0.0
 27
0.0
 37
0.0
 40
2961.887830482564
 41
1.571614583333333
 42
50.0
 43
0.0
 44
0.0
 50
0.0
 51
0.0
 71
     0
 72
   100
 73
     1
 74
     1
 75
     0
 76
     0
 77
     0
 78
     0
281
     0
 65
     1
110
0.0
120
0.0
130
0.0
111
1.0
121
0.0
131
0.0
112
0.0
122
1.0
132
0.0
 79
     0
146
0.0
  0
ENDTAB
  0
TABLE
  2
LTYPE
  5
5
330
0
100
AcDbSymbolTable
 70
    51
  0
LTYPE
  5
13
330
5
100
AcDbSymbolTableRecord
100
AcDbLinetypeTableRecord
  2
ByBlock
 70
     0
  3

 72
    65
 73
     0
 40
0.0
  0
LTYPE
  5
14
330
5
100
AcDbSymbolTableRecord
100
AcDbLinetypeTableRecord
  2
ByLayer
 70
     0
  3

 72
    65
 73
     0
 40
0.0
  0
LTYPE
  5
15
330
5
100
AcDbSymbolTableRecord
100
AcDbLinetypeTableRecord
  2
CONTINUOUS
 70
     0
  3
実線
 72
    65
 73
     0
 40
0.0
  0
LTYPE
  5
22
330
5
100
AcDbSymbolTableRecord
100
AcDbLinetypeTableRecord
  2
DASHED1
 70
     0
  3
--  --  --  --  --  --  --  --  
 72
    65
 73
     2
 40
2.5
 49
1.25
 74
     0
 49
-1.25
 74
     0
  0
LTYPE
  5
23
330
5
100
AcDbSymbolTableRecord
100
AcDbLinetypeTableRecord
  2
DASHED2
 70
     0
  3
----    ----    ----    ----    
 72
    65
 73
     2
 40
5.0
 49
2.5
 74
     0
 49
-2.5
 74
     0
  0
LTYPE
  5
24
330
5
100
AcDbSymbolTableRecord
100
AcDbLinetypeTableRecord
  2
DASHED3
 70
     0
  3
------  ------  ------  ------  
 72
    65
 73
     2
 40
5.0
 49
3.75
 74
     0
 49
-1.25
 74
     0
  0
LTYPE
  5
25
330
5
100
AcDbSymbolTableRecord
100
AcDbLinetypeTableRecord
  2
CENTER1
 70
     0
  3
----- - ----- - ----- - ----- - 
 72
    65
 73
     4
 40
10.0
 49
6.25
 74
     0
 49
-1.25
 74
     0
 49
1.25
 74
     0
 49
-1.25
 74
     0
  0
LTYPE
  5
26
330
5
100
AcDbSymbolTableRecord
100
AcDbLinetypeTableRecord
  2
CENTER2
 70
     0
  3
----------  --  ----------  --  
 72
    65
 73
     4
 40
20.0
 49
12.5
 74
     0
 49
-2.5
 74
     0
 49
2.5
 74
     0
 49
-2.5
 74
     0
  0
LTYPE
  5
27
330
5
100
AcDbSymbolTableRecord
100
AcDbLinetypeTableRecord
  2
PHANTOM1
 70
     0
  3
--- - - --- - - --- - - --- - - 
 72
    65
 73
     6
 40
10.0
 49
3.25
 74
     0
 49
-1.25
 74
     0
 49
1.25
 74
     0
 49
-1.25
 74
     0
 49
1.25
 74
     0
 49
-1.25
 74
     0
  0
LTYPE
  5
28
330
5
100
AcDbSymbolTableRecord
100
AcDbLinetypeTableRecord
  2
PHANTOM2
 70
     0
  3
--------  -  -  --------  -  -  
 72
    65
 73
     6
 40
20.0
 49
10.0
 74
     0
 49
-2.5
 74
     0
 49
1.25
 74
     0
 49
-2.5
 74
     0
 49
1.25
 74
     0
 49
-2.5
 74
     0
  0
LTYPE
  5
29
330
5
100
AcDbSymbolTableRecord
100
AcDbLinetypeTableRecord
  2
DOT
 70
     0
  3
-   -   -   -   -   -   -   -   
 72
    65
 73
     2
 40
2.5
 49
0.625
 74
     0
 49
-1.875
 74
     0
  0
LTYPE
  5
2A
330
5
100
AcDbSymbolTableRecord
100
AcDbLinetypeTableRecord
  2
DUMMY
 70
     0
  3
ダミー
 72
    65
 73
     0
 40
0.0
  0
LTYPE
  5
2B
330
5
100
AcDbSymbolTableRecord
100
AcDbLinetypeTableRecord
  2
RAND1
 70
     0
  3
ランダム線1
 72
    65
 73
     4
 40
10.0
 49
1.0
 74
     0
 49
-2.0
 74
     0
 49
3.0
 74
     0
 49
-4.0
 74
     0
  0
LTYPE
  5
2C
330
5
100
AcDbSymbolTableRecord
100
AcDbLinetypeTableRecord
  2
RAND2
 70
     0
  3
ランダム線2
 72
    65
 73
     4
 40
14.0
 49
2.0
 74
     0
 49
-3.0
 74
     0
 49
4.0
 74
     0
 49
-5.0
 74
     0
  0
LTYPE
  5
2D
330
5
100
AcDbSymbolTableRecord
100
AcDbLinetypeTableRecord
  2
RAND3
 70
     0
  3
ランダム線3
 72
    65
 73
     4
 40
18.0
 49
3.0
 74
     0
 49
-4.0
 74
     0
 49
5.0
 74
     0
 49
-6.0
 74
     0
  0
LTYPE
  5
2E
330
5
100
AcDbSymbolTableRecord
100
AcDbLinetypeTableRecord
  2
RAND4
 70
     0
  3
ランダム線4
 72
    65
 73
     4
 40
22.0
 49
4.0
 74
     0
 49
-5.0
 74
     0
 49
6.0
 74
     0
 49
-7.0
 74
     0
  0
LTYPE
  5
2F
330
5
100
AcDbSymbolTableRecord
100
AcDbLinetypeTableRecord
  2
RAND5
 70
     0
  3
ランダム線5
 72
    65
 73
     4
 40
26.0
 49
5.0
 74
     0
 49
-6.0
 74
     0
 49
7.0
 74
     0
 49
-8.0
 74
     0
  0
LTYPE
  5
30
330
5
100
AcDbSymbolTableRecord
100
AcDbLinetypeTableRecord
  2
LONG1
 70
     0
  3
----------  --  ----------  --  
 72
    65
 73
     4
 40
40.0
 49
32.5
 74
     0
 49
-2.5
 74
     0
 49
2.5
 74
     0
 49
-2.5
 74
     0
  0
LTYPE
  5
31
330
5
100
AcDbSymbolTableRecord
100
AcDbLinetypeTableRecord
  2
LONG2
 70
     0
  3
--------  -  -  --------  -  -  
 72
    65
 73
     6
 40
40.0
 49
30.0
 74
     0
 49
-2.5
 74
     0
 49
1.25
 74
     0
 49
-2.5
 74
     0
 49
1.25
 74
     0
 49
-2.5
 74
     0
  0
LTYPE
  5
32
330
5
100
AcDbSymbolTableRecord
100
AcDbLinetypeTableRecord
  2
LONG3
 70
     0
  3
+++++++++++++++..+++++++++++++++
 72
    65
 73
     2
 40
40.0
 49
37.5
 74
     0
 49
-2.5
 74
     0
  0
LTYPE
  5
33
330
5
100
AcDbSymbolTableRecord
100
AcDbLinetypeTableRecord
  2
LONG4
 70
     0
  3
+++++++++++++++..+++++++++++++++
 72
    65
 73
     2
 40
80.0
 49
75.0
 74
     0
 49
-5.0
 74
     0
  0
LTYPE
  5
34
330
5
100
AcDbSymbolTableRecord
100
AcDbLinetypeTableRecord
  2
LONG5
 70
     0
  3
----------  --  ----------  --  
 72
    65
 73
     4
 40
60.0
 49
37.5
 74
     0
 49
-7.5
 74
     0
 49
7.5
 74
     0
 49
-7.5
 74
     0
  0
LTYPE
  5
35
330
5
100
AcDbSymbolTableRecord
100
AcDbLinetypeTableRecord
  2
DASHED
 70
     0
  3
-------   -------------   ------
 72
    65
 73
     2
 40
7.5
 49
6.0
 74
     0
 49
-1.5
 74
     0
  0
LTYPE
  5
36
330
5
100
AcDbSymbolTableRecord
100
AcDbLinetypeTableRecord
  2
DASHED_SPACED
 70
     0
  3
----        --------        ----
 72
    65
 73
     2
 40
12.0
 49
6.0
 74
     0
 49
-6.0
 74
     0
  0
LTYPE
  5
37
330
5
100
AcDbSymbolTableRecord
100
AcDbLinetypeTableRecord
  2
LONG_DASHED_DOTTED
 70
     0
  3
------------- --- --------------
 72
    65
 73
     4
 40
15.25
 49
12.0
 74
     0
 49
-1.5
 74
     0
 49
0.25
 74
     0
 49
-1.5
 74
     0
  0
LTYPE
  5
38
330
5
100
AcDbSymbolTableRecord
100
AcDbLinetypeTableRecord
  2
LONG_DASHED_DOUBLE-DOTTED
 70
     0
  3
----------- --- --- ------------
 72
    65
 73
     6
 40
17.0
 49
12.0
 74
     0
 49
-1.5
 74
     0
 49
0.25
 74
     0
 49
-1.5
 74
     0
 49
0.25
 74
     0
 49
-1.5
 74
     0
  0
LTYPE
  5
39
330
5
100
AcDbSymbolTableRecord
100
AcDbLinetypeTableRecord
  2
LONG_DASHED_TRIPLICATE-DOTTED
 70
     0
  3
--------- --- --- --- ----------
 72
    65
 73
     8
 40
18.75
 49
12.0
 74
     0
 49
-1.5
 74
     0
 49
0.25
 74
     0
 49
-1.5
 74
     0
 49
0.25
 74
     0
 49
-1.5
 74
     0
 49
0.25
 74
     0
 49
-1.5
 74
     0
  0
LTYPE
  5
3A
330
5
100
AcDbSymbolTableRecord
100
AcDbLinetypeTableRecord
  2
DOTTED
 70
     0
  3
   -       -       -       -    
 72
    65
 73
     2
 40
1.75
 49
0.25
 74
     0
 49
-1.5
 74
     0
  0
LTYPE
  5
3B
330
5
100
AcDbSymbolTableRecord
100
AcDbLinetypeTableRecord
  2
CHAIN
 70
     0
  3
-------------- -- --------------
 72
    65
 73
     4
 40
18.5
 49
12.0
 74
     0
 49
-1.5
 74
     0
 49
3.5
 74
     0
 49
-1.5
 74
     0
  0
LTYPE
  5
3C
330
5
100
AcDbSymbolTableRecord
100
AcDbLinetypeTableRecord
  2
CHAIN_DOUBLE_DASH
 70
     0
  3
------------ -- -- -------------
 72
    65
 73
     6
 40
23.5
 49
12.0
 74
     0
 49
-1.5
 74
     0
 49
3.5
 74
     0
 49
-1.5
 74
     0
 49
3.5
 74
     0
 49
-1.5
 74
     0
  0
LTYPE
  5
3D
330
5
100
AcDbSymbolTableRecord
100
AcDbLinetypeTableRecord
  2
DASHED_DOTTED
 70
     0
  3
-----------     -     ----------
 72
    65
 73
     4
 40
9.25
 49
6.0
 74
     0
 49
-1.5
 74
     0
 49
0.25
 74
     0
 49
-1.5
 74
     0
  0
LTYPE
  5
3E
330
5
100
AcDbSymbolTableRecord
100
AcDbLinetypeTableRecord
  2
DOUBLE-DASHED_DOTTED
 70
     0
  3
------   -----------   -   -----
 72
    65
 73
     6
 40
16.75
 49
6.0
 74
     0
 49
-1.5
 74
     0
 49
6.0
 74
     0
 49
-1.5
 74
     0
 49
0.25
 74
     0
 49
-1.5
 74
     0
  0
LTYPE
  5
3F
330
5
100
AcDbSymbolTableRecord
100
AcDbLinetypeTableRecord
  2
DASHED_DOUBLE-DOTTED
 70
     0
  3
---------    -    -    ---------
 72
    65
 73
     6
 40
11.0
 49
6.0
 74
     0
 49
-1.5
 74
     0
 49
0.25
 74
     0
 49
-1.5
 74
     0
 49
0.25
 74
     0
 49
-1.5
 74
     0
  0
LTYPE
  5
40
330
5
100
AcDbSymbolTableRecord
100
AcDbLinetypeTableRecord
  2
DOUBLE-DASHED_DOUBLE-DOTTED
 70
     0
  3
-----   ---------   -   -   ----
 72
    65
 73
     8
 40
18.5
 49
6.0
 74
     0
 49
-1.5
 74
     0
 49
6.0
 74
     0
 49
-1.5
 74
     0
 49
0.25
 74
     0
 49
-1.5
 74
     0
 49
0.25
 74
     0
 49
-1.5
 74
     0
  0
LTYPE
  5
41
330
5
100
AcDbSymbolTableRecord
100
AcDbLinetypeTableRecord
  2
DASHED_TRIPLICATE-DOTTED
 70
     0
  3
-------    -    -    -    ------
 72
    65
 73
     8
 40
12.75
 49
6.0
 74
     0
 49
-1.5
 74
     0
 49
0.25
 74
     0
 49
-1.5
 74
     0
 49
0.25
 74
     0
 49
-1.5
 74
     0
 49
0.25
 74
     0
 49
-1.5
 74
     0
  0
LTYPE
  5
42
330
5
100
AcDbSymbolTableRecord
100
AcDbLinetypeTableRecord
  2
DOUBLE-DASHED_TRIPLICATE-DOTTED
 70
     0
  3
-----  ---------  -  -  -  -----
 72
    65
 73
    10
 40
20.25
 49
6.0
 74
     0
 49
-1.5
 74
     0
 49
6.0
 74
     0
 49
-1.5
 74
     0
 49
0.25
 74
     0
 49
-1.5
 74
     0
 49
0.25
 74
     0
 49
-1.5
 74
     0
 49
0.25
 74
     0
 49
-1.5
 74
     0
  0
LTYPE
  5
43
330
5
100
AcDbSymbolTableRecord
100
AcDbLinetypeTableRecord
  2
UNDEFINED
 70
     0
  3
--------------------------------
 72
    65
 73
     0
 40
0.0
  0
LTYPE
  5
44
330
5
100
AcDbSymbolTableRecord
100
AcDbLinetypeTableRecord
  2
PLINE2
 70
     0
  3
------     -----------     -----
 72
    65
 73
     2
 40
3.0
 49
2.1
 74
     0
 49
-0.9
 74
     0
  0
LTYPE
  5
45
330
5
100
AcDbSymbolTableRecord
100
AcDbLinetypeTableRecord
  2
PLINE3
 70
     0
  3
------------   ---   -----------
 72
    65
 73
     4
 40
10.0
 49
7.0
 74
     0
 49
-1.0
 74
     0
 49
1.0
 74
     0
 49
-1.0
 74
     0
  0
LTYPE
  5
46
330
5
100
AcDbSymbolTableRecord
100
AcDbLinetypeTableRecord
  2
PLINE4
 70
     0
  3
---------   ---   ---   --------
 72
    65
 73
     6
 40
10.0
 49
5.0
 74
     0
 49
-1.0
 74
     0
 49
1.0
 74
     0
 49
-1.0
 74
     0
 49
1.0
 74
     0
 49
-1.0
 74
     0
  0
LTYPE
  5
47
330
5
100
AcDbSymbolTableRecord
100
AcDbLinetypeTableRecord
  2
PLINE5
 70
     0
  3
------     -----------     -----
 72
    65
 73
     2
 40
5.0
 49
3.5
 74
     0
 49
-1.5
 74
     0
  0
LTYPE
  5
48
330
5
100
AcDbSymbolTableRecord
100
AcDbLinetypeTableRecord
  2
PLINE6
 70
     0
  3
------------   ---   -----------
 72
    65
 73
     4
 40
15.0
 49
10.5
 74
     0
 49
-1.5
 74
     0
 49
1.5
 74
     0
 49
-1.5
 74
     0
  0
LTYPE
  5
49
330
5
100
AcDbSymbolTableRecord
100
AcDbLinetypeTableRecord
  2
PLINE7
 70
     0
  3
---------   ---   ---   --------
 72
    65
 73
     6
 40
15.0
 49
7.5
 74
     0
 49
-1.5
 74
     0
 49
1.5
 74
     0
 49
-1.5
 74
     0
 49
1.5
 74
     0
 49
-1.5
 74
     0
  0
LTYPE
  5
4A
330
5
100
AcDbSymbolTableRecord
100
AcDbLinetypeTableRecord
  2
PLINE8
 70
     0
  3
------     -----------     -----
 72
    65
 73
     2
 40
7.0
 49
4.9
 74
     0
 49
-2.1
 74
     0
  0
LTYPE
  5
4B
330
5
100
AcDbSymbolTableRecord
100
AcDbLinetypeTableRecord
  2
PLINE9
 70
     0
  3
------------   ---   -----------
 72
    65
 73
     4
 40
20.0
 49
14.0
 74
     0
 49
-2.0
 74
     0
 49
2.0
 74
     0
 49
-2.0
 74
     0
  0
LTYPE
  5
4C
330
5
100
AcDbSymbolTableRecord
100
AcDbLinetypeTableRecord
  2
PLINE10
 70
     0
  3
---------   ---   ---   --------
 72
    65
 73
     6
 40
20.0
 49
10.0
 74
     0
 49
-2.0
 74
     0
 49
2.0
 74
     0
 49
-2.0
 74
     0
 49
2.0
 74
     0
 49
-2.0
 74
     0
  0
LTYPE
  5
4D
330
5
100
AcDbSymbolTableRecord
100
AcDbLinetypeTableRecord
  2
PLINE11
 70
     0
  3
------     -----------     -----
 72
    65
 73
     2
 40
9.0
 49
6.299999999999999
 74
     0
 49
-2.7
 74
     0
  0
LTYPE
  5
4E
330
5
100
AcDbSymbolTableRecord
100
AcDbLinetypeTableRecord
  2
PLINE12
 70
     0
  3
------------   ---   -----------
 72
    65
 73
     4
 40
25.0
 49
17.5
 74
     0
 49
-2.5
 74
     0
 49
2.5
 74
     0
 49
-2.5
 74
     0
  0
LTYPE
  5
4F
330
5
100
AcDbSymbolTableRecord
100
AcDbLinetypeTableRecord
  2
PLINE13
 70
     0
  3
---------   ---   ---   --------
 72
    65
 73
     6
 40
25.0
 49
12.5
 74
     0
 49
-2.5
 74
     0
 49
2.5
 74
     0
 49
-2.5
 74
     0
 49
2.5
 74
     0
 49
-2.5
 74
     0
  0
LTYPE
  5
50
330
5
100
AcDbSymbolTableRecord
100
AcDbLinetypeTableRecord
  2
PLINE14
 70
     0
  3
------     -----------     -----
 72
    65
 73
     2
 40
11.0
 49
7.7
 74
     0
 49
-3.299999999999999
 74
     0
  0
LTYPE
  5
51
330
5
100
AcDbSymbolTableRecord
100
AcDbLinetypeTableRecord
  2
PLINE15
 70
     0
  3
------------   ---   -----------
 72
    65
 73
     4
 40
30.0
 49
21.0
 74
     0
 49
-3.0
 74
     0
 49
3.0
 74
     0
 49
-3.0
 74
     0
  0
LTYPE
  5
52
330
5
100
AcDbSymbolTableRecord
100
AcDbLinetypeTableRecord
  2
PLINE16
 70
     0
  3
---------   ---   ---   --------
 72
    65
 73
     6
 40
30.0
 49
15.0
 74
     0
 49
-3.0
 74
     0
 49
3.0
 74
     0
 49
-3.0
 74
     0
 49
3.0
 74
     0
 49
-3.0
 74
     0
  0
ENDTAB
  0
TABLE
  2
LAYER
  5
2
102
{ACAD_XDICTIONARY
360
175
102
}
330
0
100
AcDbSymbolTable
 70
     4
  0
LAYER
  5
10
330
2
100
AcDbSymbolTableRecord
100
AcDbLayerTableRecord
  2
0
 70
     0
 62
     7
  6
CONTINUOUS
370
    -3
390
F
  0
LAYER
  5
128
330
2
100
AcDbSymbolTableRecord
100
AcDbLayerTableRecord
  2
Defpoints
 70
     0
 62
     7
  6
CONTINUOUS
290
     0
370
    -3
390
F
  0
LAYER
  5
179
330
2
100
AcDbSymbolTableRecord
100
AcDbLayerTableRecord
  2
躯体と製品
 70
     0
 62
     7
  6
CONTINUOUS
370
    -3
390
F
  0
LAYER
  5
4F62
330
2
100
AcDbSymbolTableRecord
100
AcDbLayerTableRecord
  2
図枠
 70
     0
 62
     7
  6
CONTINUOUS
370
    -3
390
F
  0
ENDTAB
  0
TABLE
  2
STYLE
  5
3
330
0
100
AcDbSymbolTable
 70
     6
  0
STYLE
  5
11
330
3
100
AcDbSymbolTableRecord
100
AcDbTextStyleTableRecord
  2
STANDARD
 70
     0
 40
0.0
 41
1.0
 50
0.0
 71
     0
 42
0.2
  3
txt
  4
bigfont.shx
  0
STYLE
  5
53
330
3
100
AcDbSymbolTableRecord
100
AcDbTextStyleTableRecord
  2
TATEGAKI
 70
     4
 40
0.0
 41
1.0
 50
0.0
 71
     0
 42
1.0
  3
txt
  4
bigfont.shx
  0
STYLE
  5
123
330
3
100
AcDbSymbolTableRecord
100
AcDbTextStyleTableRecord
  2
ACAD
 70
     0
 40
5.0
 41
0.8
 50
0.0
 71
     0
 42
5.0
  3
romans.shx
  4
extfont.shx
  0
STYLE
  5
3A5F
330
3
100
AcDbSymbolTableRecord
100
AcDbTextStyleTableRecord
  2
VERTXT
 70
     4
 40
0.0
 41
0.8582679999999999
 50
0.0
 71
     0
 42
3.5
  3
txt.shx
  4
BIGFONT
  0
STYLE
  5
50AD
330
3
100
AcDbSymbolTableRecord
100
AcDbTextStyleTableRecord
  2
STANDARD2
 70
     0
 40
0.0
 41
0.8582679999999999
 50
0.0
 71
     0
 42
3.5
  3
txt.shx
  4
EXTFONT
  0
STYLE
  5
678B
330
3
100
AcDbSymbolTableRecord
100
AcDbTextStyleTableRecord
  2
BIGFONT
 70
     0
 40
0.2
 41
1.0
 50
0.0
 71
     0
 42
3.5
  3
monotxt
  4
bigfont
  0
ENDTAB
  0
TABLE
  2
VIEW
  5
6
330
0
100
AcDbSymbolTable
 70
     0
  0
ENDTAB
  0
TABLE
  2
UCS
  5
7
330
0
100
AcDbSymbolTable
 70
     0
  0
ENDTAB
  0
TABLE
  2
APPID
  5
9
330
0
100
AcDbSymbolTable
 70
     2
  0
APPID
  5
12
330
9
100
AcDbSymbolTableRecord
100
AcDbRegAppTableRecord
  2
ACAD
 70
     0
  0
APPID
  5
7012
330
9
100
AcDbSymbolTableRecord
100
AcDbRegAppTableRecord
  2
ACAD_EXEMPT_FROM_CAD_STANDARDS
 70
     0
  0
ENDTAB
  0
TABLE
  2
DIMSTYLE
  5
A
330
0
100
AcDbSymbolTable
 70
     4
100
AcDbDimStyleTable
 71
     1
340
126
  0
DIMSTYLE
105
11C
330
A
100
AcDbSymbolTableRecord
100
AcDbDimStyleTableRecord
  2
Standard
 70
     0
340
11
  0
DIMSTYLE
105
126
330
A
100
AcDbSymbolTableRecord
100
AcDbDimStyleTableRecord
  2
AutoCAD
 70
     0
 41
1.0
 42
0.0
 44
0.0
 73
     0
 77
     1
140
5.0
147
1.0
174
     1
176
     4
177
     4
178
     3
271
     0
272
     0
289
     0
340
123
341
15B0
342
11E
  0
DIMSTYLE
105
2CBB
330
A
100
AcDbSymbolTableRecord
100
AcDbDimStyleTableRecord
  2
111
 70
     0
 41
1.0
 42
0.0
 44
0.0
 73
     0
 77
     1
140
5.0
147
1.0
174
     1
176
     4
177
     4
178
     3
271
     0
272
     0
289
     0
340
123
341
15B0
342
2CB5
  0
ENDTAB
  0
TABLE
  2
BLOCK_RECORD
  5
1
330
0
100
AcDbSymbolTable
 70
     5
  0
BLOCK_RECORD
  5
1E
102
{ACAD_XDICTIONARY
360
28B
102
}
330
1
100
AcDbSymbolTableRecord
100
AcDbBlockTableRecord
  2
*Model_Space
340
21
  0
BLOCK_RECORD
  5
1A
102
{ACAD_XDICTIONARY
360
28D
102
}
330
1
100
AcDbSymbolTableRecord
100
AcDbBlockTableRecord
  2
*Paper_Space
340
1D
  0
BLOCK_RECORD
  5
11E
330
1
100
AcDbSymbolTableRecord
100
AcDbBlockTableRecord
  2
_Dot
340
0
  0
BLOCK_RECORD
  5
15B0
330
1
100
AcDbSymbolTableRecord
100
AcDbBlockTableRecord
  2
_None
340
0
  0
BLOCK_RECORD
  5
2CB5
330
1
100
AcDbSymbolTableRecord
100
AcDbBlockTableRecord
  2
_Open30
340
0
  0
BLOCK_RECORD
  5
35E3
330
1
100
AcDbSymbolTableRecord
100
AcDbBlockTableRecord
  2
_DotBlank
340
0
  0
ENDTAB
  0
ENDSEC
  0
SECTION
  2
BLOCKS
  0
BLOCK
  5
1F
330
1E
100
AcDbEntity
  8
0
100
AcDbBlockBegin
  2
*Model_Space
 70
     0
 10
0.0
 20
0.0
 30
0.0
  3
*Model_Space
  1

  0
ENDBLK
  5
20
330
1E
100
AcDbEntity
  8
0
100
AcDbBlockEnd
  0
BLOCK
  5
1B
330
1A
100
AcDbEntity
 67
     1
  8
0
100
AcDbBlockBegin
  2
*Paper_Space
 70
     0
 10
0.0
 20
0.0
 30
0.0
  3
*Paper_Space
  1

  0
ENDBLK
  5
1C
330
1A
100
AcDbEntity
 67
     1
  8
0
100
AcDbBlockEnd
  0
BLOCK
  5
121
330
11E
100
AcDbEntity
  8
0
100
AcDbBlockBegin
  2
_Dot
 70
     0
 10
0.0
 20
0.0
 30
0.0
  3
_Dot
  1

  0
LWPOLYLINE
  5
11F
330
11E
100
AcDbEntity
  8
0
  6
ByBlock
 62
     0
100
AcDbPolyline
 90
        2
 70
     1
 43
0.5
 10
-0.25
 20
0.0
 42
1.0
 10
0.25
 20
0.0
 42
1.0
  0
LINE
  5
120
330
11E
100
AcDbEntity
  8
0
  6
ByBlock
 62
     0
370
    -2
100
AcDbLine
 10
-0.5
 20
0.0
 30
0.0
 11
-1.0
 21
0.0
 31
0.0
  0
ENDBLK
  5
122
330
11E
100
AcDbEntity
  8
0
100
AcDbBlockEnd
  0
BLOCK
  5
15B1
330
15B0
100
AcDbEntity
  8
0
100
AcDbBlockBegin
  2
_None
 70
     0
 10
0.0
 20
0.0
 30
0.0
  3
_None
  1

  0
ENDBLK
  5
15B2
330
15B0
100
AcDbEntity
  8
0
100
AcDbBlockEnd
  0
BLOCK
  5
2CB9
330
2CB5
100
AcDbEntity
  8
0
100
AcDbBlockBegin
  2
_Open30
 70
     0
 10
0.0
 20
0.0
 30
0.0
  3
_Open30
  1

  0
LINE
  5
2CB6
330
2CB5
100
AcDbEntity
  8
0
  6
ByBlock
 62
     0
370
    -2
100
AcDbLine
 10
-1.0
 20
0.26794919
 30
0.0
 11
0.0
 21
0.0
 31
0.0
  0
LINE
  5
2CB7
330
2CB5
100
AcDbEntity
  8
0
  6
ByBlock
 62
     0
370
    -2
100
AcDbLine
 10
0.0
 20
0.0
 30
0.0
 11
-1.0
 21
-0.26794919
 31
0.0
  0
LINE
  5
2CB8
330
2CB5
100
AcDbEntity
  8
0
  6
ByBlock
 62
     0
370
    -2
100
AcDbLine
 10
0.0
 20
0.0
 30
0.0
 11
-1.0
 21
0.0
 31
0.0
  0
ENDBLK
  5
2CBA
330
2CB5
100
AcDbEntity
  8
0
100
AcDbBlockEnd
  0
BLOCK
  5
35E6
330
35E3
100
AcDbEntity
  8
0
100
AcDbBlockBegin
  2
_DotBlank
 70
     0
 10
0.0
 20
0.0
 30
0.0
  3
_DotBlank
  1

  0
CIRCLE
  5
35E4
330
35E3
100
AcDbEntity
  8
0
  6
ByBlock
 62
     0
370
    -2
100
AcDbCircle
 10
0.0
 20
0.0
 30
0.0
 40
0.5
  0
LINE
  5
35E5
330
35E3
100
AcDbEntity
  8
0
  6
ByBlock
 62
     0
370
    -2
100
AcDbLine
 10
-0.5
 20
0.0
 30
0.0
 11
-1.0
 21
0.0
 31
0.0
  0
ENDBLK
  5
35E7
330
35E3
100
AcDbEntity
  8
0
100
AcDbBlockEnd
  0
ENDSEC
  0
SECTION
  2
ENTITIES
  0
LINE
  5
6BBB
330
1E
100
AcDbEntity
  8
図枠
  6
Continuous
 62
     3
100
AcDbLine
 10
5365.157344218371
 20
608.8289630667757
 30
0.0
 11
5436.185404218372
 21
485.8047380667752
 31
0.0
  0
LINE
  5
6BBC
330
1E
100
AcDbEntity
  8
図枠
  6
Continuous
 62
     3
100
AcDbLine
 10
5436.185404218372
 20
485.8047380667752
 30
0.0
 11
5598.173599218371
 21
485.8047380667752
 31
0.0
  0
LINE
  5
6BBD
330
1E
100
AcDbEntity
  8
図枠
  6
Continuous
 62
     3
100
AcDbLine
 10
4485.362179218371
 20
608.8289630667757
 30
0.0
 11
4569.294889218372
 21
463.4532530667753
 31
0.0
  0
LINE
  5
6BBE
330
1E
100
AcDbEntity
  8
図枠
  6
Continuous
 62
     3
100
AcDbLine
 10
4569.294889218372
 20
463.4532530667753
 30
0.0
 11
4716.39948414315
 21
463.4532530667753
 31
0.0
  0
LINE
  5
6BBF
330
1E
100
AcDbEntity
  8
躯体と製品
  6
Continuous
 62
     3
100
AcDbLine
 10
3717.863104218372
 20
1620.045893066775
 30
0.0
 11
4206.646159218371
 21
2108.828963066776
 31
0.0
  0
LINE
  5
6BC0
330
1E
100
AcDbEntity
  8
躯体と製品
  6
Continuous
 62
     3
100
AcDbLine
 10
3717.863104218372
 20
1598.832698066775
 30
0.0
 11
4227.859369218371
 21
2108.828963066776
 31
0.0
  0
LINE
  5
6BC1
330
1E
100
AcDbEntity
  8
躯体と製品
  6
Continuous
 62
     3
100
AcDbLine
 10
3717.863104218372
 20
1577.619488066775
 30
0.0
 11
4249.072564218372
 21
2108.828963066776
 31
0.0
  0
LINE
  5
6BC2
330
1E
100
AcDbEntity
  8
躯体と製品
  6
Continuous
 62
     3
100
AcDbLine
 10
5645.363104218372
 20
2108.828963066776
 30
0.0
 11
5645.363104218372
 21
1833.828968066776
 31
0.0
  0
LINE
  5
6BC3
330
1E
100
AcDbEntity
  8
躯体と製品
  6
Continuous
 62
     3
100
AcDbLine
 10
5640.363094218372
 20
2108.828963066776
 30
0.0
 11
5640.363094218372
 21
1838.828963066775
 31
0.0
  0
LINE
  5
6BC4
330
1E
100
AcDbEntity
  8
躯体と製品
  6
Continuous
 62
     3
100
AcDbLine
 10
3962.863099218373
 20
703.8289580667753
 30
0.0
 11
4037.863099218371
 21
703.8289580667753
 31
0.0
  0
LINE
  5
6BC5
330
1E
100
AcDbEntity
  8
躯体と製品
  6
Continuous
 62
     3
100
AcDbLine
 10
4037.863099218371
 20
703.8289580667753
 30
0.0
 11
4037.863099218371
 21
693.8289680667751
 31
0.0
  0
LINE
  5
6BC6
330
1E
100
AcDbEntity
  8
躯体と製品
  6
Continuous
 62
     3
100
AcDbLine
 10
4032.86310421837
 20
693.8289680667751
 30
0.0
 11
4037.863099218371
 21
693.8289680667751
 31
0.0
  0
LINE
  5
6BC7
330
1E
100
AcDbEntity
  8
躯体と製品
  6
Continuous
 62
     3
100
AcDbLine
 10
4032.86310421837
 20
698.8289630667752
 30
0.0
 11
4032.86310421837
 21
693.8289680667751
 31
0.0
  0
LINE
  5
6BC8
330
1E
100
AcDbEntity
  8
躯体と製品
  6
Continuous
 62
     3
100
AcDbLine
 10
4020.363094218372
 20
698.8289630667752
 30
0.0
 11
4032.86310421837
 21
698.8289630667752
 31
0.0
  0
LINE
  5
6BC9
330
1E
100
AcDbEntity
  8
躯体と製品
  6
Continuous
 62
     3
100
AcDbLine
 10
4020.363094218372
 20
698.8289630667752
 30
0.0
 11
4020.363094218372
 21
673.8289580667753
 31
0.0
  0
ARC
  5
6BCA
330
1E
100
AcDbEntity
  8
躯体と製品
  6
Continuous
 62
     3
100
AcDbCircle
 10
4014.363094218371
 20
555.3289580667754
 30
0.0
 40
1.5
100
AcDbArc
 50
180.0
 51
270.0
  0
LINE
  5
6BCB
330
1E
100
AcDbEntity
  8
躯体と製品
  6
Continuous
 62
     3
100
AcDbLine
 10
4012.863094218371
 20
703.8289580667753
 30
0.0
 11
4012.863094218371
 21
555.3289580667754
 31
0.0
  0
LINE
  5
6BCC
330
1E
100
AcDbEntity
  8
躯体と製品
  6
Continuous
 62
     3
100
AcDbLine
 10
4014.363094218371
 20
553.8289580667753
 30
0.0
 11
4018.863094218371
 21
553.8289580667753
 31
0.0
  0
LINE
  5
6BCD
330
1E
100
AcDbEntity
  8
躯体と製品
  6
Continuous
 62
     3
100
AcDbLine
 10
4020.363094218372
 20
663.8289680667756
 30
0.0
 11
4020.363094218372
 21
656.3289680667751
 31
0.0
  0
ARC
  5
6BCE
330
1E
100
AcDbEntity
  8
躯体と製品
  6
Continuous
 62
     3
100
AcDbCircle
 10
4018.863094218371
 20
555.3289580667754
 30
0.0
 40
1.5
100
AcDbArc
 50
270.0
 51
0.0
  0
LINE
  5
6BCF
330
1E
100
AcDbEntity
  8
躯体と製品
  6
Continuous
 62
     3
100
AcDbLine
 10
4020.363094218372
 20
651.3289580667754
 30
0.0
 11
4020.363094218372
 21
555.3289580667754
 31
0.0
  0
LINE
  5
6BD0
330
1E
100
AcDbEntity
  8
躯体と製品
  6
Continuous
 62
     3
100
AcDbLine
 10
4020.363094218372
 20
656.3289680667751
 30
0.0
 11
4027.863094218371
 21
656.3289680667751
 31
0.0
  0
LINE
  5
6BD1
330
1E
100
AcDbEntity
  8
躯体と製品
  6
Continuous
 62
     3
100
AcDbLine
 10
4027.863094218371
 20
656.3289680667751
 30
0.0
 11
4027.863094218371
 21
651.3289580667754
 31
0.0
  0
LINE
  5
6BD2
330
1E
100
AcDbEntity
  8
躯体と製品
  6
Continuous
 62
     3
100
AcDbLine
 10
4020.363094218372
 20
651.3289580667754
 30
0.0
 11
4027.863094218371
 21
651.3289580667754
 31
0.0
  0
LINE
  5
6BD3
330
1E
100
AcDbEntity
  8
躯体と製品
  6
Continuous
 62
     3
100
AcDbLine
 10
4020.363094218372
 20
673.8289580667753
 30
0.0
 11
4093.906654218371
 21
673.8289580667753
 31
0.0
  0
LINE
  5
6BD4
330
1E
100
AcDbEntity
  8
躯体と製品
  6
Continuous
 62
     3
100
AcDbLine
 10
4020.363094218372
 20
663.8289680667756
 30
0.0
 11
4093.906654218371
 21
663.8289680667756
 31
0.0
  0
LINE
  5
6BD5
330
1E
100
AcDbEntity
  8
躯体と製品
  6
Continuous
 62
     3
100
AcDbLine
 10
4116.819544218372
 20
663.8289680667756
 30
0.0
 11
4184.113099218371
 21
663.8289680667756
 31
0.0
  0
LINE
  5
6BD6
330
1E
100
AcDbEntity
  8
躯体と製品
  6
Continuous
 62
     3
100
AcDbLine
 10
4184.113099218371
 20
663.8289680667756
 30
0.0
 11
4184.113099218371
 21
588.8289680667754
 31
0.0
  0
LINE
  5
6BD7
330
1E
100
AcDbEntity
  8
躯体と製品
  6
Continuous
 62
     3
100
AcDbLine
 10
4183.113094218372
 20
553.8289580667753
 30
0.0
 11
4190.113099218371
 21
553.8289580667753
 31
0.0
  0
ARC
  5
6BD8
330
1E
100
AcDbEntity
  8
躯体と製品
  6
Continuous
 62
     3
100
AcDbCircle
 10
4190.113099218371
 20
555.3289580667754
 30
0.0
 40
1.5
100
AcDbArc
 50
270.0
 51
0.0
  0
LINE
  5
6BD9
330
1E
100
AcDbEntity
  8
躯体と製品
  6
Continuous
 62
     3
100
AcDbLine
 10
4191.613099218371
 20
663.8289680667756
 30
0.0
 11
4191.613099218371
 21
555.3289580667754
 31
0.0
  0
ARC
  5
6BDA
330
1E
100
AcDbEntity
  8
躯体と製品
  6
Continuous
 62
     3
100
AcDbCircle
 10
4183.113094218372
 20
555.3289580667754
 30
0.0
 40
1.5
100
AcDbArc
 50
180.0
 51
270.0
  0
LINE
  5
6BDB
330
1E
100
AcDbEntity
  8
躯体と製品
  6
Continuous
 62
     3
100
AcDbLine
 10
4181.613094218372
 20
588.8289680667754
 30
0.0
 11
4181.613094218372
 21
555.3289580667754
 31
0.0
  0
LINE
  5
6BDC
330
1E
100
AcDbEntity
  8
躯体と製品
  6
Continuous
 62
     3
100
AcDbLine
 10
4181.613094218372
 20
588.8289680667754
 30
0.0
 11
4184.113099218371
 21
588.8289680667754
 31
0.0
  0
LINE
  5
6BDD
330
1E
100
AcDbEntity
  8
躯体と製品
  6
Continuous
 62
     3
100
AcDbLine
 10
4111.762414218371
 20
677.9734730667752
 30
0.0
 11
4110.346819218371
 21
676.5578630667759
 31
0.0
  0
ARC
  5
6BDE
330
1E
100
AcDbEntity
  8
躯体と製品
  6
Continuous
 62
     3
100
AcDbCircle
 10
4105.36309921837
 20
668.8289630667753
 30
0.0
 40
7.5
100
AcDbArc
 50
132.1904720000055
 51
47.8095279999945
  0
ARC
  5
6BDF
330
1E
100
AcDbEntity
  8
躯体と製品
  6
Continuous
 62
     3
100
AcDbCircle
 10
4105.36309921837
 20
668.8289630667753
 30
0.0
 40
12.499995
100
AcDbArc
 50
132.7016000000008
 51
156.4218219999989
  0
ARC
  5
6BE0
330
1E
100
AcDbEntity
  8
躯体と製品
  6
Continuous
 62
     3
100
AcDbCircle
 10
4105.36309921837
 20
668.8289630667753
 30
0.0
 40
12.499995
100
AcDbArc
 50
203.578178000001
 51
336.4218219999989
  0
ARC
  5
6BE1
330
1E
100
AcDbEntity
  8
躯体と製品
  6
Continuous
 62
     3
100
AcDbCircle
 10
4105.36309921837
 20
668.8289630667753
 30
0.0
 40
12.499995
100
AcDbArc
 50
23.57817800000103
 51
47.29839999999912
  0
ARC
  5
6BE2
330
1E
100
AcDbEntity
  8
躯体と製品
  6
Continuous
 62
     3
100
AcDbCircle
 10
4097.903119218371
 20
676.9128080667756
 30
0.0
 40
1.5
100
AcDbArc
 50
44.99999999999309
 51
132.7016000000008
  0
ARC
  5
6BE3
330
1E
100
AcDbEntity
  8
躯体と製品
  6
Continuous
 62
     3
100
AcDbCircle
 10
4099.318729218372
 20
675.4972130667755
 30
0.0
 40
1.5
100
AcDbArc
 50
312.1904720000055
 51
44.99999999999309
  0
ARC
  5
6BE4
330
1E
100
AcDbEntity
  8
躯体と製品
  6
Continuous
 62
     3
100
AcDbCircle
 10
4111.407469218371
 20
675.4972130667755
 30
0.0
 40
1.5
100
AcDbArc
 50
135.0000000000069
 51
227.8095279999945
  0
ARC
  5
6BE5
330
1E
100
AcDbEntity
  8
躯体と製品
  6
Continuous
 62
     3
100
AcDbCircle
 10
4112.823079218371
 20
676.9128080667756
 30
0.0
 40
1.5
100
AcDbArc
 50
47.29839999999912
 51
135.0000000000069
  0
LINE
  5
6BE6
330
1E
100
AcDbEntity
  8
躯体と製品
  6
Continuous
 62
     3
100
AcDbLine
 10
4020.363094218372
 20
693.8289680667751
 30
0.0
 11
4045.363099218371
 21
693.8289680667751
 31
0.0
  0
LINE
  5
6BE7
330
1E
100
AcDbEntity
  8
躯体と製品
  6
Continuous
 62
     3
100
AcDbLine
 10
4070.363104218371
 20
711.8289680667754
 30
0.0
 11
4045.363099218371
 21
693.8289680667751
 31
0.0
  0
LINE
  5
6BE8
330
1E
100
AcDbEntity
  8
躯体と製品
  6
Continuous
 62
     3
100
AcDbLine
 10
4020.363094218372
 20
711.8289680667754
 30
0.0
 11
4020.363094218372
 21
703.8289580667753
 31
0.0
  0
LINE
  5
6BE9
330
1E
100
AcDbEntity
  8
躯体と製品
  6
Continuous
 62
     3
100
AcDbLine
 10
4020.363094218372
 20
711.8289680667754
 30
0.0
 11
4207.863094218372
 21
711.8289680667754
 31
0.0
  0
ARC
  5
6BEA
330
1E
100
AcDbEntity
  8
躯体と製品
  6
Continuous
 62
     3
100
AcDbCircle
 10
4207.863094218372
 20
714.3289580667753
 30
0.0
 40
2.500005
100
AcDbArc
 50
270.0
 51
0.0
  0
LINE
  5
6BEB
330
1E
100
AcDbEntity
  8
躯体と製品
  6
Continuous
 62
     3
100
AcDbLine
 10
4020.363094218372
 20
685.8289580667756
 30
0.0
 11
4047.943474218371
 21
685.8289580667756
 31
0.0
  0
LINE
  5
6BEC
330
1E
100
AcDbEntity
  8
躯体と製品
  6
Continuous
 62
     3
100
AcDbLine
 10
4047.943474218371
 20
685.8289580667756
 30
0.0
 11
4072.943479218372
 21
703.8289580667753
 31
0.0
  0
ARC
  5
6BED
330
1E
100
AcDbEntity
  8
躯体と製品
  6
Continuous
 62
     3
100
AcDbCircle
 10
4207.863094218372
 20
714.3289580667753
 30
0.0
 40
10.5
100
AcDbArc
 50
270.0
 51
0.0
  0
LINE
  5
6BEE
330
1E
100
AcDbEntity
  8
躯体と製品
  6
Continuous
 62
     3
100
AcDbLine
 10
4210.363099218371
 20
836.8289630667756
 30
0.0
 11
4218.363094218371
 21
836.8289630667756
 31
0.0
  0
LINE
  5
6BEF
330
1E
100
AcDbEntity
  8
躯体と製品
  6
Continuous
 62
     3
100
AcDbLine
 10
4218.363094218371
 20
714.3289580667753
 30
0.0
 11
4218.363094218371
 21
836.8289630667756
 31
0.0
  0
LINE
  5
6BF0
330
1E
100
AcDbEntity
  8
躯体と製品
  6
Continuous
 62
     3
100
AcDbLine
 10
4210.363099218371
 20
714.3289580667753
 30
0.0
 11
4210.363099218371
 21
836.8289630667756
 31
0.0
  0
LINE
  5
6BF1
330
1E
100
AcDbEntity
  8
躯体と製品
  6
Continuous
 62
     3
100
AcDbLine
 10
3712.863094218371
 20
2108.828963066776
 30
0.0
 11
3712.863094218371
 21
698.8289630667752
 31
0.0
  0
LINE
  5
6BF2
330
1E
100
AcDbEntity
  8
躯体と製品
  6
Continuous
 62
     3
100
AcDbLine
 10
3762.863104218372
 20
648.8289680667759
 30
0.0
 11
3712.863094218371
 21
698.8289630667752
 31
0.0
  0
LINE
  5
6BF3
330
1E
100
AcDbEntity
  8
躯体と製品
  6
Continuous
 62
     3
100
AcDbLine
 10
3962.863099218373
 20
648.8289680667759
 30
0.0
 11
3762.863104218372
 21
648.8289680667759
 31
0.0
  0
LINE
  5
6BF4
330
1E
100
AcDbEntity
  8
躯体と製品
  6
Continuous
 62
     3
100
AcDbLine
 10
3962.863099218373
 20
853.8289580667756
 30
0.0
 11
3962.863099218373
 21
648.8289680667759
 31
0.0
  0
LINE
  5
6BF5
330
1E
100
AcDbEntity
  8
躯体と製品
  6
Continuous
 62
     3
100
AcDbLine
 10
3962.863099218373
 20
853.8289580667756
 30
0.0
 11
4437.863104218371
 21
853.8289580667756
 31
0.0
  0
LINE
  5
6BF6
330
1E
100
AcDbEntity
  8
躯体と製品
  6
Continuous
 62
     3
100
AcDbLine
 10
4437.863104218371
 20
1833.828968066776
 30
0.0
 11
4437.863104218371
 21
853.8289580667756
 31
0.0
  0
LINE
  5
6BF7
330
1E
100
AcDbEntity
  8
躯体と製品
  6
Continuous
 62
     3
100
AcDbLine
 10
3717.863104218372
 20
2108.828963066776
 30
0.0
 11
3717.863104218372
 21
700.9000280667752
 31
0.0
  0
LINE
  5
6BF8
330
1E
100
AcDbEntity
  8
躯体と製品
  6
Continuous
 62
     3
100
AcDbLine
 10
3717.863104218372
 20
700.9000280667752
 30
0.0
 11
3764.934169218371
 21
653.8289630667748
 31
0.0
  0
LINE
  5
6BF9
330
1E
100
AcDbEntity
  8
躯体と製品
  6
Continuous
 62
     3
100
AcDbLine
 10
3764.934169218371
 20
653.8289630667748
 30
0.0
 11
3957.863104218371
 21
653.8289630667748
 31
0.0
  0
LINE
  5
6BFA
330
1E
100
AcDbEntity
  8
躯体と製品
  6
Continuous
 62
     3
100
AcDbLine
 10
3957.863104218371
 20
858.8289680667756
 30
0.0
 11
3957.863104218371
 21
653.8289630667748
 31
0.0
  0
LINE
  5
6BFB
330
1E
100
AcDbEntity
  8
躯体と製品
  6
Continuous
 62
     3
100
AcDbLine
 10
3957.863104218371
 20
858.8289680667756
 30
0.0
 11
4432.863094218371
 21
858.8289680667756
 31
0.0
  0
LINE
  5
6BFC
330
1E
100
AcDbEntity
  8
躯体と製品
  6
Continuous
 62
     3
100
AcDbLine
 10
4432.863094218371
 20
1838.828963066775
 30
0.0
 11
4432.863094218371
 21
858.8289680667756
 31
0.0
  0
LINE
  5
6BFD
330
1E
100
AcDbEntity
  8
躯体と製品
  6
Continuous
 62
     3
100
AcDbLine
 10
4994.363104218372
 20
1394.891468066775
 30
0.0
 11
4994.363104218372
 21
1350.828968066775
 31
0.0
  0
LINE
  5
6BFE
330
1E
100
AcDbEntity
  8
躯体と製品
  6
Continuous
 62
     3
100
AcDbLine
 10
5031.363094218372
 20
1394.891468066775
 30
0.0
 11
5031.363094218372
 21
1350.828968066775
 31
0.0
  0
LINE
  5
6BFF
330
1E
100
AcDbEntity
  8
躯体と製品
  6
Continuous
 62
     3
100
AcDbLine
 10
4990.363099218371
 20
1394.891468066775
 30
0.0
 11
4990.363099218371
 21
1354.828958066775
 31
0.0
  0
LINE
  5
6C00
330
1E
100
AcDbEntity
  8
躯体と製品
  6
Continuous
 62
     3
100
AcDbLine
 10
4990.363099218371
 20
1354.828958066775
 30
0.0
 11
4994.363104218372
 21
1350.828968066775
 31
0.0
  0
LINE
  5
6C01
330
1E
100
AcDbEntity
  8
躯体と製品
  6
Continuous
 62
     3
100
AcDbLine
 10
4990.363099218371
 20
1354.828958066775
 30
0.0
 11
5035.363099218372
 21
1354.828958066775
 31
0.0
  0
LINE
  5
6C02
330
1E
100
AcDbEntity
  8
躯体と製品
  6
Continuous
 62
     3
100
AcDbLine
 10
5035.363099218372
 20
1354.828958066775
 30
0.0
 11
5031.363094218372
 21
1350.828968066775
 31
0.0
  0
LINE
  5
6C03
330
1E
100
AcDbEntity
  8
躯体と製品
  6
Continuous
 62
     3
100
AcDbLine
 10
5035.363099218372
 20
1394.891468066775
 30
0.0
 11
5035.363099218372
 21
1354.828958066775
 31
0.0
  0
LINE
  5
6C04
330
1E
100
AcDbEntity
  8
躯体と製品
  6
Continuous
 62
     3
100
AcDbLine
 10
4994.363104218372
 20
1350.828968066775
 30
0.0
 11
5031.363094218372
 21
1350.828968066775
 31
0.0
  0
LINE
  5
6C05
330
1E
100
AcDbEntity
  8
躯体と製品
  6
Continuous
 62
     3
100
AcDbLine
 10
4994.363104218372
 20
1833.828968066776
 30
0.0
 11
4994.363104218372
 21
1464.766463066775
 31
0.0
  0
LINE
  5
6C06
330
1E
100
AcDbEntity
  8
躯体と製品
  6
Continuous
 62
     3
100
AcDbLine
 10
5031.363094218372
 20
1833.828968066776
 30
0.0
 11
5031.363094218372
 21
1464.766463066775
 31
0.0
  0
LINE
  5
6C07
330
1E
100
AcDbEntity
  8
躯体と製品
  6
Continuous
 62
     3
100
AcDbLine
 10
4100.379379218371
 20
676.5578630667759
 30
0.0
 11
4098.963769218371
 21
677.9734730667752
 31
0.0
  0
LINE
  5
6C08
330
1E
100
AcDbEntity
  8
躯体と製品
  6
Continuous
 62
     3
100
AcDbLine
 10
4165.36309921837
 20
1003.828958066775
 30
0.0
 11
4210.363099218371
 21
1003.828958066775
 31
0.0
  0
LINE
  5
6C09
330
1E
100
AcDbEntity
  8
躯体と製品
  6
Continuous
 62
     3
100
AcDbLine
 10
4210.363099218371
 20
1003.828958066775
 30
0.0
 11
4210.363099218371
 21
836.8289630667756
 31
0.0
  0
LINE
  5
6C0A
330
1E
100
AcDbEntity
  8
躯体と製品
  6
Continuous
 62
     3
100
AcDbLine
 10
4165.36309921837
 20
1003.828958066775
 30
0.0
 11
4165.36309921837
 21
761.8289630667755
 31
0.0
  0
LINE
  5
6C0B
330
1E
100
AcDbEntity
  8
躯体と製品
  6
Continuous
 62
     3
100
AcDbLine
 10
4165.36309921837
 20
761.8289630667755
 30
0.0
 11
4210.363099218371
 21
761.8289630667755
 31
0.0
  0
ARC
  5
6C0C
330
1E
100
AcDbEntity
  8
躯体と製品
  6
Continuous
 62
     3
100
AcDbCircle
 10
3987.863104218372
 20
610.9122980667749
 30
0.0
 40
45.41666999999999
100
AcDbArc
 50
56.60151200000796
 51
123.398487999992
  0
LINE
  5
6C0D
330
1E
100
AcDbEntity
  8
躯体と製品
  6
Continuous
 62
     3
100
AcDbLine
 10
3962.863099218373
 20
654.3314930667747
 30
0.0
 11
4012.360579218372
 21
703.8289580667753
 31
0.0
  0
LINE
  5
6C0E
330
1E
100
AcDbEntity
  8
躯体と製品
  6
Continuous
 62
     3
100
AcDbLine
 10
3966.698959218371
 20
651.0962780667754
 30
0.0
 11
4012.863094218371
 21
697.2604130667755
 31
0.0
  0
LINE
  5
6C0F
330
1E
100
AcDbEntity
  8
躯体と製品
  6
Continuous
 62
     3
100
AcDbLine
 10
3977.895394218372
 20
655.2216380667754
 30
0.0
 11
4012.863094218371
 21
690.1893530667751
 31
0.0
  0
LINE
  5
6C10
330
1E
100
AcDbEntity
  8
躯体と製品
  6
Continuous
 62
     3
100
AcDbLine
 10
3986.037049218372
 20
656.2922330667758
 30
0.0
 11
4012.863094218371
 21
683.1182780667752
 31
0.0
  0
LINE
  5
6C11
330
1E
100
AcDbEntity
  8
躯体と製品
  6
Continuous
 62
     3
100
AcDbLine
 10
3992.868214218371
 20
656.0523230667752
 30
0.0
 11
4012.863094218371
 21
676.0472180667759
 31
0.0
  0
LINE
  5
6C12
330
1E
100
AcDbEntity
  8
躯体と製品
  6
Continuous
 62
     3
100
AcDbLine
 10
3998.863564218371
 20
654.9766130667755
 30
0.0
 11
4012.863094218371
 21
668.9761430667754
 31
0.0
  0
LINE
  5
6C13
330
1E
100
AcDbEntity
  8
躯体と製品
  6
Continuous
 62
     3
100
AcDbLine
 10
4004.233879218371
 20
653.2758530667756
 30
0.0
 11
4012.863094218371
 21
661.9050830667758
 31
0.0
  0
LINE
  5
6C14
330
1E
100
AcDbEntity
  8
躯体と製品
  6
Continuous
 62
     3
100
AcDbLine
 10
4009.091479218372
 20
651.0623930667748
 30
0.0
 11
4012.863094218371
 21
654.8340080667752
 31
0.0
  0
LINE
  5
6C15
330
1E
100
AcDbEntity
  8
躯体と製品
  6
Continuous
 62
     3
100
AcDbLine
 10
3962.863099218373
 20
661.4025530667758
 30
0.0
 11
4005.289504218372
 21
703.8289580667753
 31
0.0
  0
LINE
  5
6C16
330
1E
100
AcDbEntity
  8
躯体と製品
  6
Continuous
 62
     3
100
AcDbLine
 10
3962.863099218373
 20
668.4736280667749
 30
0.0
 11
3998.218444218372
 21
703.8289580667753
 31
0.0
  0
LINE
  5
6C17
330
1E
100
AcDbEntity
  8
躯体と製品
  6
Continuous
 62
     3
100
AcDbLine
 10
3962.863099218373
 20
675.544688066776
 30
0.0
 11
3991.147369218372
 21
703.8289580667753
 31
0.0
  0
LINE
  5
6C18
330
1E
100
AcDbEntity
  8
躯体と製品
  6
Continuous
 62
     3
100
AcDbLine
 10
3962.863099218373
 20
682.6157630667751
 30
0.0
 11
3984.076309218372
 21
703.8289580667753
 31
0.0
  0
LINE
  5
6C19
330
1E
100
AcDbEntity
  8
躯体と製品
  6
Continuous
 62
     3
100
AcDbLine
 10
3962.863099218373
 20
689.6868230667752
 30
0.0
 11
3977.005234218371
 21
703.8289580667753
 31
0.0
  0
LINE
  5
6C1A
330
1E
100
AcDbEntity
  8
躯体と製品
  6
Continuous
 62
     3
100
AcDbLine
 10
3962.863099218373
 20
696.7578980667752
 30
0.0
 11
3969.934159218371
 21
703.8289580667753
 31
0.0
  0
CIRCLE
  5
6C1B
330
1E
100
AcDbEntity
  8
躯体と製品
  6
Continuous
 62
     3
100
AcDbCircle
 10
4242.813214218371
 20
842.0892830667753
 30
0.0
 40
1.000005
  0
CIRCLE
  5
6C1C
330
1E
100
AcDbEntity
  8
躯体と製品
  6
Continuous
 62
     3
100
AcDbCircle
 10
4224.11724421837
 20
835.6956080667753
 30
0.0
 40
1.000005
  0
CIRCLE
  5
6C1D
330
1E
100
AcDbEntity
  8
躯体と製品
  6
Continuous
 62
     3
100
AcDbCircle
 10
4238.419534218371
 20
723.2175680667754
 30
0.0
 40
1.000005
  0
CIRCLE
  5
6C1E
330
1E
100
AcDbEntity
  8
躯体と製品
  6
Continuous
 62
     3
100
AcDbCircle
 10
4233.147124218371
 20
743.4284630667747
 30
0.0
 40
1.000005
  0
CIRCLE
  5
6C1F
330
1E
100
AcDbEntity
  8
躯体と製品
  6
Continuous
 62
     3
100
AcDbCircle
 10
4226.117254218371
 20
785.607728066776
 30
0.0
 40
1.000005
  0
CIRCLE
  5
6C20
330
1E
100
AcDbEntity
  8
躯体と製品
  6
Continuous
 62
     3
100
AcDbCircle
 10
4248.206884218371
 20
826.0295180667753
 30
0.0
 40
1.000005
  0
CIRCLE
  5
6C21
330
1E
100
AcDbEntity
  8
躯体と製品
  6
Continuous
 62
     3
100
AcDbCircle
 10
3974.859784218372
 20
744.8133530667758
 30
0.0
 40
1.000005
  0
CIRCLE
  5
6C22
330
1E
100
AcDbEntity
  8
躯体と製品
  6
Continuous
 62
     3
100
AcDbCircle
 10
3965.193694218372
 20
803.6885780667754
 30
0.0
 40
1.000005
  0
CIRCLE
  5
6C23
330
1E
100
AcDbEntity
  8
躯体と製品
  6
Continuous
 62
     3
100
AcDbCircle
 10
3966.951169218371
 20
837.0804830667754
 30
0.0
 40
1.000005
  0
CIRCLE
  5
6C24
330
1E
100
AcDbEntity
  8
躯体と製品
  6
Continuous
 62
     3
100
AcDbCircle
 10
4077.914269218371
 20
780.8414780667754
 30
0.0
 40
1.000005
  0
CIRCLE
  5
6C25
330
1E
100
AcDbEntity
  8
躯体と製品
  6
Continuous
 62
     3
100
AcDbCircle
 10
4113.06364921837
 20
762.3880430667754
 30
0.0
 40
1.000005
  0
CIRCLE
  5
6C26
330
1E
100
AcDbEntity
  8
躯体と製品
  6
Continuous
 62
     3
100
AcDbCircle
 10
4128.880864218371
 20
809.8397180667754
 30
0.0
 40
1.000005
  0
CIRCLE
  5
6C27
330
1E
100
AcDbEntity
  8
躯体と製品
  6
Continuous
 62
     3
100
AcDbCircle
 10
4197.422164218371
 20
731.6323280667757
 30
0.0
 40
1.000005
  0
CIRCLE
  5
6C28
330
1E
100
AcDbEntity
  8
躯体と製品
  6
Continuous
 62
     3
100
AcDbCircle
 10
4066.490719218371
 20
721.9662530667748
 30
0.0
 40
1.000005
  0
CIRCLE
  5
6C29
330
1E
100
AcDbEntity
  8
躯体と製品
  6
Continuous
 62
     3
100
AcDbCircle
 10
4141.183159218371
 20
740.4196880667755
 30
0.0
 40
1.000005
  0
CIRCLE
  5
6C2A
330
1E
100
AcDbEntity
  8
躯体と製品
  6
Continuous
 62
     3
100
AcDbCircle
 10
4145.576824218371
 20
787.8713480667753
 30
0.0
 40
1.000005
  0
CIRCLE
  5
6C2B
330
1E
100
AcDbEntity
  8
躯体と製品
  6
Continuous
 62
     3
100
AcDbCircle
 10
4122.729724218372
 20
838.8379580667757
 30
0.0
 40
1.000005
  0
CIRCLE
  5
6C2C
330
1E
100
AcDbEntity
  8
躯体と製品
  6
Continuous
 62
     3
100
AcDbCircle
 10
4091.974024218371
 20
846.7465730667754
 30
0.0
 40
1.000005
  0
CIRCLE
  5
6C2D
330
1E
100
AcDbEntity
  8
躯体と製品
  6
Continuous
 62
     3
100
AcDbCircle
 10
4145.576824218371
 20
830.0506130667752
 30
0.0
 40
1.000005
  0
CIRCLE
  5
6C2E
330
1E
100
AcDbEntity
  8
躯体と製品
  6
Continuous
 62
     3
100
AcDbCircle
 10
4113.06364921837
 20
784.3564130667752
 30
0.0
 40
1.000005
  0
CIRCLE
  5
6C2F
330
1E
100
AcDbEntity
  8
躯体と製品
  6
Continuous
 62
     3
100
AcDbCircle
 10
3990.919534218372
 20
788.7500930667753
 30
0.0
 40
1.000005
  0
CIRCLE
  5
6C30
330
1E
100
AcDbEntity
  8
躯体と製品
  6
Continuous
 62
     3
100
AcDbCircle
 10
4039.249939218371
 20
748.3282880667754
 30
0.0
 40
1.000005
  0
CIRCLE
  5
6C31
330
1E
100
AcDbEntity
  8
躯体と製品
  6
Continuous
 62
     3
100
AcDbCircle
 10
4080.550474218371
 20
758.8731080667757
 30
0.0
 40
1.000005
  0
ARC
  5
6C32
330
1E
100
AcDbEntity
  8
躯体と製品
  6
Continuous
 62
     3
100
AcDbCircle
 10
4099.003894218371
 20
712.3001780667757
 30
0.0
 40
1.000005
100
AcDbArc
 50
331.8870489999974
 51
208.1129510000026
  0
CIRCLE
  5
6C33
330
1E
100
AcDbEntity
  8
躯体と製品
  6
Continuous
 62
     3
100
AcDbCircle
 10
3999.706879218371
 20
725.4811880667756
 30
0.0
 40
1.000005
  0
CIRCLE
  5
6C34
330
1E
100
AcDbEntity
  8
躯体と製品
  6
Continuous
 62
     3
100
AcDbCircle
 10
4030.462594218372
 20
725.4811880667756
 30
0.0
 40
1.000005
  0
CIRCLE
  5
6C35
330
1E
100
AcDbEntity
  8
躯体と製品
  6
Continuous
 62
     3
100
AcDbCircle
 10
4087.580344218371
 20
814.2333830667755
 30
0.0
 40
1.000005
  0
CIRCLE
  5
6C36
330
1E
100
AcDbEntity
  8
躯体と製品
  6
Continuous
 62
     3
100
AcDbCircle
 10
4048.916014218372
 20
820.3845380667756
 30
0.0
 40
1.000005
  0
CIRCLE
  5
6C37
330
1E
100
AcDbEntity
  8
躯体と製品
  6
Continuous
 62
     3
100
AcDbCircle
 10
3985.647124218372
 20
808.9609880667754
 30
0.0
 40
1.000005
  0
CIRCLE
  5
6C38
330
1E
100
AcDbEntity
  8
躯体と製品
  6
Continuous
 62
     3
100
AcDbCircle
 10
4026.947659218371
 20
783.4776830667752
 30
0.0
 40
1.000005
  0
CIRCLE
  5
6C39
330
1E
100
AcDbEntity
  8
躯体と製品
  6
Continuous
 62
     3
100
AcDbCircle
 10
3983.010919218371
 20
756.2369030667755
 30
0.0
 40
1.000005
  0
CIRCLE
  5
6C3A
330
1E
100
AcDbEntity
  8
躯体と製品
  6
Continuous
 62
     3
100
AcDbCircle
 10
3978.617254218372
 20
851.1402380667759
 30
0.0
 40
1.000005
  0
CIRCLE
  5
6C3B
330
1E
100
AcDbEntity
  8
躯体と製品
  6
Continuous
 62
     3
100
AcDbCircle
 10
4001.464354218371
 20
821.2632680667756
 30
0.0
 40
1.000005
  0
CIRCLE
  5
6C3C
330
1E
100
AcDbEntity
  8
躯体と製品
  6
Continuous
 62
     3
100
AcDbCircle
 10
4026.947659218371
 20
844.9890980667758
 30
0.0
 40
1.000005
  0
LINE
  5
6C3D
330
1E
100
AcDbEntity
  8
躯体と製品
  6
Continuous
 62
     3
100
AcDbLine
 10
5645.363104218372
 20
1833.828968066776
 30
0.0
 11
4437.863104218371
 21
1833.828968066776
 31
0.0
  0
LINE
  5
6C3E
330
1E
100
AcDbEntity
  8
躯体と製品
  6
Continuous
 62
     3
100
AcDbLine
 10
4432.863094218371
 20
1838.828963066775
 30
0.0
 11
5640.363094218372
 21
1838.828963066775
 31
0.0
  0
LINE
  5
6C3F
330
1E
100
AcDbEntity
  8
躯体と製品
  6
Continuous
 62
     3
100
AcDbLine
 10
4930.363099218371
 20
1848.828968066776
 30
0.0
 11
4930.363099218371
 21
1838.828963066775
 31
0.0
  0
LINE
  5
6C40
330
1E
100
AcDbEntity
  8
躯体と製品
  6
Continuous
 62
     3
100
AcDbLine
 10
4930.363099218371
 20
1848.828968066776
 30
0.0
 11
4980.363094218374
 21
1848.828968066776
 31
0.0
  0
LINE
  5
6C41
330
1E
100
AcDbEntity
  8
躯体と製品
  6
Continuous
 62
     3
100
AcDbLine
 10
4980.363094218374
 20
1993.828958066776
 30
0.0
 11
4980.363094218374
 21
1848.828968066776
 31
0.0
  0
LINE
  5
6C42
330
1E
100
AcDbEntity
  8
躯体と製品
  6
Continuous
 62
     3
100
AcDbLine
 10
4980.363094218374
 20
1993.828958066776
 30
0.0
 11
5045.363104218371
 21
1993.828958066776
 31
0.0
  0
LINE
  5
6C43
330
1E
100
AcDbEntity
  8
躯体と製品
  6
Continuous
 62
     3
100
AcDbLine
 10
5045.363104218371
 20
1993.828958066776
 30
0.0
 11
5045.363104218371
 21
1848.828968066776
 31
0.0
  0
LINE
  5
6C44
330
1E
100
AcDbEntity
  8
躯体と製品
  6
Continuous
 62
     3
100
AcDbLine
 10
5045.363104218371
 20
1848.828968066776
 30
0.0
 11
5095.363099218372
 21
1848.828968066776
 31
0.0
  0
LINE
  5
6C45
330
1E
100
AcDbEntity
  8
躯体と製品
  6
Continuous
 62
     3
100
AcDbLine
 10
4990.363099218371
 20
1983.828968066775
 30
0.0
 11
4990.363099218371
 21
1833.828968066776
 31
0.0
  0
LINE
  5
6C46
330
1E
100
AcDbEntity
  8
躯体と製品
  6
Continuous
 62
     3
100
AcDbLine
 10
4990.363099218371
 20
1983.828968066775
 30
0.0
 11
5035.363099218372
 21
1983.828968066775
 31
0.0
  0
LINE
  5
6C47
330
1E
100
AcDbEntity
  8
躯体と製品
  6
Continuous
 62
     3
100
AcDbLine
 10
5035.363099218372
 20
1983.828968066775
 30
0.0
 11
5035.363099218372
 21
1833.828968066776
 31
0.0
  0
LINE
  5
6C48
330
1E
100
AcDbEntity
  8
躯体と製品
  6
Continuous
 62
     3
100
AcDbLine
 10
5012.863099218371
 20
608.8289630667757
 30
0.0
 11
5012.863099218371
 21
2039.585468066775
 31
0.0
  0
LINE
  5
6C49
330
1E
100
AcDbEntity
  8
躯体と製品
  6
Continuous
 62
     3
100
AcDbLine
 10
4937.863099218372
 20
1433.828963066776
 30
0.0
 11
5087.86309921837
 21
1433.828963066776
 31
0.0
  0
LINE
  5
6C4A
330
1E
100
AcDbEntity
  8
躯体と製品
  6
Continuous
 62
     3
100
AcDbLine
 10
5087.86309921837
 20
1433.828963066776
 30
0.0
 11
5087.86309921837
 21
1216.828958066775
 31
0.0
  0
LINE
  5
6C4B
330
1E
100
AcDbEntity
  8
躯体と製品
  6
Continuous
 62
     3
100
AcDbLine
 10
4937.863099218372
 20
1433.828963066776
 30
0.0
 11
4937.863099218372
 21
1216.828958066775
 31
0.0
  0
LINE
  5
6C4C
330
1E
100
AcDbEntity
  8
躯体と製品
  6
Continuous
 62
     3
100
AcDbLine
 10
4937.863099218372
 20
1425.828968066775
 30
0.0
 11
5087.86309921837
 21
1425.828968066775
 31
0.0
  0
LINE
  5
6C4D
330
1E
100
AcDbEntity
  8
躯体と製品
  6
Continuous
 62
     3
100
AcDbLine
 10
4962.863104218371
 20
1433.828963066776
 30
0.0
 11
4962.863104218371
 21
1425.828968066775
 31
0.0
  0
LINE
  5
6C4E
330
1E
100
AcDbEntity
  8
躯体と製品
  6
Continuous
 62
     3
100
AcDbLine
 10
5062.863094218371
 20
1433.828963066776
 30
0.0
 11
5062.863094218371
 21
1425.828968066775
 31
0.0
  0
LINE
  5
6C4F
330
1E
100
AcDbEntity
  8
躯体と製品
  6
Continuous
 62
     3
100
AcDbLine
 10
4952.863099218371
 20
1433.828963066776
 30
0.0
 11
4952.863099218371
 21
1425.828968066775
 31
0.0
  0
LINE
  5
6C50
330
1E
100
AcDbEntity
  8
躯体と製品
  6
Continuous
 62
     3
100
AcDbLine
 10
5072.863099218372
 20
1433.828963066776
 30
0.0
 11
5072.863099218372
 21
1425.828968066775
 31
0.0
  0
ARC
  5
6C51
330
1E
100
AcDbEntity
  8
躯体と製品
  6
Continuous
 62
     3
100
AcDbCircle
 10
5012.863099218371
 20
1416.953963066775
 30
0.0
 40
47.8125
100
AcDbArc
 50
61.92751300000858
 51
118.0724869999914
  0
ARC
  5
6C52
330
1E
100
AcDbEntity
  8
躯体と製品
  6
Continuous
 62
     3
100
AcDbCircle
 10
4980.519349218372
 20
1453.340678066775
 30
0.0
 40
11.425785
100
AcDbArc
 50
30.51023699999545
 51
149.4897630000045
  0
LINE
  5
6C53
330
1E
100
AcDbEntity
  8
躯体と製品
  6
Continuous
 62
     3
100
AcDbLine
 10
4980.519349218372
 20
1464.766463066775
 30
0.0
 11
5045.206849218372
 21
1464.766463066775
 31
0.0
  0
LINE
  5
6C54
330
1E
100
AcDbEntity
  8
躯体と製品
  6
Continuous
 62
     3
100
AcDbLine
 10
4970.67559921837
 20
1459.141463066775
 30
0.0
 11
4970.67559921837
 21
1433.828963066776
 31
0.0
  0
LINE
  5
6C55
330
1E
100
AcDbEntity
  8
躯体と製品
  6
Continuous
 62
     3
100
AcDbLine
 10
5055.05059921837
 20
1459.141463066775
 30
0.0
 11
5055.05059921837
 21
1433.828963066776
 31
0.0
  0
LINE
  5
6C56
330
1E
100
AcDbEntity
  8
躯体と製品
  6
Continuous
 62
     3
100
AcDbLine
 10
4990.363099218371
 20
1459.141463066775
 30
0.0
 11
4990.363099218371
 21
1433.828963066776
 31
0.0
  0
LINE
  5
6C57
330
1E
100
AcDbEntity
  8
躯体と製品
  6
Continuous
 62
     3
100
AcDbLine
 10
5035.363099218372
 20
1459.141463066775
 30
0.0
 11
5035.363099218372
 21
1433.828963066776
 31
0.0
  0
ARC
  5
6C58
330
1E
100
AcDbEntity
  8
躯体と製品
  6
Continuous
 62
     3
100
AcDbCircle
 10
5045.206849218372
 20
1453.340678066775
 30
0.0
 40
11.425785
100
AcDbArc
 50
30.51023699999545
 51
149.4897630000045
  0
ARC
  5
6C59
330
1E
100
AcDbEntity
  8
躯体と製品
  6
Continuous
 62
     3
100
AcDbCircle
 10
5012.863099218371
 20
1442.703968066775
 30
0.0
 40
47.8125
100
AcDbArc
 50
241.9275130000086
 51
298.0724869999914
  0
ARC
  5
6C5A
330
1E
100
AcDbEntity
  8
躯体と製品
  6
Continuous
 62
     3
100
AcDbCircle
 10
4980.519349218372
 20
1406.317238066775
 30
0.0
 40
11.425785
100
AcDbArc
 50
210.5102369999954
 51
329.4897630000045
  0
LINE
  5
6C5B
330
1E
100
AcDbEntity
  8
躯体と製品
  6
Continuous
 62
     3
100
AcDbLine
 10
4980.519349218372
 20
1394.891468066775
 30
0.0
 11
5045.206849218372
 21
1394.891468066775
 31
0.0
  0
LINE
  5
6C5C
330
1E
100
AcDbEntity
  8
躯体と製品
  6
Continuous
 62
     3
100
AcDbLine
 10
4970.67559921837
 20
1400.516468066775
 30
0.0
 11
4970.67559921837
 21
1425.828968066775
 31
0.0
  0
LINE
  5
6C5D
330
1E
100
AcDbEntity
  8
躯体と製品
  6
Continuous
 62
     3
100
AcDbLine
 10
5055.05059921837
 20
1400.516468066775
 30
0.0
 11
5055.05059921837
 21
1425.828968066775
 31
0.0
  0
LINE
  5
6C5E
330
1E
100
AcDbEntity
  8
躯体と製品
  6
Continuous
 62
     3
100
AcDbLine
 10
4990.363099218371
 20
1400.516468066775
 30
0.0
 11
4990.363099218371
 21
1425.828968066775
 31
0.0
  0
LINE
  5
6C5F
330
1E
100
AcDbEntity
  8
躯体と製品
  6
Continuous
 62
     3
100
AcDbLine
 10
5035.363099218372
 20
1400.516468066775
 30
0.0
 11
5035.363099218372
 21
1425.828968066775
 31
0.0
  0
ARC
  5
6C60
330
1E
100
AcDbEntity
  8
躯体と製品
  6
Continuous
 62
     3
100
AcDbCircle
 10
5045.206849218372
 20
1406.317238066775
 30
0.0
 40
11.425785
100
AcDbArc
 50
210.5102369999954
 51
329.4897630000045
  0
LINE
  5
6C61
330
1E
100
AcDbEntity
  8
躯体と製品
  6
Continuous
 62
     3
100
AcDbLine
 10
4990.363099218371
 20
1833.828968066776
 30
0.0
 11
4990.363099218371
 21
1464.766463066775
 31
0.0
  0
LINE
  5
6C62
330
1E
100
AcDbEntity
  8
躯体と製品
  6
Continuous
 62
     3
100
AcDbLine
 10
5035.363099218372
 20
1833.828968066776
 30
0.0
 11
5035.363099218372
 21
1464.766463066775
 31
0.0
  0
LINE
  5
6C63
330
1E
100
AcDbEntity
  8
躯体と製品
  6
Continuous
 62
     3
100
AcDbLine
 10
4432.863094218371
 20
1287.518978066775
 30
0.0
 11
4004.173084218371
 21
858.8289680667756
 31
0.0
  0
LINE
  5
6C64
330
1E
100
AcDbEntity
  8
躯体と製品
  6
Continuous
 62
     3
100
AcDbLine
 10
3957.863104218371
 20
812.5189880667759
 30
0.0
 11
3799.173079218372
 21
653.8289630667748
 31
0.0
  0
LINE
  5
6C65
330
1E
100
AcDbEntity
  8
躯体と製品
  6
Continuous
 62
     3
100
AcDbLine
 10
4432.863094218371
 20
1266.305783066775
 30
0.0
 11
4025.386279218372
 21
858.8289680667756
 31
0.0
  0
LINE
  5
6C66
330
1E
100
AcDbEntity
  8
躯体と製品
  6
Continuous
 62
     3
100
AcDbLine
 10
3957.863104218371
 20
791.3057780667752
 30
0.0
 11
3820.386289218371
 21
653.8289630667748
 31
0.0
  0
LINE
  5
6C67
330
1E
100
AcDbEntity
  8
躯体と製品
  6
Continuous
 62
     3
100
AcDbLine
 10
4432.863094218371
 20
1245.092573066775
 30
0.0
 11
4046.599489218372
 21
858.8289680667756
 31
0.0
  0
LINE
  5
6C68
330
1E
100
AcDbEntity
  8
躯体と製品
  6
Continuous
 62
     3
100
AcDbLine
 10
3957.863104218371
 20
770.0925830667754
 30
0.0
 11
3841.599484218371
 21
653.8289630667748
 31
0.0
  0
LINE
  5
6C69
330
1E
100
AcDbEntity
  8
躯体と製品
  6
Continuous
 62
     3
100
AcDbLine
 10
5418.351094218372
 20
2108.828963066776
 30
0.0
 11
5148.351094218371
 21
1838.828963066775
 31
0.0
  0
LINE
  5
6C6A
330
1E
100
AcDbEntity
  8
躯体と製品
  6
Continuous
 62
     3
100
AcDbLine
 10
5439.564289218371
 20
2108.828963066776
 30
0.0
 11
5169.564289218371
 21
1838.828963066775
 31
0.0
  0
LINE
  5
6C6B
330
1E
100
AcDbEntity
  8
躯体と製品
  6
Continuous
 62
     3
100
AcDbLine
 10
5460.777499218371
 20
2108.828963066776
 30
0.0
 11
5190.777499218371
 21
1838.828963066775
 31
0.0
  0
LINE
  5
6C6C
330
1E
100
AcDbEntity
  8
躯体と製品
  6
Continuous
 62
     3
100
AcDbLine
 10
5845.363099218371
 20
667.5789680667759
 30
0.0
 11
5345.363104218371
 21
667.5789680667759
 31
0.0
  0
LINE
  5
6C6D
330
1E
100
AcDbEntity
  8
躯体と製品
  6
Continuous
 62
     3
100
AcDbLine
 10
5845.363099218371
 20
678.8289680667755
 30
0.0
 11
5345.363104218371
 21
678.8289680667755
 31
0.0
  0
LINE
  5
6C6E
330
1E
100
AcDbEntity
  8
躯体と製品
  6
Continuous
 62
     3
100
AcDbLine
 10
5845.363099218371
 20
633.8289680667757
 30
0.0
 11
5345.363104218371
 21
633.8289680667757
 31
0.0
  0
LINE
  5
6C6F
330
1E
100
AcDbEntity
  8
躯体と製品
  6
Continuous
 62
     3
100
AcDbLine
 10
5845.363099218371
 20
656.3289680667751
 30
0.0
 11
5345.363104218371
 21
656.3289680667751
 31
0.0
  0
LINE
  5
6C70
330
1E
100
AcDbEntity
  8
躯体と製品
  6
Continuous
 62
     3
100
AcDbLine
 10
5845.363099218371
 20
645.0789680667756
 30
0.0
 11
5345.363104218371
 21
645.0789680667756
 31
0.0
  0
LINE
  5
6C71
330
1E
100
AcDbEntity
  8
躯体と製品
  6
Continuous
 62
     3
100
AcDbLine
 10
5095.363099218372
 20
1848.828968066776
 30
0.0
 11
5095.363099218372
 21
1838.828963066775
 31
0.0
  0
LINE
  5
6C72
330
1E
100
AcDbEntity
  8
躯体と製品
  6
Continuous
 62
     3
100
AcDbLine
 10
5345.363104218371
 20
678.8289680667755
 30
0.0
 11
5345.363104218371
 21
633.8289680667757
 31
0.0
  0
LINE
  5
6C73
330
1E
100
AcDbEntity
  8
躯体と製品
  6
Continuous
 62
     3
100
AcDbLine
 10
4842.86617921837
 20
1208.826778066775
 30
0.0
 11
5182.860029218371
 21
1208.826778066775
 31
0.0
  0
CIRCLE
  5
6C74
330
1E
100
AcDbEntity
  8
躯体と製品
  6
Continuous
 62
     3
100
AcDbCircle
 10
5212.303159218371
 20
1208.829398066775
 30
0.0
 40
4.5
  0
LINE
  5
6C75
330
1E
100
AcDbEntity
  8
躯体と製品
  6
Continuous
 62
     3
100
AcDbLine
 10
5012.863099218371
 20
1208.828963066776
 30
0.0
 11
4864.113094218371
 21
1208.828963066776
 31
0.0
  0
LINE
  5
6C76
330
1E
100
AcDbEntity
  8
躯体と製品
  6
Continuous
 62
     3
100
AcDbLine
 10
5012.863099218371
 20
1208.828963066776
 30
0.0
 11
5161.613104218371
 21
1208.828963066776
 31
0.0
  0
LINE
  5
6C77
330
1E
100
AcDbEntity
  8
躯体と製品
  6
Continuous
 62
     3
100
AcDbLine
 10
4712.86309921837
 20
811.3289630667752
 30
0.0
 11
4712.86309921837
 21
816.186998126591
 31
0.0
  0
LINE
  5
6C78
330
1E
100
AcDbEntity
  8
躯体と製品
  6
Continuous
 62
     3
100
AcDbLine
 10
4612.863094218371
 20
808.8289580667757
 30
0.0
 11
4705.402181456509
 21
808.8289580667757
 31
0.0
  0
LINE
  5
6C79
330
1E
100
AcDbEntity
  8
躯体と製品
  6
Continuous
 62
     3
100
AcDbLine
 10
4712.86309921837
 20
808.8289580667757
 30
0.0
 11
4712.86309921837
 21
889.8289580667748
 31
0.0
  0
LINE
  5
6C7A
330
1E
100
AcDbEntity
  8
躯体と製品
  6
Continuous
 62
     3
100
AcDbLine
 10
4705.402181456509
 20
808.8289580667757
 30
0.0
 11
4712.86309921837
 21
808.8289580667757
 31
0.0
  0
LINE
  5
6C7B
330
1E
100
AcDbEntity
  8
躯体と製品
  6
Continuous
 62
     3
100
AcDbLine
 10
4705.36321921837
 20
1203.826778066775
 30
0.0
 11
4705.36321921837
 21
952.3670180667759
 31
0.0
  0
LINE
  5
6C7C
330
1E
100
AcDbEntity
  8
躯体と製品
  6
Continuous
 62
     3
100
AcDbLine
 10
5320.363099218371
 20
1201.326928066775
 30
0.0
 11
5320.363099218371
 21
1086.824028066775
 31
0.0
  0
LINE
  5
6C7D
330
1E
100
AcDbEntity
  8
躯体と製品
  6
Continuous
 62
     3
100
AcDbLine
 10
4705.36321921837
 20
915.286408066775
 30
0.0
 11
4705.36321921837
 21
821.3287280667755
 31
0.0
  0
LINE
  5
6C7E
330
1E
100
AcDbEntity
  8
躯体と製品
  6
Continuous
 62
     3
100
AcDbLine
 10
5320.363099218371
 20
915.2494080667755
 30
0.0
 11
5320.363099218371
 21
821.3287280667755
 31
0.0
  0
LINE
  5
6C7F
330
1E
100
AcDbEntity
  8
躯体と製品
  6
Continuous
 62
     3
100
AcDbLine
 10
5312.86309921837
 20
808.8289580667757
 30
0.0
 11
5412.86124921837
 21
808.8289580667757
 31
0.0
  0
LINE
  5
6C80
330
1E
100
AcDbEntity
  8
躯体と製品
  6
Continuous
 62
     3
100
AcDbLine
 10
4867.865729218371
 20
1233.826328066775
 30
0.0
 11
4827.866449218371
 21
1233.826328066775
 31
0.0
  0
LINE
  5
6C81
330
1E
100
AcDbEntity
  8
躯体と製品
  6
Continuous
 62
     3
100
AcDbLine
 10
5157.860479218371
 20
1233.826328066775
 30
0.0
 11
5197.85977921837
 21
1233.826328066775
 31
0.0
  0
LINE
  5
6C82
330
1E
100
AcDbEntity
  8
躯体と製品
  6
Continuous
 62
     3
100
AcDbLine
 10
5087.86182921837
 20
1201.326978066775
 30
0.0
 11
5087.86182921837
 21
1148.827928066775
 31
0.0
  0
LINE
  5
6C83
330
1E
100
AcDbEntity
  8
躯体と製品
  6
Continuous
 62
     3
100
AcDbLine
 10
5090.36178921837
 20
1146.327978066775
 30
0.0
 11
5120.11115921837
 21
1146.327978066775
 31
0.0
  0
LINE
  5
6C84
330
1E
100
AcDbEntity
  8
躯体と製品
  6
Continuous
 62
     3
100
AcDbLine
 10
5095.46162921837
 20
1196.327068066775
 30
0.0
 11
5095.46162921837
 21
1153.827828066775
 31
0.0
  0
LINE
  5
6C85
330
1E
100
AcDbEntity
  8
躯体と製品
  6
Continuous
 62
     3
100
AcDbLine
 10
5180.36007921837
 20
1196.327068066775
 30
0.0
 11
5180.36007921837
 21
1153.827828066775
 31
0.0
  0
LINE
  5
6C86
330
1E
100
AcDbEntity
  8
躯体と製品
  6
Continuous
 62
     3
100
AcDbLine
 10
5100.461539218371
 20
1201.326978066775
 30
0.0
 11
5175.36016921837
 21
1201.326978066775
 31
0.0
  0
LINE
  5
6C87
330
1E
100
AcDbEntity
  8
躯体と製品
  6
Continuous
 62
     3
100
AcDbLine
 10
5155.610609218371
 20
1146.327978066775
 30
0.0
 11
5185.35992921837
 21
1146.327978066775
 31
0.0
  0
LINE
  5
6C88
330
1E
100
AcDbEntity
  8
躯体と製品
  6
Continuous
 62
     3
100
AcDbLine
 10
5187.85987921837
 20
1201.326978066775
 30
0.0
 11
5187.85987921837
 21
1148.827928066775
 31
0.0
  0
LINE
  5
6C89
330
1E
100
AcDbEntity
  8
躯体と製品
  6
Continuous
 62
     3
100
AcDbLine
 10
5154.11062921837
 20
1153.827828066775
 30
0.0
 11
5154.11062921837
 21
1147.827948066775
 31
0.0
  0
LINE
  5
6C8A
330
1E
100
AcDbEntity
  8
躯体と製品
  6
Continuous
 62
     3
100
AcDbLine
 10
5154.11062921837
 20
1153.827828066775
 30
0.0
 11
5180.36007921837
 21
1153.827828066775
 31
0.0
  0
LINE
  5
6C8B
330
1E
100
AcDbEntity
  8
躯体と製品
  6
Continuous
 62
     3
100
AcDbLine
 10
5095.46162921837
 20
1153.827828066775
 30
0.0
 11
5121.61112921837
 21
1153.827828066775
 31
0.0
  0
LINE
  5
6C8C
330
1E
100
AcDbEntity
  8
躯体と製品
  6
Continuous
 62
     3
100
AcDbLine
 10
5121.61112921837
 20
1153.827828066775
 30
0.0
 11
5121.61112921837
 21
1147.827948066775
 31
0.0
  0
LINE
  5
6C8D
330
1E
100
AcDbEntity
  8
躯体と製品
  6
Continuous
 62
     3
100
AcDbLine
 10
5338.86729921837
 20
938.2930080667753
 30
0.0
 11
5341.36778921837
 21
938.2930080667753
 31
0.0
  0
LINE
  5
6C8E
330
1E
100
AcDbEntity
  8
躯体と製品
  6
Continuous
 62
     3
100
AcDbLine
 10
5342.868099218371
 20
944.9747180667756
 30
0.0
 11
5342.868099218371
 21
939.7933180667754
 31
0.0
  0
LINE
  5
6C8F
330
1E
100
AcDbEntity
  8
躯体と製品
  6
Continuous
 62
     3
100
AcDbLine
 10
5338.86729921837
 20
929.2911380667753
 30
0.0
 11
5341.36778921837
 21
929.2911380667753
 31
0.0
  0
LINE
  5
6C90
330
1E
100
AcDbEntity
  8
躯体と製品
  6
Continuous
 62
     3
100
AcDbLine
 10
5342.868099218371
 20
927.7908280667752
 30
0.0
 11
5342.868099218371
 21
922.6093880667756
 31
0.0
  0
LINE
  5
6C91
330
1E
100
AcDbEntity
  8
躯体と製品
  6
Continuous
 62
     3
100
AcDbLine
 10
5320.363099218371
 20
1081.822978066775
 30
0.0
 11
5331.86554921837
 21
1081.822978066775
 31
0.0
  0
LINE
  5
6C92
330
1E
100
AcDbEntity
  8
躯体と製品
  6
Continuous
 62
     3
100
AcDbLine
 10
5320.363099218371
 20
1086.824028066775
 30
0.0
 11
5335.366079218371
 21
1086.824028066775
 31
0.0
  0
LINE
  5
6C93
330
1E
100
AcDbEntity
  8
躯体と製品
  6
Continuous
 62
     3
100
AcDbLine
 10
5320.363099218371
 20
1081.822978066775
 30
0.0
 11
5320.363099218371
 21
948.7951780667756
 31
0.0
  0
LINE
  5
6C94
330
1E
100
AcDbEntity
  8
躯体と製品
  6
Continuous
 62
     3
100
AcDbLine
 10
5331.86554921837
 20
1081.822978066775
 30
0.0
 11
5331.86554921837
 21
1070.820078066776
 31
0.0
  0
LINE
  5
6C95
330
1E
100
AcDbEntity
  8
躯体と製品
  6
Continuous
 62
     3
100
AcDbLine
 10
5320.363099218371
 20
948.7951780667756
 30
0.0
 11
5331.86554921837
 21
948.7951780667756
 31
0.0
  0
LINE
  5
6C96
330
1E
100
AcDbEntity
  8
躯体と製品
  6
Continuous
 62
     3
100
AcDbLine
 10
5331.86554921837
 20
959.7981180667753
 30
0.0
 11
5331.86554921837
 21
948.7951780667756
 31
0.0
  0
LINE
  5
6C97
330
1E
100
AcDbEntity
  8
躯体と製品
  6
Continuous
 62
     3
100
AcDbLine
 10
5337.86659921837
 20
1070.822978066775
 30
0.0
 11
5337.86659921837
 21
1084.323508066775
 31
0.0
  0
LINE
  5
6C98
330
1E
100
AcDbEntity
  8
躯体と製品
  6
Continuous
 62
     3
100
AcDbLine
 10
5337.86564921837
 20
959.7951780667749
 30
0.0
 11
5337.86564921837
 21
947.9377080667754
 31
0.0
  0
ARC
  5
6C99
330
1E
100
AcDbEntity
  8
躯体と製品
  6
Continuous
 62
     3
100
AcDbCircle
 10
4710.36321921837
 20
1203.826778066775
 30
0.0
 40
5.0
100
AcDbArc
 50
90.0
 51
180.0
  0
ARC
  5
6C9A
330
1E
100
AcDbEntity
  8
躯体と製品
  6
Continuous
 62
     3
100
AcDbCircle
 10
4700.36321921837
 20
952.3670180667759
 30
0.0
 40
5.0
100
AcDbArc
 50
247.9762200000068
 51
0.0
  0
ARC
  5
6C9B
330
1E
100
AcDbEntity
  8
躯体と製品
  6
Continuous
 62
     3
100
AcDbCircle
 10
4700.36321921837
 20
915.286408066775
 30
0.0
 40
5.0
100
AcDbArc
 50
0.0
 51
112.0237700000016
  0
ARC
  5
6C9C
330
1E
100
AcDbEntity
  8
躯体と製品
  6
Continuous
 62
     3
100
AcDbCircle
 10
5325.36309921837
 20
915.2494080667755
 30
0.0
 40
5.0
100
AcDbArc
 50
67.97012299999195
 51
180.0
  0
ARC
  5
6C9D
330
1E
100
AcDbEntity
  8
躯体と製品
  6
Continuous
 62
     3
100
AcDbCircle
 10
4692.863499218371
 20
933.8267380667753
 30
0.0
 40
7.499869999999999
100
AcDbArc
 50
216.8698999999956
 51
143.1300799999997
  0
ARC
  5
6C9E
330
1E
100
AcDbEntity
  8
躯体と製品
  6
Continuous
 62
     3
100
AcDbCircle
 10
4692.863499218371
 20
933.8267380667753
 30
0.0
 40
14.99973
100
AcDbArc
 50
228.189690000008
 51
292.0237799999932
  0
ARC
  5
6C9F
330
1E
100
AcDbEntity
  8
躯体と製品
  6
Continuous
 62
     3
100
AcDbCircle
 10
4827.866449218371
 20
1218.826628066775
 30
0.0
 40
14.99973
100
AcDbArc
 50
90.0
 51
131.810280000009
  0
ARC
  5
6CA0
330
1E
100
AcDbEntity
  8
躯体と製品
  6
Continuous
 62
     3
100
AcDbCircle
 10
4819.366549218369
 20
1224.826698066775
 30
0.0
 40
1.499969999999999
100
AcDbArc
 50
180.0
 51
270.0
  0
ARC
  5
6CA1
330
1E
100
AcDbEntity
  8
躯体と製品
  6
Continuous
 62
     3
100
AcDbCircle
 10
4819.366549218369
 20
1212.826758066775
 30
0.0
 40
1.499969999999999
100
AcDbArc
 50
90.0
 51
180.0
  0
ARC
  5
6CA2
330
1E
100
AcDbEntity
  8
躯体と製品
  6
Continuous
 62
     3
100
AcDbCircle
 10
5206.359659218369
 20
1224.826698066775
 30
0.0
 40
1.499969999999999
100
AcDbArc
 50
270.0
 51
0.0
  0
ARC
  5
6CA3
330
1E
100
AcDbEntity
  8
躯体と製品
  6
Continuous
 62
     3
100
AcDbCircle
 10
5206.359659218369
 20
1212.826758066775
 30
0.0
 40
1.499969999999999
100
AcDbArc
 50
0.0
 51
90.0
  0
ARC
  5
6CA4
330
1E
100
AcDbEntity
  8
躯体と製品
  6
Continuous
 62
     3
100
AcDbCircle
 10
5197.85977921837
 20
1218.826628066775
 30
0.0
 40
14.99973
100
AcDbArc
 50
48.18968199998526
 51
90.0
  0
ARC
  5
6CA5
330
1E
100
AcDbEntity
  8
躯体と製品
  6
Continuous
 62
     3
100
AcDbCircle
 10
4727.86282921837
 20
1186.327248066775
 30
0.0
 40
14.99973
100
AcDbArc
 50
90.0
 51
180.0
  0
ARC
  5
6CA6
330
1E
100
AcDbEntity
  8
躯体と製品
  6
Continuous
 62
     3
100
AcDbCircle
 10
5297.86336921837
 20
1186.327248066775
 30
0.0
 40
14.99973
100
AcDbArc
 50
0.0
 51
90.0
  0
ARC
  5
6CA7
330
1E
100
AcDbEntity
  8
躯体と製品
  6
Continuous
 62
     3
100
AcDbCircle
 10
4700.36330921837
 20
821.3287280667755
 30
0.0
 40
4.99991
100
AcDbArc
 50
270.0
 51
0.0
  0
ARC
  5
6CA8
330
1E
100
AcDbEntity
  8
躯体と製品
  6
Continuous
 62
     3
100
AcDbCircle
 10
5325.36300921837
 20
821.3287280667755
 30
0.0
 40
4.99991
100
AcDbArc
 50
180.0
 51
270.0
  0
ARC
  5
6CA9
330
1E
100
AcDbEntity
  8
躯体と製品
  6
Continuous
 62
     3
100
AcDbCircle
 10
4850.466039218369
 20
1196.327068066775
 30
0.0
 40
4.99991
100
AcDbArc
 50
90.0
 51
180.0
  0
ARC
  5
6CAA
330
1E
100
AcDbEntity
  8
躯体と製品
  6
Continuous
 62
     3
100
AcDbCircle
 10
4840.36622921837
 20
1148.827928066775
 30
0.0
 40
2.499959999999999
100
AcDbArc
 50
180.0
 51
270.0
  0
ARC
  5
6CAB
330
1E
100
AcDbEntity
  8
躯体と製品
  6
Continuous
 62
     3
100
AcDbCircle
 10
4870.115709218371
 20
1147.827948066775
 30
0.0
 40
1.499969999999999
100
AcDbArc
 50
270.0
 51
0.0
  0
ARC
  5
6CAC
330
1E
100
AcDbEntity
  8
躯体と製品
  6
Continuous
 62
     3
100
AcDbCircle
 10
4905.61505921837
 20
1147.827948066775
 30
0.0
 40
1.499969999999999
100
AcDbArc
 50
180.0
 51
270.0
  0
ARC
  5
6CAD
330
1E
100
AcDbEntity
  8
躯体と製品
  6
Continuous
 62
     3
100
AcDbCircle
 10
4925.36466921837
 20
1196.327068066775
 30
0.0
 40
4.99991
100
AcDbArc
 50
0.0
 51
90.0
  0
ARC
  5
6CAE
330
1E
100
AcDbEntity
  8
躯体と製品
  6
Continuous
 62
     3
100
AcDbCircle
 10
4935.364479218369
 20
1148.827928066775
 30
0.0
 40
2.499959999999999
100
AcDbArc
 50
270.0
 51
0.0
  0
ARC
  5
6CAF
330
1E
100
AcDbEntity
  8
躯体と製品
  6
Continuous
 62
     3
100
AcDbCircle
 10
4684.363629218371
 20
939.8266180667755
 30
0.0
 40
1.499969999999999
100
AcDbArc
 50
180.0
 51
270.0
  0
ARC
  5
6CB0
330
1E
100
AcDbEntity
  8
躯体と製品
  6
Continuous
 62
     3
100
AcDbCircle
 10
4684.363629218371
 20
927.8268580667752
 30
0.0
 40
1.499969999999999
100
AcDbArc
 50
90.0
 51
180.0
  0
ARC
  5
6CB1
330
1E
100
AcDbEntity
  8
躯体と製品
  6
Continuous
 62
     3
100
AcDbCircle
 10
4692.863499218371
 20
933.8267380667753
 30
0.0
 40
14.99973
100
AcDbArc
 50
67.97621099999894
 51
131.810280000009
  0
ARC
  5
6CB2
330
1E
100
AcDbEntity
  8
躯体と製品
  6
Continuous
 62
     3
100
AcDbCircle
 10
5197.85977921837
 20
1218.826628066775
 30
0.0
 40
7.5
100
AcDbArc
 50
36.8702690000041
 51
323.130809999995
  0
ARC
  5
6CB3
330
1E
100
AcDbEntity
  8
躯体と製品
  6
Continuous
 62
     3
100
AcDbCircle
 10
4827.866449218371
 20
1218.826628066775
 30
0.0
 40
7.5
100
AcDbArc
 50
216.8693599999986
 51
143.1295599999943
  0
ARC
  5
6CB4
330
1E
100
AcDbEntity
  8
躯体と製品
  6
Continuous
 62
     3
100
AcDbCircle
 10
5100.461539218371
 20
1196.327068066775
 30
0.0
 40
4.99991
100
AcDbArc
 50
90.0
 51
180.0
  0
ARC
  5
6CB5
330
1E
100
AcDbEntity
  8
躯体と製品
  6
Continuous
 62
     3
100
AcDbCircle
 10
5090.36178921837
 20
1148.827928066775
 30
0.0
 40
2.499959999999999
100
AcDbArc
 50
180.0
 51
270.0
  0
ARC
  5
6CB6
330
1E
100
AcDbEntity
  8
躯体と製品
  6
Continuous
 62
     3
100
AcDbCircle
 10
5120.11115921837
 20
1147.827948066775
 30
0.0
 40
1.499969999999999
100
AcDbArc
 50
270.0
 51
0.0
  0
ARC
  5
6CB7
330
1E
100
AcDbEntity
  8
躯体と製品
  6
Continuous
 62
     3
100
AcDbCircle
 10
5155.610609218371
 20
1147.827948066775
 30
0.0
 40
1.499969999999999
100
AcDbArc
 50
180.0
 51
270.0
  0
ARC
  5
6CB8
330
1E
100
AcDbEntity
  8
躯体と製品
  6
Continuous
 62
     3
100
AcDbCircle
 10
5175.36016921837
 20
1196.327068066775
 30
0.0
 40
4.99991
100
AcDbArc
 50
0.0
 51
90.0
  0
ARC
  5
6CB9
330
1E
100
AcDbEntity
  8
躯体と製品
  6
Continuous
 62
     3
100
AcDbCircle
 10
5185.35992921837
 20
1148.827928066775
 30
0.0
 40
2.499959999999999
100
AcDbArc
 50
270.0
 51
0.0
  0
ARC
  5
6CBA
330
1E
100
AcDbEntity
  8
躯体と製品
  6
Continuous
 62
     3
100
AcDbCircle
 10
5332.866049218369
 20
933.7920980667755
 30
0.0
 40
7.50157
100
AcDbArc
 50
36.86988800000744
 51
323.1301100000002
  0
ARC
  5
6CBB
330
1E
100
AcDbEntity
  8
躯体と製品
  6
Continuous
 62
     3
100
AcDbCircle
 10
5332.866049218369
 20
933.7920980667755
 30
0.0
 40
15.00313
100
AcDbArc
 50
247.9701299999919
 51
311.810309999992
  0
ARC
  5
6CBC
330
1E
100
AcDbEntity
  8
躯体と製品
  6
Continuous
 62
     3
100
AcDbCircle
 10
5341.36778921837
 20
939.7933180667754
 30
0.0
 40
1.500309999999999
100
AcDbArc
 50
270.0
 51
0.0
  0
ARC
  5
6CBD
330
1E
100
AcDbEntity
  8
躯体と製品
  6
Continuous
 62
     3
100
AcDbCircle
 10
5341.36778921837
 20
927.7908280667752
 30
0.0
 40
1.500309999999999
100
AcDbArc
 50
0.0
 51
90.0
  0
ARC
  5
6CBE
330
1E
100
AcDbEntity
  8
躯体と製品
  6
Continuous
 62
     3
100
AcDbCircle
 10
5332.866049218369
 20
933.7920980667755
 30
0.0
 40
15.00313
100
AcDbArc
 50
48.18968199998526
 51
70.53495699999897
  0
ARC
  5
6CBF
330
1E
100
AcDbEntity
  8
躯体と製品
  6
Continuous
 62
     3
100
AcDbCircle
 10
5335.366079218371
 20
1084.323508066775
 30
0.0
 40
2.500519999999999
100
AcDbArc
 50
0.0
 51
90.0
  0
LINE
  5
6CC0
330
1E
100
AcDbEntity
  8
躯体と製品
  6
Continuous
 62
     3
100
AcDbLine
 10
5312.86309921837
 20
1186.327248066775
 30
0.0
 11
5312.86309921837
 21
808.8289580667757
 31
0.0
  0
LINE
  5
6CC1
330
1E
100
AcDbEntity
  8
躯体と製品
  6
Continuous
 62
     3
100
AcDbLine
 10
5412.86124921837
 20
833.8285180667753
 30
0.0
 11
5412.86124921837
 21
808.8289580667757
 31
0.0
  0
LINE
  5
6CC2
330
1E
100
AcDbEntity
  8
躯体と製品
  6
Continuous
 62
     3
100
AcDbLine
 10
5406.36139921837
 20
833.8285180667753
 30
0.0
 11
5412.86124921837
 21
833.8285180667753
 31
0.0
  0
LINE
  5
6CC3
330
1E
100
AcDbEntity
  8
躯体と製品
  6
Continuous
 62
     3
100
AcDbLine
 10
4619.364789218371
 20
816.3288180667752
 30
0.0
 11
4700.36330921837
 21
816.3288180667752
 31
0.0
  0
LINE
  5
6CC4
330
1E
100
AcDbEntity
  8
躯体と製品
  6
Continuous
 62
     3
100
AcDbLine
 10
5325.36300921837
 20
816.3288180667752
 30
0.0
 11
5406.36139921837
 21
816.3288180667752
 31
0.0
  0
LINE
  5
6CC5
330
1E
100
AcDbEntity
  8
躯体と製品
  6
Continuous
 62
     3
100
AcDbLine
 10
5406.36139921837
 20
833.8285180667753
 30
0.0
 11
5406.36139921837
 21
816.3289680667753
 31
0.0
  0
LINE
  5
6CC6
330
1E
100
AcDbEntity
  8
躯体と製品
  6
Continuous
 62
     3
100
AcDbLine
 10
4712.86309921837
 20
1186.327248066775
 30
0.0
 11
4712.86309921837
 21
808.8289580667757
 31
0.0
  0
LINE
  5
6CC7
330
1E
100
AcDbEntity
  8
躯体と製品
  6
Continuous
 62
     3
100
AcDbLine
 10
5341.36269921837
 20
1201.326928066775
 30
0.0
 11
5341.36269921837
 21
1195.827128066775
 31
0.0
  0
LINE
  5
6CC8
330
1E
100
AcDbEntity
  8
躯体と製品
  6
Continuous
 62
     3
100
AcDbLine
 10
5320.363099218371
 20
1201.326928066775
 30
0.0
 11
5341.36269921837
 21
1201.326928066775
 31
0.0
  0
LINE
  5
6CC9
330
1E
100
AcDbEntity
  8
躯体と製品
  6
Continuous
 62
     3
100
AcDbLine
 10
5347.86234921837
 20
1208.826778066775
 30
0.0
 11
5347.86234921837
 21
1199.326978066775
 31
0.0
  0
LINE
  5
6CCA
330
1E
100
AcDbEntity
  8
躯体と製品
  6
Continuous
 62
     3
100
AcDbLine
 10
5341.36269921837
 20
1195.827128066775
 30
0.0
 11
5344.362599218371
 21
1195.827128066775
 31
0.0
  0
LINE
  5
6CCB
330
1E
100
AcDbEntity
  8
躯体と製品
  6
Continuous
 62
     3
100
AcDbLine
 10
5347.86234921837
 20
1199.326978066775
 30
0.0
 11
5344.362599218371
 21
1195.827128066775
 31
0.0
  0
LINE
  5
6CCC
330
1E
100
AcDbEntity
  8
躯体と製品
  6
Continuous
 62
     3
100
AcDbLine
 10
5182.860029218371
 20
1224.826528066775
 30
0.0
 11
5182.860029218371
 21
1208.826778066775
 31
0.0
  0
LINE
  5
6CCD
330
1E
100
AcDbEntity
  8
躯体と製品
  6
Continuous
 62
     3
100
AcDbLine
 10
4819.366549218369
 20
1223.326728066775
 30
0.0
 11
4821.86653921837
 21
1223.326728066775
 31
0.0
  0
LINE
  5
6CCE
330
1E
100
AcDbEntity
  8
躯体と製品
  6
Continuous
 62
     3
100
AcDbLine
 10
4819.366549218369
 20
1214.326728066775
 30
0.0
 11
4821.86653921837
 21
1214.326728066775
 31
0.0
  0
LINE
  5
6CCF
330
1E
100
AcDbEntity
  8
躯体と製品
  6
Continuous
 62
     3
100
AcDbLine
 10
4842.86617921837
 20
1224.826528066775
 30
0.0
 11
4842.86617921837
 21
1208.826778066775
 31
0.0
  0
LINE
  5
6CD0
330
1E
100
AcDbEntity
  8
躯体と製品
  6
Continuous
 62
     3
100
AcDbLine
 10
4817.866579218369
 20
1212.826758066775
 30
0.0
 11
4817.866579218369
 21
1208.826778066775
 31
0.0
  0
LINE
  5
6CD1
330
1E
100
AcDbEntity
  8
躯体と製品
  6
Continuous
 62
     3
100
AcDbLine
 10
4710.36321921837
 20
1208.826778066775
 30
0.0
 11
4817.866579218369
 21
1208.826778066775
 31
0.0
  0
LINE
  5
6CD2
330
1E
100
AcDbEntity
  8
躯体と製品
  6
Continuous
 62
     3
100
AcDbLine
 10
5203.85977921837
 20
1223.326728066775
 30
0.0
 11
5206.359659218369
 21
1223.326728066775
 31
0.0
  0
LINE
  5
6CD3
330
1E
100
AcDbEntity
  8
躯体と製品
  6
Continuous
 62
     3
100
AcDbLine
 10
5203.85977921837
 20
1214.326728066775
 30
0.0
 11
5206.359659218369
 21
1214.326728066775
 31
0.0
  0
LINE
  5
6CD4
330
1E
100
AcDbEntity
  8
躯体と製品
  6
Continuous
 62
     3
100
AcDbLine
 10
5207.85962921837
 20
1208.826778066775
 30
0.0
 11
5347.86234921837
 21
1208.826778066775
 31
0.0
  0
LINE
  5
6CD5
330
1E
100
AcDbEntity
  8
躯体と製品
  6
Continuous
 62
     3
100
AcDbLine
 10
4817.866579218369
 20
1230.006828066776
 30
0.0
 11
4817.866579218369
 21
1224.826698066775
 31
0.0
  0
LINE
  5
6CD6
330
1E
100
AcDbEntity
  8
躯体と製品
  6
Continuous
 62
     3
100
AcDbLine
 10
5207.85962921837
 20
1212.826758066775
 30
0.0
 11
5207.85962921837
 21
1208.826778066775
 31
0.0
  0
LINE
  5
6CD7
330
1E
100
AcDbEntity
  8
躯体と製品
  6
Continuous
 62
     3
100
AcDbLine
 10
5207.85962921837
 20
1230.006828066776
 30
0.0
 11
5207.85962921837
 21
1224.826698066775
 31
0.0
  0
LINE
  5
6CD8
330
1E
100
AcDbEntity
  8
躯体と製品
  6
Continuous
 62
     3
100
AcDbLine
 10
4612.86492921837
 20
808.8289580667757
 30
0.0
 11
4712.86309921837
 21
808.8289580667757
 31
0.0
  0
LINE
  5
6CD9
330
1E
100
AcDbEntity
  8
躯体と製品
  6
Continuous
 62
     3
100
AcDbLine
 10
4837.86626921837
 20
1201.326978066775
 30
0.0
 11
4837.86626921837
 21
1148.827928066775
 31
0.0
  0
LINE
  5
6CDA
330
1E
100
AcDbEntity
  8
躯体と製品
  6
Continuous
 62
     3
100
AcDbLine
 10
5187.85987921837
 20
1201.326978066775
 30
0.0
 11
5297.86336921837
 21
1201.326978066775
 31
0.0
  0
LINE
  5
6CDB
330
1E
100
AcDbEntity
  8
躯体と製品
  6
Continuous
 62
     3
100
AcDbLine
 10
4727.86282921837
 20
1201.326978066775
 30
0.0
 11
4837.86626921837
 21
1201.326978066775
 31
0.0
  0
LINE
  5
6CDC
330
1E
100
AcDbEntity
  8
躯体と製品
  6
Continuous
 62
     3
100
AcDbLine
 10
4840.36622921837
 20
1146.327978066775
 30
0.0
 11
4870.115709218371
 21
1146.327978066775
 31
0.0
  0
LINE
  5
6CDD
330
1E
100
AcDbEntity
  8
躯体と製品
  6
Continuous
 62
     3
100
AcDbLine
 10
4845.46612921837
 20
1196.327068066775
 30
0.0
 11
4845.46612921837
 21
1153.827828066775
 31
0.0
  0
LINE
  5
6CDE
330
1E
100
AcDbEntity
  8
躯体と製品
  6
Continuous
 62
     3
100
AcDbLine
 10
4930.36457921837
 20
1196.327068066775
 30
0.0
 11
4930.36457921837
 21
1153.827828066775
 31
0.0
  0
LINE
  5
6CDF
330
1E
100
AcDbEntity
  8
躯体と製品
  6
Continuous
 62
     3
100
AcDbLine
 10
4850.466039218369
 20
1201.326978066775
 30
0.0
 11
4925.36466921837
 21
1201.326978066775
 31
0.0
  0
LINE
  5
6CE0
330
1E
100
AcDbEntity
  8
躯体と製品
  6
Continuous
 62
     3
100
AcDbLine
 10
4937.864429218371
 20
1201.326978066775
 30
0.0
 11
5087.86167921837
 21
1201.326978066775
 31
0.0
  0
LINE
  5
6CE1
330
1E
100
AcDbEntity
  8
躯体と製品
  6
Continuous
 62
     3
100
AcDbLine
 10
4905.61505921837
 20
1146.327978066775
 30
0.0
 11
4935.364479218369
 21
1146.327978066775
 31
0.0
  0
LINE
  5
6CE2
330
1E
100
AcDbEntity
  8
躯体と製品
  6
Continuous
 62
     3
100
AcDbLine
 10
4937.864429218371
 20
1201.326978066775
 30
0.0
 11
4937.864429218371
 21
1148.827928066775
 31
0.0
  0
LINE
  5
6CE3
330
1E
100
AcDbEntity
  8
躯体と製品
  6
Continuous
 62
     3
100
AcDbLine
 10
4684.363629218371
 20
938.3266380667757
 30
0.0
 11
4686.863549218371
 21
938.3266380667757
 31
0.0
  0
LINE
  5
6CE4
330
1E
100
AcDbEntity
  8
躯体と製品
  6
Continuous
 62
     3
100
AcDbLine
 10
4684.363629218371
 20
929.3268280667755
 30
0.0
 11
4686.863549218371
 21
929.3268280667755
 31
0.0
  0
LINE
  5
6CE5
330
1E
100
AcDbEntity
  8
躯体と製品
  6
Continuous
 62
     3
100
AcDbLine
 10
4682.86364921837
 20
927.8268580667752
 30
0.0
 11
4682.86364921837
 21
922.6466480667758
 31
0.0
  0
LINE
  5
6CE6
330
1E
100
AcDbEntity
  8
躯体と製品
  6
Continuous
 62
     3
100
AcDbLine
 10
4682.86364921837
 20
945.0068680667756
 30
0.0
 11
4682.86364921837
 21
939.8266180667755
 31
0.0
  0
LINE
  5
6CE7
330
1E
100
AcDbEntity
  8
躯体と製品
  6
Continuous
 62
     3
100
AcDbLine
 10
4904.115079218371
 20
1153.827828066775
 30
0.0
 11
4904.115079218371
 21
1147.827948066775
 31
0.0
  0
LINE
  5
6CE8
330
1E
100
AcDbEntity
  8
躯体と製品
  6
Continuous
 62
     3
100
AcDbLine
 10
4904.115079218371
 20
1153.827828066775
 30
0.0
 11
4930.36457921837
 21
1153.827828066775
 31
0.0
  0
LINE
  5
6CE9
330
1E
100
AcDbEntity
  8
躯体と製品
  6
Continuous
 62
     3
100
AcDbLine
 10
4845.46612921837
 20
1153.827828066775
 30
0.0
 11
4871.61567921837
 21
1153.827828066775
 31
0.0
  0
LINE
  5
6CEA
330
1E
100
AcDbEntity
  8
躯体と製品
  6
Continuous
 62
     3
100
AcDbLine
 10
4871.61567921837
 20
1153.827828066775
 30
0.0
 11
4871.61567921837
 21
1147.827948066775
 31
0.0
  0
ARC
  5
6CEB
330
1E
100
AcDbEntity
  8
躯体と製品
  6
Continuous
 62
     3
100
AcDbCircle
 10
5334.86559921837
 20
959.7951780667749
 30
0.0
 40
3.00005
100
AcDbArc
 50
0.0
 51
180.0
  0
ARC
  5
6CEC
330
1E
100
AcDbEntity
  8
躯体と製品
  6
Continuous
 62
     3
100
AcDbCircle
 10
5334.86607921837
 20
1070.822978066775
 30
0.0
 40
3.000519999999999
100
AcDbArc
 50
180.0
 51
0.0
  0
LINE
  5
6CED
330
1E
100
AcDbEntity
  8
躯体と製品
  6
Continuous
 62
     3
100
AcDbLine
 10
4867.865729218371
 20
1233.826328066775
 30
0.0
 11
4867.865729218371
 21
1224.826528066775
 31
0.0
  0
LINE
  5
6CEE
330
1E
100
AcDbEntity
  8
躯体と製品
  6
Continuous
 62
     3
100
AcDbLine
 10
4842.86617921837
 20
1224.826528066775
 30
0.0
 11
4867.865729218371
 21
1224.826528066775
 31
0.0
  0
LINE
  5
6CEF
330
1E
100
AcDbEntity
  8
躯体と製品
  6
Continuous
 62
     3
100
AcDbLine
 10
5157.860479218371
 20
1224.826528066775
 30
0.0
 11
5182.860029218371
 21
1224.826528066775
 31
0.0
  0
LINE
  5
6CF0
330
1E
100
AcDbEntity
  8
躯体と製品
  6
Continuous
 62
     3
100
AcDbLine
 10
5157.860479218371
 20
1233.826328066775
 30
0.0
 11
5157.860479218371
 21
1224.826528066775
 31
0.0
  0
LINE
  5
6CF1
330
1E
100
AcDbEntity
  8
躯体と製品
  6
Continuous
 62
     3
100
AcDbLine
 10
4845.916214388793
 20
1220.326778066775
 30
0.0
 11
4845.916214388793
 21
1208.172904274737
 31
0.0
  0
LINE
  5
6CF2
330
1E
100
AcDbEntity
  8
躯体と製品
  6
Continuous
 62
     3
100
AcDbLine
 10
4851.11388560945
 20
1233.753824642802
 30
0.0
 11
4851.11388560945
 21
1245.326328066775
 31
0.0
  0
LINE
  5
6CF3
330
1E
100
AcDbEntity
  8
躯体と製品
  6
Continuous
 62
     3
100
AcDbLine
 10
4875.824706645269
 20
1245.326328066775
 30
0.0
 11
4851.11388560945
 21
1245.326328066775
 31
0.0
  0
LINE
  5
6CF4
330
1E
100
AcDbEntity
  8
躯体と製品
  6
Continuous
 62
     3
100
AcDbLine
 10
4872.74329093231
 20
1233.826328066775
 30
0.0
 11
4851.11388560945
 21
1233.826328066775
 31
0.0
  0
LINE
  5
6CF5
330
1E
100
AcDbEntity
  8
躯体と製品
  6
Continuous
 62
     3
100
AcDbLine
 10
4875.824706645269
 20
1245.326328066775
 30
0.0
 11
4919.125197411627
 21
1220.326778066775
 31
0.0
  0
LINE
  5
6CF6
330
1E
100
AcDbEntity
  8
躯体と製品
  6
Continuous
 62
     3
100
AcDbLine
 10
4872.74329093231
 20
1233.826328066775
 30
0.0
 11
4896.125197411627
 21
1220.326778066775
 31
0.0
  0
LINE
  5
6CF7
330
1E
100
AcDbEntity
  8
躯体と製品
  6
Continuous
 62
     3
100
AcDbLine
 10
4896.125197411627
 20
1220.326778066775
 30
0.0
 11
4845.916214388793
 21
1220.326778066775
 31
0.0
  0
LINE
  5
6CF8
330
1E
100
AcDbEntity
  8
躯体と製品
  6
Continuous
 62
     3
100
AcDbLine
 10
5157.860469218372
 20
1233.826328066775
 30
0.0
 11
5157.860469218372
 21
1224.826528066775
 31
0.0
  0
LINE
  5
6CF9
330
1E
100
AcDbEntity
  8
躯体と製品
  6
Continuous
 62
     3
100
AcDbLine
 10
5179.809984047949
 20
1220.326778066775
 30
0.0
 11
5179.809984047949
 21
1208.172904274737
 31
0.0
  0
LINE
  5
6CFA
330
1E
100
AcDbEntity
  8
躯体と製品
  6
Continuous
 62
     3
100
AcDbLine
 10
5174.612312827292
 20
1233.753824642802
 30
0.0
 11
5174.612312827292
 21
1245.326328066775
 31
0.0
  0
LINE
  5
6CFB
330
1E
100
AcDbEntity
  8
躯体と製品
  6
Continuous
 62
     3
100
AcDbLine
 10
5149.901491791474
 20
1245.326328066775
 30
0.0
 11
5174.612312827292
 21
1245.326328066775
 31
0.0
  0
LINE
  5
6CFC
330
1E
100
AcDbEntity
  8
躯体と製品
  6
Continuous
 62
     3
100
AcDbLine
 10
5152.982907504431
 20
1233.826328066775
 30
0.0
 11
5174.612312827292
 21
1233.826328066775
 31
0.0
  0
LINE
  5
6CFD
330
1E
100
AcDbEntity
  8
躯体と製品
  6
Continuous
 62
     3
100
AcDbLine
 10
5149.901491791474
 20
1245.326328066775
 30
0.0
 11
5106.601001025115
 21
1220.326778066775
 31
0.0
  0
LINE
  5
6CFE
330
1E
100
AcDbEntity
  8
躯体と製品
  6
Continuous
 62
     3
100
AcDbLine
 10
5152.982907504431
 20
1233.826328066775
 30
0.0
 11
5129.601001025115
 21
1220.326778066775
 31
0.0
  0
LINE
  5
6CFF
330
1E
100
AcDbEntity
  8
躯体と製品
  6
Continuous
 62
     3
100
AcDbLine
 10
5129.601001025115
 20
1220.326778066775
 30
0.0
 11
5179.809984047949
 21
1220.326778066775
 31
0.0
  0
LINE
  5
6D00
330
1E
100
AcDbEntity
  8
躯体と製品
  6
Continuous
 62
     3
100
AcDbLine
 10
4919.125197411627
 20
1220.326778066775
 30
0.0
 11
5106.601001025115
 21
1220.326778066775
 31
0.0
  0
LINE
  5
6D01
330
1E
100
AcDbEntity
  8
躯体と製品
  6
Continuous
 62
     3
100
AcDbLine
 10
4612.863094218371
 20
833.3290580667755
 30
0.0
 11
4612.863094218371
 21
808.8289580667757
 31
0.0
  0
LINE
  5
6D02
330
1E
100
AcDbEntity
  8
躯体と製品
  6
Continuous
 62
     3
100
AcDbLine
 10
4619.364789218371
 20
833.3290580667755
 30
0.0
 11
4619.364789218371
 21
816.3288180667752
 31
0.0
  0
LINE
  5
6D03
330
1E
100
AcDbEntity
  8
躯体と製品
  6
Continuous
 62
     3
100
AcDbLine
 10
4612.863094218371
 20
833.3290580667755
 30
0.0
 11
4612.863094218371
 21
808.8289580667757
 31
0.0
  0
LINE
  5
6D04
330
1E
100
AcDbEntity
  8
躯体と製品
  6
Continuous
 62
     3
100
AcDbLine
 10
4612.863094218371
 20
833.3290580667755
 30
0.0
 11
4619.364789218371
 21
833.3290580667755
 31
0.0
  0
LINE
  5
6D05
330
1E
100
AcDbEntity
  8
躯体と製品
  6
Continuous
 62
     3
100
AcDbLine
 10
4612.863099218371
 20
608.8289380667754
 30
0.0
 11
4712.86309921837
 21
608.8289380667754
 31
0.0
  0
LINE
  5
6D06
330
1E
100
AcDbEntity
  8
躯体と製品
  6
Continuous
 62
     3
100
AcDbLine
 10
4612.863099218371
 20
633.8289580667754
 30
0.0
 11
4612.863099218371
 21
608.8289380667754
 31
0.0
  0
LINE
  5
6D07
330
1E
100
AcDbEntity
  8
躯体と製品
  6
Continuous
 62
     3
100
AcDbLine
 10
4612.863099218371
 20
633.8289580667754
 30
0.0
 11
4619.36309921837
 21
633.8289580667754
 31
0.0
  0
LINE
  5
6D08
330
1E
100
AcDbEntity
  8
躯体と製品
  6
Continuous
 62
     3
100
AcDbLine
 10
4619.36309921837
 20
633.8289580667754
 30
0.0
 11
4619.36309921837
 21
616.3289680667753
 31
0.0
  0
LINE
  5
6D09
330
1E
100
AcDbEntity
  8
躯体と製品
  6
Continuous
 62
     3
100
AcDbLine
 10
4619.36309921837
 20
616.3289680667753
 30
0.0
 11
4705.363099218369
 21
616.3289680667753
 31
0.0
  0
LINE
  5
6D0A
330
1E
100
AcDbEntity
  8
躯体と製品
  6
Continuous
 62
     3
100
AcDbLine
 10
4604.36309921837
 20
827.8289080667757
 30
0.0
 11
4610.36314921837
 21
827.8289080667757
 31
0.0
  0
LINE
  5
6D0B
330
1E
100
AcDbEntity
  8
躯体と製品
  6
Continuous
 62
     3
100
AcDbLine
 10
4610.36314921837
 20
827.8289080667757
 30
0.0
 11
4610.36314921837
 21
808.8289580667757
 31
0.0
  0
LINE
  5
6D0C
330
1E
100
AcDbEntity
  8
躯体と製品
  6
Continuous
 62
     3
100
AcDbLine
 10
4604.36309921837
 20
827.8289080667757
 30
0.0
 11
4604.36309921837
 21
802.8289580667756
 31
0.0
  0
LINE
  5
6D0D
330
1E
100
AcDbEntity
  8
躯体と製品
  6
Continuous
 62
     3
100
AcDbLine
 10
4604.36309921837
 20
802.8289580667756
 30
0.0
 11
4705.363099218369
 21
802.8289580667756
 31
0.0
  0
LINE
  5
6D0E
330
1E
100
AcDbEntity
  8
躯体と製品
  6
Continuous
 62
     3
100
AcDbLine
 10
4610.36314921837
 20
808.8289580667757
 30
0.0
 11
4712.86309921837
 21
808.8289580667757
 31
0.0
  0
LINE
  5
6D0F
330
1E
100
AcDbEntity
  8
躯体と製品
  6
Continuous
 62
     3
100
AcDbLine
 10
4705.363099218369
 20
715.2884380667755
 30
0.0
 11
4705.363099218369
 21
616.3289680667753
 31
0.0
  0
LINE
  5
6D10
330
1E
100
AcDbEntity
  8
躯体と製品
  6
Continuous
 62
     3
100
AcDbLine
 10
4684.36314921837
 20
738.3289580667756
 30
0.0
 11
4686.86314921837
 21
738.3289580667756
 31
0.0
  0
LINE
  5
6D11
330
1E
100
AcDbEntity
  8
躯体と製品
  6
Continuous
 62
     3
100
AcDbLine
 10
4684.36314921837
 20
729.3289480667755
 30
0.0
 11
4686.86314921837
 21
729.3289480667755
 31
0.0
  0
LINE
  5
6D12
330
1E
100
AcDbEntity
  8
躯体と製品
  6
Continuous
 62
     3
100
AcDbLine
 10
4682.86314921837
 20
745.0092080667756
 30
0.0
 11
4682.86314921837
 21
739.8289080667755
 31
0.0
  0
LINE
  5
6D13
330
1E
100
AcDbEntity
  8
躯体と製品
  6
Continuous
 62
     3
100
AcDbLine
 10
4682.86314921837
 20
727.8289480667755
 30
0.0
 11
4682.86314921837
 21
722.6485880667755
 31
0.0
  0
LINE
  5
6D14
330
1E
100
AcDbEntity
  8
躯体と製品
  6
Continuous
 62
     3
100
AcDbLine
 10
4705.363099218369
 20
715.2884380667755
 30
0.0
 11
4705.363099218369
 21
651.6895280667754
 31
0.0
  0
LINE
  5
6D15
330
1E
100
AcDbEntity
  8
躯体と製品
  6
Continuous
 62
     3
100
AcDbLine
 10
4712.86309921837
 20
798.8289580667753
 30
0.0
 11
4712.86309921837
 21
608.8289380667754
 31
0.0
  0
LINE
  5
6D16
330
1E
100
AcDbEntity
  8
躯体と製品
  6
Continuous
 62
     3
100
AcDbLine
 10
4705.363099218369
 20
752.3693580667753
 30
0.0
 11
4705.363099218369
 21
802.8289580667756
 31
0.0
  0
LINE
  5
6D17
330
1E
100
AcDbEntity
  8
躯体と製品
  6
Continuous
 62
     3
100
AcDbLine
 10
4712.86309921837
 20
906.3289580667754
 30
0.0
 11
4712.86309921837
 21
808.8289580667757
 31
0.0
  0
LINE
  5
6D18
330
1E
100
AcDbEntity
  8
躯体と製品
  6
Continuous
 62
     3
100
AcDbLine
 10
4720.36309921837
 20
898.8289080667755
 30
0.0
 11
4720.36309921837
 21
806.3289080667757
 31
0.0
  0
ARC
  5
6D19
330
1E
100
AcDbEntity
  8
躯体と製品
  6
Continuous
 62
     3
100
AcDbCircle
 10
4700.363149218371
 20
715.2884380667755
 30
0.0
 40
5.0
100
AcDbArc
 50
0.0
 51
112.0243499999899
  0
ARC
  5
6D1A
330
1E
100
AcDbEntity
  8
躯体と製品
  6
Continuous
 62
     3
100
AcDbCircle
 10
4692.86314921837
 20
733.8289080667755
 30
0.0
 40
7.5
100
AcDbArc
 50
216.8698999999956
 51
143.1300799999997
  0
ARC
  5
6D1B
330
1E
100
AcDbEntity
  8
躯体と製品
  6
Continuous
 62
     3
100
AcDbCircle
 10
4692.86314921837
 20
733.8289080667755
 30
0.0
 40
15.0
100
AcDbArc
 50
228.189690000008
 51
292.0243599999952
  0
ARC
  5
6D1C
330
1E
100
AcDbEntity
  8
躯体と製品
  6
Continuous
 62
     3
100
AcDbCircle
 10
4684.36314921837
 20
739.8289080667755
 30
0.0
 40
1.5
100
AcDbArc
 50
180.0
 51
270.0
  0
ARC
  5
6D1D
330
1E
100
AcDbEntity
  8
躯体と製品
  6
Continuous
 62
     3
100
AcDbCircle
 10
4684.36314921837
 20
727.8289480667755
 30
0.0
 40
1.5
100
AcDbArc
 50
90.0
 51
180.0
  0
ARC
  5
6D1E
330
1E
100
AcDbEntity
  8
躯体と製品
  6
Continuous
 62
     3
100
AcDbCircle
 10
4700.363149218371
 20
752.3693580667753
 30
0.0
 40
5.0
100
AcDbArc
 50
247.9756400000048
 51
0.0
  0
ARC
  5
6D1F
330
1E
100
AcDbEntity
  8
躯体と製品
  6
Continuous
 62
     3
100
AcDbCircle
 10
4692.86314921837
 20
733.8289080667755
 30
0.0
 40
15.0
100
AcDbArc
 50
67.97563099998933
 51
131.810359999994
  0
ARC
  5
6D20
330
1E
100
AcDbEntity
  8
躯体と製品
  6
Continuous
 62
     3
100
AcDbCircle
 10
4712.86309921837
 20
898.8289080667755
 30
0.0
 40
7.5
100
AcDbArc
 50
0.0
 51
89.99958799999502
  0
ARC
  5
6D21
330
1E
100
AcDbEntity
  8
躯体と製品
  6
Continuous
 62
     3
100
AcDbCircle
 10
4712.86309921837
 20
806.3289080667757
 30
0.0
 40
7.5
100
AcDbArc
 50
270.0
 51
0.0
  0
LINE
  5
6D22
330
1E
100
AcDbEntity
  8
躯体と製品
  6
Continuous
 62
     3
100
AcDbLine
 10
5312.863099218371
 20
811.3289630667752
 30
0.0
 11
5312.863099218371
 21
816.186998126591
 31
0.0
  0
LINE
  5
6D23
330
1E
100
AcDbEntity
  8
躯体と製品
  6
Continuous
 62
     3
100
AcDbLine
 10
5412.86310421837
 20
808.8289580667757
 30
0.0
 11
5320.324016980233
 21
808.8289580667757
 31
0.0
  0
LINE
  5
6D24
330
1E
100
AcDbEntity
  8
躯体と製品
  6
Continuous
 62
     3
100
AcDbLine
 10
5312.863099218371
 20
808.8289580667757
 30
0.0
 11
5312.863099218371
 21
889.8289580667748
 31
0.0
  0
LINE
  5
6D25
330
1E
100
AcDbEntity
  8
躯体と製品
  6
Continuous
 62
     3
100
AcDbLine
 10
5320.324016980233
 20
808.8289580667757
 30
0.0
 11
5312.863099218371
 21
808.8289580667757
 31
0.0
  0
ARC
  5
6D26
330
1E
100
AcDbEntity
  8
躯体と製品
  6
Continuous
 62
     3
100
AcDbCircle
 10
5325.362889218371
 20
821.3287280667755
 30
0.0
 40
4.99991
100
AcDbArc
 50
180.0
 51
270.0
  0
LINE
  5
6D27
330
1E
100
AcDbEntity
  8
躯体と製品
  6
Continuous
 62
     3
100
AcDbLine
 10
5406.36140921837
 20
816.3288180667752
 30
0.0
 11
5325.362889218371
 21
816.3288180667752
 31
0.0
  0
LINE
  5
6D28
330
1E
100
AcDbEntity
  8
躯体と製品
  6
Continuous
 62
     3
100
AcDbLine
 10
5412.861269218371
 20
808.8289580667757
 30
0.0
 11
5312.863099218371
 21
808.8289580667757
 31
0.0
  0
LINE
  5
6D29
330
1E
100
AcDbEntity
  8
躯体と製品
  6
Continuous
 62
     3
100
AcDbLine
 10
5412.86310421837
 20
833.3290580667755
 30
0.0
 11
5412.86310421837
 21
808.8289580667757
 31
0.0
  0
LINE
  5
6D2A
330
1E
100
AcDbEntity
  8
躯体と製品
  6
Continuous
 62
     3
100
AcDbLine
 10
5406.36140921837
 20
833.3290580667755
 30
0.0
 11
5406.36140921837
 21
816.3288180667752
 31
0.0
  0
LINE
  5
6D2B
330
1E
100
AcDbEntity
  8
躯体と製品
  6
Continuous
 62
     3
100
AcDbLine
 10
5412.86310421837
 20
833.3290580667755
 30
0.0
 11
5412.86310421837
 21
808.8289580667757
 31
0.0
  0
LINE
  5
6D2C
330
1E
100
AcDbEntity
  8
躯体と製品
  6
Continuous
 62
     3
100
AcDbLine
 10
5412.86310421837
 20
833.3290580667755
 30
0.0
 11
5406.36140921837
 21
833.3290580667755
 31
0.0
  0
LINE
  5
6D2D
330
1E
100
AcDbEntity
  8
躯体と製品
  6
Continuous
 62
     3
100
AcDbLine
 10
5412.863099218371
 20
608.8289380667754
 30
0.0
 11
5312.863099218371
 21
608.8289380667754
 31
0.0
  0
LINE
  5
6D2E
330
1E
100
AcDbEntity
  8
躯体と製品
  6
Continuous
 62
     3
100
AcDbLine
 10
5412.863099218371
 20
633.8289580667754
 30
0.0
 11
5412.863099218371
 21
608.8289380667754
 31
0.0
  0
LINE
  5
6D2F
330
1E
100
AcDbEntity
  8
躯体と製品
  6
Continuous
 62
     3
100
AcDbLine
 10
5412.863099218371
 20
633.8289580667754
 30
0.0
 11
5406.363099218371
 21
633.8289580667754
 31
0.0
  0
LINE
  5
6D30
330
1E
100
AcDbEntity
  8
躯体と製品
  6
Continuous
 62
     3
100
AcDbLine
 10
5406.363099218371
 20
633.8289580667754
 30
0.0
 11
5406.363099218371
 21
616.3289680667753
 31
0.0
  0
LINE
  5
6D31
330
1E
100
AcDbEntity
  8
躯体と製品
  6
Continuous
 62
     3
100
AcDbLine
 10
5406.363099218371
 20
616.3289680667753
 30
0.0
 11
5320.363099218371
 21
616.3289680667753
 31
0.0
  0
LINE
  5
6D32
330
1E
100
AcDbEntity
  8
躯体と製品
  6
Continuous
 62
     3
100
AcDbLine
 10
5421.363099218371
 20
827.8289080667757
 30
0.0
 11
5415.36304921837
 21
827.8289080667757
 31
0.0
  0
LINE
  5
6D33
330
1E
100
AcDbEntity
  8
躯体と製品
  6
Continuous
 62
     3
100
AcDbLine
 10
5415.36304921837
 20
827.8289080667757
 30
0.0
 11
5415.36304921837
 21
808.8289580667757
 31
0.0
  0
LINE
  5
6D34
330
1E
100
AcDbEntity
  8
躯体と製品
  6
Continuous
 62
     3
100
AcDbLine
 10
5421.363099218371
 20
827.8289080667757
 30
0.0
 11
5421.363099218371
 21
802.8289580667756
 31
0.0
  0
LINE
  5
6D35
330
1E
100
AcDbEntity
  8
躯体と製品
  6
Continuous
 62
     3
100
AcDbLine
 10
5421.363099218371
 20
802.8289580667756
 30
0.0
 11
5320.363099218371
 21
802.8289580667756
 31
0.0
  0
LINE
  5
6D36
330
1E
100
AcDbEntity
  8
躯体と製品
  6
Continuous
 62
     3
100
AcDbLine
 10
5415.36304921837
 20
808.8289580667757
 30
0.0
 11
5312.863099218371
 21
808.8289580667757
 31
0.0
  0
LINE
  5
6D37
330
1E
100
AcDbEntity
  8
躯体と製品
  6
Continuous
 62
     3
100
AcDbLine
 10
5320.363099218371
 20
715.2884380667755
 30
0.0
 11
5320.363099218371
 21
616.3289680667753
 31
0.0
  0
LINE
  5
6D38
330
1E
100
AcDbEntity
  8
躯体と製品
  6
Continuous
 62
     3
100
AcDbLine
 10
5341.363049218371
 20
738.3289580667756
 30
0.0
 11
5338.863049218372
 21
738.3289580667756
 31
0.0
  0
LINE
  5
6D39
330
1E
100
AcDbEntity
  8
躯体と製品
  6
Continuous
 62
     3
100
AcDbLine
 10
5341.363049218371
 20
729.3289480667755
 30
0.0
 11
5338.863049218372
 21
729.3289480667755
 31
0.0
  0
LINE
  5
6D3A
330
1E
100
AcDbEntity
  8
躯体と製品
  6
Continuous
 62
     3
100
AcDbLine
 10
5342.863049218371
 20
745.0092080667756
 30
0.0
 11
5342.863049218371
 21
739.8289080667755
 31
0.0
  0
LINE
  5
6D3B
330
1E
100
AcDbEntity
  8
躯体と製品
  6
Continuous
 62
     3
100
AcDbLine
 10
5342.863049218371
 20
727.8289480667755
 30
0.0
 11
5342.863049218371
 21
722.6485880667755
 31
0.0
  0
LINE
  5
6D3C
330
1E
100
AcDbEntity
  8
躯体と製品
  6
Continuous
 62
     3
100
AcDbLine
 10
5320.363099218371
 20
715.2884380667755
 30
0.0
 11
5320.363099218371
 21
651.6895280667754
 31
0.0
  0
LINE
  5
6D3D
330
1E
100
AcDbEntity
  8
躯体と製品
  6
Continuous
 62
     3
100
AcDbLine
 10
5312.863099218371
 20
798.8289580667753
 30
0.0
 11
5312.863099218371
 21
608.8289380667754
 31
0.0
  0
LINE
  5
6D3E
330
1E
100
AcDbEntity
  8
躯体と製品
  6
Continuous
 62
     3
100
AcDbLine
 10
5320.363099218371
 20
752.3693580667753
 30
0.0
 11
5320.363099218371
 21
802.8289580667756
 31
0.0
  0
LINE
  5
6D3F
330
1E
100
AcDbEntity
  8
躯体と製品
  6
Continuous
 62
     3
100
AcDbLine
 10
5312.863099218371
 20
906.3289580667754
 30
0.0
 11
5312.863099218371
 21
808.8289580667757
 31
0.0
  0
LINE
  5
6D40
330
1E
100
AcDbEntity
  8
躯体と製品
  6
Continuous
 62
     3
100
AcDbLine
 10
5305.363099218371
 20
898.8289080667755
 30
0.0
 11
5305.363099218371
 21
806.3289080667757
 31
0.0
  0
ARC
  5
6D41
330
1E
100
AcDbEntity
  8
躯体と製品
  6
Continuous
 62
     3
100
AcDbCircle
 10
5325.363049218372
 20
715.2884380667755
 30
0.0
 40
5.0
100
AcDbArc
 50
67.97565000001005
 51
180.0
  0
ARC
  5
6D42
330
1E
100
AcDbEntity
  8
躯体と製品
  6
Continuous
 62
     3
100
AcDbCircle
 10
5332.863049218372
 20
733.8289080667755
 30
0.0
 40
7.5
100
AcDbArc
 50
36.86992000000024
 51
323.1301000000044
  0
ARC
  5
6D43
330
1E
100
AcDbEntity
  8
躯体と製品
  6
Continuous
 62
     3
100
AcDbCircle
 10
5332.863049218372
 20
733.8289080667755
 30
0.0
 40
15.0
100
AcDbArc
 50
247.9756400000048
 51
311.810309999992
  0
ARC
  5
6D44
330
1E
100
AcDbEntity
  8
躯体と製品
  6
Continuous
 62
     3
100
AcDbCircle
 10
5341.363049218371
 20
739.8289080667755
 30
0.0
 40
1.5
100
AcDbArc
 50
270.0
 51
0.0
  0
ARC
  5
6D45
330
1E
100
AcDbEntity
  8
躯体と製品
  6
Continuous
 62
     3
100
AcDbCircle
 10
5341.363049218371
 20
727.8289480667755
 30
0.0
 40
1.5
100
AcDbArc
 50
0.0
 51
90.0
  0
ARC
  5
6D46
330
1E
100
AcDbEntity
  8
躯体と製品
  6
Continuous
 62
     3
100
AcDbCircle
 10
5325.363049218372
 20
752.3693580667753
 30
0.0
 40
5.0
100
AcDbArc
 50
180.0
 51
292.0243599999952
  0
ARC
  5
6D47
330
1E
100
AcDbEntity
  8
躯体と製品
  6
Continuous
 62
     3
100
AcDbCircle
 10
5332.863049218372
 20
733.8289080667755
 30
0.0
 40
15.0
100
AcDbArc
 50
48.18964000000599
 51
112.0243690000106
  0
ARC
  5
6D48
330
1E
100
AcDbEntity
  8
躯体と製品
  6
Continuous
 62
     3
100
AcDbCircle
 10
5312.863099218371
 20
898.8289080667755
 30
0.0
 40
7.5
100
AcDbArc
 50
90.00041200000499
 51
180.0
  0
ARC
  5
6D49
330
1E
100
AcDbEntity
  8
躯体と製品
  6
Continuous
 62
     3
100
AcDbCircle
 10
5312.863099218371
 20
806.3289080667757
 30
0.0
 40
7.5
100
AcDbArc
 50
180.0
 51
270.0
  0
LINE
  5
6D4A
330
1E
100
AcDbEntity
  8
躯体と製品
  6
Continuous
 62
     3
100
AcDbLine
 10
5012.863099218371
 20
1320.635134909496
 30
0.0
 11
5012.863099218371
 21
808.8289580667757
 31
0.0
  0
CIRCLE
  5
6D4B
330
1E
100
AcDbEntity
  8
躯体と製品
  6
Continuous
 62
     3
100
AcDbCircle
 10
4667.863104218369
 20
608.8289380667754
 30
0.0
 40
4.5
  0
CIRCLE
  5
6D4C
330
1E
100
AcDbEntity
  8
図枠
  6
Continuous
 62
     3
100
AcDbCircle
 10
4489.27145421837
 20
608.8289380667754
 30
0.0
 40
4.5
  0
LINE
  5
6D4D
330
1E
100
AcDbEntity
  8
躯体と製品
  6
Continuous
 62
     3
100
AcDbLine
 10
4652.863104218369
 20
609.8289430667753
 30
0.0
 11
4660.78809921837
 21
616.3289380667754
 31
0.0
  0
LINE
  5
6D4E
330
1E
100
AcDbEntity
  8
躯体と製品
  6
Continuous
 62
     3
100
AcDbLine
 10
4674.93810921837
 20
616.3289380667754
 30
0.0
 11
4682.863104218371
 21
609.8289430667753
 31
0.0
  0
LINE
  5
6D4F
330
1E
100
AcDbEntity
  8
躯体と製品
  6
Continuous
 62
     3
100
AcDbLine
 10
4682.863104218371
 20
609.8289430667753
 30
0.0
 11
4682.863104218371
 21
608.8289380667754
 31
0.0
  0
LINE
  5
6D50
330
1E
100
AcDbEntity
  8
躯体と製品
  6
Continuous
 62
     3
100
AcDbLine
 10
4652.863104218369
 20
609.8289430667753
 30
0.0
 11
4652.863104218369
 21
608.8289380667754
 31
0.0
  0
LINE
  5
6D51
330
1E
100
AcDbEntity
  8
躯体と製品
  6
Continuous
 62
     3
100
AcDbLine
 10
4660.78809921837
 20
616.3289380667754
 30
0.0
 11
4674.93810921837
 21
616.3289380667754
 31
0.0
  0
ARC
  5
6D52
330
1E
100
AcDbEntity
  8
躯体と製品
  6
Continuous
 62
     3
100
AcDbCircle
 10
4672.01781921837
 20
695.4463330667755
 30
0.0
 40
4.125555
100
AcDbArc
 50
175.8529280000032
 51
336.9182639999989
  0
ARC
  5
6D53
330
1E
100
AcDbEntity
  8
躯体と製品
  6
Continuous
 62
     3
100
AcDbCircle
 10
4647.668859218369
 20
694.0290880667759
 30
0.0
 40
20.306805
100
AcDbArc
 50
307.0823680000042
 51
4.846355999996645
  0
LINE
  5
6D54
330
1E
100
AcDbEntity
  8
躯体と製品
  6
Continuous
 62
     3
100
AcDbLine
 10
4660.78809921837
 20
641.3004730667755
 30
0.0
 11
4674.93810921837
 21
645.4536880667758
 31
0.0
  0
LINE
  5
6D55
330
1E
100
AcDbEntity
  8
躯体と製品
  6
Continuous
 62
     3
100
AcDbLine
 10
4674.93810921837
 20
616.3289380667754
 30
0.0
 11
4674.93810921837
 21
621.4536880667752
 31
0.0
  0
LINE
  5
6D56
330
1E
100
AcDbEntity
  8
躯体と製品
  6
Continuous
 62
     3
100
AcDbLine
 10
4674.93810921837
 20
624.7036780667752
 30
0.0
 11
4674.93810921837
 21
629.453683066775
 31
0.0
  0
LINE
  5
6D57
330
1E
100
AcDbEntity
  8
躯体と製品
  6
Continuous
 62
     3
100
AcDbLine
 10
4674.93810921837
 20
632.7036880667752
 30
0.0
 11
4674.93810921837
 21
637.4536780667751
 31
0.0
  0
LINE
  5
6D58
330
1E
100
AcDbEntity
  8
躯体と製品
  6
Continuous
 62
     3
100
AcDbLine
 10
4660.78809921837
 20
641.3004730667755
 30
0.0
 11
4660.78809921837
 21
636.5504680667752
 31
0.0
  0
LINE
  5
6D59
330
1E
100
AcDbEntity
  8
躯体と製品
  6
Continuous
 62
     3
100
AcDbLine
 10
4660.78809921837
 20
616.3289380667754
 30
0.0
 11
4660.78808421837
 21
617.3004730667756
 31
0.0
  0
LINE
  5
6D5A
330
1E
100
AcDbEntity
  8
躯体と製品
  6
Continuous
 62
     3
100
AcDbLine
 10
4660.78808421837
 20
620.5504780667751
 30
0.0
 11
4660.78809921837
 21
625.3004680667752
 31
0.0
  0
LINE
  5
6D5B
330
1E
100
AcDbEntity
  8
躯体と製品
  6
Continuous
 62
     3
100
AcDbLine
 10
4660.78809921837
 20
628.5504730667751
 30
0.0
 11
4660.78809921837
 21
633.3004780667756
 31
0.0
  0
LINE
  5
6D5C
330
1E
100
AcDbEntity
  8
躯体と製品
  6
Continuous
 62
     3
100
AcDbLine
 10
4660.78809921837
 20
672.5427430667756
 30
0.0
 11
4660.78809921837
 21
668.5504780667754
 31
0.0
  0
ARC
  5
6D5D
330
1E
100
AcDbEntity
  8
躯体と製品
  6
Continuous
 62
     3
100
AcDbCircle
 10
4682.88081921837
 20
673.9849930667758
 30
0.0
 40
8.0454
100
AcDbArc
 50
151.4594140000025
 51
189.1639689999978
  0
ARC
  5
6D5E
330
1E
100
AcDbEntity
  8
躯体と製品
  6
Continuous
 62
     3
100
AcDbCircle
 10
4658.233134218369
 20
676.4397130667755
 30
0.0
 40
2.17998
100
AcDbArc
 50
320.4113490000048
 51
39.58865099999523
  0
LINE
  5
6D5F
330
1E
100
AcDbEntity
  8
躯体と製品
  6
Continuous
 62
     3
100
AcDbLine
 10
4659.91310421837
 20
675.0504730667755
 30
0.0
 11
4670.36310921837
 21
675.0504730667755
 31
0.0
  0
LINE
  5
6D60
330
1E
100
AcDbEntity
  8
躯体と製品
  6
Continuous
 62
     3
100
AcDbLine
 10
4660.78809921837
 20
672.5427430667756
 30
0.0
 11
4670.36310921837
 21
675.0504730667755
 31
0.0
  0
LINE
  5
6D61
330
1E
100
AcDbEntity
  8
躯体と製品
  6
Continuous
 62
     3
100
AcDbLine
 10
4657.98810921837
 20
673.4174830667752
 30
0.0
 11
4670.36310921837
 21
675.0504730667755
 31
0.0
  0
LINE
  5
6D62
330
1E
100
AcDbEntity
  8
躯体と製品
  6
Continuous
 62
     3
100
AcDbLine
 10
4682.863104218371
 20
608.8289380667754
 30
0.0
 11
4652.863104218369
 21
608.8289380667754
 31
0.0
  0
LINE
  5
6D63
330
1E
100
AcDbEntity
  8
躯体と製品
  6
Continuous
 62
     3
100
AcDbLine
 10
4682.863104218371
 20
609.8289430667753
 30
0.0
 11
4652.863104218369
 21
609.8289430667753
 31
0.0
  0
LINE
  5
6D64
330
1E
100
AcDbEntity
  8
躯体と製品
  6
Continuous
 62
     3
100
AcDbLine
 10
4659.91310421837
 20
693.8289430667753
 30
0.0
 11
4667.863104218369
 21
698.8289380667754
 31
0.0
  0
LINE
  5
6D65
330
1E
100
AcDbEntity
  8
躯体と製品
  6
Continuous
 62
     3
100
AcDbLine
 10
4667.863104218369
 20
698.8289380667754
 30
0.0
 11
4675.813104218369
 21
693.8289430667753
 31
0.0
  0
LINE
  5
6D66
330
1E
100
AcDbEntity
  8
躯体と製品
  6
Continuous
 62
     3
100
AcDbLine
 10
4659.91310421837
 20
693.8289430667753
 30
0.0
 11
4659.91310421837
 21
677.8289380667756
 31
0.0
  0
LINE
  5
6D67
330
1E
100
AcDbEntity
  8
躯体と製品
  6
Continuous
 62
     3
100
AcDbLine
 10
4675.813104218369
 20
693.8289430667753
 30
0.0
 11
4675.813104218369
 21
677.8289380667756
 31
0.0
  0
LINE
  5
6D68
330
1E
100
AcDbEntity
  8
躯体と製品
  6
Continuous
 62
     3
100
AcDbLine
 10
4659.91310421837
 20
677.8289380667756
 30
0.0
 11
4675.813104218369
 21
677.8289380667756
 31
0.0
  0
LINE
  5
6D69
330
1E
100
AcDbEntity
  8
躯体と製品
  6
Continuous
 62
     3
100
AcDbLine
 10
4674.93810921837
 20
645.4536880667758
 30
0.0
 11
4674.93810921837
 21
640.7036830667752
 31
0.0
  0
LINE
  5
6D6A
330
1E
100
AcDbEntity
  8
躯体と製品
  6
Continuous
 62
     3
100
AcDbLine
 10
4660.78809921837
 20
649.3004680667755
 30
0.0
 11
4660.78809921837
 21
644.5504780667756
 31
0.0
  0
LINE
  5
6D6B
330
1E
100
AcDbEntity
  8
躯体と製品
  6
Continuous
 62
     3
100
AcDbLine
 10
4678.41309921837
 20
647.8289380667749
 30
0.0
 11
4674.93810921837
 21
645.4536880667758
 31
0.0
  0
LINE
  5
6D6C
330
1E
100
AcDbEntity
  8
躯体と製品
  6
Continuous
 62
     3
100
AcDbLine
 10
4678.41309921837
 20
647.8289380667749
 30
0.0
 11
4674.93810921837
 21
648.7036780667753
 31
0.0
  0
LINE
  5
6D6D
330
1E
100
AcDbEntity
  8
躯体と製品
  6
Continuous
 62
     3
100
AcDbLine
 10
4678.41309921837
 20
647.8289380667749
 30
0.0
 11
4657.98810921837
 21
642.1752130667754
 31
0.0
  0
LINE
  5
6D6E
330
1E
100
AcDbEntity
  8
躯体と製品
  6
Continuous
 62
     3
100
AcDbLine
 10
4660.78809921837
 20
641.3004730667755
 30
0.0
 11
4657.98810921837
 21
642.1752130667754
 31
0.0
  0
LINE
  5
6D6F
330
1E
100
AcDbEntity
  8
躯体と製品
  6
Continuous
 62
     3
100
AcDbLine
 10
4657.98810921837
 20
642.1752130667754
 30
0.0
 11
4660.78809921837
 21
644.5504780667756
 31
0.0
  0
LINE
  5
6D70
330
1E
100
AcDbEntity
  8
躯体と製品
  6
Continuous
 62
     3
100
AcDbLine
 10
4674.93810921837
 20
648.7036780667753
 30
0.0
 11
4660.78809921837
 21
644.5504780667756
 31
0.0
  0
LINE
  5
6D71
330
1E
100
AcDbEntity
  8
躯体と製品
  6
Continuous
 62
     3
100
AcDbLine
 10
4678.41309921837
 20
655.8289480667752
 30
0.0
 11
4674.93810921837
 21
653.4536830667757
 31
0.0
  0
LINE
  5
6D72
330
1E
100
AcDbEntity
  8
躯体と製品
  6
Continuous
 62
     3
100
AcDbLine
 10
4678.41309921837
 20
655.8289480667752
 30
0.0
 11
4674.93810921837
 21
656.7036880667756
 31
0.0
  0
LINE
  5
6D73
330
1E
100
AcDbEntity
  8
躯体と製品
  6
Continuous
 62
     3
100
AcDbLine
 10
4678.41309921837
 20
655.8289480667752
 30
0.0
 11
4657.98810921837
 21
650.1752080667754
 31
0.0
  0
LINE
  5
6D74
330
1E
100
AcDbEntity
  8
躯体と製品
  6
Continuous
 62
     3
100
AcDbLine
 10
4660.78809921837
 20
649.3004680667755
 30
0.0
 11
4657.98810921837
 21
650.1752080667754
 31
0.0
  0
LINE
  5
6D75
330
1E
100
AcDbEntity
  8
躯体と製品
  6
Continuous
 62
     3
100
AcDbLine
 10
4657.98810921837
 20
650.1752080667754
 30
0.0
 11
4660.78809921837
 21
652.550473066775
 31
0.0
  0
LINE
  5
6D76
330
1E
100
AcDbEntity
  8
躯体と製品
  6
Continuous
 62
     3
100
AcDbLine
 10
4674.93810921837
 20
653.4536830667757
 30
0.0
 11
4660.78809921837
 21
649.3004680667755
 31
0.0
  0
LINE
  5
6D77
330
1E
100
AcDbEntity
  8
躯体と製品
  6
Continuous
 62
     3
100
AcDbLine
 10
4674.93810921837
 20
656.7036880667756
 30
0.0
 11
4660.78809921837
 21
652.550473066775
 31
0.0
  0
LINE
  5
6D78
330
1E
100
AcDbEntity
  8
躯体と製品
  6
Continuous
 62
     3
100
AcDbLine
 10
4674.93810921837
 20
648.7036780667753
 30
0.0
 11
4674.93810921837
 21
653.4536830667757
 31
0.0
  0
LINE
  5
6D79
330
1E
100
AcDbEntity
  8
躯体と製品
  6
Continuous
 62
     3
100
AcDbLine
 10
4660.78809921837
 20
657.3004780667758
 30
0.0
 11
4660.78809921837
 21
652.550473066775
 31
0.0
  0
LINE
  5
6D7A
330
1E
100
AcDbEntity
  8
躯体と製品
  6
Continuous
 62
     3
100
AcDbLine
 10
4678.41309921837
 20
663.8289430667753
 30
0.0
 11
4674.93810921837
 21
661.4536780667751
 31
0.0
  0
LINE
  5
6D7B
330
1E
100
AcDbEntity
  8
躯体と製品
  6
Continuous
 62
     3
100
AcDbLine
 10
4678.41309921837
 20
663.8289430667753
 30
0.0
 11
4674.93810921837
 21
664.7036830667756
 31
0.0
  0
LINE
  5
6D7C
330
1E
100
AcDbEntity
  8
躯体と製品
  6
Continuous
 62
     3
100
AcDbLine
 10
4678.41309921837
 20
663.8289430667753
 30
0.0
 11
4657.98810921837
 21
658.1752180667754
 31
0.0
  0
LINE
  5
6D7D
330
1E
100
AcDbEntity
  8
躯体と製品
  6
Continuous
 62
     3
100
AcDbLine
 10
4660.78809921837
 20
657.3004780667758
 30
0.0
 11
4657.98810921837
 21
658.1752180667754
 31
0.0
  0
LINE
  5
6D7E
330
1E
100
AcDbEntity
  8
躯体と製品
  6
Continuous
 62
     3
100
AcDbLine
 10
4657.98810921837
 20
658.1752180667754
 30
0.0
 11
4660.78809921837
 21
660.5504680667755
 31
0.0
  0
LINE
  5
6D7F
330
1E
100
AcDbEntity
  8
躯体と製品
  6
Continuous
 62
     3
100
AcDbLine
 10
4674.93810921837
 20
661.4536780667751
 30
0.0
 11
4660.78809921837
 21
657.3004780667758
 31
0.0
  0
LINE
  5
6D80
330
1E
100
AcDbEntity
  8
躯体と製品
  6
Continuous
 62
     3
100
AcDbLine
 10
4674.93810921837
 20
664.7036830667756
 30
0.0
 11
4660.78809921837
 21
660.5504680667755
 31
0.0
  0
LINE
  5
6D81
330
1E
100
AcDbEntity
  8
躯体と製品
  6
Continuous
 62
     3
100
AcDbLine
 10
4674.93810921837
 20
656.7036880667756
 30
0.0
 11
4674.93810921837
 21
661.4536780667751
 31
0.0
  0
LINE
  5
6D82
330
1E
100
AcDbEntity
  8
躯体と製品
  6
Continuous
 62
     3
100
AcDbLine
 10
4660.78809921837
 20
665.3004730667755
 30
0.0
 11
4660.78809921837
 21
660.5504680667755
 31
0.0
  0
LINE
  5
6D83
330
1E
100
AcDbEntity
  8
躯体と製品
  6
Continuous
 62
     3
100
AcDbLine
 10
4678.41309921837
 20
671.8289380667753
 30
0.0
 11
4674.93810921837
 21
669.4536880667754
 31
0.0
  0
LINE
  5
6D84
330
1E
100
AcDbEntity
  8
躯体と製品
  6
Continuous
 62
     3
100
AcDbLine
 10
4678.41309921837
 20
671.8289380667753
 30
0.0
 11
4674.93810921837
 21
672.7036780667758
 31
0.0
  0
LINE
  5
6D85
330
1E
100
AcDbEntity
  8
躯体と製品
  6
Continuous
 62
     3
100
AcDbLine
 10
4678.41309921837
 20
671.8289380667753
 30
0.0
 11
4657.98810921837
 21
666.1752130667752
 31
0.0
  0
LINE
  5
6D86
330
1E
100
AcDbEntity
  8
躯体と製品
  6
Continuous
 62
     3
100
AcDbLine
 10
4660.78809921837
 20
665.3004730667755
 30
0.0
 11
4657.98810921837
 21
666.1752130667752
 31
0.0
  0
LINE
  5
6D87
330
1E
100
AcDbEntity
  8
躯体と製品
  6
Continuous
 62
     3
100
AcDbLine
 10
4657.98810921837
 20
666.1752130667752
 30
0.0
 11
4660.78809921837
 21
668.5504780667754
 31
0.0
  0
LINE
  5
6D88
330
1E
100
AcDbEntity
  8
躯体と製品
  6
Continuous
 62
     3
100
AcDbLine
 10
4674.93810921837
 20
669.4536880667754
 30
0.0
 11
4660.78809921837
 21
665.3004730667755
 31
0.0
  0
LINE
  5
6D89
330
1E
100
AcDbEntity
  8
躯体と製品
  6
Continuous
 62
     3
100
AcDbLine
 10
4674.93810921837
 20
672.7036780667758
 30
0.0
 11
4660.78809921837
 21
668.5504780667754
 31
0.0
  0
LINE
  5
6D8A
330
1E
100
AcDbEntity
  8
躯体と製品
  6
Continuous
 62
     3
100
AcDbLine
 10
4674.93810921837
 20
664.7036830667756
 30
0.0
 11
4674.93810921837
 21
669.4536880667754
 31
0.0
  0
LINE
  5
6D8B
330
1E
100
AcDbEntity
  8
躯体と製品
  6
Continuous
 62
     3
100
AcDbLine
 10
4660.78809921837
 20
672.5427430667756
 30
0.0
 11
4657.98810921837
 21
673.4174830667752
 31
0.0
  0
LINE
  5
6D8C
330
1E
100
AcDbEntity
  8
躯体と製品
  6
Continuous
 62
     3
100
AcDbLine
 10
4657.98810921837
 20
673.4174830667752
 30
0.0
 11
4659.91310421837
 21
675.0504730667755
 31
0.0
  0
LINE
  5
6D8D
330
1E
100
AcDbEntity
  8
躯体と製品
  6
Continuous
 62
     3
100
AcDbLine
 10
4660.78809921837
 20
633.3004780667756
 30
0.0
 11
4674.93810921837
 21
637.4536780667751
 31
0.0
  0
LINE
  5
6D8E
330
1E
100
AcDbEntity
  8
躯体と製品
  6
Continuous
 62
     3
100
AcDbLine
 10
4678.41309921837
 20
639.8289430667755
 30
0.0
 11
4674.93810921837
 21
637.4536780667751
 31
0.0
  0
LINE
  5
6D8F
330
1E
100
AcDbEntity
  8
躯体と製品
  6
Continuous
 62
     3
100
AcDbLine
 10
4678.41309921837
 20
639.8289430667755
 30
0.0
 11
4674.93810921837
 21
640.7036830667752
 31
0.0
  0
LINE
  5
6D90
330
1E
100
AcDbEntity
  8
躯体と製品
  6
Continuous
 62
     3
100
AcDbLine
 10
4678.41309921837
 20
639.8289430667755
 30
0.0
 11
4657.98810921837
 21
634.1752180667753
 31
0.0
  0
LINE
  5
6D91
330
1E
100
AcDbEntity
  8
躯体と製品
  6
Continuous
 62
     3
100
AcDbLine
 10
4660.78809921837
 20
633.3004780667756
 30
0.0
 11
4657.98810921837
 21
634.1752180667753
 31
0.0
  0
LINE
  5
6D92
330
1E
100
AcDbEntity
  8
躯体と製品
  6
Continuous
 62
     3
100
AcDbLine
 10
4657.98810921837
 20
634.1752180667753
 30
0.0
 11
4660.78809921837
 21
636.5504680667752
 31
0.0
  0
LINE
  5
6D93
330
1E
100
AcDbEntity
  8
躯体と製品
  6
Continuous
 62
     3
100
AcDbLine
 10
4674.93810921837
 20
640.7036830667752
 30
0.0
 11
4660.78809921837
 21
636.5504680667752
 31
0.0
  0
LINE
  5
6D94
330
1E
100
AcDbEntity
  8
躯体と製品
  6
Continuous
 62
     3
100
AcDbLine
 10
4660.78809921837
 20
625.3004680667752
 30
0.0
 11
4674.93810921837
 21
629.453683066775
 31
0.0
  0
LINE
  5
6D95
330
1E
100
AcDbEntity
  8
躯体と製品
  6
Continuous
 62
     3
100
AcDbLine
 10
4678.41309921837
 20
631.8289480667756
 30
0.0
 11
4674.93810921837
 21
629.453683066775
 31
0.0
  0
LINE
  5
6D96
330
1E
100
AcDbEntity
  8
躯体と製品
  6
Continuous
 62
     3
100
AcDbLine
 10
4678.41309921837
 20
631.8289480667756
 30
0.0
 11
4674.93810921837
 21
632.7036880667752
 31
0.0
  0
LINE
  5
6D97
330
1E
100
AcDbEntity
  8
躯体と製品
  6
Continuous
 62
     3
100
AcDbLine
 10
4678.41309921837
 20
631.8289480667756
 30
0.0
 11
4657.98810921837
 21
626.175208066775
 31
0.0
  0
LINE
  5
6D98
330
1E
100
AcDbEntity
  8
躯体と製品
  6
Continuous
 62
     3
100
AcDbLine
 10
4660.78809921837
 20
625.3004680667752
 30
0.0
 11
4657.98810921837
 21
626.175208066775
 31
0.0
  0
LINE
  5
6D99
330
1E
100
AcDbEntity
  8
躯体と製品
  6
Continuous
 62
     3
100
AcDbLine
 10
4657.98810921837
 20
626.175208066775
 30
0.0
 11
4660.78809921837
 21
628.5504730667751
 31
0.0
  0
LINE
  5
6D9A
330
1E
100
AcDbEntity
  8
躯体と製品
  6
Continuous
 62
     3
100
AcDbLine
 10
4674.93810921837
 20
632.7036880667752
 30
0.0
 11
4660.78809921837
 21
628.5504730667751
 31
0.0
  0
LINE
  5
6D9B
330
1E
100
AcDbEntity
  8
躯体と製品
  6
Continuous
 62
     3
100
AcDbLine
 10
4660.78809921837
 20
617.3004730667756
 30
0.0
 11
4674.93810921837
 21
621.4536880667752
 31
0.0
  0
LINE
  5
6D9C
330
1E
100
AcDbEntity
  8
躯体と製品
  6
Continuous
 62
     3
100
AcDbLine
 10
4678.41309921837
 20
623.8289380667753
 30
0.0
 11
4674.93810921837
 21
621.4536880667752
 31
0.0
  0
LINE
  5
6D9D
330
1E
100
AcDbEntity
  8
躯体と製品
  6
Continuous
 62
     3
100
AcDbLine
 10
4678.41309921837
 20
623.8289380667753
 30
0.0
 11
4674.93810921837
 21
624.7036780667752
 31
0.0
  0
LINE
  5
6D9E
330
1E
100
AcDbEntity
  8
躯体と製品
  6
Continuous
 62
     3
100
AcDbLine
 10
4678.41309921837
 20
623.8289380667753
 30
0.0
 11
4657.98810921837
 21
618.1752130667755
 31
0.0
  0
LINE
  5
6D9F
330
1E
100
AcDbEntity
  8
躯体と製品
  6
Continuous
 62
     3
100
AcDbLine
 10
4660.78809921837
 20
617.3004730667756
 30
0.0
 11
4657.98810921837
 21
618.1752130667755
 31
0.0
  0
LINE
  5
6DA0
330
1E
100
AcDbEntity
  8
躯体と製品
  6
Continuous
 62
     3
100
AcDbLine
 10
4657.98810921837
 20
618.1752130667755
 30
0.0
 11
4660.78809921837
 21
620.5504780667751
 31
0.0
  0
LINE
  5
6DA1
330
1E
100
AcDbEntity
  8
躯体と製品
  6
Continuous
 62
     3
100
AcDbLine
 10
4674.93810921837
 20
624.7036780667752
 30
0.0
 11
4660.78809921837
 21
620.5504780667751
 31
0.0
  0
LINE
  5
6DA2
330
1E
100
AcDbEntity
  8
躯体と製品
  6
Continuous
 62
     3
100
AcDbLine
 10
4712.86310421837
 20
611.3289430667752
 30
0.0
 11
4712.86310421837
 21
616.1869781265909
 31
0.0
  0
LINE
  5
6DA3
330
1E
100
AcDbEntity
  8
躯体と製品
  6
Continuous
 62
     3
100
AcDbLine
 10
4612.863099218371
 20
608.8289380667754
 30
0.0
 11
4705.402186456509
 21
608.8289380667754
 31
0.0
  0
LINE
  5
6DA4
330
1E
100
AcDbEntity
  8
躯体と製品
  6
Continuous
 62
     3
100
AcDbLine
 10
4712.86310421837
 20
608.8289380667754
 30
0.0
 11
4712.86310421837
 21
689.8289380667749
 31
0.0
  0
LINE
  5
6DA5
330
1E
100
AcDbEntity
  8
躯体と製品
  6
Continuous
 62
     3
100
AcDbLine
 10
4705.402186456509
 20
608.8289380667754
 30
0.0
 11
4712.86310421837
 21
608.8289380667754
 31
0.0
  0
ARC
  5
6DA6
330
1E
100
AcDbEntity
  8
躯体と製品
  6
Continuous
 62
     3
100
AcDbCircle
 10
4700.36331421837
 20
621.3287080667754
 30
0.0
 40
4.99991
100
AcDbArc
 50
270.0
 51
0.0
  0
LINE
  5
6DA7
330
1E
100
AcDbEntity
  8
躯体と製品
  6
Continuous
 62
     3
100
AcDbLine
 10
4619.364794218369
 20
616.328798066775
 30
0.0
 11
4700.36331421837
 21
616.328798066775
 31
0.0
  0
LINE
  5
6DA8
330
1E
100
AcDbEntity
  8
躯体と製品
  6
Continuous
 62
     3
100
AcDbLine
 10
4612.864934218369
 20
608.8289380667754
 30
0.0
 11
4712.86310421837
 21
608.8289380667754
 31
0.0
  0
ARC
  5
6DA9
330
1E
100
AcDbEntity
  8
躯体と製品
  6
Continuous
 62
     3
100
AcDbCircle
 10
4601.86309921837
 20
621.3289380667754
 30
0.0
 40
5.0
100
AcDbArc
 50
270.0
 51
0.0
  0
ARC
  5
6DAA
330
1E
100
AcDbEntity
  8
躯体と製品
  6
Continuous
 62
     3
100
AcDbCircle
 10
4650.36314921837
 20
619.8289380667754
 30
0.0
 40
2.5
100
AcDbArc
 50
180.0
 51
270.0
  0
ARC
  5
6DAB
330
1E
100
AcDbEntity
  8
躯体と製品
  6
Continuous
 62
     3
100
AcDbCircle
 10
4609.36319921837
 20
638.3289880667752
 30
0.0
 40
2.5
100
AcDbArc
 50
90.0
 51
180.0
  0
ARC
  5
6DAC
330
1E
100
AcDbEntity
  8
躯体と製品
  6
Continuous
 62
     3
100
AcDbCircle
 10
4651.36309921837
 20
638.3289880667752
 30
0.0
 40
2.5
100
AcDbArc
 50
0.0
 51
90.0
  0
LINE
  5
6DAD
330
1E
100
AcDbEntity
  8
躯体と製品
  6
Continuous
 62
     3
100
AcDbLine
 10
4395.36304921837
 20
660.3289880667751
 30
0.0
 11
4392.363099218369
 21
658.828988066775
 31
0.0
  0
LINE
  5
6DAE
330
1E
100
AcDbEntity
  8
躯体と製品
  6
Continuous
 62
     3
100
AcDbLine
 10
4395.36304921837
 20
657.3289880667752
 30
0.0
 11
4395.36304921837
 21
616.3289880667753
 31
0.0
  0
LINE
  5
6DAF
330
1E
100
AcDbEntity
  8
躯体と製品
  6
Continuous
 62
     3
100
AcDbLine
 10
4395.36304921837
 20
702.3289880667753
 30
0.0
 11
4395.36304921837
 21
660.3289880667751
 31
0.0
  0
LINE
  5
6DB0
330
1E
100
AcDbEntity
  8
躯体と製品
  6
Continuous
 62
     3
100
AcDbLine
 10
4392.363099218369
 20
658.828988066775
 30
0.0
 11
4395.36304921837
 21
657.3289880667752
 31
0.0
  0
LINE
  5
6DB1
330
1E
100
AcDbEntity
  8
躯体と製品
  6
Continuous
 62
     3
100
AcDbLine
 10
4609.36319921837
 20
640.8289380667752
 30
0.0
 11
4651.36309921837
 21
640.8289380667752
 31
0.0
  0
LINE
  5
6DB2
330
1E
100
AcDbEntity
  8
躯体と製品
  6
Continuous
 62
     3
100
AcDbLine
 10
4612.863099218371
 20
633.3290380667754
 30
0.0
 11
4647.863099218369
 21
633.3290380667754
 31
0.0
  0
LINE
  5
6DB3
330
1E
100
AcDbEntity
  8
躯体と製品
  6
Continuous
 62
     3
100
AcDbLine
 10
4606.863199218371
 20
638.3289880667752
 30
0.0
 11
4606.863199218371
 21
621.3289380667754
 31
0.0
  0
LINE
  5
6DB4
330
1E
100
AcDbEntity
  8
躯体と製品
  6
Continuous
 62
     3
100
AcDbLine
 10
4395.36304921837
 20
616.3289880667753
 30
0.0
 11
4601.86309921837
 21
616.3289880667753
 31
0.0
  0
LINE
  5
6DB5
330
1E
100
AcDbEntity
  8
躯体と製品
  6
Continuous
 62
     3
100
AcDbLine
 10
4412.86304921837
 20
708.828838066775
 30
0.0
 11
4412.86304921837
 21
702.3289880667753
 31
0.0
  0
LINE
  5
6DB6
330
1E
100
AcDbEntity
  8
躯体と製品
  6
Continuous
 62
     3
100
AcDbLine
 10
4395.36304921837
 20
702.3289880667753
 30
0.0
 11
4412.86304921837
 21
702.3289880667753
 31
0.0
  0
LINE
  5
6DB7
330
1E
100
AcDbEntity
  8
躯体と製品
  6
Continuous
 62
     3
100
AcDbLine
 10
4653.862999218371
 20
638.3289880667752
 30
0.0
 11
4653.862999218371
 21
627.3289380667754
 31
0.0
  0
LINE
  5
6DB8
330
1E
100
AcDbEntity
  8
躯体と製品
  6
Continuous
 62
     3
100
AcDbLine
 10
4653.862999218371
 20
627.3289380667754
 30
0.0
 11
4697.86314921837
 21
627.3289380667754
 31
0.0
  0
LINE
  5
6DB9
330
1E
100
AcDbEntity
  8
躯体と製品
  6
Continuous
 62
     3
100
AcDbLine
 10
4650.36314921837
 20
617.3288380667753
 30
0.0
 11
4697.86314921837
 21
617.3288380667753
 31
0.0
  0
LINE
  5
6DBA
330
1E
100
AcDbEntity
  8
躯体と製品
  6
Continuous
 62
     3
100
AcDbLine
 10
4697.86314921837
 20
627.3289380667754
 30
0.0
 11
4697.86314921837
 21
617.3288380667753
 31
0.0
  0
LINE
  5
6DBB
330
1E
100
AcDbEntity
  8
躯体と製品
  6
Continuous
 62
     3
100
AcDbLine
 10
4647.863099218369
 20
633.3290380667754
 30
0.0
 11
4647.863099218369
 21
619.8289380667754
 31
0.0
  0
LINE
  5
6DBC
330
1E
100
AcDbEntity
  8
躯体と製品
  6
Continuous
 62
     3
100
AcDbLine
 10
4387.863149218371
 20
708.828838066775
 30
0.0
 11
4412.86304921837
 21
708.828838066775
 31
0.0
  0
LINE
  5
6DBD
330
1E
100
AcDbEntity
  8
躯体と製品
  6
Continuous
 62
     3
100
AcDbLine
 10
4387.863149218371
 20
708.828838066775
 30
0.0
 11
4387.863149218371
 21
608.8289380667754
 31
0.0
  0
LINE
  5
6DBE
330
1E
100
AcDbEntity
  8
躯体と製品
  6
Continuous
 62
     3
100
AcDbLine
 10
4387.863149218371
 20
608.8289380667754
 30
0.0
 11
4612.863099218371
 21
608.8289380667754
 31
0.0
  0
LINE
  5
6DBF
330
1E
100
AcDbEntity
  8
躯体と製品
  6
Continuous
 62
     3
100
AcDbLine
 10
4612.863099218371
 20
608.8289380667754
 30
0.0
 11
4387.815294218369
 21
608.8289380667754
 31
0.0
  0
LINE
  5
6DC0
330
1E
100
AcDbEntity
  8
躯体と製品
  6
Continuous
 62
     3
100
AcDbLine
 10
4612.863099218371
 20
633.3290380667754
 30
0.0
 11
4612.863099218371
 21
608.8289380667754
 31
0.0
  0
LINE
  5
6DC1
330
1E
100
AcDbEntity
  8
躯体と製品
  6
Continuous
 62
     3
100
AcDbLine
 10
4619.364794218369
 20
633.3290380667754
 30
0.0
 11
4619.364794218369
 21
616.328798066775
 31
0.0
  0
LINE
  5
6DC2
330
1E
100
AcDbEntity
  8
躯体と製品
  6
Continuous
 62
     3
100
AcDbLine
 10
4612.863099218371
 20
633.3290380667754
 30
0.0
 11
4612.863099218371
 21
608.8289380667754
 31
0.0
  0
LINE
  5
6DC3
330
1E
100
AcDbEntity
  8
躯体と製品
  6
Continuous
 62
     3
100
AcDbLine
 10
4116.819544218372
 20
673.8289580667753
 30
0.0
 11
4283.85883921837
 21
673.8289580667753
 31
0.0
  0
LINE
  5
6DC4
330
1E
100
AcDbEntity
  8
躯体と製品
  6
Continuous
 62
     3
100
AcDbLine
 10
4306.771729218371
 20
673.8289580667753
 30
0.0
 11
4380.315289218372
 21
673.8289580667753
 31
0.0
  0
LINE
  5
6DC5
330
1E
100
AcDbEntity
  8
躯体と製品
  6
Continuous
 62
     3
100
AcDbLine
 10
4191.613099218371
 20
663.8289680667756
 30
0.0
 11
4283.85883921837
 21
663.8289680667756
 31
0.0
  0
LINE
  5
6DC6
330
1E
100
AcDbEntity
  8
躯体と製品
  6
Continuous
 62
     3
100
AcDbLine
 10
4306.771729218371
 20
663.8289680667756
 30
0.0
 11
4380.315289218372
 21
663.8289680667756
 31
0.0
  0
ARC
  5
6DC7
330
1E
100
AcDbEntity
  8
躯体と製品
  6
Continuous
 62
     3
100
AcDbCircle
 10
4379.315284218371
 20
555.3289580667754
 30
0.0
 40
1.5
100
AcDbArc
 50
180.0
 51
270.0
  0
LINE
  5
6DC8
330
1E
100
AcDbEntity
  8
躯体と製品
  6
Continuous
 62
     3
100
AcDbLine
 10
4377.81528421837
 20
588.8289680667754
 30
0.0
 11
4377.81528421837
 21
555.3289580667754
 31
0.0
  0
LINE
  5
6DC9
330
1E
100
AcDbEntity
  8
躯体と製品
  6
Continuous
 62
     3
100
AcDbLine
 10
4377.81528421837
 20
588.8289680667754
 30
0.0
 11
4380.315289218372
 21
588.8289680667754
 31
0.0
  0
LINE
  5
6DCA
330
1E
100
AcDbEntity
  8
躯体と製品
  6
Continuous
 62
     3
100
AcDbLine
 10
4218.061144218371
 20
711.8289680667754
 30
0.0
 11
4380.315289218372
 21
711.8289680667754
 31
0.0
  0
LINE
  5
6DCB
330
1E
100
AcDbEntity
  8
躯体と製品
  6
Continuous
 62
     3
100
AcDbLine
 10
4380.315289218372
 20
711.8289680667754
 30
0.0
 11
4380.315289218372
 21
703.8289580667753
 31
0.0
  0
LINE
  5
6DCC
330
1E
100
AcDbEntity
  8
躯体と製品
  6
Continuous
 62
     3
100
AcDbLine
 10
4362.81528421837
 20
703.8289580667753
 30
0.0
 11
4037.863099218371
 21
703.8289580667753
 31
0.0
  0
LINE
  5
6DCD
330
1E
100
AcDbEntity
  8
躯体と製品
  6
Continuous
 62
     3
100
AcDbLine
 10
4387.815289218371
 20
703.8289580667753
 30
0.0
 11
4362.81528421837
 21
703.8289580667753
 31
0.0
  0
LINE
  5
6DCE
330
1E
100
AcDbEntity
  8
躯体と製品
  6
Continuous
 62
     3
100
AcDbLine
 10
4362.81528421837
 20
703.8289580667753
 30
0.0
 11
4362.81528421837
 21
693.8289680667751
 31
0.0
  0
LINE
  5
6DCF
330
1E
100
AcDbEntity
  8
躯体と製品
  6
Continuous
 62
     3
100
AcDbLine
 10
4367.815279218372
 20
693.8289680667751
 30
0.0
 11
4362.81528421837
 21
693.8289680667751
 31
0.0
  0
LINE
  5
6DD0
330
1E
100
AcDbEntity
  8
躯体と製品
  6
Continuous
 62
     3
100
AcDbLine
 10
4367.815279218372
 20
698.8289630667752
 30
0.0
 11
4367.815279218372
 21
693.8289680667751
 31
0.0
  0
LINE
  5
6DD1
330
1E
100
AcDbEntity
  8
躯体と製品
  6
Continuous
 62
     3
100
AcDbLine
 10
4380.315289218372
 20
698.8289630667752
 30
0.0
 11
4367.815279218372
 21
698.8289630667752
 31
0.0
  0
LINE
  5
6DD2
330
1E
100
AcDbEntity
  8
躯体と製品
  6
Continuous
 62
     3
100
AcDbLine
 10
4380.315289218372
 20
698.8289630667752
 30
0.0
 11
4380.315289218372
 21
673.8289580667753
 31
0.0
  0
ARC
  5
6DD3
330
1E
100
AcDbEntity
  8
躯体と製品
  6
Continuous
 62
     3
100
AcDbCircle
 10
4386.31528921837
 20
555.3289580667754
 30
0.0
 40
1.5
100
AcDbArc
 50
270.0
 51
0.0
  0
LINE
  5
6DD4
330
1E
100
AcDbEntity
  8
躯体と製品
  6
Continuous
 62
     3
100
AcDbLine
 10
4387.815289218371
 20
853.8289580667756
 30
0.0
 11
4387.815289218371
 21
555.3289580667754
 31
0.0
  0
LINE
  5
6DD5
330
1E
100
AcDbEntity
  8
躯体と製品
  6
Continuous
 62
     3
100
AcDbLine
 10
4379.315284218371
 20
553.8289580667753
 30
0.0
 11
4386.31528921837
 21
553.8289580667753
 31
0.0
  0
LINE
  5
6DD6
330
1E
100
AcDbEntity
  8
躯体と製品
  6
Continuous
 62
     3
100
AcDbLine
 10
4380.315289218372
 20
663.8289680667756
 30
0.0
 11
4380.315289218372
 21
656.3289680667751
 31
0.0
  0
LINE
  5
6DD7
330
1E
100
AcDbEntity
  8
躯体と製品
  6
Continuous
 62
     3
100
AcDbLine
 10
4380.315289218372
 20
651.3289580667754
 30
0.0
 11
4380.315289218372
 21
588.8289680667754
 31
0.0
  0
LINE
  5
6DD8
330
1E
100
AcDbEntity
  8
躯体と製品
  6
Continuous
 62
     3
100
AcDbLine
 10
4380.315289218372
 20
656.3289680667751
 30
0.0
 11
4372.815289218372
 21
656.3289680667751
 31
0.0
  0
LINE
  5
6DD9
330
1E
100
AcDbEntity
  8
躯体と製品
  6
Continuous
 62
     3
100
AcDbLine
 10
4372.815289218372
 20
656.3289680667751
 30
0.0
 11
4372.815289218372
 21
651.3289580667754
 31
0.0
  0
LINE
  5
6DDA
330
1E
100
AcDbEntity
  8
躯体と製品
  6
Continuous
 62
     3
100
AcDbLine
 10
4380.315289218372
 20
651.3289580667754
 30
0.0
 11
4372.815289218372
 21
651.3289580667754
 31
0.0
  0
LINE
  5
6DDB
330
1E
100
AcDbEntity
  8
躯体と製品
  6
Continuous
 62
     3
100
AcDbLine
 10
4288.91595421837
 20
677.9734730667752
 30
0.0
 11
4290.331564218371
 21
676.5578630667759
 31
0.0
  0
ARC
  5
6DDC
330
1E
100
AcDbEntity
  8
躯体と製品
  6
Continuous
 62
     3
100
AcDbCircle
 10
4295.315284218371
 20
668.8289630667753
 30
0.0
 40
7.5
100
AcDbArc
 50
132.1904720000055
 51
47.8095279999945
  0
ARC
  5
6DDD
330
1E
100
AcDbEntity
  8
躯体と製品
  6
Continuous
 62
     3
100
AcDbCircle
 10
4295.315284218371
 20
668.8289630667753
 30
0.0
 40
12.499995
100
AcDbArc
 50
23.57817800000103
 51
47.29839999999912
  0
ARC
  5
6DDE
330
1E
100
AcDbEntity
  8
躯体と製品
  6
Continuous
 62
     3
100
AcDbCircle
 10
4295.315284218371
 20
668.8289630667753
 30
0.0
 40
12.499995
100
AcDbArc
 50
203.578178000001
 51
336.4218219999989
  0
ARC
  5
6DDF
330
1E
100
AcDbEntity
  8
躯体と製品
  6
Continuous
 62
     3
100
AcDbCircle
 10
4295.315284218371
 20
668.8289630667753
 30
0.0
 40
12.499995
100
AcDbArc
 50
132.7016000000008
 51
156.4218219999989
  0
ARC
  5
6DE0
330
1E
100
AcDbEntity
  8
躯体と製品
  6
Continuous
 62
     3
100
AcDbCircle
 10
4302.775264218371
 20
676.9128080667756
 30
0.0
 40
1.5
100
AcDbArc
 50
47.29839999999912
 51
135.0000000000069
  0
ARC
  5
6DE1
330
1E
100
AcDbEntity
  8
躯体と製品
  6
Continuous
 62
     3
100
AcDbCircle
 10
4301.359654218371
 20
675.4972130667755
 30
0.0
 40
1.5
100
AcDbArc
 50
135.0000000000069
 51
227.8095279999945
  0
ARC
  5
6DE2
330
1E
100
AcDbEntity
  8
躯体と製品
  6
Continuous
 62
     3
100
AcDbCircle
 10
4289.270914218372
 20
675.4972130667755
 30
0.0
 40
1.5
100
AcDbArc
 50
312.1904720000055
 51
44.99999999999309
  0
ARC
  5
6DE3
330
1E
100
AcDbEntity
  8
躯体と製品
  6
Continuous
 62
     3
100
AcDbCircle
 10
4287.85530421837
 20
676.9128080667756
 30
0.0
 40
1.5
100
AcDbArc
 50
44.99999999999309
 51
132.7016000000008
  0
LINE
  5
6DE4
330
1E
100
AcDbEntity
  8
躯体と製品
  6
Continuous
 62
     3
100
AcDbLine
 10
4300.299004218371
 20
676.5578630667759
 30
0.0
 11
4301.714599218371
 21
677.9734730667752
 31
0.0
  0
LINE
  5
6DE5
330
1E
100
AcDbEntity
  8
躯体と製品
  6
Continuous
 62
     3
100
AcDbLine
 10
4380.315289218372
 20
693.8289680667751
 30
0.0
 11
4355.31528421837
 21
693.8289680667751
 31
0.0
  0
LINE
  5
6DE6
330
1E
100
AcDbEntity
  8
躯体と製品
  6
Continuous
 62
     3
100
AcDbLine
 10
4355.31528421837
 20
693.8289680667751
 30
0.0
 11
4330.315279218371
 21
711.8289680667754
 31
0.0
  0
LINE
  5
6DE7
330
1E
100
AcDbEntity
  8
躯体と製品
  6
Continuous
 62
     3
100
AcDbLine
 10
4380.315289218372
 20
685.8289580667756
 30
0.0
 11
4352.734909218371
 21
685.8289580667756
 31
0.0
  0
LINE
  5
6DE8
330
1E
100
AcDbEntity
  8
躯体と製品
  6
Continuous
 62
     3
100
AcDbLine
 10
4352.734909218371
 20
685.8289580667756
 30
0.0
 11
4327.734904218371
 21
703.8289580667753
 31
0.0
  0
CIRCLE
  5
6DE9
330
1E
100
AcDbEntity
  8
躯体と製品
  6
Continuous
 62
     3
100
AcDbCircle
 10
4373.213554218371
 20
838.5743330667756
 30
0.0
 40
1.000005
  0
CIRCLE
  5
6DEA
330
1E
100
AcDbEntity
  8
躯体と製品
  6
Continuous
 62
     3
100
AcDbCircle
 10
4317.853264218371
 20
838.5743330667756
 30
0.0
 40
1.000005
  0
CIRCLE
  5
6DEB
330
1E
100
AcDbEntity
  8
躯体と製品
  6
Continuous
 62
     3
100
AcDbCircle
 10
4350.366454218371
 20
715.3089680667754
 30
0.0
 40
1.000005
  0
CIRCLE
  5
6DEC
330
1E
100
AcDbEntity
  8
躯体と製品
  6
Continuous
 62
     3
100
AcDbCircle
 10
4364.426209218371
 20
781.2140630667755
 30
0.0
 40
1.000005
  0
CIRCLE
  5
6DED
330
1E
100
AcDbEntity
  8
躯体と製品
  6
Continuous
 62
     3
100
AcDbCircle
 10
4385.515834218371
 20
718.8239030667753
 30
0.0
 40
1.000005
  0
CIRCLE
  5
6DEE
330
1E
100
AcDbEntity
  8
躯体と製品
  6
Continuous
 62
     3
100
AcDbCircle
 10
4360.032529218371
 20
748.7008730667753
 30
0.0
 40
1.000005
  0
CIRCLE
  5
6DEF
330
1E
100
AcDbEntity
  8
躯体と製品
  6
Continuous
 62
     3
100
AcDbCircle
 10
4353.881389218371
 20
822.5145830667752
 30
0.0
 40
1.000005
  0
CIRCLE
  5
6DF0
330
1E
100
AcDbEntity
  8
躯体と製品
  6
Continuous
 62
     3
100
AcDbCircle
 10
4346.851504218371
 20
806.6973680667752
 30
0.0
 40
1.000005
  0
CIRCLE
  5
6DF1
330
1E
100
AcDbEntity
  8
躯体と製品
  6
Continuous
 62
     3
100
AcDbCircle
 10
4369.69860421837
 20
813.7272380667752
 30
0.0
 40
1.000005
  0
CIRCLE
  5
6DF2
330
1E
100
AcDbEntity
  8
躯体と製品
  6
Continuous
 62
     3
100
AcDbCircle
 10
4385.515834218371
 20
799.6674830667751
 30
0.0
 40
1.000005
  0
CIRCLE
  5
6DF3
330
1E
100
AcDbEntity
  8
躯体と製品
  6
Continuous
 62
     3
100
AcDbCircle
 10
4288.855024218372
 20
800.5462130667751
 30
0.0
 40
1.000005
  0
CIRCLE
  5
6DF4
330
1E
100
AcDbEntity
  8
躯体と製品
  6
Continuous
 62
     3
100
AcDbCircle
 10
4321.368199218372
 20
754.8520130667753
 30
0.0
 40
1.000005
  0
CIRCLE
  5
6DF5
330
1E
100
AcDbEntity
  8
躯体と製品
  6
Continuous
 62
     3
100
AcDbCircle
 10
4315.217059218372
 20
825.1507880667753
 30
0.0
 40
1.000005
  0
CIRCLE
  5
6DF6
330
1E
100
AcDbEntity
  8
躯体と製品
  6
Continuous
 62
     3
100
AcDbCircle
 10
4299.39984421837
 20
717.9451580667754
 30
0.0
 40
1.000005
  0
CIRCLE
  5
6DF7
330
1E
100
AcDbEntity
  8
躯体と製品
  6
Continuous
 62
     3
100
AcDbCircle
 10
4273.916539218372
 20
755.7307580667753
 30
0.0
 40
1.000005
  0
CIRCLE
  5
6DF8
330
1E
100
AcDbEntity
  8
躯体と製品
  6
Continuous
 62
     3
100
AcDbCircle
 10
4299.39984421837
 20
779.4565880667759
 30
0.0
 40
1.000005
  0
LINE
  5
6DF9
330
1E
100
AcDbEntity
  8
躯体と製品
  6
Continuous
 62
     3
100
AcDbLine
 10
4338.891454218371
 20
683.8289630667757
 30
0.0
 11
4411.508936083577
 21
683.8289630667757
 31
0.0
  0
LINE
  5
6DFA
330
1E
100
AcDbEntity
  8
図枠
  6
Continuous
 62
     3
100
AcDbLine
 10
5320.556929691351
 20
1208.826778066775
 30
0.0
 11
5432.074557454633
 21
1422.709785441267
 31
0.0
  0
LINE
  5
6DFB
330
1E
100
AcDbEntity
  8
図枠
  6
Continuous
 62
     3
100
AcDbLine
 10
5432.074557454633
 20
1422.709785441267
 30
0.0
 11
5591.512235817678
 21
1422.709785441267
 31
0.0
  0
TEXT
  5
6DFC
330
1E
100
AcDbEntity
  8
図枠
  6
Continuous
 62
     2
100
AcDbText
 10
2023.79832642795
 20
2091.471523774603
 30
0.0
 40
40.0
  1
ボックスとサッシ
 41
1.109375
  7
BIGFONT
 11
2023.79832642795
 21
2086.138190441269
 31
0.0
100
AcDbText
 73
     1
  0
TEXT
  5
6DFD
330
1E
100
AcDbEntity
  8
図枠
  6
Continuous
 62
     2
100
AcDbText
 10
1585.697343987134
 20
622.1833125885059
 30
0.0
 40
20.0
  1
ＳＡ－１５２０
 41
0.8
  7
ACAD
 11
1585.697343987134
 21
622.1833125885059
 31
0.0
100
AcDbText
 73
     1
  0
TEXT
  5
6DFE
330
1E
100
AcDbEntity
  8
図枠
  6
Continuous
 62
     2
100
AcDbText
 10
1574.825234100941
 20
655.4784634778043
 30
0.0
 40
20.0
  1
スペースアングル
 41
0.8
  7
ACAD
 11
1574.825234100941
 21
655.4784634778043
 31
0.0
100
AcDbText
 73
     1
  0
TEXT
  5
6DFF
330
1E
100
AcDbEntity
  8
図枠
  6
Continuous
 62
     2
100
AcDbText
 10
3825.179700181303
 20
2254.598563274006
 30
0.0
 40
40.0
  1
サッシ付埋込納まり
 41
1.11111111111111
  7
BIGFONT
 11
3825.179700181303
 21
2249.265229940673
 31
0.0
100
AcDbText
 73
     1
  0
TEXT
  5
6E00
330
1E
100
AcDbEntity
  8
図枠
  6
Continuous
 62
     2
100
AcDbText
 10
5429.746864121777
 20
1436.68443122573
 30
0.0
 40
20.0
  1
カーテンボックス
 41
0.8
  7
ACAD
 11
5429.746864121777
 21
1436.68443122573
 31
0.0
100
AcDbText
 73
     1
  0
TEXT
  5
6E01
330
1E
100
AcDbEntity
  8
図枠
  6
Continuous
 62
     2
100
AcDbText
 10
1360.634452898164
 20
2079.740402942878
 30
0.0
 40
40.0
  1
サッシ付埋込納まり
 41
1.111111111111111
  7
BIGFONT
 11
1360.634452898164
 21
2074.407069609544
 31
0.0
100
AcDbText
 73
     1
  0
TEXT
  5
6E02
330
1E
100
AcDbEntity
  8
図枠
  6
Continuous
 62
     2
100
AcDbText
 10
4693.176985979449
 20
2236.344845286923
 30
0.0
 40
40.0
  1
ボックスとブラインドカバー、スペースカバー
 41
1.119047619047619
  7
BIGFONT
 11
4693.176985979449
 21
2231.011511953589
 31
0.0
100
AcDbText
 73
     1
  0
TEXT
  5
6E03
330
1E
100
AcDbEntity
  8
図枠
  6
Continuous
 62
     2
100
AcDbText
 10
4576.358243301258
 20
473.3404962137647
 30
0.0
 40
20.0
  1
スペースカバー
 41
0.8
  7
ACAD
 11
4576.358243301258
 21
473.3404962137647
 31
0.0
100
AcDbText
 73
     1
  0
TEXT
  5
6E04
330
1E
100
AcDbEntity
  8
図枠
  6
Continuous
 62
     2
100
AcDbText
 10
5444.854154712181
 20
492.8113606722035
 30
0.0
 40
20.0
  1
ブラインドカバー
 41
0.8
  7
ACAD
 11
5444.854154712181
 21
492.8113606722035
 31
0.0
100
AcDbText
 73
     1
  0
TEXT
  5
6E05
330
1E
100
AcDbEntity
  8
図枠
  6
Continuous
 62
     2
100
AcDbText
 10
2500.714793162815
 20
1366.554990214459
 30
0.0
 40
20.0
  1
カーテンボックス
 41
0.8
  7
ACAD
 11
2500.714793162815
 21
1366.554990214459
 31
0.0
100
AcDbText
 73
     1
  0
LINE
  5
6E06
330
1E
100
AcDbEntity
  8
躯体と製品
  6
Continuous
 62
     3
100
AcDbLine
 10
1755.492092507191
 20
985.7551160442719
 30
0.0
 11
1755.492092507191
 21
737.0059916442722
 31
0.0
  0
LINE
  5
6E07
330
1E
100
AcDbEntity
  8
図枠
  6
Continuous
 62
     3
100
AcDbLine
 10
1785.635136403303
 20
781.5891597109681
 30
0.0
 11
1738.411815129979
 21
647.978105023536
 31
0.0
  0
LINE
  5
6E08
330
1E
100
AcDbEntity
  8
躯体と製品
  6
Continuous
 62
     3
100
AcDbLine
 10
1217.993984507191
 20
1457.600892641292
 30
0.0
 11
1625.311763243563
 21
1864.91868387762
 31
0.0
  0
LINE
  5
6E09
330
1E
100
AcDbEntity
  8
躯体と製品
  6
Continuous
 62
     3
100
AcDbLine
 10
1217.993984507191
 20
1439.923292366664
 30
0.0
 11
1642.989376018147
 21
1864.91868387762
 31
0.0
  0
LINE
  5
6E0A
330
1E
100
AcDbEntity
  8
躯体と製品
  6
Continuous
 62
     3
100
AcDbLine
 10
1217.993984507191
 20
1422.24567959208
 30
0.0
 11
1660.666976292775
 21
1864.91868387762
 31
0.0
  0
LINE
  5
6E0B
330
1E
100
AcDbEntity
  8
躯体と製品
  6
Continuous
 62
     3
100
AcDbLine
 10
2820.071670173887
 20
1864.91868387762
 30
0.0
 11
2820.071670173887
 21
1639.91947587762
 31
0.0
  0
LINE
  5
6E0C
330
1E
100
AcDbEntity
  8
躯体と製品
  6
Continuous
 62
     3
100
AcDbLine
 10
1470.076422173888
 20
852.42224787762
 30
0.0
 11
1490.909686340539
 21
852.42224787762
 31
0.0
  0
LINE
  5
6E0D
330
1E
100
AcDbEntity
  8
躯体と製品
  6
Continuous
 62
     3
100
AcDbLine
 10
1502.483727775697
 20
860.7555560442721
 30
0.0
 11
1490.909686340539
 21
852.42224787762
 31
0.0
  0
LINE
  5
6E0E
330
1E
100
AcDbEntity
  8
躯体と製品
  6
Continuous
 62
     3
100
AcDbLine
 10
1470.076422173888
 20
867.4221950776201
 30
0.0
 11
1470.076422173888
 21
860.7555560442721
 31
0.0
  0
LINE
  5
6E0F
330
1E
100
AcDbEntity
  8
躯体と製品
  6
Continuous
 62
     3
100
AcDbLine
 10
1470.076422173888
 20
867.4221950776201
 30
0.0
 11
1626.325872173887
 21
867.4221950776201
 31
0.0
  0
LINE
  5
6E10
330
1E
100
AcDbEntity
  8
躯体と製品
  6
Continuous
 62
     3
100
AcDbLine
 10
1634.824217259607
 20
867.4221950776201
 30
0.0
 11
1749.242114507191
 21
867.4221950776201
 31
0.0
  0
ARC
  5
6E11
330
1E
100
AcDbEntity
  8
躯体と製品
  6
Continuous
 62
     3
100
AcDbCircle
 10
1626.325872173887
 20
869.505525244272
 30
0.0
 40
2.083330166652
100
AcDbArc
 50
270.0
 51
0.0
  0
LINE
  5
6E12
330
1E
100
AcDbEntity
  8
躯体と製品
  6
Continuous
 62
     3
100
AcDbLine
 10
1749.242114507191
 20
867.4221950776201
 30
0.0
 11
1749.242114507191
 21
860.7555560442721
 31
0.0
  0
LINE
  5
6E13
330
1E
100
AcDbEntity
  8
躯体と製品
  6
Continuous
 62
     3
100
AcDbLine
 10
1470.076422173888
 20
845.755608844272
 30
0.0
 11
1493.059991271439
 21
845.755608844272
 31
0.0
  0
LINE
  5
6E14
330
1E
100
AcDbEntity
  8
躯体と製品
  6
Continuous
 62
     3
100
AcDbLine
 10
1493.059991271439
 20
845.755608844272
 30
0.0
 11
1513.893255438091
 21
860.7555560442721
 31
0.0
  0
LINE
  5
6E15
330
1E
100
AcDbEntity
  8
躯体と製品
  6
Continuous
 62
     3
100
AcDbLine
 10
1734.658828340539
 20
860.7555560442721
 30
0.0
 11
1484.659708340539
 21
860.7555560442721
 31
0.0
  0
ARC
  5
6E16
330
1E
100
AcDbEntity
  8
躯体と製品
  6
Continuous
 62
     3
100
AcDbCircle
 10
1626.325872173887
 20
869.505525244272
 30
0.0
 40
8.749969199999998
100
AcDbArc
 50
270.0
 51
0.0
  0
LINE
  5
6E17
330
1E
100
AcDbEntity
  8
躯体と製品
  6
Continuous
 62
     3
100
AcDbLine
 10
1628.409202340539
 20
971.588490910968
 30
0.0
 11
1635.075841373887
 21
971.588490910968
 31
0.0
  0
LINE
  5
6E18
330
1E
100
AcDbEntity
  8
躯体と製品
  6
Continuous
 62
     3
100
AcDbLine
 10
1635.075841373887
 20
869.505525244272
 30
0.0
 11
1635.075841373887
 21
971.588490910968
 31
0.0
  0
LINE
  5
6E19
330
1E
100
AcDbEntity
  8
躯体と製品
  6
Continuous
 62
     3
100
AcDbLine
 10
1628.409202340539
 20
869.505525244272
 30
0.0
 11
1628.409202340539
 21
971.588490910968
 31
0.0
  0
LINE
  5
6E1A
330
1E
100
AcDbEntity
  8
躯体と製品
  6
Continuous
 62
     3
100
AcDbLine
 10
1217.993984507191
 20
1864.91868387762
 30
0.0
 11
1217.993984507191
 21
858.314777135844
 31
0.0
  0
LINE
  5
6E1B
330
1E
100
AcDbEntity
  8
躯体と製品
  6
Continuous
 62
     3
100
AcDbLine
 10
1217.993984507191
 20
858.314777135844
 30
0.0
 11
1257.219733932067
 21
819.0890277109682
 31
0.0
  0
LINE
  5
6E1C
330
1E
100
AcDbEntity
  8
躯体と製品
  6
Continuous
 62
     3
100
AcDbLine
 10
1257.219733932067
 20
819.0890277109682
 30
0.0
 11
1417.993280507191
 21
819.0890277109682
 31
0.0
  0
LINE
  5
6E1D
330
1E
100
AcDbEntity
  8
躯体と製品
  6
Continuous
 62
     3
100
AcDbLine
 10
1417.993280507191
 20
989.92176387762
 30
0.0
 11
1417.993280507191
 21
819.0890277109682
 31
0.0
  0
LINE
  5
6E1E
330
1E
100
AcDbEntity
  8
躯体と製品
  6
Continuous
 62
     3
100
AcDbLine
 10
1417.993280507191
 20
989.92176387762
 30
0.0
 11
1751.325432173887
 21
989.92176387762
 31
0.0
  0
LINE
  5
6E1F
330
1E
100
AcDbEntity
  8
躯体と製品
  6
Continuous
 62
     3
100
AcDbLine
 10
1751.325432173887
 20
1639.91947587762
 30
0.0
 11
1751.325432173887
 21
989.92176387762
 31
0.0
  0
LINE
  5
6E20
330
1E
100
AcDbEntity
  8
躯体と製品
  6
Continuous
 62
     3
100
AcDbLine
 10
1749.242114507191
 20
852.42224787762
 30
0.0
 11
1728.408850340539
 21
852.42224787762
 31
0.0
  0
LINE
  5
6E21
330
1E
100
AcDbEntity
  8
躯体と製品
  6
Continuous
 62
     3
100
AcDbLine
 10
1728.408850340539
 20
852.42224787762
 30
0.0
 11
1716.834808905381
 21
860.7555560442721
 31
0.0
  0
LINE
  5
6E22
330
1E
100
AcDbEntity
  8
躯体と製品
  6
Continuous
 62
     3
100
AcDbLine
 10
1749.242114507191
 20
845.755608844272
 30
0.0
 11
1726.258545409639
 21
845.755608844272
 31
0.0
  0
LINE
  5
6E23
330
1E
100
AcDbEntity
  8
躯体と製品
  6
Continuous
 62
     3
100
AcDbLine
 10
1726.258545409639
 20
845.755608844272
 30
0.0
 11
1705.425281242987
 21
860.7555560442721
 31
0.0
  0
LINE
  5
6E24
330
1E
100
AcDbEntity
  8
躯体と製品
  6
Continuous
 62
     3
100
AcDbLine
 10
1590.909334340539
 20
1110.754676044272
 30
0.0
 11
1628.409202340539
 21
1110.754676044272
 31
0.0
  0
LINE
  5
6E25
330
1E
100
AcDbEntity
  8
躯体と製品
  6
Continuous
 62
     3
100
AcDbLine
 10
1628.409202340539
 20
1110.754676044272
 30
0.0
 11
1628.409202340539
 21
971.588490910968
 31
0.0
  0
LINE
  5
6E26
330
1E
100
AcDbEntity
  8
躯体と製品
  6
Continuous
 62
     3
100
AcDbLine
 10
1590.909334340539
 20
1110.754676044272
 30
0.0
 11
1590.909334340539
 21
909.0887109109681
 31
0.0
  0
LINE
  5
6E27
330
1E
100
AcDbEntity
  8
躯体と製品
  6
Continuous
 62
     3
100
AcDbLine
 10
1590.909334340539
 20
909.0887109109681
 30
0.0
 11
1628.409202340539
 21
909.0887109109681
 31
0.0
  0
LINE
  5
6E28
330
1E
100
AcDbEntity
  8
躯体と製品
  6
Continuous
 62
     3
100
AcDbLine
 10
1422.159928340539
 20
819.5078012368799
 30
0.0
 11
1463.407683147931
 21
860.7555560442721
 31
0.0
  0
LINE
  5
6E29
330
1E
100
AcDbEntity
  8
躯体と製品
  6
Continuous
 62
     3
100
AcDbLine
 10
1425.356467088683
 20
816.8118107268
 30
0.0
 11
1463.826444173887
 21
855.2817878120039
 31
0.0
  0
LINE
  5
6E2A
330
1E
100
AcDbEntity
  8
躯体と製品
  6
Continuous
 62
     3
100
AcDbLine
 10
1434.686796745807
 20
820.2495986257442
 30
0.0
 11
1463.826444173887
 21
849.3892460538239
 31
0.0
  0
LINE
  5
6E2B
330
1E
100
AcDbEntity
  8
躯体と製品
  6
Continuous
 62
     3
100
AcDbLine
 10
1441.471485363619
 20
821.1417579853321
 30
0.0
 11
1463.826444173887
 21
843.4967167955999
 31
0.0
  0
LINE
  5
6E2C
330
1E
100
AcDbEntity
  8
躯体と製品
  6
Continuous
 62
     3
100
AcDbLine
 10
1447.164102825535
 20
820.941833689068
 30
0.0
 11
1463.826444173887
 21
837.6041750374199
 31
0.0
  0
LINE
  5
6E2D
330
1E
100
AcDbEntity
  8
躯体と製品
  6
Continuous
 62
     3
100
AcDbLine
 10
1452.160210239175
 20
820.0453993445281
 30
0.0
 11
1463.826444173887
 21
831.7116457791962
 31
0.0
  0
LINE
  5
6E2E
330
1E
100
AcDbEntity
  8
躯体と製品
  6
Continuous
 62
     3
100
AcDbLine
 10
1456.635456986251
 20
818.628104333424
 30
0.0
 11
1463.826444173887
 21
825.819104021016
 31
0.0
  0
LINE
  5
6E2F
330
1E
100
AcDbEntity
  8
躯体と製品
  6
Continuous
 62
     3
100
AcDbLine
 10
1460.683442737291
 20
816.78356082624
 30
0.0
 11
1463.826444173887
 21
819.926574762792
 31
0.0
  0
LINE
  5
6E30
330
1E
100
AcDbEntity
  8
躯体と製品
  6
Continuous
 62
     3
100
AcDbLine
 10
1422.159928340539
 20
825.4003304951041
 30
0.0
 11
1457.515141389751
 21
860.7555560442721
 31
0.0
  0
LINE
  5
6E31
330
1E
100
AcDbEntity
  8
躯体と製品
  6
Continuous
 62
     3
100
AcDbLine
 10
1422.159928340539
 20
831.2928722532841
 30
0.0
 11
1451.622612131527
 21
860.7555560442721
 31
0.0
  0
LINE
  5
6E32
330
1E
100
AcDbEntity
  8
躯体と製品
  6
Continuous
 62
     3
100
AcDbLine
 10
1422.159928340539
 20
837.1854015115079
 30
0.0
 11
1445.730070373348
 21
860.7555560442721
 31
0.0
  0
LINE
  5
6E33
330
1E
100
AcDbEntity
  8
躯体と製品
  6
Continuous
 62
     3
100
AcDbLine
 10
1422.159928340539
 20
843.0779432696878
 30
0.0
 11
1439.837541115123
 21
860.7555560442721
 31
0.0
  0
LINE
  5
6E34
330
1E
100
AcDbEntity
  8
躯体と製品
  6
Continuous
 62
     3
100
AcDbLine
 10
1422.159928340539
 20
848.9704725279121
 30
0.0
 11
1433.944999356943
 21
860.7555560442721
 31
0.0
  0
LINE
  5
6E35
330
1E
100
AcDbEntity
  8
躯体と製品
  6
Continuous
 62
     3
100
AcDbLine
 10
1422.159928340539
 20
854.863014286092
 30
0.0
 11
1428.052457598764
 21
860.7555560442721
 31
0.0
  0
CIRCLE
  5
6E36
330
1E
100
AcDbEntity
  8
躯体と製品
  6
Continuous
 62
     3
100
AcDbCircle
 10
1743.324022838947
 20
973.0429732911721
 30
0.0
 40
0.8333345666519999
  0
CIRCLE
  5
6E37
330
1E
100
AcDbEntity
  8
躯体と製品
  6
Continuous
 62
     3
100
AcDbCircle
 10
1697.190610229131
 20
973.0429732911721
 30
0.0
 40
0.8333345666519999
  0
CIRCLE
  5
6E38
330
1E
100
AcDbEntity
  8
躯体と製品
  6
Continuous
 62
     3
100
AcDbCircle
 10
1655.450869653536
 20
975.9720754806961
 30
0.0
 40
0.8333345666519999
  0
CIRCLE
  5
6E39
330
1E
100
AcDbEntity
  8
躯体と製品
  6
Continuous
 62
     3
100
AcDbCircle
 10
1639.870949495048
 20
970.6440317354759
 30
0.0
 40
0.8333345666519999
  0
CIRCLE
  5
6E3A
330
1E
100
AcDbEntity
  8
躯体と製品
  6
Continuous
 62
     3
100
AcDbCircle
 10
1724.284839857108
 20
870.32218486962
 30
0.0
 40
0.8333345666519999
  0
CIRCLE
  5
6E3B
330
1E
100
AcDbEntity
  8
躯体と製品
  6
Continuous
 62
     3
100
AcDbCircle
 10
1736.001261115159
 20
925.242904048008
 30
0.0
 40
0.8333345666519999
  0
CIRCLE
  5
6E3C
330
1E
100
AcDbEntity
  8
躯体と製品
  6
Continuous
 62
     3
100
AcDbCircle
 10
1753.575886752259
 20
873.251287059144
 30
0.0
 40
0.8333345666519999
  0
CIRCLE
  5
6E3D
330
1E
100
AcDbEntity
  8
躯体と製品
  6
Continuous
 62
     3
100
AcDbCircle
 10
1651.789482541663
 20
876.9126741710161
 30
0.0
 40
0.8333345666519999
  0
CIRCLE
  5
6E3E
330
1E
100
AcDbEntity
  8
躯体と製品
  6
Continuous
 62
     3
100
AcDbCircle
 10
1732.339874003287
 20
898.1486744200319
 30
0.0
 40
0.8333345666519999
  0
CIRCLE
  5
6E3F
330
1E
100
AcDbEntity
  8
躯体と製品
  6
Continuous
 62
     3
100
AcDbCircle
 10
1727.213942046631
 20
959.659882899816
 30
0.0
 40
0.8333345666519999
  0
CIRCLE
  5
6E40
330
1E
100
AcDbEntity
  8
躯体と製品
  6
Continuous
 62
     3
100
AcDbCircle
 10
1721.355725167627
 20
946.4789167969799
 30
0.0
 40
0.8333345666519999
  0
CIRCLE
  5
6E41
330
1E
100
AcDbEntity
  8
躯体と製品
  6
Continuous
 62
     3
100
AcDbCircle
 10
1740.394908149467
 20
952.3371211760281
 30
0.0
 40
0.8333345666519999
  0
CIRCLE
  5
6E42
330
1E
100
AcDbEntity
  8
躯体と製品
  6
Continuous
 62
     3
100
AcDbCircle
 10
1673.025495290636
 20
941.3529848403241
 30
0.0
 40
0.8333345666519999
  0
CIRCLE
  5
6E43
330
1E
100
AcDbEntity
  8
躯体と製品
  6
Continuous
 62
     3
100
AcDbCircle
 10
1700.119712418656
 20
903.2746188766441
 30
0.0
 40
0.8333345666519999
  0
CIRCLE
  5
6E44
330
1E
100
AcDbEntity
  8
躯体と製品
  6
Continuous
 62
     3
100
AcDbCircle
 10
1694.993780461999
 20
961.856712666948
 30
0.0
 40
0.8333345666519999
  0
CIRCLE
  5
6E45
330
1E
100
AcDbEntity
  8
躯体と製品
  6
Continuous
 62
     3
100
AcDbCircle
 10
1647.395823007399
 20
893.755027385724
 30
0.0
 40
0.8333345666519999
  0
CIRCLE
  5
6E46
330
1E
100
AcDbEntity
  8
躯体と製品
  6
Continuous
 62
     3
100
AcDbCircle
 10
1681.812814359163
 20
872.519014636752
 30
0.0
 40
0.8333345666519999
  0
CIRCLE
  5
6E47
330
1E
100
AcDbEntity
  8
躯体と製品
  6
Continuous
 62
     3
100
AcDbCircle
 10
1641.537618628351
 20
928.9042786599241
 30
0.0
 40
0.8333345666519999
  0
CIRCLE
  5
6E48
330
1E
100
AcDbEntity
  8
躯体と製品
  6
Continuous
 62
     3
100
AcDbCircle
 10
1660.576801610191
 20
904.0068912990362
 30
0.0
 40
0.8333345666519999
  0
CIRCLE
  5
6E49
330
1E
100
AcDbEntity
  8
躯体と製品
  6
Continuous
 62
     3
100
AcDbCircle
 10
1681.812814359163
 20
923.7783467032681
 30
0.0
 40
0.8333345666519999
  0
CIRCLE
  5
6E4A
330
1E
100
AcDbEntity
  8
躯体と製品
  6
Continuous
 62
     3
100
AcDbCircle
 10
1659.945578832103
 20
962.588997589296
 30
0.0
 40
0.8333345666519999
  0
CIRCLE
  5
6E4B
330
1E
100
AcDbEntity
  8
躯体と製品
  6
Continuous
 62
     3
100
AcDbCircle
 10
1432.157130650263
 20
894.909085823424
 30
0.0
 40
0.8333345666519999
  0
CIRCLE
  5
6E4C
330
1E
100
AcDbEntity
  8
躯体と製品
  6
Continuous
 62
     3
100
AcDbCircle
 10
1424.102084004127
 20
943.9716006227641
 30
0.0
 40
0.8333345666519999
  0
CIRCLE
  5
6E4D
330
1E
100
AcDbEntity
  8
躯体と製品
  6
Continuous
 62
     3
100
AcDbCircle
 10
1425.566641348867
 20
971.7981026731321
 30
0.0
 40
0.8333345666519999
  0
CIRCLE
  5
6E4E
330
1E
100
AcDbEntity
  8
躯体と製品
  6
Continuous
 62
     3
100
AcDbCircle
 10
1518.035565857107
 20
924.932417640924
 30
0.0
 40
0.8333345666519999
  0
CIRCLE
  5
6E4F
330
1E
100
AcDbEntity
  8
躯体と製品
  6
Continuous
 62
     3
100
AcDbCircle
 10
1547.326612752259
 20
909.5546092710002
 30
0.0
 40
0.8333345666519999
  0
CIRCLE
  5
6E50
330
1E
100
AcDbEntity
  8
躯体と製品
  6
Continuous
 62
     3
100
AcDbCircle
 10
1560.507578855095
 20
949.0975325794201
 30
0.0
 40
0.8333345666519999
  0
CIRCLE
  5
6E51
330
1E
100
AcDbEntity
  8
躯体と製品
  6
Continuous
 62
     3
100
AcDbCircle
 10
1617.625127800615
 20
883.9249494877201
 30
0.0
 40
0.8333345666519999
  0
CIRCLE
  5
6E52
330
1E
100
AcDbEntity
  8
躯体と製品
  6
Continuous
 62
     3
100
AcDbCircle
 10
1508.515974366187
 20
875.869902841584
 30
0.0
 40
0.8333345666519999
  0
CIRCLE
  5
6E53
330
1E
100
AcDbEntity
  8
躯体と製品
  6
Continuous
 62
     3
100
AcDbCircle
 10
1570.759455268363
 20
891.247711211508
 30
0.0
 40
0.8333345666519999
  0
CIRCLE
  5
6E54
330
1E
100
AcDbEntity
  8
躯体と製品
  6
Continuous
 62
     3
100
AcDbCircle
 10
1574.420829880279
 20
930.790622019972
 30
0.0
 40
0.8333345666519999
  0
CIRCLE
  5
6E55
330
1E
100
AcDbEntity
  8
躯体と製品
  6
Continuous
 62
     3
100
AcDbCircle
 10
1555.381646898439
 20
973.2626475179161
 30
0.0
 40
0.8333345666519999
  0
CIRCLE
  5
6E56
330
1E
100
AcDbEntity
  8
躯体と製品
  6
Continuous
 62
     3
100
AcDbCircle
 10
1529.751987115159
 20
979.853136819312
 30
0.0
 40
0.8333345666519999
  0
CIRCLE
  5
6E57
330
1E
100
AcDbEntity
  8
躯体と製品
  6
Continuous
 62
     3
100
AcDbCircle
 10
1574.420829880279
 20
965.939885794128
 30
0.0
 40
0.8333345666519999
  0
CIRCLE
  5
6E58
330
1E
100
AcDbEntity
  8
躯体と製品
  6
Continuous
 62
     3
100
AcDbCircle
 10
1547.326612752259
 20
927.861519830448
 30
0.0
 40
0.8333345666519999
  0
CIRCLE
  5
6E59
330
1E
100
AcDbEntity
  8
躯体と製品
  6
Continuous
 62
     3
100
AcDbCircle
 10
1445.540208541664
 20
931.5229069423201
 30
0.0
 40
0.8333345666519999
  0
CIRCLE
  5
6E5A
330
1E
100
AcDbEntity
  8
躯体と製品
  6
Continuous
 62
     3
100
AcDbCircle
 10
1485.815404272475
 20
897.8382005129041
 30
0.0
 40
0.8333345666519999
  0
CIRCLE
  5
6E5B
330
1E
100
AcDbEntity
  8
躯体と製品
  6
Continuous
 62
     3
100
AcDbCircle
 10
1520.232395624239
 20
906.6255070814762
 30
0.0
 40
0.8333345666519999
  0
ARC
  5
6E5C
330
1E
100
AcDbEntity
  8
躯体と製品
  6
Continuous
 62
     3
100
AcDbCircle
 10
1535.610191494207
 20
867.814868695404
 30
0.0
 40
0.8333345666519999
100
AcDbArc
 50
331.8870489999974
 51
208.1129510000026
  0
CIRCLE
  5
6E5D
330
1E
100
AcDbEntity
  8
躯体と製品
  6
Continuous
 62
     3
100
AcDbCircle
 10
1452.862970265451
 20
878.7990175310639
 30
0.0
 40
0.8333345666519999
  0
CIRCLE
  5
6E5E
330
1E
100
AcDbEntity
  8
躯体と製品
  6
Continuous
 62
     3
100
AcDbCircle
 10
1478.492642548687
 20
878.7990175310639
 30
0.0
 40
0.8333345666519999
  0
CIRCLE
  5
6E5F
330
1E
100
AcDbEntity
  8
躯体と製品
  6
Continuous
 62
     3
100
AcDbCircle
 10
1526.090600003287
 20
952.758919691292
 30
0.0
 40
0.8333345666519999
  0
CIRCLE
  5
6E60
330
1E
100
AcDbEntity
  8
躯体と製品
  6
Continuous
 62
     3
100
AcDbCircle
 10
1493.870438418656
 20
957.884851647948
 30
0.0
 40
0.8333345666519999
  0
CIRCLE
  5
6E61
330
1E
100
AcDbEntity
  8
躯体と製品
  6
Continuous
 62
     3
100
AcDbCircle
 10
1441.1465490074
 20
948.365260157028
 30
0.0
 40
0.8333345666519999
  0
CIRCLE
  5
6E62
330
1E
100
AcDbEntity
  8
躯体と製品
  6
Continuous
 62
     3
100
AcDbCircle
 10
1475.563540359163
 20
927.129247408056
 30
0.0
 40
0.8333345666519999
  0
CIRCLE
  5
6E63
330
1E
100
AcDbEntity
  8
躯体と製品
  6
Continuous
 62
     3
100
AcDbCircle
 10
1438.949719240267
 20
904.4286773143442
 30
0.0
 40
0.8333345666519999
  0
CIRCLE
  5
6E64
330
1E
100
AcDbEntity
  8
躯体と製品
  6
Continuous
 62
     3
100
AcDbCircle
 10
1435.288344628351
 20
983.514523931184
 30
0.0
 40
0.8333345666519999
  0
CIRCLE
  5
6E65
330
1E
100
AcDbEntity
  8
躯体と製品
  6
Continuous
 62
     3
100
AcDbCircle
 10
1454.327527610191
 20
958.61712407034
 30
0.0
 40
0.8333345666519999
  0
CIRCLE
  5
6E66
330
1E
100
AcDbEntity
  8
躯体と製品
  6
Continuous
 62
     3
100
AcDbCircle
 10
1475.563540359163
 20
978.3885794745719
 30
0.0
 40
0.8333345666519999
  0
LINE
  5
6E67
330
1E
100
AcDbEntity
  8
躯体と製品
  6
Continuous
 62
     3
100
AcDbLine
 10
1751.325432173887
 20
1639.91947587762
 30
0.0
 11
2820.071670173887
 21
1639.91947587762
 31
0.0
  0
LINE
  5
6E68
330
1E
100
AcDbEntity
  8
躯体と製品
  6
Continuous
 62
     3
100
AcDbLine
 10
1714.722373517108
 20
844.0889397109682
 30
0.0
 11
1776.285506814115
 21
844.0889397109682
 31
0.0
  0
LINE
  5
6E69
330
1E
100
AcDbEntity
  8
躯体と製品
  6
Continuous
 62
     3
100
AcDbLine
 10
1417.993280507191
 20
951.330249720228
 30
0.0
 11
1285.752058497931
 21
819.0890277109682
 31
0.0
  0
LINE
  5
6E6A
330
1E
100
AcDbEntity
  8
躯体と製品
  6
Continuous
 62
     3
100
AcDbLine
 10
1751.325432173887
 20
1284.66241388688
 30
0.0
 11
1456.584794664583
 21
989.92176387762
 31
0.0
  0
LINE
  5
6E6B
330
1E
100
AcDbEntity
  8
躯体と製品
  6
Continuous
 62
     3
100
AcDbLine
 10
1417.993280507191
 20
933.6526369456439
 30
0.0
 11
1303.429671272515
 21
819.0890277109682
 31
0.0
  0
LINE
  5
6E6C
330
1E
100
AcDbEntity
  8
躯体と製品
  6
Continuous
 62
     3
100
AcDbLine
 10
1751.325432173887
 20
1266.984801112296
 30
0.0
 11
1474.262394939212
 21
989.92176387762
 31
0.0
  0
LINE
  5
6E6D
330
1E
100
AcDbEntity
  8
躯体と製品
  6
Continuous
 62
     3
100
AcDbLine
 10
1417.993280507191
 20
915.9750366710161
 30
0.0
 11
1321.107271547143
 21
819.0890277109682
 31
0.0
  0
LINE
  5
6E6E
330
1E
100
AcDbEntity
  8
躯体と製品
  6
Continuous
 62
     3
100
AcDbLine
 10
1751.325432173887
 20
1249.307188337712
 30
0.0
 11
1491.940007713795
 21
989.92176387762
 31
0.0
  0
LINE
  5
6E6F
330
1E
100
AcDbEntity
  8
躯体と製品
  6
Continuous
 62
     3
100
AcDbLine
 10
2824.238330507191
 20
1864.91868387762
 30
0.0
 11
2824.238330507191
 21
1635.752828044272
 31
0.0
  0
LINE
  5
6E70
330
1E
100
AcDbEntity
  8
躯体と製品
  6
Continuous
 62
     3
100
AcDbLine
 10
1422.159928340539
 20
860.7555560442721
 30
0.0
 11
1484.659708340539
 21
860.7555560442721
 31
0.0
  0
LINE
  5
6E71
330
1E
100
AcDbEntity
  8
躯体と製品
  6
Continuous
 62
     3
100
AcDbLine
 10
1484.659708340539
 20
860.7555560442721
 30
0.0
 11
1484.659708340539
 21
852.42224787762
 31
0.0
  0
LINE
  5
6E72
330
1E
100
AcDbEntity
  8
躯体と製品
  6
Continuous
 62
     3
100
AcDbLine
 10
1480.493060507191
 20
852.42224787762
 30
0.0
 11
1484.659708340539
 21
852.42224787762
 31
0.0
  0
LINE
  5
6E73
330
1E
100
AcDbEntity
  8
躯体と製品
  6
Continuous
 62
     3
100
AcDbLine
 10
1480.493060507191
 20
856.5888957109683
 30
0.0
 11
1480.493060507191
 21
852.42224787762
 31
0.0
  0
LINE
  5
6E74
330
1E
100
AcDbEntity
  8
躯体と製品
  6
Continuous
 62
     3
100
AcDbLine
 10
1470.076422173888
 20
856.5888957109683
 30
0.0
 11
1480.493060507191
 21
856.5888957109683
 31
0.0
  0
LINE
  5
6E75
330
1E
100
AcDbEntity
  8
躯体と製品
  6
Continuous
 62
     3
100
AcDbLine
 10
1470.076422173888
 20
856.5888957109683
 30
0.0
 11
1470.076422173888
 21
835.7556440442722
 31
0.0
  0
ARC
  5
6E76
330
1E
100
AcDbEntity
  8
躯体と製品
  6
Continuous
 62
     3
100
AcDbCircle
 10
1465.076439773888
 20
737.0059916442722
 30
0.0
 40
1.249995599999999
100
AcDbArc
 50
180.0
 51
270.0
  0
LINE
  5
6E77
330
1E
100
AcDbEntity
  8
躯体と製品
  6
Continuous
 62
     3
100
AcDbLine
 10
1463.826444173887
 20
860.7555560442721
 30
0.0
 11
1463.826444173887
 21
737.0059916442722
 31
0.0
  0
LINE
  5
6E78
330
1E
100
AcDbEntity
  8
躯体と製品
  6
Continuous
 62
     3
100
AcDbLine
 10
1465.076439773888
 20
735.7559960442722
 30
0.0
 11
1468.826426573887
 21
735.7559960442722
 31
0.0
  0
LINE
  5
6E79
330
1E
100
AcDbEntity
  8
躯体と製品
  6
Continuous
 62
     3
100
AcDbLine
 10
1470.076422173888
 20
827.4223358776199
 30
0.0
 11
1470.076422173888
 21
821.1723578776199
 31
0.0
  0
ARC
  5
6E7A
330
1E
100
AcDbEntity
  8
躯体と製品
  6
Continuous
 62
     3
100
AcDbCircle
 10
1468.826426573887
 20
737.0059916442722
 30
0.0
 40
1.249995599999999
100
AcDbArc
 50
270.0
 51
0.0
  0
LINE
  5
6E7B
330
1E
100
AcDbEntity
  8
躯体と製品
  6
Continuous
 62
     3
100
AcDbLine
 10
1470.076422173888
 20
817.005710044272
 30
0.0
 11
1470.076422173888
 21
737.0059916442722
 31
0.0
  0
LINE
  5
6E7C
330
1E
100
AcDbEntity
  8
躯体と製品
  6
Continuous
 62
     3
100
AcDbLine
 10
1470.076422173888
 20
821.1723578776199
 30
0.0
 11
1476.326400173888
 21
821.1723578776199
 31
0.0
  0
LINE
  5
6E7D
330
1E
100
AcDbEntity
  8
躯体と製品
  6
Continuous
 62
     3
100
AcDbLine
 10
1476.326400173888
 20
821.1723578776199
 30
0.0
 11
1476.326400173888
 21
817.005710044272
 31
0.0
  0
LINE
  5
6E7E
330
1E
100
AcDbEntity
  8
躯体と製品
  6
Continuous
 62
     3
100
AcDbLine
 10
1470.076422173888
 20
817.005710044272
 30
0.0
 11
1476.326400173888
 21
817.005710044272
 31
0.0
  0
LINE
  5
6E7F
330
1E
100
AcDbEntity
  8
躯体と製品
  6
Continuous
 62
     3
100
AcDbLine
 10
1470.076422173888
 20
835.7556440442722
 30
0.0
 11
1531.362506446111
 21
835.7556440442722
 31
0.0
  0
LINE
  5
6E80
330
1E
100
AcDbEntity
  8
躯体と製品
  6
Continuous
 62
     3
100
AcDbLine
 10
1550.456514234967
 20
835.7556440442722
 30
0.0
 11
1668.862022446111
 21
835.7556440442722
 31
0.0
  0
LINE
  5
6E81
330
1E
100
AcDbEntity
  8
躯体と製品
  6
Continuous
 62
     3
100
AcDbLine
 10
1687.956030234967
 20
835.7556440442722
 30
0.0
 11
1749.242114507191
 21
835.7556440442722
 31
0.0
  0
LINE
  5
6E82
330
1E
100
AcDbEntity
  8
躯体と製品
  6
Continuous
 62
     3
100
AcDbLine
 10
1470.076422173888
 20
827.4223358776199
 30
0.0
 11
1531.362506446111
 21
827.4223358776199
 31
0.0
  0
LINE
  5
6E83
330
1E
100
AcDbEntity
  8
躯体と製品
  6
Continuous
 62
     3
100
AcDbLine
 10
1550.456514234967
 20
827.4223358776199
 30
0.0
 11
1606.534279340539
 21
827.4223358776199
 31
0.0
  0
LINE
  5
6E84
330
1E
100
AcDbEntity
  8
躯体と製品
  6
Continuous
 62
     3
100
AcDbLine
 10
1612.784257340539
 20
827.4223358776199
 30
0.0
 11
1668.862022446111
 21
827.4223358776199
 31
0.0
  0
LINE
  5
6E85
330
1E
100
AcDbEntity
  8
躯体と製品
  6
Continuous
 62
     3
100
AcDbLine
 10
1687.956030234967
 20
827.4223358776199
 30
0.0
 11
1749.242114507191
 21
827.4223358776199
 31
0.0
  0
LINE
  5
6E86
330
1E
100
AcDbEntity
  8
躯体と製品
  6
Continuous
 62
     3
100
AcDbLine
 10
1606.534279340539
 20
827.4223358776199
 30
0.0
 11
1606.534279340539
 21
764.9225558776199
 31
0.0
  0
LINE
  5
6E87
330
1E
100
AcDbEntity
  8
躯体と製品
  6
Continuous
 62
     3
100
AcDbLine
 10
1605.700944773887
 20
735.7559960442722
 30
0.0
 11
1611.534261740539
 21
735.7559960442722
 31
0.0
  0
ARC
  5
6E88
330
1E
100
AcDbEntity
  8
躯体と製品
  6
Continuous
 62
     3
100
AcDbCircle
 10
1611.534261740539
 20
737.0059916442722
 30
0.0
 40
1.249995599999999
100
AcDbArc
 50
270.0
 51
0.0
  0
LINE
  5
6E89
330
1E
100
AcDbEntity
  8
躯体と製品
  6
Continuous
 62
     3
100
AcDbLine
 10
1612.784257340539
 20
827.4223358776199
 30
0.0
 11
1612.784257340539
 21
737.0059916442722
 31
0.0
  0
ARC
  5
6E8A
330
1E
100
AcDbEntity
  8
躯体と製品
  6
Continuous
 62
     3
100
AcDbCircle
 10
1605.700944773887
 20
737.0059916442722
 30
0.0
 40
1.249995599999999
100
AcDbArc
 50
180.0
 51
270.0
  0
LINE
  5
6E8B
330
1E
100
AcDbEntity
  8
躯体と製品
  6
Continuous
 62
     3
100
AcDbLine
 10
1604.450949173888
 20
764.9225558776199
 30
0.0
 11
1604.450949173888
 21
737.0059916442722
 31
0.0
  0
LINE
  5
6E8C
330
1E
100
AcDbEntity
  8
躯体と製品
  6
Continuous
 62
     3
100
AcDbLine
 10
1604.450949173888
 20
764.9225558776199
 30
0.0
 11
1606.534279340539
 21
764.9225558776199
 31
0.0
  0
ARC
  5
6E8D
330
1E
100
AcDbEntity
  8
躯体と製品
  6
Continuous
 62
     3
100
AcDbCircle
 10
1748.408779940539
 20
737.0059916442722
 30
0.0
 40
1.249995599999999
100
AcDbArc
 50
180.0
 51
270.0
  0
LINE
  5
6E8E
330
1E
100
AcDbEntity
  8
躯体と製品
  6
Continuous
 62
     3
100
AcDbLine
 10
1747.158784340539
 20
764.9225558776199
 30
0.0
 11
1747.158784340539
 21
737.0059916442722
 31
0.0
  0
LINE
  5
6E8F
330
1E
100
AcDbEntity
  8
躯体と製品
  6
Continuous
 62
     3
100
AcDbLine
 10
1747.158784340539
 20
764.9225558776199
 30
0.0
 11
1749.242114507191
 21
764.9225558776199
 31
0.0
  0
LINE
  5
6E90
330
1E
100
AcDbEntity
  8
躯体と製品
  6
Continuous
 62
     3
100
AcDbLine
 10
1546.242254069215
 20
839.2093818870721
 30
0.0
 11
1545.062595721628
 21
838.0297235394843
 31
0.0
  0
ARC
  5
6E91
330
1E
100
AcDbEntity
  8
躯体と製品
  6
Continuous
 62
     3
100
AcDbCircle
 10
1540.909510340539
 20
831.5889837109679
 30
0.0
 40
6.249977999999999
100
AcDbArc
 50
132.1904720000055
 51
47.8095279999945
  0
ARC
  5
6E92
330
1E
100
AcDbEntity
  8
躯体と製品
  6
Continuous
 62
     3
100
AcDbCircle
 10
1540.909510340539
 20
831.5889837109679
 30
0.0
 40
10.416625833348
100
AcDbArc
 50
132.7016000000008
 51
156.4218219999989
  0
ARC
  5
6E93
330
1E
100
AcDbEntity
  8
躯体と製品
  6
Continuous
 62
     3
100
AcDbCircle
 10
1540.909510340539
 20
831.5889837109679
 30
0.0
 40
10.416625833348
100
AcDbArc
 50
203.578178000001
 51
336.4218219999989
  0
ARC
  5
6E94
330
1E
100
AcDbEntity
  8
躯体と製品
  6
Continuous
 62
     3
100
AcDbCircle
 10
1540.909510340539
 20
831.5889837109679
 30
0.0
 40
10.416625833348
100
AcDbArc
 50
23.57817800000103
 51
47.29839999999912
  0
ARC
  5
6E95
330
1E
100
AcDbEntity
  8
躯体と製品
  6
Continuous
 62
     3
100
AcDbCircle
 10
1534.692882223147
 20
838.325509998312
 30
0.0
 40
1.249995599999999
100
AcDbArc
 50
44.99999999999309
 51
132.7016000000008
  0
ARC
  5
6E96
330
1E
100
AcDbEntity
  8
躯体と製品
  6
Continuous
 62
     3
100
AcDbCircle
 10
1535.872553070691
 20
837.145839150768
 30
0.0
 40
1.249995599999999
100
AcDbArc
 50
312.1904720000055
 51
44.99999999999309
  0
ARC
  5
6E97
330
1E
100
AcDbEntity
  8
躯体と製品
  6
Continuous
 62
     3
100
AcDbCircle
 10
1545.946467610387
 20
837.145839150768
 30
0.0
 40
1.249995599999999
100
AcDbArc
 50
135.0000000000069
 51
227.8095279999945
  0
ARC
  5
6E98
330
1E
100
AcDbEntity
  8
躯体と製品
  6
Continuous
 62
     3
100
AcDbCircle
 10
1547.126138457931
 20
838.325509998312
 30
0.0
 40
1.249995599999999
100
AcDbArc
 50
47.29839999999912
 51
135.0000000000069
  0
LINE
  5
6E99
330
1E
100
AcDbEntity
  8
躯体と製品
  6
Continuous
 62
     3
100
AcDbLine
 10
1213.827324173887
 20
1864.91868387762
 30
0.0
 11
1213.827324173887
 21
856.5888957109683
 31
0.0
  0
LINE
  5
6E9A
330
1E
100
AcDbEntity
  8
躯体と製品
  6
Continuous
 62
     3
100
AcDbLine
 10
1255.493852507191
 20
814.9223798776199
 30
0.0
 11
1213.827324173887
 21
856.5888957109683
 31
0.0
  0
LINE
  5
6E9B
330
1E
100
AcDbEntity
  8
躯体と製品
  6
Continuous
 62
     3
100
AcDbLine
 10
1422.159928340539
 20
814.9223798776199
 30
0.0
 11
1255.493852507191
 21
814.9223798776199
 31
0.0
  0
LINE
  5
6E9C
330
1E
100
AcDbEntity
  8
躯体と製品
  6
Continuous
 62
     3
100
AcDbLine
 10
1422.159928340539
 20
985.7551160442719
 30
0.0
 11
1422.159928340539
 21
814.9223798776199
 31
0.0
  0
LINE
  5
6E9D
330
1E
100
AcDbEntity
  8
躯体と製品
  6
Continuous
 62
     3
100
AcDbLine
 10
1422.159928340539
 20
985.7551160442719
 30
0.0
 11
1755.492092507191
 21
985.7551160442719
 31
0.0
  0
LINE
  5
6E9E
330
1E
100
AcDbEntity
  8
躯体と製品
  6
Continuous
 62
     3
100
AcDbLine
 10
1755.492092507191
 20
1635.752828044272
 30
0.0
 11
1755.492092507191
 21
985.7551160442719
 31
0.0
  0
LINE
  5
6E9F
330
1E
100
AcDbEntity
  8
躯体と製品
  6
Continuous
 62
     3
100
AcDbLine
 10
1755.492092507191
 20
860.7555560442721
 30
0.0
 11
1734.658828340539
 21
860.7555560442721
 31
0.0
  0
LINE
  5
6EA0
330
1E
100
AcDbEntity
  8
躯体と製品
  6
Continuous
 62
     3
100
AcDbLine
 10
1734.658828340539
 20
860.7555560442721
 30
0.0
 11
1734.658828340539
 21
852.42224787762
 31
0.0
  0
LINE
  5
6EA1
330
1E
100
AcDbEntity
  8
躯体と製品
  6
Continuous
 62
     3
100
AcDbLine
 10
1738.825476173888
 20
852.42224787762
 30
0.0
 11
1734.658828340539
 21
852.42224787762
 31
0.0
  0
LINE
  5
6EA2
330
1E
100
AcDbEntity
  8
躯体と製品
  6
Continuous
 62
     3
100
AcDbLine
 10
1738.825476173888
 20
856.5888957109683
 30
0.0
 11
1738.825476173888
 21
852.42224787762
 31
0.0
  0
LINE
  5
6EA3
330
1E
100
AcDbEntity
  8
躯体と製品
  6
Continuous
 62
     3
100
AcDbLine
 10
1749.242114507191
 20
856.5888957109683
 30
0.0
 11
1738.825476173888
 21
856.5888957109683
 31
0.0
  0
LINE
  5
6EA4
330
1E
100
AcDbEntity
  8
躯体と製品
  6
Continuous
 62
     3
100
AcDbLine
 10
1749.242114507191
 20
856.5888957109683
 30
0.0
 11
1749.242114507191
 21
835.7556440442722
 31
0.0
  0
ARC
  5
6EA5
330
1E
100
AcDbEntity
  8
躯体と製品
  6
Continuous
 62
     3
100
AcDbCircle
 10
1754.242096907191
 20
737.0059916442722
 30
0.0
 40
1.249995599999999
100
AcDbArc
 50
270.0
 51
0.0
  0
LINE
  5
6EA6
330
1E
100
AcDbEntity
  8
躯体と製品
  6
Continuous
 62
     3
100
AcDbLine
 10
1748.408779940539
 20
735.7559960442722
 30
0.0
 11
1754.242096907191
 21
735.7559960442722
 31
0.0
  0
LINE
  5
6EA7
330
1E
100
AcDbEntity
  8
躯体と製品
  6
Continuous
 62
     3
100
AcDbLine
 10
1749.242114507191
 20
827.4223358776199
 30
0.0
 11
1749.242114507191
 21
821.1723578776199
 31
0.0
  0
LINE
  5
6EA8
330
1E
100
AcDbEntity
  8
躯体と製品
  6
Continuous
 62
     3
100
AcDbLine
 10
1749.242114507191
 20
817.005710044272
 30
0.0
 11
1749.242114507191
 21
764.9225558776199
 31
0.0
  0
LINE
  5
6EA9
330
1E
100
AcDbEntity
  8
躯体と製品
  6
Continuous
 62
     3
100
AcDbLine
 10
1749.242114507191
 20
821.1723578776199
 30
0.0
 11
1742.992136507191
 21
821.1723578776199
 31
0.0
  0
LINE
  5
6EAA
330
1E
100
AcDbEntity
  8
躯体と製品
  6
Continuous
 62
     3
100
AcDbLine
 10
1742.992136507191
 20
821.1723578776199
 30
0.0
 11
1742.992136507191
 21
817.005710044272
 31
0.0
  0
LINE
  5
6EAB
330
1E
100
AcDbEntity
  8
躯体と製品
  6
Continuous
 62
     3
100
AcDbLine
 10
1749.242114507191
 20
817.005710044272
 30
0.0
 11
1742.992136507191
 21
817.005710044272
 31
0.0
  0
LINE
  5
6EAC
330
1E
100
AcDbEntity
  8
躯体と製品
  6
Continuous
 62
     3
100
AcDbLine
 10
1536.756424959451
 20
838.0297235394843
 30
0.0
 11
1535.576754111908
 21
839.2093818870721
 31
0.0
  0
LINE
  5
6EAD
330
1E
100
AcDbEntity
  8
躯体と製品
  6
Continuous
 62
     3
100
AcDbLine
 10
1673.076270111907
 20
839.2093818870721
 30
0.0
 11
1674.255940959451
 21
838.0297235394843
 31
0.0
  0
ARC
  5
6EAE
330
1E
100
AcDbEntity
  8
躯体と製品
  6
Continuous
 62
     3
100
AcDbCircle
 10
1678.409026340539
 20
831.5889837109679
 30
0.0
 40
6.249977999999999
100
AcDbArc
 50
132.1904720000055
 51
47.8095279999945
  0
ARC
  5
6EAF
330
1E
100
AcDbEntity
  8
躯体と製品
  6
Continuous
 62
     3
100
AcDbCircle
 10
1678.409026340539
 20
831.5889837109679
 30
0.0
 40
10.416625833348
100
AcDbArc
 50
23.57817800000103
 51
47.29839999999912
  0
ARC
  5
6EB0
330
1E
100
AcDbEntity
  8
躯体と製品
  6
Continuous
 62
     3
100
AcDbCircle
 10
1678.409026340539
 20
831.5889837109679
 30
0.0
 40
10.416625833348
100
AcDbArc
 50
203.578178000001
 51
336.4218219999989
  0
ARC
  5
6EB1
330
1E
100
AcDbEntity
  8
躯体と製品
  6
Continuous
 62
     3
100
AcDbCircle
 10
1678.409026340539
 20
831.5889837109679
 30
0.0
 40
10.416625833348
100
AcDbArc
 50
132.7016000000008
 51
156.4218219999989
  0
ARC
  5
6EB2
330
1E
100
AcDbEntity
  8
躯体と製品
  6
Continuous
 62
     3
100
AcDbCircle
 10
1684.625654457931
 20
838.325509998312
 30
0.0
 40
1.249995599999999
100
AcDbArc
 50
47.29839999999912
 51
135.0000000000069
  0
ARC
  5
6EB3
330
1E
100
AcDbEntity
  8
躯体と製品
  6
Continuous
 62
     3
100
AcDbCircle
 10
1683.445983610387
 20
837.145839150768
 30
0.0
 40
1.249995599999999
100
AcDbArc
 50
135.0000000000069
 51
227.8095279999945
  0
ARC
  5
6EB4
330
1E
100
AcDbEntity
  8
躯体と製品
  6
Continuous
 62
     3
100
AcDbCircle
 10
1673.372069070691
 20
837.145839150768
 30
0.0
 40
1.249995599999999
100
AcDbArc
 50
312.1904720000055
 51
44.99999999999309
  0
ARC
  5
6EB5
330
1E
100
AcDbEntity
  8
躯体と製品
  6
Continuous
 62
     3
100
AcDbCircle
 10
1672.192398223147
 20
838.325509998312
 30
0.0
 40
1.249995599999999
100
AcDbArc
 50
44.99999999999309
 51
132.7016000000008
  0
LINE
  5
6EB6
330
1E
100
AcDbEntity
  8
躯体と製品
  6
Continuous
 62
     3
100
AcDbLine
 10
1682.562111721627
 20
838.0297235394843
 30
0.0
 11
1683.741770069215
 21
839.2093818870721
 31
0.0
  0
ARC
  5
6EB7
330
1E
100
AcDbEntity
  8
躯体と製品
  6
Continuous
 62
     3
100
AcDbCircle
 10
1442.993192507191
 20
783.3252660998521
 30
0.0
 40
37.847091777768
100
AcDbArc
 50
56.60151200000796
 51
123.398487999992
  0
LINE
  5
6EB8
330
1E
100
AcDbEntity
  8
躯体と製品
  6
Continuous
 62
     3
100
AcDbLine
 10
2824.238330507191
 20
1635.752828044272
 30
0.0
 11
1755.492092507191
 21
1635.752828044272
 31
0.0
  0
LINE
  5
6EB9
330
1E
100
AcDbEntity
  8
躯体と製品
  6
Continuous
 62
     3
100
AcDbLine
 10
2610.487435189065
 20
1864.91868387762
 30
0.0
 11
2385.488227189065
 21
1639.91947587762
 31
0.0
  0
LINE
  5
6EBA
330
1E
100
AcDbEntity
  8
躯体と製品
  6
Continuous
 62
     3
100
AcDbLine
 10
2628.165035463693
 20
1864.91868387762
 30
0.0
 11
2403.165827463693
 21
1639.91947587762
 31
0.0
  0
LINE
  5
6EBB
330
1E
100
AcDbEntity
  8
躯体と製品
  6
Continuous
 62
     3
100
AcDbLine
 10
2645.842648238277
 20
1864.91868387762
 30
0.0
 11
2420.843440238277
 21
1639.91947587762
 31
0.0
  0
LINE
  5
6EBC
330
1E
100
AcDbEntity
  8
躯体と製品
  6
Continuous
 62
     3
100
AcDbLine
 10
2024.314787792773
 20
1156.486002010606
 30
0.0
 11
2364.307441014421
 21
1156.486002010606
 31
0.0
  0
CIRCLE
  5
6EBD
330
1E
100
AcDbEntity
  8
躯体と製品
  6
Continuous
 62
     3
100
AcDbCircle
 10
2194.311109403615
 20
1541.273507553818
 30
0.0
 40
4.499984159999999
  0
LINE
  5
6EBE
330
1E
100
AcDbEntity
  8
図枠
  6
Continuous
 62
     3
100
AcDbLine
 10
2393.750467374603
 20
1156.488622001383
 30
0.0
 11
2496.932854171323
 21
1354.385220402904
 31
0.0
  0
CIRCLE
  5
6EBF
330
1E
100
AcDbEntity
  8
図枠
  6
Continuous
 62
     3
100
AcDbCircle
 10
2393.750467374603
 20
1156.488622001383
 30
0.0
 40
4.499984159999999
  0
LINE
  5
6EC0
330
1E
100
AcDbEntity
  8
躯体と製品
  6
Continuous
 62
     3
100
AcDbLine
 10
2175.811179523597
 20
1342.550037062896
 30
0.0
 11
2175.811179523597
 21
1298.487692162896
 31
0.0
  0
LINE
  5
6EC1
330
1E
100
AcDbEntity
  8
躯体と製品
  6
Continuous
 62
     3
100
AcDbLine
 10
2212.811039283633
 20
1342.550037062896
 30
0.0
 11
2212.811039283633
 21
1298.487692162896
 31
0.0
  0
LINE
  5
6EC2
330
1E
100
AcDbEntity
  8
躯体と製品
  6
Continuous
 62
     3
100
AcDbLine
 10
2171.811188603615
 20
1342.550037062896
 30
0.0
 11
2171.811188603615
 21
1302.487668082932
 31
0.0
  0
LINE
  5
6EC3
330
1E
100
AcDbEntity
  8
躯体と製品
  6
Continuous
 62
     3
100
AcDbLine
 10
2171.811188603615
 20
1302.487668082932
 30
0.0
 11
2175.811179523597
 21
1298.487692162896
 31
0.0
  0
LINE
  5
6EC4
330
1E
100
AcDbEntity
  8
躯体と製品
  6
Continuous
 62
     3
100
AcDbLine
 10
2171.811188603615
 20
1302.487668082932
 30
0.0
 11
2216.811030203615
 21
1302.487668082932
 31
0.0
  0
LINE
  5
6EC5
330
1E
100
AcDbEntity
  8
躯体と製品
  6
Continuous
 62
     3
100
AcDbLine
 10
2216.811030203615
 20
1302.487668082932
 30
0.0
 11
2212.811039283633
 21
1298.487692162896
 31
0.0
  0
LINE
  5
6EC6
330
1E
100
AcDbEntity
  8
躯体と製品
  6
Continuous
 62
     3
100
AcDbLine
 10
2216.811030203615
 20
1342.550037062896
 30
0.0
 11
2216.811030203615
 21
1302.487668082932
 31
0.0
  0
LINE
  5
6EC7
330
1E
100
AcDbEntity
  8
躯体と製品
  6
Continuous
 62
     3
100
AcDbLine
 10
2175.811179523597
 20
1298.487692162896
 30
0.0
 11
2212.811039283633
 21
1298.487692162896
 31
0.0
  0
LINE
  5
6EC8
330
1E
100
AcDbEntity
  8
躯体と製品
  6
Continuous
 62
     3
100
AcDbLine
 10
2175.811179523597
 20
1781.485992002897
 30
0.0
 11
2175.811179523597
 21
1412.424786102913
 31
0.0
  0
LINE
  5
6EC9
330
1E
100
AcDbEntity
  8
躯体と製品
  6
Continuous
 62
     3
100
AcDbLine
 10
2212.811039283633
 20
1781.485992002897
 30
0.0
 11
2212.811039283633
 21
1412.424786102913
 31
0.0
  0
LINE
  5
6ECA
330
1E
100
AcDbEntity
  8
躯体と製品
  6
Continuous
 62
     3
100
AcDbLine
 10
2111.811399803614
 20
1796.485939202898
 30
0.0
 11
2111.811399803614
 21
1786.485969402914
 31
0.0
  0
LINE
  5
6ECB
330
1E
100
AcDbEntity
  8
躯体と製品
  6
Continuous
 62
     3
100
AcDbLine
 10
2111.811399803614
 20
1796.485939202898
 30
0.0
 11
2161.811218803632
 21
1796.485939202898
 31
0.0
  0
LINE
  5
6ECC
330
1E
100
AcDbEntity
  8
躯体と製品
  6
Continuous
 62
     3
100
AcDbLine
 10
2161.811218803632
 20
1941.485418802932
 30
0.0
 11
2161.811218803632
 21
1796.485939202898
 31
0.0
  0
LINE
  5
6ECD
330
1E
100
AcDbEntity
  8
躯体と製品
  6
Continuous
 62
     3
100
AcDbLine
 10
2161.811218803632
 20
1941.485418802932
 30
0.0
 11
2226.811000003597
 21
1941.485418802932
 31
0.0
  0
LINE
  5
6ECE
330
1E
100
AcDbEntity
  8
躯体と製品
  6
Continuous
 62
     3
100
AcDbLine
 10
2226.811000003597
 20
1941.485418802932
 30
0.0
 11
2226.811000003597
 21
1796.485939202898
 31
0.0
  0
LINE
  5
6ECF
330
1E
100
AcDbEntity
  8
躯体と製品
  6
Continuous
 62
     3
100
AcDbLine
 10
2226.811000003597
 20
1796.485939202898
 30
0.0
 11
2276.810819003614
 21
1796.485939202898
 31
0.0
  0
LINE
  5
6ED0
330
1E
100
AcDbEntity
  8
躯体と製品
  6
Continuous
 62
     3
100
AcDbLine
 10
2171.811188603615
 20
1931.485464002896
 30
0.0
 11
2171.811188603615
 21
1781.485992002897
 31
0.0
  0
LINE
  5
6ED1
330
1E
100
AcDbEntity
  8
躯体と製品
  6
Continuous
 62
     3
100
AcDbLine
 10
2171.811188603615
 20
1931.485464002896
 30
0.0
 11
2216.811030203615
 21
1931.485464002896
 31
0.0
  0
LINE
  5
6ED2
330
1E
100
AcDbEntity
  8
躯体と製品
  6
Continuous
 62
     3
100
AcDbLine
 10
2216.811030203615
 20
1931.485464002896
 30
0.0
 11
2216.811030203615
 21
1781.485992002897
 31
0.0
  0
LINE
  5
6ED3
330
1E
100
AcDbEntity
  8
躯体と製品
  6
Continuous
 62
     3
100
AcDbLine
 10
2194.311109403615
 20
1987.241767740016
 30
0.0
 11
2194.311109403615
 21
737.485796896519
 31
0.0
  0
LINE
  5
6ED4
330
1E
100
AcDbEntity
  8
躯体と製品
  6
Continuous
 62
     3
100
AcDbLine
 10
1849.312323803615
 20
853.7377876880714
 30
0.0
 11
1849.312323803615
 21
736.1847314762858
 31
0.0
  0
LINE
  5
6ED5
330
1E
100
AcDbEntity
  8
躯体と製品
  6
Continuous
 62
     3
100
AcDbLine
 10
2119.311373403614
 20
1381.487395002914
 30
0.0
 11
2269.310845403615
 21
1381.487395002914
 31
0.0
  0
LINE
  5
6ED6
330
1E
100
AcDbEntity
  8
躯体と製品
  6
Continuous
 62
     3
100
AcDbLine
 10
2119.311373403614
 20
1373.487428162896
 30
0.0
 11
2269.310845403615
 21
1373.487428162896
 31
0.0
  0
LINE
  5
6ED7
330
1E
100
AcDbEntity
  8
躯体と製品
  6
Continuous
 62
     3
100
AcDbLine
 10
2144.311290403598
 20
1381.487395002914
 30
0.0
 11
2144.311290403598
 21
1373.487428162896
 31
0.0
  0
LINE
  5
6ED8
330
1E
100
AcDbEntity
  8
躯体と製品
  6
Continuous
 62
     3
100
AcDbLine
 10
2244.310928403632
 20
1381.487395002914
 30
0.0
 11
2244.310928403632
 21
1373.487428162896
 31
0.0
  0
LINE
  5
6ED9
330
1E
100
AcDbEntity
  8
躯体と製品
  6
Continuous
 62
     3
100
AcDbLine
 10
2134.311320603615
 20
1381.487395002914
 30
0.0
 11
2134.311320603615
 21
1373.487428162896
 31
0.0
  0
LINE
  5
6EDA
330
1E
100
AcDbEntity
  8
躯体と製品
  6
Continuous
 62
     3
100
AcDbLine
 10
2254.310898203614
 20
1381.487395002914
 30
0.0
 11
2254.310898203614
 21
1373.487428162896
 31
0.0
  0
ARC
  5
6EDB
330
1E
100
AcDbEntity
  8
躯体と製品
  6
Continuous
 62
     3
100
AcDbCircle
 10
2194.311109403615
 20
1364.612454402914
 30
0.0
 40
47.8123317
100
AcDbArc
 50
61.92751300000858
 51
118.0724869999914
  0
ARC
  5
6EDC
330
1E
100
AcDbEntity
  8
躯体と製品
  6
Continuous
 62
     3
100
AcDbCircle
 10
2161.967473253615
 20
1400.999041321677
 30
0.0
 40
11.4257447812368
100
AcDbArc
 50
30.51023699999545
 51
149.4897630000045
  0
LINE
  5
6EDD
330
1E
100
AcDbEntity
  8
躯体と製品
  6
Continuous
 62
     3
100
AcDbLine
 10
2161.967473253615
 20
1412.424786102913
 30
0.0
 11
2226.654745553615
 21
1412.424786102913
 31
0.0
  0
LINE
  5
6EDE
330
1E
100
AcDbEntity
  8
躯体と製品
  6
Continuous
 62
     3
100
AcDbLine
 10
2152.123757903614
 20
1406.799805902914
 30
0.0
 11
2152.123757903614
 21
1381.487395002914
 31
0.0
  0
LINE
  5
6EDF
330
1E
100
AcDbEntity
  8
躯体と製品
  6
Continuous
 62
     3
100
AcDbLine
 10
2236.498460903614
 20
1406.799805902914
 30
0.0
 11
2236.498460903614
 21
1381.487395002914
 31
0.0
  0
LINE
  5
6EE0
330
1E
100
AcDbEntity
  8
躯体と製品
  6
Continuous
 62
     3
100
AcDbLine
 10
2171.811188603615
 20
1406.799805902914
 30
0.0
 11
2171.811188603615
 21
1381.487395002914
 31
0.0
  0
LINE
  5
6EE1
330
1E
100
AcDbEntity
  8
躯体と製品
  6
Continuous
 62
     3
100
AcDbLine
 10
2216.811030203615
 20
1406.799805902914
 30
0.0
 11
2216.811030203615
 21
1381.487395002914
 31
0.0
  0
ARC
  5
6EE2
330
1E
100
AcDbEntity
  8
躯体と製品
  6
Continuous
 62
     3
100
AcDbCircle
 10
2226.654745553615
 20
1400.999041321677
 30
0.0
 40
11.4257447812368
100
AcDbArc
 50
30.51023699999545
 51
149.4897630000045
  0
ARC
  5
6EE3
330
1E
100
AcDbEntity
  8
躯体と製品
  6
Continuous
 62
     3
100
AcDbCircle
 10
2194.311109403615
 20
1390.362368762896
 30
0.0
 40
47.8123317
100
AcDbArc
 50
241.9275130000086
 51
298.0724869999914
  0
ARC
  5
6EE4
330
1E
100
AcDbEntity
  8
躯体と製品
  6
Continuous
 62
     3
100
AcDbCircle
 10
2161.967473253615
 20
1353.975766844186
 30
0.0
 40
11.4257447812368
100
AcDbArc
 50
210.5102369999954
 51
329.4897630000045
  0
LINE
  5
6EE5
330
1E
100
AcDbEntity
  8
躯体と製品
  6
Continuous
 62
     3
100
AcDbLine
 10
2161.967473253615
 20
1342.550037062896
 30
0.0
 11
2226.654745553615
 21
1342.550037062896
 31
0.0
  0
LINE
  5
6EE6
330
1E
100
AcDbEntity
  8
躯体と製品
  6
Continuous
 62
     3
100
AcDbLine
 10
2152.123757903614
 20
1348.175017262896
 30
0.0
 11
2152.123757903614
 21
1373.487428162896
 31
0.0
  0
LINE
  5
6EE7
330
1E
100
AcDbEntity
  8
躯体と製品
  6
Continuous
 62
     3
100
AcDbLine
 10
2236.498460903614
 20
1348.175017262896
 30
0.0
 11
2236.498460903614
 21
1373.487428162896
 31
0.0
  0
LINE
  5
6EE8
330
1E
100
AcDbEntity
  8
躯体と製品
  6
Continuous
 62
     3
100
AcDbLine
 10
2171.811188603615
 20
1348.175017262896
 30
0.0
 11
2171.811188603615
 21
1373.487428162896
 31
0.0
  0
LINE
  5
6EE9
330
1E
100
AcDbEntity
  8
躯体と製品
  6
Continuous
 62
     3
100
AcDbLine
 10
2216.811030203615
 20
1348.175017262896
 30
0.0
 11
2216.811030203615
 21
1373.487428162896
 31
0.0
  0
ARC
  5
6EEA
330
1E
100
AcDbEntity
  8
躯体と製品
  6
Continuous
 62
     3
100
AcDbCircle
 10
2226.654745553615
 20
1353.975766844186
 30
0.0
 40
11.4257447812368
100
AcDbArc
 50
210.5102369999954
 51
329.4897630000045
  0
LINE
  5
6EEB
330
1E
100
AcDbEntity
  8
躯体と製品
  6
Continuous
 62
     3
100
AcDbLine
 10
2171.811188603615
 20
1781.485992002897
 30
0.0
 11
2171.811188603615
 21
1412.424786102913
 31
0.0
  0
LINE
  5
6EEC
330
1E
100
AcDbEntity
  8
躯体と製品
  6
Continuous
 62
     3
100
AcDbLine
 10
2216.811030203615
 20
1781.485992002897
 30
0.0
 11
2216.811030203615
 21
1412.424786102913
 31
0.0
  0
LINE
  5
6EED
330
1E
100
AcDbEntity
  8
躯体と製品
  6
Continuous
 62
     3
100
AcDbLine
 10
1834.312376603615
 20
757.4895914829146
 30
0.0
 11
1842.237343707632
 21
763.9895636029322
 31
0.0
  0
LINE
  5
6EEE
330
1E
100
AcDbEntity
  8
躯体と製品
  6
Continuous
 62
     3
100
AcDbLine
 10
1856.387303899597
 20
763.9895636029322
 30
0.0
 11
1864.312271003614
 21
757.4895914829146
 31
0.0
  0
LINE
  5
6EEF
330
1E
100
AcDbEntity
  8
躯体と製品
  6
Continuous
 62
     3
100
AcDbLine
 10
1864.312271003614
 20
757.4895914829146
 30
0.0
 11
1864.312271003614
 21
756.4895900029323
 31
0.0
  0
LINE
  5
6EF0
330
1E
100
AcDbEntity
  8
躯体と製品
  6
Continuous
 62
     3
100
AcDbLine
 10
1834.312376603615
 20
757.4895914829146
 30
0.0
 11
1834.312376603615
 21
756.4895900029323
 31
0.0
  0
LINE
  5
6EF1
330
1E
100
AcDbEntity
  8
躯体と製品
  6
Continuous
 62
     3
100
AcDbLine
 10
1842.237343707632
 20
763.9895636029322
 30
0.0
 11
1856.387303899597
 21
763.9895636029322
 31
0.0
  0
ARC
  5
6EF2
330
1E
100
AcDbEntity
  8
躯体と製品
  6
Continuous
 62
     3
100
AcDbCircle
 10
1853.467024179018
 20
843.1066801097019
 30
0.0
 40
4.125540478046399
100
AcDbArc
 50
175.8529280000032
 51
336.9182639999989
  0
ARC
  5
6EF3
330
1E
100
AcDbEntity
  8
躯体と製品
  6
Continuous
 62
     3
100
AcDbCircle
 10
1829.118149887356
 20
841.6894400984046
 30
0.0
 40
20.30673352004641
100
AcDbArc
 50
307.0823680000042
 51
4.846355999996645
  0
LINE
  5
6EF4
330
1E
100
AcDbEntity
  8
躯体と製品
  6
Continuous
 62
     3
100
AcDbLine
 10
1842.237343707632
 20
788.9610107031292
 30
0.0
 11
1856.387303899597
 21
793.1142110838126
 31
0.0
  0
LINE
  5
6EF5
330
1E
100
AcDbEntity
  8
躯体と製品
  6
Continuous
 62
     3
100
AcDbLine
 10
1856.387303899597
 20
763.9895636029322
 30
0.0
 11
1856.387303899597
 21
769.1142955638119
 31
0.0
  0
LINE
  5
6EF6
330
1E
100
AcDbEntity
  8
躯体と製品
  6
Continuous
 62
     3
100
AcDbLine
 10
1856.387303899597
 20
772.364274123847
 30
0.0
 11
1856.387303899597
 21
777.1142624038295
 31
0.0
  0
LINE
  5
6EF7
330
1E
100
AcDbEntity
  8
躯体と製品
  6
Continuous
 62
     3
100
AcDbLine
 10
1856.387303899597
 20
780.3642559638121
 30
0.0
 11
1856.387303899597
 21
785.1142292438472
 31
0.0
  0
LINE
  5
6EF8
330
1E
100
AcDbEntity
  8
躯体と製品
  6
Continuous
 62
     3
100
AcDbLine
 10
1842.237343707632
 20
788.9610107031292
 30
0.0
 11
1842.237343707632
 21
784.2110224231466
 31
0.0
  0
LINE
  5
6EF9
330
1E
100
AcDbEntity
  8
躯体と製品
  6
Continuous
 62
     3
100
AcDbLine
 10
1842.237343707632
 20
763.9895636029322
 30
0.0
 11
1842.237328707685
 21
764.961095183129
 31
0.0
  0
LINE
  5
6EFA
330
1E
100
AcDbEntity
  8
躯体と製品
  6
Continuous
 62
     3
100
AcDbLine
 10
1842.237328707685
 20
768.211088743111
 30
0.0
 11
1842.237343707632
 21
772.9610620231465
 31
0.0
  0
LINE
  5
6EFB
330
1E
100
AcDbEntity
  8
躯体と製品
  6
Continuous
 62
     3
100
AcDbLine
 10
1842.237343707632
 20
776.2110555831289
 30
0.0
 11
1842.237343707632
 21
780.9610438631115
 31
0.0
  0
LINE
  5
6EFC
330
1E
100
AcDbEntity
  8
躯体と製品
  6
Continuous
 62
     3
100
AcDbLine
 10
1842.237343707632
 20
820.2031707303387
 30
0.0
 11
1842.237343707632
 21
816.2109197831114
 31
0.0
  0
ARC
  5
6EFD
330
1E
100
AcDbEntity
  8
躯体と製品
  6
Continuous
 62
     3
100
AcDbCircle
 10
1864.329985941258
 20
821.645415653619
 30
0.0
 40
8.045371680191999
100
AcDbArc
 50
151.4594140000025
 51
189.1639689999978
  0
ARC
  5
6EFE
330
1E
100
AcDbEntity
  8
躯体と製品
  6
Continuous
 62
     3
100
AcDbCircle
 10
1839.682387701109
 20
824.1001270130043
 30
0.0
 40
2.1799723264704
100
AcDbArc
 50
320.4113490000048
 51
39.58865099999523
  0
LINE
  5
6EFF
330
1E
100
AcDbEntity
  8
躯体と製品
  6
Continuous
 62
     3
100
AcDbLine
 10
1841.362351787615
 20
822.7108919031291
 30
0.0
 11
1851.812320003597
 21
822.7108919031291
 31
0.0
  0
LINE
  5
6F00
330
1E
100
AcDbEntity
  8
躯体と製品
  6
Continuous
 62
     3
100
AcDbLine
 10
1842.237343707632
 20
820.2031707303387
 30
0.0
 11
1851.812320003597
 21
822.7108919031291
 31
0.0
  0
LINE
  5
6F01
330
1E
100
AcDbEntity
  8
躯体と製品
  6
Continuous
 62
     3
100
AcDbLine
 10
1839.437363563597
 20
821.0779076512537
 30
0.0
 11
1851.812320003597
 21
822.7108919031291
 31
0.0
  0
LINE
  5
6F02
330
1E
100
AcDbEntity
  8
躯体と製品
  6
Continuous
 62
     3
100
AcDbLine
 10
1864.312271003614
 20
756.4895900029323
 30
0.0
 11
1834.312376603615
 21
756.4895900029323
 31
0.0
  0
LINE
  5
6F03
330
1E
100
AcDbEntity
  8
躯体と製品
  6
Continuous
 62
     3
100
AcDbLine
 10
1864.312271003614
 20
757.4895914829146
 30
0.0
 11
1834.312376603615
 21
757.4895914829146
 31
0.0
  0
LINE
  5
6F04
330
1E
100
AcDbEntity
  8
躯体と製品
  6
Continuous
 62
     3
100
AcDbLine
 10
1841.362351787615
 20
841.4892958029145
 30
0.0
 11
1849.312323803615
 21
846.4892732029323
 31
0.0
  0
LINE
  5
6F05
330
1E
100
AcDbEntity
  8
躯体と製品
  6
Continuous
 62
     3
100
AcDbLine
 10
1849.312323803615
 20
846.4892732029323
 30
0.0
 11
1857.262295819614
 21
841.4892958029145
 31
0.0
  0
LINE
  5
6F06
330
1E
100
AcDbEntity
  8
躯体と製品
  6
Continuous
 62
     3
100
AcDbLine
 10
1841.362351787615
 20
841.4892958029145
 30
0.0
 11
1841.362351787615
 21
825.4893471229324
 31
0.0
  0
LINE
  5
6F07
330
1E
100
AcDbEntity
  8
躯体と製品
  6
Continuous
 62
     3
100
AcDbLine
 10
1857.262295819614
 20
841.4892958029145
 30
0.0
 11
1857.262295819614
 21
825.4893471229324
 31
0.0
  0
LINE
  5
6F08
330
1E
100
AcDbEntity
  8
躯体と製品
  6
Continuous
 62
     3
100
AcDbLine
 10
1841.362351787615
 20
825.4893471229324
 30
0.0
 11
1857.262295819614
 21
825.4893471229324
 31
0.0
  0
LINE
  5
6F09
330
1E
100
AcDbEntity
  8
躯体と製品
  6
Continuous
 62
     3
100
AcDbLine
 10
1856.387303899597
 20
793.1142110838126
 30
0.0
 11
1856.387303899597
 21
788.3642228038294
 31
0.0
  0
LINE
  5
6F0A
330
1E
100
AcDbEntity
  8
躯体と製品
  6
Continuous
 62
     3
100
AcDbLine
 10
1842.237343707632
 20
796.9609775431467
 30
0.0
 11
1842.237343707632
 21
792.2110042631116
 31
0.0
  0
LINE
  5
6F0B
330
1E
100
AcDbEntity
  8
躯体と製品
  6
Continuous
 62
     3
100
AcDbLine
 10
1859.862281667632
 20
795.4894527229316
 30
0.0
 11
1856.387303899597
 21
793.1142110838126
 31
0.0
  0
LINE
  5
6F0C
330
1E
100
AcDbEntity
  8
躯体と製品
  6
Continuous
 62
     3
100
AcDbLine
 10
1859.862281667632
 20
795.4894527229316
 30
0.0
 11
1856.387303899597
 21
796.3641896438473
 31
0.0
  0
LINE
  5
6F0D
330
1E
100
AcDbEntity
  8
躯体と製品
  6
Continuous
 62
     3
100
AcDbLine
 10
1859.862281667632
 20
795.4894527229316
 30
0.0
 11
1839.437363563597
 21
789.8357476240442
 31
0.0
  0
LINE
  5
6F0E
330
1E
100
AcDbEntity
  8
躯体と製品
  6
Continuous
 62
     3
100
AcDbLine
 10
1842.237343707632
 20
788.9610107031292
 30
0.0
 11
1839.437363563597
 21
789.8357476240442
 31
0.0
  0
LINE
  5
6F0F
330
1E
100
AcDbEntity
  8
躯体と製品
  6
Continuous
 62
     3
100
AcDbLine
 10
1839.437363563597
 20
789.8357476240442
 30
0.0
 11
1842.237343707632
 21
792.2110042631116
 31
0.0
  0
LINE
  5
6F10
330
1E
100
AcDbEntity
  8
躯体と製品
  6
Continuous
 62
     3
100
AcDbLine
 10
1856.387303899597
 20
796.3641896438473
 30
0.0
 11
1842.237343707632
 21
792.2110042631116
 31
0.0
  0
LINE
  5
6F11
330
1E
100
AcDbEntity
  8
躯体と製品
  6
Continuous
 62
     3
100
AcDbLine
 10
1859.862281667632
 20
803.4894345628966
 30
0.0
 11
1856.387303899597
 21
801.11417792383
 31
0.0
  0
LINE
  5
6F12
330
1E
100
AcDbEntity
  8
躯体と製品
  6
Continuous
 62
     3
100
AcDbLine
 10
1859.862281667632
 20
803.4894345628966
 30
0.0
 11
1856.387303899597
 21
804.3641714838123
 31
0.0
  0
LINE
  5
6F13
330
1E
100
AcDbEntity
  8
躯体と製品
  6
Continuous
 62
     3
100
AcDbLine
 10
1859.862281667632
 20
803.4894345628966
 30
0.0
 11
1839.437363563597
 21
797.835714464062
 31
0.0
  0
LINE
  5
6F14
330
1E
100
AcDbEntity
  8
躯体と製品
  6
Continuous
 62
     3
100
AcDbLine
 10
1842.237343707632
 20
796.9609775431467
 30
0.0
 11
1839.437363563597
 21
797.835714464062
 31
0.0
  0
LINE
  5
6F15
330
1E
100
AcDbEntity
  8
躯体と製品
  6
Continuous
 62
     3
100
AcDbLine
 10
1839.437363563597
 20
797.835714464062
 30
0.0
 11
1842.237343707632
 21
800.2109711031287
 31
0.0
  0
LINE
  5
6F16
330
1E
100
AcDbEntity
  8
躯体と製品
  6
Continuous
 62
     3
100
AcDbLine
 10
1856.387303899597
 20
801.11417792383
 30
0.0
 11
1842.237343707632
 21
796.9609775431467
 31
0.0
  0
LINE
  5
6F17
330
1E
100
AcDbEntity
  8
躯体と製品
  6
Continuous
 62
     3
100
AcDbLine
 10
1856.387303899597
 20
804.3641714838123
 30
0.0
 11
1842.237343707632
 21
800.2109711031287
 31
0.0
  0
LINE
  5
6F18
330
1E
100
AcDbEntity
  8
躯体と製品
  6
Continuous
 62
     3
100
AcDbLine
 10
1856.387303899597
 20
796.3641896438473
 30
0.0
 11
1856.387303899597
 21
801.11417792383
 31
0.0
  0
LINE
  5
6F19
330
1E
100
AcDbEntity
  8
躯体と製品
  6
Continuous
 62
     3
100
AcDbLine
 10
1842.237343707632
 20
804.9609593831117
 30
0.0
 11
1842.237343707632
 21
800.2109711031287
 31
0.0
  0
LINE
  5
6F1A
330
1E
100
AcDbEntity
  8
躯体と製品
  6
Continuous
 62
     3
100
AcDbLine
 10
1859.862281667632
 20
811.4894014029143
 30
0.0
 11
1856.387303899597
 21
809.1141447638472
 31
0.0
  0
LINE
  5
6F1B
330
1E
100
AcDbEntity
  8
躯体と製品
  6
Continuous
 62
     3
100
AcDbLine
 10
1859.862281667632
 20
811.4894014029143
 30
0.0
 11
1856.387303899597
 21
812.36413832383
 31
0.0
  0
LINE
  5
6F1C
330
1E
100
AcDbEntity
  8
躯体と製品
  6
Continuous
 62
     3
100
AcDbLine
 10
1859.862281667632
 20
811.4894014029143
 30
0.0
 11
1839.437363563597
 21
805.8356963040266
 31
0.0
  0
LINE
  5
6F1D
330
1E
100
AcDbEntity
  8
躯体と製品
  6
Continuous
 62
     3
100
AcDbLine
 10
1842.237343707632
 20
804.9609593831117
 30
0.0
 11
1839.437363563597
 21
805.8356963040266
 31
0.0
  0
LINE
  5
6F1E
330
1E
100
AcDbEntity
  8
躯体と製品
  6
Continuous
 62
     3
100
AcDbLine
 10
1839.437363563597
 20
805.8356963040266
 30
0.0
 11
1842.237343707632
 21
808.2109379431468
 31
0.0
  0
LINE
  5
6F1F
330
1E
100
AcDbEntity
  8
躯体と製品
  6
Continuous
 62
     3
100
AcDbLine
 10
1856.387303899597
 20
809.1141447638472
 30
0.0
 11
1842.237343707632
 21
804.9609593831117
 31
0.0
  0
LINE
  5
6F20
330
1E
100
AcDbEntity
  8
躯体と製品
  6
Continuous
 62
     3
100
AcDbLine
 10
1856.387303899597
 20
812.36413832383
 30
0.0
 11
1842.237343707632
 21
808.2109379431468
 31
0.0
  0
LINE
  5
6F21
330
1E
100
AcDbEntity
  8
躯体と製品
  6
Continuous
 62
     3
100
AcDbLine
 10
1856.387303899597
 20
804.3641714838123
 30
0.0
 11
1856.387303899597
 21
809.1141447638472
 31
0.0
  0
LINE
  5
6F22
330
1E
100
AcDbEntity
  8
躯体と製品
  6
Continuous
 62
     3
100
AcDbLine
 10
1842.237343707632
 20
812.9609262231292
 30
0.0
 11
1842.237343707632
 21
808.2109379431468
 31
0.0
  0
LINE
  5
6F23
330
1E
100
AcDbEntity
  8
躯体と製品
  6
Continuous
 62
     3
100
AcDbLine
 10
1859.862281667632
 20
819.4893682429322
 30
0.0
 11
1856.387303899597
 21
817.1141266038121
 31
0.0
  0
LINE
  5
6F24
330
1E
100
AcDbEntity
  8
躯体と製品
  6
Continuous
 62
     3
100
AcDbLine
 10
1859.862281667632
 20
819.4893682429322
 30
0.0
 11
1856.387303899597
 21
820.3641051638479
 31
0.0
  0
LINE
  5
6F25
330
1E
100
AcDbEntity
  8
躯体と製品
  6
Continuous
 62
     3
100
AcDbLine
 10
1859.862281667632
 20
819.4893682429322
 30
0.0
 11
1839.437363563597
 21
813.8356631440441
 31
0.0
  0
LINE
  5
6F26
330
1E
100
AcDbEntity
  8
躯体と製品
  6
Continuous
 62
     3
100
AcDbLine
 10
1842.237343707632
 20
812.9609262231292
 30
0.0
 11
1839.437363563597
 21
813.8356631440441
 31
0.0
  0
LINE
  5
6F27
330
1E
100
AcDbEntity
  8
躯体と製品
  6
Continuous
 62
     3
100
AcDbLine
 10
1839.437363563597
 20
813.8356631440441
 30
0.0
 11
1842.237343707632
 21
816.2109197831114
 31
0.0
  0
LINE
  5
6F28
330
1E
100
AcDbEntity
  8
躯体と製品
  6
Continuous
 62
     3
100
AcDbLine
 10
1856.387303899597
 20
817.1141266038121
 30
0.0
 11
1842.237343707632
 21
812.9609262231292
 31
0.0
  0
LINE
  5
6F29
330
1E
100
AcDbEntity
  8
躯体と製品
  6
Continuous
 62
     3
100
AcDbLine
 10
1856.387303899597
 20
820.3641051638479
 30
0.0
 11
1842.237343707632
 21
816.2109197831114
 31
0.0
  0
LINE
  5
6F2A
330
1E
100
AcDbEntity
  8
躯体と製品
  6
Continuous
 62
     3
100
AcDbLine
 10
1856.387303899597
 20
812.36413832383
 30
0.0
 11
1856.387303899597
 21
817.1141266038121
 31
0.0
  0
LINE
  5
6F2B
330
1E
100
AcDbEntity
  8
躯体と製品
  6
Continuous
 62
     3
100
AcDbLine
 10
1842.237343707632
 20
820.2031707303387
 30
0.0
 11
1839.437363563597
 21
821.0779076512537
 31
0.0
  0
LINE
  5
6F2C
330
1E
100
AcDbEntity
  8
躯体と製品
  6
Continuous
 62
     3
100
AcDbLine
 10
1839.437363563597
 20
821.0779076512537
 30
0.0
 11
1841.362351787615
 21
822.7108919031291
 31
0.0
  0
LINE
  5
6F2D
330
1E
100
AcDbEntity
  8
躯体と製品
  6
Continuous
 62
     3
100
AcDbLine
 10
1842.237343707632
 20
780.9610438631115
 30
0.0
 11
1856.387303899597
 21
785.1142292438472
 31
0.0
  0
LINE
  5
6F2E
330
1E
100
AcDbEntity
  8
躯体と製品
  6
Continuous
 62
     3
100
AcDbLine
 10
1859.862281667632
 20
787.4894858829146
 30
0.0
 11
1856.387303899597
 21
785.1142292438472
 31
0.0
  0
LINE
  5
6F2F
330
1E
100
AcDbEntity
  8
躯体と製品
  6
Continuous
 62
     3
100
AcDbLine
 10
1859.862281667632
 20
787.4894858829146
 30
0.0
 11
1856.387303899597
 21
788.3642228038294
 31
0.0
  0
LINE
  5
6F30
330
1E
100
AcDbEntity
  8
躯体と製品
  6
Continuous
 62
     3
100
AcDbLine
 10
1859.862281667632
 20
787.4894858829146
 30
0.0
 11
1839.437363563597
 21
781.8357807840266
 31
0.0
  0
LINE
  5
6F31
330
1E
100
AcDbEntity
  8
躯体と製品
  6
Continuous
 62
     3
100
AcDbLine
 10
1842.237343707632
 20
780.9610438631115
 30
0.0
 11
1839.437363563597
 21
781.8357807840266
 31
0.0
  0
LINE
  5
6F32
330
1E
100
AcDbEntity
  8
躯体と製品
  6
Continuous
 62
     3
100
AcDbLine
 10
1839.437363563597
 20
781.8357807840266
 30
0.0
 11
1842.237343707632
 21
784.2110224231466
 31
0.0
  0
LINE
  5
6F33
330
1E
100
AcDbEntity
  8
躯体と製品
  6
Continuous
 62
     3
100
AcDbLine
 10
1856.387303899597
 20
788.3642228038294
 30
0.0
 11
1842.237343707632
 21
784.2110224231466
 31
0.0
  0
LINE
  5
6F34
330
1E
100
AcDbEntity
  8
躯体と製品
  6
Continuous
 62
     3
100
AcDbLine
 10
1842.237343707632
 20
772.9610620231465
 30
0.0
 11
1856.387303899597
 21
777.1142624038295
 31
0.0
  0
LINE
  5
6F35
330
1E
100
AcDbEntity
  8
躯体と製品
  6
Continuous
 62
     3
100
AcDbLine
 10
1859.862281667632
 20
779.4895190428972
 30
0.0
 11
1856.387303899597
 21
777.1142624038295
 31
0.0
  0
LINE
  5
6F36
330
1E
100
AcDbEntity
  8
躯体と製品
  6
Continuous
 62
     3
100
AcDbLine
 10
1859.862281667632
 20
779.4895190428972
 30
0.0
 11
1856.387303899597
 21
780.3642559638121
 31
0.0
  0
LINE
  5
6F37
330
1E
100
AcDbEntity
  8
躯体と製品
  6
Continuous
 62
     3
100
AcDbLine
 10
1859.862281667632
 20
779.4895190428972
 30
0.0
 11
1839.437363563597
 21
773.8357989440613
 31
0.0
  0
LINE
  5
6F38
330
1E
100
AcDbEntity
  8
躯体と製品
  6
Continuous
 62
     3
100
AcDbLine
 10
1842.237343707632
 20
772.9610620231465
 30
0.0
 11
1839.437363563597
 21
773.8357989440613
 31
0.0
  0
LINE
  5
6F39
330
1E
100
AcDbEntity
  8
躯体と製品
  6
Continuous
 62
     3
100
AcDbLine
 10
1839.437363563597
 20
773.8357989440613
 30
0.0
 11
1842.237343707632
 21
776.2110555831289
 31
0.0
  0
LINE
  5
6F3A
330
1E
100
AcDbEntity
  8
躯体と製品
  6
Continuous
 62
     3
100
AcDbLine
 10
1856.387303899597
 20
780.3642559638121
 30
0.0
 11
1842.237343707632
 21
776.2110555831289
 31
0.0
  0
LINE
  5
6F3B
330
1E
100
AcDbEntity
  8
躯体と製品
  6
Continuous
 62
     3
100
AcDbLine
 10
1842.237343707632
 20
764.961095183129
 30
0.0
 11
1856.387303899597
 21
769.1142955638119
 31
0.0
  0
LINE
  5
6F3C
330
1E
100
AcDbEntity
  8
躯体と製品
  6
Continuous
 62
     3
100
AcDbLine
 10
1859.862281667632
 20
771.4895372029322
 30
0.0
 11
1856.387303899597
 21
769.1142955638119
 31
0.0
  0
LINE
  5
6F3D
330
1E
100
AcDbEntity
  8
躯体と製品
  6
Continuous
 62
     3
100
AcDbLine
 10
1859.862281667632
 20
771.4895372029322
 30
0.0
 11
1856.387303899597
 21
772.364274123847
 31
0.0
  0
LINE
  5
6F3E
330
1E
100
AcDbEntity
  8
躯体と製品
  6
Continuous
 62
     3
100
AcDbLine
 10
1859.862281667632
 20
771.4895372029322
 30
0.0
 11
1839.437363563597
 21
765.8358321040443
 31
0.0
  0
LINE
  5
6F3F
330
1E
100
AcDbEntity
  8
躯体と製品
  6
Continuous
 62
     3
100
AcDbLine
 10
1842.237343707632
 20
764.961095183129
 30
0.0
 11
1839.437363563597
 21
765.8358321040443
 31
0.0
  0
LINE
  5
6F40
330
1E
100
AcDbEntity
  8
躯体と製品
  6
Continuous
 62
     3
100
AcDbLine
 10
1839.437363563597
 20
765.8358321040443
 30
0.0
 11
1842.237343707632
 21
768.211088743111
 31
0.0
  0
LINE
  5
6F41
330
1E
100
AcDbEntity
  8
躯体と製品
  6
Continuous
 62
     3
100
AcDbLine
 10
1856.387303899597
 20
772.364274123847
 30
0.0
 11
1842.237343707632
 21
768.211088743111
 31
0.0
  0
LINE
  5
6F42
330
1E
100
AcDbEntity
  8
躯体と製品
  6
Continuous
 62
     3
100
AcDbLine
 10
2276.810819003614
 20
1796.485939202898
 30
0.0
 11
2276.810819003614
 21
1786.485969402914
 31
0.0
  0
LINE
  5
6F43
330
1E
100
AcDbEntity
  8
躯体と製品
  6
Continuous
 62
     3
100
AcDbLine
 10
2194.311109403615
 20
1156.488187002915
 30
0.0
 11
2045.561628003632
 21
1156.488187002915
 31
0.0
  0
LINE
  5
6F44
330
1E
100
AcDbEntity
  8
躯体と製品
  6
Continuous
 62
     3
100
AcDbLine
 10
2194.311109403615
 20
1156.488187002915
 30
0.0
 11
2343.060590803597
 21
1156.488187002915
 31
0.0
  0
LINE
  5
6F45
330
1E
100
AcDbEntity
  8
躯体と製品
  6
Continuous
 62
     3
100
AcDbLine
 10
1894.312165403614
 20
758.9895862029142
 30
0.0
 11
1894.312165403614
 21
763.8476041624464
 31
0.0
  0
LINE
  5
6F46
330
1E
100
AcDbEntity
  8
躯体と製品
  6
Continuous
 62
     3
100
AcDbLine
 10
1794.312512403632
 20
756.4895900029323
 30
0.0
 11
1886.851273904183
 21
756.4895900029323
 31
0.0
  0
LINE
  5
6F47
330
1E
100
AcDbEntity
  8
躯体と製品
  6
Continuous
 62
     3
100
AcDbLine
 10
1894.312165403614
 20
756.4895900029323
 30
0.0
 11
1894.312165403614
 21
837.4893048829317
 31
0.0
  0
LINE
  5
6F48
330
1E
100
AcDbEntity
  8
躯体と製品
  6
Continuous
 62
     3
100
AcDbLine
 10
1886.851273904183
 20
756.4895900029323
 30
0.0
 11
1894.312165403614
 21
756.4895900029323
 31
0.0
  0
LINE
  5
6F49
330
1E
100
AcDbEntity
  8
躯体と製品
  6
Continuous
 62
     3
100
AcDbLine
 10
1886.812311803191
 20
1151.486019610605
 30
0.0
 11
1886.812311803191
 21
900.0271447489613
 31
0.0
  0
LINE
  5
6F4A
330
1E
100
AcDbEntity
  8
躯体と製品
  6
Continuous
 62
     3
100
AcDbLine
 10
2501.810027003614
 20
1148.986178410077
 30
0.0
 11
2501.810027003614
 21
1034.483681460286
 31
0.0
  0
LINE
  5
6F4B
330
1E
100
AcDbEntity
  8
躯体と製品
  6
Continuous
 62
     3
100
AcDbLine
 10
1886.812311803191
 20
862.9466652727078
 30
0.0
 11
1886.812311803191
 21
768.9893160037415
 31
0.0
  0
LINE
  5
6F4C
330
1E
100
AcDbEntity
  8
躯体と製品
  6
Continuous
 62
     3
100
AcDbLine
 10
2501.810027003614
 20
862.9096654029481
 30
0.0
 11
2501.810027003614
 21
768.9893160037415
 31
0.0
  0
LINE
  5
6F4D
330
1E
100
AcDbEntity
  8
躯体と製品
  6
Continuous
 62
     3
100
AcDbLine
 10
2494.310053403614
 20
756.4895900029323
 30
0.0
 11
2594.307851410125
 21
756.4895900029323
 31
0.0
  0
LINE
  5
6F4E
330
1E
100
AcDbEntity
  8
躯体と製品
  6
Continuous
 62
     3
100
AcDbLine
 10
2049.314249794356
 20
1181.48546401219
 30
0.0
 11
2009.315110591822
 21
1181.48546401219
 31
0.0
  0
LINE
  5
6F4F
330
1E
100
AcDbEntity
  8
躯体と製品
  6
Continuous
 62
     3
100
AcDbLine
 10
2339.307979012836
 20
1181.48546401219
 30
0.0
 11
2379.3071382153
 21
1181.48546401219
 31
0.0
  0
LINE
  5
6F50
330
1E
100
AcDbEntity
  8
躯体と製品
  6
Continuous
 62
     3
100
AcDbLine
 10
2269.309575408084
 20
1148.986228409901
 30
0.0
 11
2269.309575408084
 21
1096.487363206557
 31
0.0
  0
LINE
  5
6F51
330
1E
100
AcDbEntity
  8
躯体と製品
  6
Continuous
 62
     3
100
AcDbLine
 10
2271.809526608225
 20
1093.987422006382
 30
0.0
 11
2301.558791890443
 21
1093.987422006382
 31
0.0
  0
LINE
  5
6F52
330
1E
100
AcDbEntity
  8
躯体と製品
  6
Continuous
 62
     3
100
AcDbLine
 10
2276.909348656788
 20
1143.986336009584
 30
0.0
 11
2276.909348656788
 21
1101.48724560691
 31
0.0
  0
LINE
  5
6F53
330
1E
100
AcDbEntity
  8
躯体と製品
  6
Continuous
 62
     3
100
AcDbLine
 10
2361.807499814244
 20
1143.986336009584
 30
0.0
 11
2361.807499814244
 21
1101.48724560691
 31
0.0
  0
LINE
  5
6F54
330
1E
100
AcDbEntity
  8
躯体と製品
  6
Continuous
 62
     3
100
AcDbLine
 10
2281.909241057105
 20
1148.986228409901
 30
0.0
 11
2356.807607413927
 21
1148.986228409901
 31
0.0
  0
LINE
  5
6F55
330
1E
100
AcDbEntity
  8
躯体と製品
  6
Continuous
 62
     3
100
AcDbLine
 10
2337.058116932378
 20
1093.987422006382
 30
0.0
 11
2366.807332214772
 21
1093.987422006382
 31
0.0
  0
LINE
  5
6F56
330
1E
100
AcDbEntity
  8
躯体と製品
  6
Continuous
 62
     3
100
AcDbLine
 10
2369.307273414948
 20
1148.986228409901
 30
0.0
 11
2369.307273414948
 21
1096.487363206557
 31
0.0
  0
LINE
  5
6F57
330
1E
100
AcDbEntity
  8
躯体と製品
  6
Continuous
 62
     3
100
AcDbLine
 10
2335.558142212308
 20
1101.48724560691
 30
0.0
 11
2335.558142212308
 21
1095.487386726487
 31
0.0
  0
LINE
  5
6F58
330
1E
100
AcDbEntity
  8
躯体と製品
  6
Continuous
 62
     3
100
AcDbLine
 10
2335.558142212308
 20
1101.48724560691
 30
0.0
 11
2361.807499814244
 21
1101.48724560691
 31
0.0
  0
LINE
  5
6F59
330
1E
100
AcDbEntity
  8
躯体と製品
  6
Continuous
 62
     3
100
AcDbLine
 10
2276.909348656788
 20
1101.48724560691
 30
0.0
 11
2303.058756610548
 21
1101.48724560691
 31
0.0
  0
LINE
  5
6F5A
330
1E
100
AcDbEntity
  8
躯体と製品
  6
Continuous
 62
     3
100
AcDbLine
 10
2303.058756610548
 20
1101.48724560691
 30
0.0
 11
2303.058756610548
 21
1095.487386726487
 31
0.0
  0
LINE
  5
6F5B
330
1E
100
AcDbEntity
  8
躯体と製品
  6
Continuous
 62
     3
100
AcDbLine
 10
2520.31416186883
 20
885.953184289476
 30
0.0
 11
2522.814643067105
 21
885.953184289476
 31
0.0
  0
LINE
  5
6F5C
330
1E
100
AcDbEntity
  8
躯体と製品
  6
Continuous
 62
     3
100
AcDbLine
 10
2524.314947786014
 20
892.6348707698569
 30
0.0
 11
2524.314947786014
 21
887.4534890083848
 31
0.0
  0
LINE
  5
6F5D
330
1E
100
AcDbEntity
  8
躯体と製品
  6
Continuous
 62
     3
100
AcDbLine
 10
2520.31416186883
 20
876.9513459760585
 30
0.0
 11
2522.814643067105
 21
876.9513459760585
 31
0.0
  0
LINE
  5
6F5E
330
1E
100
AcDbEntity
  8
躯体と製品
  6
Continuous
 62
     3
100
AcDbLine
 10
2524.314947786014
 20
875.4510412571496
 30
0.0
 11
2524.314947786014
 21
870.2696194958187
 31
0.0
  0
LINE
  5
6F5F
330
1E
100
AcDbEntity
  8
躯体と製品
  6
Continuous
 62
     3
100
AcDbLine
 10
2501.810027003614
 20
1029.482649063981
 30
0.0
 11
2513.31243651499
 21
1029.482649063981
 31
0.0
  0
LINE
  5
6F60
330
1E
100
AcDbEntity
  8
躯体と製品
  6
Continuous
 62
     3
100
AcDbLine
 10
2501.810027003614
 20
1034.483681460286
 30
0.0
 11
2516.812954193124
 21
1034.483681460286
 31
0.0
  0
LINE
  5
6F61
330
1E
100
AcDbEntity
  8
躯体と製品
  6
Continuous
 62
     3
100
AcDbLine
 10
2501.810027003614
 20
1029.482649063981
 30
0.0
 11
2501.810027003614
 21
896.4553173218376
 31
0.0
  0
LINE
  5
6F62
330
1E
100
AcDbEntity
  8
躯体と製品
  6
Continuous
 62
     3
100
AcDbLine
 10
2513.31243651499
 20
1029.482649063981
 30
0.0
 11
2513.31243651499
 21
1018.47978779419
 31
0.0
  0
LINE
  5
6F63
330
1E
100
AcDbEntity
  8
躯体と製品
  6
Continuous
 62
     3
100
AcDbLine
 10
2501.810027003614
 20
896.4553173218376
 30
0.0
 11
2513.31243651499
 21
896.4553173218376
 31
0.0
  0
LINE
  5
6F64
330
1E
100
AcDbEntity
  8
躯体と製品
  6
Continuous
 62
     3
100
AcDbLine
 10
2513.31243651499
 20
907.4582185914888
 30
0.0
 11
2513.31243651499
 21
896.4553173218376
 31
0.0
  0
LINE
  5
6F65
330
1E
100
AcDbEntity
  8
躯体と製品
  6
Continuous
 62
     3
100
AcDbLine
 10
2519.313465391294
 20
1018.482687783982
 30
0.0
 11
2519.313465391294
 21
1031.983170262116
 31
0.0
  0
LINE
  5
6F66
330
1E
100
AcDbEntity
  8
躯体と製品
  6
Continuous
 62
     3
100
AcDbLine
 10
2519.312515394638
 20
907.4552786018372
 30
0.0
 11
2519.312515394638
 21
895.597850340132
 31
0.0
  0
ARC
  5
6F67
330
1E
100
AcDbEntity
  8
躯体と製品
  6
Continuous
 62
     3
100
AcDbCircle
 10
1891.812294203191
 20
1151.486019610605
 30
0.0
 40
4.999982399999999
100
AcDbArc
 50
90.0
 51
180.0
  0
ARC
  5
6F68
330
1E
100
AcDbEntity
  8
躯体と製品
  6
Continuous
 62
     3
100
AcDbCircle
 10
1881.812329403191
 20
900.0271447489613
 30
0.0
 40
4.999982399999999
100
AcDbArc
 50
247.9762200000068
 51
0.0
  0
ARC
  5
6F69
330
1E
100
AcDbEntity
  8
躯体と製品
  6
Continuous
 62
     3
100
AcDbCircle
 10
1881.812329403191
 20
862.9466652727078
 30
0.0
 40
4.999982399999999
100
AcDbArc
 50
0.0
 51
112.0237700000016
  0
ARC
  5
6F6A
330
1E
100
AcDbEntity
  8
躯体と製品
  6
Continuous
 62
     3
100
AcDbCircle
 10
2506.810009403614
 20
862.9096654029481
 30
0.0
 40
4.999982399999999
100
AcDbArc
 50
67.97012299999195
 51
180.0
  0
ARC
  5
6F6B
330
1E
100
AcDbEntity
  8
躯体と製品
  6
Continuous
 62
     3
100
AcDbCircle
 10
1874.312635802206
 20
881.4869300107464
 30
0.0
 40
7.499843600457599
100
AcDbArc
 50
216.8698999999956
 51
143.1300799999997
  0
ARC
  5
6F6C
330
1E
100
AcDbEntity
  8
躯体と製品
  6
Continuous
 62
     3
100
AcDbCircle
 10
1874.312635802206
 20
881.4869300107464
 30
0.0
 40
14.9996772009504
100
AcDbArc
 50
228.189690000008
 51
292.0237799999932
  0
ARC
  5
6F6D
330
1E
100
AcDbEntity
  8
躯体と製品
  6
Continuous
 62
     3
100
AcDbCircle
 10
2009.315110591822
 20
1166.485816811134
 30
0.0
 40
14.9996772009504
100
AcDbArc
 50
90.0
 51
131.810280000009
  0
ARC
  5
6F6E
330
1E
100
AcDbEntity
  8
躯体と製品
  6
Continuous
 62
     3
100
AcDbCircle
 10
2000.81524051147
 20
1172.485865690887
 30
0.0
 40
1.499964720105599
100
AcDbArc
 50
180.0
 51
270.0
  0
ARC
  5
6F6F
330
1E
100
AcDbEntity
  8
躯体と製品
  6
Continuous
 62
     3
100
AcDbCircle
 10
2000.81524051147
 20
1160.485967930676
 30
0.0
 40
1.499964720105599
100
AcDbArc
 50
90.0
 51
180.0
  0
ARC
  5
6F70
330
1E
100
AcDbEntity
  8
躯体と製品
  6
Continuous
 62
     3
100
AcDbCircle
 10
2387.806988295722
 20
1172.485865690887
 30
0.0
 40
1.499964720105599
100
AcDbArc
 50
270.0
 51
0.0
  0
ARC
  5
6F71
330
1E
100
AcDbEntity
  8
躯体と製品
  6
Continuous
 62
     3
100
AcDbCircle
 10
2387.806988295722
 20
1160.485967930676
 30
0.0
 40
1.499964720105599
100
AcDbArc
 50
0.0
 51
90.0
  0
ARC
  5
6F72
330
1E
100
AcDbEntity
  8
躯体と製品
  6
Continuous
 62
     3
100
AcDbCircle
 10
2379.3071382153
 20
1166.485816811134
 30
0.0
 40
14.9996772009504
100
AcDbArc
 50
48.18968199998526
 51
90.0
  0
ARC
  5
6F73
330
1E
100
AcDbEntity
  8
躯体と製品
  6
Continuous
 62
     3
100
AcDbCircle
 10
1909.311842604564
 20
1133.986551208951
 30
0.0
 40
14.9996772009504
100
AcDbArc
 50
90.0
 51
180.0
  0
ARC
  5
6F74
330
1E
100
AcDbEntity
  8
躯体と製品
  6
Continuous
 62
     3
100
AcDbCircle
 10
2479.310376202664
 20
1133.986551208951
 30
0.0
 40
14.9996772009504
100
AcDbArc
 50
0.0
 51
90.0
  0
ARC
  5
6F75
330
1E
100
AcDbEntity
  8
躯体と製品
  6
Continuous
 62
     3
100
AcDbCircle
 10
1881.812419402874
 20
768.9893160037415
 30
0.0
 40
4.999892400316801
100
AcDbArc
 50
270.0
 51
0.0
  0
ARC
  5
6F76
330
1E
100
AcDbEntity
  8
躯体と製品
  6
Continuous
 62
     3
100
AcDbCircle
 10
2506.809919403931
 20
768.9893160037415
 30
0.0
 40
4.999892400316801
100
AcDbArc
 50
180.0
 51
270.0
  0
ARC
  5
6F77
330
1E
100
AcDbEntity
  8
躯体と製品
  6
Continuous
 62
     3
100
AcDbCircle
 10
2031.914621041265
 20
1143.986336009584
 30
0.0
 40
4.999892400316801
100
AcDbArc
 50
90.0
 51
180.0
  0
ARC
  5
6F78
330
1E
100
AcDbEntity
  8
躯体と製品
  6
Continuous
 62
     3
100
AcDbCircle
 10
2021.814846592596
 20
1096.487363206557
 30
0.0
 40
2.4999512001408
100
AcDbArc
 50
180.0
 51
270.0
  0
ARC
  5
6F79
330
1E
100
AcDbEntity
  8
躯体と製品
  6
Continuous
 62
     3
100
AcDbCircle
 10
2051.564221874427
 20
1095.487386726487
 30
0.0
 40
1.499964720105599
100
AcDbArc
 50
270.0
 51
0.0
  0
ARC
  5
6F7A
330
1E
100
AcDbEntity
  8
躯体と製品
  6
Continuous
 62
     3
100
AcDbCircle
 10
2087.063446916714
 20
1095.487386726487
 30
0.0
 40
1.499964720105599
100
AcDbArc
 50
180.0
 51
270.0
  0
ARC
  5
6F7B
330
1E
100
AcDbEntity
  8
躯体と製品
  6
Continuous
 62
     3
100
AcDbCircle
 10
2106.812987398088
 20
1143.986336009584
 30
0.0
 40
4.999892400316801
100
AcDbArc
 50
0.0
 51
90.0
  0
ARC
  5
6F7C
330
1E
100
AcDbEntity
  8
躯体と製品
  6
Continuous
 62
     3
100
AcDbCircle
 10
2116.812762198756
 20
1096.487363206557
 30
0.0
 40
2.4999512001408
100
AcDbArc
 50
270.0
 51
0.0
  0
ARC
  5
6F7D
330
1E
100
AcDbEntity
  8
躯体と製品
  6
Continuous
 62
     3
100
AcDbCircle
 10
1865.812795721749
 20
887.486788891169
 30
0.0
 40
1.499964720105599
100
AcDbArc
 50
180.0
 51
270.0
  0
ARC
  5
6F7E
330
1E
100
AcDbEntity
  8
躯体と製品
  6
Continuous
 62
     3
100
AcDbCircle
 10
1865.812795721749
 20
875.487071130324
 30
0.0
 40
1.499964720105599
100
AcDbArc
 50
90.0
 51
180.0
  0
ARC
  5
6F7F
330
1E
100
AcDbEntity
  8
躯体と製品
  6
Continuous
 62
     3
100
AcDbCircle
 10
1874.312635802206
 20
881.4869300107464
 30
0.0
 40
14.9996772009504
100
AcDbArc
 50
67.97621099999894
 51
131.810280000009
  0
ARC
  5
6F80
330
1E
100
AcDbEntity
  8
躯体と製品
  6
Continuous
 62
     3
100
AcDbCircle
 10
2379.3071382153
 20
1166.485816811134
 30
0.0
 40
7.4999736
100
AcDbArc
 50
36.8702690000041
 51
323.130809999995
  0
ARC
  5
6F81
330
1E
100
AcDbEntity
  8
躯体と製品
  6
Continuous
 62
     3
100
AcDbCircle
 10
2009.315110591822
 20
1166.485816811134
 30
0.0
 40
7.4999736
100
AcDbArc
 50
216.8693599999986
 51
143.1295599999943
  0
ARC
  5
6F82
330
1E
100
AcDbEntity
  8
躯体と製品
  6
Continuous
 62
     3
100
AcDbCircle
 10
2281.909241057105
 20
1143.986336009584
 30
0.0
 40
4.999892400316801
100
AcDbArc
 50
90.0
 51
180.0
  0
ARC
  5
6F83
330
1E
100
AcDbEntity
  8
躯体と製品
  6
Continuous
 62
     3
100
AcDbCircle
 10
2271.809526608225
 20
1096.487363206557
 30
0.0
 40
2.4999512001408
100
AcDbArc
 50
180.0
 51
270.0
  0
ARC
  5
6F84
330
1E
100
AcDbEntity
  8
躯体と製品
  6
Continuous
 62
     3
100
AcDbCircle
 10
2301.558791890443
 20
1095.487386726487
 30
0.0
 40
1.499964720105599
100
AcDbArc
 50
270.0
 51
0.0
  0
ARC
  5
6F85
330
1E
100
AcDbEntity
  8
躯体と製品
  6
Continuous
 62
     3
100
AcDbCircle
 10
2337.058116932378
 20
1095.487386726487
 30
0.0
 40
1.499964720105599
100
AcDbArc
 50
180.0
 51
270.0
  0
ARC
  5
6F86
330
1E
100
AcDbEntity
  8
躯体と製品
  6
Continuous
 62
     3
100
AcDbCircle
 10
2356.807607413927
 20
1143.986336009584
 30
0.0
 40
4.999892400316801
100
AcDbArc
 50
0.0
 51
90.0
  0
ARC
  5
6F87
330
1E
100
AcDbEntity
  8
躯体と製品
  6
Continuous
 62
     3
100
AcDbCircle
 10
2366.807332214772
 20
1096.487363206557
 30
0.0
 40
2.4999512001408
100
AcDbArc
 50
270.0
 51
0.0
  0
ARC
  5
6F88
330
1E
100
AcDbEntity
  8
躯体と製品
  6
Continuous
 62
     3
100
AcDbCircle
 10
2514.31293299323
 20
881.4522901326794
 30
0.0
 40
7.501543594473601
100
AcDbArc
 50
36.86988800000744
 51
323.1301100000002
  0
ARC
  5
6F89
330
1E
100
AcDbEntity
  8
躯体と製品
  6
Continuous
 62
     3
100
AcDbCircle
 10
2514.31293299323
 20
881.4522901326794
 30
0.0
 40
15.0030771889824
100
AcDbArc
 50
247.9701299999919
 51
311.810309999992
  0
ARC
  5
6F8A
330
1E
100
AcDbEntity
  8
躯体と製品
  6
Continuous
 62
     3
100
AcDbCircle
 10
2522.814643067105
 20
887.4534890083848
 30
0.0
 40
1.5003047189088
100
AcDbArc
 50
270.0
 51
0.0
  0
ARC
  5
6F8B
330
1E
100
AcDbEntity
  8
躯体と製品
  6
Continuous
 62
     3
100
AcDbCircle
 10
2522.814643067105
 20
875.4510412571496
 30
0.0
 40
1.5003047189088
100
AcDbArc
 50
0.0
 51
90.0
  0
ARC
  5
6F8C
330
1E
100
AcDbEntity
  8
躯体と製品
  6
Continuous
 62
     3
100
AcDbCircle
 10
2514.31293299323
 20
881.4522901326794
 30
0.0
 40
15.0030771889824
100
AcDbArc
 50
48.18968199998526
 51
70.53495699999897
  0
ARC
  5
6F8D
330
1E
100
AcDbEntity
  8
躯体と製品
  6
Continuous
 62
     3
100
AcDbCircle
 10
2516.812954193124
 20
1031.983170262116
 30
0.0
 40
2.500511198169599
100
AcDbArc
 50
0.0
 51
90.0
  0
LINE
  5
6F8E
330
1E
100
AcDbEntity
  8
躯体と製品
  6
Continuous
 62
     3
100
AcDbLine
 10
2494.310053403614
 20
1133.986551208951
 30
0.0
 11
2494.310053403614
 21
756.4895900029323
 31
0.0
  0
LINE
  5
6F8F
330
1E
100
AcDbEntity
  8
躯体と製品
  6
Continuous
 62
     3
100
AcDbLine
 10
2594.307851410125
 20
781.4890620044809
 30
0.0
 11
2594.307851410125
 21
756.4895900029323
 31
0.0
  0
LINE
  5
6F90
330
1E
100
AcDbEntity
  8
躯体と製品
  6
Continuous
 62
     3
100
AcDbLine
 10
2587.808024289598
 20
781.4890620044809
 30
0.0
 11
2594.307851410125
 21
781.4890620044809
 31
0.0
  0
LINE
  5
6F91
330
1E
100
AcDbEntity
  8
躯体と製品
  6
Continuous
 62
     3
100
AcDbLine
 10
1800.814184517665
 20
763.9894236034248
 30
0.0
 11
1881.812419402874
 21
763.9894236034248
 31
0.0
  0
LINE
  5
6F92
330
1E
100
AcDbEntity
  8
躯体と製品
  6
Continuous
 62
     3
100
AcDbLine
 10
2506.809919403931
 20
763.9894236034248
 30
0.0
 11
2587.808024289598
 21
763.9894236034248
 31
0.0
  0
LINE
  5
6F93
330
1E
100
AcDbEntity
  8
躯体と製品
  6
Continuous
 62
     3
100
AcDbLine
 10
2587.808024289598
 20
781.4890620044809
 30
0.0
 11
2587.808024289598
 21
763.9895736028968
 31
0.0
  0
LINE
  5
6F94
330
1E
100
AcDbEntity
  8
躯体と製品
  6
Continuous
 62
     3
100
AcDbLine
 10
1894.312165403614
 20
1133.986551208951
 30
0.0
 11
1894.312165403614
 21
756.4895900029323
 31
0.0
  0
LINE
  5
6F95
330
1E
100
AcDbEntity
  8
躯体と製品
  6
Continuous
 62
     3
100
AcDbLine
 10
2522.809553085022
 20
1148.986178410077
 30
0.0
 11
2522.809553085022
 21
1143.486397769373
 31
0.0
  0
LINE
  5
6F96
330
1E
100
AcDbEntity
  8
躯体と製品
  6
Continuous
 62
     3
100
AcDbLine
 10
2501.810027003614
 20
1148.986178410077
 30
0.0
 11
2522.809553085022
 21
1148.986178410077
 31
0.0
  0
LINE
  5
6F97
330
1E
100
AcDbEntity
  8
躯体と製品
  6
Continuous
 62
     3
100
AcDbLine
 10
2529.309180206254
 20
1156.486002010606
 30
0.0
 11
2529.309180206254
 21
1146.986235449901
 31
0.0
  0
LINE
  5
6F98
330
1E
100
AcDbEntity
  8
躯体と製品
  6
Continuous
 62
     3
100
AcDbLine
 10
2522.809553085022
 20
1143.486397769373
 30
0.0
 11
2525.809442525373
 21
1143.486397769373
 31
0.0
  0
LINE
  5
6F99
330
1E
100
AcDbEntity
  8
躯体と製品
  6
Continuous
 62
     3
100
AcDbLine
 10
2529.309180206254
 20
1146.986235449901
 30
0.0
 11
2525.809442525373
 21
1143.486397769373
 31
0.0
  0
LINE
  5
6F9A
330
1E
100
AcDbEntity
  8
躯体と製品
  6
Continuous
 62
     3
100
AcDbLine
 10
2364.307441014421
 20
1172.485695691486
 30
0.0
 11
2364.307441014421
 21
1156.486002010606
 31
0.0
  0
LINE
  5
6F9B
330
1E
100
AcDbEntity
  8
躯体と製品
  6
Continuous
 62
     3
100
AcDbLine
 10
2000.81524051147
 20
1170.985900970781
 30
0.0
 11
2003.315221711505
 21
1170.985900970781
 31
0.0
  0
LINE
  5
6F9C
330
1E
100
AcDbEntity
  8
躯体と製品
  6
Continuous
 62
     3
100
AcDbLine
 10
2000.81524051147
 20
1161.985932650781
 30
0.0
 11
2003.315221711505
 21
1161.985932650781
 31
0.0
  0
LINE
  5
6F9D
330
1E
100
AcDbEntity
  8
躯体と製品
  6
Continuous
 62
     3
100
AcDbLine
 10
2024.314787792773
 20
1172.485695691486
 30
0.0
 11
2024.314787792773
 21
1156.486002010606
 31
0.0
  0
LINE
  5
6F9E
330
1E
100
AcDbEntity
  8
躯体と製品
  6
Continuous
 62
     3
100
AcDbLine
 10
1999.315275791364
 20
1160.485967930676
 30
0.0
 11
1999.315275791364
 21
1156.486002010606
 31
0.0
  0
LINE
  5
6F9F
330
1E
100
AcDbEntity
  8
躯体と製品
  6
Continuous
 62
     3
100
AcDbLine
 10
1891.812294203191
 20
1156.486002010606
 30
0.0
 11
1999.315275791364
 21
1156.486002010606
 31
0.0
  0
LINE
  5
6FA0
330
1E
100
AcDbEntity
  8
躯体と製品
  6
Continuous
 62
     3
100
AcDbLine
 10
2385.307117095301
 20
1170.985900970781
 30
0.0
 11
2387.806988295722
 21
1170.985900970781
 31
0.0
  0
LINE
  5
6FA1
330
1E
100
AcDbEntity
  8
躯体と製品
  6
Continuous
 62
     3
100
AcDbLine
 10
2385.307117095301
 20
1161.985932650781
 30
0.0
 11
2387.806988295722
 21
1161.985932650781
 31
0.0
  0
LINE
  5
6FA2
330
1E
100
AcDbEntity
  8
躯体と製品
  6
Continuous
 62
     3
100
AcDbLine
 10
2389.306953015828
 20
1156.486002010606
 30
0.0
 11
2529.309180206254
 21
1156.486002010606
 31
0.0
  0
LINE
  5
6FA3
330
1E
100
AcDbEntity
  8
躯体と製品
  6
Continuous
 62
     3
100
AcDbLine
 10
1999.315275791364
 20
1177.66597745683
 30
0.0
 11
1999.315275791364
 21
1172.485865690887
 31
0.0
  0
LINE
  5
6FA4
330
1E
100
AcDbEntity
  8
躯体と製品
  6
Continuous
 62
     3
100
AcDbLine
 10
2389.306953015828
 20
1160.485967930676
 30
0.0
 11
2389.306953015828
 21
1156.486002010606
 31
0.0
  0
LINE
  5
6FA5
330
1E
100
AcDbEntity
  8
躯体と製品
  6
Continuous
 62
     3
100
AcDbLine
 10
2389.306953015828
 20
1177.66597745683
 30
0.0
 11
2389.306953015828
 21
1172.485865690887
 31
0.0
  0
LINE
  5
6FA6
330
1E
100
AcDbEntity
  8
躯体と製品
  6
Continuous
 62
     3
100
AcDbLine
 10
1794.314347397171
 20
756.4895900029323
 30
0.0
 11
1894.312165403614
 21
756.4895900029323
 31
0.0
  0
LINE
  5
6FA7
330
1E
100
AcDbEntity
  8
躯体と製品
  6
Continuous
 62
     3
100
AcDbLine
 10
2019.314895392455
 20
1148.986228409901
 30
0.0
 11
2019.314895392455
 21
1096.487363206557
 31
0.0
  0
LINE
  5
6FA8
330
1E
100
AcDbEntity
  8
躯体と製品
  6
Continuous
 62
     3
100
AcDbLine
 10
2369.307273414948
 20
1148.986228409901
 30
0.0
 11
2479.310376202664
 21
1148.986228409901
 31
0.0
  0
LINE
  5
6FA9
330
1E
100
AcDbEntity
  8
躯体と製品
  6
Continuous
 62
     3
100
AcDbLine
 10
1909.311842604564
 20
1148.986228409901
 30
0.0
 11
2019.314895392455
 21
1148.986228409901
 31
0.0
  0
LINE
  5
6FAA
330
1E
100
AcDbEntity
  8
躯体と製品
  6
Continuous
 62
     3
100
AcDbLine
 10
2021.814846592596
 20
1093.987422006382
 30
0.0
 11
2051.564221874427
 21
1093.987422006382
 31
0.0
  0
LINE
  5
6FAB
330
1E
100
AcDbEntity
  8
躯体と製品
  6
Continuous
 62
     3
100
AcDbLine
 10
2026.914728640948
 20
1143.986336009584
 30
0.0
 11
2026.914728640948
 21
1101.48724560691
 31
0.0
  0
LINE
  5
6FAC
330
1E
100
AcDbEntity
  8
躯体と製品
  6
Continuous
 62
     3
100
AcDbLine
 10
2111.812879798404
 20
1143.986336009584
 30
0.0
 11
2111.812879798404
 21
1101.48724560691
 31
0.0
  0
LINE
  5
6FAD
330
1E
100
AcDbEntity
  8
躯体と製品
  6
Continuous
 62
     3
100
AcDbLine
 10
2031.914621041265
 20
1148.986228409901
 30
0.0
 11
2106.812987398088
 21
1148.986228409901
 31
0.0
  0
LINE
  5
6FAE
330
1E
100
AcDbEntity
  8
躯体と製品
  6
Continuous
 62
     3
100
AcDbLine
 10
2119.312703398932
 20
1148.986228409901
 30
0.0
 11
2269.309425408612
 21
1148.986228409901
 31
0.0
  0
LINE
  5
6FAF
330
1E
100
AcDbEntity
  8
躯体と製品
  6
Continuous
 62
     3
100
AcDbLine
 10
2087.063446916714
 20
1093.987422006382
 30
0.0
 11
2116.812762198756
 21
1093.987422006382
 31
0.0
  0
LINE
  5
6FB0
330
1E
100
AcDbEntity
  8
躯体と製品
  6
Continuous
 62
     3
100
AcDbLine
 10
2119.312703398932
 20
1148.986228409901
 30
0.0
 11
2119.312703398932
 21
1096.487363206557
 31
0.0
  0
LINE
  5
6FB1
330
1E
100
AcDbEntity
  8
躯体と製品
  6
Continuous
 62
     3
100
AcDbLine
 10
1865.812795721749
 20
885.9868141710988
 30
0.0
 11
1868.312706922029
 21
885.9868141710988
 31
0.0
  0
LINE
  5
6FB2
330
1E
100
AcDbEntity
  8
躯体と製品
  6
Continuous
 62
     3
100
AcDbLine
 10
1865.812795721749
 20
876.9870358504297
 30
0.0
 11
1868.312706922029
 21
876.9870358504297
 31
0.0
  0
LINE
  5
6FB3
330
1E
100
AcDbEntity
  8
躯体と製品
  6
Continuous
 62
     3
100
AcDbLine
 10
1864.312821001677
 20
875.487071130324
 30
0.0
 11
1864.312821001677
 21
870.3068793646636
 31
0.0
  0
LINE
  5
6FB4
330
1E
100
AcDbEntity
  8
躯体と製品
  6
Continuous
 62
     3
100
AcDbLine
 10
1864.312821001677
 20
892.6670206566891
 30
0.0
 11
1864.312821001677
 21
887.486788891169
 31
0.0
  0
LINE
  5
6FB5
330
1E
100
AcDbEntity
  8
躯体と製品
  6
Continuous
 62
     3
100
AcDbLine
 10
2085.563472196644
 20
1101.48724560691
 30
0.0
 11
2085.563472196644
 21
1095.487386726487
 31
0.0
  0
LINE
  5
6FB6
330
1E
100
AcDbEntity
  8
躯体と製品
  6
Continuous
 62
     3
100
AcDbLine
 10
2085.563472196644
 20
1101.48724560691
 30
0.0
 11
2111.812879798404
 21
1101.48724560691
 31
0.0
  0
LINE
  5
6FB7
330
1E
100
AcDbEntity
  8
躯体と製品
  6
Continuous
 62
     3
100
AcDbLine
 10
2026.914728640948
 20
1101.48724560691
 30
0.0
 11
2053.064186594532
 21
1101.48724560691
 31
0.0
  0
LINE
  5
6FB8
330
1E
100
AcDbEntity
  8
躯体と製品
  6
Continuous
 62
     3
100
AcDbLine
 10
2053.064186594532
 20
1101.48724560691
 30
0.0
 11
2053.064186594532
 21
1095.487386726487
 31
0.0
  0
ARC
  5
6FB9
330
1E
100
AcDbEntity
  8
躯体と製品
  6
Continuous
 62
     3
100
AcDbCircle
 10
2516.312475954814
 20
907.4552786018372
 30
0.0
 40
3.000039439824
100
AcDbArc
 50
0.0
 51
180.0
  0
ARC
  5
6FBA
330
1E
100
AcDbEntity
  8
躯体と製品
  6
Continuous
 62
     3
100
AcDbCircle
 10
2516.312955953124
 20
1018.482687783982
 30
0.0
 40
3.000509438169599
100
AcDbArc
 50
180.0
 51
0.0
  0
LINE
  5
6FBB
330
1E
100
AcDbEntity
  8
躯体と製品
  6
Continuous
 62
     3
100
AcDbLine
 10
2049.314249794356
 20
1181.48546401219
 30
0.0
 11
2049.314249794356
 21
1172.485695691486
 31
0.0
  0
LINE
  5
6FBC
330
1E
100
AcDbEntity
  8
躯体と製品
  6
Continuous
 62
     3
100
AcDbLine
 10
2024.314787792773
 20
1172.485695691486
 30
0.0
 11
2049.314249794356
 21
1172.485695691486
 31
0.0
  0
LINE
  5
6FBD
330
1E
100
AcDbEntity
  8
躯体と製品
  6
Continuous
 62
     3
100
AcDbLine
 10
2339.307979012836
 20
1172.485695691486
 30
0.0
 11
2364.307441014421
 21
1172.485695691486
 31
0.0
  0
LINE
  5
6FBE
330
1E
100
AcDbEntity
  8
躯体と製品
  6
Continuous
 62
     3
100
AcDbLine
 10
2339.307979012836
 20
1181.48546401219
 30
0.0
 11
2339.307979012836
 21
1172.485695691486
 31
0.0
  0
LINE
  5
6FBF
330
1E
100
AcDbEntity
  8
躯体と製品
  6
Continuous
 62
     3
100
AcDbLine
 10
2027.364812227071
 20
1167.985961530606
 30
0.0
 11
2027.364812227071
 21
1155.832130520202
 31
0.0
  0
LINE
  5
6FC0
330
1E
100
AcDbEntity
  8
躯体と製品
  6
Continuous
 62
     3
100
AcDbLine
 10
2032.562465151926
 20
1181.412960843428
 30
0.0
 11
2032.562465151926
 21
1192.985423532189
 31
0.0
  0
LINE
  5
6FC1
330
1E
100
AcDbEntity
  8
躯体と製品
  6
Continuous
 62
     3
100
AcDbLine
 10
2057.273199205654
 20
1192.985423532189
 30
0.0
 11
2032.562465151926
 21
1192.985423532189
 31
0.0
  0
LINE
  5
6FC2
330
1E
100
AcDbEntity
  8
躯体と製品
  6
Continuous
 62
     3
100
AcDbLine
 10
2054.19179433928
 20
1181.48546401219
 30
0.0
 11
2032.562465151926
 21
1181.48546401219
 31
0.0
  0
LINE
  5
6FC3
330
1E
100
AcDbEntity
  8
躯体と製品
  6
Continuous
 62
     3
100
AcDbLine
 10
2057.273199205654
 20
1192.985423532189
 30
0.0
 11
2100.573537554286
 21
1167.985961530606
 31
0.0
  0
LINE
  5
6FC4
330
1E
100
AcDbEntity
  8
躯体と製品
  6
Continuous
 62
     3
100
AcDbLine
 10
2054.19179433928
 20
1181.48546401219
 30
0.0
 11
2077.573618514285
 21
1167.985961530606
 31
0.0
  0
LINE
  5
6FC5
330
1E
100
AcDbEntity
  8
躯体と製品
  6
Continuous
 62
     3
100
AcDbLine
 10
2119.311373403614
 20
1381.487395002914
 30
0.0
 11
2119.311373403614
 21
1167.985961530606
 31
0.0
  0
LINE
  5
6FC6
330
1E
100
AcDbEntity
  8
躯体と製品
  6
Continuous
 62
     3
100
AcDbLine
 10
2269.310845403615
 20
1381.487395002914
 30
0.0
 11
2269.310845403615
 21
1167.985961530606
 31
0.0
  0
LINE
  5
6FC7
330
1E
100
AcDbEntity
  8
躯体と製品
  6
Continuous
 62
     3
100
AcDbLine
 10
2077.573618514285
 20
1167.985961530606
 30
0.0
 11
2027.364812227071
 21
1167.985961530606
 31
0.0
  0
LINE
  5
6FC8
330
1E
100
AcDbEntity
  8
躯体と製品
  6
Continuous
 62
     3
100
AcDbLine
 10
2339.307969012873
 20
1181.48546401219
 30
0.0
 11
2339.307969012873
 21
1172.485695691486
 31
0.0
  0
LINE
  5
6FC9
330
1E
100
AcDbEntity
  8
躯体と製品
  6
Continuous
 62
     3
100
AcDbLine
 10
2361.257406580158
 20
1167.985961530606
 30
0.0
 11
2361.257406580158
 21
1155.832130520202
 31
0.0
  0
LINE
  5
6FCA
330
1E
100
AcDbEntity
  8
躯体と製品
  6
Continuous
 62
     3
100
AcDbLine
 10
2356.059753655304
 20
1181.412960843428
 30
0.0
 11
2356.059753655304
 21
1192.985423532189
 31
0.0
  0
LINE
  5
6FCB
330
1E
100
AcDbEntity
  8
躯体と製品
  6
Continuous
 62
     3
100
AcDbLine
 10
2331.349019601576
 20
1192.985423532189
 30
0.0
 11
2356.059753655304
 21
1192.985423532189
 31
0.0
  0
LINE
  5
6FCC
330
1E
100
AcDbEntity
  8
躯体と製品
  6
Continuous
 62
     3
100
AcDbLine
 10
2334.43042446795
 20
1181.48546401219
 30
0.0
 11
2356.059753655304
 21
1181.48546401219
 31
0.0
  0
LINE
  5
6FCD
330
1E
100
AcDbEntity
  8
躯体と製品
  6
Continuous
 62
     3
100
AcDbLine
 10
2331.349019601576
 20
1192.985423532189
 30
0.0
 11
2288.048681252945
 21
1167.985961530606
 31
0.0
  0
LINE
  5
6FCE
330
1E
100
AcDbEntity
  8
躯体と製品
  6
Continuous
 62
     3
100
AcDbLine
 10
2334.43042446795
 20
1181.48546401219
 30
0.0
 11
2311.048600292944
 21
1167.985961530606
 31
0.0
  0
LINE
  5
6FCF
330
1E
100
AcDbEntity
  8
躯体と製品
  6
Continuous
 62
     3
100
AcDbLine
 10
2311.048600292944
 20
1167.985961530606
 30
0.0
 11
2361.257406580158
 21
1167.985961530606
 31
0.0
  0
LINE
  5
6FD0
330
1E
100
AcDbEntity
  8
躯体と製品
  6
Continuous
 62
     3
100
AcDbLine
 10
2100.573537554286
 20
1167.985961530606
 30
0.0
 11
2288.048681252945
 21
1167.985961530606
 31
0.0
  0
LINE
  5
6FD1
330
1E
100
AcDbEntity
  8
躯体と製品
  6
Continuous
 62
     3
100
AcDbLine
 10
1794.312512403632
 20
780.9896037625801
 30
0.0
 11
1794.312512403632
 21
756.4895900029323
 31
0.0
  0
LINE
  5
6FD2
330
1E
100
AcDbEntity
  8
躯体と製品
  6
Continuous
 62
     3
100
AcDbLine
 10
1794.312512403632
 20
780.9896037625801
 30
0.0
 11
1794.312512403632
 21
756.4895900029323
 31
0.0
  0
LINE
  5
6FD3
330
1E
100
AcDbEntity
  8
躯体と製品
  6
Continuous
 62
     3
100
AcDbLine
 10
2782.571802173887
 20
809.7140607109681
 30
0.0
 11
2511.93124796411
 21
809.7140607109681
 31
0.0
  0
LINE
  5
6FD4
330
1E
100
AcDbEntity
  8
躯体と製品
  6
Continuous
 62
     3
100
AcDbLine
 10
2782.571802173887
 20
800.3390937109681
 30
0.0
 11
2511.93124796411
 21
800.3390937109681
 31
0.0
  0
LINE
  5
6FD5
330
1E
100
AcDbEntity
  8
躯体と製品
  6
Continuous
 62
     3
100
AcDbLine
 10
2782.571802173887
 20
790.9641267109679
 30
0.0
 11
2511.93124796411
 21
790.9641267109679
 31
0.0
  0
LINE
  5
6FD6
330
1E
100
AcDbEntity
  8
躯体と製品
  6
Continuous
 62
     3
100
AcDbLine
 10
2782.571802173887
 20
819.0890277109682
 30
0.0
 11
2511.93124796411
 21
819.0890277109682
 31
0.0
  0
LINE
  5
6FD7
330
1E
100
AcDbEntity
  8
躯体と製品
  6
Continuous
 62
     3
100
AcDbLine
 10
2782.571802173887
 20
781.5891597109681
 30
0.0
 11
2511.93124796411
 21
781.5891597109681
 31
0.0
  0
LINE
  5
6FD8
330
1E
100
AcDbEntity
  8
躯体と製品
  6
Continuous
 62
     3
100
AcDbLine
 10
2511.93124796411
 20
819.0890277109682
 30
0.0
 11
2511.93124796411
 21
781.5891597109681
 31
0.0
  0
LINE
  5
6FD9
330
1E
100
AcDbEntity
  8
躯体と製品
  6
Continuous
 62
     3
100
AcDbLine
 10
1794.312512403632
 20
780.9896037625801
 30
0.0
 11
1800.814184517665
 21
780.9896037625801
 31
0.0
  0
LINE
  5
6FDA
330
1E
100
AcDbEntity
  8
躯体と製品
  6
Continuous
 62
     3
100
AcDbLine
 10
1800.814184517665
 20
780.9896037625801
 30
0.0
 11
1800.814184517665
 21
763.9894236034248
 31
0.0
  0
CIRCLE
  5
6FDB
330
1E
100
AcDbEntity
  8
躯体と製品
  6
Continuous
 62
     3
100
AcDbCircle
 10
1753.575886752259
 20
802.863001268396
 30
0.0
 40
0.8333345666519999
  0
LINE
  5
6FDC
330
1E
100
AcDbEntity
  8
躯体と製品
  6
Continuous
 62
     3
100
AcDbLine
 10
1880.025820669084
 20
780.9896037625801
 30
0.0
 11
1880.025820669084
 21
792.2395641625798
 31
0.0
  0
LINE
  5
6FDD
330
1E
100
AcDbEntity
  8
躯体と製品
  6
Continuous
 62
     3
100
AcDbLine
 10
1880.025820669084
 20
792.2395641625798
 30
0.0
 11
1766.276221069084
 21
792.2395641625798
 31
0.0
  0
LINE
  5
6FDE
330
1E
100
AcDbEntity
  8
躯体と製品
  6
Continuous
 62
     3
100
AcDbLine
 10
1766.276221069084
 20
792.2395641625798
 30
0.0
 11
1766.276221069084
 21
874.7392737625801
 31
0.0
  0
LINE
  5
6FDF
330
1E
100
AcDbEntity
  8
躯体と製品
  6
Continuous
 62
     3
100
AcDbLine
 10
1755.026260669084
 20
874.7392737625801
 30
0.0
 11
1766.276221069084
 21
874.7392737625801
 31
0.0
  0
LINE
  5
6FE0
330
1E
100
AcDbEntity
  8
躯体と製品
  6
Continuous
 62
     3
100
AcDbLine
 10
1755.026260669084
 20
780.9896037625801
 30
0.0
 11
1880.025820669084
 21
780.9896037625801
 31
0.0
  0
LINE
  5
6FE1
330
1E
100
AcDbEntity
  8
躯体と製品
  6
Continuous
 62
     3
100
AcDbLine
 10
1755.026260669084
 20
780.9896037625801
 30
0.0
 11
1755.026260669084
 21
874.7392737625801
 31
0.0
  0
LINE
  5
6FE2
330
1E
100
AcDbEntity
  8
図枠
  6
Continuous
 62
     3
100
AcDbLine
 10
1738.411815129979
 20
647.978105023536
 30
0.0
 11
1555.85525555827
 21
647.978105023536
 31
0.0
  0
LINE
  5
6FE3
330
1E
100
AcDbEntity
  8
図枠
  6
Continuous
 62
     3
100
AcDbLine
 10
2496.932854171323
 20
1354.385220402904
 30
0.0
 11
2655.104597368165
 21
1354.385220402904
 31
0.0
  0
TEXT
  5
6FE4
330
1E
100
AcDbEntity
  8
図枠
  6
Continuous
 62
     4
100
AcDbText
 10
2634.366150497205
 20
2551.659905095036
 30
0.0
 40
70.0
  1
カーテンボツクス基本納まり図
 41
1.132653061224489
  7
BIGFONT
 11
2634.366150497205
 21
2542.326571761702
 31
0.0
100
AcDbText
 73
     1
  0
ENDSEC
  0
SECTION
  2
OBJECTS
  0
DICTIONARY
  5
C
330
0
100
AcDbDictionary
281
     1
  3
ACAD_COLOR
350
6779
  3
ACAD_GROUP
350
D
  3
ACAD_LAYOUT
350
19
  3
ACAD_MATERIAL
350
6778
  3
ACAD_MLINESTYLE
350
16
  3
ACAD_PLOTSETTINGS
350
18
  3
ACAD_PLOTSTYLENAME
350
E
  3
ACAD_TABLESTYLE
350
677A
  3
ACAD_VISUALSTYLE
350
6FFA
  3
AcDbVariableDictionary
350
169
  3
DWGPROPS
350
704C
  0
DICTIONARY
  5
175
330
2
100
AcDbDictionary
280
     1
281
     1
  3
ACAD_LAYERFILTERS
360
6FE8
  3
ACAD_LAYERSTATES
360
176
  3
ACLYDICTIONARY
360
6FE7
  0
DICTIONARY
  5
28B
330
1E
100
AcDbDictionary
280
     1
281
     1
  3
ACAD_LAYOUTSELFREF
360
6771
  0
DICTIONARY
  5
28D
330
1A
100
AcDbDictionary
280
     1
281
     1
  3
ACAD_LAYOUTSELFREF
360
6770
  0
DICTIONARY
  5
6779
102
{ACAD_REACTORS
330
C
102
}
330
C
100
AcDbDictionary
281
     1
  0
DICTIONARY
  5
D
102
{ACAD_REACTORS
330
C
102
}
330
C
100
AcDbDictionary
281
     1
  0
DICTIONARY
  5
19
102
{ACAD_REACTORS
330
C
102
}
330
C
100
AcDbDictionary
281
     1
  3
Model
350
21
  3
ﾚｲｱｳﾄ1
350
1D
  0
DICTIONARY
  5
6778
102
{ACAD_REACTORS
330
C
102
}
330
C
100
AcDbDictionary
281
     1
  3
ByBlock
350
6FF8
  3
ByLayer
350
6FF7
  3
Global
350
6FF9
  0
DICTIONARY
  5
16
102
{ACAD_REACTORS
330
C
102
}
330
C
100
AcDbDictionary
281
     1
  3
Standard
350
17
  0
DICTIONARY
  5
18
102
{ACAD_REACTORS
330
C
102
}
330
C
100
AcDbDictionary
281
     1
  0
ACDBDICTIONARYWDFLT
  5
E
102
{ACAD_REACTORS
330
C
102
}
330
C
100
AcDbDictionary
281
     1
  3
Normal
350
F
100
AcDbDictionaryWithDefault
340
F
1001
ACAD
1000
TREAT_AS_HARD
1070
     0
1000
TREAT_AS_HARD
1070
     0
1000
TREAT_AS_HARD
1070
     0
1000
TREAT_AS_HARD
1070
     0
1000
TREAT_AS_HARD
1070
     0
1000
TREAT_AS_HARD
1070
     0
1000
TREAT_AS_HARD
1070
     0
1000
TREAT_AS_HARD
1070
     0
1000
TREAT_AS_HARD
1070
     0
1000
TREAT_AS_HARD
1070
     0
1000
TREAT_AS_HARD
1070
     0
1000
TREAT_AS_HARD
1070
     0
1000
TREAT_AS_HARD
1070
     0
1000
TREAT_AS_HARD
1070
     0
1000
TREAT_AS_HARD
1070
     0
1000
TREAT_AS_HARD
1070
     0
1000
TREAT_AS_HARD
1070
     0
1000
TREAT_AS_HARD
1070
     0
1000
TREAT_AS_HARD
1070
     0
1000
TREAT_AS_HARD
1070
     0
1000
TREAT_AS_HARD
1070
     0
1000
TREAT_AS_HARD
1070
     0
1000
TREAT_AS_HARD
1070
     0
1000
TREAT_AS_HARD
1070
     0
1000
TREAT_AS_HARD
1070
     0
1000
TREAT_AS_HARD
1070
     0
  0
DICTIONARY
  5
677A
102
{ACAD_REACTORS
330
C
102
}
330
C
100
AcDbDictionary
281
     1
  3
Standard
350
677B
  0
DICTIONARY
  5
6FFA
102
{ACAD_REACTORS
330
C
102
}
330
C
100
AcDbDictionary
281
     1
  3
2dWireframe
350
7000
  3
3D Hidden
350
7002
  3
3dWireframe
350
7001
  3
Basic
350
6FFF
  3
Brighten
350
7006
  3
ColorChange
350
700A
  3
Conceptual
350
7003
  3
Dim
350
7005
  3
Facepattern
350
7009
  3
Flat
350
6FFB
  3
FlatWithEdges
350
6FFC
  3
Gouraud
350
6FFD
  3
GouraudWithEdges
350
6FFE
  3
Linepattern
350
7008
  3
Realistic
350
7004
  3
Thicken
350
7007
  0
DICTIONARY
  5
169
102
{ACAD_REACTORS
330
C
102
}
330
C
100
AcDbDictionary
281
     1
  3
CTABLESTYLE
350
6782
  3
DIMASSOC
350
16A
  3
INDEXCTL
350
704B
  3
PROJECTNAME
350
6FE9
  3
SORTENTS
350
704A
  0
XRECORD
  5
704C
102
{ACAD_REACTORS
330
C
102
}
330
C
100
AcDbXrecord
280
     1
  1
DWGPROPS COOKIE
  2

  3

  4

  6

  7

  8
HON1000AV
  9

300
=
301
=
302
=
303
=
304
=
305
=
306
=
307
=
308
=
309
=
 40
0.2455982060185185
 41
2454316.693457674
 42
2454743.486742257
  1

 90
        0
  0
DICTIONARY
  5
6FE8
102
{ACAD_REACTORS
330
175
102
}
330
175
100
AcDbDictionary
281
     1
  0
DICTIONARY
  5
176
102
{ACAD_REACTORS
330
175
102
}
330
175
100
AcDbDictionary
281
     1
  3
ACAD
350
177
  0
DICTIONARY
  5
6FE7
102
{ACAD_REACTORS
330
175
102
}
330
175
100
AcDbDictionary
281
     1
1001
ACAD
1000
<All
  0
XRECORD
  5
6771
102
{ACAD_REACTORS
330
28B
102
}
330
28B
100
AcDbXrecord
280
     1
340
1E
  0
XRECORD
  5
6770
102
{ACAD_REACTORS
330
28D
102
}
330
28D
100
AcDbXrecord
280
     1
340
1A
  0
LAYOUT
  5
21
102
{ACAD_XDICTIONARY
360
704F
102
}
102
{ACAD_REACTORS
330
19
102
}
330
19
100
AcDbPlotSettings
  1

  2
\\MEISEI-1\EPSON Stylus Photo EX3
  4

  6

 40
0.0
 41
0.0
 42
0.0
 43
0.0
 44
0.0
 45
0.0
 46
0.0
 47
0.0
 48
0.0
 49
0.0
140
0.0
141
0.0
142
1.0
143
1.0
 70
  1712
 72
     0
 73
     0
 74
     0
  7

 75
     0
147
1.0
148
0.0
149
0.0
100
AcDbLayout
  1
Model
 70
     1
 71
     0
 10
0.0
 20
0.0
 11
12.0
 21
9.0
 12
0.0
 22
0.0
 32
0.0
 14
0.0
 24
0.0
 34
0.0
 15
0.0
 25
0.0
 35
0.0
146
0.0
 13
0.0
 23
0.0
 33
0.0
 16
1.0
 26
0.0
 36
0.0
 17
0.0
 27
1.0
 37
0.0
 76
     0
330
1E
331
6FF0
  0
LAYOUT
  5
1D
102
{ACAD_XDICTIONARY
360
704D
102
}
102
{ACAD_REACTORS
330
19
102
}
330
19
100
AcDbPlotSettings
  1

  2
\\MEISEI-1\EPSON Stylus Photo EX3
  4

  6

 40
0.0
 41
0.0
 42
0.0
 43
0.0
 44
0.0
 45
0.0
 46
0.0
 47
0.0
 48
0.0
 49
0.0
140
0.0
141
0.0
142
1.0
143
1.0
 70
   688
 72
     0
 73
     0
 74
     5
  7

 75
    16
147
1.0
148
0.0
149
0.0
100
AcDbLayout
  1
ﾚｲｱｳﾄ1
 70
     1
 71
     1
 10
0.0
 20
0.0
 11
12.0
 21
9.0
 12
0.0
 22
0.0
 32
0.0
 14
1.000000000000000E+20
 24
1.000000000000000E+20
 34
1.000000000000000E+20
 15
-1.000000000000000E+20
 25
-1.000000000000000E+20
 35
-1.000000000000000E+20
146
0.0
 13
0.0
 23
0.0
 33
0.0
 16
1.0
 26
0.0
 36
0.0
 17
0.0
 27
1.0
 37
0.0
 76
     0
330
1A
  0
MATERIAL
  5
6FF8
102
{ACAD_XDICTIONARY
360
7055
102
}
102
{ACAD_REACTORS
330
6778
102
}
330
6778
100
AcDbMaterial
  1
ByBlock
  0
MATERIAL
  5
6FF7
102
{ACAD_XDICTIONARY
360
7053
102
}
102
{ACAD_REACTORS
330
6778
102
}
330
6778
100
AcDbMaterial
  1
ByLayer
  0
MATERIAL
  5
6FF9
102
{ACAD_XDICTIONARY
360
7057
102
}
102
{ACAD_REACTORS
330
6778
102
}
330
6778
100
AcDbMaterial
  1
Global
  0
MLINESTYLE
  5
17
102
{ACAD_REACTORS
330
16
102
}
330
16
100
AcDbMlineStyle
  2
STANDARD
 70
     0
  3

 62
   256
 51
90.0
 52
90.0
 71
     2
 49
0.5
 62
   256
  6
BYLAYER
 49
-0.5
 62
   256
  6
BYLAYER
  0
ACDBPLACEHOLDER
  5
F
102
{ACAD_REACTORS
330
E
102
}
330
E
  0
TABLESTYLE
  5
677B
102
{ACAD_XDICTIONARY
360
7051
102
}
102
{ACAD_REACTORS
330
677A
102
}
330
677A
100
AcDbTableStyle
  3
Standard
 70
     0
 71
     0
 40
0.06
 41
0.06
280
     0
281
     0
  7
STANDARD
140
0.18
170
     2
 62
     0
 63
     7
283
     0
274
    -2
284
     1
 64
     0
275
    -2
285
     1
 65
     0
276
    -2
286
     1
 66
     0
277
    -2
287
     1
 67
     0
278
    -2
288
     1
 68
     0
279
    -2
289
     1
 69
     0
  7
STANDARD
140
0.25
170
     5
 62
     0
 63
     7
283
     0
274
    -2
284
     1
 64
     0
275
    -2
285
     1
 65
     0
276
    -2
286
     1
 66
     0
277
    -2
287
     1
 67
     0
278
    -2
288
     1
 68
     0
279
    -2
289
     1
 69
     0
  7
STANDARD
140
0.18
170
     5
 62
     0
 63
     7
283
     0
274
    -2
284
     1
 64
     0
275
    -2
285
     1
 65
     0
276
    -2
286
     1
 66
     0
277
    -2
287
     1
 67
     0
278
    -2
288
     1
 68
     0
279
    -2
289
     1
 69
     0
  0
VISUALSTYLE
  5
7000
102
{ACAD_REACTORS
330
6FFA
102
}
330
6FFA
100
AcDbVisualStyle
  2
2dWireframe
 70
     4
 71
     0
 72
     2
 73
     0
 90
        0
 40
-0.6
 41
-30.0
 62
     5
 63
     7
 74
     1
 91
        4
 64
     7
 65
   257
 75
     1
175
     1
 42
1.0
 92
        0
 66
   257
 43
1.0
 76
     1
 77
     6
 78
     2
 67
     7
 79
     5
170
     0
171
     0
290
     0
174
     0
 93
        1
 44
0.0
173
     0
291
     0
 45
0.0
1001
ACAD
1000
AcDbSavedByObjectVersion
1070
     0
  0
VISUALSTYLE
  5
7002
102
{ACAD_REACTORS
330
6FFA
102
}
330
6FFA
100
AcDbVisualStyle
  2
3D Hidden
 70
     6
 71
     1
 72
     2
 73
     2
 90
        0
 40
-0.6
 41
-30.0
 62
     5
 63
     7
 74
     2
 91
        2
 64
     7
 65
   257
 75
     2
175
     1
 42
40.0
 92
        0
 66
   257
 43
1.0
 76
     1
 77
     6
 78
     2
 67
     7
 79
     3
170
     0
171
     0
290
     0
174
     0
 93
        1
 44
0.0
173
     0
291
     0
 45
0.0
1001
ACAD
1000
AcDbSavedByObjectVersion
1070
     0
  0
VISUALSTYLE
  5
7001
102
{ACAD_REACTORS
330
6FFA
102
}
330
6FFA
100
AcDbVisualStyle
  2
3dWireframe
 70
     5
 71
     0
 72
     2
 73
     0
 90
        0
 40
-0.6
 41
-30.0
 62
     5
 63
     7
 74
     1
 91
        4
 64
     7
 65
   257
 75
     1
175
     1
 42
1.0
 92
        0
 66
   257
 43
1.0
 76
     1
 77
     6
 78
     2
 67
     7
 79
     5
170
     0
171
     0
290
     0
174
     0
 93
        1
 44
0.0
173
     0
291
     0
 45
0.0
1001
ACAD
1000
AcDbSavedByObjectVersion
1070
     0
  0
VISUALSTYLE
  5
6FFF
102
{ACAD_REACTORS
330
6FFA
102
}
330
6FFA
100
AcDbVisualStyle
  2
Basic
 70
     7
 71
     1
 72
     0
 73
     1
 90
        0
 40
-0.6
 41
-30.0
 62
     5
 63
     7
 74
     0
 91
        4
 64
     7
 65
   257
 75
     1
175
     1
 42
1.0
 92
        8
 66
     7
 43
1.0
 76
     1
 77
     6
 78
     2
 67
     7
 79
     5
170
     0
171
     0
290
     0
174
     0
 93
        1
 44
0.0
173
     0
291
     1
 45
0.0
1001
ACAD
1000
AcDbSavedByObjectVersion
1070
     0
  0
VISUALSTYLE
  5
7006
102
{ACAD_REACTORS
330
6FFA
102
}
330
6FFA
100
AcDbVisualStyle
  2
Brighten
 70
    12
 71
     2
 72
     2
 73
     0
 90
        0
 40
-0.6
 41
-30.0
 62
     5
 63
     7
 74
     1
 91
        4
 64
     7
 65
   257
 75
     1
175
     1
 42
1.0
 92
        8
 66
     7
 43
1.0
 76
     1
 77
     6
 78
     2
 67
     7
 79
     5
170
     0
171
     0
290
     0
174
     0
 93
        1
 44
50.0
173
     0
291
     1
 45
0.0
1001
ACAD
1000
AcDbSavedByObjectVersion
1070
     0
  0
VISUALSTYLE
  5
700A
102
{ACAD_REACTORS
330
6FFA
102
}
330
6FFA
100
AcDbVisualStyle
  2
ColorChange
 70
    16
 71
     2
 72
     2
 73
     3
 90
        0
 40
-0.6
 41
-30.0
 62
     5
 63
     8
 74
     1
 91
        4
 64
     7
 65
   257
 75
     1
175
     1
 42
1.0
 92
        8
 66
     8
 43
1.0
 76
     1
 77
     6
 78
     2
 67
     7
 79
     5
170
     0
171
     0
290
     0
174
     0
 93
        1
 44
0.0
173
     0
291
     1
 45
0.0
1001
ACAD
1000
AcDbSavedByObjectVersion
1070
     0
  0
VISUALSTYLE
  5
7003
102
{ACAD_REACTORS
330
6FFA
102
}
330
6FFA
100
AcDbVisualStyle
  2
Conceptual
 70
     9
 71
     3
 72
     2
 73
     0
 90
        0
 40
-0.6
 41
-30.0
 62
     5
 63
     7
 74
     2
 91
        2
 64
     7
 65
   257
 75
     1
175
     1
 42
40.0
 92
        8
 66
     7
 43
1.0
 76
     1
 77
     6
 78
     2
 67
     7
 79
     3
170
     0
171
     0
290
     0
174
     0
 93
        1
 44
0.0
173
     0
291
     0
 45
0.0
1001
ACAD
1000
AcDbSavedByObjectVersion
1070
     0
  0
VISUALSTYLE
  5
7005
102
{ACAD_REACTORS
330
6FFA
102
}
330
6FFA
100
AcDbVisualStyle
  2
Dim
 70
    11
 71
     2
 72
     2
 73
     0
 90
        0
 40
-0.6
 41
-30.0
 62
     5
 63
     7
 74
     1
 91
        4
 64
     7
 65
   257
 75
     1
175
     1
 42
1.0
 92
        8
 66
     7
 43
1.0
 76
     1
 77
     6
 78
     2
 67
     7
 79
     5
170
     0
171
     0
290
     0
174
     0
 93
        1
 44
-50.0
173
     0
291
     1
 45
0.0
1001
ACAD
1000
AcDbSavedByObjectVersion
1070
     0
  0
VISUALSTYLE
  5
7009
102
{ACAD_REACTORS
330
6FFA
102
}
330
6FFA
100
AcDbVisualStyle
  2
Facepattern
 70
    15
 71
     2
 72
     2
 73
     0
 90
        0
 40
-0.6
 41
-30.0
 62
     5
 63
     7
 74
     1
 91
        4
 64
     7
 65
   257
 75
     1
175
     1
 42
1.0
 92
        8
 66
     7
 43
1.0
 76
     1
 77
     6
 78
     2
 67
     7
 79
     5
170
     0
171
     0
290
     0
174
     0
 93
        1
 44
0.0
173
     0
291
     1
 45
0.0
1001
ACAD
1000
AcDbSavedByObjectVersion
1070
     0
  0
VISUALSTYLE
  5
6FFB
102
{ACAD_REACTORS
330
6FFA
102
}
330
6FFA
100
AcDbVisualStyle
  2
Flat
 70
     0
 71
     2
 72
     1
 73
     1
 90
        2
 40
-0.6
 41
30.0
 62
     5
 63
     7
 74
     0
 91
        4
 64
     7
 65
   257
 75
     1
175
     1
 42
1.0
 92
        8
 66
     7
 43
1.0
 76
     1
 77
     6
 78
     2
 67
     7
 79
     5
170
     0
171
     0
290
     0
174
     0
 93
       13
 44
0.0
173
     0
291
     1
 45
0.0
1001
ACAD
1000
AcDbSavedByObjectVersion
1070
     0
  0
VISUALSTYLE
  5
6FFC
102
{ACAD_REACTORS
330
6FFA
102
}
330
6FFA
100
AcDbVisualStyle
  2
FlatWithEdges
 70
     1
 71
     2
 72
     1
 73
     1
 90
        2
 40
-0.6
 41
30.0
 62
     5
 63
     7
 74
     1
 91
        4
 64
     7
 65
   257
 75
     1
175
     1
 42
1.0
 92
        0
 66
   257
 43
1.0
 76
     1
 77
     6
 78
     2
 67
     7
 79
     5
170
     0
171
     0
290
     0
174
     0
 93
       13
 44
0.0
173
     0
291
     1
 45
0.0
1001
ACAD
1000
AcDbSavedByObjectVersion
1070
     0
  0
VISUALSTYLE
  5
6FFD
102
{ACAD_REACTORS
330
6FFA
102
}
330
6FFA
100
AcDbVisualStyle
  2
Gouraud
 70
     2
 71
     2
 72
     2
 73
     1
 90
        2
 40
-0.6
 41
30.0
 62
     5
 63
     7
 74
     0
 91
        4
 64
     7
 65
   257
 75
     1
175
     1
 42
1.0
 92
        0
 66
     7
 43
1.0
 76
     1
 77
     6
 78
     2
 67
     7
 79
     5
170
     0
171
     0
290
     0
174
     0
 93
       13
 44
0.0
173
     0
291
     1
 45
0.0
1001
ACAD
1000
AcDbSavedByObjectVersion
1070
     0
  0
VISUALSTYLE
  5
6FFE
102
{ACAD_REACTORS
330
6FFA
102
}
330
6FFA
100
AcDbVisualStyle
  2
GouraudWithEdges
 70
     3
 71
     2
 72
     2
 73
     1
 90
        2
 40
-0.6
 41
30.0
 62
     5
 63
     7
 74
     1
 91
        4
 64
     7
 65
   257
 75
     1
175
     1
 42
1.0
 92
        0
 66
   257
 43
1.0
 76
     1
 77
     6
 78
     2
 67
     7
 79
     5
170
     0
171
     0
290
     0
174
     0
 93
       13
 44
0.0
173
     0
291
     1
 45
0.0
1001
ACAD
1000
AcDbSavedByObjectVersion
1070
     0
  0
VISUALSTYLE
  5
7008
102
{ACAD_REACTORS
330
6FFA
102
}
330
6FFA
100
AcDbVisualStyle
  2
Linepattern
 70
    14
 71
     2
 72
     2
 73
     0
 90
        0
 40
-0.6
 41
-30.0
 62
     5
 63
     7
 74
     1
 91
        4
 64
     7
 65
   257
 75
     7
175
     7
 42
1.0
 92
        8
 66
     7
 43
1.0
 76
     1
 77
     6
 78
     2
 67
     7
 79
     5
170
     0
171
     0
290
     0
174
     0
 93
        1
 44
0.0
173
     0
291
     1
 45
0.0
1001
ACAD
1000
AcDbSavedByObjectVersion
1070
     0
  0
VISUALSTYLE
  5
7004
102
{ACAD_REACTORS
330
6FFA
102
}
330
6FFA
100
AcDbVisualStyle
  2
Realistic
 70
     8
 71
     2
 72
     2
 73
     0
 90
        0
 40
-0.6
 41
-30.0
 62
     5
 63
     7
 74
     1
 91
        0
 64
     7
 65
   257
 75
     1
175
     1
 42
1.0
 92
        8
 66
     8
 43
1.0
 76
     1
 77
     6
 78
     2
 67
     7
 79
     5
170
     0
171
     0
290
     0
174
     0
 93
       13
 44
0.0
173
     0
291
     0
 45
0.0
1001
ACAD
1000
AcDbSavedByObjectVersion
1070
     0
  0
VISUALSTYLE
  5
7007
102
{ACAD_REACTORS
330
6FFA
102
}
330
6FFA
100
AcDbVisualStyle
  2
Thicken
 70
    13
 71
     2
 72
     2
 73
     0
 90
        0
 40
-0.6
 41
-30.0
 62
     5
 63
     7
 74
     1
 91
        4
 64
     7
 65
   257
 75
     1
175
     1
 42
1.0
 92
       12
 66
     7
 43
1.0
 76
     1
 77
     6
 78
     2
 67
     7
 79
     5
170
     0
171
     0
290
     0
174
     0
 93
        1
 44
0.0
173
     0
291
     1
 45
0.0
1001
ACAD
1000
AcDbSavedByObjectVersion
1070
     0
  0
DICTIONARYVAR
  5
6782
102
{ACAD_REACTORS
330
169
102
}
330
169
100
DictionaryVariables
280
     0
  1
STANDARD
  0
DICTIONARYVAR
  5
16A
102
{ACAD_REACTORS
330
169
102
}
330
169
100
DictionaryVariables
280
     0
  1
1
  0
DICTIONARYVAR
  5
704B
102
{ACAD_REACTORS
330
169
102
}
330
169
100
DictionaryVariables
280
     0
  1
0
  0
DICTIONARYVAR
  5
6FE9
102
{ACAD_REACTORS
330
169
102
}
330
169
100
DictionaryVariables
280
     0
  1

  0
DICTIONARYVAR
  5
704A
102
{ACAD_REACTORS
330
169
102
}
330
169
100
DictionaryVariables
280
     0
  1
127
  0
XRECORD
  5
177
102
{ACAD_REACTORS
330
176
102
}
330
176
100
AcDbXrecord
280
     1
 91
      476
330
179
 90
        8
 62
     7
370
    -3
331
15
  1
Color_7
330
0
 90
        8
 62
     7
370
    -3
331
15
  1
Color_7
330
128
 90
        0
 62
     7
370
    -3
331
15
  1
Color_7
330
10
 90
        8
 62
     7
370
    -3
331
15
  1
Color_7
  0
DICTIONARY
  5
704F
330
21
100
AcDbDictionary
280
     1
281
     1
  3
ACAD_XREC_ROUNDTRIP
360
7050
  0
DICTIONARY
  5
704D
330
1D
100
AcDbDictionary
280
     1
281
     1
  3
ACAD_XREC_ROUNDTRIP
360
704E
  0
DICTIONARY
  5
7055
330
6FF8
100
AcDbDictionary
280
     1
281
     1
  3
ACAD_XREC_ROUNDTRIP
360
7056
  0
DICTIONARY
  5
7053
330
6FF7
100
AcDbDictionary
280
     1
281
     1
  3
ACAD_XREC_ROUNDTRIP
360
7054
  0
DICTIONARY
  5
7057
330
6FF9
100
AcDbDictionary
280
     1
281
     1
  3
ACAD_XREC_ROUNDTRIP
360
7058
  0
DICTIONARY
  5
7051
330
677B
100
AcDbDictionary
280
     1
281
     1
  3
ACAD_XREC_ROUNDTRIP
360
7052
  0
XRECORD
  5
7050
102
{ACAD_REACTORS
330
704F
102
}
330
704F
100
AcDbXrecord
280
     1
102
SHADEPLOT
 70
     0
102
SHADEPLOTRESLEVEL
 70
     2
102
SHADEPLOTCUSTOMDPI
 70
   300
  0
XRECORD
  5
704E
102
{ACAD_REACTORS
330
704D
102
}
330
704D
100
AcDbXrecord
280
     1
102
SHADEPLOT
 70
     0
102
SHADEPLOTRESLEVEL
 70
     2
102
SHADEPLOTCUSTOMDPI
 70
   300
  0
XRECORD
  5
7056
102
{ACAD_REACTORS
330
7055
102
}
330
7055
100
AcDbXrecord
280
     1
102
MATERIAL
148
0.0
149
0.0
149
0.0
 93
        0
 94
       63
282
     0
 72
     1
 77
     1
171
     1
175
     1
179
     1
273
     0
  0
XRECORD
  5
7054
102
{ACAD_REACTORS
330
7053
102
}
330
7053
100
AcDbXrecord
280
     1
102
MATERIAL
148
0.0
149
0.0
149
0.0
 93
        0
 94
       63
282
     0
 72
     1
 77
     1
171
     1
175
     1
179
     1
273
     0
  0
XRECORD
  5
7058
102
{ACAD_REACTORS
330
7057
102
}
330
7057
100
AcDbXrecord
280
     1
102
MATERIAL
148
0.0
149
0.0
149
0.0
 93
        0
 94
       63
282
     0
 72
     1
 77
     1
171
     1
175
     1
179
     1
273
     0
  0
XRECORD
  5
7052
102
{ACAD_REACTORS
330
7051
102
}
330
7051
100
AcDbXrecord
280
     1
102
ACAD_ROUNDTRIP_PRE2007_TABLESTYLE
 90
        4
 91
        0
  1

 92
        4
 93
        0
  2

 94
        4
 95
        0
  3

  0
ENDSEC
  0
EOF
