  0
SECTION
  2
HEADER
  9
$ACADVER
  1
AC1009
  9
$INSBASE
 10
0
 20
0
 30
0
  9
$EXTMIN
 10
0
 20
0
  9
$EXTMAX
 10
420
 20
297
  9
$LIMMIN
 10
0
 20
0
  9
$LIMMAX
 10
420
 20
297
  9
$LTSCALE
 40
1
  0
ENDSEC
  0
SECTION
  2
TABLES
  0
TABLE
  2
LTYPE
 70
     9
  0
LTYPE
  2
CONTINUOUS
 70
    64
  3
実線
 72
    65
 73
     0
 40
0.0
  0
LTYPE
  2
DASHED1
 70
    64
  3
--  --  --  --  --  --  --  --  
 72
    65
 73
     2
 40
2.5
 49
1.25
 49
-1.25
  0
LTYPE
  2
DASHED2
 70
    64
  3
----    ----    ----    ----    
 72
    65
 73
     2
 40
5.0
 49
2.5
 49
-2.5
  0
LTYPE
  2
DASHED3
 70
    64
  3
------  ------  ------  ------  
 72
    65
 73
     2
 40
5.0
 49
3.75
 49
-1.25
  0
LTYPE
  2
CENTER1
 70
    64
  3
----- - ----- - ----- - ----- - 
 72
    65
 73
     4
 40
10.0
 49
6.25
 49
-1.25
 49
1.25
 49
-1.25
  0
LTYPE
  2
CENTER2
 70
    64
  3
----------  --  ----------  --  
 72
    65
 73
     4
 40
20.0
 49
12.5
 49
-2.5
 49
2.5
 49
-2.5
  0
LTYPE
  2
PHANTOM1
 70
    64
  3
--- - - --- - - --- - - --- - - 
 72
    65
 73
     6
 40
10.0
 49
3.25
 49
-1.25
 49
1.25
 49
-1.25
 49
1.25
 49
-1.25
  0
LTYPE
  2
PHANTOM2
 70
    64
  3
--------  -  -  --------  -  -  
 72
    65
 73
     6
 40
20.0
 49
10.0
 49
-2.5
 49
1.25
 49
-2.5
 49
1.25
 49
-2.5
  0
LTYPE
  2
DOT
 70
    64
  3
-   -   -   -   -   -   -   -   
 72
    65
 73
     2
 40
2.5
 49
0.625
 49
-1.875
  0
LTYPE
  2
DUMMY
 70
    64
  3
ダミー
 72
    65
 73
     0
 40
0.0
  0
LTYPE
  2
RAND1
 70
    64
  3
ランダム線1
 72
    65
 73
     4
 40
10.0
 49
1.0
 49
-2.0
 49
3.0
 49
-4.0
  0
LTYPE
  2
RAND2
 70
    64
  3
ランダム線2
 72
    65
 73
     4
 40
14.0
 49
2.0
 49
-3.0
 49
4.0
 49
-5.0
  0
LTYPE
  2
RAND3
 70
    64
  3
ランダム線3
 72
    65
 73
     4
 40
18.0
 49
3.0
 49
-4.0
 49
5.0
 49
-6.0
  0
LTYPE
  2
RAND4
 70
    64
  3
ランダム線4
 72
    65
 73
     4
 40
22.0
 49
4.0
 49
-5.0
 49
6.0
 49
-7.0
  0
LTYPE
  2
RAND5
 70
    64
  3
ランダム線5
 72
    65
 73
     4
 40
26.0
 49
5.0
 49
-6.0
 49
7.0
 49
-8.0
  0
LTYPE
  2
LONG1
 70
    64
  3
----------  --  ----------  --  
 72
    65
 73
     4
 40
40.0
 49
32.5
 49
-2.5
 49
2.5
 49
-2.5
  0
LTYPE
  2
LONG2
 70
    64
  3
--------  -  -  --------  -  -  
 72
    65
 73
     6
 40
40.0
 49
30.0
 49
-2.5
 49
1.25
 49
-2.5
 49
1.25
 49
-2.5
  0
LTYPE
  2
LONG3
 70
    64
  3
+++++++++++++++..+++++++++++++++
 72
    65
 73
     2
 40
40.0
 49
37.5
 49
-2.5
  0
LTYPE
  2
LONG4
 70
    64
  3
+++++++++++++++..+++++++++++++++
 72
    65
 73
     2
 40
80.0
 49
75.0
 49
-5.0
  0
LTYPE
  2
LONG5
 70
    64
  3
----------  --  ----------  --  
 72
    65
 73
     4
 40
60.0
 49
37.5
 49
-7.5
 49
7.5
 49
-7.5
  0
LTYPE
  2
dashed
 70
   64
  3
-------   -------------   ------
 72
   65
 73
    2
 40
7.5
 49
6
 49
-1.5
  0
LTYPE
  2
dashed_spaced
 70
   64
  3
----        --------        ----
 72
   65
 73
    2
 40
12
 49
6
 49
-6
  0
LTYPE
  2
long_dashed_dotted
 70
   64
  3
------------- --- --------------
 72
   65
 73
    4
 40
15.25
 49
12
 49
-1.5
 49
0.25
 49
-1.5
  0
LTYPE
  2
long_dashed_double-dotted
 70
   64
  3
----------- --- --- ------------
 72
   65
 73
    6
 40
17
 49
12
 49
-1.5
 49
0.25
 49
-1.5
 49
0.25
 49
-1.5
  0
LTYPE
  2
long_dashed_triplicate-dotted
 70
   64
  3
--------- --- --- --- ----------
 72
   65
 73
    8
 40
18.75
 49
12
 49
-1.5
 49
0.25
 49
-1.5
 49
0.25
 49
-1.5
 49
0.25
 49
-1.5
  0
LTYPE
  2
dotted
 70
   64
  3
   -       -       -       -    
 72
   65
 73
    2
 40
1.75
 49
0.25
 49
-1.5
  0
LTYPE
  2
chain
 70
   64
  3
-------------- -- --------------
 72
   65
 73
    4
 40
18.5
 49
12
 49
-1.5
 49
3.5
 49
-1.5
  0
LTYPE
  2
chain_double_dash
 70
   64
  3
------------ -- -- -------------
 72
   65
 73
    6
 40
23.5
 49
12
 49
-1.5
 49
3.5
 49
-1.5
 49
3.5
 49
-1.5
  0
LTYPE
  2
dashed_dotted
 70
   64
  3
-----------     -     ----------
 72
   65
 73
    4
 40
9.25
 49
6
 49
-1.5
 49
0.25
 49
-1.5
  0
LTYPE
  2
double-dashed_dotted
 70
   64
  3
------   -----------   -   -----
 72
   65
 73
    6
 40
16.75
 49
6
 49
-1.5
 49
6
 49
-1.5
 49
0.25
 49
-1.5
  0
LTYPE
  2
dashed_double-dotted
 70
   64
  3
---------    -    -    ---------
 72
   65
 73
    6
 40
11
 49
6
 49
-1.5
 49
0.25
 49
-1.5
 49
0.25
 49
-1.5
  0
LTYPE
  2
double-dashed_double-dotted
 70
   64
  3
-----   ---------   -   -   ----
 72
   65
 73
    8
 40
18.5
 49
6
 49
-1.5
 49
6
 49
-1.5
 49
0.25
 49
-1.5
 49
0.25
 49
-1.5
  0
LTYPE
  2
dashed_triplicate-dotted
 70
   64
  3
-------    -    -    -    ------
 72
   65
 73
    8
 40
12.75
 49
6
 49
-1.5
 49
0.25
 49
-1.5
 49
0.25
 49
-1.5
 49
0.25
 49
-1.5
  0
LTYPE
  2
double-dashed_triplicate-dotted
 70
   64
  3
-----  ---------  -  -  -  -----
 72
   65
 73
   10
 40
20.25
 49
6
 49
-1.5
 49
6
 49
-1.5
 49
0.25
 49
-1.5
 49
0.25
 49
-1.5
 49
0.25
 49
-1.5
  0
LTYPE
  2
undefined
 70
   64
  3
--------------------------------
 72
   65
 73
    0
 40
0
  0
LTYPE
  2
PLINE2
 70
   64
  3
------     -----------     -----
 72
   65
 73
    2
 40
3
 49
2.1000000000000001
 49
-0.9
  0
LTYPE
  2
PLINE3
 70
   64
  3
------------   ---   -----------
 72
   65
 73
    4
 40
10
 49
7
 49
-1
 49
1
 49
-1
  0
LTYPE
  2
PLINE4
 70
   64
  3
---------   ---   ---   --------
 72
   65
 73
    6
 40
10
 49
5
 49
-1
 49
1
 49
-1
 49
1
 49
-1
  0
LTYPE
  2
PLINE5
 70
   64
  3
------     -----------     -----
 72
   65
 73
    2
 40
5
 49
3.5
 49
-1.5
  0
LTYPE
  2
PLINE6
 70
   64
  3
------------   ---   -----------
 72
   65
 73
    4
 40
15
 49
10.5
 49
-1.5
 49
1.5
 49
-1.5
  0
LTYPE
  2
PLINE7
 70
   64
  3
---------   ---   ---   --------
 72
   65
 73
    6
 40
15
 49
7.5
 49
-1.5
 49
1.5
 49
-1.5
 49
1.5
 49
-1.5
  0
LTYPE
  2
PLINE8
 70
   64
  3
------     -----------     -----
 72
   65
 73
    2
 40
7
 49
4.9000000000000004
 49
-2.1000000000000001
  0
LTYPE
  2
PLINE9
 70
   64
  3
------------   ---   -----------
 72
   65
 73
    4
 40
20
 49
14
 49
-2
 49
2
 49
-2
  0
LTYPE
  2
PLINE10
 70
   64
  3
---------   ---   ---   --------
 72
   65
 73
    6
 40
20
 49
10
 49
-2
 49
2
 49
-2
 49
2
 49
-2
  0
LTYPE
  2
PLINE11
 70
   64
  3
------     -----------     -----
 72
   65
 73
    2
 40
9
 49
6.2999999999999989
 49
-2.7000000000000002
  0
LTYPE
  2
PLINE12
 70
   64
  3
------------   ---   -----------
 72
   65
 73
    4
 40
25
 49
17.5
 49
-2.5
 49
2.5
 49
-2.5
  0
LTYPE
  2
PLINE13
 70
   64
  3
---------   ---   ---   --------
 72
   65
 73
    6
 40
25
 49
12.5
 49
-2.5
 49
2.5
 49
-2.5
 49
2.5
 49
-2.5
  0
LTYPE
  2
PLINE14
 70
   64
  3
------     -----------     -----
 72
   65
 73
    2
 40
11
 49
7.7000000000000002
 49
-3.2999999999999989
  0
LTYPE
  2
PLINE15
 70
   64
  3
------------   ---   -----------
 72
   65
 73
    4
 40
30
 49
21
 49
-3
 49
3
 49
-3
  0
LTYPE
  2
PLINE16
 70
   64
  3
---------   ---   ---   --------
 72
   65
 73
    6
 40
30
 49
15
 49
-3
 49
3
 49
-3
 49
3
 49
-3
  0
ENDTAB
  0
TABLE
  2
STYLE
  5
3
100
AcDbSymbolTable
 70
     1
  0
STYLE
  5
10
100
AcDbSymbolTableRecord
100
AcDbTextStyleTableRecord
  2
STANDARD
 70
     0
 40
0.0
 41
1.0
 50
0.0
 71
     0
 42
0.2
  3
txt
  4
bigfont.shx
  0
STYLE
  5
26
100
AcDbSymbolTableRecord
100
AcDbTextStyleTableRecord
  2
TATEGAKI
 70
    68
 40
0.0
 41
1.0
 50
0.0
 71
     0
 42
1.0
  3
txt
  4
bigfont.shx
  0
ENDTAB
  0
TABLE
  2
LAYER
 70
    4
  0
LAYER
  2
_0-2_寸法
 70
   64
 62
    7
  6
CONTINUOUS
  0
LAYER
  2
_0-3_躯体と製品
 70
   64
 62
    7
  6
CONTINUOUS
  0
LAYER
  2
_0-4_文字-記号
 70
   64
 62
    7
  6
CONTINUOUS
  0
LAYER
  2
ADD_LINE
 70
   64
 62
    7
  6
CONTINUOUS
  0
ENDTAB
  0
ENDSEC
  0
SECTION
  2
BLOCKS
  0
BLOCK
  2
-000-_Dot
 70
   64
 10
0
 20
0
 30
0
  0
CIRCLE
  8
_0-0_0
  6
CONTINUOUS
 62
    7
 10
0
 20
0
 40
0.125
  0
LINE
  8
_0-0_0
  6
CONTINUOUS
 62
    7
 10
0.125
 20
0
 11
-0.125
 21
0
  0
LINE
  8
_0-0_0
  6
CONTINUOUS
 62
    7
 10
-0.25
 20
0
 11
-0.5
 21
0
  0
ENDBLK
  0
BLOCK
  2
-001-_D4
 70
   64
 10
0
 20
0
 30
0
  0
LINE
  8
_0-2_寸法
  6
CONTINUOUS
 62
    4
 10
150.88656421575871
 20
113.6788734376654
 11
141.1718832157587
 21
113.6788734376654
  0
LINE
  8
_0-2_寸法
  6
CONTINUOUS
 62
    4
 10
150.88656421575871
 20
123.6788734376654
 11
141.1718832157587
 21
123.6788734376654
  0
LINE
  8
_0-2_寸法
  6
CONTINUOUS
 62
    4
 10
141.1718832157587
 20
114.17887343766535
 11
141.1718832157587
 21
123.1788734376654
  0
INSERT
  2
-000-_Dot
  8
_0-2_寸法
 10
141.1718832157587
 20
113.6788734376654
 41
1
 42
1
 50
270
  0
INSERT
  2
-000-_Dot
  8
_0-2_寸法
 10
141.1718832157587
 20
123.6788734376654
 41
1
 42
1
 50
90
  0
TEXT
  8
_0-2_寸法
 62
    7
 10
140.6718832157587
 20
117.4288734376654
 40
2.5
 41
1
 50
90
  1
20
  0
POINT
  8
_0-1_Defpoints
 62
    7
 10
150.88656421575871
 20
113.6788734376654
  0
POINT
  8
_0-1_Defpoints
 62
    7
 10
150.88656421575871
 20
123.6788734376654
  0
POINT
  8
_0-1_Defpoints
 62
    7
 10
141.1718832157587
 20
123.6788734376654
  0
ENDBLK
  0
BLOCK
  2
-002-_D5
 70
   64
 10
0
 20
0
 30
0
  0
LINE
  8
_0-2_寸法
  6
CONTINUOUS
 62
    4
 10
152.38656421575871
 20
125.1788734376654
 11
152.38656421575871
 21
131.67548893766539
  0
LINE
  8
_0-2_寸法
  6
CONTINUOUS
 62
    4
 10
154.88656421575871
 20
125.1788734376654
 11
154.88656421575871
 21
131.67548893766539
  0
LINE
  8
_0-2_寸法
  6
CONTINUOUS
 62
    4
 10
152.88656421575871
 20
131.67548893766539
 11
154.38656421575871
 21
131.67548893766539
  0
INSERT
  2
-000-_Dot
  8
_0-2_寸法
 10
152.38656421575871
 20
131.67548893766539
 41
1
 42
1
 50
180
  0
INSERT
  2
-000-_Dot
  8
_0-2_寸法
 10
154.88656421575871
 20
131.67548893766539
 41
1
 42
1
 50
0
  0
TEXT
  8
_0-2_寸法
 62
    7
 10
153.01156421575874
 20
132.17548893766539
 40
2.5
 41
1
 50
0
  1
5
  0
POINT
  8
_0-1_Defpoints
 62
    7
 10
152.38656421575871
 20
125.1788734376654
  0
POINT
  8
_0-1_Defpoints
 62
    7
 10
154.88656421575871
 20
125.1788734376654
  0
POINT
  8
_0-1_Defpoints
 62
    7
 10
154.88656421575871
 20
131.67548893766539
  0
ENDBLK
  0
BLOCK
  2
-003-_D6
 70
   64
 10
0
 20
0
 30
0
  0
LINE
  8
_0-2_寸法
  6
CONTINUOUS
 62
    4
 10
152.38656421575871
 20
112.17887343766535
 11
152.38656421575871
 21
102.83589843766541
  0
LINE
  8
_0-2_寸法
  6
CONTINUOUS
 62
    4
 10
159.88656421575874
 20
112.17887343766535
 11
159.88656421575874
 21
102.83589843766541
  0
LINE
  8
_0-2_寸法
  6
CONTINUOUS
 62
    4
 10
152.88656421575871
 20
102.83589843766541
 11
159.38656421575871
 21
102.83589843766541
  0
INSERT
  2
-000-_Dot
  8
_0-2_寸法
 10
152.38656421575871
 20
102.83589843766541
 41
1
 42
1
 50
180
  0
INSERT
  2
-000-_Dot
  8
_0-2_寸法
 10
159.88656421575874
 20
102.83589843766541
 41
1
 42
1
 50
0
  0
TEXT
  8
_0-2_寸法
 62
    7
 10
154.88656421575871
 20
103.33589843766541
 40
2.5
 41
1
 50
0
  1
15
  0
POINT
  8
_0-1_Defpoints
 62
    7
 10
152.38656421575871
 20
112.17887343766535
  0
POINT
  8
_0-1_Defpoints
 62
    7
 10
159.88656421575874
 20
112.17887343766535
  0
POINT
  8
_0-1_Defpoints
 62
    7
 10
159.88656421575874
 20
102.83589843766541
  0
ENDBLK
  0
BLOCK
  2
-004-_D7
 70
   64
 10
0
 20
0
 30
0
  0
LINE
  8
_0-2_寸法
  6
CONTINUOUS
 62
    4
 10
159.88656421575874
 20
112.17887343766535
 11
159.88656421575874
 21
102.83589843766541
  0
LINE
  8
_0-2_寸法
  6
CONTINUOUS
 62
    4
 10
163.38656421575871
 20
113.2788734376654
 11
163.38656421575871
 21
102.83589843766541
  0
LINE
  8
_0-2_寸法
  6
CONTINUOUS
 62
    4
 10
160.38656421575871
 20
102.83589843766541
 11
162.88656421575871
 21
102.83589843766541
  0
INSERT
  2
-000-_Dot
  8
_0-2_寸法
 10
159.88656421575874
 20
102.83589843766541
 41
1
 42
1
 50
180
  0
INSERT
  2
-000-_Dot
  8
_0-2_寸法
 10
163.38656421575871
 20
102.83589843766541
 41
1
 42
1
 50
0
  0
TEXT
  8
_0-2_寸法
 62
    7
 10
161.01156421575871
 20
103.33589843766541
 40
2.5
 41
1
 50
0
  1
7
  0
POINT
  8
_0-1_Defpoints
 62
    7
 10
159.88656421575874
 20
112.17887343766535
  0
POINT
  8
_0-1_Defpoints
 62
    7
 10
163.38656421575871
 20
113.2788734376654
  0
POINT
  8
_0-1_Defpoints
 62
    7
 10
163.38656421575871
 20
102.83589843766541
  0
ENDBLK
  0
BLOCK
  2
-005-_D8
 70
   64
 10
0
 20
0
 30
0
  0
LINE
  8
_0-2_寸法
  6
CONTINUOUS
 62
    4
 10
163.38656421575871
 20
113.2788734376654
 11
163.38656421575871
 21
102.83589843766541
  0
LINE
  8
_0-2_寸法
  6
CONTINUOUS
 62
    4
 10
168.38656421575871
 20
113.02887343766535
 11
168.38656421575871
 21
102.83589843766541
  0
LINE
  8
_0-2_寸法
  6
CONTINUOUS
 62
    4
 10
163.88656421575871
 20
102.83589843766541
 11
167.88656421575871
 21
102.83589843766541
  0
INSERT
  2
-000-_Dot
  8
_0-2_寸法
 10
163.38656421575871
 20
102.83589843766541
 41
1
 42
1
 50
180
  0
INSERT
  2
-000-_Dot
  8
_0-2_寸法
 10
168.38656421575871
 20
102.83589843766541
 41
1
 42
1
 50
0
  0
TEXT
  8
_0-2_寸法
 62
    7
 10
164.63656421575871
 20
103.33589843766541
 40
2.5
 41
1
 50
0
  1
10
  0
POINT
  8
_0-1_Defpoints
 62
    7
 10
163.38656421575871
 20
113.2788734376654
  0
POINT
  8
_0-1_Defpoints
 62
    7
 10
168.38656421575871
 20
113.02887343766535
  0
POINT
  8
_0-1_Defpoints
 62
    7
 10
168.38656421575871
 20
102.83589843766541
  0
ENDBLK
  0
BLOCK
  2
-006-_D9
 70
   64
 10
0
 20
0
 30
0
  0
LINE
  8
_0-2_寸法
  6
CONTINUOUS
 62
    4
 10
210.1436022157587
 20
113.6788734376654
 11
200.42892121575869
 21
113.6788734376654
  0
LINE
  8
_0-2_寸法
  6
CONTINUOUS
 62
    4
 10
210.1436022157587
 20
123.6788734376654
 11
200.42892121575869
 21
123.6788734376654
  0
LINE
  8
_0-2_寸法
  6
CONTINUOUS
 62
    4
 10
200.42892121575869
 20
114.17887343766535
 11
200.42892121575869
 21
123.1788734376654
  0
INSERT
  2
-000-_Dot
  8
_0-2_寸法
 10
200.42892121575869
 20
113.6788734376654
 41
1
 42
1
 50
270
  0
INSERT
  2
-000-_Dot
  8
_0-2_寸法
 10
200.42892121575869
 20
123.6788734376654
 41
1
 42
1
 50
90
  0
TEXT
  8
_0-2_寸法
 62
    7
 10
199.92892121575869
 20
117.4288734376654
 40
2.5
 41
1
 50
90
  1
20
  0
POINT
  8
_0-1_Defpoints
 62
    7
 10
210.1436022157587
 20
113.6788734376654
  0
POINT
  8
_0-1_Defpoints
 62
    7
 10
210.1436022157587
 20
123.6788734376654
  0
POINT
  8
_0-1_Defpoints
 62
    7
 10
200.42892121575869
 20
123.6788734376654
  0
ENDBLK
  0
BLOCK
  2
-007-_D10
 70
   64
 10
0
 20
0
 30
0
  0
LINE
  8
_0-2_寸法
  6
CONTINUOUS
 62
    4
 10
211.64360221575876
 20
125.1788734376654
 11
211.64360221575876
 21
131.67548893766539
  0
LINE
  8
_0-2_寸法
  6
CONTINUOUS
 62
    4
 10
214.1436022157587
 20
125.1788734376654
 11
214.1436022157587
 21
131.67548893766539
  0
LINE
  8
_0-2_寸法
  6
CONTINUOUS
 62
    4
 10
212.1436022157587
 20
131.67548893766539
 11
213.64360221575876
 21
131.67548893766539
  0
INSERT
  2
-000-_Dot
  8
_0-2_寸法
 10
211.64360221575876
 20
131.67548893766539
 41
1
 42
1
 50
180
  0
INSERT
  2
-000-_Dot
  8
_0-2_寸法
 10
214.1436022157587
 20
131.67548893766539
 41
1
 42
1
 50
0
  0
TEXT
  8
_0-2_寸法
 62
    7
 10
212.2686022157587
 20
132.17548893766539
 40
2.5
 41
1
 50
0
  1
5
  0
POINT
  8
_0-1_Defpoints
 62
    7
 10
211.64360221575876
 20
125.1788734376654
  0
POINT
  8
_0-1_Defpoints
 62
    7
 10
214.1436022157587
 20
125.1788734376654
  0
POINT
  8
_0-1_Defpoints
 62
    7
 10
214.1436022157587
 20
131.67548893766539
  0
ENDBLK
  0
BLOCK
  2
-008-_D11
 70
   64
 10
0
 20
0
 30
0
  0
LINE
  8
_0-2_寸法
  6
CONTINUOUS
 62
    4
 10
211.64360221575876
 20
112.17887343766535
 11
211.64360221575876
 21
102.83589843766541
  0
LINE
  8
_0-2_寸法
  6
CONTINUOUS
 62
    4
 10
229.1436022157587
 20
112.1506009376654
 11
229.1436022157587
 21
102.83589843766541
  0
LINE
  8
_0-2_寸法
  6
CONTINUOUS
 62
    4
 10
212.1436022157587
 20
102.83589843766541
 11
228.6436022157587
 21
102.83589843766541
  0
INSERT
  2
-000-_Dot
  8
_0-2_寸法
 10
211.64360221575876
 20
102.83589843766541
 41
1
 42
1
 50
180
  0
INSERT
  2
-000-_Dot
  8
_0-2_寸法
 10
229.1436022157587
 20
102.83589843766541
 41
1
 42
1
 50
0
  0
TEXT
  8
_0-2_寸法
 62
    7
 10
219.1436022157587
 20
103.33589843766541
 40
2.5
 41
1
 50
0
  1
35
  0
POINT
  8
_0-1_Defpoints
 62
    7
 10
211.64360221575876
 20
112.17887343766535
  0
POINT
  8
_0-1_Defpoints
 62
    7
 10
229.1436022157587
 20
112.1506009376654
  0
POINT
  8
_0-1_Defpoints
 62
    7
 10
229.1436022157587
 20
102.83589843766541
  0
ENDBLK
  0
BLOCK
  2
-009-_D12
 70
   64
 10
0
 20
0
 30
0
  0
LINE
  8
_0-2_寸法
  6
CONTINUOUS
 62
    4
 10
229.1436022157587
 20
112.1506009376654
 11
229.1436022157587
 21
102.83589768766539
  0
LINE
  8
_0-2_寸法
  6
CONTINUOUS
 62
    4
 10
232.6436022157587
 20
113.17274743766539
 11
232.6436022157587
 21
102.83589768766539
  0
LINE
  8
_0-2_寸法
  6
CONTINUOUS
 62
    4
 10
229.6436022157587
 20
102.83589768766539
 11
232.14360221575876
 21
102.83589768766539
  0
INSERT
  2
-000-_Dot
  8
_0-2_寸法
 10
229.1436022157587
 20
102.83589768766539
 41
1
 42
1
 50
180
  0
INSERT
  2
-000-_Dot
  8
_0-2_寸法
 10
232.6436022157587
 20
102.83589768766539
 41
1
 42
1
 50
0
  0
TEXT
  8
_0-2_寸法
 62
    7
 10
230.2686022157587
 20
103.33589768766539
 40
2.5
 41
1
 50
0
  1
7
  0
POINT
  8
_0-1_Defpoints
 62
    7
 10
229.1436022157587
 20
112.1506009376654
  0
POINT
  8
_0-1_Defpoints
 62
    7
 10
232.6436022157587
 20
113.17274743766539
  0
POINT
  8
_0-1_Defpoints
 62
    7
 10
232.6436022157587
 20
102.83589768766539
  0
ENDBLK
  0
BLOCK
  2
-010-_D13
 70
   64
 10
0
 20
0
 30
0
  0
LINE
  8
_0-2_寸法
  6
CONTINUOUS
 62
    4
 10
232.6436022157587
 20
113.17274743766539
 11
232.6436022157587
 21
102.83589843766541
  0
LINE
  8
_0-2_寸法
  6
CONTINUOUS
 62
    4
 10
237.6436022157587
 20
113.17274743766539
 11
237.6436022157587
 21
102.83589843766541
  0
LINE
  8
_0-2_寸法
  6
CONTINUOUS
 62
    4
 10
233.1436022157587
 20
102.83589843766541
 11
237.1436022157587
 21
102.83589843766541
  0
INSERT
  2
-000-_Dot
  8
_0-2_寸法
 10
232.6436022157587
 20
102.83589843766541
 41
1
 42
1
 50
180
  0
INSERT
  2
-000-_Dot
  8
_0-2_寸法
 10
237.6436022157587
 20
102.83589843766541
 41
1
 42
1
 50
0
  0
TEXT
  8
_0-2_寸法
 62
    7
 10
233.8936022157587
 20
103.33589843766541
 40
2.5
 41
1
 50
0
  1
10
  0
POINT
  8
_0-1_Defpoints
 62
    7
 10
232.6436022157587
 20
113.17274743766539
  0
POINT
  8
_0-1_Defpoints
 62
    7
 10
237.6436022157587
 20
113.17274743766539
  0
POINT
  8
_0-1_Defpoints
 62
    7
 10
237.6436022157587
 20
102.83589843766541
  0
ENDBLK
  0
BLOCK
  2
-011-_D14
 70
   64
 10
0
 20
0
 30
0
  0
LINE
  8
_0-2_寸法
  6
CONTINUOUS
 62
    4
 10
275.81018471575874
 20
113.6788734376654
 11
266.0955037157587
 21
113.6788734376654
  0
LINE
  8
_0-2_寸法
  6
CONTINUOUS
 62
    4
 10
275.81018471575874
 20
123.6788734376654
 11
266.0955037157587
 21
123.6788734376654
  0
LINE
  8
_0-2_寸法
  6
CONTINUOUS
 62
    4
 10
266.0955037157587
 20
114.17887343766535
 11
266.0955037157587
 21
123.1788734376654
  0
INSERT
  2
-000-_Dot
  8
_0-2_寸法
 10
266.0955037157587
 20
113.6788734376654
 41
1
 42
1
 50
270
  0
INSERT
  2
-000-_Dot
  8
_0-2_寸法
 10
266.0955037157587
 20
123.6788734376654
 41
1
 42
1
 50
90
  0
TEXT
  8
_0-2_寸法
 62
    7
 10
265.5955037157587
 20
117.42887343766544
 40
2.5
 41
1
 50
90
  1
20
  0
POINT
  8
_0-1_Defpoints
 62
    7
 10
275.81018471575874
 20
113.6788734376654
  0
POINT
  8
_0-1_Defpoints
 62
    7
 10
275.81018471575874
 20
123.6788734376654
  0
POINT
  8
_0-1_Defpoints
 62
    7
 10
266.0955037157587
 20
123.6788734376654
  0
ENDBLK
  0
BLOCK
  2
-012-_D15
 70
   64
 10
0
 20
0
 30
0
  0
LINE
  8
_0-2_寸法
  6
CONTINUOUS
 62
    4
 10
277.31018471575868
 20
125.1788734376654
 11
277.31018471575868
 21
131.67548893766539
  0
LINE
  8
_0-2_寸法
  6
CONTINUOUS
 62
    4
 10
279.81018471575874
 20
125.1788734376654
 11
279.81018471575874
 21
131.67548893766539
  0
LINE
  8
_0-2_寸法
  6
CONTINUOUS
 62
    4
 10
277.81018471575874
 20
131.67548893766539
 11
279.31018471575868
 21
131.67548893766539
  0
INSERT
  2
-000-_Dot
  8
_0-2_寸法
 10
277.31018471575868
 20
131.67548893766539
 41
1
 42
1
 50
180
  0
INSERT
  2
-000-_Dot
  8
_0-2_寸法
 10
279.81018471575874
 20
131.67548893766539
 41
1
 42
1
 50
0
  0
TEXT
  8
_0-2_寸法
 62
    7
 10
277.93518471575868
 20
132.17548893766539
 40
2.5
 41
1
 50
0
  1
5
  0
POINT
  8
_0-1_Defpoints
 62
    7
 10
277.31018471575868
 20
125.1788734376654
  0
POINT
  8
_0-1_Defpoints
 62
    7
 10
279.81018471575874
 20
125.1788734376654
  0
POINT
  8
_0-1_Defpoints
 62
    7
 10
279.81018471575874
 20
131.67548893766539
  0
ENDBLK
  0
BLOCK
  2
-013-_D16
 70
   64
 10
0
 20
0
 30
0
  0
LINE
  8
_0-2_寸法
  6
CONTINUOUS
 62
    4
 10
277.31018471575868
 20
112.17887343766535
 11
277.31018471575868
 21
102.83589843766541
  0
LINE
  8
_0-2_寸法
  6
CONTINUOUS
 62
    4
 10
299.81018471575868
 20
112.1506009376654
 11
299.81018471575868
 21
102.83589843766541
  0
LINE
  8
_0-2_寸法
  6
CONTINUOUS
 62
    4
 10
277.81018471575874
 20
102.83589843766541
 11
299.31018471575868
 21
102.83589843766541
  0
INSERT
  2
-000-_Dot
  8
_0-2_寸法
 10
277.31018471575868
 20
102.83589843766541
 41
1
 42
1
 50
180
  0
INSERT
  2
-000-_Dot
  8
_0-2_寸法
 10
299.81018471575868
 20
102.83589843766541
 41
1
 42
1
 50
0
  0
TEXT
  8
_0-2_寸法
 62
    7
 10
287.31018471575868
 20
103.33589843766541
 40
2.5
 41
1
 50
0
  1
45
  0
POINT
  8
_0-1_Defpoints
 62
    7
 10
277.31018471575868
 20
112.17887343766535
  0
POINT
  8
_0-1_Defpoints
 62
    7
 10
299.81018471575868
 20
112.1506009376654
  0
POINT
  8
_0-1_Defpoints
 62
    7
 10
299.81018471575868
 20
102.83589843766541
  0
ENDBLK
  0
BLOCK
  2
-014-_D17
 70
   64
 10
0
 20
0
 30
0
  0
LINE
  8
_0-2_寸法
  6
CONTINUOUS
 62
    4
 10
299.81018471575868
 20
112.1506009376654
 11
299.81018471575868
 21
102.8358174376654
  0
LINE
  8
_0-2_寸法
  6
CONTINUOUS
 62
    4
 10
303.31018471575868
 20
113.17274743766539
 11
303.31018471575868
 21
102.8358174376654
  0
LINE
  8
_0-2_寸法
  6
CONTINUOUS
 62
    4
 10
300.31018471575874
 20
102.8358174376654
 11
302.81018471575874
 21
102.8358174376654
  0
INSERT
  2
-000-_Dot
  8
_0-2_寸法
 10
299.81018471575868
 20
102.8358174376654
 41
1
 42
1
 50
180
  0
INSERT
  2
-000-_Dot
  8
_0-2_寸法
 10
303.31018471575868
 20
102.8358174376654
 41
1
 42
1
 50
0
  0
TEXT
  8
_0-2_寸法
 62
    7
 10
300.93518471575868
 20
103.3358174376654
 40
2.5
 41
1
 50
0
  1
7
  0
POINT
  8
_0-1_Defpoints
 62
    7
 10
299.81018471575868
 20
112.1506009376654
  0
POINT
  8
_0-1_Defpoints
 62
    7
 10
303.31018471575868
 20
113.17274743766539
  0
POINT
  8
_0-1_Defpoints
 62
    7
 10
303.31018471575868
 20
102.8358174376654
  0
ENDBLK
  0
BLOCK
  2
-015-_D18
 70
   64
 10
0
 20
0
 30
0
  0
LINE
  8
_0-2_寸法
  6
CONTINUOUS
 62
    4
 10
303.31018471575868
 20
113.17274743766539
 11
303.31018471575868
 21
102.83589843766541
  0
LINE
  8
_0-2_寸法
  6
CONTINUOUS
 62
    4
 10
308.31018471575868
 20
113.17274743766539
 11
308.31018471575868
 21
102.83589843766541
  0
LINE
  8
_0-2_寸法
  6
CONTINUOUS
 62
    4
 10
303.81018471575868
 20
102.83589843766541
 11
307.81018471575868
 21
102.83589843766541
  0
INSERT
  2
-000-_Dot
  8
_0-2_寸法
 10
303.31018471575868
 20
102.83589843766541
 41
1
 42
1
 50
180
  0
INSERT
  2
-000-_Dot
  8
_0-2_寸法
 10
308.31018471575868
 20
102.83589843766541
 41
1
 42
1
 50
0
  0
TEXT
  8
_0-2_寸法
 62
    7
 10
304.56018471575868
 20
103.33589843766541
 40
2.5
 41
1
 50
0
  1
10
  0
POINT
  8
_0-1_Defpoints
 62
    7
 10
303.31018471575868
 20
113.17274743766539
  0
POINT
  8
_0-1_Defpoints
 62
    7
 10
308.31018471575868
 20
113.17274743766539
  0
POINT
  8
_0-1_Defpoints
 62
    7
 10
308.31018471575868
 20
102.83589843766541
  0
ENDBLK
  0
BLOCK
  2
-016-_D19
 70
   64
 10
0
 20
0
 30
0
  0
LINE
  8
_0-2_寸法
  6
CONTINUOUS
 62
    4
 10
347.68322171575863
 20
113.6788734376654
 11
336.67218220044515
 21
113.6788734376654
  0
LINE
  8
_0-2_寸法
  6
CONTINUOUS
 62
    4
 10
347.68322171575863
 20
123.6788734376654
 11
336.67218220044515
 21
123.6788734376654
  0
LINE
  8
_0-2_寸法
  6
CONTINUOUS
 62
    4
 10
336.67218220044515
 20
114.17887343766535
 11
336.67218220044515
 21
123.1788734376654
  0
INSERT
  2
-000-_Dot
  8
_0-2_寸法
 10
336.67218220044515
 20
113.6788734376654
 41
1
 42
1
 50
270
  0
INSERT
  2
-000-_Dot
  8
_0-2_寸法
 10
336.67218220044515
 20
123.6788734376654
 41
1
 42
1
 50
90
  0
TEXT
  8
_0-2_寸法
 62
    7
 10
336.17218220044515
 20
117.42887343766544
 40
2.5
 41
1
 50
90
  1
20
  0
POINT
  8
_0-1_Defpoints
 62
    7
 10
347.68322171575863
 20
113.6788734376654
  0
POINT
  8
_0-1_Defpoints
 62
    7
 10
347.68322171575863
 20
123.6788734376654
  0
POINT
  8
_0-1_Defpoints
 62
    7
 10
336.67218220044515
 20
123.6788734376654
  0
ENDBLK
  0
BLOCK
  2
-017-_D20
 70
   64
 10
0
 20
0
 30
0
  0
LINE
  8
_0-2_寸法
  6
CONTINUOUS
 62
    4
 10
349.18322171575869
 20
125.1788734376654
 11
349.18322171575869
 21
131.67548893766539
  0
LINE
  8
_0-2_寸法
  6
CONTINUOUS
 62
    4
 10
351.68322171575863
 20
125.1788734376654
 11
351.68322171575863
 21
131.67548893766539
  0
LINE
  8
_0-2_寸法
  6
CONTINUOUS
 62
    4
 10
349.68322171575863
 20
131.67548893766539
 11
351.18322171575869
 21
131.67548893766539
  0
INSERT
  2
-000-_Dot
  8
_0-2_寸法
 10
349.18322171575869
 20
131.67548893766539
 41
1
 42
1
 50
180
  0
INSERT
  2
-000-_Dot
  8
_0-2_寸法
 10
351.68322171575863
 20
131.67548893766539
 41
1
 42
1
 50
0
  0
TEXT
  8
_0-2_寸法
 62
    7
 10
349.80822171575863
 20
132.17548893766539
 40
2.5
 41
1
 50
0
  1
5
  0
POINT
  8
_0-1_Defpoints
 62
    7
 10
349.18322171575869
 20
125.1788734376654
  0
POINT
  8
_0-1_Defpoints
 62
    7
 10
351.68322171575863
 20
125.1788734376654
  0
POINT
  8
_0-1_Defpoints
 62
    7
 10
351.68322171575863
 20
131.67548893766539
  0
ENDBLK
  0
BLOCK
  2
-018-_D21
 70
   64
 10
0
 20
0
 30
0
  0
LINE
  8
_0-2_寸法
  6
CONTINUOUS
 62
    4
 10
349.18322171575869
 20
112.17887343766535
 11
349.18322171575869
 21
102.83589843766541
  0
LINE
  8
_0-2_寸法
  6
CONTINUOUS
 62
    4
 10
379.18322171575869
 20
112.17887343766535
 11
379.18322171575869
 21
102.83589843766541
  0
LINE
  8
_0-2_寸法
  6
CONTINUOUS
 62
    4
 10
349.68322171575863
 20
102.83589843766541
 11
378.68322171575869
 21
102.83589843766541
  0
INSERT
  2
-000-_Dot
  8
_0-2_寸法
 10
349.18322171575869
 20
102.83589843766541
 41
1
 42
1
 50
180
  0
INSERT
  2
-000-_Dot
  8
_0-2_寸法
 10
379.18322171575869
 20
102.83589843766541
 41
1
 42
1
 50
0
  0
TEXT
  8
_0-2_寸法
 62
    7
 10
362.93322171575863
 20
103.33589843766541
 40
2.5
 41
1
 50
0
  1
60
  0
POINT
  8
_0-1_Defpoints
 62
    7
 10
349.18322171575869
 20
112.17887343766535
  0
POINT
  8
_0-1_Defpoints
 62
    7
 10
379.18322171575869
 20
112.17887343766535
  0
POINT
  8
_0-1_Defpoints
 62
    7
 10
379.18322171575869
 20
102.83589843766541
  0
ENDBLK
  0
BLOCK
  2
-019-_D22
 70
   64
 10
0
 20
0
 30
0
  0
LINE
  8
_0-2_寸法
  6
CONTINUOUS
 62
    4
 10
379.18322171575869
 20
112.17887343766535
 11
379.18322171575869
 21
102.8354744376654
  0
LINE
  8
_0-2_寸法
  6
CONTINUOUS
 62
    4
 10
382.68322171575869
 20
113.17274743766539
 11
382.68322171575869
 21
102.8354744376654
  0
LINE
  8
_0-2_寸法
  6
CONTINUOUS
 62
    4
 10
379.68322171575875
 20
102.8354744376654
 11
382.18322171575875
 21
102.8354744376654
  0
INSERT
  2
-000-_Dot
  8
_0-2_寸法
 10
379.18322171575869
 20
102.8354744376654
 41
1
 42
1
 50
180
  0
INSERT
  2
-000-_Dot
  8
_0-2_寸法
 10
382.68322171575869
 20
102.8354744376654
 41
1
 42
1
 50
0
  0
TEXT
  8
_0-2_寸法
 62
    7
 10
380.30822171575869
 20
103.3354744376654
 40
2.5
 41
1
 50
0
  1
7
  0
POINT
  8
_0-1_Defpoints
 62
    7
 10
379.18322171575869
 20
112.17887343766535
  0
POINT
  8
_0-1_Defpoints
 62
    7
 10
382.68322171575869
 20
113.17274743766539
  0
POINT
  8
_0-1_Defpoints
 62
    7
 10
382.68322171575869
 20
102.8354744376654
  0
ENDBLK
  0
BLOCK
  2
-020-_D23
 70
   64
 10
0
 20
0
 30
0
  0
LINE
  8
_0-2_寸法
  6
CONTINUOUS
 62
    4
 10
382.68322171575869
 20
113.17274743766539
 11
382.68322171575869
 21
102.83589843766541
  0
LINE
  8
_0-2_寸法
  6
CONTINUOUS
 62
    4
 10
387.68322171575875
 20
113.17274743766539
 11
387.68322171575875
 21
102.83589843766541
  0
LINE
  8
_0-2_寸法
  6
CONTINUOUS
 62
    4
 10
383.18322171575869
 20
102.83589843766541
 11
387.18322171575869
 21
102.83589843766541
  0
INSERT
  2
-000-_Dot
  8
_0-2_寸法
 10
382.68322171575869
 20
102.83589843766541
 41
1
 42
1
 50
180
  0
INSERT
  2
-000-_Dot
  8
_0-2_寸法
 10
387.68322171575875
 20
102.83589843766541
 41
1
 42
1
 50
0
  0
TEXT
  8
_0-2_寸法
 62
    7
 10
383.93322171575869
 20
103.33589843766541
 40
2.5
 41
1
 50
0
  1
10
  0
POINT
  8
_0-1_Defpoints
 62
    7
 10
382.68322171575869
 20
113.17274743766539
  0
POINT
  8
_0-1_Defpoints
 62
    7
 10
387.68322171575875
 20
113.17274743766539
  0
POINT
  8
_0-1_Defpoints
 62
    7
 10
387.68322171575875
 20
102.83589843766541
  0
ENDBLK
  0
BLOCK
  2
-021-_D24
 70
   64
 10
0
 20
0
 30
0
  0
LINE
  8
_0-2_寸法
  6
CONTINUOUS
 62
    4
 10
415.61917421575873
 20
113.17274743766539
 11
405.90449321575863
 21
113.17274743766539
  0
LINE
  8
_0-2_寸法
  6
CONTINUOUS
 62
    4
 10
415.61917421575873
 20
123.17274743766539
 11
405.90449321575863
 21
123.17274743766539
  0
LINE
  8
_0-2_寸法
  6
CONTINUOUS
 62
    4
 10
405.90449321575863
 20
113.67274743766539
 11
405.90449321575863
 21
122.67274743766539
  0
INSERT
  2
-000-_Dot
  8
_0-2_寸法
 10
405.90449321575863
 20
113.17274743766539
 41
1
 42
1
 50
270
  0
INSERT
  2
-000-_Dot
  8
_0-2_寸法
 10
405.90449321575863
 20
123.17274743766539
 41
1
 42
1
 50
90
  0
TEXT
  8
_0-2_寸法
 62
    7
 10
405.40449321575863
 20
116.92274743766545
 40
2.5
 41
1
 50
90
  1
20
  0
POINT
  8
_0-1_Defpoints
 62
    7
 10
415.61917421575873
 20
113.17274743766539
  0
POINT
  8
_0-1_Defpoints
 62
    7
 10
415.61917421575873
 20
123.17274743766539
  0
POINT
  8
_0-1_Defpoints
 62
    7
 10
405.90449321575863
 20
123.17274743766539
  0
ENDBLK
  0
BLOCK
  2
-022-_D25
 70
   64
 10
0
 20
0
 30
0
  0
LINE
  8
_0-2_寸法
  6
CONTINUOUS
 62
    4
 10
417.11917421575868
 20
124.67274743766539
 11
417.11917421575868
 21
131.16936293766534
  0
LINE
  8
_0-2_寸法
  6
CONTINUOUS
 62
    4
 10
419.61917421575873
 20
124.67274743766539
 11
419.61917421575873
 21
131.16936293766534
  0
LINE
  8
_0-2_寸法
  6
CONTINUOUS
 62
    4
 10
417.61917421575868
 20
131.16936293766534
 11
419.11917421575873
 21
131.16936293766534
  0
INSERT
  2
-000-_Dot
  8
_0-2_寸法
 10
417.11917421575868
 20
131.16936293766534
 41
1
 42
1
 50
180
  0
INSERT
  2
-000-_Dot
  8
_0-2_寸法
 10
419.61917421575873
 20
131.16936293766534
 41
1
 42
1
 50
0
  0
TEXT
  8
_0-2_寸法
 62
    7
 10
417.74417421575868
 20
131.66936293766534
 40
2.5
 41
1
 50
0
  1
5
  0
POINT
  8
_0-1_Defpoints
 62
    7
 10
417.11917421575868
 20
124.67274743766539
  0
POINT
  8
_0-1_Defpoints
 62
    7
 10
419.61917421575873
 20
124.67274743766539
  0
POINT
  8
_0-1_Defpoints
 62
    7
 10
419.61917421575873
 20
131.16936293766534
  0
ENDBLK
  0
BLOCK
  2
-023-_D26
 70
   64
 10
0
 20
0
 30
0
  0
LINE
  8
_0-2_寸法
  6
CONTINUOUS
 62
    4
 10
417.11917421575868
 20
111.9859159376654
 11
417.11917421575868
 21
102.83589843766541
  0
LINE
  8
_0-2_寸法
  6
CONTINUOUS
 62
    4
 10
454.61917421575868
 20
112.1506009376654
 11
454.61917421575868
 21
102.83589843766541
  0
LINE
  8
_0-2_寸法
  6
CONTINUOUS
 62
    4
 10
417.61917421575868
 20
102.83589843766541
 11
454.11917421575868
 21
102.83589843766541
  0
INSERT
  2
-000-_Dot
  8
_0-2_寸法
 10
417.11917421575868
 20
102.83589843766541
 41
1
 42
1
 50
180
  0
INSERT
  2
-000-_Dot
  8
_0-2_寸法
 10
454.61917421575868
 20
102.83589843766541
 41
1
 42
1
 50
0
  0
TEXT
  8
_0-2_寸法
 62
    7
 10
434.61917421575868
 20
103.33589843766541
 40
2.5
 41
1
 50
0
  1
75
  0
POINT
  8
_0-1_Defpoints
 62
    7
 10
417.11917421575868
 20
111.9859159376654
  0
POINT
  8
_0-1_Defpoints
 62
    7
 10
454.61917421575868
 20
112.1506009376654
  0
POINT
  8
_0-1_Defpoints
 62
    7
 10
454.61917421575868
 20
102.83589843766541
  0
ENDBLK
  0
BLOCK
  2
-024-_D27
 70
   64
 10
0
 20
0
 30
0
  0
LINE
  8
_0-2_寸法
  6
CONTINUOUS
 62
    4
 10
454.61917421575868
 20
112.1506009376654
 11
454.61917421575868
 21
102.8358174376654
  0
LINE
  8
_0-2_寸法
  6
CONTINUOUS
 62
    4
 10
458.11917421575868
 20
113.17274743766539
 11
458.11917421575868
 21
102.8358174376654
  0
LINE
  8
_0-2_寸法
  6
CONTINUOUS
 62
    4
 10
455.11917421575868
 20
102.8358174376654
 11
457.61917421575873
 21
102.8358174376654
  0
INSERT
  2
-000-_Dot
  8
_0-2_寸法
 10
454.61917421575868
 20
102.8358174376654
 41
1
 42
1
 50
180
  0
INSERT
  2
-000-_Dot
  8
_0-2_寸法
 10
458.11917421575868
 20
102.8358174376654
 41
1
 42
1
 50
0
  0
TEXT
  8
_0-2_寸法
 62
    7
 10
455.74417421575868
 20
103.3358174376654
 40
2.5
 41
1
 50
0
  1
7
  0
POINT
  8
_0-1_Defpoints
 62
    7
 10
454.61917421575868
 20
112.1506009376654
  0
POINT
  8
_0-1_Defpoints
 62
    7
 10
458.11917421575868
 20
113.17274743766539
  0
POINT
  8
_0-1_Defpoints
 62
    7
 10
458.11917421575868
 20
102.8358174376654
  0
ENDBLK
  0
BLOCK
  2
-025-_D28
 70
   64
 10
0
 20
0
 30
0
  0
LINE
  8
_0-2_寸法
  6
CONTINUOUS
 62
    4
 10
458.11917421575868
 20
113.17274743766539
 11
458.11917421575868
 21
102.83589843766541
  0
LINE
  8
_0-2_寸法
  6
CONTINUOUS
 62
    4
 10
463.11917421575868
 20
113.17274743766539
 11
463.11917421575868
 21
102.83589843766541
  0
LINE
  8
_0-2_寸法
  6
CONTINUOUS
 62
    4
 10
458.61917421575868
 20
102.83589843766541
 11
462.61917421575868
 21
102.83589843766541
  0
INSERT
  2
-000-_Dot
  8
_0-2_寸法
 10
458.11917421575868
 20
102.83589843766541
 41
1
 42
1
 50
180
  0
INSERT
  2
-000-_Dot
  8
_0-2_寸法
 10
463.11917421575868
 20
102.83589843766541
 41
1
 42
1
 50
0
  0
TEXT
  8
_0-2_寸法
 62
    7
 10
459.36917421575873
 20
103.33589843766541
 40
2.5
 41
1
 50
0
  1
10
  0
POINT
  8
_0-1_Defpoints
 62
    7
 10
458.11917421575868
 20
113.17274743766539
  0
POINT
  8
_0-1_Defpoints
 62
    7
 10
463.11917421575868
 20
113.17274743766539
  0
POINT
  8
_0-1_Defpoints
 62
    7
 10
463.11917421575868
 20
102.83589843766541
  0
ENDBLK
  0
BLOCK
  2
-026-_D29
 70
   64
 10
0
 20
0
 30
0
  0
LINE
  8
_0-2_寸法
  6
CONTINUOUS
 62
    4
 10
228.75110671575871
 20
35.267830937665423
 11
219.0364257157587
 21
35.267830937665423
  0
LINE
  8
_0-2_寸法
  6
CONTINUOUS
 62
    4
 10
228.75110671575871
 20
45.267830937665423
 11
219.0364257157587
 21
45.267830937665423
  0
LINE
  8
_0-2_寸法
  6
CONTINUOUS
 62
    4
 10
219.0364257157587
 20
35.767830937665423
 11
219.0364257157587
 21
44.767830937665423
  0
INSERT
  2
-000-_Dot
  8
_0-2_寸法
 10
219.0364257157587
 20
35.267830937665423
 41
1
 42
1
 50
270
  0
INSERT
  2
-000-_Dot
  8
_0-2_寸法
 10
219.0364257157587
 20
45.267830937665423
 41
1
 42
1
 50
90
  0
TEXT
  8
_0-2_寸法
 62
    7
 10
218.5364257157587
 20
39.017830937665458
 40
2.5
 41
1
 50
90
  1
20
  0
POINT
  8
_0-1_Defpoints
 62
    7
 10
228.75110671575871
 20
35.267830937665423
  0
POINT
  8
_0-1_Defpoints
 62
    7
 10
228.75110671575871
 20
45.267830937665423
  0
POINT
  8
_0-1_Defpoints
 62
    7
 10
219.0364257157587
 20
45.267830937665423
  0
ENDBLK
  0
BLOCK
  2
-027-_D30
 70
   64
 10
0
 20
0
 30
0
  0
LINE
  8
_0-2_寸法
  6
CONTINUOUS
 62
    4
 10
230.25110671575871
 20
46.767830937665423
 11
230.25110671575871
 21
53.2644459376654
  0
LINE
  8
_0-2_寸法
  6
CONTINUOUS
 62
    4
 10
232.75110671575871
 20
46.767830937665423
 11
232.75110671575871
 21
53.2644459376654
  0
LINE
  8
_0-2_寸法
  6
CONTINUOUS
 62
    4
 10
230.75110671575871
 20
53.2644459376654
 11
232.25110671575871
 21
53.2644459376654
  0
INSERT
  2
-000-_Dot
  8
_0-2_寸法
 10
230.25110671575871
 20
53.2644459376654
 41
1
 42
1
 50
180
  0
INSERT
  2
-000-_Dot
  8
_0-2_寸法
 10
232.75110671575871
 20
53.2644459376654
 41
1
 42
1
 50
0
  0
TEXT
  8
_0-2_寸法
 62
    7
 10
230.87610671575874
 20
53.7644459376654
 40
2.5
 41
1
 50
0
  1
5
  0
POINT
  8
_0-1_Defpoints
 62
    7
 10
230.25110671575871
 20
46.767830937665423
  0
POINT
  8
_0-1_Defpoints
 62
    7
 10
232.75110671575871
 20
46.767830937665423
  0
POINT
  8
_0-1_Defpoints
 62
    7
 10
232.75110671575871
 20
53.2644459376654
  0
ENDBLK
  0
BLOCK
  2
-028-_D31
 70
   64
 10
0
 20
0
 30
0
  0
LINE
  8
_0-2_寸法
  6
CONTINUOUS
 62
    4
 10
230.25110671575871
 20
34.029759937665432
 11
230.25110671575871
 21
24.579974437665424
  0
LINE
  8
_0-2_寸法
  6
CONTINUOUS
 62
    4
 10
285.25110671575868
 20
33.894676937665423
 11
285.25110671575868
 21
24.579974437665424
  0
LINE
  8
_0-2_寸法
  6
CONTINUOUS
 62
    4
 10
230.75110671575871
 20
24.579974437665424
 11
284.75110671575868
 21
24.579974437665424
  0
INSERT
  2
-000-_Dot
  8
_0-2_寸法
 10
230.25110671575871
 20
24.579974437665424
 41
1
 42
1
 50
180
  0
INSERT
  2
-000-_Dot
  8
_0-2_寸法
 10
285.25110671575868
 20
24.579974437665424
 41
1
 42
1
 50
0
  0
TEXT
  8
_0-2_寸法
 62
    7
 10
255.87610671575868
 20
25.079974437665431
 40
2.5
 41
1
 50
0
  1
110
  0
POINT
  8
_0-1_Defpoints
 62
    7
 10
230.25110671575871
 20
34.029759937665432
  0
POINT
  8
_0-1_Defpoints
 62
    7
 10
285.25110671575868
 20
33.894676937665423
  0
POINT
  8
_0-1_Defpoints
 62
    7
 10
285.25110671575868
 20
24.579974437665424
  0
ENDBLK
  0
BLOCK
  2
-029-_D32
 70
   64
 10
0
 20
0
 30
0
  0
LINE
  8
_0-2_寸法
  6
CONTINUOUS
 62
    4
 10
285.25110671575868
 20
33.894676937665423
 11
285.25110671575868
 21
24.579893437665412
  0
LINE
  8
_0-2_寸法
  6
CONTINUOUS
 62
    4
 10
288.75110671575868
 20
34.916823437665407
 11
288.75110671575868
 21
24.579893437665412
  0
LINE
  8
_0-2_寸法
  6
CONTINUOUS
 62
    4
 10
285.75110671575874
 20
24.579893437665412
 11
288.25110671575874
 21
24.579893437665412
  0
INSERT
  2
-000-_Dot
  8
_0-2_寸法
 10
285.25110671575868
 20
24.579893437665412
 41
1
 42
1
 50
180
  0
INSERT
  2
-000-_Dot
  8
_0-2_寸法
 10
288.75110671575868
 20
24.579893437665412
 41
1
 42
1
 50
0
  0
TEXT
  8
_0-2_寸法
 62
    7
 10
286.37610671575868
 20
25.079893437665412
 40
2.5
 41
1
 50
0
  1
7
  0
POINT
  8
_0-1_Defpoints
 62
    7
 10
285.25110671575868
 20
33.894676937665423
  0
POINT
  8
_0-1_Defpoints
 62
    7
 10
288.75110671575868
 20
34.916823437665407
  0
POINT
  8
_0-1_Defpoints
 62
    7
 10
288.75110671575868
 20
24.579893437665412
  0
ENDBLK
  0
BLOCK
  2
-030-_D33
 70
   64
 10
0
 20
0
 30
0
  0
LINE
  8
_0-2_寸法
  6
CONTINUOUS
 62
    4
 10
288.75110671575868
 20
34.916823437665407
 11
288.75110671575868
 21
24.579974437665424
  0
LINE
  8
_0-2_寸法
  6
CONTINUOUS
 62
    4
 10
293.75110671575868
 20
34.916823437665407
 11
293.75110671575868
 21
24.579974437665424
  0
LINE
  8
_0-2_寸法
  6
CONTINUOUS
 62
    4
 10
289.25110671575868
 20
24.579974437665424
 11
293.25110671575868
 21
24.579974437665424
  0
INSERT
  2
-000-_Dot
  8
_0-2_寸法
 10
288.75110671575868
 20
24.579974437665424
 41
1
 42
1
 50
180
  0
INSERT
  2
-000-_Dot
  8
_0-2_寸法
 10
293.75110671575868
 20
24.579974437665424
 41
1
 42
1
 50
0
  0
TEXT
  8
_0-2_寸法
 62
    7
 10
290.00110671575868
 20
25.079974437665431
 40
2.5
 41
1
 50
0
  1
10
  0
POINT
  8
_0-1_Defpoints
 62
    7
 10
288.75110671575868
 20
34.916823437665407
  0
POINT
  8
_0-1_Defpoints
 62
    7
 10
293.75110671575868
 20
34.916823437665407
  0
POINT
  8
_0-1_Defpoints
 62
    7
 10
293.75110671575868
 20
24.579974437665424
  0
ENDBLK
  0
BLOCK
  2
-031-_D34
 70
   64
 10
0
 20
0
 30
0
  0
LINE
  8
_0-2_寸法
  6
CONTINUOUS
 62
    4
 10
134.31539571575871
 20
35.267830937665423
 11
124.6007147157587
 21
35.267830937665423
  0
LINE
  8
_0-2_寸法
  6
CONTINUOUS
 62
    4
 10
134.31539571575871
 20
45.267830937665423
 11
124.6007147157587
 21
45.267830937665423
  0
LINE
  8
_0-2_寸法
  6
CONTINUOUS
 62
    4
 10
124.6007147157587
 20
35.767830937665423
 11
124.6007147157587
 21
44.767830937665423
  0
INSERT
  2
-000-_Dot
  8
_0-2_寸法
 10
124.6007147157587
 20
35.267830937665423
 41
1
 42
1
 50
270
  0
INSERT
  2
-000-_Dot
  8
_0-2_寸法
 10
124.6007147157587
 20
45.267830937665423
 41
1
 42
1
 50
90
  0
TEXT
  8
_0-2_寸法
 62
    7
 10
124.1007147157587
 20
39.017830937665444
 40
2.5
 41
1
 50
90
  1
20
  0
POINT
  8
_0-1_Defpoints
 62
    7
 10
134.31539571575871
 20
35.267830937665423
  0
POINT
  8
_0-1_Defpoints
 62
    7
 10
134.31539571575871
 20
45.267830937665423
  0
POINT
  8
_0-1_Defpoints
 62
    7
 10
124.6007147157587
 20
45.267830937665423
  0
ENDBLK
  0
BLOCK
  2
-032-_D35
 70
   64
 10
0
 20
0
 30
0
  0
LINE
  8
_0-2_寸法
  6
CONTINUOUS
 62
    4
 10
135.81539571575871
 20
46.767830937665423
 11
135.81539571575871
 21
53.2644459376654
  0
LINE
  8
_0-2_寸法
  6
CONTINUOUS
 62
    4
 10
138.31539571575871
 20
46.767830937665423
 11
138.31539571575871
 21
53.2644459376654
  0
LINE
  8
_0-2_寸法
  6
CONTINUOUS
 62
    4
 10
136.31539571575871
 20
53.2644459376654
 11
137.81539571575871
 21
53.2644459376654
  0
INSERT
  2
-000-_Dot
  8
_0-2_寸法
 10
135.81539571575871
 20
53.2644459376654
 41
1
 42
1
 50
180
  0
INSERT
  2
-000-_Dot
  8
_0-2_寸法
 10
138.31539571575871
 20
53.2644459376654
 41
1
 42
1
 50
0
  0
TEXT
  8
_0-2_寸法
 62
    7
 10
136.44039571575871
 20
53.7644459376654
 40
2.5
 41
1
 50
0
  1
5
  0
POINT
  8
_0-1_Defpoints
 62
    7
 10
135.81539571575871
 20
46.767830937665423
  0
POINT
  8
_0-1_Defpoints
 62
    7
 10
138.31539571575871
 20
46.767830937665423
  0
POINT
  8
_0-1_Defpoints
 62
    7
 10
138.31539571575871
 20
53.2644459376654
  0
ENDBLK
  0
BLOCK
  2
-033-_D36
 70
   64
 10
0
 20
0
 30
0
  0
LINE
  8
_0-2_寸法
  6
CONTINUOUS
 62
    4
 10
135.81539571575871
 20
34.308099437665419
 11
135.81539571575871
 21
24.65255243766542
  0
LINE
  8
_0-2_寸法
  6
CONTINUOUS
 62
    4
 10
180.81446271575871
 20
33.967254937665416
 11
180.81446271575871
 21
24.65255243766542
  0
LINE
  8
_0-2_寸法
  6
CONTINUOUS
 62
    4
 10
136.31539571575871
 20
24.65255243766542
 11
180.31446271575871
 21
24.65255243766542
  0
INSERT
  2
-000-_Dot
  8
_0-2_寸法
 10
135.81539571575871
 20
24.65255243766542
 41
1
 42
1
 50
180
  0
INSERT
  2
-000-_Dot
  8
_0-2_寸法
 10
180.81446271575871
 20
24.65255243766542
 41
1
 42
1
 50
0
  0
TEXT
  8
_0-2_寸法
 62
    7
 10
157.0649292157587
 20
25.15255243766542
 40
2.5
 41
1
 50
0
  1
90
  0
POINT
  8
_0-1_Defpoints
 62
    7
 10
135.81539571575871
 20
34.308099437665419
  0
POINT
  8
_0-1_Defpoints
 62
    7
 10
180.81446271575871
 20
33.967254937665416
  0
POINT
  8
_0-1_Defpoints
 62
    7
 10
180.81446271575871
 20
24.65255243766542
  0
ENDBLK
  0
BLOCK
  2
-034-_D37
 70
   64
 10
0
 20
0
 30
0
  0
LINE
  8
_0-2_寸法
  6
CONTINUOUS
 62
    4
 10
180.81446271575871
 20
33.967254937665416
 11
180.81446271575871
 21
24.652471437665415
  0
LINE
  8
_0-2_寸法
  6
CONTINUOUS
 62
    4
 10
184.31446271575871
 20
34.989401437665435
 11
184.31446271575871
 21
24.652471437665415
  0
LINE
  8
_0-2_寸法
  6
CONTINUOUS
 62
    4
 10
181.31446271575874
 20
24.652471437665415
 11
183.81446271575871
 21
24.652471437665415
  0
INSERT
  2
-000-_Dot
  8
_0-2_寸法
 10
180.81446271575871
 20
24.652471437665415
 41
1
 42
1
 50
180
  0
INSERT
  2
-000-_Dot
  8
_0-2_寸法
 10
184.31446271575871
 20
24.652471437665415
 41
1
 42
1
 50
0
  0
TEXT
  8
_0-2_寸法
 62
    7
 10
181.93946271575871
 20
25.152471437665419
 40
2.5
 41
1
 50
0
  1
7
  0
POINT
  8
_0-1_Defpoints
 62
    7
 10
180.81446271575871
 20
33.967254937665416
  0
POINT
  8
_0-1_Defpoints
 62
    7
 10
184.31446271575871
 20
34.989401437665435
  0
POINT
  8
_0-1_Defpoints
 62
    7
 10
184.31446271575871
 20
24.652471437665415
  0
ENDBLK
  0
BLOCK
  2
-035-_D38
 70
   64
 10
0
 20
0
 30
0
  0
LINE
  8
_0-2_寸法
  6
CONTINUOUS
 62
    4
 10
184.31446271575871
 20
34.989401437665435
 11
184.31446271575871
 21
24.65255243766542
  0
LINE
  8
_0-2_寸法
  6
CONTINUOUS
 62
    4
 10
189.31446271575871
 20
34.989401437665435
 11
189.31446271575871
 21
24.65255243766542
  0
LINE
  8
_0-2_寸法
  6
CONTINUOUS
 62
    4
 10
184.81446271575871
 20
24.65255243766542
 11
188.81446271575871
 21
24.65255243766542
  0
INSERT
  2
-000-_Dot
  8
_0-2_寸法
 10
184.31446271575871
 20
24.65255243766542
 41
1
 42
1
 50
180
  0
INSERT
  2
-000-_Dot
  8
_0-2_寸法
 10
189.31446271575871
 20
24.65255243766542
 41
1
 42
1
 50
0
  0
TEXT
  8
_0-2_寸法
 62
    7
 10
185.56446271575871
 20
25.15255243766542
 40
2.5
 41
1
 50
0
  1
10
  0
POINT
  8
_0-1_Defpoints
 62
    7
 10
184.31446271575871
 20
34.989401437665435
  0
POINT
  8
_0-1_Defpoints
 62
    7
 10
189.31446271575871
 20
34.989401437665435
  0
POINT
  8
_0-1_Defpoints
 62
    7
 10
189.31446271575871
 20
24.65255243766542
  0
ENDBLK
  0
BLOCK
  2
-036-_D39
 70
   64
 10
0
 20
0
 30
0
  0
LINE
  8
_0-2_寸法
  6
CONTINUOUS
 62
    4
 10
156.33846321575871
 20
-63.168361562334553
 11
146.09170121575869
 21
-63.168361562334553
  0
LINE
  8
_0-2_寸法
  6
CONTINUOUS
 62
    4
 10
156.33846321575871
 20
-55.668361562334553
 11
146.09170121575869
 21
-55.668361562334553
  0
LINE
  8
_0-2_寸法
  6
CONTINUOUS
 62
    4
 10
146.09170121575869
 20
-62.668361562334553
 11
146.09170121575869
 21
-56.168361562334553
  0
INSERT
  2
-000-_Dot
  8
_0-2_寸法
 10
146.09170121575869
 20
-63.168361562334553
 41
1
 42
1
 50
270
  0
INSERT
  2
-000-_Dot
  8
_0-2_寸法
 10
146.09170121575869
 20
-55.668361562334553
 41
1
 42
1
 50
90
  0
TEXT
  8
_0-2_寸法
 62
    7
 10
145.59170121575869
 20
-60.668361562334553
 40
2.5
 41
1
 50
90
  1
15
  0
POINT
  8
_0-1_Defpoints
 62
    7
 10
156.33846321575871
 20
-63.168361562334553
  0
POINT
  8
_0-1_Defpoints
 62
    7
 10
156.33846321575871
 20
-55.668361562334553
  0
POINT
  8
_0-1_Defpoints
 62
    7
 10
146.09170121575869
 20
-55.668361562334553
  0
ENDBLK
  0
BLOCK
  2
-037-_D40
 70
   64
 10
0
 20
0
 30
0
  0
LINE
  8
_0-2_寸法
  6
CONTINUOUS
 62
    4
 10
157.83846321575871
 20
-64.668361562334553
 11
157.83846321575871
 21
-77.968275062334556
  0
LINE
  8
_0-2_寸法
  6
CONTINUOUS
 62
    4
 10
167.83846321575871
 20
-64.668361562334553
 11
167.83846321575871
 21
-77.968275062334556
  0
LINE
  8
_0-2_寸法
  6
CONTINUOUS
 62
    4
 10
158.33846321575871
 20
-77.968275062334556
 11
167.33846321575871
 21
-77.968275062334556
  0
INSERT
  2
-000-_Dot
  8
_0-2_寸法
 10
157.83846321575871
 20
-77.968275062334556
 41
1
 42
1
 50
180
  0
INSERT
  2
-000-_Dot
  8
_0-2_寸法
 10
167.83846321575871
 20
-77.968275062334556
 41
1
 42
1
 50
0
  0
TEXT
  8
_0-2_寸法
 62
    7
 10
161.58846321575871
 20
-77.468275062334556
 40
2.5
 41
1
 50
0
  1
20
  0
POINT
  8
_0-1_Defpoints
 62
    7
 10
157.83846321575871
 20
-64.668361562334553
  0
POINT
  8
_0-1_Defpoints
 62
    7
 10
167.83846321575871
 20
-64.668361562334553
  0
POINT
  8
_0-1_Defpoints
 62
    7
 10
167.83846321575871
 20
-77.968275062334556
  0
ENDBLK
  0
BLOCK
  2
-038-_D41
 70
   64
 10
0
 20
0
 30
0
  0
LINE
  8
_0-2_寸法
  6
CONTINUOUS
 62
    4
 10
249.36573721575871
 20
-60.534934562334549
 11
236.75008971575869
 21
-60.534934562334549
  0
LINE
  8
_0-2_寸法
  6
CONTINUOUS
 62
    4
 10
249.72549571575871
 20
-50.534934562334549
 11
236.75008971575869
 21
-50.534934562334549
  0
LINE
  8
_0-2_寸法
  6
CONTINUOUS
 62
    4
 10
236.75008971575869
 20
-60.034934562334549
 11
236.75008971575869
 21
-51.034934562334549
  0
INSERT
  2
-000-_Dot
  8
_0-2_寸法
 10
236.75008971575869
 20
-60.534934562334549
 41
1
 42
1
 50
270
  0
INSERT
  2
-000-_Dot
  8
_0-2_寸法
 10
236.75008971575869
 20
-50.534934562334549
 41
1
 42
1
 50
90
  0
TEXT
  8
_0-2_寸法
 62
    7
 10
236.25008971575869
 20
-56.784934562334499
 40
2.5
 41
1
 50
90
  1
20
  0
POINT
  8
_0-1_Defpoints
 62
    7
 10
249.36573721575871
 20
-60.534934562334549
  0
POINT
  8
_0-1_Defpoints
 62
    7
 10
249.72549571575871
 20
-50.534934562334549
  0
POINT
  8
_0-1_Defpoints
 62
    7
 10
236.75008971575869
 20
-50.534934562334549
  0
ENDBLK
  0
BLOCK
  2
-039-_D42
 70
   64
 10
0
 20
0
 30
0
  0
LINE
  8
_0-2_寸法
  6
CONTINUOUS
 62
    4
 10
251.22549571575865
 20
-61.833008062334549
 11
251.22549571575865
 21
-75.334848062334544
  0
LINE
  8
_0-2_寸法
  6
CONTINUOUS
 62
    4
 10
271.22549571575871
 20
-62.034934562334549
 11
271.22549571575871
 21
-75.334848062334544
  0
LINE
  8
_0-2_寸法
  6
CONTINUOUS
 62
    4
 10
251.72549571575871
 20
-75.334848062334544
 11
270.72549571575871
 21
-75.334848062334544
  0
INSERT
  2
-000-_Dot
  8
_0-2_寸法
 10
251.22549571575865
 20
-75.334848062334544
 41
1
 42
1
 50
180
  0
INSERT
  2
-000-_Dot
  8
_0-2_寸法
 10
271.22549571575871
 20
-75.334848062334544
 41
1
 42
1
 50
0
  0
TEXT
  8
_0-2_寸法
 62
    7
 10
259.97549571575871
 20
-74.834848062334544
 40
2.5
 41
1
 50
0
  1
40
  0
POINT
  8
_0-1_Defpoints
 62
    7
 10
251.22549571575865
 20
-61.833008062334549
  0
POINT
  8
_0-1_Defpoints
 62
    7
 10
271.22549571575871
 20
-62.034934562334549
  0
POINT
  8
_0-1_Defpoints
 62
    7
 10
271.22549571575871
 20
-75.334848062334544
  0
ENDBLK
  0
BLOCK
  2
-040-_D43
 70
   64
 10
0
 20
0
 30
0
  0
LINE
  8
_0-2_寸法
  6
CONTINUOUS
 62
    4
 10
359.5147412157587
 20
-65.610113062334548
 11
346.53933571575874
 21
-65.610113062334548
  0
LINE
  8
_0-2_寸法
  6
CONTINUOUS
 62
    4
 10
359.5147412157587
 20
-50.610113062334548
 11
346.53933571575874
 21
-50.610113062334548
  0
LINE
  8
_0-2_寸法
  6
CONTINUOUS
 62
    4
 10
346.53933571575874
 20
-65.110113062334548
 11
346.53933571575874
 21
-51.110113062334548
  0
INSERT
  2
-000-_Dot
  8
_0-2_寸法
 10
346.53933571575874
 20
-65.610113062334548
 41
1
 42
1
 50
270
  0
INSERT
  2
-000-_Dot
  8
_0-2_寸法
 10
346.53933571575874
 20
-50.610113062334548
 41
1
 42
1
 50
90
  0
TEXT
  8
_0-2_寸法
 62
    7
 10
346.03933571575874
 20
-59.360113062334499
 40
2.5
 41
1
 50
90
  1
30
  0
POINT
  8
_0-1_Defpoints
 62
    7
 10
359.5147412157587
 20
-65.610113062334548
  0
POINT
  8
_0-1_Defpoints
 62
    7
 10
359.5147412157587
 20
-50.610113062334548
  0
POINT
  8
_0-1_Defpoints
 62
    7
 10
346.53933571575874
 20
-50.610113062334548
  0
ENDBLK
  0
BLOCK
  2
-041-_D44
 70
   64
 10
0
 20
0
 30
0
  0
LINE
  8
_0-2_寸法
  6
CONTINUOUS
 62
    4
 10
361.0147412157587
 20
-67.35999406233455
 11
361.0147412157587
 21
-80.410027062334549
  0
LINE
  8
_0-2_寸法
  6
CONTINUOUS
 62
    4
 10
378.51474121575865
 20
-67.110113062334548
 11
378.51474121575865
 21
-80.410027062334549
  0
LINE
  8
_0-2_寸法
  6
CONTINUOUS
 62
    4
 10
361.5147412157587
 20
-80.410027062334549
 11
378.0147412157587
 21
-80.410027062334549
  0
INSERT
  2
-000-_Dot
  8
_0-2_寸法
 10
361.0147412157587
 20
-80.410027062334549
 41
1
 42
1
 50
180
  0
INSERT
  2
-000-_Dot
  8
_0-2_寸法
 10
378.51474121575865
 20
-80.410027062334549
 41
1
 42
1
 50
0
  0
TEXT
  8
_0-2_寸法
 62
    7
 10
368.5147412157587
 20
-79.910027062334549
 40
2.5
 41
1
 50
0
  1
35
  0
POINT
  8
_0-1_Defpoints
 62
    7
 10
361.0147412157587
 20
-67.35999406233455
  0
POINT
  8
_0-1_Defpoints
 62
    7
 10
378.51474121575865
 20
-67.110113062334548
  0
POINT
  8
_0-1_Defpoints
 62
    7
 10
378.51474121575865
 20
-80.410027062334549
  0
ENDBLK
  0
BLOCK
  2
-042-_D45
 70
   64
 10
0
 20
0
 30
0
  0
LINE
  8
_0-2_寸法
  6
CONTINUOUS
 62
    4
 10
431.1676592157587
 20
-63.23866956233455
 11
431.1676592157587
 21
-76.288702562334549
  0
LINE
  8
_0-2_寸法
  6
CONTINUOUS
 62
    4
 10
441.16765921575865
 20
-63.116812062334553
 11
441.16765921575865
 21
-76.288702562334549
  0
LINE
  8
_0-2_寸法
  6
CONTINUOUS
 62
    4
 10
431.6676592157587
 20
-76.288702562334549
 11
440.6676592157587
 21
-76.288702562334549
  0
INSERT
  2
-000-_Dot
  8
_0-2_寸法
 10
431.1676592157587
 20
-76.288702562334549
 41
1
 42
1
 50
180
  0
INSERT
  2
-000-_Dot
  8
_0-2_寸法
 10
441.16765921575865
 20
-76.288702562334549
 41
1
 42
1
 50
0
  0
TEXT
  8
_0-2_寸法
 62
    7
 10
434.9176592157587
 20
-75.788702562334549
 40
2.5
 41
1
 50
0
  1
20
  0
POINT
  8
_0-1_Defpoints
 62
    7
 10
431.1676592157587
 20
-63.23866956233455
  0
POINT
  8
_0-1_Defpoints
 62
    7
 10
441.16765921575865
 20
-63.116812062334553
  0
POINT
  8
_0-1_Defpoints
 62
    7
 10
441.16765921575865
 20
-76.288702562334549
  0
ENDBLK
  0
BLOCK
  2
-043-_D46
 70
   64
 10
0
 20
0
 30
0
  0
LINE
  8
_0-2_寸法
  6
CONTINUOUS
 62
    4
 10
441.16765921575865
 20
-63.116812062334553
 11
441.16765921575865
 21
-76.288702562334549
  0
LINE
  8
_0-2_寸法
  6
CONTINUOUS
 62
    4
 10
448.6676592157587
 20
-62.988788562334548
 11
448.6676592157587
 21
-76.288702562334549
  0
LINE
  8
_0-2_寸法
  6
CONTINUOUS
 62
    4
 10
441.66765921575865
 20
-76.288702562334549
 11
448.1676592157587
 21
-76.288702562334549
  0
INSERT
  2
-000-_Dot
  8
_0-2_寸法
 10
441.16765921575865
 20
-76.288702562334549
 41
1
 42
1
 50
180
  0
INSERT
  2
-000-_Dot
  8
_0-2_寸法
 10
448.6676592157587
 20
-76.288702562334549
 41
1
 42
1
 50
0
  0
TEXT
  8
_0-2_寸法
 62
    7
 10
443.6676592157587
 20
-75.788702562334549
 40
2.5
 41
1
 50
0
  1
15
  0
POINT
  8
_0-1_Defpoints
 62
    7
 10
441.16765921575865
 20
-63.116812062334553
  0
POINT
  8
_0-1_Defpoints
 62
    7
 10
448.6676592157587
 20
-62.988788562334548
  0
POINT
  8
_0-1_Defpoints
 62
    7
 10
448.6676592157587
 20
-76.288702562334549
  0
ENDBLK
  0
BLOCK
  2
-044-_D47
 70
   64
 10
0
 20
0
 30
0
  0
LINE
  8
_0-2_寸法
  6
CONTINUOUS
 62
    4
 10
446.03500921575869
 20
-61.488788562334548
 11
459.01041521575871
 21
-61.488788562334548
  0
LINE
  8
_0-2_寸法
  6
CONTINUOUS
 62
    4
 10
450.76270871575872
 20
-58.988788562334548
 11
459.01041521575871
 21
-58.988788562334548
  0
LINE
  8
_0-2_寸法
  6
CONTINUOUS
 62
    4
 10
459.01041521575871
 20
-60.988788562334548
 11
459.01041521575871
 21
-59.488788562334548
  0
INSERT
  2
-000-_Dot
  8
_0-2_寸法
 10
459.01041521575871
 20
-61.488788562334548
 41
1
 42
1
 50
270
  0
INSERT
  2
-000-_Dot
  8
_0-2_寸法
 10
459.01041521575871
 20
-58.988788562334548
 41
1
 42
1
 50
90
  0
TEXT
  8
_0-2_寸法
 62
    7
 10
458.51041521575871
 20
-60.863788562334499
 40
2.5
 41
1
 50
90
  1
5
  0
POINT
  8
_0-1_Defpoints
 62
    7
 10
446.03500921575869
 20
-61.488788562334548
  0
POINT
  8
_0-1_Defpoints
 62
    7
 10
450.76270871575872
 20
-58.988788562334548
  0
POINT
  8
_0-1_Defpoints
 62
    7
 10
459.01041521575871
 20
-58.988788562334548
  0
ENDBLK
  0
ENDSEC
  0
SECTION
  2
ENTITIES
  0
TEXT
  8
_0-4_文字-記号
 62
    7
 10
163.9715515868694
 20
367.4198465923248
 40
10
 41
0.8
 50
0
  1
ＭＤ－４５
  0
LINE
  8
_0-3_躯体と製品
  6
CONTINUOUS
 62
    4
 10
213.85008058686947
 20
289.83987959232479
 11
220.85008058686947
 21
289.83987959232479
  0
LINE
  8
_0-3_躯体と製品
  6
CONTINUOUS
 62
    4
 10
213.15008058686954
 20
291.33987959232468
 11
221.55008058686963
 21
291.33987959232468
  0
LINE
  8
_0-3_躯体と製品
  6
CONTINUOUS
 62
    4
 10
76.231924586869525
 20
146.81779459232484
 11
76.231924586869525
 21
138.41779459232487
  0
LINE
  8
_0-3_躯体と製品
  6
CONTINUOUS
 62
    4
 10
74.731924586869525
 20
148.11779459232486
 11
74.731924586869525
 21
128.11779459232486
  0
LINE
  8
_0-3_躯体と製品
  6
CONTINUOUS
 62
    4
 10
-112.63949741313047
 20
146.81779459232484
 11
-112.63949741313047
 21
138.41779459232487
  0
LINE
  8
_0-3_躯体と製品
  6
CONTINUOUS
 62
    4
 10
-114.13949741313047
 20
148.11779459232486
 11
-114.13949741313047
 21
128.11779459232486
  0
TEXT
  8
_0-4_文字-記号
 62
    7
 10
-102.13497041313042
 20
-14.679671407675187
 40
10
 41
0.8
 50
0
  1
ＳＡ－１５２０
  0
TEXT
  8
_0-4_文字-記号
 62
    7
 10
-135.44032941313048
 20
11.741043592324843
 40
10
 41
0.8
 50
0
  1
スペースアングル
  0
LINE
  8
_0-3_躯体と製品
  6
CONTINUOUS
 62
    4
 10
-112.63949741313047
 20
129.61779459232486
 11
-26.339497413130516
 21
129.61779459232486
  0
LINE
  8
_0-3_躯体と製品
  6
CONTINUOUS
 62
    4
 10
-114.13949741313047
 20
128.11779459232486
 11
-24.139497413130414
 21
128.11779459232486
  0
LINE
  8
_0-3_躯体と製品
  6
CONTINUOUS
 62
    4
 10
-70.093362413130478
 20
-68.754590407675096
 11
-50.093362413130478
 21
-68.754590407675096
  0
LINE
  8
_0-3_躯体と製品
  6
CONTINUOUS
 62
    4
 10
-50.093362413130478
 20
-66.954590407675084
 11
-68.293362413130467
 21
-66.954590407675084
  0
LINE
  8
_0-3_躯体と製品
  6
CONTINUOUS
 62
    4
 10
-70.093362413130478
 20
-68.754590407675096
 11
-70.093362413130478
 21
-53.754590407675096
  0
LINE
  8
_0-3_躯体と製品
  6
CONTINUOUS
 62
    4
 10
-68.293362413130467
 20
-66.954590407675084
 11
-68.293362413130467
 21
-53.754590407675096
  0
LINE
  8
_0-3_躯体と製品
  6
CONTINUOUS
 62
    4
 10
-70.093362413130478
 20
-53.754590407675096
 11
-68.293362413130467
 21
-53.754590407675096
  0
LINE
  8
_0-3_躯体と製品
  6
CONTINUOUS
 62
    4
 10
-50.093362413130478
 20
-68.754590407675096
 11
-50.093362413130478
 21
-66.954590407675084
  0
LINE
  8
_0-3_躯体と製品
  6
CONTINUOUS
 62
    4
 10
-112.63949741313047
 20
137.81779459232484
 11
-112.63949741313047
 21
129.61779459232486
  0
LINE
  8
_0-3_躯体と製品
  6
CONTINUOUS
 62
    4
 10
-112.93949741313048
 20
138.11779459232486
 11
-112.63949741313047
 21
137.81779459232484
  0
LINE
  8
_0-3_躯体と製品
  6
CONTINUOUS
 62
    4
 10
-112.93949741313048
 20
138.11779459232486
 11
-112.63949741313047
 21
138.41779459232487
  0
LINE
  8
_0-3_躯体と製品
  6
CONTINUOUS
 62
    4
 10
116.68070258686942
 20
-63.487736407675101
 11
156.68070258686953
 21
-63.487736407675101
  0
LINE
  8
_0-3_躯体と製品
  6
CONTINUOUS
 62
    4
 10
156.68070258686953
 20
-61.687736407675118
 11
118.48070258686948
 21
-61.687736407675118
  0
LINE
  8
_0-3_躯体と製品
  6
CONTINUOUS
 62
    4
 10
116.68070258686942
 20
-63.487736407675101
 11
116.68070258686942
 21
-43.487736407675101
  0
LINE
  8
_0-3_躯体と製品
  6
CONTINUOUS
 62
    4
 10
118.48070258686948
 20
-61.687736407675118
 11
118.48070258686948
 21
-43.487736407675101
  0
LINE
  8
_0-3_躯体と製品
  6
CONTINUOUS
 62
    4
 10
116.68070258686942
 20
-43.487736407675101
 11
118.48070258686948
 21
-43.487736407675101
  0
LINE
  8
_0-3_躯体と製品
  6
CONTINUOUS
 62
    4
 10
156.68070258686953
 20
-63.487736407675101
 11
156.68070258686953
 21
-61.687736407675118
  0
TEXT
  8
_0-4_文字-記号
 62
    7
 10
85.00585258686948
 20
-9.4128254076751432
 40
10
 41
0.8
 50
0
  1
ＳＡ－２０４０
  0
LINE
  8
_0-3_躯体と製品
  6
CONTINUOUS
 62
    4
 10
76.231924586869525
 20
129.61779459232486
 11
155.93192458686963
 21
129.61779459232486
  0
LINE
  8
_0-3_躯体と製品
  6
CONTINUOUS
 62
    4
 10
74.731924586869525
 20
128.11779459232486
 11
184.73192458686947
 21
128.11779459232486
  0
ARC
  8
_0-3_躯体と製品
  6
CONTINUOUS
 62
    4
 10
-16.439497413130482
 20
134.01779459232483
 40
0.5
 50
0
 51
90
  0
LINE
  8
_0-3_躯体と製品
  6
CONTINUOUS
 62
    4
 10
-7.1394974131304707
 20
129.81779459232484
 11
-16.639497413130471
 21
129.81779459232484
  0
ARC
  8
_0-3_躯体と製品
  6
CONTINUOUS
 62
    4
 10
-16.639497413130471
 20
130.31779459232484
 40
0.5
 50
180
 51
270
  0
LINE
  8
_0-3_躯体と製品
  6
CONTINUOUS
 62
    4
 10
-24.139497413130414
 20
133.01779459232483
 11
-24.139497413130414
 21
128.11779459232486
  0
ARC
  8
_0-3_躯体と製品
  6
CONTINUOUS
 62
    4
 10
-26.339497413130516
 20
130.61779459232486
 40
1
 50
270
 51
0
  0
LINE
  8
_0-3_躯体と製品
  6
CONTINUOUS
 62
    4
 10
-24.839497413130516
 20
134.51779459232483
 11
-16.439497413130482
 21
134.51779459232483
  0
LINE
  8
_0-3_躯体と製品
  6
CONTINUOUS
 62
    4
 10
-25.339497413130402
 20
134.01779459232483
 11
-25.339497413130402
 21
130.61779459232486
  0
ARC
  8
_0-3_躯体と製品
  6
CONTINUOUS
 62
    4
 10
-24.839497413130516
 20
134.01779459232483
 40
0.5
 50
90
 51
180
  0
LINE
  8
_0-3_躯体と製品
  6
CONTINUOUS
 62
    4
 10
-17.139497413130471
 20
133.01779459232483
 11
-17.139497413130471
 21
130.31779459232484
  0
LINE
  8
_0-3_躯体と製品
  6
CONTINUOUS
 62
    4
 10
-24.139497413130414
 20
133.01779459232483
 11
-17.139497413130471
 21
133.01779459232483
  0
LINE
  8
_0-3_躯体と製品
  6
CONTINUOUS
 62
    4
 10
-7.1394974131304707
 20
131.81779459232484
 11
-7.1394974131304707
 21
129.81779459232484
  0
LINE
  8
_0-3_躯体と製品
  6
CONTINUOUS
 62
    4
 10
-15.939497413130482
 20
131.81779459232484
 11
-7.1394974131304707
 21
131.81779459232484
  0
LINE
  8
_0-3_躯体と製品
  6
CONTINUOUS
 62
    4
 10
-15.939497413130482
 20
131.81779459232484
 11
-15.939497413130482
 21
134.01779459232483
  0
LINE
  8
_0-3_躯体と製品
  6
CONTINUOUS
 62
    4
 10
76.231924586869525
 20
137.81779459232484
 11
76.231924586869525
 21
129.61779459232486
  0
LINE
  8
_0-3_躯体と製品
  6
CONTINUOUS
 62
    4
 10
75.931924586869513
 20
138.11779459232486
 11
76.231924586869525
 21
137.81779459232484
  0
LINE
  8
_0-3_躯体と製品
  6
CONTINUOUS
 62
    4
 10
75.931924586869513
 20
138.11779459232486
 11
76.231924586869525
 21
138.41779459232487
  0
TEXT
  8
_0-4_文字-記号
 62
    7
 10
139.63048658686955
 20
-19.695174407675154
 40
10
 41
0.8
 50
0
  1
（受注対応品）
  0
LINE
  8
_0-3_躯体と製品
  6
CONTINUOUS
 62
    4
 10
157.13192458686956
 20
129.61779459232486
 11
183.53192458686954
 21
129.61779459232486
  0
LINE
  8
_0-3_躯体と製品
  6
CONTINUOUS
 62
    4
 10
157.13192458686956
 20
131.61779459232486
 11
159.13192458686956
 21
131.61779459232486
  0
LINE
  8
_0-3_躯体と製品
  6
CONTINUOUS
 62
    4
 10
159.13192458686956
 20
132.81779459232484
 11
156.43192458686963
 21
132.81779459232484
  0
LINE
  8
_0-3_躯体と製品
  6
CONTINUOUS
 62
    4
 10
157.13192458686956
 20
131.61779459232486
 11
157.13192458686956
 21
129.61779459232486
  0
LINE
  8
_0-3_躯体と製品
  6
CONTINUOUS
 62
    4
 10
155.93192458686963
 20
129.61779459232486
 11
155.93192458686963
 21
132.31779459232484
  0
ARC
  8
_0-3_躯体と製品
  6
CONTINUOUS
 62
    4
 10
156.43192458686963
 20
132.31779459232484
 40
0.5
 50
90
 51
180
  0
LINE
  8
_0-3_躯体と製品
  6
CONTINUOUS
 62
    4
 10
184.73192458686947
 20
133.01779459232483
 11
191.73192458686947
 21
133.01779459232483
  0
LINE
  8
_0-3_躯体と製品
  6
CONTINUOUS
 62
    4
 10
184.03192458686954
 20
134.51779459232483
 11
192.43192458686963
 21
134.51779459232483
  0
ARC
  8
_0-3_躯体と製品
  6
CONTINUOUS
 62
    4
 10
159.13192458686956
 20
132.21779459232482
 40
0.5999999999999999
 50
270
 51
90
  0
LINE
  8
_0-3_躯体と製品
  6
CONTINUOUS
 62
    4
 10
184.73192458686947
 20
133.01779459232483
 11
184.73192458686947
 21
128.11779459232486
  0
LINE
  8
_0-3_躯体と製品
  6
CONTINUOUS
 62
    4
 10
183.53192458686954
 20
131.61779459232486
 11
183.53192458686954
 21
129.61779459232486
  0
ARC
  8
_0-3_躯体と製品
  6
CONTINUOUS
 62
    4
 10
181.33192458686938
 20
132.21779459232482
 40
0.5999999999999999
 50
90
 51
270
  0
LINE
  8
_0-3_躯体と製品
  6
CONTINUOUS
 62
    4
 10
183.53192458686954
 20
134.01779459232483
 11
183.53192458686954
 21
132.81779459232484
  0
ARC
  8
_0-3_躯体と製品
  6
CONTINUOUS
 62
    4
 10
184.03192458686954
 20
134.01779459232483
 40
0.5
 50
90
 51
180
  0
LINE
  8
_0-3_躯体と製品
  6
CONTINUOUS
 62
    4
 10
181.33192458686938
 20
131.61779459232486
 11
183.53192458686954
 21
131.61779459232486
  0
LINE
  8
_0-3_躯体と製品
  6
CONTINUOUS
 62
    4
 10
181.33192458686938
 20
132.81779459232484
 11
183.53192458686954
 21
132.81779459232484
  0
LINE
  8
_0-3_躯体と製品
  6
CONTINUOUS
 62
    4
 10
201.73192458686947
 20
131.81779459232484
 11
201.73192458686947
 21
129.81779459232484
  0
ARC
  8
_0-3_躯体と製品
  6
CONTINUOUS
 62
    4
 10
192.23192458686947
 20
130.31779459232484
 40
0.5
 50
180
 51
270
  0
LINE
  8
_0-3_躯体と製品
  6
CONTINUOUS
 62
    4
 10
201.73192458686947
 20
129.81779459232484
 11
192.23192458686947
 21
129.81779459232484
  0
LINE
  8
_0-3_躯体と製品
  6
CONTINUOUS
 62
    4
 10
192.93192458686963
 20
131.81779459232484
 11
201.73192458686947
 21
131.81779459232484
  0
LINE
  8
_0-3_躯体と製品
  6
CONTINUOUS
 62
    4
 10
192.93192458686963
 20
131.81779459232484
 11
192.93192458686963
 21
134.01779459232483
  0
ARC
  8
_0-3_躯体と製品
  6
CONTINUOUS
 62
    4
 10
192.43192458686963
 20
134.01779459232483
 40
0.5
 50
0
 51
90
  0
LINE
  8
_0-3_躯体と製品
  6
CONTINUOUS
 62
    4
 10
191.73192458686947
 20
133.01779459232483
 11
191.73192458686947
 21
130.31779459232484
  0
TEXT
  8
_0-4_文字-記号
 62
    7
 10
-85.883185413130491
 20
356.56901659232483
 40
10
 41
0.8
 50
0
  1
（受注対応品）
  0
TEXT
  8
_0-4_文字-記号
 62
    7
 10
-126.71168041313047
 20
197.75422759232481
 40
10
 41
0.8
 50
0
  1
ＭＤ－９０
  0
LINE
  8
_0-3_躯体と製品
  6
CONTINUOUS
 62
    4
 10
-112.63949741313047
 20
146.81779459232484
 11
-109.13949741313047
 21
146.81779459232484
  0
LINE
  8
_0-3_躯体と製品
  6
CONTINUOUS
 62
    4
 10
-114.13949741313047
 20
148.11779459232486
 11
-109.13949741313047
 21
148.11779459232486
  0
LINE
  8
_0-3_躯体と製品
  6
CONTINUOUS
 62
    4
 10
-109.13949741313047
 20
148.11779459232486
 11
-109.13949741313047
 21
146.81779459232484
  0
LINE
  8
_0-3_躯体と製品
  6
CONTINUOUS
 62
    4
 10
-65.997160413130416
 20
289.83987959232479
 11
-58.997160413130473
 21
289.83987959232479
  0
LINE
  8
_0-3_躯体と製品
  6
CONTINUOUS
 62
    4
 10
-66.697160413130518
 20
291.33987959232468
 11
-58.297160413130484
 21
291.33987959232468
  0
LINE
  8
_0-3_躯体と製品
  6
CONTINUOUS
 62
    4
 10
-79.497160413130473
 20
303.63987959232469
 11
-79.497160413130473
 21
295.23987959232477
  0
LINE
  8
_0-3_躯体と製品
  6
CONTINUOUS
 62
    4
 10
-80.997160413130473
 20
304.93987959232481
 11
-80.997160413130473
 21
284.93987959232481
  0
LINE
  8
_0-3_躯体と製品
  6
CONTINUOUS
 62
    4
 10
-79.497160413130473
 20
286.43987959232481
 11
-68.197160413130518
 21
286.43987959232481
  0
LINE
  8
_0-3_躯体と製品
  6
CONTINUOUS
 62
    4
 10
-80.997160413130473
 20
284.93987959232481
 11
-65.997160413130416
 21
284.93987959232481
  0
LINE
  8
_0-3_躯体と製品
  6
CONTINUOUS
 62
    4
 10
-79.797160413130484
 20
294.93987959232481
 11
-79.497160413130473
 21
294.6398795923248
  0
LINE
  8
_0-3_躯体と製品
  6
CONTINUOUS
 62
    4
 10
-79.797160413130484
 20
294.93987959232481
 11
-79.497160413130473
 21
295.23987959232477
  0
LINE
  8
_0-3_躯体と製品
  6
CONTINUOUS
 62
    4
 10
-79.497160413130473
 20
294.6398795923248
 11
-79.497160413130473
 21
286.43987959232481
  0
LINE
  8
_0-3_躯体と製品
  6
CONTINUOUS
 62
    4
 10
-65.997160413130416
 20
289.83987959232479
 11
-65.997160413130416
 21
284.93987959232481
  0
LINE
  8
_0-3_躯体と製品
  6
CONTINUOUS
 62
    4
 10
-67.197160413130405
 20
290.83987959232468
 11
-67.197160413130405
 21
287.43987959232481
  0
ARC
  8
_0-3_躯体と製品
  6
CONTINUOUS
 62
    4
 10
-66.697160413130518
 20
290.83987959232468
 40
0.5
 50
90
 51
180
  0
ARC
  8
_0-3_躯体と製品
  6
CONTINUOUS
 62
    4
 10
-68.197160413130518
 20
287.43987959232481
 40
1
 50
270
 51
0
  0
LINE
  8
_0-3_躯体と製品
  6
CONTINUOUS
 62
    4
 10
-79.497160413130473
 20
303.63987959232469
 11
-75.997160413130473
 21
303.63987959232469
  0
LINE
  8
_0-3_躯体と製品
  6
CONTINUOUS
 62
    4
 10
-80.997160413130473
 20
304.93987959232481
 11
-75.997160413130473
 21
304.93987959232481
  0
LINE
  8
_0-3_躯体と製品
  6
CONTINUOUS
 62
    4
 10
-75.997160413130473
 20
304.93987959232481
 11
-75.997160413130473
 21
303.63987959232469
  0
LINE
  8
_0-3_躯体と製品
  6
CONTINUOUS
 62
    4
 10
-57.797160413130484
 20
288.6398795923248
 11
-48.997160413130473
 21
288.6398795923248
  0
LINE
  8
_0-3_躯体と製品
  6
CONTINUOUS
 62
    4
 10
-48.997160413130473
 20
286.6398795923248
 11
-58.497160413130473
 21
286.6398795923248
  0
LINE
  8
_0-3_躯体と製品
  6
CONTINUOUS
 62
    4
 10
-57.797160413130484
 20
288.6398795923248
 11
-57.797160413130484
 21
290.83987959232468
  0
ARC
  8
_0-3_躯体と製品
  6
CONTINUOUS
 62
    4
 10
-58.297160413130484
 20
290.83987959232468
 40
0.5
 50
0
 51
90
  0
ARC
  8
_0-3_躯体と製品
  6
CONTINUOUS
 62
    4
 10
-58.497160413130473
 20
287.13987959232469
 40
0.5
 50
180
 51
270
  0
LINE
  8
_0-3_躯体と製品
  6
CONTINUOUS
 62
    4
 10
-58.997160413130473
 20
289.83987959232479
 11
-58.997160413130473
 21
287.13987959232469
  0
LINE
  8
_0-3_躯体と製品
  6
CONTINUOUS
 62
    4
 10
-48.997160413130473
 20
288.6398795923248
 11
-48.997160413130473
 21
286.6398795923248
  0
TEXT
  8
_0-4_文字-記号
 62
    7
 10
-118.74579541313051
 20
367.4198465923248
 40
10
 41
0.8
 50
0
  1
ＭＤ－１５
  0
TEXT
  8
_0-4_文字-記号
 62
    7
 10
-148.3322554131305
 20
391.40596059232479
 40
10
 41
0.8
 50
0
  1
スペースカバー
  0
TEXT
  8
_0-4_文字-記号
 62
    7
 10
67.27184458686952
 20
198.0682835923248
 40
10
 41
0.8
 50
0
  1
ＭＤ－１１０
  0
LINE
  8
_0-3_躯体と製品
  6
CONTINUOUS
 62
    4
 10
76.231924586869525
 20
146.81779459232484
 11
79.731924586869525
 21
146.81779459232484
  0
LINE
  8
_0-3_躯体と製品
  6
CONTINUOUS
 62
    4
 10
74.731924586869525
 20
148.11779459232486
 11
79.731924586869525
 21
148.11779459232486
  0
LINE
  8
_0-3_躯体と製品
  6
CONTINUOUS
 62
    4
 10
79.731924586869525
 20
148.11779459232486
 11
79.731924586869525
 21
146.81779459232484
  0
LINE
  8
_0-3_躯体と製品
  6
CONTINUOUS
 62
    4
 10
39.016915586869516
 20
286.43987959232481
 11
70.316915586869527
 21
286.43987959232481
  0
LINE
  8
_0-3_躯体と製品
  6
CONTINUOUS
 62
    4
 10
37.516915586869629
 20
284.93987959232481
 11
72.516915586869516
 21
284.93987959232481
  0
LINE
  8
_0-3_躯体と製品
  6
CONTINUOUS
 62
    4
 10
39.016915586869516
 20
303.63987959232469
 11
39.016915586869516
 21
295.23987959232477
  0
LINE
  8
_0-3_躯体と製品
  6
CONTINUOUS
 62
    4
 10
37.516915586869629
 20
304.93987959232481
 11
37.516915586869629
 21
284.93987959232481
  0
LINE
  8
_0-3_躯体と製品
  6
CONTINUOUS
 62
    4
 10
38.716915586869618
 20
294.93987959232481
 11
39.016915586869516
 21
294.6398795923248
  0
LINE
  8
_0-3_躯体と製品
  6
CONTINUOUS
 62
    4
 10
38.716915586869618
 20
294.93987959232481
 11
39.016915586869516
 21
295.23987959232477
  0
LINE
  8
_0-3_躯体と製品
  6
CONTINUOUS
 62
    4
 10
39.016915586869516
 20
294.6398795923248
 11
39.016915586869516
 21
286.43987959232481
  0
LINE
  8
_0-3_躯体と製品
  6
CONTINUOUS
 62
    4
 10
37.516915586869629
 20
304.93987959232481
 11
42.516915586869516
 21
304.93987959232481
  0
LINE
  8
_0-3_躯体と製品
  6
CONTINUOUS
 62
    4
 10
39.016915586869516
 20
303.63987959232469
 11
42.516915586869516
 21
303.63987959232469
  0
LINE
  8
_0-3_躯体と製品
  6
CONTINUOUS
 62
    4
 10
42.516915586869516
 20
304.93987959232481
 11
42.516915586869516
 21
303.63987959232469
  0
LINE
  8
_0-3_躯体と製品
  6
CONTINUOUS
 62
    4
 10
72.516915586869516
 20
289.83987959232479
 11
79.516915586869516
 21
289.83987959232479
  0
LINE
  8
_0-3_躯体と製品
  6
CONTINUOUS
 62
    4
 10
71.816915586869584
 20
291.33987959232468
 11
80.216915586869504
 21
291.33987959232468
  0
LINE
  8
_0-3_躯体と製品
  6
CONTINUOUS
 62
    4
 10
72.516915586869516
 20
289.83987959232479
 11
72.516915586869516
 21
284.93987959232481
  0
ARC
  8
_0-3_躯体と製品
  6
CONTINUOUS
 62
    4
 10
70.316915586869527
 20
287.43987959232481
 40
1
 50
270
 51
0
  0
LINE
  8
_0-3_躯体と製品
  6
CONTINUOUS
 62
    4
 10
71.316915586869584
 20
290.83987959232468
 11
71.316915586869584
 21
287.43987959232481
  0
ARC
  8
_0-3_躯体と製品
  6
CONTINUOUS
 62
    4
 10
71.816915586869584
 20
290.83987959232468
 40
0.5
 50
90
 51
180
  0
LINE
  8
_0-3_躯体と製品
  6
CONTINUOUS
 62
    4
 10
80.716915586869504
 20
288.6398795923248
 11
89.516915586869516
 21
288.6398795923248
  0
LINE
  8
_0-3_躯体と製品
  6
CONTINUOUS
 62
    4
 10
89.516915586869516
 20
286.6398795923248
 11
80.016915586869516
 21
286.6398795923248
  0
LINE
  8
_0-3_躯体と製品
  6
CONTINUOUS
 62
    4
 10
80.716915586869504
 20
288.6398795923248
 11
80.716915586869504
 21
290.83987959232468
  0
ARC
  8
_0-3_躯体と製品
  6
CONTINUOUS
 62
    4
 10
80.216915586869504
 20
290.83987959232468
 40
0.5
 50
0
 51
90
  0
ARC
  8
_0-3_躯体と製品
  6
CONTINUOUS
 62
    4
 10
80.016915586869516
 20
287.13987959232469
 40
0.5
 50
180
 51
270
  0
LINE
  8
_0-3_躯体と製品
  6
CONTINUOUS
 62
    4
 10
79.516915586869516
 20
289.83987959232479
 11
79.516915586869516
 21
287.13987959232469
  0
LINE
  8
_0-3_躯体と製品
  6
CONTINUOUS
 62
    4
 10
89.516915586869516
 20
288.6398795923248
 11
89.516915586869516
 21
286.6398795923248
  0
TEXT
  8
_0-4_文字-記号
 62
    7
 10
116.11266458686953
 20
186.91261359232482
 40
10
 41
0.8
 50
0
  1
（受注対応品）
  0
LINE
  8
_0-3_躯体と製品
  6
CONTINUOUS
 62
    4
 10
170.35008058686958
 20
286.43987959232481
 11
211.65008058686954
 21
286.43987959232481
  0
LINE
  8
_0-3_躯体と製品
  6
CONTINUOUS
 62
    4
 10
168.85008058686947
 20
284.93987959232481
 11
213.85008058686947
 21
284.93987959232481
  0
LINE
  8
_0-3_躯体と製品
  6
CONTINUOUS
 62
    4
 10
170.35008058686958
 20
303.63987959232469
 11
170.35008058686958
 21
295.23987959232477
  0
LINE
  8
_0-3_躯体と製品
  6
CONTINUOUS
 62
    4
 10
168.85008058686947
 20
304.93987959232481
 11
168.85008058686947
 21
284.93987959232481
  0
LINE
  8
_0-3_躯体と製品
  6
CONTINUOUS
 62
    4
 10
170.05008058686951
 20
294.93987959232481
 11
170.35008058686958
 21
294.6398795923248
  0
LINE
  8
_0-3_躯体と製品
  6
CONTINUOUS
 62
    4
 10
170.05008058686951
 20
294.93987959232481
 11
170.35008058686958
 21
295.23987959232477
  0
LINE
  8
_0-3_躯体と製品
  6
CONTINUOUS
 62
    4
 10
170.35008058686958
 20
294.6398795923248
 11
170.35008058686958
 21
286.43987959232481
  0
LINE
  8
_0-3_躯体と製品
  6
CONTINUOUS
 62
    4
 10
170.35008058686958
 20
303.63987959232469
 11
173.85008058686958
 21
303.63987959232469
  0
LINE
  8
_0-3_躯体と製品
  6
CONTINUOUS
 62
    4
 10
168.85008058686947
 20
304.93987959232481
 11
173.85008058686958
 21
304.93987959232481
  0
LINE
  8
_0-3_躯体と製品
  6
CONTINUOUS
 62
    4
 10
173.85008058686958
 20
304.93987959232481
 11
173.85008058686958
 21
303.63987959232469
  0
LINE
  8
_0-3_躯体と製品
  6
CONTINUOUS
 62
    4
 10
213.85008058686947
 20
289.83987959232479
 11
213.85008058686947
 21
284.93987959232481
  0
ARC
  8
_0-3_躯体と製品
  6
CONTINUOUS
 62
    4
 10
211.65008058686954
 20
287.43987959232481
 40
1
 50
270
 51
0
  0
LINE
  8
_0-3_躯体と製品
  6
CONTINUOUS
 62
    4
 10
212.65008058686954
 20
290.83987959232468
 11
212.65008058686954
 21
287.43987959232481
  0
ARC
  8
_0-3_躯体と製品
  6
CONTINUOUS
 62
    4
 10
213.15008058686954
 20
290.83987959232468
 40
0.5
 50
90
 51
180
  0
TEXT
  8
_0-4_文字-記号
 62
    7
 10
21.089654586869415
 20
367.4198465923248
 40
10
 41
0.8
 50
0
  1
ＭＤ－３５
  0
TEXT
  8
_0-4_文字-記号
 62
    7
 10
452.61080258686957
 20
-13.383467407675198
 40
10
 41
0.8
 50
0
  1
ＺＡ－２０１５
  0
LINE
  8
_0-3_躯体と製品
  6
CONTINUOUS
 62
    4
 10
336.25919358686951
 20
-73.638093407675115
 11
371.2591935868694
 21
-73.638093407675115
  0
LINE
  8
_0-3_躯体と製品
  6
CONTINUOUS
 62
    4
 10
371.2591935868694
 20
-71.838093407675103
 11
338.05919358686947
 21
-71.838093407675103
  0
LINE
  8
_0-3_躯体と製品
  6
CONTINUOUS
 62
    4
 10
336.25919358686951
 20
-73.638093407675115
 11
336.25919358686951
 21
-43.638093407675115
  0
LINE
  8
_0-3_躯体と製品
  6
CONTINUOUS
 62
    4
 10
338.05919358686947
 20
-71.838093407675103
 11
338.05919358686947
 21
-43.638093407675115
  0
LINE
  8
_0-3_躯体と製品
  6
CONTINUOUS
 62
    4
 10
336.25919358686951
 20
-43.638093407675115
 11
338.05919358686947
 21
-43.638093407675115
  0
LINE
  8
_0-3_躯体と製品
  6
CONTINUOUS
 62
    4
 10
371.2591935868694
 20
-73.638093407675115
 11
371.2591935868694
 21
-71.838093407675103
  0
TEXT
  8
_0-4_文字-記号
 62
    7
 10
329.54689958686959
 20
-17.608596407675179
 40
10
 41
0.8
 50
0
  1
（受注対応品）
  0
TEXT
  8
_0-4_文字-記号
 62
    7
 10
277.28191458686956
 20
-5.6743614076751783
 40
10
 41
0.8
 50
0
  1
ＳＡ－３０３５
  0
LINE
  8
_0-3_躯体と製品
  6
CONTINUOUS
 62
    4
 10
494.76502958686956
 20
-58.895444407675086
 11
511.56502958686951
 21
-58.895444407675086
  0
LINE
  8
_0-3_躯体と製品
  6
CONTINUOUS
 62
    4
 10
496.5650295868694
 20
-60.395444407675086
 11
511.56502958686951
 21
-60.395444407675086
  0
LINE
  8
_0-3_躯体と製品
  6
CONTINUOUS
 62
    4
 10
494.76502958686956
 20
-63.595444407675103
 11
476.56502958686951
 21
-63.595444407675103
  0
LINE
  8
_0-3_躯体と製品
  6
CONTINUOUS
 62
    4
 10
476.56502958686951
 20
-65.395444407675086
 11
496.5650295868694
 21
-65.395444407675086
  0
LINE
  8
_0-3_躯体と製品
  6
CONTINUOUS
 62
    4
 10
476.56502958686951
 20
-63.595444407675103
 11
476.56502958686951
 21
-65.395444407675086
  0
LINE
  8
_0-3_躯体と製品
  6
CONTINUOUS
 62
    4
 10
494.76502958686956
 20
-63.595444407675103
 11
494.76502958686956
 21
-58.895444407675086
  0
LINE
  8
_0-3_躯体と製品
  6
CONTINUOUS
 62
    4
 10
496.5650295868694
 20
-65.395444407675086
 11
496.5650295868694
 21
-60.395444407675086
  0
LINE
  8
_0-3_躯体と製品
  6
CONTINUOUS
 62
    4
 10
511.56502958686951
 20
-60.395444407675086
 11
511.56502958686951
 21
-58.895444407675086
  0
TEXT
  8
_0-4_文字-記号
 62
    7
 10
507.00423558686964
 20
-26.476088407675178
 40
10
 41
0.8
 50
0
  1
（受注対応品）
  0
TEXT
  8
_0-4_文字-記号
 62
    7
 10
453.14803458686947
 20
370.23072859232479
 40
10
 41
0.8
 50
0
  1
ＭＤ－７５
  0
LINE
  8
_0-3_躯体と製品
  6
CONTINUOUS
 62
    4
 10
449.96805958686957
 20
285.42762759232477
 11
521.26805958686953
 21
285.42762759232477
  0
LINE
  8
_0-3_躯体と製品
  6
CONTINUOUS
 62
    4
 10
448.46805958686946
 20
283.92762759232477
 11
523.46805958686946
 21
283.92762759232477
  0
LINE
  8
_0-3_躯体と製品
  6
CONTINUOUS
 62
    4
 10
314.09615458686937
 20
286.43987959232481
 11
370.39615458686956
 21
286.43987959232481
  0
LINE
  8
_0-3_躯体と製品
  6
CONTINUOUS
 62
    4
 10
312.59615458686949
 20
284.93987959232481
 11
372.59615458686949
 21
284.93987959232481
  0
LINE
  8
_0-3_躯体と製品
  6
CONTINUOUS
 62
    4
 10
222.05008058686963
 20
288.6398795923248
 11
230.85008058686947
 21
288.6398795923248
  0
LINE
  8
_0-3_躯体と製品
  6
CONTINUOUS
 62
    4
 10
230.85008058686947
 20
286.6398795923248
 11
221.35008058686947
 21
286.6398795923248
  0
LINE
  8
_0-3_躯体と製品
  6
CONTINUOUS
 62
    4
 10
222.05008058686963
 20
288.6398795923248
 11
222.05008058686963
 21
290.83987959232468
  0
ARC
  8
_0-3_躯体と製品
  6
CONTINUOUS
 62
    4
 10
221.55008058686963
 20
290.83987959232468
 40
0.5
 50
0
 51
90
  0
ARC
  8
_0-3_躯体と製品
  6
CONTINUOUS
 62
    4
 10
221.35008058686947
 20
287.13987959232469
 40
0.5
 50
180
 51
270
  0
LINE
  8
_0-3_躯体と製品
  6
CONTINUOUS
 62
    4
 10
220.85008058686947
 20
289.83987959232479
 11
220.85008058686947
 21
287.13987959232469
  0
LINE
  8
_0-3_躯体と製品
  6
CONTINUOUS
 62
    4
 10
230.85008058686947
 20
288.6398795923248
 11
230.85008058686947
 21
286.6398795923248
  0
LINE
  8
_0-3_躯体と製品
  6
CONTINUOUS
 62
    4
 10
314.09615458686937
 20
303.63987959232469
 11
317.59615458686937
 21
303.63987959232469
  0
LINE
  8
_0-3_躯体と製品
  6
CONTINUOUS
 62
    4
 10
312.59615458686949
 20
304.93987959232481
 11
317.59615458686937
 21
304.93987959232481
  0
LINE
  8
_0-3_躯体と製品
  6
CONTINUOUS
 62
    4
 10
314.09615458686937
 20
303.63987959232469
 11
314.09615458686937
 21
295.23987959232477
  0
LINE
  8
_0-3_躯体と製品
  6
CONTINUOUS
 62
    4
 10
312.59615458686949
 20
304.93987959232481
 11
312.59615458686949
 21
284.93987959232481
  0
LINE
  8
_0-3_躯体と製品
  6
CONTINUOUS
 62
    4
 10
313.79615458686953
 20
294.93987959232481
 11
314.09615458686937
 21
294.6398795923248
  0
LINE
  8
_0-3_躯体と製品
  6
CONTINUOUS
 62
    4
 10
313.79615458686953
 20
294.93987959232481
 11
314.09615458686937
 21
295.23987959232477
  0
LINE
  8
_0-3_躯体と製品
  6
CONTINUOUS
 62
    4
 10
314.09615458686937
 20
294.6398795923248
 11
314.09615458686937
 21
286.43987959232481
  0
LINE
  8
_0-3_躯体と製品
  6
CONTINUOUS
 62
    4
 10
317.59615458686937
 20
304.93987959232481
 11
317.59615458686937
 21
303.63987959232469
  0
LINE
  8
_0-3_躯体と製品
  6
CONTINUOUS
 62
    4
 10
372.59615458686949
 20
289.83987959232479
 11
379.59615458686949
 21
289.83987959232479
  0
LINE
  8
_0-3_躯体と製品
  6
CONTINUOUS
 62
    4
 10
371.89615458686956
 20
291.33987959232468
 11
380.29615458686953
 21
291.33987959232468
  0
LINE
  8
_0-3_躯体と製品
  6
CONTINUOUS
 62
    4
 10
372.59615458686949
 20
289.83987959232479
 11
372.59615458686949
 21
284.93987959232481
  0
LINE
  8
_0-3_躯体と製品
  6
CONTINUOUS
 62
    4
 10
371.39615458686956
 20
290.83987959232468
 11
371.39615458686956
 21
287.43987959232481
  0
ARC
  8
_0-3_躯体と製品
  6
CONTINUOUS
 62
    4
 10
371.89615458686956
 20
290.83987959232468
 40
0.5
 50
90
 51
180
  0
ARC
  8
_0-3_躯体と製品
  6
CONTINUOUS
 62
    4
 10
370.39615458686956
 20
287.43987959232481
 40
1
 50
270
 51
0
  0
LINE
  8
_0-3_躯体と製品
  6
CONTINUOUS
 62
    4
 10
380.79615458686953
 20
288.6398795923248
 11
389.5961545868696
 21
288.6398795923248
  0
LINE
  8
_0-3_躯体と製品
  6
CONTINUOUS
 62
    4
 10
389.5961545868696
 20
286.6398795923248
 11
380.09615458686949
 21
286.6398795923248
  0
LINE
  8
_0-3_躯体と製品
  6
CONTINUOUS
 62
    4
 10
380.79615458686953
 20
288.6398795923248
 11
380.79615458686953
 21
290.83987959232468
  0
ARC
  8
_0-3_躯体と製品
  6
CONTINUOUS
 62
    4
 10
380.29615458686953
 20
290.83987959232468
 40
0.5
 50
0
 51
90
  0
ARC
  8
_0-3_躯体と製品
  6
CONTINUOUS
 62
    4
 10
380.09615458686949
 20
287.13987959232469
 40
0.5
 50
180
 51
270
  0
LINE
  8
_0-3_躯体と製品
  6
CONTINUOUS
 62
    4
 10
379.59615458686949
 20
289.83987959232479
 11
379.59615458686949
 21
287.13987959232469
  0
LINE
  8
_0-3_躯体と製品
  6
CONTINUOUS
 62
    4
 10
389.5961545868696
 20
288.6398795923248
 11
389.5961545868696
 21
286.6398795923248
  0
LINE
  8
_0-3_躯体と製品
  6
CONTINUOUS
 62
    4
 10
449.96805958686957
 20
302.62762759232481
 11
449.96805958686957
 21
294.22762759232478
  0
LINE
  8
_0-3_躯体と製品
  6
CONTINUOUS
 62
    4
 10
448.46805958686946
 20
303.92762759232477
 11
448.46805958686946
 21
283.92762759232477
  0
LINE
  8
_0-3_躯体と製品
  6
CONTINUOUS
 62
    4
 10
449.96805958686957
 20
293.62762759232481
 11
449.96805958686957
 21
285.42762759232477
  0
LINE
  8
_0-3_躯体と製品
  6
CONTINUOUS
 62
    4
 10
449.6680595868695
 20
293.92762759232477
 11
449.96805958686957
 21
293.62762759232481
  0
LINE
  8
_0-3_躯体と製品
  6
CONTINUOUS
 62
    4
 10
449.6680595868695
 20
293.92762759232477
 11
449.96805958686957
 21
294.22762759232478
  0
LINE
  8
_0-3_躯体と製品
  6
CONTINUOUS
 62
    4
 10
448.46805958686946
 20
303.92762759232477
 11
453.46805958686957
 21
303.92762759232477
  0
LINE
  8
_0-3_躯体と製品
  6
CONTINUOUS
 62
    4
 10
449.96805958686957
 20
302.62762759232481
 11
453.46805958686957
 21
302.62762759232481
  0
LINE
  8
_0-3_躯体と製品
  6
CONTINUOUS
 62
    4
 10
453.46805958686957
 20
303.92762759232477
 11
453.46805958686957
 21
302.62762759232481
  0
TEXT
  8
_0-4_文字-記号
 62
    7
 10
301.58861658686965
 20
368.57829359232483
 40
10
 41
0.8
 50
0
  1
ＭＤ－６０
  0
LINE
  8
_0-3_躯体と製品
  6
CONTINUOUS
 62
    4
 10
531.66805958686939
 20
287.62762759232481
 11
540.46805958686946
 21
287.62762759232481
  0
LINE
  8
_0-3_躯体と製品
  6
CONTINUOUS
 62
    4
 10
540.46805958686946
 20
285.62762759232481
 11
530.96805958686957
 21
285.62762759232481
  0
ARC
  8
_0-3_躯体と製品
  6
CONTINUOUS
 62
    4
 10
530.96805958686957
 20
286.12762759232481
 40
0.5
 50
180
 51
270
  0
LINE
  8
_0-3_躯体と製品
  6
CONTINUOUS
 62
    4
 10
523.46805958686946
 20
288.8276275923248
 11
523.46805958686946
 21
283.92762759232477
  0
ARC
  8
_0-3_躯体と製品
  6
CONTINUOUS
 62
    4
 10
521.26805958686953
 20
286.42762759232477
 40
1
 50
270
 51
0
  0
LINE
  8
_0-3_躯体と製品
  6
CONTINUOUS
 62
    4
 10
523.46805958686946
 20
288.8276275923248
 11
530.46805958686946
 21
288.8276275923248
  0
LINE
  8
_0-3_躯体と製品
  6
CONTINUOUS
 62
    4
 10
522.76805958686953
 20
290.3276275923248
 11
531.1680595868695
 21
290.3276275923248
  0
LINE
  8
_0-3_躯体と製品
  6
CONTINUOUS
 62
    4
 10
522.26805958686953
 20
289.8276275923248
 11
522.26805958686953
 21
286.42762759232477
  0
ARC
  8
_0-3_躯体と製品
  6
CONTINUOUS
 62
    4
 10
522.76805958686953
 20
289.8276275923248
 40
0.5
 50
90
 51
180
  0
LINE
  8
_0-3_躯体と製品
  6
CONTINUOUS
 62
    4
 10
531.66805958686939
 20
287.62762759232481
 11
531.66805958686939
 21
289.8276275923248
  0
ARC
  8
_0-3_躯体と製品
  6
CONTINUOUS
 62
    4
 10
531.1680595868695
 20
289.8276275923248
 40
0.5
 50
0
 51
90
  0
LINE
  8
_0-3_躯体と製品
  6
CONTINUOUS
 62
    4
 10
530.46805958686946
 20
288.8276275923248
 11
530.46805958686946
 21
286.12762759232481
  0
LINE
  8
_0-3_躯体と製品
  6
CONTINUOUS
 62
    4
 10
540.46805958686946
 20
287.62762759232481
 11
540.46805958686946
 21
285.62762759232481
  0
INSERT
  2
-001-_D4
  8
_0-2_寸法
 10
-385.77028884464789
 20
57.582132716993996
 41
2
 42
2
 50
0
  0
INSERT
  2
-002-_D5
  8
_0-2_寸法
 10
-385.77028884464789
 20
57.582132716993996
 41
2
 42
2
 50
0
  0
INSERT
  2
-003-_D6
  8
_0-2_寸法
 10
-385.77028884464789
 20
57.582132716993996
 41
2
 42
2
 50
0
  0
INSERT
  2
-004-_D7
  8
_0-2_寸法
 10
-385.77028884464789
 20
57.582132716993996
 41
2
 42
2
 50
0
  0
INSERT
  2
-005-_D8
  8
_0-2_寸法
 10
-385.77028884464789
 20
57.582132716993996
 41
2
 42
2
 50
0
  0
INSERT
  2
-006-_D9
  8
_0-2_寸法
 10
-385.77028884464789
 20
57.582132716993996
 41
2
 42
2
 50
0
  0
INSERT
  2
-007-_D10
  8
_0-2_寸法
 10
-385.77028884464789
 20
57.582132716993996
 41
2
 42
2
 50
0
  0
INSERT
  2
-008-_D11
  8
_0-2_寸法
 10
-385.77028884464789
 20
57.582132716993996
 41
2
 42
2
 50
0
  0
INSERT
  2
-009-_D12
  8
_0-2_寸法
 10
-385.77028884464789
 20
57.582132716993996
 41
2
 42
2
 50
0
  0
INSERT
  2
-010-_D13
  8
_0-2_寸法
 10
-385.77028884464789
 20
57.582132716993996
 41
2
 42
2
 50
0
  0
INSERT
  2
-011-_D14
  8
_0-2_寸法
 10
-385.77028884464789
 20
57.582132716993996
 41
2
 42
2
 50
0
  0
INSERT
  2
-012-_D15
  8
_0-2_寸法
 10
-385.77028884464789
 20
57.582132716993996
 41
2
 42
2
 50
0
  0
INSERT
  2
-013-_D16
  8
_0-2_寸法
 10
-385.77028884464789
 20
57.582132716993996
 41
2
 42
2
 50
0
  0
INSERT
  2
-014-_D17
  8
_0-2_寸法
 10
-385.77028884464789
 20
57.582132716993996
 41
2
 42
2
 50
0
  0
INSERT
  2
-015-_D18
  8
_0-2_寸法
 10
-385.77028884464789
 20
57.582132716993996
 41
2
 42
2
 50
0
  0
INSERT
  2
-016-_D19
  8
_0-2_寸法
 10
-385.77028884464789
 20
57.582132716993996
 41
2
 42
2
 50
0
  0
INSERT
  2
-017-_D20
  8
_0-2_寸法
 10
-385.77028884464789
 20
57.582132716993996
 41
2
 42
2
 50
0
  0
INSERT
  2
-018-_D21
  8
_0-2_寸法
 10
-385.77028884464789
 20
57.582132716993996
 41
2
 42
2
 50
0
  0
INSERT
  2
-019-_D22
  8
_0-2_寸法
 10
-385.77028884464789
 20
57.582132716993996
 41
2
 42
2
 50
0
  0
INSERT
  2
-020-_D23
  8
_0-2_寸法
 10
-385.77028884464789
 20
57.582132716993996
 41
2
 42
2
 50
0
  0
INSERT
  2
-021-_D24
  8
_0-2_寸法
 10
-385.77028884464789
 20
57.582132716993996
 41
2
 42
2
 50
0
  0
INSERT
  2
-022-_D25
  8
_0-2_寸法
 10
-385.77028884464789
 20
57.582132716993996
 41
2
 42
2
 50
0
  0
INSERT
  2
-023-_D26
  8
_0-2_寸法
 10
-385.77028884464789
 20
57.582132716993996
 41
2
 42
2
 50
0
  0
INSERT
  2
-024-_D27
  8
_0-2_寸法
 10
-385.77028884464789
 20
57.582132716993996
 41
2
 42
2
 50
0
  0
INSERT
  2
-025-_D28
  8
_0-2_寸法
 10
-385.77028884464789
 20
57.582132716993996
 41
2
 42
2
 50
0
  0
INSERT
  2
-026-_D29
  8
_0-2_寸法
 10
-385.77028884464789
 20
57.582132716993996
 41
2
 42
2
 50
0
  0
INSERT
  2
-027-_D30
  8
_0-2_寸法
 10
-385.77028884464789
 20
57.582132716993996
 41
2
 42
2
 50
0
  0
INSERT
  2
-028-_D31
  8
_0-2_寸法
 10
-385.77028884464789
 20
57.582132716993996
 41
2
 42
2
 50
0
  0
INSERT
  2
-029-_D32
  8
_0-2_寸法
 10
-385.77028884464789
 20
57.582132716993996
 41
2
 42
2
 50
0
  0
INSERT
  2
-030-_D33
  8
_0-2_寸法
 10
-385.77028884464789
 20
57.582132716993996
 41
2
 42
2
 50
0
  0
INSERT
  2
-031-_D34
  8
_0-2_寸法
 10
-385.77028884464789
 20
57.582132716993996
 41
2
 42
2
 50
0
  0
INSERT
  2
-032-_D35
  8
_0-2_寸法
 10
-385.77028884464789
 20
57.582132716993996
 41
2
 42
2
 50
0
  0
INSERT
  2
-033-_D36
  8
_0-2_寸法
 10
-385.77028884464789
 20
57.582132716993996
 41
2
 42
2
 50
0
  0
INSERT
  2
-034-_D37
  8
_0-2_寸法
 10
-385.77028884464789
 20
57.582132716993996
 41
2
 42
2
 50
0
  0
INSERT
  2
-035-_D38
  8
_0-2_寸法
 10
-385.77028884464789
 20
57.582132716993996
 41
2
 42
2
 50
0
  0
INSERT
  2
-036-_D39
  8
_0-2_寸法
 10
-385.77028884464789
 20
57.582132716993996
 41
2
 42
2
 50
0
  0
INSERT
  2
-037-_D40
  8
_0-2_寸法
 10
-385.77028884464789
 20
57.582132716993996
 41
2
 42
2
 50
0
  0
INSERT
  2
-038-_D41
  8
_0-2_寸法
 10
-385.77028884464789
 20
57.582132716993996
 41
2
 42
2
 50
0
  0
INSERT
  2
-039-_D42
  8
_0-2_寸法
 10
-385.77028884464789
 20
57.582132716993996
 41
2
 42
2
 50
0
  0
INSERT
  2
-040-_D43
  8
_0-2_寸法
 10
-385.77028884464789
 20
57.582132716993996
 41
2
 42
2
 50
0
  0
INSERT
  2
-041-_D44
  8
_0-2_寸法
 10
-385.77028884464789
 20
57.582132716993996
 41
2
 42
2
 50
0
  0
INSERT
  2
-042-_D45
  8
_0-2_寸法
 10
-385.77028884464789
 20
57.582132716993996
 41
2
 42
2
 50
0
  0
INSERT
  2
-043-_D46
  8
_0-2_寸法
 10
-385.77028884464789
 20
57.582132716993996
 41
2
 42
2
 50
0
  0
INSERT
  2
-044-_D47
  8
_0-2_寸法
 10
-385.77028884464789
 20
57.582132716993996
 41
2
 42
2
 50
0
  0
ENDSEC
  0
EOF
