  0
SECTION
  2
HEADER
  9
$ACADVER
  1
AC1009
  9
$INSBASE
 10
0
 20
0
 30
0
  9
$EXTMIN
 10
0
 20
0
  9
$EXTMAX
 10
420
 20
297
  9
$LIMMIN
 10
0
 20
0
  9
$LIMMAX
 10
420
 20
297
  9
$LTSCALE
 40
1
  0
ENDSEC
  0
SECTION
  2
TABLES
  0
TABLE
  2
LTYPE
 70
     9
  0
LTYPE
  2
CONTINUOUS
 70
    64
  3
実線
 72
    65
 73
     0
 40
0.0
  0
LTYPE
  2
DASHED1
 70
    64
  3
--  --  --  --  --  --  --  --  
 72
    65
 73
     2
 40
2.5
 49
1.25
 49
-1.25
  0
LTYPE
  2
DASHED2
 70
    64
  3
----    ----    ----    ----    
 72
    65
 73
     2
 40
5.0
 49
2.5
 49
-2.5
  0
LTYPE
  2
DASHED3
 70
    64
  3
------  ------  ------  ------  
 72
    65
 73
     2
 40
5.0
 49
3.75
 49
-1.25
  0
LTYPE
  2
CENTER1
 70
    64
  3
----- - ----- - ----- - ----- - 
 72
    65
 73
     4
 40
10.0
 49
6.25
 49
-1.25
 49
1.25
 49
-1.25
  0
LTYPE
  2
CENTER2
 70
    64
  3
----------  --  ----------  --  
 72
    65
 73
     4
 40
20.0
 49
12.5
 49
-2.5
 49
2.5
 49
-2.5
  0
LTYPE
  2
PHANTOM1
 70
    64
  3
--- - - --- - - --- - - --- - - 
 72
    65
 73
     6
 40
10.0
 49
3.25
 49
-1.25
 49
1.25
 49
-1.25
 49
1.25
 49
-1.25
  0
LTYPE
  2
PHANTOM2
 70
    64
  3
--------  -  -  --------  -  -  
 72
    65
 73
     6
 40
20.0
 49
10.0
 49
-2.5
 49
1.25
 49
-2.5
 49
1.25
 49
-2.5
  0
LTYPE
  2
DOT
 70
    64
  3
-   -   -   -   -   -   -   -   
 72
    65
 73
     2
 40
2.5
 49
0.625
 49
-1.875
  0
LTYPE
  2
DUMMY
 70
    64
  3
ダミー
 72
    65
 73
     0
 40
0.0
  0
LTYPE
  2
RAND1
 70
    64
  3
ランダム線1
 72
    65
 73
     4
 40
10.0
 49
1.0
 49
-2.0
 49
3.0
 49
-4.0
  0
LTYPE
  2
RAND2
 70
    64
  3
ランダム線2
 72
    65
 73
     4
 40
14.0
 49
2.0
 49
-3.0
 49
4.0
 49
-5.0
  0
LTYPE
  2
RAND3
 70
    64
  3
ランダム線3
 72
    65
 73
     4
 40
18.0
 49
3.0
 49
-4.0
 49
5.0
 49
-6.0
  0
LTYPE
  2
RAND4
 70
    64
  3
ランダム線4
 72
    65
 73
     4
 40
22.0
 49
4.0
 49
-5.0
 49
6.0
 49
-7.0
  0
LTYPE
  2
RAND5
 70
    64
  3
ランダム線5
 72
    65
 73
     4
 40
26.0
 49
5.0
 49
-6.0
 49
7.0
 49
-8.0
  0
LTYPE
  2
LONG1
 70
    64
  3
----------  --  ----------  --  
 72
    65
 73
     4
 40
40.0
 49
32.5
 49
-2.5
 49
2.5
 49
-2.5
  0
LTYPE
  2
LONG2
 70
    64
  3
--------  -  -  --------  -  -  
 72
    65
 73
     6
 40
40.0
 49
30.0
 49
-2.5
 49
1.25
 49
-2.5
 49
1.25
 49
-2.5
  0
LTYPE
  2
LONG3
 70
    64
  3
+++++++++++++++..+++++++++++++++
 72
    65
 73
     2
 40
40.0
 49
37.5
 49
-2.5
  0
LTYPE
  2
LONG4
 70
    64
  3
+++++++++++++++..+++++++++++++++
 72
    65
 73
     2
 40
80.0
 49
75.0
 49
-5.0
  0
LTYPE
  2
LONG5
 70
    64
  3
----------  --  ----------  --  
 72
    65
 73
     4
 40
60.0
 49
37.5
 49
-7.5
 49
7.5
 49
-7.5
  0
LTYPE
  2
dashed
 70
   64
  3
-------   -------------   ------
 72
   65
 73
    2
 40
7.5
 49
6
 49
-1.5
  0
LTYPE
  2
dashed_spaced
 70
   64
  3
----        --------        ----
 72
   65
 73
    2
 40
12
 49
6
 49
-6
  0
LTYPE
  2
long_dashed_dotted
 70
   64
  3
------------- --- --------------
 72
   65
 73
    4
 40
15.25
 49
12
 49
-1.5
 49
0.25
 49
-1.5
  0
LTYPE
  2
long_dashed_double-dotted
 70
   64
  3
----------- --- --- ------------
 72
   65
 73
    6
 40
17
 49
12
 49
-1.5
 49
0.25
 49
-1.5
 49
0.25
 49
-1.5
  0
LTYPE
  2
long_dashed_triplicate-dotted
 70
   64
  3
--------- --- --- --- ----------
 72
   65
 73
    8
 40
18.75
 49
12
 49
-1.5
 49
0.25
 49
-1.5
 49
0.25
 49
-1.5
 49
0.25
 49
-1.5
  0
LTYPE
  2
dotted
 70
   64
  3
   -       -       -       -    
 72
   65
 73
    2
 40
1.75
 49
0.25
 49
-1.5
  0
LTYPE
  2
chain
 70
   64
  3
-------------- -- --------------
 72
   65
 73
    4
 40
18.5
 49
12
 49
-1.5
 49
3.5
 49
-1.5
  0
LTYPE
  2
chain_double_dash
 70
   64
  3
------------ -- -- -------------
 72
   65
 73
    6
 40
23.5
 49
12
 49
-1.5
 49
3.5
 49
-1.5
 49
3.5
 49
-1.5
  0
LTYPE
  2
dashed_dotted
 70
   64
  3
-----------     -     ----------
 72
   65
 73
    4
 40
9.25
 49
6
 49
-1.5
 49
0.25
 49
-1.5
  0
LTYPE
  2
double-dashed_dotted
 70
   64
  3
------   -----------   -   -----
 72
   65
 73
    6
 40
16.75
 49
6
 49
-1.5
 49
6
 49
-1.5
 49
0.25
 49
-1.5
  0
LTYPE
  2
dashed_double-dotted
 70
   64
  3
---------    -    -    ---------
 72
   65
 73
    6
 40
11
 49
6
 49
-1.5
 49
0.25
 49
-1.5
 49
0.25
 49
-1.5
  0
LTYPE
  2
double-dashed_double-dotted
 70
   64
  3
-----   ---------   -   -   ----
 72
   65
 73
    8
 40
18.5
 49
6
 49
-1.5
 49
6
 49
-1.5
 49
0.25
 49
-1.5
 49
0.25
 49
-1.5
  0
LTYPE
  2
dashed_triplicate-dotted
 70
   64
  3
-------    -    -    -    ------
 72
   65
 73
    8
 40
12.75
 49
6
 49
-1.5
 49
0.25
 49
-1.5
 49
0.25
 49
-1.5
 49
0.25
 49
-1.5
  0
LTYPE
  2
double-dashed_triplicate-dotted
 70
   64
  3
-----  ---------  -  -  -  -----
 72
   65
 73
   10
 40
20.25
 49
6
 49
-1.5
 49
6
 49
-1.5
 49
0.25
 49
-1.5
 49
0.25
 49
-1.5
 49
0.25
 49
-1.5
  0
LTYPE
  2
undefined
 70
   64
  3
--------------------------------
 72
   65
 73
    0
 40
0
  0
LTYPE
  2
PLINE2
 70
   64
  3
------     -----------     -----
 72
   65
 73
    2
 40
3
 49
2.1000000000000001
 49
-0.9
  0
LTYPE
  2
PLINE3
 70
   64
  3
------------   ---   -----------
 72
   65
 73
    4
 40
10
 49
7
 49
-1
 49
1
 49
-1
  0
LTYPE
  2
PLINE4
 70
   64
  3
---------   ---   ---   --------
 72
   65
 73
    6
 40
10
 49
5
 49
-1
 49
1
 49
-1
 49
1
 49
-1
  0
LTYPE
  2
PLINE5
 70
   64
  3
------     -----------     -----
 72
   65
 73
    2
 40
5
 49
3.5
 49
-1.5
  0
LTYPE
  2
PLINE6
 70
   64
  3
------------   ---   -----------
 72
   65
 73
    4
 40
15
 49
10.5
 49
-1.5
 49
1.5
 49
-1.5
  0
LTYPE
  2
PLINE7
 70
   64
  3
---------   ---   ---   --------
 72
   65
 73
    6
 40
15
 49
7.5
 49
-1.5
 49
1.5
 49
-1.5
 49
1.5
 49
-1.5
  0
LTYPE
  2
PLINE8
 70
   64
  3
------     -----------     -----
 72
   65
 73
    2
 40
7
 49
4.9000000000000004
 49
-2.1000000000000001
  0
LTYPE
  2
PLINE9
 70
   64
  3
------------   ---   -----------
 72
   65
 73
    4
 40
20
 49
14
 49
-2
 49
2
 49
-2
  0
LTYPE
  2
PLINE10
 70
   64
  3
---------   ---   ---   --------
 72
   65
 73
    6
 40
20
 49
10
 49
-2
 49
2
 49
-2
 49
2
 49
-2
  0
LTYPE
  2
PLINE11
 70
   64
  3
------     -----------     -----
 72
   65
 73
    2
 40
9
 49
6.2999999999999989
 49
-2.7000000000000002
  0
LTYPE
  2
PLINE12
 70
   64
  3
------------   ---   -----------
 72
   65
 73
    4
 40
25
 49
17.5
 49
-2.5
 49
2.5
 49
-2.5
  0
LTYPE
  2
PLINE13
 70
   64
  3
---------   ---   ---   --------
 72
   65
 73
    6
 40
25
 49
12.5
 49
-2.5
 49
2.5
 49
-2.5
 49
2.5
 49
-2.5
  0
LTYPE
  2
PLINE14
 70
   64
  3
------     -----------     -----
 72
   65
 73
    2
 40
11
 49
7.7000000000000002
 49
-3.2999999999999989
  0
LTYPE
  2
PLINE15
 70
   64
  3
------------   ---   -----------
 72
   65
 73
    4
 40
30
 49
21
 49
-3
 49
3
 49
-3
  0
LTYPE
  2
PLINE16
 70
   64
  3
---------   ---   ---   --------
 72
   65
 73
    6
 40
30
 49
15
 49
-3
 49
3
 49
-3
 49
3
 49
-3
  0
ENDTAB
  0
TABLE
  2
STYLE
  5
3
100
AcDbSymbolTable
 70
     1
  0
STYLE
  5
10
100
AcDbSymbolTableRecord
100
AcDbTextStyleTableRecord
  2
STANDARD
 70
     0
 40
0.0
 41
1.0
 50
0.0
 71
     0
 42
0.2
  3
txt
  4
bigfont.shx
  0
STYLE
  5
26
100
AcDbSymbolTableRecord
100
AcDbTextStyleTableRecord
  2
TATEGAKI
 70
    68
 40
0.0
 41
1.0
 50
0.0
 71
     0
 42
1.0
  3
txt
  4
bigfont.shx
  0
ENDTAB
  0
TABLE
  2
LAYER
 70
    4
  0
LAYER
  2
_0-2_寸法
 70
   64
 62
    7
  6
CONTINUOUS
  0
LAYER
  2
_0-3_躯体と製品
 70
   64
 62
    7
  6
CONTINUOUS
  0
LAYER
  2
_0-4_文字-記号
 70
   64
 62
    7
  6
CONTINUOUS
  0
LAYER
  2
ADD_LINE
 70
   64
 62
    7
  6
CONTINUOUS
  0
ENDTAB
  0
ENDSEC
  0
SECTION
  2
BLOCKS
  0
BLOCK
  2
-000-_Dot
 70
   64
 10
0
 20
0
 30
0
  0
CIRCLE
  8
_0-0_0
  6
CONTINUOUS
 62
    7
 10
0
 20
0
 40
0.125
  0
LINE
  8
_0-0_0
  6
CONTINUOUS
 62
    7
 10
0.125
 20
0
 11
-0.125
 21
0
  0
LINE
  8
_0-0_0
  6
CONTINUOUS
 62
    7
 10
-0.25
 20
0
 11
-0.5
 21
0
  0
ENDBLK
  0
BLOCK
  2
-001-_D4
 70
   64
 10
0
 20
0
 30
0
  0
LINE
  8
_0-2_寸法
  6
CONTINUOUS
 62
    4
 10
562.37840692713405
 20
359.11440708113707
 11
556.39580642713395
 21
359.11440708113707
  0
LINE
  8
_0-2_寸法
  6
CONTINUOUS
 62
    4
 10
562.37840692713405
 20
361.61440708113707
 11
556.39580642713395
 21
361.61440708113707
  0
LINE
  8
_0-2_寸法
  6
CONTINUOUS
 62
    4
 10
556.39580642713395
 20
358.61440708113707
 11
556.39580642713395
 21
358.11440708113707
  0
LINE
  8
_0-2_寸法
  6
CONTINUOUS
 62
    4
 10
556.39580642713395
 20
362.11440708113707
 11
556.39580642713395
 21
362.61440708113707
  0
INSERT
  2
-000-_Dot
  8
_0-2_寸法
 10
556.39580642713395
 20
359.11440708113707
 41
1
 42
1
 50
90
  0
INSERT
  2
-000-_Dot
  8
_0-2_寸法
 10
556.39580642713395
 20
361.61440708113707
 41
1
 42
1
 50
270
  0
TEXT
  8
_0-2_寸法
 62
    7
 10
555.89580642713395
 20
359.11440708113713
 40
5
 41
1
 50
90
  1
5
  0
POINT
  8
_0-1_Defpoints
 62
    7
 10
562.37840692713405
 20
359.11440708113707
  0
POINT
  8
_0-1_Defpoints
 62
    7
 10
562.37840692713405
 20
361.61440708113707
  0
POINT
  8
_0-1_Defpoints
 62
    7
 10
556.39580642713395
 20
361.61440708113707
  0
ENDBLK
  0
BLOCK
  2
-002-_D5
 70
   64
 10
0
 20
0
 30
0
  0
LINE
  8
_0-2_寸法
  6
CONTINUOUS
 62
    4
 10
563.87840692713451
 20
357.61440708113707
 11
563.87840692713451
 21
346.17516358113704
  0
LINE
  8
_0-2_寸法
  6
CONTINUOUS
 62
    4
 10
573.87840692713451
 20
357.61440708113707
 11
573.87840692713451
 21
346.17516358113704
  0
LINE
  8
_0-2_寸法
  6
CONTINUOUS
 62
    4
 10
564.37840692713451
 20
346.17516358113704
 11
573.37840692713405
 21
346.17516358113704
  0
INSERT
  2
-000-_Dot
  8
_0-2_寸法
 10
563.87840692713451
 20
346.17516358113704
 41
1
 42
1
 50
180
  0
INSERT
  2
-000-_Dot
  8
_0-2_寸法
 10
573.87840692713451
 20
346.17516358113704
 41
1
 42
1
 50
0
  0
TEXT
  8
_0-2_寸法
 62
    7
 10
566.37840692713451
 20
346.67516358113699
 40
5
 41
1
 50
0
  1
20
  0
POINT
  8
_0-1_Defpoints
 62
    7
 10
563.87840692713451
 20
357.61440708113707
  0
POINT
  8
_0-1_Defpoints
 62
    7
 10
573.87840692713451
 20
357.61440708113707
  0
POINT
  8
_0-1_Defpoints
 62
    7
 10
573.87840692713451
 20
346.17516358113704
  0
ENDBLK
  0
BLOCK
  2
-003-_D6
 70
   64
 10
0
 20
0
 30
0
  0
LINE
  8
_0-2_寸法
  6
CONTINUOUS
 62
    4
 10
575.37840692713451
 20
359.11440708113707
 11
587.71876342713404
 21
359.11440708113707
  0
LINE
  8
_0-2_寸法
  6
CONTINUOUS
 62
    4
 10
575.37840692713451
 20
369.11440708113707
 11
587.71876342713404
 21
369.11440708113707
  0
LINE
  8
_0-2_寸法
  6
CONTINUOUS
 62
    4
 10
587.71876342713404
 20
359.61440708113707
 11
587.71876342713404
 21
368.61440708113707
  0
INSERT
  2
-000-_Dot
  8
_0-2_寸法
 10
587.71876342713404
 20
359.11440708113707
 41
1
 42
1
 50
270
  0
INSERT
  2
-000-_Dot
  8
_0-2_寸法
 10
587.71876342713404
 20
369.11440708113707
 41
1
 42
1
 50
90
  0
TEXT
  8
_0-2_寸法
 62
    7
 10
587.21876342713404
 20
361.61440708113713
 40
5
 41
1
 50
90
  1
20
  0
POINT
  8
_0-1_Defpoints
 62
    7
 10
575.37840692713451
 20
359.11440708113707
  0
POINT
  8
_0-1_Defpoints
 62
    7
 10
575.37840692713451
 20
369.11440708113707
  0
POINT
  8
_0-1_Defpoints
 62
    7
 10
587.71876342713404
 20
369.11440708113707
  0
ENDBLK
  0
BLOCK
  2
-004-_D7
 70
   64
 10
0
 20
0
 30
0
  0
LINE
  8
_0-2_寸法
  6
CONTINUOUS
 62
    4
 10
610.10229542713455
 20
359.11440708113707
 11
604.11969492713445
 21
359.11440708113707
  0
LINE
  8
_0-2_寸法
  6
CONTINUOUS
 62
    4
 10
610.10229542713455
 20
361.61440708113707
 11
604.11969492713445
 21
361.61440708113707
  0
LINE
  8
_0-2_寸法
  6
CONTINUOUS
 62
    4
 10
604.11969492713445
 20
358.61440708113707
 11
604.11969492713445
 21
358.11440708113707
  0
LINE
  8
_0-2_寸法
  6
CONTINUOUS
 62
    4
 10
604.11969492713445
 20
362.11440708113707
 11
604.11969492713445
 21
362.61440708113707
  0
INSERT
  2
-000-_Dot
  8
_0-2_寸法
 10
604.11969492713445
 20
359.11440708113707
 41
1
 42
1
 50
90
  0
INSERT
  2
-000-_Dot
  8
_0-2_寸法
 10
604.11969492713445
 20
361.61440708113707
 41
1
 42
1
 50
270
  0
TEXT
  8
_0-2_寸法
 62
    7
 10
603.61969492713399
 20
359.11440708113713
 40
5
 41
1
 50
90
  1
5
  0
POINT
  8
_0-1_Defpoints
 62
    7
 10
610.10229542713455
 20
359.11440708113707
  0
POINT
  8
_0-1_Defpoints
 62
    7
 10
610.10229542713455
 20
361.61440708113707
  0
POINT
  8
_0-1_Defpoints
 62
    7
 10
604.11969492713445
 20
361.61440708113707
  0
ENDBLK
  0
BLOCK
  2
-005-_D8
 70
   64
 10
0
 20
0
 30
0
  0
LINE
  8
_0-2_寸法
  6
CONTINUOUS
 62
    4
 10
611.60229542713455
 20
357.61440708113707
 11
611.60229542713455
 21
346.17516358113704
  0
LINE
  8
_0-2_寸法
  6
CONTINUOUS
 62
    4
 10
621.60229542713455
 20
357.61440708113707
 11
621.60229542713455
 21
346.17516358113704
  0
LINE
  8
_0-2_寸法
  6
CONTINUOUS
 62
    4
 10
612.10229542713455
 20
346.17516358113704
 11
621.10229542713455
 21
346.17516358113704
  0
INSERT
  2
-000-_Dot
  8
_0-2_寸法
 10
611.60229542713455
 20
346.17516358113704
 41
1
 42
1
 50
180
  0
INSERT
  2
-000-_Dot
  8
_0-2_寸法
 10
621.60229542713455
 20
346.17516358113704
 41
1
 42
1
 50
0
  0
TEXT
  8
_0-2_寸法
 62
    7
 10
614.10229542713455
 20
346.67516358113699
 40
5
 41
1
 50
0
  1
20
  0
POINT
  8
_0-1_Defpoints
 62
    7
 10
611.60229542713455
 20
357.61440708113707
  0
POINT
  8
_0-1_Defpoints
 62
    7
 10
621.60229542713455
 20
357.61440708113707
  0
POINT
  8
_0-1_Defpoints
 62
    7
 10
621.60229542713455
 20
346.17516358113704
  0
ENDBLK
  0
BLOCK
  2
-006-_D9
 70
   64
 10
0
 20
0
 30
0
  0
LINE
  8
_0-2_寸法
  6
CONTINUOUS
 62
    4
 10
623.10229542713455
 20
359.11440708113707
 11
635.44265192713453
 21
359.11440708113707
  0
LINE
  8
_0-2_寸法
  6
CONTINUOUS
 62
    4
 10
623.81258092713449
 20
379.11440708113702
 11
635.44265192713453
 21
379.11440708113702
  0
LINE
  8
_0-2_寸法
  6
CONTINUOUS
 62
    4
 10
635.44265192713453
 20
359.61440708113707
 11
635.44265192713453
 21
378.61440708113702
  0
INSERT
  2
-000-_Dot
  8
_0-2_寸法
 10
635.44265192713453
 20
359.11440708113707
 41
1
 42
1
 50
270
  0
INSERT
  2
-000-_Dot
  8
_0-2_寸法
 10
635.44265192713453
 20
379.11440708113702
 41
1
 42
1
 50
90
  0
TEXT
  8
_0-2_寸法
 62
    7
 10
634.94265192713397
 20
366.61440708113707
 40
5
 41
1
 50
90
  1
40
  0
POINT
  8
_0-1_Defpoints
 62
    7
 10
623.10229542713455
 20
359.11440708113707
  0
POINT
  8
_0-1_Defpoints
 62
    7
 10
623.81258092713449
 20
379.11440708113702
  0
POINT
  8
_0-1_Defpoints
 62
    7
 10
635.44265192713453
 20
379.11440708113702
  0
ENDBLK
  0
BLOCK
  2
-007-_D10
 70
   64
 10
0
 20
0
 30
0
  0
LINE
  8
_0-2_寸法
  6
CONTINUOUS
 62
    4
 10
656.34477142713445
 20
359.11440708113707
 11
650.36217042713452
 21
359.11440708113707
  0
LINE
  8
_0-2_寸法
  6
CONTINUOUS
 62
    4
 10
656.34477142713445
 20
361.61440708113707
 11
650.36217042713452
 21
361.61440708113707
  0
LINE
  8
_0-2_寸法
  6
CONTINUOUS
 62
    4
 10
650.36217042713452
 20
358.61440708113707
 11
650.36217042713452
 21
358.11440708113707
  0
LINE
  8
_0-2_寸法
  6
CONTINUOUS
 62
    4
 10
650.36217042713452
 20
362.11440708113707
 11
650.36217042713452
 21
362.61440708113707
  0
INSERT
  2
-000-_Dot
  8
_0-2_寸法
 10
650.36217042713452
 20
359.11440708113707
 41
1
 42
1
 50
90
  0
INSERT
  2
-000-_Dot
  8
_0-2_寸法
 10
650.36217042713452
 20
361.61440708113707
 41
1
 42
1
 50
270
  0
TEXT
  8
_0-2_寸法
 62
    7
 10
649.86217042713395
 20
359.11440708113713
 40
5
 41
1
 50
90
  1
5
  0
POINT
  8
_0-1_Defpoints
 62
    7
 10
656.34477142713445
 20
359.11440708113707
  0
POINT
  8
_0-1_Defpoints
 62
    7
 10
656.34477142713445
 20
361.61440708113707
  0
POINT
  8
_0-1_Defpoints
 62
    7
 10
650.36217042713452
 20
361.61440708113707
  0
ENDBLK
  0
BLOCK
  2
-008-_D11
 70
   64
 10
0
 20
0
 30
0
  0
LINE
  8
_0-2_寸法
  6
CONTINUOUS
 62
    4
 10
657.84477142713445
 20
357.61440708113707
 11
657.84477142713445
 21
346.17516358113704
  0
LINE
  8
_0-2_寸法
  6
CONTINUOUS
 62
    4
 10
667.84477142713445
 20
357.61440708113707
 11
667.84477142713445
 21
346.17516358113704
  0
LINE
  8
_0-2_寸法
  6
CONTINUOUS
 62
    4
 10
658.34477142713445
 20
346.17516358113704
 11
667.34477142713445
 21
346.17516358113704
  0
INSERT
  2
-000-_Dot
  8
_0-2_寸法
 10
657.84477142713445
 20
346.17516358113704
 41
1
 42
1
 50
180
  0
INSERT
  2
-000-_Dot
  8
_0-2_寸法
 10
667.84477142713445
 20
346.17516358113704
 41
1
 42
1
 50
0
  0
TEXT
  8
_0-2_寸法
 62
    7
 10
660.34477142713445
 20
346.67516358113699
 40
5
 41
1
 50
0
  1
20
  0
POINT
  8
_0-1_Defpoints
 62
    7
 10
657.84477142713445
 20
357.61440708113707
  0
POINT
  8
_0-1_Defpoints
 62
    7
 10
667.84477142713445
 20
357.61440708113707
  0
POINT
  8
_0-1_Defpoints
 62
    7
 10
667.84477142713445
 20
346.17516358113704
  0
ENDBLK
  0
BLOCK
  2
-009-_D12
 70
   64
 10
0
 20
0
 30
0
  0
LINE
  8
_0-2_寸法
  6
CONTINUOUS
 62
    4
 10
669.34477142713445
 20
359.11440708113707
 11
681.68512792713454
 21
359.11440708113707
  0
LINE
  8
_0-2_寸法
  6
CONTINUOUS
 62
    4
 10
669.96655542713449
 20
384.11440708113702
 11
681.68512792713454
 21
384.11440708113702
  0
LINE
  8
_0-2_寸法
  6
CONTINUOUS
 62
    4
 10
681.68512792713454
 20
359.61440708113707
 11
681.68512792713454
 21
383.61440708113702
  0
INSERT
  2
-000-_Dot
  8
_0-2_寸法
 10
681.68512792713454
 20
359.11440708113707
 41
1
 42
1
 50
270
  0
INSERT
  2
-000-_Dot
  8
_0-2_寸法
 10
681.68512792713454
 20
384.11440708113702
 41
1
 42
1
 50
90
  0
TEXT
  8
_0-2_寸法
 62
    7
 10
681.18512792713398
 20
369.11440708113707
 40
5
 41
1
 50
90
  1
50
  0
POINT
  8
_0-1_Defpoints
 62
    7
 10
669.34477142713445
 20
359.11440708113707
  0
POINT
  8
_0-1_Defpoints
 62
    7
 10
669.96655542713449
 20
384.11440708113702
  0
POINT
  8
_0-1_Defpoints
 62
    7
 10
681.68512792713454
 20
384.11440708113702
  0
ENDBLK
  0
BLOCK
  2
-010-_D13
 70
   64
 10
0
 20
0
 30
0
  0
LINE
  8
_0-2_寸法
  6
CONTINUOUS
 62
    4
 10
704.25374792713455
 20
359.11440708113707
 11
698.27114742713445
 21
359.11440708113707
  0
LINE
  8
_0-2_寸法
  6
CONTINUOUS
 62
    4
 10
704.25374792713455
 20
361.61440708113707
 11
698.27114742713445
 21
361.61440708113707
  0
LINE
  8
_0-2_寸法
  6
CONTINUOUS
 62
    4
 10
698.27114742713445
 20
358.61440708113707
 11
698.27114742713445
 21
358.11440708113707
  0
LINE
  8
_0-2_寸法
  6
CONTINUOUS
 62
    4
 10
698.27114742713445
 20
362.11440708113707
 11
698.27114742713445
 21
362.61440708113707
  0
INSERT
  2
-000-_Dot
  8
_0-2_寸法
 10
698.27114742713445
 20
359.11440708113707
 41
1
 42
1
 50
90
  0
INSERT
  2
-000-_Dot
  8
_0-2_寸法
 10
698.27114742713445
 20
361.61440708113707
 41
1
 42
1
 50
270
  0
TEXT
  8
_0-2_寸法
 62
    7
 10
697.771147427134
 20
359.11440708113713
 40
5
 41
1
 50
90
  1
5
  0
POINT
  8
_0-1_Defpoints
 62
    7
 10
704.25374792713455
 20
359.11440708113707
  0
POINT
  8
_0-1_Defpoints
 62
    7
 10
704.25374792713455
 20
361.61440708113707
  0
POINT
  8
_0-1_Defpoints
 62
    7
 10
698.27114742713445
 20
361.61440708113707
  0
ENDBLK
  0
BLOCK
  2
-011-_D14
 70
   64
 10
0
 20
0
 30
0
  0
LINE
  8
_0-2_寸法
  6
CONTINUOUS
 62
    4
 10
705.75374792713455
 20
357.61440708113707
 11
705.75374792713455
 21
346.17516358113704
  0
LINE
  8
_0-2_寸法
  6
CONTINUOUS
 62
    4
 10
715.75374792713455
 20
357.61440708113707
 11
715.75374792713455
 21
346.17516358113704
  0
LINE
  8
_0-2_寸法
  6
CONTINUOUS
 62
    4
 10
706.25374792713455
 20
346.17516358113704
 11
715.25374792713455
 21
346.17516358113704
  0
INSERT
  2
-000-_Dot
  8
_0-2_寸法
 10
705.75374792713455
 20
346.17516358113704
 41
1
 42
1
 50
180
  0
INSERT
  2
-000-_Dot
  8
_0-2_寸法
 10
715.75374792713455
 20
346.17516358113704
 41
1
 42
1
 50
0
  0
TEXT
  8
_0-2_寸法
 62
    7
 10
708.25374792713455
 20
346.67516358113699
 40
5
 41
1
 50
0
  1
20
  0
POINT
  8
_0-1_Defpoints
 62
    7
 10
705.75374792713455
 20
357.61440708113707
  0
POINT
  8
_0-1_Defpoints
 62
    7
 10
715.75374792713455
 20
357.61440708113707
  0
POINT
  8
_0-1_Defpoints
 62
    7
 10
715.75374792713455
 20
346.17516358113704
  0
ENDBLK
  0
BLOCK
  2
-012-_D15
 70
   64
 10
0
 20
0
 30
0
  0
LINE
  8
_0-2_寸法
  6
CONTINUOUS
 62
    4
 10
717.25374792713455
 20
359.11440708113707
 11
729.59410442713454
 21
359.11440708113707
  0
LINE
  8
_0-2_寸法
  6
CONTINUOUS
 62
    4
 10
718.03764192713402
 20
394.11440708113702
 11
729.59410442713454
 21
394.11440708113702
  0
LINE
  8
_0-2_寸法
  6
CONTINUOUS
 62
    4
 10
729.59410442713454
 20
359.61440708113707
 11
729.59410442713454
 21
393.61440708113702
  0
INSERT
  2
-000-_Dot
  8
_0-2_寸法
 10
729.59410442713454
 20
359.11440708113707
 41
1
 42
1
 50
270
  0
INSERT
  2
-000-_Dot
  8
_0-2_寸法
 10
729.59410442713454
 20
394.11440708113702
 41
1
 42
1
 50
90
  0
TEXT
  8
_0-2_寸法
 62
    7
 10
729.09410442713397
 20
374.11440708113713
 40
5
 41
1
 50
90
  1
70
  0
POINT
  8
_0-1_Defpoints
 62
    7
 10
717.25374792713455
 20
359.11440708113707
  0
POINT
  8
_0-1_Defpoints
 62
    7
 10
718.03764192713402
 20
394.11440708113702
  0
POINT
  8
_0-1_Defpoints
 62
    7
 10
729.59410442713454
 20
394.11440708113702
  0
ENDBLK
  0
BLOCK
  2
-013-_D16
 70
   64
 10
0
 20
0
 30
0
  0
LINE
  8
_0-2_寸法
  6
CONTINUOUS
 62
    4
 10
750.85297842713453
 20
359.11440708113707
 11
744.87037742713449
 21
359.11440708113707
  0
LINE
  8
_0-2_寸法
  6
CONTINUOUS
 62
    4
 10
750.85297842713453
 20
361.61440708113707
 11
744.87037742713449
 21
361.61440708113707
  0
LINE
  8
_0-2_寸法
  6
CONTINUOUS
 62
    4
 10
744.87037742713449
 20
358.61440708113707
 11
744.87037742713449
 21
358.11440708113707
  0
LINE
  8
_0-2_寸法
  6
CONTINUOUS
 62
    4
 10
744.87037742713449
 20
362.11440708113707
 11
744.87037742713449
 21
362.61440708113707
  0
INSERT
  2
-000-_Dot
  8
_0-2_寸法
 10
744.87037742713449
 20
359.11440708113707
 41
1
 42
1
 50
90
  0
INSERT
  2
-000-_Dot
  8
_0-2_寸法
 10
744.87037742713449
 20
361.61440708113707
 41
1
 42
1
 50
270
  0
TEXT
  8
_0-2_寸法
 62
    7
 10
744.37037742713403
 20
359.11440708113713
 40
5
 41
1
 50
90
  1
5
  0
POINT
  8
_0-1_Defpoints
 62
    7
 10
750.85297842713453
 20
359.11440708113707
  0
POINT
  8
_0-1_Defpoints
 62
    7
 10
750.85297842713453
 20
361.61440708113707
  0
POINT
  8
_0-1_Defpoints
 62
    7
 10
744.87037742713449
 20
361.61440708113707
  0
ENDBLK
  0
BLOCK
  2
-014-_D17
 70
   64
 10
0
 20
0
 30
0
  0
LINE
  8
_0-2_寸法
  6
CONTINUOUS
 62
    4
 10
752.35297842713453
 20
357.61440708113707
 11
752.35297842713453
 21
346.17516358113704
  0
LINE
  8
_0-2_寸法
  6
CONTINUOUS
 62
    4
 10
762.35297842713453
 20
357.61440708113707
 11
762.35297842713453
 21
346.17516358113704
  0
LINE
  8
_0-2_寸法
  6
CONTINUOUS
 62
    4
 10
752.85297842713453
 20
346.17516358113704
 11
761.85297842713453
 21
346.17516358113704
  0
INSERT
  2
-000-_Dot
  8
_0-2_寸法
 10
752.35297842713453
 20
346.17516358113704
 41
1
 42
1
 50
180
  0
INSERT
  2
-000-_Dot
  8
_0-2_寸法
 10
762.35297842713453
 20
346.17516358113704
 41
1
 42
1
 50
0
  0
TEXT
  8
_0-2_寸法
 62
    7
 10
754.85297842713453
 20
346.67516358113699
 40
5
 41
1
 50
0
  1
20
  0
POINT
  8
_0-1_Defpoints
 62
    7
 10
752.35297842713453
 20
357.61440708113707
  0
POINT
  8
_0-1_Defpoints
 62
    7
 10
762.35297842713453
 20
357.61440708113707
  0
POINT
  8
_0-1_Defpoints
 62
    7
 10
762.35297842713453
 20
346.17516358113704
  0
ENDBLK
  0
BLOCK
  2
-015-_D18
 70
   64
 10
0
 20
0
 30
0
  0
LINE
  8
_0-2_寸法
  6
CONTINUOUS
 62
    4
 10
763.85297842713453
 20
359.11440708113707
 11
776.19333467713454
 21
359.11440708113707
  0
LINE
  8
_0-2_寸法
  6
CONTINUOUS
 62
    4
 10
764.63687242713445
 20
404.11440708113702
 11
776.19333467713454
 21
404.11440708113702
  0
LINE
  8
_0-2_寸法
  6
CONTINUOUS
 62
    4
 10
776.19333467713454
 20
359.61440708113707
 11
776.19333467713454
 21
403.61440708113702
  0
INSERT
  2
-000-_Dot
  8
_0-2_寸法
 10
776.19333467713454
 20
359.11440708113707
 41
1
 42
1
 50
270
  0
INSERT
  2
-000-_Dot
  8
_0-2_寸法
 10
776.19333467713454
 20
404.11440708113702
 41
1
 42
1
 50
90
  0
TEXT
  8
_0-2_寸法
 62
    7
 10
775.69333467713398
 20
379.11440708113707
 40
5
 41
1
 50
90
  1
90
  0
POINT
  8
_0-1_Defpoints
 62
    7
 10
763.85297842713453
 20
359.11440708113707
  0
POINT
  8
_0-1_Defpoints
 62
    7
 10
764.63687242713445
 20
404.11440708113702
  0
POINT
  8
_0-1_Defpoints
 62
    7
 10
776.19333467713454
 20
404.11440708113702
  0
ENDBLK
  0
BLOCK
  2
-016-_D19
 70
   64
 10
0
 20
0
 30
0
  0
LINE
  8
_0-2_寸法
  6
CONTINUOUS
 62
    4
 10
795.74993242713447
 20
359.11440708113707
 11
789.76733142713454
 21
359.11440708113707
  0
LINE
  8
_0-2_寸法
  6
CONTINUOUS
 62
    4
 10
795.74993242713447
 20
361.61440708113707
 11
789.76733142713454
 21
361.61440708113707
  0
LINE
  8
_0-2_寸法
  6
CONTINUOUS
 62
    4
 10
789.76733142713454
 20
358.61440708113707
 11
789.76733142713454
 21
358.11440708113707
  0
LINE
  8
_0-2_寸法
  6
CONTINUOUS
 62
    4
 10
789.76733142713454
 20
362.11440708113707
 11
789.76733142713454
 21
362.61440708113707
  0
INSERT
  2
-000-_Dot
  8
_0-2_寸法
 10
789.76733142713454
 20
359.11440708113707
 41
1
 42
1
 50
90
  0
INSERT
  2
-000-_Dot
  8
_0-2_寸法
 10
789.76733142713454
 20
361.61440708113707
 41
1
 42
1
 50
270
  0
TEXT
  8
_0-2_寸法
 62
    7
 10
789.26733142713397
 20
359.11440708113713
 40
5
 41
1
 50
90
  1
5
  0
POINT
  8
_0-1_Defpoints
 62
    7
 10
795.74993242713447
 20
359.11440708113707
  0
POINT
  8
_0-1_Defpoints
 62
    7
 10
795.74993242713447
 20
361.61440708113707
  0
POINT
  8
_0-1_Defpoints
 62
    7
 10
789.76733142713454
 20
361.61440708113707
  0
ENDBLK
  0
BLOCK
  2
-017-_D20
 70
   64
 10
0
 20
0
 30
0
  0
LINE
  8
_0-2_寸法
  6
CONTINUOUS
 62
    4
 10
797.24993242713447
 20
357.61440708113707
 11
797.24993242713447
 21
346.17516358113704
  0
LINE
  8
_0-2_寸法
  6
CONTINUOUS
 62
    4
 10
807.24993242713447
 20
357.61440708113707
 11
807.24993242713447
 21
346.17516358113704
  0
LINE
  8
_0-2_寸法
  6
CONTINUOUS
 62
    4
 10
797.74993242713447
 20
346.17516358113704
 11
806.74993242713447
 21
346.17516358113704
  0
INSERT
  2
-000-_Dot
  8
_0-2_寸法
 10
797.24993242713447
 20
346.17516358113704
 41
1
 42
1
 50
180
  0
INSERT
  2
-000-_Dot
  8
_0-2_寸法
 10
807.24993242713447
 20
346.17516358113704
 41
1
 42
1
 50
0
  0
TEXT
  8
_0-2_寸法
 62
    7
 10
799.74993242713447
 20
346.67516358113699
 40
5
 41
1
 50
0
  1
20
  0
POINT
  8
_0-1_Defpoints
 62
    7
 10
797.24993242713447
 20
357.61440708113707
  0
POINT
  8
_0-1_Defpoints
 62
    7
 10
807.24993242713447
 20
357.61440708113707
  0
POINT
  8
_0-1_Defpoints
 62
    7
 10
807.24993242713447
 20
346.17516358113704
  0
ENDBLK
  0
BLOCK
  2
-018-_D21
 70
   64
 10
0
 20
0
 30
0
  0
LINE
  8
_0-2_寸法
  6
CONTINUOUS
 62
    4
 10
808.74993242713447
 20
359.11440708113707
 11
821.09027017713402
 21
359.11440708113707
  0
LINE
  8
_0-2_寸法
  6
CONTINUOUS
 62
    4
 10
810.25743042713395
 20
419.11440708113707
 11
821.09027017713402
 21
419.11440708113707
  0
LINE
  8
_0-2_寸法
  6
CONTINUOUS
 62
    4
 10
821.09027017713402
 20
359.61440708113707
 11
821.09027017713402
 21
418.61440708113707
  0
INSERT
  2
-000-_Dot
  8
_0-2_寸法
 10
821.09027017713402
 20
359.11440708113707
 41
1
 42
1
 50
270
  0
INSERT
  2
-000-_Dot
  8
_0-2_寸法
 10
821.09027017713402
 20
419.11440708113707
 41
1
 42
1
 50
90
  0
TEXT
  8
_0-2_寸法
 62
    7
 10
820.59027017713402
 20
385.36440708113713
 40
5
 41
1
 50
90
  1
120
  0
POINT
  8
_0-1_Defpoints
 62
    7
 10
808.74993242713447
 20
359.11440708113707
  0
POINT
  8
_0-1_Defpoints
 62
    7
 10
810.25743042713395
 20
419.11440708113707
  0
POINT
  8
_0-1_Defpoints
 62
    7
 10
821.09027017713402
 20
419.11440708113707
  0
ENDBLK
  0
BLOCK
  2
-019-_D22
 70
   64
 10
0
 20
0
 30
0
  0
LINE
  8
_0-2_寸法
  6
CONTINUOUS
 62
    4
 10
822.70687592713398
 20
183.59754208113705
 11
816.12848942713447
 21
183.59754208113705
  0
LINE
  8
_0-2_寸法
  6
CONTINUOUS
 62
    4
 10
822.70687592713398
 20
186.09754208113699
 11
816.12848942713447
 21
186.09754208113699
  0
LINE
  8
_0-2_寸法
  6
CONTINUOUS
 62
    4
 10
816.12848942713447
 20
183.09754208113699
 11
816.12848942713447
 21
182.59754208113705
  0
LINE
  8
_0-2_寸法
  6
CONTINUOUS
 62
    4
 10
816.12848942713447
 20
186.59754208113705
 11
816.12848942713447
 21
187.09754208113699
  0
INSERT
  2
-000-_Dot
  8
_0-2_寸法
 10
816.12848942713447
 20
183.59754208113705
 41
1
 42
1
 50
90
  0
INSERT
  2
-000-_Dot
  8
_0-2_寸法
 10
816.12848942713447
 20
186.09754208113699
 41
1
 42
1
 50
270
  0
TEXT
  8
_0-2_寸法
 62
    7
 10
815.62848942713447
 20
183.59754208113716
 40
5
 41
1
 50
90
  1
5
  0
POINT
  8
_0-1_Defpoints
 62
    7
 10
822.70687592713398
 20
183.59754208113705
  0
POINT
  8
_0-1_Defpoints
 62
    7
 10
822.70687592713398
 20
186.09754208113699
  0
POINT
  8
_0-1_Defpoints
 62
    7
 10
816.12848942713447
 20
186.09754208113699
  0
ENDBLK
  0
BLOCK
  2
-020-_D23
 70
   64
 10
0
 20
0
 30
0
  0
LINE
  8
_0-2_寸法
  6
CONTINUOUS
 62
    4
 10
824.20687592713455
 20
182.06551908113701
 11
824.20687592713455
 21
171.96374858113705
  0
LINE
  8
_0-2_寸法
  6
CONTINUOUS
 62
    4
 10
834.20687592713398
 20
182.06551908113701
 11
834.20687592713398
 21
171.96374858113705
  0
LINE
  8
_0-2_寸法
  6
CONTINUOUS
 62
    4
 10
824.70687592713455
 20
171.96374858113705
 11
833.70687592713455
 21
171.96374858113705
  0
INSERT
  2
-000-_Dot
  8
_0-2_寸法
 10
824.20687592713455
 20
171.96374858113705
 41
1
 42
1
 50
180
  0
INSERT
  2
-000-_Dot
  8
_0-2_寸法
 10
834.20687592713398
 20
171.96374858113705
 41
1
 42
1
 50
0
  0
TEXT
  8
_0-2_寸法
 62
    7
 10
826.70687592713398
 20
172.46374858113705
 40
5
 41
1
 50
0
  1
20
  0
POINT
  8
_0-1_Defpoints
 62
    7
 10
824.20687592713455
 20
182.06551908113701
  0
POINT
  8
_0-1_Defpoints
 62
    7
 10
834.20687592713398
 20
182.06551908113701
  0
POINT
  8
_0-1_Defpoints
 62
    7
 10
834.20687592713398
 20
171.96374858113705
  0
ENDBLK
  0
BLOCK
  2
-021-_D24
 70
   64
 10
0
 20
0
 30
0
  0
LINE
  8
_0-2_寸法
  6
CONTINUOUS
 62
    4
 10
835.70687592713398
 20
183.59754208113705
 11
844.3929519271345
 21
183.59754208113705
  0
LINE
  8
_0-2_寸法
  6
CONTINUOUS
 62
    4
 10
835.70687592713398
 20
286.09754208113702
 11
844.3929519271345
 21
286.09754208113702
  0
LINE
  8
_0-2_寸法
  6
CONTINUOUS
 62
    4
 10
844.3929519271345
 20
184.09754208113699
 11
844.3929519271345
 21
285.59754208113702
  0
INSERT
  2
-000-_Dot
  8
_0-2_寸法
 10
844.3929519271345
 20
183.59754208113705
 41
1
 42
1
 50
270
  0
INSERT
  2
-000-_Dot
  8
_0-2_寸法
 10
844.3929519271345
 20
286.09754208113702
 41
1
 42
1
 50
90
  0
TEXT
  8
_0-2_寸法
 62
    7
 10
843.8929519271345
 20
231.09754208113716
 40
5
 41
1
 50
90
  1
205
  0
POINT
  8
_0-1_Defpoints
 62
    7
 10
835.70687592713398
 20
183.59754208113705
  0
POINT
  8
_0-1_Defpoints
 62
    7
 10
835.70687592713398
 20
286.09754208113702
  0
POINT
  8
_0-1_Defpoints
 62
    7
 10
844.3929519271345
 20
286.09754208113702
  0
ENDBLK
  0
BLOCK
  2
-022-_D25
 70
   64
 10
0
 20
0
 30
0
  0
LINE
  8
_0-2_寸法
  6
CONTINUOUS
 62
    4
 10
793.12710242713445
 20
261.09754208113702
 11
801.78665142713453
 21
261.09754208113702
  0
LINE
  8
_0-2_寸法
  6
CONTINUOUS
 62
    4
 10
793.10057492713452
 20
183.59754208113705
 11
801.78665142713453
 21
183.59754208113705
  0
LINE
  8
_0-2_寸法
  6
CONTINUOUS
 62
    4
 10
801.78665142713453
 20
260.59754208113702
 11
801.78665142713453
 21
184.09754208113699
  0
INSERT
  2
-000-_Dot
  8
_0-2_寸法
 10
801.78665142713453
 20
261.09754208113702
 41
1
 42
1
 50
90
  0
INSERT
  2
-000-_Dot
  8
_0-2_寸法
 10
801.78665142713453
 20
183.59754208113705
 41
1
 42
1
 50
270
  0
TEXT
  8
_0-2_寸法
 62
    7
 10
801.28665142713453
 20
218.59754208113716
 40
5
 41
1
 50
90
  1
155
  0
POINT
  8
_0-1_Defpoints
 62
    7
 10
793.12710242713445
 20
261.09754208113702
  0
POINT
  8
_0-1_Defpoints
 62
    7
 10
793.10057492713452
 20
183.59754208113705
  0
POINT
  8
_0-1_Defpoints
 62
    7
 10
801.78665142713453
 20
183.59754208113705
  0
ENDBLK
  0
BLOCK
  2
-023-_D26
 70
   64
 10
0
 20
0
 30
0
  0
LINE
  8
_0-2_寸法
  6
CONTINUOUS
 62
    4
 10
781.60057492713452
 20
182.06551908113701
 11
781.60057492713452
 21
171.96374858113705
  0
LINE
  8
_0-2_寸法
  6
CONTINUOUS
 62
    4
 10
791.60057492713452
 20
182.06551908113701
 11
791.60057492713452
 21
171.96374858113705
  0
LINE
  8
_0-2_寸法
  6
CONTINUOUS
 62
    4
 10
782.10057492713452
 20
171.96374858113705
 11
791.10057492713452
 21
171.96374858113705
  0
INSERT
  2
-000-_Dot
  8
_0-2_寸法
 10
781.60057492713452
 20
171.96374858113705
 41
1
 42
1
 50
180
  0
INSERT
  2
-000-_Dot
  8
_0-2_寸法
 10
791.60057492713452
 20
171.96374858113705
 41
1
 42
1
 50
0
  0
TEXT
  8
_0-2_寸法
 62
    7
 10
784.10057492713452
 20
172.46374858113705
 40
5
 41
1
 50
0
  1
20
  0
POINT
  8
_0-1_Defpoints
 62
    7
 10
781.60057492713452
 20
182.06551908113701
  0
POINT
  8
_0-1_Defpoints
 62
    7
 10
791.60057492713452
 20
182.06551908113701
  0
POINT
  8
_0-1_Defpoints
 62
    7
 10
791.60057492713452
 20
171.96374858113705
  0
ENDBLK
  0
BLOCK
  2
-024-_D27
 70
   64
 10
0
 20
0
 30
0
  0
LINE
  8
_0-2_寸法
  6
CONTINUOUS
 62
    4
 10
780.10057492713452
 20
183.59754208113705
 11
773.52218842713455
 21
183.59754208113705
  0
LINE
  8
_0-2_寸法
  6
CONTINUOUS
 62
    4
 10
780.10057492713452
 20
186.09754208113699
 11
773.52218842713455
 21
186.09754208113699
  0
LINE
  8
_0-2_寸法
  6
CONTINUOUS
 62
    4
 10
773.52218842713455
 20
183.09754208113699
 11
773.52218842713455
 21
182.59754208113705
  0
LINE
  8
_0-2_寸法
  6
CONTINUOUS
 62
    4
 10
773.52218842713455
 20
186.59754208113705
 11
773.52218842713455
 21
187.09754208113699
  0
INSERT
  2
-000-_Dot
  8
_0-2_寸法
 10
773.52218842713455
 20
183.59754208113705
 41
1
 42
1
 50
90
  0
INSERT
  2
-000-_Dot
  8
_0-2_寸法
 10
773.52218842713455
 20
186.09754208113699
 41
1
 42
1
 50
270
  0
TEXT
  8
_0-2_寸法
 62
    7
 10
773.02218842713455
 20
183.59754208113716
 40
5
 41
1
 50
90
  1
5
  0
POINT
  8
_0-1_Defpoints
 62
    7
 10
780.10057492713452
 20
183.59754208113705
  0
POINT
  8
_0-1_Defpoints
 62
    7
 10
780.10057492713452
 20
186.09754208113699
  0
POINT
  8
_0-1_Defpoints
 62
    7
 10
773.52218842713455
 20
186.09754208113699
  0
ENDBLK
  0
BLOCK
  2
-025-_D28
 70
   64
 10
0
 20
0
 30
0
  0
LINE
  8
_0-2_寸法
  6
CONTINUOUS
 62
    4
 10
749.33685042713455
 20
183.56551908113704
 11
758.02292642713451
 21
183.56551908113704
  0
LINE
  8
_0-2_寸法
  6
CONTINUOUS
 62
    4
 10
749.63940492713448
 20
226.06551908113704
 11
758.02292642713451
 21
226.06551908113704
  0
LINE
  8
_0-2_寸法
  6
CONTINUOUS
 62
    4
 10
758.02292642713451
 20
184.06551908113701
 11
758.02292642713451
 21
225.56551908113704
  0
INSERT
  2
-000-_Dot
  8
_0-2_寸法
 10
758.02292642713451
 20
183.56551908113704
 41
1
 42
1
 50
270
  0
INSERT
  2
-000-_Dot
  8
_0-2_寸法
 10
758.02292642713451
 20
226.06551908113704
 41
1
 42
1
 50
90
  0
TEXT
  8
_0-2_寸法
 62
    7
 10
757.52292642713451
 20
202.31551908113715
 40
5
 41
1
 50
90
  1
85
  0
POINT
  8
_0-1_Defpoints
 62
    7
 10
749.33685042713455
 20
183.56551908113704
  0
POINT
  8
_0-1_Defpoints
 62
    7
 10
749.63940492713448
 20
226.06551908113704
  0
POINT
  8
_0-1_Defpoints
 62
    7
 10
758.02292642713451
 20
226.06551908113704
  0
ENDBLK
  0
BLOCK
  2
-026-_D29
 70
   64
 10
0
 20
0
 30
0
  0
LINE
  8
_0-2_寸法
  6
CONTINUOUS
 62
    4
 10
747.83685042713455
 20
182.06551908113701
 11
747.83685042713455
 21
171.96374858113705
  0
LINE
  8
_0-2_寸法
  6
CONTINUOUS
 62
    4
 10
737.83685042713455
 20
182.06551908113701
 11
737.83685042713455
 21
171.96374858113705
  0
LINE
  8
_0-2_寸法
  6
CONTINUOUS
 62
    4
 10
747.33685042713455
 20
171.96374858113705
 11
738.33685042713455
 21
171.96374858113705
  0
INSERT
  2
-000-_Dot
  8
_0-2_寸法
 10
747.83685042713455
 20
171.96374858113705
 41
1
 42
1
 50
0
  0
INSERT
  2
-000-_Dot
  8
_0-2_寸法
 10
737.83685042713455
 20
171.96374858113705
 41
1
 42
1
 50
180
  0
TEXT
  8
_0-2_寸法
 62
    7
 10
740.33685042713455
 20
172.46374858113705
 40
5
 41
1
 50
0
  1
20
  0
POINT
  8
_0-1_Defpoints
 62
    7
 10
747.83685042713455
 20
182.06551908113701
  0
POINT
  8
_0-1_Defpoints
 62
    7
 10
737.83685042713455
 20
182.06551908113701
  0
POINT
  8
_0-1_Defpoints
 62
    7
 10
737.83685042713455
 20
171.96374858113705
  0
ENDBLK
  0
BLOCK
  2
-027-_D30
 70
   64
 10
0
 20
0
 30
0
  0
LINE
  8
_0-2_寸法
  6
CONTINUOUS
 62
    4
 10
736.33685042713455
 20
183.59754208113705
 11
729.75846392713402
 21
183.59754208113705
  0
LINE
  8
_0-2_寸法
  6
CONTINUOUS
 62
    4
 10
736.33685042713455
 20
186.09754208113699
 11
729.75846392713402
 21
186.09754208113699
  0
LINE
  8
_0-2_寸法
  6
CONTINUOUS
 62
    4
 10
729.75846392713402
 20
183.09754208113699
 11
729.75846392713402
 21
182.59754208113705
  0
LINE
  8
_0-2_寸法
  6
CONTINUOUS
 62
    4
 10
729.75846392713402
 20
186.59754208113705
 11
729.75846392713402
 21
187.09754208113699
  0
INSERT
  2
-000-_Dot
  8
_0-2_寸法
 10
729.75846392713402
 20
183.59754208113705
 41
1
 42
1
 50
90
  0
INSERT
  2
-000-_Dot
  8
_0-2_寸法
 10
729.75846392713402
 20
186.09754208113699
 41
1
 42
1
 50
270
  0
TEXT
  8
_0-2_寸法
 62
    7
 10
729.25846392713447
 20
183.59754208113716
 40
5
 41
1
 50
90
  1
5
  0
POINT
  8
_0-1_Defpoints
 62
    7
 10
736.33685042713455
 20
183.59754208113705
  0
POINT
  8
_0-1_Defpoints
 62
    7
 10
736.33685042713455
 20
186.09754208113699
  0
POINT
  8
_0-1_Defpoints
 62
    7
 10
729.75846392713402
 20
186.09754208113699
  0
ENDBLK
  0
BLOCK
  2
-028-_D31
 70
   64
 10
0
 20
0
 30
0
  0
LINE
  8
_0-2_寸法
  6
CONTINUOUS
 62
    4
 10
646.18755242713451
 20
183.59754208113705
 11
657.37140092713446
 21
183.59754208113705
  0
LINE
  8
_0-2_寸法
  6
CONTINUOUS
 62
    4
 10
646.18755242713451
 20
286.09754208113702
 11
657.37140092713446
 21
286.09754208113702
  0
LINE
  8
_0-2_寸法
  6
CONTINUOUS
 62
    4
 10
657.37140092713446
 20
184.09754208113699
 11
657.37140092713446
 21
285.59754208113702
  0
INSERT
  2
-000-_Dot
  8
_0-2_寸法
 10
657.37140092713446
 20
183.59754208113705
 41
1
 42
1
 50
270
  0
INSERT
  2
-000-_Dot
  8
_0-2_寸法
 10
657.37140092713446
 20
286.09754208113702
 41
1
 42
1
 50
90
  0
TEXT
  8
_0-2_寸法
 62
    7
 10
656.87140092713446
 20
231.09754208113716
 40
5
 41
1
 50
90
  1
205
  0
POINT
  8
_0-1_Defpoints
 62
    7
 10
646.18755242713451
 20
183.59754208113705
  0
POINT
  8
_0-1_Defpoints
 62
    7
 10
646.18755242713451
 20
286.09754208113702
  0
POINT
  8
_0-1_Defpoints
 62
    7
 10
657.37140092713446
 20
286.09754208113702
  0
ENDBLK
  0
BLOCK
  2
-029-_D32
 70
   64
 10
0
 20
0
 30
0
  0
LINE
  8
_0-2_寸法
  6
CONTINUOUS
 62
    4
 10
631.57199292713449
 20
287.44754208113704
 11
631.57199292713449
 21
294.14122558113706
  0
LINE
  8
_0-2_寸法
  6
CONTINUOUS
 62
    4
 10
644.47199292713447
 20
287.59754208113702
 11
644.47199292713447
 21
294.14122558113706
  0
LINE
  8
_0-2_寸法
  6
CONTINUOUS
 62
    4
 10
631.07199292713449
 20
294.14122558113706
 11
630.57199292713449
 21
294.14122558113706
  0
LINE
  8
_0-2_寸法
  6
CONTINUOUS
 62
    4
 10
644.97199292713447
 20
294.14122558113706
 11
645.47199292713447
 21
294.14122558113706
  0
INSERT
  2
-000-_Dot
  8
_0-2_寸法
 10
631.57199292713449
 20
294.14122558113706
 41
1
 42
1
 50
0
  0
INSERT
  2
-000-_Dot
  8
_0-2_寸法
 10
644.47199292713447
 20
294.14122558113706
 41
1
 42
1
 50
180
  0
TEXT
  8
_0-2_寸法
 62
    7
 10
633.02199292713453
 20
294.64122558113706
 40
5
 41
1
 50
0
  1
25.8
  0
POINT
  8
_0-1_Defpoints
 62
    7
 10
631.57199292713449
 20
287.44754208113704
  0
POINT
  8
_0-1_Defpoints
 62
    7
 10
644.47199292713447
 20
287.59754208113702
  0
POINT
  8
_0-1_Defpoints
 62
    7
 10
644.47199292713447
 20
294.14122558113706
  0
ENDBLK
  0
BLOCK
  2
-030-_D33
 70
   64
 10
0
 20
0
 30
0
  0
LINE
  8
_0-2_寸法
  6
CONTINUOUS
 62
    4
 10
633.72199292713447
 20
182.09754208113699
 11
633.72199292713447
 21
171.99577108113701
  0
LINE
  8
_0-2_寸法
  6
CONTINUOUS
 62
    4
 10
644.47199292713447
 20
182.15879408113699
 11
644.47199292713447
 21
171.99577108113701
  0
LINE
  8
_0-2_寸法
  6
CONTINUOUS
 62
    4
 10
633.22199292713447
 20
171.99577108113701
 11
632.72199292713447
 21
171.99577108113701
  0
LINE
  8
_0-2_寸法
  6
CONTINUOUS
 62
    4
 10
644.97199292713447
 20
171.99577108113701
 11
645.47199292713447
 21
171.99577108113701
  0
INSERT
  2
-000-_Dot
  8
_0-2_寸法
 10
633.72199292713447
 20
171.99577108113701
 41
1
 42
1
 50
0
  0
INSERT
  2
-000-_Dot
  8
_0-2_寸法
 10
644.47199292713447
 20
171.99577108113701
 41
1
 42
1
 50
180
  0
TEXT
  8
_0-2_寸法
 62
    7
 10
634.09699292713447
 20
172.49577108113701
 40
5
 41
1
 50
0
  1
21.5
  0
POINT
  8
_0-1_Defpoints
 62
    7
 10
633.72199292713447
 20
182.09754208113699
  0
POINT
  8
_0-1_Defpoints
 62
    7
 10
644.47199292713447
 20
182.15879408113699
  0
POINT
  8
_0-1_Defpoints
 62
    7
 10
644.47199292713447
 20
171.99577108113701
  0
ENDBLK
  0
BLOCK
  2
-031-_D34
 70
   64
 10
0
 20
0
 30
0
  0
LINE
  8
_0-2_寸法
  6
CONTINUOUS
 62
    4
 10
632.22199292713447
 20
183.62956458113706
 11
625.6436064271345
 21
183.62956458113706
  0
LINE
  8
_0-2_寸法
  6
CONTINUOUS
 62
    4
 10
632.22199292713447
 20
186.12956458113706
 11
625.6436064271345
 21
186.12956458113706
  0
LINE
  8
_0-2_寸法
  6
CONTINUOUS
 62
    4
 10
625.6436064271345
 20
183.12956458113706
 11
625.6436064271345
 21
182.62956458113706
  0
LINE
  8
_0-2_寸法
  6
CONTINUOUS
 62
    4
 10
625.6436064271345
 20
186.62956458113706
 11
625.6436064271345
 21
187.12956458113706
  0
INSERT
  2
-000-_Dot
  8
_0-2_寸法
 10
625.6436064271345
 20
183.62956458113706
 41
1
 42
1
 50
90
  0
INSERT
  2
-000-_Dot
  8
_0-2_寸法
 10
625.6436064271345
 20
186.12956458113706
 41
1
 42
1
 50
270
  0
TEXT
  8
_0-2_寸法
 62
    7
 10
625.1436064271345
 20
183.62956458113715
 40
5
 41
1
 50
90
  1
5
  0
POINT
  8
_0-1_Defpoints
 62
    7
 10
632.22199292713447
 20
183.62956458113706
  0
POINT
  8
_0-1_Defpoints
 62
    7
 10
632.22199292713447
 20
186.12956458113706
  0
POINT
  8
_0-1_Defpoints
 62
    7
 10
625.6436064271345
 20
186.12956458113706
  0
ENDBLK
  0
BLOCK
  2
-032-_D35
 70
   64
 10
0
 20
0
 30
0
  0
LINE
  8
_0-2_寸法
  6
CONTINUOUS
 62
    4
 10
583.23485392713451
 20
213.68804208113701
 11
583.23485392713451
 21
204.17759558113701
  0
LINE
  8
_0-2_寸法
  6
CONTINUOUS
 62
    4
 10
592.33485392713453
 20
213.85837458113704
 11
592.33485392713453
 21
204.17759558113701
  0
LINE
  8
_0-2_寸法
  6
CONTINUOUS
 62
    4
 10
582.73485392713451
 20
204.17759558113701
 11
582.23485392713405
 21
204.17759558113701
  0
LINE
  8
_0-2_寸法
  6
CONTINUOUS
 62
    4
 10
592.83485392713453
 20
204.17759558113701
 11
593.33485392713453
 21
204.17759558113701
  0
INSERT
  2
-000-_Dot
  8
_0-2_寸法
 10
583.23485392713451
 20
204.17759558113701
 41
1
 42
1
 50
0
  0
INSERT
  2
-000-_Dot
  8
_0-2_寸法
 10
592.33485392713453
 20
204.17759558113701
 41
1
 42
1
 50
180
  0
TEXT
  8
_0-2_寸法
 62
    7
 10
582.78485392713446
 20
204.67759558113704
 40
5
 41
1
 50
0
  1
18.2
  0
POINT
  8
_0-1_Defpoints
 62
    7
 10
583.23485392713451
 20
213.68804208113701
  0
POINT
  8
_0-1_Defpoints
 62
    7
 10
592.33485392713453
 20
213.85837458113704
  0
POINT
  8
_0-1_Defpoints
 62
    7
 10
592.33485392713453
 20
204.17759558113701
  0
ENDBLK
  0
BLOCK
  2
-033-_D36
 70
   64
 10
0
 20
0
 30
0
  0
LINE
  8
_0-2_寸法
  6
CONTINUOUS
 62
    4
 10
593.23485392713405
 20
214.33552158113704
 11
602.53743892713453
 21
214.33552158113704
  0
LINE
  8
_0-2_寸法
  6
CONTINUOUS
 62
    4
 10
594.08485392713453
 20
216.08552158113699
 11
602.53743892713453
 21
216.08552158113699
  0
LINE
  8
_0-2_寸法
  6
CONTINUOUS
 62
    4
 10
602.53743892713453
 20
213.83552158113699
 11
602.53743892713453
 21
213.33552158113699
  0
LINE
  8
_0-2_寸法
  6
CONTINUOUS
 62
    4
 10
602.53743892713453
 20
216.58552158113704
 11
602.53743892713453
 21
217.08552158113704
  0
INSERT
  2
-000-_Dot
  8
_0-2_寸法
 10
602.53743892713453
 20
214.33552158113704
 41
1
 42
1
 50
90
  0
INSERT
  2
-000-_Dot
  8
_0-2_寸法
 10
602.53743892713453
 20
216.08552158113699
 41
1
 42
1
 50
270
  0
TEXT
  8
_0-2_寸法
 62
    7
 10
602.03743892713453
 20
211.46052158113716
 40
5
 41
1
 50
90
  1
3.5
  0
POINT
  8
_0-1_Defpoints
 62
    7
 10
593.23485392713405
 20
214.33552158113704
  0
POINT
  8
_0-1_Defpoints
 62
    7
 10
594.08485392713453
 20
216.08552158113699
  0
POINT
  8
_0-1_Defpoints
 62
    7
 10
602.53743892713453
 20
216.08552158113699
  0
ENDBLK
  0
BLOCK
  2
-034-_D37
 70
   64
 10
0
 20
0
 30
0
  0
LINE
  8
_0-2_寸法
  6
CONTINUOUS
 62
    4
 10
594.08485392713453
 20
216.08552158113699
 11
602.53743892713453
 21
216.08552158113699
  0
LINE
  8
_0-2_寸法
  6
CONTINUOUS
 62
    4
 10
593.99780492713455
 20
256.08552158113707
 11
602.53743892713453
 21
256.08552158113707
  0
LINE
  8
_0-2_寸法
  6
CONTINUOUS
 62
    4
 10
602.53743892713453
 20
216.58552158113704
 11
602.53743892713453
 21
255.58552158113699
  0
INSERT
  2
-000-_Dot
  8
_0-2_寸法
 10
602.53743892713453
 20
216.08552158113699
 41
1
 42
1
 50
270
  0
INSERT
  2
-000-_Dot
  8
_0-2_寸法
 10
602.53743892713453
 20
256.08552158113707
 41
1
 42
1
 50
90
  0
TEXT
  8
_0-2_寸法
 62
    7
 10
602.03743892713453
 20
233.58552158113716
 40
5
 41
1
 50
90
  1
80
  0
POINT
  8
_0-1_Defpoints
 62
    7
 10
594.08485392713453
 20
216.08552158113699
  0
POINT
  8
_0-1_Defpoints
 62
    7
 10
593.99780492713455
 20
256.08552158113707
  0
POINT
  8
_0-1_Defpoints
 62
    7
 10
602.53743892713453
 20
256.08552158113707
  0
ENDBLK
  0
BLOCK
  2
-035-_D38
 70
   64
 10
0
 20
0
 30
0
  0
LINE
  8
_0-2_寸法
  6
CONTINUOUS
 62
    4
 10
584.18485392713455
 20
258.67757963896707
 11
584.18485392713455
 21
268.35101863896699
  0
LINE
  8
_0-2_寸法
  6
CONTINUOUS
 62
    4
 10
585.83485392713453
 20
263.07757963896705
 11
585.83485392713453
 21
268.35101863896699
  0
LINE
  8
_0-2_寸法
  6
CONTINUOUS
 62
    4
 10
583.68485392713455
 20
268.35101863896699
 11
583.18485392713455
 21
268.35101863896699
  0
LINE
  8
_0-2_寸法
  6
CONTINUOUS
 62
    4
 10
586.33485392713453
 20
268.35101863896699
 11
586.83485392713453
 21
268.35101863896699
  0
INSERT
  2
-000-_Dot
  8
_0-2_寸法
 10
584.18485392713455
 20
268.35101863896699
 41
1
 42
1
 50
0
  0
INSERT
  2
-000-_Dot
  8
_0-2_寸法
 10
585.83485392713453
 20
268.35101863896699
 41
1
 42
1
 50
180
  0
TEXT
  8
_0-2_寸法
 62
    7
 10
581.25985392713449
 20
268.85101863896705
 40
5
 41
1
 50
0
  1
3.3
  0
POINT
  8
_0-1_Defpoints
 62
    7
 10
584.18485392713455
 20
258.67757963896707
  0
POINT
  8
_0-1_Defpoints
 62
    7
 10
585.83485392713453
 20
263.07757963896705
  0
POINT
  8
_0-1_Defpoints
 62
    7
 10
585.83485392713453
 20
268.35101863896699
  0
ENDBLK
  0
BLOCK
  2
-036-_D39
 70
   64
 10
0
 20
0
 30
0
  0
LINE
  8
_0-2_寸法
  6
CONTINUOUS
 62
    4
 10
585.83485392713453
 20
257.58552158113707
 11
585.83485392713453
 21
262.85896058113701
  0
LINE
  8
_0-2_寸法
  6
CONTINUOUS
 62
    4
 10
592.33485392713453
 20
257.58552158113707
 11
592.33485392713453
 21
262.85896058113701
  0
LINE
  8
_0-2_寸法
  6
CONTINUOUS
 62
    4
 10
585.33485392713453
 20
262.85896058113701
 11
584.83485392713453
 21
262.85896058113701
  0
LINE
  8
_0-2_寸法
  6
CONTINUOUS
 62
    4
 10
592.83485392713453
 20
262.85896058113701
 11
593.33485392713453
 21
262.85896058113701
  0
INSERT
  2
-000-_Dot
  8
_0-2_寸法
 10
585.83485392713453
 20
262.85896058113701
 41
1
 42
1
 50
0
  0
INSERT
  2
-000-_Dot
  8
_0-2_寸法
 10
592.33485392713453
 20
262.85896058113701
 41
1
 42
1
 50
180
  0
TEXT
  8
_0-2_寸法
 62
    7
 10
586.58485392713396
 20
263.35896058113701
 40
5
 41
1
 50
0
  1
13
  0
POINT
  8
_0-1_Defpoints
 62
    7
 10
585.83485392713453
 20
257.58552158113707
  0
POINT
  8
_0-1_Defpoints
 62
    7
 10
592.33485392713453
 20
257.58552158113707
  0
POINT
  8
_0-1_Defpoints
 62
    7
 10
592.33485392713453
 20
262.85896058113701
  0
ENDBLK
  0
BLOCK
  2
-037-_D40
 70
   64
 10
0
 20
0
 30
0
  0
LINE
  8
_0-2_寸法
  6
CONTINUOUS
 62
    4
 10
540.13957142713446
 20
252.111362581137
 11
540.13957142713446
 21
257.68045258113705
  0
LINE
  8
_0-2_寸法
  6
CONTINUOUS
 62
    4
 10
542.63957142713446
 20
252.78032258113706
 11
542.63957142713446
 21
257.68045258113705
  0
LINE
  8
_0-2_寸法
  6
CONTINUOUS
 62
    4
 10
539.63957142713446
 20
257.68045258113705
 11
539.13957142713446
 21
257.68045258113705
  0
LINE
  8
_0-2_寸法
  6
CONTINUOUS
 62
    4
 10
543.13957142713446
 20
257.68045258113705
 11
543.63957142713446
 21
257.68045258113705
  0
INSERT
  2
-000-_Dot
  8
_0-2_寸法
 10
540.13957142713446
 20
257.68045258113705
 41
1
 42
1
 50
0
  0
INSERT
  2
-000-_Dot
  8
_0-2_寸法
 10
542.63957142713446
 20
257.68045258113705
 41
1
 42
1
 50
180
  0
TEXT
  8
_0-2_寸法
 62
    7
 10
540.13957142713446
 20
258.18045258113699
 40
5
 41
1
 50
0
  1
5
  0
POINT
  8
_0-1_Defpoints
 62
    7
 10
540.13957142713446
 20
252.111362581137
  0
POINT
  8
_0-1_Defpoints
 62
    7
 10
542.63957142713446
 20
252.78032258113706
  0
POINT
  8
_0-1_Defpoints
 62
    7
 10
542.63957142713446
 20
257.68045258113705
  0
ENDBLK
  0
BLOCK
  2
-038-_D41
 70
   64
 10
0
 20
0
 30
0
  0
LINE
  8
_0-2_寸法
  6
CONTINUOUS
 62
    4
 10
543.99257392713446
 20
251.41064508113701
 11
552.59215642713446
 21
251.41064508113701
  0
LINE
  8
_0-2_寸法
  6
CONTINUOUS
 62
    4
 10
544.13957142713446
 20
218.91064508113701
 11
552.59215642713446
 21
218.91064508113701
  0
LINE
  8
_0-2_寸法
  6
CONTINUOUS
 62
    4
 10
552.59215642713446
 20
250.91064508113706
 11
552.59215642713446
 21
219.41064508113706
  0
INSERT
  2
-000-_Dot
  8
_0-2_寸法
 10
552.59215642713446
 20
251.41064508113701
 41
1
 42
1
 50
90
  0
INSERT
  2
-000-_Dot
  8
_0-2_寸法
 10
552.59215642713446
 20
218.91064508113701
 41
1
 42
1
 50
270
  0
TEXT
  8
_0-2_寸法
 62
    7
 10
552.09215642713446
 20
232.66064508113709
 40
5
 41
1
 50
90
  1
65
  0
POINT
  8
_0-1_Defpoints
 62
    7
 10
543.99257392713446
 20
251.41064508113701
  0
POINT
  8
_0-1_Defpoints
 62
    7
 10
544.13957142713446
 20
218.91064508113701
  0
POINT
  8
_0-1_Defpoints
 62
    7
 10
552.59215642713446
 20
218.91064508113701
  0
ENDBLK
  0
BLOCK
  2
-039-_D42
 70
   64
 10
0
 20
0
 30
0
  0
LINE
  8
_0-2_寸法
  6
CONTINUOUS
 62
    4
 10
543.28957142713455
 20
217.16064508113706
 11
552.59215642713446
 21
217.16064508113706
  0
LINE
  8
_0-2_寸法
  6
CONTINUOUS
 62
    4
 10
544.13957142713446
 20
218.91064508113701
 11
552.59215642713446
 21
218.91064508113701
  0
LINE
  8
_0-2_寸法
  6
CONTINUOUS
 62
    4
 10
552.59215642713446
 20
216.66064508113701
 11
552.59215642713446
 21
216.16064508113701
  0
LINE
  8
_0-2_寸法
  6
CONTINUOUS
 62
    4
 10
552.59215642713446
 20
219.41064508113706
 11
552.59215642713446
 21
219.91064508113701
  0
INSERT
  2
-000-_Dot
  8
_0-2_寸法
 10
552.59215642713446
 20
217.16064508113706
 41
1
 42
1
 50
90
  0
INSERT
  2
-000-_Dot
  8
_0-2_寸法
 10
552.59215642713446
 20
218.91064508113701
 41
1
 42
1
 50
270
  0
TEXT
  8
_0-2_寸法
 62
    7
 10
552.09215642713446
 20
214.28564508113709
 40
5
 41
1
 50
90
  1
3.5
  0
POINT
  8
_0-1_Defpoints
 62
    7
 10
543.28957142713455
 20
217.16064508113706
  0
POINT
  8
_0-1_Defpoints
 62
    7
 10
544.13957142713446
 20
218.91064508113701
  0
POINT
  8
_0-1_Defpoints
 62
    7
 10
552.59215642713446
 20
218.91064508113701
  0
ENDBLK
  0
BLOCK
  2
-040-_D43
 70
   64
 10
0
 20
0
 30
0
  0
LINE
  8
_0-2_寸法
  6
CONTINUOUS
 62
    4
 10
532.63957142713446
 20
216.963354581137
 11
532.63957142713446
 21
207.00271908113706
  0
LINE
  8
_0-2_寸法
  6
CONTINUOUS
 62
    4
 10
542.63957142713446
 20
216.683498081137
 11
542.63957142713446
 21
207.00271908113706
  0
LINE
  8
_0-2_寸法
  6
CONTINUOUS
 62
    4
 10
533.13957142713446
 20
207.00271908113706
 11
542.13957142713446
 21
207.00271908113706
  0
INSERT
  2
-000-_Dot
  8
_0-2_寸法
 10
532.63957142713446
 20
207.00271908113706
 41
1
 42
1
 50
180
  0
INSERT
  2
-000-_Dot
  8
_0-2_寸法
 10
542.63957142713446
 20
207.00271908113706
 41
1
 42
1
 50
0
  0
TEXT
  8
_0-2_寸法
 62
    7
 10
535.13957142713446
 20
207.50271908113706
 40
5
 41
1
 50
0
  1
20
  0
POINT
  8
_0-1_Defpoints
 62
    7
 10
532.63957142713446
 20
216.963354581137
  0
POINT
  8
_0-1_Defpoints
 62
    7
 10
542.63957142713446
 20
216.683498081137
  0
POINT
  8
_0-1_Defpoints
 62
    7
 10
542.63957142713446
 20
207.00271908113706
  0
ENDBLK
  0
ENDSEC
  0
SECTION
  2
ENTITIES
  0
TEXT
  8
_0-4_文字-記号
 62
    7
 10
-90.947744771828411
 20
135.7076983499353
 40
10
 41
0.8
 50
0
  1
ＲＣ－６８Ａ
  0
LINE
  8
_0-3_躯体と製品
  6
CONTINUOUS
 62
    4
 10
-52.80599577182852
 20
-22.783165650064745
 11
-52.80599577182852
 21
-31.583165650064757
  0
LINE
  8
_0-3_躯体と製品
  6
CONTINUOUS
 62
    4
 10
-51.30599577182852
 20
-32.783165650064745
 11
-51.30599577182852
 21
31.956189349935357
  0
ARC
  8
_0-3_躯体と製品
  6
CONTINUOUS
 62
    4
 10
-53.005995771828339
 20
14.216834349935368
 40
49
 50
249.1787450000021
 51
268.24577400000248
  0
ARC
  8
_0-3_躯体と製品
  6
CONTINUOUS
 62
    4
 10
-53.005995771828339
 20
14.216834349935368
 40
50.5
 50
249.2813720000002
 51
270
  0
ARC
  8
_0-3_躯体と製品
  6
CONTINUOUS
 62
    4
 10
-70.606498771828456
 20
-32.315786650064638
 40
0.75
 50
69.281372000000218
 51
249.2813720000002
  0
LINE
  8
_0-3_躯体と製品
  6
CONTINUOUS
 62
    4
 10
-54.505995771828339
 20
-34.760200650064746
 11
-54.505995771828339
 21
-31.583165650064757
  0
LINE
  8
_0-3_躯体と製品
  6
CONTINUOUS
 62
    4
 10
-52.80599577182852
 20
-31.583165650064757
 11
-54.505995771828339
 21
-31.583165650064757
  0
LINE
  8
_0-3_躯体と製品
  6
CONTINUOUS
 62
    4
 10
-51.30599577182852
 20
-32.783165650064745
 11
-53.005995771828339
 21
-32.783165650064745
  0
LINE
  8
_0-3_躯体と製品
  6
CONTINUOUS
 62
    4
 10
-53.005995771828339
 20
-32.783165650064745
 11
-53.005995771828339
 21
-36.283165650064632
  0
LINE
  8
_0-3_躯体と製品
  6
CONTINUOUS
 62
    4
 10
-52.80599577182852
 20
23.016834349935323
 11
-52.80599577182852
 21
7.2168343499352545
  0
LINE
  8
_0-3_躯体と製品
  6
CONTINUOUS
 62
    4
 10
-52.80599577182852
 20
-2.7831656500646318
 11
-52.80599577182852
 21
-12.783165650064745
  0
LINE
  8
_0-3_躯体と製品
  6
CONTINUOUS
 62
    4
 10
-52.405995771828429
 20
-13.183165650064666
 11
-52.405995771828429
 21
-22.383165650064655
  0
LINE
  8
_0-3_躯体と製品
  6
CONTINUOUS
 62
    4
 10
-52.405995771828429
 20
-22.383165650064655
 11
-52.80599577182852
 21
-22.783165650064745
  0
LINE
  8
_0-3_躯体と製品
  6
CONTINUOUS
 62
    4
 10
-52.80599577182852
 20
-12.783165650064745
 11
-52.405995771828429
 21
-13.183165650064666
  0
LINE
  8
_0-3_躯体と製品
  6
CONTINUOUS
 62
    4
 10
-52.405995771828429
 20
6.8168343499353341
 11
-52.405995771828429
 21
-2.3831656500647682
  0
LINE
  8
_0-3_躯体と製品
  6
CONTINUOUS
 62
    4
 10
-52.405995771828429
 20
-2.3831656500647682
 11
-52.80599577182852
 21
-2.7831656500646318
  0
LINE
  8
_0-3_躯体と製品
  6
CONTINUOUS
 62
    4
 10
-52.80599577182852
 20
7.2168343499352545
 11
-52.405995771828429
 21
6.8168343499353341
  0
LINE
  8
_0-3_躯体と製品
  6
CONTINUOUS
 62
    4
 10
-69.622982771828447
 20
22.435745349935246
 11
-65.255995771828339
 21
24.957026349935347
  0
LINE
  8
_0-3_躯体と製品
  6
CONTINUOUS
 62
    4
 10
-66.616507771828537
 20
23.016834349935323
 11
-52.80599577182852
 21
23.016834349935323
  0
ARC
  8
_0-3_躯体と製品
  6
CONTINUOUS
 62
    4
 10
-69.372982771828447
 20
22.002732349935343
 40
0.5
 50
120.0000000000005
 51
300.00000000000045
  0
LINE
  8
_0-3_躯体と製品
  6
CONTINUOUS
 62
    4
 10
-66.616507771828537
 20
23.016834349935323
 11
-69.122982771829356
 21
21.569720349935267
  0
LINE
  8
_0-3_躯体と製品
  6
CONTINUOUS
 62
    4
 10
-52.80599577182852
 20
24.216834349935255
 11
-52.80599577182852
 21
30.779634349935236
  0
LINE
  8
_0-3_躯体と製品
  6
CONTINUOUS
 62
    4
 10
-52.80599577182852
 20
24.216834349935255
 11
-60.105995771828475
 21
24.216834349935255
  0
ARC
  8
_0-3_躯体と製品
  6
CONTINUOUS
 62
    4
 10
-65.105995771829384
 20
24.697219349935267
 40
0.2999999999999999
 50
0
 51
120.0000000000005
  0
LINE
  8
_0-3_躯体と製品
  6
CONTINUOUS
 62
    4
 10
-64.80599577182852
 20
24.216834349935255
 11
-64.80599577182852
 21
24.697219349935267
  0
LINE
  8
_0-3_躯体と製品
  6
CONTINUOUS
 62
    4
 10
-61.105995771828475
 20
24.216834349935255
 11
-64.80599577182852
 21
24.216834349935255
  0
LINE
  8
_0-3_躯体と製品
  6
CONTINUOUS
 62
    4
 10
-61.105995771828475
 20
26.216834349935368
 11
-61.105995771828475
 21
24.216834349935255
  0
LINE
  8
_0-3_躯体と製品
  6
CONTINUOUS
 62
    4
 10
-60.105995771828475
 20
26.216834349935368
 11
-60.105995771828475
 21
24.216834349935255
  0
ARC
  8
_0-3_躯体と製品
  6
CONTINUOUS
 62
    4
 10
-60.605995771829384
 20
26.216834349935368
 40
0.5
 50
0
 51
180
  0
ARC
  8
_0-3_躯体と製品
  6
CONTINUOUS
 62
    4
 10
-55.823032771828366
 20
30.488859349935353
 40
0.5
 50
105.0000000000007
 51
285.00000000000068
  0
LINE
  8
_0-3_躯体と製品
  6
CONTINUOUS
 62
    4
 10
-52.80599577182852
 20
30.779634349935236
 11
-55.69362377182847
 21
30.005897349935253
  0
LINE
  8
_0-3_躯体と製品
  6
CONTINUOUS
 62
    4
 10
-55.952442771828373
 20
30.971822349935337
 11
-51.557759771828387
 21
32.149374349935272
  0
ARC
  8
_0-3_躯体と製品
  6
CONTINUOUS
 62
    4
 10
-51.505995771829475
 20
31.956189349935357
 40
0.2
 50
0
 51
105.0000000000007
  0
ARC
  8
_0-3_躯体と製品
  6
CONTINUOUS
 62
    4
 10
148.8588472281715
 20
20.590628349935344
 40
48.5
 50
250.11694000000313
 51
269.60327400000119
  0
ARC
  8
_0-3_躯体と製品
  6
CONTINUOUS
 62
    4
 10
148.8588472281715
 20
20.590628349935344
 40
50
 50
250.11694000000313
 51
270.00000000000006
  0
LINE
  8
_0-3_躯体と製品
  6
CONTINUOUS
 62
    4
 10
148.5230282281716
 20
-27.908209650064748
 11
149.24209722817159
 21
-27.009371650064736
  0
LINE
  8
_0-3_躯体と製品
  6
CONTINUOUS
 62
    4
 10
152.3588472281715
 20
101.59062834993529
 11
152.3588472281715
 21
-103.40937165006466
  0
LINE
  8
_0-3_躯体と製品
  6
CONTINUOUS
 62
    4
 10
46.584569228171631
 20
33.858488349935271
 11
46.584569228171631
 21
-37.233412650064679
  0
LINE
  8
_0-3_躯体と製品
  6
CONTINUOUS
 62
    4
 10
48.084569228171631
 20
-38.433412650064781
 11
48.084569228171631
 21
41.566587349935389
  0
ARC
  8
_0-3_躯体と製品
  6
CONTINUOUS
 62
    4
 10
46.884569228171586
 20
8.0665873499353324
 40
48.5
 50
250.6799169999978
 51
268.34587099999737
  0
ARC
  8
_0-3_躯体と製品
  6
CONTINUOUS
 62
    4
 10
46.884569228171586
 20
8.0665873499353324
 40
50
 50
250.6799169999978
 51
270
  0
ARC
  8
_0-3_躯体と製品
  6
CONTINUOUS
 62
    4
 10
30.59044322817158
 20
-38.409900650064628
 40
0.75
 50
70.679916999997801
 51
250.6799169999978
  0
LINE
  8
_0-3_躯体と製品
  6
CONTINUOUS
 62
    4
 10
45.484569228171495
 20
-40.41320165006465
 11
45.484569228171495
 21
-37.733412650064679
  0
LINE
  8
_0-3_躯体と製品
  6
CONTINUOUS
 62
    4
 10
46.884569228171586
 20
-38.433412650064781
 11
48.084569228171631
 21
-38.433412650064781
  0
LINE
  8
_0-3_躯体と製品
  6
CONTINUOUS
 62
    4
 10
46.884569228171586
 20
-41.933412650064668
 11
46.884569228171586
 21
-38.433412650064781
  0
LINE
  8
_0-3_躯体と製品
  6
CONTINUOUS
 62
    4
 10
46.584569228171631
 20
-37.233412650064679
 11
45.984569228170585
 21
-37.233412650064679
  0
ARC
  8
_0-3_躯体と製品
  6
CONTINUOUS
 62
    4
 10
45.984569228170585
 20
-37.733412650064679
 40
0.5
 50
90
 51
180
  0
LINE
  8
_0-3_躯体と製品
  6
CONTINUOUS
 62
    4
 10
150.65884722817168
 20
-74.626515650064675
 11
150.65884722817168
 21
-40.40937165006477
  0
LINE
  8
_0-3_躯体と製品
  6
CONTINUOUS
 62
    4
 10
130.8588472281715
 20
-103.40937165006466
 11
152.3588472281715
 21
-103.40937165006466
  0
LINE
  8
_0-3_躯体と製品
  6
CONTINUOUS
 62
    4
 10
132.3588472281715
 20
-101.60937165006465
 11
150.65884722817168
 21
-101.60937165006465
  0
LINE
  8
_0-3_躯体と製品
  6
CONTINUOUS
 62
    4
 10
132.3588472281715
 20
-98.40937165006477
 11
132.3588472281715
 21
-101.60937165006465
  0
LINE
  8
_0-3_躯体と製品
  6
CONTINUOUS
 62
    4
 10
130.8588472281715
 20
-98.40937165006477
 11
132.3588472281715
 21
-98.40937165006477
  0
LINE
  8
_0-3_躯体と製品
  6
CONTINUOUS
 62
    4
 10
130.8588472281715
 20
-103.40937165006466
 11
130.8588472281715
 21
-98.40937165006477
  0
LINE
  8
_0-3_躯体と製品
  6
CONTINUOUS
 62
    4
 10
150.65884722817168
 20
-82.192227650064638
 11
150.65884722817168
 21
-101.60937165006465
  0
ARC
  8
_0-3_躯体と製品
  6
CONTINUOUS
 62
    4
 10
146.65884722817168
 20
-77.209371650064668
 40
0.2999999999999999
 50
180
 51
270
  0
ARC
  8
_0-3_躯体と製品
  6
CONTINUOUS
 62
    4
 10
146.65884722817168
 20
-79.609371650064645
 40
0.2999999999999999
 50
90
 51
180
  0
ARC
  8
_0-3_躯体と製品
  6
CONTINUOUS
 62
    4
 10
148.3588472281715
 20
-78.409371650064656
 40
3
 50
71.034424999998123
 51
131.8103149999983
  0
ARC
  8
_0-3_躯体と製品
  6
CONTINUOUS
 62
    4
 10
148.3588472281715
 20
-78.409371650064656
 40
3
 50
228.18968500000162
 51
288.96557500000188
  0
LINE
  8
_0-3_躯体と製品
  6
CONTINUOUS
 62
    4
 10
146.3588472281715
 20
-76.173303650064781
 11
146.3588472281715
 21
-77.209371650064668
  0
LINE
  8
_0-3_躯体と製品
  6
CONTINUOUS
 62
    4
 10
146.3588472281715
 20
-80.645439650064645
 11
146.3588472281715
 21
-79.609371650064645
  0
LINE
  8
_0-3_躯体と製品
  6
CONTINUOUS
 62
    4
 10
147.15884722817168
 20
-77.509371650064736
 11
146.65884722817168
 21
-77.509371650064736
  0
LINE
  8
_0-3_躯体と製品
  6
CONTINUOUS
 62
    4
 10
147.15884722817168
 20
-79.309371650064747
 11
146.65884722817168
 21
-79.309371650064747
  0
ARC
  8
_0-3_躯体と製品
  6
CONTINUOUS
 62
    4
 10
149.65884722817168
 20
-74.626515650064675
 40
1
 50
251.03442499999809
 51
0
  0
ARC
  8
_0-3_躯体と製品
  6
CONTINUOUS
 62
    4
 10
148.3588472281715
 20
-78.409371650064656
 40
1.5
 50
216.8698980000006
 51
143.13010199999928
  0
ARC
  8
_0-3_躯体と製品
  6
CONTINUOUS
 62
    4
 10
149.65884722817168
 20
-82.192227650064638
 40
1
 50
0
 51
108.96557500000182
  0
LINE
  8
_0-3_躯体と製品
  6
CONTINUOUS
 62
    4
 10
150.65884722817168
 20
-39.40937165006477
 11
150.65884722817168
 21
-28.409371650064656
  0
LINE
  8
_0-3_躯体と製品
  6
CONTINUOUS
 62
    4
 10
141.05703222817147
 20
-39.40937165006477
 11
150.65884722817168
 21
-39.40937165006477
  0
LINE
  8
_0-3_躯体と製品
  6
CONTINUOUS
 62
    4
 10
144.3588472281715
 20
-40.40937165006477
 11
150.65884722817168
 21
-40.40937165006477
  0
ARC
  8
_0-3_躯体と製品
  6
CONTINUOUS
 62
    4
 10
141.05703222817147
 20
-39.607556650064737
 40
0.198185
 50
90
 51
239.99999999999943
  0
LINE
  8
_0-3_躯体と製品
  6
CONTINUOUS
 62
    4
 10
140.95794022817154
 20
-39.779190650064663
 11
143.34848422817163
 21
-41.15937165006477
  0
LINE
  8
_0-3_躯体と製品
  6
CONTINUOUS
 62
    4
 10
144.3588472281715
 20
-40.40937165006477
 11
144.03149722817147
 21
-40.976359650064751
  0
ARC
  8
_0-3_躯体と製品
  6
CONTINUOUS
 62
    4
 10
143.59848422817163
 20
-40.726359650064637
 40
0.5
 50
239.99999999999943
 51
329.99999999999937
  0
LINE
  8
_0-3_躯体と製品
  6
CONTINUOUS
 62
    4
 10
149.65884722817168
 20
-28.409371650064656
 11
150.65884722817168
 21
-28.409371650064656
  0
LINE
  8
_0-3_躯体と製品
  6
CONTINUOUS
 62
    4
 10
148.8588472281715
 20
-29.409371650064656
 11
149.65884722817168
 21
-28.409371650064656
  0
TEXT
  8
_0-4_文字-記号
 62
    7
 10
102.55156822817162
 20
135.7076983499353
 40
10
 41
0.8
 50
0
  1
ＲＣ－２０５
  0
ARC
  8
_0-3_躯体と製品
  6
CONTINUOUS
 62
    4
 10
44.084569228171631
 20
37.566587349935332
 40
1.5
 50
261.86989800000219
 51
188.13010200000139
  0
LINE
  8
_0-3_躯体と製品
  6
CONTINUOUS
 62
    4
 10
44.251494228171623
 20
34.57123534993525
 11
43.518883228171489
 21
35.30384534993533
  0
LINE
  8
_0-3_躯体と製品
  6
CONTINUOUS
 62
    4
 10
35.084569228171631
 20
41.566587349935389
 11
48.084569228171631
 21
41.566587349935389
  0
ARC
  8
_0-3_躯体と製品
  6
CONTINUOUS
 62
    4
 10
41.212288228171474
 20
39.566587349935332
 40
0.5
 50
325.15009500000002
 51
90
  0
ARC
  8
_0-3_躯体と製品
  6
CONTINUOUS
 62
    4
 10
37.584569228171631
 20
39.066587349935332
 40
1
 50
90
 51
180
  0
LINE
  8
_0-3_躯体と製品
  6
CONTINUOUS
 62
    4
 10
35.084569228171631
 20
41.566587349935389
 11
35.084569228171631
 21
33.966587349935367
  0
ARC
  8
_0-3_躯体と製品
  6
CONTINUOUS
 62
    4
 10
36.084569228171631
 20
33.266587349935321
 40
0.5
 50
270
 51
0
  0
LINE
  8
_0-3_躯体と製品
  6
CONTINUOUS
 62
    4
 10
33.784569228171677
 20
33.966587349935367
 11
33.605983228171681
 21
34.275906349935326
  0
LINE
  8
_0-3_躯体と製品
  6
CONTINUOUS
 62
    4
 10
31.784569228171677
 20
33.166587349935241
 11
32.976731228171502
 21
34.358749349935351
  0
ARC
  8
_0-3_躯体と製品
  6
CONTINUOUS
 62
    4
 10
33.259573228170666
 20
34.075906349935337
 40
0.4
 50
30.00000000000054
 51
135
  0
LINE
  8
_0-3_躯体と製品
  6
CONTINUOUS
 62
    4
 10
31.784569228171677
 20
32.766587349935321
 11
31.784569228171677
 21
33.166587349935241
  0
LINE
  8
_0-3_躯体と製品
  6
CONTINUOUS
 62
    4
 10
33.784569228171677
 20
33.966587349935367
 11
35.084569228171631
 21
33.966587349935367
  0
LINE
  8
_0-3_躯体と製品
  6
CONTINUOUS
 62
    4
 10
31.784569228171677
 20
32.766587349935321
 11
36.084569228171631
 21
32.766587349935321
  0
ARC
  8
_0-3_躯体と製品
  6
CONTINUOUS
 62
    4
 10
44.084569228171631
 20
37.566587349935332
 40
3
 50
145.15009499999999
 51
176.8103150000004
  0
LINE
  8
_0-3_躯体と製品
  6
CONTINUOUS
 62
    4
 10
42.599645228171539
 20
37.354455349935222
 11
42.246091228171508
 21
37.000902349935359
  0
LINE
  8
_0-3_躯体と製品
  6
CONTINUOUS
 62
    4
 10
41.089216228170471
 20
37.733512349935324
 11
41.821827228171514
 21
37.000902349935359
  0
ARC
  8
_0-3_躯体と製品
  6
CONTINUOUS
 62
    4
 10
42.033959228170488
 20
37.213034349935356
 40
0.2999999999999999
 50
225
 51
315
  0
ARC
  8
_0-3_躯体と製品
  6
CONTINUOUS
 62
    4
 10
43.7310152281716
 20
35.51597734993527
 40
0.2999999999999999
 50
135
 51
225
  0
LINE
  8
_0-3_躯体と製品
  6
CONTINUOUS
 62
    4
 10
43.87243722817152
 20
36.081663349935354
 11
43.518883228171489
 21
35.728109349935323
  0
LINE
  8
_0-3_躯体と製品
  6
CONTINUOUS
 62
    4
 10
36.584569228171631
 20
39.066587349935332
 11
36.584569228171631
 21
33.266587349935321
  0
LINE
  8
_0-3_躯体と製品
  6
CONTINUOUS
 62
    4
 10
41.212288228171474
 20
40.066587349935332
 11
37.584569228171631
 21
40.066587349935332
  0
ARC
  8
_0-3_躯体と製品
  6
CONTINUOUS
 62
    4
 10
45.584569228171631
 20
33.858488349935271
 40
1
 50
0
 51
112.0243130000012
  0
ARC
  8
_0-3_躯体と製品
  6
CONTINUOUS
 62
    4
 10
44.084569228171631
 20
37.566587349935332
 40
3
 50
273.18968500000278
 51
292.02431300000126
  0
TEXT
  8
_0-4_文字-記号
 62
    7
 10
9.7605682281716781
 20
135.48162434993537
 40
10
 41
0.8
 50
0
  1
ＲＣ－８０
  0
LINE
  8
_0-3_躯体と製品
  6
CONTINUOUS
 62
    4
 10
150.65884722817168
 20
51.590628349935287
 11
150.65884722817168
 21
98.790628349935332
  0
LINE
  8
_0-3_躯体と製品
  6
CONTINUOUS
 62
    4
 10
150.65884722817168
 20
43.807772349935362
 11
150.65884722817168
 21
-27.009371650064736
  0
ARC
  8
_0-3_躯体と製品
  6
CONTINUOUS
 62
    4
 10
132.1088472281715
 20
-25.723516650064653
 40
0.75
 50
70.116940000003197
 51
250.11694000000313
  0
LINE
  8
_0-3_躯体と製品
  6
CONTINUOUS
 62
    4
 10
149.24209722817159
 20
-27.009371650064736
 11
150.65884722817168
 21
-27.009371650064736
  0
ARC
  8
_0-3_躯体と製品
  6
CONTINUOUS
 62
    4
 10
138.3588472281715
 20
43.790628349935218
 40
1
 50
270
 51
0
  0
LINE
  8
_0-3_躯体と製品
  6
CONTINUOUS
 62
    4
 10
150.65884722817168
 20
51.590628349935287
 11
138.15884722817168
 21
51.590628349935287
  0
LINE
  8
_0-3_躯体と製品
  6
CONTINUOUS
 62
    4
 10
137.8588472281715
 20
43.990628349935378
 11
137.8588472281715
 21
51.290628349935218
  0
ARC
  8
_0-3_躯体と製品
  6
CONTINUOUS
 62
    4
 10
132.91240122817157
 20
41.214425349935368
 40
0.5
 50
135
 51
315
  0
LINE
  8
_0-3_躯体と製品
  6
CONTINUOUS
 62
    4
 10
132.55884722817154
 20
41.567978349935402
 11
135.52073722817158
 21
44.529868349935327
  0
LINE
  8
_0-3_躯体と製品
  6
CONTINUOUS
 62
    4
 10
133.26595422817149
 20
40.860871349935223
 11
135.1957112281716
 21
42.790628349935218
  0
LINE
  8
_0-3_躯体と製品
  6
CONTINUOUS
 62
    4
 10
135.1957112281716
 20
42.790628349935218
 11
138.3588472281715
 21
42.790628349935218
  0
LINE
  8
_0-3_躯体と製品
  6
CONTINUOUS
 62
    4
 10
136.55884722817154
 20
43.990628349935378
 11
136.30730322817158
 21
44.426315349935294
  0
ARC
  8
_0-3_躯体と製品
  6
CONTINUOUS
 62
    4
 10
135.87429122817161
 20
44.176315349935294
 40
0.5
 50
30.00000000000054
 51
135
  0
LINE
  8
_0-3_躯体と製品
  6
CONTINUOUS
 62
    4
 10
136.55884722817154
 20
43.990628349935378
 11
137.8588472281715
 21
43.990628349935378
  0
ARC
  8
_0-3_躯体と製品
  6
CONTINUOUS
 62
    4
 10
138.15884722817168
 20
51.290628349935218
 40
0.2999999999999999
 50
90
 51
180
  0
LINE
  8
_0-3_躯体と製品
  6
CONTINUOUS
 62
    4
 10
146.01218822817054
 20
46.516761349935223
 11
146.87392322817163
 21
47.378496349935403
  0
LINE
  8
_0-3_躯体と製品
  6
CONTINUOUS
 62
    4
 10
139.3588472281715
 20
43.790628349935218
 11
139.3588472281715
 21
49.090628349935287
  0
ARC
  8
_0-3_躯体と製品
  6
CONTINUOUS
 62
    4
 10
145.80005622817157
 20
46.728893349935333
 40
0.2999999999999999
 50
198.6122000000002
 51
315
  0
ARC
  8
_0-3_躯体と製品
  6
CONTINUOUS
 62
    4
 10
144.65074822817155
 20
49.090628349935287
 40
1
 50
337.97568699999874
 51
90.000000000000057
  0
ARC
  8
_0-3_躯体と製品
  6
CONTINUOUS
 62
    4
 10
148.3588472281715
 20
47.590628349935287
 40
3
 50
157.97568699999869
 51
198.6122000000002
  0
LINE
  8
_0-3_躯体と製品
  6
CONTINUOUS
 62
    4
 10
144.65074822817155
 20
50.090628349935287
 11
140.3588472281715
 21
50.090628349935287
  0
ARC
  8
_0-3_躯体と製品
  6
CONTINUOUS
 62
    4
 10
140.3588472281715
 20
49.090628349935287
 40
1
 50
90
 51
180
  0
LINE
  8
_0-3_躯体と製品
  6
CONTINUOUS
 62
    4
 10
147.28498022817166
 20
45.243968349935244
 11
148.14671522817162
 21
46.105703349935197
  0
ARC
  8
_0-3_躯体と製品
  6
CONTINUOUS
 62
    4
 10
148.3588472281715
 20
47.590628349935287
 40
1.5
 50
261.86989800000219
 51
188.13010200000139
  0
ARC
  8
_0-3_躯体と製品
  6
CONTINUOUS
 62
    4
 10
147.49711222817155
 20
45.031836349935361
 40
0.2999999999999999
 50
135
 51
251.38780000000173
  0
ARC
  8
_0-3_躯体と製品
  6
CONTINUOUS
 62
    4
 10
149.65884722817168
 20
43.807772349935362
 40
1
 50
0
 51
108.96557500000182
  0
ARC
  8
_0-3_躯体と製品
  6
CONTINUOUS
 62
    4
 10
148.3588472281715
 20
47.590628349935287
 40
3
 50
251.38780000000173
 51
288.96557500000182
  0
LINE
  8
_0-3_躯体と製品
  6
CONTINUOUS
 62
    4
 10
152.3588472281715
 20
101.59062834993529
 11
126.8588472281715
 21
101.59062834993529
  0
LINE
  8
_0-3_躯体と製品
  6
CONTINUOUS
 62
    4
 10
132.55884722817154
 20
99.790628349935332
 11
149.65884722817168
 21
99.790628349935332
  0
ARC
  8
_0-3_躯体と製品
  6
CONTINUOUS
 62
    4
 10
130.55884722817154
 20
96.590628349935287
 40
1
 50
270
 51
0
  0
ARC
  8
_0-3_躯体と製品
  6
CONTINUOUS
 62
    4
 10
128.55884722817154
 20
98.590628349935287
 40
1.5
 50
216.8698980000006
 51
143.13010199999928
  0
LINE
  8
_0-3_躯体と製品
  6
CONTINUOUS
 62
    4
 10
126.55884722817154
 20
99.790628349935332
 11
126.55884722817154
 21
101.29062834993522
  0
LINE
  8
_0-3_躯体と製品
  6
CONTINUOUS
 62
    4
 10
127.3588472281715
 20
99.490628349935378
 11
126.8588472281715
 21
99.490628349935378
  0
ARC
  8
_0-3_躯体と製品
  6
CONTINUOUS
 62
    4
 10
126.8588472281715
 20
99.790628349935332
 40
0.2999999999999999
 50
180
 51
270
  0
LINE
  8
_0-3_躯体と製品
  6
CONTINUOUS
 62
    4
 10
127.3588472281715
 20
97.690628349935196
 11
126.8588472281715
 21
97.690628349935196
  0
ARC
  8
_0-3_躯体と製品
  6
CONTINUOUS
 62
    4
 10
126.8588472281715
 20
97.390628349935355
 40
0.2999999999999999
 50
90
 51
180
  0
LINE
  8
_0-3_躯体と製品
  6
CONTINUOUS
 62
    4
 10
126.55884722817154
 20
97.390628349935355
 11
126.55884722817154
 21
95.890628349935355
  0
ARC
  8
_0-3_躯体と製品
  6
CONTINUOUS
 62
    4
 10
126.8588472281715
 20
95.890628349935355
 40
0.2999999999999999
 50
180
 51
270
  0
ARC
  8
_0-3_躯体と製品
  6
CONTINUOUS
 62
    4
 10
126.8588472281715
 20
101.29062834993522
 40
0.2999999999999999
 50
90
 51
180
  0
LINE
  8
_0-3_躯体と製品
  6
CONTINUOUS
 62
    4
 10
126.8588472281715
 20
95.590628349935287
 11
130.55884722817154
 21
95.590628349935287
  0
ARC
  8
_0-3_躯体と製品
  6
CONTINUOUS
 62
    4
 10
132.55884722817154
 20
98.790628349935332
 40
1
 50
90
 51
180
  0
LINE
  8
_0-3_躯体と製品
  6
CONTINUOUS
 62
    4
 10
131.55884722817154
 20
96.590628349935287
 11
131.55884722817154
 21
98.790628349935332
  0
LINE
  8
_0-3_躯体と製品
  6
CONTINUOUS
 62
    4
 10
150.65884722817168
 20
101.59062834993529
 11
152.3588472281715
 21
101.59062834993529
  0
ARC
  8
_0-3_躯体と製品
  6
CONTINUOUS
 62
    4
 10
149.65884722817168
 20
98.790628349935332
 40
1
 50
0
 51
90
  0
TEXT
  8
_0-4_文字-記号
 62
    7
 10
-36.945745771828342
 20
397.29351434993521
 40
10
 41
0.8
 50
0
  1
ＢＨ－２０
  0
TEXT
  8
_0-4_文字-記号
 62
    7
 10
-126.72367777182842
 20
414.22210334993531
 40
10
 41
0.8
 50
0
  1
ブラインドカバー
  0
TEXT
  8
_0-4_文字-記号
 62
    7
 10
-133.71182877182844
 20
166.39272634993529
 40
10
 41
0.8
 50
0
  1
サイドカバー
  0
ARC
  8
_0-3_躯体と製品
  6
CONTINUOUS
 62
    4
 10
106.61945222817167
 20
287.12435834993528
 40
1.5
 50
270
 51
0
  0
ARC
  8
_0-3_躯体と製品
  6
CONTINUOUS
 62
    4
 10
106.61945222817167
 20
305.62435834993528
 40
1.5
 50
0
 51
90
  0
LINE
  8
_0-3_躯体と製品
  6
CONTINUOUS
 62
    4
 10
12.67167522817158
 20
267.12435834993539
 11
12.67167522817158
 21
285.62435834993528
  0
LINE
  8
_0-3_躯体と製品
  6
CONTINUOUS
 62
    4
 10
11.17167522817158
 20
287.12435834993528
 11
11.17167522817158
 21
267.62435834993539
  0
ARC
  8
_0-3_躯体と製品
  6
CONTINUOUS
 62
    4
 10
11.17167522817158
 20
267.12435834993539
 40
1.5
 50
270
 51
0
  0
ARC
  8
_0-3_躯体と製品
  6
CONTINUOUS
 62
    4
 10
8.6716752281706704
 20
260.91625834993533
 40
1
 50
0
 51
112.0243130000012
  0
ARC
  8
_0-3_躯体と製品
  6
CONTINUOUS
 62
    4
 10
7.1716752281715799
 20
264.62435834993539
 40
3
 50
228.18968500000162
 51
292.0243130000012
  0
LINE
  8
_0-3_躯体と製品
  6
CONTINUOUS
 62
    4
 10
11.17167522817158
 20
265.62435834993539
 11
11.17167522817158
 21
247.62435834993539
  0
LINE
  8
_0-3_躯体と製品
  6
CONTINUOUS
 62
    4
 10
-7.5283247718284656
 20
249.12435834993539
 11
9.6716752281715799
 21
249.12435834993539
  0
LINE
  8
_0-3_躯体と製品
  6
CONTINUOUS
 62
    4
 10
-8.8283247718284201
 20
247.62435834993539
 11
11.17167522817158
 21
247.62435834993539
  0
LINE
  8
_0-3_躯体と製品
  6
CONTINUOUS
 62
    4
 10
-7.5283247718284656
 20
252.62435834993539
 11
-7.5283247718284656
 21
249.12435834993539
  0
LINE
  8
_0-3_躯体と製品
  6
CONTINUOUS
 62
    4
 10
-8.8283247718284201
 20
252.62435834993539
 11
-8.8283247718284201
 21
247.62435834993539
  0
LINE
  8
_0-3_躯体と製品
  6
CONTINUOUS
 62
    4
 10
-8.8283247718284201
 20
252.62435834993539
 11
-7.5283247718284656
 21
252.62435834993539
  0
LINE
  8
_0-3_躯体と製品
  6
CONTINUOUS
 62
    4
 10
9.6716752281715799
 20
260.91625834993533
 11
9.6716752281715799
 21
249.12435834993539
  0
LINE
  8
_0-3_躯体と製品
  6
CONTINUOUS
 62
    4
 10
-9.1283247718283747
 20
267.62435834993539
 11
11.17167522817158
 21
267.62435834993539
  0
LINE
  8
_0-3_躯体と製品
  6
CONTINUOUS
 62
    4
 10
-10.32832477182842
 20
266.42435834993535
 11
5.1716752281715799
 21
266.42435834993535
  0
LINE
  8
_0-3_躯体と製品
  6
CONTINUOUS
 62
    4
 10
-9.1283247718283747
 20
271.42435834993535
 11
-9.1283247718283747
 21
267.62435834993539
  0
LINE
  8
_0-3_躯体と製品
  6
CONTINUOUS
 62
    4
 10
-10.32832477182842
 20
271.42435834993535
 11
-10.32832477182842
 21
266.42435834993535
  0
LINE
  8
_0-3_躯体と製品
  6
CONTINUOUS
 62
    4
 10
-10.32832477182842
 20
271.42435834993535
 11
-9.1283247718283747
 21
271.42435834993535
  0
LINE
  8
_0-3_躯体と製品
  6
CONTINUOUS
 62
    4
 10
5.1716752281715799
 20
262.38829034993535
 11
5.1716752281715799
 21
263.42435834993535
  0
LINE
  8
_0-3_躯体と製品
  6
CONTINUOUS
 62
    4
 10
5.9716752281706249
 20
263.7243583499353
 11
5.4716752281715344
 21
263.7243583499353
  0
ARC
  8
_0-3_躯体と製品
  6
CONTINUOUS
 62
    4
 10
5.4716752281715344
 20
263.42435834993535
 40
0.2999999999999999
 50
90
 51
180
  0
LINE
  8
_0-3_躯体と製品
  6
CONTINUOUS
 62
    4
 10
5.9716752281706249
 20
265.52435834993537
 11
5.4716752281715344
 21
265.52435834993537
  0
ARC
  8
_0-3_躯体と製品
  6
CONTINUOUS
 62
    4
 10
5.4716752281715344
 20
265.82435834993532
 40
0.2999999999999999
 50
180
 51
270
  0
LINE
  8
_0-3_躯体と製品
  6
CONTINUOUS
 62
    4
 10
5.1716752281715799
 20
266.42435834993535
 11
5.1716752281715799
 21
265.82435834993532
  0
ARC
  8
_0-3_躯体と製品
  6
CONTINUOUS
 62
    4
 10
7.1716752281715799
 20
264.62435834993539
 40
1.5
 50
216.8698980000006
 51
143.13010199999928
  0
ARC
  8
_0-3_躯体と製品
  6
CONTINUOUS
 62
    4
 10
11.17167522817158
 20
285.62435834993528
 40
1.5
 50
0
 51
90
  0
LINE
  8
_0-3_躯体と製品
  6
CONTINUOUS
 62
    4
 10
106.61945222817167
 20
285.62435834993528
 11
106.61945222817167
 21
247.62435834993539
  0
LINE
  8
_0-3_躯体と製品
  6
CONTINUOUS
 62
    4
 10
105.11945222817167
 20
276.33245734993534
 11
105.11945222817167
 21
286.42435834993523
  0
LINE
  8
_0-3_躯体と製品
  6
CONTINUOUS
 62
    4
 10
105.11945222817167
 20
249.12435834993539
 11
105.11945222817167
 21
268.91625834993533
  0
LINE
  8
_0-3_躯体と製品
  6
CONTINUOUS
 62
    4
 10
87.919452228171622
 20
249.12435834993539
 11
105.11945222817167
 21
249.12435834993539
  0
LINE
  8
_0-3_躯体と製品
  6
CONTINUOUS
 62
    4
 10
86.619452228171667
 20
247.62435834993539
 11
106.61945222817167
 21
247.62435834993539
  0
LINE
  8
_0-3_躯体と製品
  6
CONTINUOUS
 62
    4
 10
87.919452228171622
 20
252.62435834993539
 11
87.919452228171622
 21
249.12435834993539
  0
LINE
  8
_0-3_躯体と製品
  6
CONTINUOUS
 62
    4
 10
86.619452228171667
 20
252.62435834993539
 11
86.619452228171667
 21
247.62435834993539
  0
LINE
  8
_0-3_躯体と製品
  6
CONTINUOUS
 62
    4
 10
86.619452228171667
 20
252.62435834993539
 11
87.919452228171622
 21
252.62435834993539
  0
ARC
  8
_0-3_躯体と製品
  6
CONTINUOUS
 62
    4
 10
102.61945222817167
 20
272.62435834993539
 40
1.5
 50
216.8698980000006
 51
143.13010199999928
  0
ARC
  8
_0-3_躯体と製品
  6
CONTINUOUS
 62
    4
 10
104.11945222817167
 20
268.91625834993533
 40
1
 50
0
 51
112.0243130000012
  0
ARC
  8
_0-3_躯体と製品
  6
CONTINUOUS
 62
    4
 10
102.61945222817167
 20
272.62435834993539
 40
3
 50
228.18968500000162
 51
292.0243130000012
  0
LINE
  8
_0-3_躯体と製品
  6
CONTINUOUS
 62
    4
 10
100.61945222817167
 20
270.38829034993535
 11
100.61945222817167
 21
271.42435834993535
  0
ARC
  8
_0-3_躯体と製品
  6
CONTINUOUS
 62
    4
 10
100.91945222817162
 20
271.42435834993535
 40
0.2999999999999999
 50
90
 51
180
  0
LINE
  8
_0-3_躯体と製品
  6
CONTINUOUS
 62
    4
 10
101.41945222817162
 20
271.7243583499353
 11
100.91945222817162
 21
271.7243583499353
  0
ARC
  8
_0-3_躯体と製品
  6
CONTINUOUS
 62
    4
 10
104.11945222817167
 20
276.33245734993534
 40
1
 50
247.9756869999988
 51
0
  0
ARC
  8
_0-3_躯体と製品
  6
CONTINUOUS
 62
    4
 10
102.61945222817167
 20
272.62435834993539
 40
3
 50
67.975686999998743
 51
131.81031499999833
  0
LINE
  8
_0-3_躯体と製品
  6
CONTINUOUS
 62
    4
 10
101.41945222817162
 20
273.52435834993537
 11
100.91945222817162
 21
273.52435834993537
  0
ARC
  8
_0-3_躯体と製品
  6
CONTINUOUS
 62
    4
 10
100.91945222817162
 20
273.82435834993532
 40
0.2999999999999999
 50
180
 51
270
  0
LINE
  8
_0-3_躯体と製品
  6
CONTINUOUS
 62
    4
 10
100.61945222817167
 20
274.86042634993532
 11
100.61945222817167
 21
273.82435834993532
  0
LINE
  8
_0-3_躯体と製品
  6
CONTINUOUS
 62
    4
 10
106.61945222817167
 20
307.12435834993528
 11
106.61945222817167
 21
287.62435834993528
  0
LINE
  8
_0-3_躯体と製品
  6
CONTINUOUS
 62
    4
 10
86.319452228171485
 20
287.62435834993528
 11
106.61945222817167
 21
287.62435834993528
  0
LINE
  8
_0-3_躯体と製品
  6
CONTINUOUS
 62
    4
 10
85.119452228171667
 20
286.42435834993523
 11
105.11945222817167
 21
286.42435834993523
  0
LINE
  8
_0-3_躯体と製品
  6
CONTINUOUS
 62
    4
 10
86.319452228171485
 20
291.42435834993535
 11
86.319452228171485
 21
287.62435834993528
  0
LINE
  8
_0-3_躯体と製品
  6
CONTINUOUS
 62
    4
 10
85.119452228171667
 20
291.42435834993535
 11
85.119452228171667
 21
286.42435834993523
  0
LINE
  8
_0-3_躯体と製品
  6
CONTINUOUS
 62
    4
 10
85.119452228171667
 20
291.42435834993535
 11
86.319452228171485
 21
291.42435834993535
  0
LINE
  8
_0-3_躯体と製品
  6
CONTINUOUS
 62
    4
 10
108.11945222817167
 20
287.12435834993528
 11
108.11945222817167
 21
305.62435834993528
  0
LINE
  8
_0-3_躯体と製品
  6
CONTINUOUS
 62
    4
 10
199.10440422817146
 20
295.62435834993528
 11
199.10440422817146
 21
247.62435834993539
  0
LINE
  8
_0-3_躯体と製品
  6
CONTINUOUS
 62
    4
 10
197.60440422817146
 20
276.33245734993534
 11
197.60440422817146
 21
296.42435834993535
  0
LINE
  8
_0-3_躯体と製品
  6
CONTINUOUS
 62
    4
 10
197.60440422817146
 20
249.12435834993539
 11
197.60440422817146
 21
268.91625834993533
  0
LINE
  8
_0-3_躯体と製品
  6
CONTINUOUS
 62
    4
 10
180.40440422817164
 20
249.12435834993539
 11
197.60440422817146
 21
249.12435834993539
  0
LINE
  8
_0-3_躯体と製品
  6
CONTINUOUS
 62
    4
 10
179.10440422817146
 20
247.62435834993539
 11
199.10440422817146
 21
247.62435834993539
  0
LINE
  8
_0-3_躯体と製品
  6
CONTINUOUS
 62
    4
 10
180.40440422817164
 20
252.62435834993539
 11
180.40440422817164
 21
249.12435834993539
  0
LINE
  8
_0-3_躯体と製品
  6
CONTINUOUS
 62
    4
 10
179.10440422817146
 20
252.62435834993539
 11
179.10440422817146
 21
247.62435834993539
  0
LINE
  8
_0-3_躯体と製品
  6
CONTINUOUS
 62
    4
 10
179.10440422817146
 20
252.62435834993539
 11
180.40440422817164
 21
252.62435834993539
  0
ARC
  8
_0-3_躯体と製品
  6
CONTINUOUS
 62
    4
 10
195.10440422817146
 20
272.62435834993539
 40
1.5
 50
216.8698980000006
 51
143.13010199999928
  0
ARC
  8
_0-3_躯体と製品
  6
CONTINUOUS
 62
    4
 10
195.10440422817146
 20
272.62435834993539
 40
3
 50
228.18968500000162
 51
292.0243130000012
  0
LINE
  8
_0-3_躯体と製品
  6
CONTINUOUS
 62
    4
 10
193.10440422817146
 20
270.38829034993535
 11
193.10440422817146
 21
271.42435834993535
  0
ARC
  8
_0-3_躯体と製品
  6
CONTINUOUS
 62
    4
 10
193.40440422817164
 20
271.42435834993535
 40
0.2999999999999999
 50
90
 51
180
  0
LINE
  8
_0-3_躯体と製品
  6
CONTINUOUS
 62
    4
 10
193.90440422817164
 20
271.7243583499353
 11
193.40440422817164
 21
271.7243583499353
  0
ARC
  8
_0-3_躯体と製品
  6
CONTINUOUS
 62
    4
 10
196.60440422817146
 20
268.91625834993533
 40
1
 50
0
 51
112.0243130000012
  0
ARC
  8
_0-3_躯体と製品
  6
CONTINUOUS
 62
    4
 10
195.10440422817146
 20
272.62435834993539
 40
3
 50
67.975686999998743
 51
131.81031499999833
  0
LINE
  8
_0-3_躯体と製品
  6
CONTINUOUS
 62
    4
 10
193.90440422817164
 20
273.52435834993537
 11
193.40440422817164
 21
273.52435834993537
  0
ARC
  8
_0-3_躯体と製品
  6
CONTINUOUS
 62
    4
 10
193.40440422817164
 20
273.82435834993532
 40
0.2999999999999999
 50
180
 51
270
  0
LINE
  8
_0-3_躯体と製品
  6
CONTINUOUS
 62
    4
 10
193.10440422817146
 20
274.86042634993532
 11
193.10440422817146
 21
273.82435834993532
  0
ARC
  8
_0-3_躯体と製品
  6
CONTINUOUS
 62
    4
 10
196.60440422817146
 20
276.33245734993534
 40
1
 50
247.9756869999988
 51
0
  0
LINE
  8
_0-3_躯体と製品
  6
CONTINUOUS
 62
    4
 10
200.60440422817146
 20
297.12435834993528
 11
200.60440422817146
 21
315.62435834993528
  0
LINE
  8
_0-3_躯体と製品
  6
CONTINUOUS
 62
    4
 10
199.10440422817146
 20
317.12435834993528
 11
199.10440422817146
 21
297.62435834993528
  0
LINE
  8
_0-3_躯体と製品
  6
CONTINUOUS
 62
    4
 10
178.80440422817151
 20
297.62435834993528
 11
199.10440422817146
 21
297.62435834993528
  0
LINE
  8
_0-3_躯体と製品
  6
CONTINUOUS
 62
    4
 10
177.60440422817146
 20
296.42435834993535
 11
197.60440422817146
 21
296.42435834993535
  0
LINE
  8
_0-3_躯体と製品
  6
CONTINUOUS
 62
    4
 10
177.60440422817146
 20
301.42435834993535
 11
178.80440422817151
 21
301.42435834993535
  0
LINE
  8
_0-3_躯体と製品
  6
CONTINUOUS
 62
    4
 10
177.60440422817146
 20
301.42435834993535
 11
177.60440422817146
 21
296.42435834993535
  0
LINE
  8
_0-3_躯体と製品
  6
CONTINUOUS
 62
    4
 10
178.80440422817151
 20
301.42435834993535
 11
178.80440422817151
 21
297.62435834993528
  0
ARC
  8
_0-3_躯体と製品
  6
CONTINUOUS
 62
    4
 10
199.10440422817146
 20
297.12435834993528
 40
1.5
 50
270
 51
0
  0
ARC
  8
_0-3_躯体と製品
  6
CONTINUOUS
 62
    4
 10
199.10440422817146
 20
315.62435834993528
 40
1.5
 50
0
 51
90
  0
TEXT
  8
_0-4_文字-記号
 62
    7
 10
62.747338228171657
 20
397.51958834993525
 40
10
 41
0.8
 50
0
  1
ＢＨ－４０
  0
TEXT
  8
_0-4_文字-記号
 62
    7
 10
158.67815522817159
 20
397.51958834993525
 40
10
 41
0.8
 50
0
  1
ＢＨ－５０
  0
LINE
  8
_0-3_躯体と製品
  6
CONTINUOUS
 62
    4
 10
444.81601122817165
 20
-21.709371650064668
 11
444.81601122817165
 21
-78.109371650064645
  0
LINE
  8
_0-3_躯体と製品
  6
CONTINUOUS
 62
    4
 10
446.6160112281716
 20
-103.40937165006466
 11
446.6160112281716
 21
51.590628349935287
  0
LINE
  8
_0-3_躯体と製品
  6
CONTINUOUS
 62
    4
 10
357.48856222817153
 20
-21.77341765006463
 11
357.48856222817153
 21
-78.173417650064664
  0
LINE
  8
_0-3_躯体と製品
  6
CONTINUOUS
 62
    4
 10
359.08856222817167
 20
-103.47341765006468
 11
359.08856222817167
 21
-18.473417650064675
  0
LINE
  8
_0-3_躯体と製品
  6
CONTINUOUS
 62
    4
 10
357.48856222817153
 20
-78.77341765006463
 11
357.48856222817153
 21
-98.473417650064732
  0
LINE
  8
_0-3_躯体と製品
  6
CONTINUOUS
 62
    4
 10
339.08856222817167
 20
-103.47341765006468
 11
359.08856222817167
 21
-103.47341765006468
  0
LINE
  8
_0-3_躯体と製品
  6
CONTINUOUS
 62
    4
 10
357.48856222817153
 20
-98.473417650064732
 11
339.08856222817167
 21
-98.473417650064732
  0
LINE
  8
_0-3_躯体と製品
  6
CONTINUOUS
 62
    4
 10
339.08856222817167
 20
-103.47341765006468
 11
339.08856222817167
 21
-98.473417650064732
  0
LINE
  8
_0-3_躯体と製品
  6
CONTINUOUS
 62
    4
 10
357.78856222817149
 20
-78.473417650064732
 11
357.48856222817153
 21
-78.77341765006463
  0
LINE
  8
_0-3_躯体と製品
  6
CONTINUOUS
 62
    4
 10
357.78856222817149
 20
-78.473417650064732
 11
357.48856222817153
 21
-78.173417650064664
  0
LINE
  8
_0-3_躯体と製品
  6
CONTINUOUS
 62
    4
 10
444.81601122817165
 20
-86.709371650064782
 11
444.81601122817165
 21
-98.40937165006477
  0
LINE
  8
_0-3_躯体と製品
  6
CONTINUOUS
 62
    4
 10
426.6160112281716
 20
-103.40937165006466
 11
446.6160112281716
 21
-103.40937165006466
  0
LINE
  8
_0-3_躯体と製品
  6
CONTINUOUS
 62
    4
 10
444.81601122817165
 20
-98.40937165006477
 11
426.6160112281716
 21
-98.40937165006477
  0
LINE
  8
_0-3_躯体と製品
  6
CONTINUOUS
 62
    4
 10
426.6160112281716
 20
-103.40937165006466
 11
426.6160112281716
 21
-98.40937165006477
  0
LINE
  8
_0-3_躯体と製品
  6
CONTINUOUS
 62
    4
 10
444.81601122817165
 20
-78.709371650064782
 11
444.81601122817165
 21
-86.109371650064645
  0
LINE
  8
_0-3_躯体と製品
  6
CONTINUOUS
 62
    4
 10
445.1160112281716
 20
-86.409371650064656
 11
444.81601122817165
 21
-86.709371650064782
  0
LINE
  8
_0-3_躯体と製品
  6
CONTINUOUS
 62
    4
 10
445.1160112281716
 20
-86.409371650064656
 11
444.81601122817165
 21
-86.109371650064645
  0
LINE
  8
_0-3_躯体と製品
  6
CONTINUOUS
 62
    4
 10
445.1160112281716
 20
-78.409371650064656
 11
444.81601122817165
 21
-78.709371650064782
  0
LINE
  8
_0-3_躯体と製品
  6
CONTINUOUS
 62
    4
 10
445.1160112281716
 20
-78.409371650064656
 11
444.81601122817165
 21
-78.109371650064645
  0
TEXT
  8
_0-4_文字-記号
 62
    7
 10
316.71904922817157
 20
135.7076983499353
 40
10
 41
0.8
 50
0
  1
ＳＣ－８５
  0
LINE
  8
_0-3_躯体と製品
  6
CONTINUOUS
 62
    4
 10
357.78856222817149
 20
-21.473417650064732
 11
357.48856222817153
 21
-21.77341765006463
  0
LINE
  8
_0-3_躯体と製品
  6
CONTINUOUS
 62
    4
 10
357.78856222817149
 20
-21.473417650064732
 11
357.48856222817153
 21
-21.173417650064778
  0
LINE
  8
_0-3_躯体と製品
  6
CONTINUOUS
 62
    4
 10
357.48856222817153
 20
-18.473417650064675
 11
357.48856222817153
 21
-21.173417650064778
  0
LINE
  8
_0-3_躯体と製品
  6
CONTINUOUS
 62
    4
 10
357.48856222817153
 20
-18.473417650064675
 11
359.08856222817167
 21
-18.473417650064675
  0
LINE
  8
_0-3_躯体と製品
  6
CONTINUOUS
 62
    4
 10
444.81601122817165
 20
18.290628349935218
 11
444.81601122817165
 21
1.8906283499353549
  0
LINE
  8
_0-3_躯体と製品
  6
CONTINUOUS
 62
    4
 10
444.81601122817165
 20
-1.7093716500647815
 11
444.81601122817165
 21
-18.109371650064759
  0
LINE
  8
_0-3_躯体と製品
  6
CONTINUOUS
 62
    4
 10
445.1160112281716
 20
-18.40937165006477
 11
444.81601122817165
 21
-18.709371650064782
  0
LINE
  8
_0-3_躯体と製品
  6
CONTINUOUS
 62
    4
 10
445.1160112281716
 20
-18.40937165006477
 11
444.81601122817165
 21
-18.109371650064759
  0
LINE
  8
_0-3_躯体と製品
  6
CONTINUOUS
 62
    4
 10
445.1160112281716
 20
-21.409371650064656
 11
444.81601122817165
 21
-21.709371650064668
  0
LINE
  8
_0-3_躯体と製品
  6
CONTINUOUS
 62
    4
 10
445.1160112281716
 20
-21.409371650064656
 11
444.81601122817165
 21
-21.109371650064645
  0
LINE
  8
_0-3_躯体と製品
  6
CONTINUOUS
 62
    4
 10
444.81601122817165
 20
-18.709371650064782
 11
444.81601122817165
 21
-21.109371650064645
  0
LINE
  8
_0-3_躯体と製品
  6
CONTINUOUS
 62
    4
 10
445.1160112281716
 20
1.5906283499352298
 11
444.81601122817165
 21
1.2906283499352185
  0
LINE
  8
_0-3_躯体と製品
  6
CONTINUOUS
 62
    4
 10
445.1160112281716
 20
1.5906283499352298
 11
444.81601122817165
 21
1.8906283499353549
  0
LINE
  8
_0-3_躯体と製品
  6
CONTINUOUS
 62
    4
 10
445.1160112281716
 20
-1.4093716500647702
 11
444.81601122817165
 21
-1.7093716500647815
  0
LINE
  8
_0-3_躯体と製品
  6
CONTINUOUS
 62
    4
 10
445.1160112281716
 20
-1.4093716500647702
 11
444.81601122817165
 21
-1.1093716500647588
  0
LINE
  8
_0-3_躯体と製品
  6
CONTINUOUS
 62
    4
 10
444.81601122817165
 20
1.2906283499352185
 11
444.81601122817165
 21
-1.1093716500647588
  0
LINE
  8
_0-3_躯体と製品
  6
CONTINUOUS
 62
    4
 10
444.81601122817165
 20
48.290628349935218
 11
444.81601122817165
 21
31.890628349935241
  0
LINE
  8
_0-3_躯体と製品
  6
CONTINUOUS
 62
    4
 10
445.1160112281716
 20
28.590628349935344
 11
444.81601122817165
 21
28.290628349935332
  0
LINE
  8
_0-3_躯体と製品
  6
CONTINUOUS
 62
    4
 10
445.1160112281716
 20
21.590628349935344
 11
444.81601122817165
 21
21.290628349935218
  0
LINE
  8
_0-3_躯体と製品
  6
CONTINUOUS
 62
    4
 10
445.1160112281716
 20
21.590628349935344
 11
444.81601122817165
 21
21.890628349935355
  0
LINE
  8
_0-3_躯体と製品
  6
CONTINUOUS
 62
    4
 10
445.1160112281716
 20
18.59062834993523
 11
444.81601122817165
 21
18.290628349935218
  0
LINE
  8
_0-3_躯体と製品
  6
CONTINUOUS
 62
    4
 10
445.1160112281716
 20
18.59062834993523
 11
444.81601122817165
 21
18.890628349935241
  0
LINE
  8
_0-3_躯体と製品
  6
CONTINUOUS
 62
    4
 10
444.81601122817165
 20
21.290628349935218
 11
444.81601122817165
 21
18.890628349935241
  0
LINE
  8
_0-3_躯体と製品
  6
CONTINUOUS
 62
    4
 10
444.81601122817165
 20
28.290628349935332
 11
444.81601122817165
 21
21.890628349935355
  0
LINE
  8
_0-3_躯体と製品
  6
CONTINUOUS
 62
    4
 10
445.1160112281716
 20
31.59062834993523
 11
444.81601122817165
 21
31.290628349935218
  0
LINE
  8
_0-3_躯体と製品
  6
CONTINUOUS
 62
    4
 10
445.1160112281716
 20
31.59062834993523
 11
444.81601122817165
 21
31.890628349935241
  0
LINE
  8
_0-3_躯体と製品
  6
CONTINUOUS
 62
    4
 10
445.1160112281716
 20
28.590628349935344
 11
444.81601122817165
 21
28.890628349935355
  0
LINE
  8
_0-3_躯体と製品
  6
CONTINUOUS
 62
    4
 10
444.81601122817165
 20
31.290628349935218
 11
444.81601122817165
 21
28.890628349935355
  0
LINE
  8
_0-3_躯体と製品
  6
CONTINUOUS
 62
    4
 10
444.81601122817165
 20
51.590628349935287
 11
444.81601122817165
 21
48.890628349935241
  0
LINE
  8
_0-3_躯体と製品
  6
CONTINUOUS
 62
    4
 10
445.1160112281716
 20
48.590628349935287
 11
444.81601122817165
 21
48.290628349935218
  0
LINE
  8
_0-3_躯体と製品
  6
CONTINUOUS
 62
    4
 10
445.1160112281716
 20
48.590628349935287
 11
444.81601122817165
 21
48.890628349935241
  0
LINE
  8
_0-3_躯体と製品
  6
CONTINUOUS
 62
    4
 10
444.81601122817165
 20
51.590628349935287
 11
446.6160112281716
 21
51.590628349935287
  0
TEXT
  8
_0-4_文字-記号
 62
    7
 10
397.03344122817157
 20
135.7076983499353
 40
10
 41
0.8
 50
0
  1
ＳＣ－１５５
  0
LINE
  8
_0-3_躯体と製品
  6
CONTINUOUS
 62
    4
 10
530.02861322817148
 20
-21.709371650064668
 11
530.02861322817148
 21
-78.109371650064645
  0
LINE
  8
_0-3_躯体と製品
  6
CONTINUOUS
 62
    4
 10
531.82861322817052
 20
-103.40937165006466
 11
531.82861322817052
 21
101.59062834993529
  0
LINE
  8
_0-3_躯体と製品
  6
CONTINUOUS
 62
    4
 10
511.82861322817166
 20
-103.40937165006466
 11
531.82861322817052
 21
-103.40937165006466
  0
LINE
  8
_0-3_躯体と製品
  6
CONTINUOUS
 62
    4
 10
530.02861322817148
 20
-98.40937165006477
 11
511.82861322817166
 21
-98.40937165006477
  0
LINE
  8
_0-3_躯体と製品
  6
CONTINUOUS
 62
    4
 10
511.82861322817166
 20
-103.40937165006466
 11
511.82861322817166
 21
-98.40937165006477
  0
LINE
  8
_0-3_躯体と製品
  6
CONTINUOUS
 62
    4
 10
530.02861322817148
 20
-86.709371650064782
 11
530.02861322817148
 21
-98.40937165006477
  0
LINE
  8
_0-3_躯体と製品
  6
CONTINUOUS
 62
    4
 10
530.02861322817148
 20
-78.709371650064782
 11
530.02861322817148
 21
-86.109371650064645
  0
LINE
  8
_0-3_躯体と製品
  6
CONTINUOUS
 62
    4
 10
530.32861322817166
 20
-86.409371650064656
 11
530.02861322817148
 21
-86.709371650064782
  0
LINE
  8
_0-3_躯体と製品
  6
CONTINUOUS
 62
    4
 10
530.32861322817166
 20
-86.409371650064656
 11
530.02861322817148
 21
-86.109371650064645
  0
LINE
  8
_0-3_躯体と製品
  6
CONTINUOUS
 62
    4
 10
530.32861322817166
 20
-78.409371650064656
 11
530.02861322817148
 21
-78.709371650064782
  0
LINE
  8
_0-3_躯体と製品
  6
CONTINUOUS
 62
    4
 10
530.32861322817166
 20
-78.409371650064656
 11
530.02861322817148
 21
-78.109371650064645
  0
LINE
  8
_0-3_躯体と製品
  6
CONTINUOUS
 62
    4
 10
530.02861322817148
 20
98.290628349935218
 11
530.02861322817148
 21
31.890628349935241
  0
LINE
  8
_0-3_躯体と製品
  6
CONTINUOUS
 62
    4
 10
530.02861322817148
 20
18.290628349935218
 11
530.02861322817148
 21
1.8906283499353549
  0
LINE
  8
_0-3_躯体と製品
  6
CONTINUOUS
 62
    4
 10
530.02861322817148
 20
-1.7093716500647815
 11
530.02861322817148
 21
-18.109371650064759
  0
LINE
  8
_0-3_躯体と製品
  6
CONTINUOUS
 62
    4
 10
530.32861322817166
 20
-18.40937165006477
 11
530.02861322817148
 21
-18.709371650064782
  0
LINE
  8
_0-3_躯体と製品
  6
CONTINUOUS
 62
    4
 10
530.32861322817166
 20
-18.40937165006477
 11
530.02861322817148
 21
-18.109371650064759
  0
LINE
  8
_0-3_躯体と製品
  6
CONTINUOUS
 62
    4
 10
530.32861322817166
 20
-21.409371650064656
 11
530.02861322817148
 21
-21.709371650064668
  0
LINE
  8
_0-3_躯体と製品
  6
CONTINUOUS
 62
    4
 10
530.32861322817166
 20
-21.409371650064656
 11
530.02861322817148
 21
-21.109371650064645
  0
LINE
  8
_0-3_躯体と製品
  6
CONTINUOUS
 62
    4
 10
530.02861322817148
 20
-18.709371650064782
 11
530.02861322817148
 21
-21.109371650064645
  0
LINE
  8
_0-3_躯体と製品
  6
CONTINUOUS
 62
    4
 10
530.32861322817166
 20
1.5906283499352298
 11
530.02861322817148
 21
1.2906283499352185
  0
LINE
  8
_0-3_躯体と製品
  6
CONTINUOUS
 62
    4
 10
530.32861322817166
 20
1.5906283499352298
 11
530.02861322817148
 21
1.8906283499353549
  0
LINE
  8
_0-3_躯体と製品
  6
CONTINUOUS
 62
    4
 10
530.32861322817166
 20
-1.4093716500647702
 11
530.02861322817148
 21
-1.7093716500647815
  0
LINE
  8
_0-3_躯体と製品
  6
CONTINUOUS
 62
    4
 10
530.32861322817166
 20
-1.4093716500647702
 11
530.02861322817148
 21
-1.1093716500647588
  0
LINE
  8
_0-3_躯体と製品
  6
CONTINUOUS
 62
    4
 10
530.02861322817148
 20
1.2906283499352185
 11
530.02861322817148
 21
-1.1093716500647588
  0
LINE
  8
_0-3_躯体と製品
  6
CONTINUOUS
 62
    4
 10
530.32861322817166
 20
28.590628349935344
 11
530.02861322817148
 21
28.290628349935332
  0
LINE
  8
_0-3_躯体と製品
  6
CONTINUOUS
 62
    4
 10
530.32861322817166
 20
21.590628349935344
 11
530.02861322817148
 21
21.290628349935218
  0
LINE
  8
_0-3_躯体と製品
  6
CONTINUOUS
 62
    4
 10
530.32861322817166
 20
21.590628349935344
 11
530.02861322817148
 21
21.890628349935355
  0
LINE
  8
_0-3_躯体と製品
  6
CONTINUOUS
 62
    4
 10
530.32861322817166
 20
18.59062834993523
 11
530.02861322817148
 21
18.290628349935218
  0
LINE
  8
_0-3_躯体と製品
  6
CONTINUOUS
 62
    4
 10
530.32861322817166
 20
18.59062834993523
 11
530.02861322817148
 21
18.890628349935241
  0
LINE
  8
_0-3_躯体と製品
  6
CONTINUOUS
 62
    4
 10
530.02861322817148
 20
21.290628349935218
 11
530.02861322817148
 21
18.890628349935241
  0
LINE
  8
_0-3_躯体と製品
  6
CONTINUOUS
 62
    4
 10
530.02861322817148
 20
28.290628349935332
 11
530.02861322817148
 21
21.890628349935355
  0
LINE
  8
_0-3_躯体と製品
  6
CONTINUOUS
 62
    4
 10
530.32861322817166
 20
31.59062834993523
 11
530.02861322817148
 21
31.290628349935218
  0
LINE
  8
_0-3_躯体と製品
  6
CONTINUOUS
 62
    4
 10
530.32861322817166
 20
31.59062834993523
 11
530.02861322817148
 21
31.890628349935241
  0
LINE
  8
_0-3_躯体と製品
  6
CONTINUOUS
 62
    4
 10
530.32861322817166
 20
28.590628349935344
 11
530.02861322817148
 21
28.890628349935355
  0
LINE
  8
_0-3_躯体と製品
  6
CONTINUOUS
 62
    4
 10
530.02861322817148
 20
31.290628349935218
 11
530.02861322817148
 21
28.890628349935355
  0
LINE
  8
_0-3_躯体と製品
  6
CONTINUOUS
 62
    4
 10
530.32861322817166
 20
48.590628349935287
 11
530.02861322817148
 21
48.290628349935218
  0
LINE
  8
_0-3_躯体と製品
  6
CONTINUOUS
 62
    4
 10
530.32861322817166
 20
48.590628349935287
 11
530.02861322817148
 21
48.890628349935241
  0
LINE
  8
_0-3_躯体と製品
  6
CONTINUOUS
 62
    4
 10
530.32861322817166
 20
51.590628349935287
 11
530.02861322817148
 21
51.290628349935218
  0
LINE
  8
_0-3_躯体と製品
  6
CONTINUOUS
 62
    4
 10
530.32861322817166
 20
51.590628349935287
 11
530.02861322817148
 21
51.890628349935355
  0
TEXT
  8
_0-4_文字-記号
 62
    7
 10
491.93981322817149
 20
135.7076983499353
 40
10
 41
0.8
 50
0
  1
ＳＣ－２０５
  0
LINE
  8
_0-3_躯体と製品
  6
CONTINUOUS
 62
    4
 10
530.32861322817166
 20
71.590628349935287
 11
530.02861322817148
 21
71.290628349935218
  0
LINE
  8
_0-3_躯体と製品
  6
CONTINUOUS
 62
    4
 10
530.32861322817166
 20
71.590628349935287
 11
530.02861322817148
 21
71.890628349935355
  0
LINE
  8
_0-3_躯体と製品
  6
CONTINUOUS
 62
    4
 10
530.32861322817166
 20
68.590628349935287
 11
530.02861322817148
 21
68.290628349935218
  0
LINE
  8
_0-3_躯体と製品
  6
CONTINUOUS
 62
    4
 10
530.32861322817166
 20
68.590628349935287
 11
530.02861322817148
 21
68.890628349935241
  0
LINE
  8
_0-3_躯体と製品
  6
CONTINUOUS
 62
    4
 10
530.32861322817166
 20
98.590628349935287
 11
530.02861322817148
 21
98.290628349935218
  0
LINE
  8
_0-3_躯体と製品
  6
CONTINUOUS
 62
    4
 10
530.32861322817166
 20
98.590628349935287
 11
530.02861322817148
 21
98.890628349935241
  0
LINE
  8
_0-3_躯体と製品
  6
CONTINUOUS
 62
    4
 10
530.02861322817148
 20
101.59062834993529
 11
530.02861322817148
 21
98.890628349935241
  0
LINE
  8
_0-3_躯体と製品
  6
CONTINUOUS
 62
    4
 10
530.02861322817148
 20
101.59062834993529
 11
531.82861322817052
 21
101.59062834993529
  0
TEXT
  8
_0-4_文字-記号
 62
    7
 10
440.16930522817165
 20
397.51958834993525
 40
10
 41
0.8
 50
0
  1
ＢＨ－１２０
  0
LINE
  8
_0-3_躯体と製品
  6
CONTINUOUS
 62
    4
 10
477.9147262281715
 20
365.62435834993516
 11
477.9147262281715
 21
247.62435834993539
  0
LINE
  8
_0-3_躯体と製品
  6
CONTINUOUS
 62
    4
 10
476.31472622817159
 20
366.42435834993523
 11
476.31472622817159
 21
303.2243583499353
  0
LINE
  8
_0-3_躯体と製品
  6
CONTINUOUS
 62
    4
 10
388.12081822817163
 20
335.62435834993528
 11
388.12081822817163
 21
247.62435834993539
  0
LINE
  8
_0-3_躯体と製品
  6
CONTINUOUS
 62
    4
 10
386.62081822817163
 20
336.42435834993535
 11
386.62081822817163
 21
303.2243583499353
  0
LINE
  8
_0-3_躯体と製品
  6
CONTINUOUS
 62
    4
 10
296.42235722817168
 20
317.12435834993528
 11
296.42235722817168
 21
335.62435834993528
  0
LINE
  8
_0-3_躯体と製品
  6
CONTINUOUS
 62
    4
 10
294.92235722817168
 20
337.12435834993539
 11
294.92235722817168
 21
317.62435834993528
  0
TEXT
  8
_0-4_文字-記号
 62
    7
 10
277.05648122817161
 20
167.6182213499352
 40
10
 41
0.8
 50
0
  1
小口フタ用型材
  0
ARC
  8
_0-3_躯体と製品
  6
CONTINUOUS
 62
    4
 10
294.92235722817168
 20
317.12435834993528
 40
1.5
 50
270
 51
0
  0
LINE
  8
_0-3_躯体と製品
  6
CONTINUOUS
 62
    4
 10
294.92235722817168
 20
315.62435834993528
 11
294.92235722817168
 21
247.62435834993539
  0
LINE
  8
_0-3_躯体と製品
  6
CONTINUOUS
 62
    4
 10
293.42235722817168
 20
302.2243583499353
 11
293.42235722817168
 21
275.62435834993539
  0
LINE
  8
_0-3_躯体と製品
  6
CONTINUOUS
 62
    4
 10
293.42235722817168
 20
249.12435834993539
 11
293.42235722817168
 21
268.91625834993533
  0
LINE
  8
_0-3_躯体と製品
  6
CONTINUOUS
 62
    4
 10
276.22235722817163
 20
249.12435834993539
 11
293.42235722817168
 21
249.12435834993539
  0
LINE
  8
_0-3_躯体と製品
  6
CONTINUOUS
 62
    4
 10
274.92235722817168
 20
247.62435834993539
 11
294.92235722817168
 21
247.62435834993539
  0
LINE
  8
_0-3_躯体と製品
  6
CONTINUOUS
 62
    4
 10
276.22235722817163
 20
252.62435834993539
 11
276.22235722817163
 21
249.12435834993539
  0
LINE
  8
_0-3_躯体と製品
  6
CONTINUOUS
 62
    4
 10
274.92235722817168
 20
252.62435834993539
 11
274.92235722817168
 21
247.62435834993539
  0
LINE
  8
_0-3_躯体と製品
  6
CONTINUOUS
 62
    4
 10
274.92235722817168
 20
252.62435834993539
 11
276.22235722817163
 21
252.62435834993539
  0
ARC
  8
_0-3_躯体と製品
  6
CONTINUOUS
 62
    4
 10
290.92235722817168
 20
272.62435834993539
 40
1.5
 50
216.8698980000006
 51
143.13010199999928
  0
ARC
  8
_0-3_躯体と製品
  6
CONTINUOUS
 62
    4
 10
292.42235722817168
 20
268.91625834993533
 40
1
 50
0
 51
112.0243130000012
  0
ARC
  8
_0-3_躯体と製品
  6
CONTINUOUS
 62
    4
 10
290.92235722817168
 20
272.62435834993539
 40
3
 50
228.18968500000162
 51
292.0243130000012
  0
LINE
  8
_0-3_躯体と製品
  6
CONTINUOUS
 62
    4
 10
288.92235722817168
 20
270.38829034993535
 11
288.92235722817168
 21
271.42435834993535
  0
ARC
  8
_0-3_躯体と製品
  6
CONTINUOUS
 62
    4
 10
289.22235722817163
 20
271.42435834993535
 40
0.2999999999999999
 50
90
 51
180
  0
LINE
  8
_0-3_躯体と製品
  6
CONTINUOUS
 62
    4
 10
289.72235722817163
 20
271.7243583499353
 11
289.22235722817163
 21
271.7243583499353
  0
LINE
  8
_0-3_躯体と製品
  6
CONTINUOUS
 62
    4
 10
291.1223572281715
 20
277.82435834993532
 11
291.1223572281715
 21
275.62435834993539
  0
LINE
  8
_0-3_躯体と製品
  6
CONTINUOUS
 62
    4
 10
289.92235722817168
 20
277.82435834993532
 11
289.92235722817168
 21
275.45278534993531
  0
ARC
  8
_0-3_躯体と製品
  6
CONTINUOUS
 62
    4
 10
290.52235722817159
 20
277.82435834993532
 40
0.5999999999999999
 50
0
 51
180
  0
LINE
  8
_0-3_躯体と製品
  6
CONTINUOUS
 62
    4
 10
291.1223572281715
 20
275.62435834993539
 11
293.42235722817168
 21
275.62435834993539
  0
ARC
  8
_0-3_躯体と製品
  6
CONTINUOUS
 62
    4
 10
290.92235722817168
 20
272.62435834993539
 40
3
 50
109.47122100000172
 51
131.81031499999833
  0
LINE
  8
_0-3_躯体と製品
  6
CONTINUOUS
 62
    4
 10
289.72235722817163
 20
273.52435834993537
 11
289.22235722817163
 21
273.52435834993537
  0
ARC
  8
_0-3_躯体と製品
  6
CONTINUOUS
 62
    4
 10
289.22235722817163
 20
273.82435834993532
 40
0.2999999999999999
 50
180
 51
270
  0
LINE
  8
_0-3_躯体と製品
  6
CONTINUOUS
 62
    4
 10
288.92235722817168
 20
274.86042634993532
 11
288.92235722817168
 21
273.82435834993532
  0
LINE
  8
_0-3_躯体と製品
  6
CONTINUOUS
 62
    4
 10
293.42235722817168
 20
316.42435834993535
 11
293.42235722817168
 21
303.2243583499353
  0
LINE
  8
_0-3_躯体と製品
  6
CONTINUOUS
 62
    4
 10
289.92235722817168
 20
300.02435834993526
 11
289.92235722817168
 21
302.7243583499353
  0
ARC
  8
_0-3_躯体と製品
  6
CONTINUOUS
 62
    4
 10
290.42235722817168
 20
302.7243583499353
 40
0.5
 50
90
 51
180
  0
LINE
  8
_0-3_躯体と製品
  6
CONTINUOUS
 62
    4
 10
291.1223572281715
 20
302.2243583499353
 11
291.1223572281715
 21
300.02435834993526
  0
LINE
  8
_0-3_躯体と製品
  6
CONTINUOUS
 62
    4
 10
293.42235722817168
 20
302.2243583499353
 11
291.1223572281715
 21
302.2243583499353
  0
LINE
  8
_0-3_躯体と製品
  6
CONTINUOUS
 62
    4
 10
293.42235722817168
 20
303.2243583499353
 11
290.42235722817168
 21
303.2243583499353
  0
ARC
  8
_0-3_躯体と製品
  6
CONTINUOUS
 62
    4
 10
290.52235722817159
 20
300.02435834993526
 40
0.5999999999999999
 50
180
 51
0
  0
LINE
  8
_0-3_躯体と製品
  6
CONTINUOUS
 62
    4
 10
274.6223572281715
 20
317.62435834993528
 11
294.92235722817168
 21
317.62435834993528
  0
LINE
  8
_0-3_躯体と製品
  6
CONTINUOUS
 62
    4
 10
273.42235722817168
 20
316.42435834993535
 11
293.42235722817168
 21
316.42435834993535
  0
LINE
  8
_0-3_躯体と製品
  6
CONTINUOUS
 62
    4
 10
273.42235722817168
 20
321.42435834993535
 11
273.42235722817168
 21
316.42435834993535
  0
LINE
  8
_0-3_躯体と製品
  6
CONTINUOUS
 62
    4
 10
274.6223572281715
 20
321.42435834993535
 11
274.6223572281715
 21
317.62435834993528
  0
LINE
  8
_0-3_躯体と製品
  6
CONTINUOUS
 62
    4
 10
273.42235722817168
 20
321.42435834993535
 11
274.6223572281715
 21
321.42435834993535
  0
LINE
  8
_0-3_躯体と製品
  6
CONTINUOUS
 62
    4
 10
386.62081822817163
 20
302.2243583499353
 11
386.62081822817163
 21
275.62435834993539
  0
LINE
  8
_0-3_躯体と製品
  6
CONTINUOUS
 62
    4
 10
386.62081822817163
 20
249.12435834993539
 11
386.62081822817163
 21
268.91625834993533
  0
LINE
  8
_0-3_躯体と製品
  6
CONTINUOUS
 62
    4
 10
369.42081822817158
 20
249.12435834993539
 11
386.62081822817163
 21
249.12435834993539
  0
LINE
  8
_0-3_躯体と製品
  6
CONTINUOUS
 62
    4
 10
368.12081822817163
 20
247.62435834993539
 11
388.12081822817163
 21
247.62435834993539
  0
LINE
  8
_0-3_躯体と製品
  6
CONTINUOUS
 62
    4
 10
369.42081822817158
 20
252.62435834993539
 11
369.42081822817158
 21
249.12435834993539
  0
LINE
  8
_0-3_躯体と製品
  6
CONTINUOUS
 62
    4
 10
368.12081822817163
 20
252.62435834993539
 11
368.12081822817163
 21
247.62435834993539
  0
LINE
  8
_0-3_躯体と製品
  6
CONTINUOUS
 62
    4
 10
368.12081822817163
 20
252.62435834993539
 11
369.42081822817158
 21
252.62435834993539
  0
ARC
  8
_0-3_躯体と製品
  6
CONTINUOUS
 62
    4
 10
384.12081822817163
 20
272.62435834993539
 40
1.5
 50
216.8698980000006
 51
143.13010199999928
  0
ARC
  8
_0-3_躯体と製品
  6
CONTINUOUS
 62
    4
 10
384.12081822817163
 20
272.62435834993539
 40
3
 50
228.18968500000162
 51
292.0243130000012
  0
LINE
  8
_0-3_躯体と製品
  6
CONTINUOUS
 62
    4
 10
382.12081822817163
 20
270.38829034993535
 11
382.12081822817163
 21
271.42435834993535
  0
ARC
  8
_0-3_躯体と製品
  6
CONTINUOUS
 62
    4
 10
382.42081822817158
 20
271.42435834993535
 40
0.2999999999999999
 50
90
 51
180
  0
LINE
  8
_0-3_躯体と製品
  6
CONTINUOUS
 62
    4
 10
382.92081822817158
 20
271.7243583499353
 11
382.42081822817158
 21
271.7243583499353
  0
ARC
  8
_0-3_躯体と製品
  6
CONTINUOUS
 62
    4
 10
385.62081822817163
 20
268.91625834993533
 40
1
 50
0
 51
112.0243130000012
  0
ARC
  8
_0-3_躯体と製品
  6
CONTINUOUS
 62
    4
 10
383.72081822817154
 20
277.82435834993532
 40
0.5999999999999999
 50
0
 51
180
  0
LINE
  8
_0-3_躯体と製品
  6
CONTINUOUS
 62
    4
 10
383.12081822817163
 20
277.82435834993532
 11
383.12081822817163
 21
275.45278534993531
  0
ARC
  8
_0-3_躯体と製品
  6
CONTINUOUS
 62
    4
 10
384.12081822817163
 20
272.62435834993539
 40
3
 50
109.47122100000172
 51
131.81031499999833
  0
LINE
  8
_0-3_躯体と製品
  6
CONTINUOUS
 62
    4
 10
382.92081822817158
 20
273.52435834993537
 11
382.42081822817158
 21
273.52435834993537
  0
ARC
  8
_0-3_躯体と製品
  6
CONTINUOUS
 62
    4
 10
382.42081822817158
 20
273.82435834993532
 40
0.2999999999999999
 50
180
 51
270
  0
LINE
  8
_0-3_躯体と製品
  6
CONTINUOUS
 62
    4
 10
382.12081822817163
 20
274.86042634993532
 11
382.12081822817163
 21
273.82435834993532
  0
LINE
  8
_0-3_躯体と製品
  6
CONTINUOUS
 62
    4
 10
384.32081822817054
 20
277.82435834993532
 11
384.32081822817054
 21
275.62435834993539
  0
LINE
  8
_0-3_躯体と製品
  6
CONTINUOUS
 62
    4
 10
384.32081822817054
 20
275.62435834993539
 11
386.62081822817163
 21
275.62435834993539
  0
ARC
  8
_0-3_躯体と製品
  6
CONTINUOUS
 62
    4
 10
383.62081822817163
 20
302.7243583499353
 40
0.5
 50
90
 51
180
  0
ARC
  8
_0-3_躯体と製品
  6
CONTINUOUS
 62
    4
 10
383.72081822817154
 20
300.02435834993526
 40
0.5999999999999999
 50
180
 51
0
  0
LINE
  8
_0-3_躯体と製品
  6
CONTINUOUS
 62
    4
 10
383.12081822817163
 20
300.02435834993526
 11
383.12081822817163
 21
302.7243583499353
  0
LINE
  8
_0-3_躯体と製品
  6
CONTINUOUS
 62
    4
 10
384.32081822817054
 20
302.2243583499353
 11
384.32081822817054
 21
300.02435834993526
  0
LINE
  8
_0-3_躯体と製品
  6
CONTINUOUS
 62
    4
 10
386.62081822817163
 20
302.2243583499353
 11
384.32081822817054
 21
302.2243583499353
  0
LINE
  8
_0-3_躯体と製品
  6
CONTINUOUS
 62
    4
 10
386.62081822817163
 20
303.2243583499353
 11
383.62081822817163
 21
303.2243583499353
  0
LINE
  8
_0-3_躯体と製品
  6
CONTINUOUS
 62
    4
 10
476.31472622817159
 20
302.2243583499353
 11
476.31472622817159
 21
275.62435834993539
  0
LINE
  8
_0-3_躯体と製品
  6
CONTINUOUS
 62
    4
 10
476.31472622817159
 20
268.8773593499352
 11
476.31472622817159
 21
249.12435834993539
  0
LINE
  8
_0-3_躯体と製品
  6
CONTINUOUS
 62
    4
 10
459.21472622817146
 20
249.12435834993539
 11
476.31472622817159
 21
249.12435834993539
  0
LINE
  8
_0-3_躯体と製品
  6
CONTINUOUS
 62
    4
 10
457.9147262281715
 20
247.62435834993539
 11
477.9147262281715
 21
247.62435834993539
  0
LINE
  8
_0-3_躯体と製品
  6
CONTINUOUS
 62
    4
 10
459.21472622817146
 20
252.62435834993539
 11
459.21472622817146
 21
249.12435834993539
  0
LINE
  8
_0-3_躯体と製品
  6
CONTINUOUS
 62
    4
 10
457.9147262281715
 20
252.62435834993539
 11
457.9147262281715
 21
247.62435834993539
  0
LINE
  8
_0-3_躯体と製品
  6
CONTINUOUS
 62
    4
 10
457.9147262281715
 20
252.62435834993539
 11
459.21472622817146
 21
252.62435834993539
  0
ARC
  8
_0-3_躯体と製品
  6
CONTINUOUS
 62
    4
 10
473.9147262281715
 20
272.62435834993539
 40
1.5
 50
216.8698980000006
 51
143.13010199999928
  0
ARC
  8
_0-3_躯体と製品
  6
CONTINUOUS
 62
    4
 10
475.31472622817159
 20
268.8773593499352
 40
1
 50
0
 51
110.4873149999972
  0
ARC
  8
_0-3_躯体と製品
  6
CONTINUOUS
 62
    4
 10
473.9147262281715
 20
272.62435834993539
 40
3
 50
228.18968500000162
 51
290.48731499999735
  0
LINE
  8
_0-3_躯体と製品
  6
CONTINUOUS
 62
    4
 10
471.9147262281715
 20
270.38829034993535
 11
471.9147262281715
 21
271.42435834993535
  0
ARC
  8
_0-3_躯体と製品
  6
CONTINUOUS
 62
    4
 10
472.21472622817146
 20
271.42435834993535
 40
0.2999999999999999
 50
90
 51
180
  0
LINE
  8
_0-3_躯体と製品
  6
CONTINUOUS
 62
    4
 10
472.71472622817146
 20
271.7243583499353
 11
472.21472622817146
 21
271.7243583499353
  0
LINE
  8
_0-3_躯体と製品
  6
CONTINUOUS
 62
    4
 10
474.11472622817064
 20
277.82435834993532
 11
474.11472622817064
 21
275.62435834993539
  0
LINE
  8
_0-3_躯体と製品
  6
CONTINUOUS
 62
    4
 10
472.9147262281715
 20
277.82435834993532
 11
472.9147262281715
 21
275.45278534993531
  0
ARC
  8
_0-3_躯体と製品
  6
CONTINUOUS
 62
    4
 10
473.51472622817164
 20
277.82435834993532
 40
0.5999999999999999
 50
0
 51
180
  0
LINE
  8
_0-3_躯体と製品
  6
CONTINUOUS
 62
    4
 10
474.11472622817064
 20
275.62435834993539
 11
476.31472622817159
 21
275.62435834993539
  0
ARC
  8
_0-3_躯体と製品
  6
CONTINUOUS
 62
    4
 10
473.9147262281715
 20
272.62435834993539
 40
3
 50
109.47122100000172
 51
131.81031499999833
  0
LINE
  8
_0-3_躯体と製品
  6
CONTINUOUS
 62
    4
 10
472.71472622817146
 20
273.52435834993537
 11
472.21472622817146
 21
273.52435834993537
  0
ARC
  8
_0-3_躯体と製品
  6
CONTINUOUS
 62
    4
 10
472.21472622817146
 20
273.82435834993532
 40
0.2999999999999999
 50
180
 51
270
  0
LINE
  8
_0-3_躯体と製品
  6
CONTINUOUS
 62
    4
 10
471.9147262281715
 20
274.86042634993532
 11
471.9147262281715
 21
273.82435834993532
  0
LINE
  8
_0-3_躯体と製品
  6
CONTINUOUS
 62
    4
 10
472.9147262281715
 20
300.02435834993526
 11
472.9147262281715
 21
302.7243583499353
  0
ARC
  8
_0-3_躯体と製品
  6
CONTINUOUS
 62
    4
 10
473.4147262281715
 20
302.7243583499353
 40
0.5
 50
90
 51
180
  0
LINE
  8
_0-3_躯体と製品
  6
CONTINUOUS
 62
    4
 10
474.11472622817064
 20
302.2243583499353
 11
474.11472622817064
 21
300.02435834993526
  0
LINE
  8
_0-3_躯体と製品
  6
CONTINUOUS
 62
    4
 10
476.31472622817159
 20
302.2243583499353
 11
474.11472622817064
 21
302.2243583499353
  0
LINE
  8
_0-3_躯体と製品
  6
CONTINUOUS
 62
    4
 10
476.31472622817159
 20
303.2243583499353
 11
473.4147262281715
 21
303.2243583499353
  0
ARC
  8
_0-3_躯体と製品
  6
CONTINUOUS
 62
    4
 10
473.51472622817164
 20
300.02435834993526
 40
0.5999999999999999
 50
180
 51
0
  0
TEXT
  8
_0-4_文字-記号
 62
    7
 10
349.47643422817146
 20
397.51958834993525
 40
10
 41
0.8
 50
0
  1
ＢＨ－９０
  0
TEXT
  8
_0-4_文字-記号
 62
    7
 10
257.72942522817152
 20
397.51958834993525
 40
10
 41
0.8
 50
0
  1
ＢＨ－７０
  0
ARC
  8
_0-3_躯体と製品
  6
CONTINUOUS
 62
    4
 10
294.92235722817168
 20
335.62435834993528
 40
1.5
 50
0
 51
90
  0
LINE
  8
_0-3_躯体と製品
  6
CONTINUOUS
 62
    4
 10
389.62081822817163
 20
337.12435834993539
 11
389.62081822817163
 21
355.62435834993528
  0
LINE
  8
_0-3_躯体と製品
  6
CONTINUOUS
 62
    4
 10
388.12081822817163
 20
357.12435834993528
 11
388.12081822817163
 21
337.62435834993528
  0
LINE
  8
_0-3_躯体と製品
  6
CONTINUOUS
 62
    4
 10
367.82081822817054
 20
337.62435834993528
 11
388.12081822817163
 21
337.62435834993528
  0
LINE
  8
_0-3_躯体と製品
  6
CONTINUOUS
 62
    4
 10
366.62081822817163
 20
336.42435834993535
 11
386.62081822817163
 21
336.42435834993535
  0
LINE
  8
_0-3_躯体と製品
  6
CONTINUOUS
 62
    4
 10
367.82081822817054
 20
341.42435834993523
 11
367.82081822817054
 21
337.62435834993528
  0
LINE
  8
_0-3_躯体と製品
  6
CONTINUOUS
 62
    4
 10
366.62081822817163
 20
341.42435834993523
 11
366.62081822817163
 21
336.42435834993535
  0
LINE
  8
_0-3_躯体と製品
  6
CONTINUOUS
 62
    4
 10
366.62081822817163
 20
341.42435834993523
 11
367.82081822817054
 21
341.42435834993523
  0
ARC
  8
_0-3_躯体と製品
  6
CONTINUOUS
 62
    4
 10
388.12081822817163
 20
337.12435834993539
 40
1.5
 50
270
 51
0
  0
ARC
  8
_0-3_躯体と製品
  6
CONTINUOUS
 62
    4
 10
388.12081822817163
 20
355.62435834993528
 40
1.5
 50
0
 51
90
  0
LINE
  8
_0-3_躯体と製品
  6
CONTINUOUS
 62
    4
 10
479.4147262281715
 20
367.12435834993528
 11
479.4147262281715
 21
385.62435834993528
  0
LINE
  8
_0-3_躯体と製品
  6
CONTINUOUS
 62
    4
 10
477.9147262281715
 20
387.12435834993539
 11
477.9147262281715
 21
367.62435834993539
  0
LINE
  8
_0-3_躯体と製品
  6
CONTINUOUS
 62
    4
 10
457.61472622817064
 20
367.62435834993539
 11
477.9147262281715
 21
367.62435834993539
  0
LINE
  8
_0-3_躯体と製品
  6
CONTINUOUS
 62
    4
 10
456.4147262281715
 20
366.42435834993523
 11
476.31472622817159
 21
366.42435834993523
  0
LINE
  8
_0-3_躯体と製品
  6
CONTINUOUS
 62
    4
 10
457.61472622817064
 20
371.42435834993535
 11
457.61472622817064
 21
367.62435834993539
  0
LINE
  8
_0-3_躯体と製品
  6
CONTINUOUS
 62
    4
 10
456.4147262281715
 20
371.42435834993535
 11
456.4147262281715
 21
366.42435834993523
  0
LINE
  8
_0-3_躯体と製品
  6
CONTINUOUS
 62
    4
 10
456.4147262281715
 20
371.42435834993535
 11
457.61472622817064
 21
371.42435834993535
  0
ARC
  8
_0-3_躯体と製品
  6
CONTINUOUS
 62
    4
 10
477.9147262281715
 20
367.12435834993528
 40
1.5
 50
270
 51
0
  0
ARC
  8
_0-3_躯体と製品
  6
CONTINUOUS
 62
    4
 10
477.9147262281715
 20
385.62435834993528
 40
1.5
 50
0
 51
90
  0
INSERT
  2
-001-_D4
  8
_0-2_寸法
 10
-1136.5851386260974
 20
-470.60445581233876
 41
2
 42
2
 50
0
  0
INSERT
  2
-002-_D5
  8
_0-2_寸法
 10
-1136.5851386260974
 20
-470.60445581233876
 41
2
 42
2
 50
0
  0
INSERT
  2
-003-_D6
  8
_0-2_寸法
 10
-1136.5851386260974
 20
-470.60445581233876
 41
2
 42
2
 50
0
  0
INSERT
  2
-004-_D7
  8
_0-2_寸法
 10
-1136.5851386260974
 20
-470.60445581233876
 41
2
 42
2
 50
0
  0
INSERT
  2
-005-_D8
  8
_0-2_寸法
 10
-1136.5851386260974
 20
-470.60445581233876
 41
2
 42
2
 50
0
  0
INSERT
  2
-006-_D9
  8
_0-2_寸法
 10
-1136.5851386260974
 20
-470.60445581233876
 41
2
 42
2
 50
0
  0
INSERT
  2
-007-_D10
  8
_0-2_寸法
 10
-1136.5851386260974
 20
-470.60445581233876
 41
2
 42
2
 50
0
  0
INSERT
  2
-008-_D11
  8
_0-2_寸法
 10
-1136.5851386260974
 20
-470.60445581233876
 41
2
 42
2
 50
0
  0
INSERT
  2
-009-_D12
  8
_0-2_寸法
 10
-1136.5851386260974
 20
-470.60445581233876
 41
2
 42
2
 50
0
  0
INSERT
  2
-010-_D13
  8
_0-2_寸法
 10
-1136.5851386260974
 20
-470.60445581233876
 41
2
 42
2
 50
0
  0
INSERT
  2
-011-_D14
  8
_0-2_寸法
 10
-1136.5851386260974
 20
-470.60445581233876
 41
2
 42
2
 50
0
  0
INSERT
  2
-012-_D15
  8
_0-2_寸法
 10
-1136.5851386260974
 20
-470.60445581233876
 41
2
 42
2
 50
0
  0
INSERT
  2
-013-_D16
  8
_0-2_寸法
 10
-1136.5851386260974
 20
-470.60445581233876
 41
2
 42
2
 50
0
  0
INSERT
  2
-014-_D17
  8
_0-2_寸法
 10
-1136.5851386260974
 20
-470.60445581233876
 41
2
 42
2
 50
0
  0
INSERT
  2
-015-_D18
  8
_0-2_寸法
 10
-1136.5851386260974
 20
-470.60445581233876
 41
2
 42
2
 50
0
  0
INSERT
  2
-016-_D19
  8
_0-2_寸法
 10
-1136.5851386260974
 20
-470.60445581233876
 41
2
 42
2
 50
0
  0
INSERT
  2
-017-_D20
  8
_0-2_寸法
 10
-1136.5851386260974
 20
-470.60445581233876
 41
2
 42
2
 50
0
  0
INSERT
  2
-018-_D21
  8
_0-2_寸法
 10
-1136.5851386260974
 20
-470.60445581233876
 41
2
 42
2
 50
0
  0
INSERT
  2
-019-_D22
  8
_0-2_寸法
 10
-1136.5851386260974
 20
-470.60445581233876
 41
2
 42
2
 50
0
  0
INSERT
  2
-020-_D23
  8
_0-2_寸法
 10
-1136.5851386260974
 20
-470.60445581233876
 41
2
 42
2
 50
0
  0
INSERT
  2
-021-_D24
  8
_0-2_寸法
 10
-1136.5851386260974
 20
-470.60445581233876
 41
2
 42
2
 50
0
  0
INSERT
  2
-022-_D25
  8
_0-2_寸法
 10
-1136.5851386260974
 20
-470.60445581233876
 41
2
 42
2
 50
0
  0
INSERT
  2
-023-_D26
  8
_0-2_寸法
 10
-1136.5851386260974
 20
-470.60445581233876
 41
2
 42
2
 50
0
  0
INSERT
  2
-024-_D27
  8
_0-2_寸法
 10
-1136.5851386260974
 20
-470.60445581233876
 41
2
 42
2
 50
0
  0
INSERT
  2
-025-_D28
  8
_0-2_寸法
 10
-1136.5851386260974
 20
-470.60445581233876
 41
2
 42
2
 50
0
  0
INSERT
  2
-026-_D29
  8
_0-2_寸法
 10
-1136.5851386260974
 20
-470.60445581233876
 41
2
 42
2
 50
0
  0
INSERT
  2
-027-_D30
  8
_0-2_寸法
 10
-1136.5851386260974
 20
-470.60445581233876
 41
2
 42
2
 50
0
  0
INSERT
  2
-028-_D31
  8
_0-2_寸法
 10
-1136.5851386260974
 20
-470.60445581233876
 41
2
 42
2
 50
0
  0
INSERT
  2
-029-_D32
  8
_0-2_寸法
 10
-1136.5851386260974
 20
-470.60445581233876
 41
2
 42
2
 50
0
  0
INSERT
  2
-030-_D33
  8
_0-2_寸法
 10
-1136.5851386260974
 20
-470.60445581233876
 41
2
 42
2
 50
0
  0
INSERT
  2
-031-_D34
  8
_0-2_寸法
 10
-1136.5851386260974
 20
-470.60445581233876
 41
2
 42
2
 50
0
  0
INSERT
  2
-032-_D35
  8
_0-2_寸法
 10
-1136.5851386260974
 20
-470.60445581233876
 41
2
 42
2
 50
0
  0
INSERT
  2
-033-_D36
  8
_0-2_寸法
 10
-1136.5851386260974
 20
-470.60445581233876
 41
2
 42
2
 50
0
  0
INSERT
  2
-034-_D37
  8
_0-2_寸法
 10
-1136.5851386260974
 20
-470.60445581233876
 41
2
 42
2
 50
0
  0
INSERT
  2
-035-_D38
  8
_0-2_寸法
 10
-1136.5851386260974
 20
-470.60445581233876
 41
2
 42
2
 50
0
  0
INSERT
  2
-036-_D39
  8
_0-2_寸法
 10
-1136.5851386260974
 20
-470.60445581233876
 41
2
 42
2
 50
0
  0
INSERT
  2
-037-_D40
  8
_0-2_寸法
 10
-1136.5851386260974
 20
-470.60445581233876
 41
2
 42
2
 50
0
  0
INSERT
  2
-038-_D41
  8
_0-2_寸法
 10
-1136.5851386260974
 20
-470.60445581233876
 41
2
 42
2
 50
0
  0
INSERT
  2
-039-_D42
  8
_0-2_寸法
 10
-1136.5851386260974
 20
-470.60445581233876
 41
2
 42
2
 50
0
  0
INSERT
  2
-040-_D43
  8
_0-2_寸法
 10
-1136.5851386260974
 20
-470.60445581233876
 41
2
 42
2
 50
0
  0
ENDSEC
  0
EOF
