  0
SECTION
  2
HEADER
  9
$ACADVER
  1
AC1009
  9
$INSBASE
 10
0
 20
0
 30
0
  9
$EXTMIN
 10
0
 20
0
  9
$EXTMAX
 10
420
 20
297
  9
$LIMMIN
 10
0
 20
0
  9
$LIMMAX
 10
420
 20
297
  9
$LTSCALE
 40
1
  0
ENDSEC
  0
SECTION
  2
TABLES
  0
TABLE
  2
LTYPE
 70
     9
  0
LTYPE
  2
CONTINUOUS
 70
    64
  3
実線
 72
    65
 73
     0
 40
0.0
  0
LTYPE
  2
DASHED1
 70
    64
  3
--  --  --  --  --  --  --  --  
 72
    65
 73
     2
 40
2.5
 49
1.25
 49
-1.25
  0
LTYPE
  2
DASHED2
 70
    64
  3
----    ----    ----    ----    
 72
    65
 73
     2
 40
5.0
 49
2.5
 49
-2.5
  0
LTYPE
  2
DASHED3
 70
    64
  3
------  ------  ------  ------  
 72
    65
 73
     2
 40
5.0
 49
3.75
 49
-1.25
  0
LTYPE
  2
CENTER1
 70
    64
  3
----- - ----- - ----- - ----- - 
 72
    65
 73
     4
 40
10.0
 49
6.25
 49
-1.25
 49
1.25
 49
-1.25
  0
LTYPE
  2
CENTER2
 70
    64
  3
----------  --  ----------  --  
 72
    65
 73
     4
 40
20.0
 49
12.5
 49
-2.5
 49
2.5
 49
-2.5
  0
LTYPE
  2
PHANTOM1
 70
    64
  3
--- - - --- - - --- - - --- - - 
 72
    65
 73
     6
 40
10.0
 49
3.25
 49
-1.25
 49
1.25
 49
-1.25
 49
1.25
 49
-1.25
  0
LTYPE
  2
PHANTOM2
 70
    64
  3
--------  -  -  --------  -  -  
 72
    65
 73
     6
 40
20.0
 49
10.0
 49
-2.5
 49
1.25
 49
-2.5
 49
1.25
 49
-2.5
  0
LTYPE
  2
DOT
 70
    64
  3
-   -   -   -   -   -   -   -   
 72
    65
 73
     2
 40
2.5
 49
0.625
 49
-1.875
  0
LTYPE
  2
DUMMY
 70
    64
  3
ダミー
 72
    65
 73
     0
 40
0.0
  0
LTYPE
  2
RAND1
 70
    64
  3
ランダム線1
 72
    65
 73
     4
 40
10.0
 49
1.0
 49
-2.0
 49
3.0
 49
-4.0
  0
LTYPE
  2
RAND2
 70
    64
  3
ランダム線2
 72
    65
 73
     4
 40
14.0
 49
2.0
 49
-3.0
 49
4.0
 49
-5.0
  0
LTYPE
  2
RAND3
 70
    64
  3
ランダム線3
 72
    65
 73
     4
 40
18.0
 49
3.0
 49
-4.0
 49
5.0
 49
-6.0
  0
LTYPE
  2
RAND4
 70
    64
  3
ランダム線4
 72
    65
 73
     4
 40
22.0
 49
4.0
 49
-5.0
 49
6.0
 49
-7.0
  0
LTYPE
  2
RAND5
 70
    64
  3
ランダム線5
 72
    65
 73
     4
 40
26.0
 49
5.0
 49
-6.0
 49
7.0
 49
-8.0
  0
LTYPE
  2
LONG1
 70
    64
  3
----------  --  ----------  --  
 72
    65
 73
     4
 40
40.0
 49
32.5
 49
-2.5
 49
2.5
 49
-2.5
  0
LTYPE
  2
LONG2
 70
    64
  3
--------  -  -  --------  -  -  
 72
    65
 73
     6
 40
40.0
 49
30.0
 49
-2.5
 49
1.25
 49
-2.5
 49
1.25
 49
-2.5
  0
LTYPE
  2
LONG3
 70
    64
  3
+++++++++++++++..+++++++++++++++
 72
    65
 73
     2
 40
40.0
 49
37.5
 49
-2.5
  0
LTYPE
  2
LONG4
 70
    64
  3
+++++++++++++++..+++++++++++++++
 72
    65
 73
     2
 40
80.0
 49
75.0
 49
-5.0
  0
LTYPE
  2
LONG5
 70
    64
  3
----------  --  ----------  --  
 72
    65
 73
     4
 40
60.0
 49
37.5
 49
-7.5
 49
7.5
 49
-7.5
  0
LTYPE
  2
dashed
 70
   64
  3
-------   -------------   ------
 72
   65
 73
    2
 40
7.5
 49
6
 49
-1.5
  0
LTYPE
  2
dashed_spaced
 70
   64
  3
----        --------        ----
 72
   65
 73
    2
 40
12
 49
6
 49
-6
  0
LTYPE
  2
long_dashed_dotted
 70
   64
  3
------------- --- --------------
 72
   65
 73
    4
 40
15.25
 49
12
 49
-1.5
 49
0.25
 49
-1.5
  0
LTYPE
  2
long_dashed_double-dotted
 70
   64
  3
----------- --- --- ------------
 72
   65
 73
    6
 40
17
 49
12
 49
-1.5
 49
0.25
 49
-1.5
 49
0.25
 49
-1.5
  0
LTYPE
  2
long_dashed_triplicate-dotted
 70
   64
  3
--------- --- --- --- ----------
 72
   65
 73
    8
 40
18.75
 49
12
 49
-1.5
 49
0.25
 49
-1.5
 49
0.25
 49
-1.5
 49
0.25
 49
-1.5
  0
LTYPE
  2
dotted
 70
   64
  3
   -       -       -       -    
 72
   65
 73
    2
 40
1.75
 49
0.25
 49
-1.5
  0
LTYPE
  2
chain
 70
   64
  3
-------------- -- --------------
 72
   65
 73
    4
 40
18.5
 49
12
 49
-1.5
 49
3.5
 49
-1.5
  0
LTYPE
  2
chain_double_dash
 70
   64
  3
------------ -- -- -------------
 72
   65
 73
    6
 40
23.5
 49
12
 49
-1.5
 49
3.5
 49
-1.5
 49
3.5
 49
-1.5
  0
LTYPE
  2
dashed_dotted
 70
   64
  3
-----------     -     ----------
 72
   65
 73
    4
 40
9.25
 49
6
 49
-1.5
 49
0.25
 49
-1.5
  0
LTYPE
  2
double-dashed_dotted
 70
   64
  3
------   -----------   -   -----
 72
   65
 73
    6
 40
16.75
 49
6
 49
-1.5
 49
6
 49
-1.5
 49
0.25
 49
-1.5
  0
LTYPE
  2
dashed_double-dotted
 70
   64
  3
---------    -    -    ---------
 72
   65
 73
    6
 40
11
 49
6
 49
-1.5
 49
0.25
 49
-1.5
 49
0.25
 49
-1.5
  0
LTYPE
  2
double-dashed_double-dotted
 70
   64
  3
-----   ---------   -   -   ----
 72
   65
 73
    8
 40
18.5
 49
6
 49
-1.5
 49
6
 49
-1.5
 49
0.25
 49
-1.5
 49
0.25
 49
-1.5
  0
LTYPE
  2
dashed_triplicate-dotted
 70
   64
  3
-------    -    -    -    ------
 72
   65
 73
    8
 40
12.75
 49
6
 49
-1.5
 49
0.25
 49
-1.5
 49
0.25
 49
-1.5
 49
0.25
 49
-1.5
  0
LTYPE
  2
double-dashed_triplicate-dotted
 70
   64
  3
-----  ---------  -  -  -  -----
 72
   65
 73
   10
 40
20.25
 49
6
 49
-1.5
 49
6
 49
-1.5
 49
0.25
 49
-1.5
 49
0.25
 49
-1.5
 49
0.25
 49
-1.5
  0
LTYPE
  2
undefined
 70
   64
  3
--------------------------------
 72
   65
 73
    0
 40
0
  0
LTYPE
  2
PLINE2
 70
   64
  3
------     -----------     -----
 72
   65
 73
    2
 40
3
 49
2.1000000000000001
 49
-0.9
  0
LTYPE
  2
PLINE3
 70
   64
  3
------------   ---   -----------
 72
   65
 73
    4
 40
10
 49
7
 49
-1
 49
1
 49
-1
  0
LTYPE
  2
PLINE4
 70
   64
  3
---------   ---   ---   --------
 72
   65
 73
    6
 40
10
 49
5
 49
-1
 49
1
 49
-1
 49
1
 49
-1
  0
LTYPE
  2
PLINE5
 70
   64
  3
------     -----------     -----
 72
   65
 73
    2
 40
5
 49
3.5
 49
-1.5
  0
LTYPE
  2
PLINE6
 70
   64
  3
------------   ---   -----------
 72
   65
 73
    4
 40
15
 49
10.5
 49
-1.5
 49
1.5
 49
-1.5
  0
LTYPE
  2
PLINE7
 70
   64
  3
---------   ---   ---   --------
 72
   65
 73
    6
 40
15
 49
7.5
 49
-1.5
 49
1.5
 49
-1.5
 49
1.5
 49
-1.5
  0
LTYPE
  2
PLINE8
 70
   64
  3
------     -----------     -----
 72
   65
 73
    2
 40
7
 49
4.9000000000000004
 49
-2.1000000000000001
  0
LTYPE
  2
PLINE9
 70
   64
  3
------------   ---   -----------
 72
   65
 73
    4
 40
20
 49
14
 49
-2
 49
2
 49
-2
  0
LTYPE
  2
PLINE10
 70
   64
  3
---------   ---   ---   --------
 72
   65
 73
    6
 40
20
 49
10
 49
-2
 49
2
 49
-2
 49
2
 49
-2
  0
LTYPE
  2
PLINE11
 70
   64
  3
------     -----------     -----
 72
   65
 73
    2
 40
9
 49
6.2999999999999989
 49
-2.7000000000000002
  0
LTYPE
  2
PLINE12
 70
   64
  3
------------   ---   -----------
 72
   65
 73
    4
 40
25
 49
17.5
 49
-2.5
 49
2.5
 49
-2.5
  0
LTYPE
  2
PLINE13
 70
   64
  3
---------   ---   ---   --------
 72
   65
 73
    6
 40
25
 49
12.5
 49
-2.5
 49
2.5
 49
-2.5
 49
2.5
 49
-2.5
  0
LTYPE
  2
PLINE14
 70
   64
  3
------     -----------     -----
 72
   65
 73
    2
 40
11
 49
7.7000000000000002
 49
-3.2999999999999989
  0
LTYPE
  2
PLINE15
 70
   64
  3
------------   ---   -----------
 72
   65
 73
    4
 40
30
 49
21
 49
-3
 49
3
 49
-3
  0
LTYPE
  2
PLINE16
 70
   64
  3
---------   ---   ---   --------
 72
   65
 73
    6
 40
30
 49
15
 49
-3
 49
3
 49
-3
 49
3
 49
-3
  0
ENDTAB
  0
TABLE
  2
STYLE
  5
3
100
AcDbSymbolTable
 70
     1
  0
STYLE
  5
10
100
AcDbSymbolTableRecord
100
AcDbTextStyleTableRecord
  2
STANDARD
 70
     0
 40
0.0
 41
1.0
 50
0.0
 71
     0
 42
0.2
  3
txt
  4
bigfont.shx
  0
STYLE
  5
26
100
AcDbSymbolTableRecord
100
AcDbTextStyleTableRecord
  2
TATEGAKI
 70
    68
 40
0.0
 41
1.0
 50
0.0
 71
     0
 42
1.0
  3
txt
  4
bigfont.shx
  0
ENDTAB
  0
TABLE
  2
LAYER
 70
    4
  0
LAYER
  2
_0-2_寸法
 70
   64
 62
    7
  6
CONTINUOUS
  0
LAYER
  2
_0-3_躯体と製品
 70
   64
 62
    7
  6
CONTINUOUS
  0
LAYER
  2
_0-4_文字-記号
 70
   64
 62
    7
  6
CONTINUOUS
  0
LAYER
  2
ADD_LINE
 70
   64
 62
    7
  6
CONTINUOUS
  0
ENDTAB
  0
ENDSEC
  0
SECTION
  2
BLOCKS
  0
BLOCK
  2
-000-_Dot
 70
   64
 10
0
 20
0
 30
0
  0
CIRCLE
  8
_0-0_0
  6
CONTINUOUS
 62
    7
 10
0
 20
0
 40
0.125
  0
LINE
  8
_0-0_0
  6
CONTINUOUS
 62
    7
 10
0.125
 20
0
 11
-0.125
 21
0
  0
LINE
  8
_0-0_0
  6
CONTINUOUS
 62
    7
 10
-0.25
 20
0
 11
-0.5
 21
0
  0
ENDBLK
  0
BLOCK
  2
-001-_D4
 70
   64
 10
0
 20
0
 30
0
  0
LINE
  8
_0-2_寸法
  6
CONTINUOUS
 62
    4
 10
532.528481342644
 20
328.4355852897969
 11
526.528481342644
 21
328.4355852897969
  0
LINE
  8
_0-2_寸法
  6
CONTINUOUS
 62
    4
 10
540.528481342644
 20
340.9355852897969
 11
526.528481342644
 21
340.9355852897969
  0
LINE
  8
_0-2_寸法
  6
CONTINUOUS
 62
    4
 10
526.528481342644
 20
328.9355852897969
 11
526.528481342644
 21
340.43558528979685
  0
INSERT
  2
-000-_Dot
  8
_0-2_寸法
 10
526.528481342644
 20
328.4355852897969
 41
1
 42
1
 50
270
  0
INSERT
  2
-000-_Dot
  8
_0-2_寸法
 10
526.528481342644
 20
340.9355852897969
 41
1
 42
1
 50
90
  0
TEXT
  8
_0-2_寸法
 62
    7
 10
526.028481342644
 20
333.43558528979696
 40
2.5
 41
1
 50
90
  1
25
  0
POINT
  8
_0-1_Defpoints
 62
    7
 10
532.528481342644
 20
328.4355852897969
  0
POINT
  8
_0-1_Defpoints
 62
    7
 10
540.528481342644
 20
340.9355852897969
  0
POINT
  8
_0-1_Defpoints
 62
    7
 10
526.528481342644
 20
340.9355852897969
  0
ENDBLK
  0
BLOCK
  2
-002-_D5
 70
   64
 10
0
 20
0
 30
0
  0
LINE
  8
_0-2_寸法
  6
CONTINUOUS
 62
    4
 10
534.028481342644
 20
326.9355852897969
 11
534.028481342644
 21
313.43558528979685
  0
LINE
  8
_0-2_寸法
  6
CONTINUOUS
 62
    4
 10
544.028481342644
 20
326.9355852897969
 11
544.028481342644
 21
313.43558528979685
  0
LINE
  8
_0-2_寸法
  6
CONTINUOUS
 62
    4
 10
534.528481342644
 20
313.43558528979685
 11
543.528481342644
 21
313.43558528979685
  0
INSERT
  2
-000-_Dot
  8
_0-2_寸法
 10
534.028481342644
 20
313.43558528979685
 41
1
 42
1
 50
180
  0
INSERT
  2
-000-_Dot
  8
_0-2_寸法
 10
544.028481342644
 20
313.43558528979685
 41
1
 42
1
 50
0
  0
TEXT
  8
_0-2_寸法
 62
    7
 10
537.778481342644
 20
313.93558528979685
 40
2.5
 41
1
 50
0
  1
20
  0
POINT
  8
_0-1_Defpoints
 62
    7
 10
534.028481342644
 20
326.9355852897969
  0
POINT
  8
_0-1_Defpoints
 62
    7
 10
544.028481342644
 20
326.9355852897969
  0
POINT
  8
_0-1_Defpoints
 62
    7
 10
544.028481342644
 20
313.43558528979685
  0
ENDBLK
  0
BLOCK
  2
-003-_D6
 70
   64
 10
0
 20
0
 30
0
  0
LINE
  8
_0-2_寸法
  6
CONTINUOUS
 62
    4
 10
544.028481342644
 20
326.9355852897969
 11
544.028481342644
 21
320.9355852897969
  0
LINE
  8
_0-2_寸法
  6
CONTINUOUS
 62
    4
 10
544.528481342644
 20
320.9355852897969
 11
566.028481342644
 21
320.9355852897969
  0
INSERT
  2
-000-_Dot
  8
_0-2_寸法
 10
544.028481342644
 20
320.9355852897969
 41
1
 42
1
 50
180
  0
INSERT
  2
-000-_Dot
  8
_0-2_寸法
 10
566.528481342644
 20
320.9355852897969
 41
1
 42
1
 50
0
  0
TEXT
  8
_0-2_寸法
 62
    7
 10
554.028481342644
 20
321.4355852897969
 40
2.5
 41
1
 50
0
  1
45
  0
POINT
  8
_0-1_Defpoints
 62
    7
 10
544.028481342644
 20
326.9355852897969
  0
POINT
  8
_0-1_Defpoints
 62
    7
 10
566.528481342644
 20
320.9355852897969
  0
POINT
  8
_0-1_Defpoints
 62
    7
 10
566.528481342644
 20
320.9355852897969
  0
ENDBLK
  0
BLOCK
  2
-004-_D7
 70
   64
 10
0
 20
0
 30
0
  0
LINE
  8
_0-2_寸法
  6
CONTINUOUS
 62
    4
 10
566.528481342644
 20
320.81058528979685
 11
566.528481342644
 21
320.9355852897969
  0
LINE
  8
_0-2_寸法
  6
CONTINUOUS
 62
    4
 10
589.028481342644
 20
326.9355852897969
 11
589.028481342644
 21
320.9355852897969
  0
LINE
  8
_0-2_寸法
  6
CONTINUOUS
 62
    4
 10
567.028481342644
 20
320.9355852897969
 11
588.528481342644
 21
320.9355852897969
  0
INSERT
  2
-000-_Dot
  8
_0-2_寸法
 10
566.528481342644
 20
320.9355852897969
 41
1
 42
1
 50
180
  0
INSERT
  2
-000-_Dot
  8
_0-2_寸法
 10
589.028481342644
 20
320.9355852897969
 41
1
 42
1
 50
0
  0
TEXT
  8
_0-2_寸法
 62
    7
 10
576.528481342644
 20
321.4355852897969
 40
2.5
 41
1
 50
0
  1
45
  0
POINT
  8
_0-1_Defpoints
 62
    7
 10
566.528481342644
 20
320.81058528979685
  0
POINT
  8
_0-1_Defpoints
 62
    7
 10
589.028481342644
 20
326.9355852897969
  0
POINT
  8
_0-1_Defpoints
 62
    7
 10
589.028481342644
 20
320.9355852897969
  0
ENDBLK
  0
BLOCK
  2
-005-_D8
 70
   64
 10
0
 20
0
 30
0
  0
LINE
  8
_0-2_寸法
  6
CONTINUOUS
 62
    4
 10
589.028481342644
 20
326.9355852897969
 11
589.028481342644
 21
313.43558528979685
  0
LINE
  8
_0-2_寸法
  6
CONTINUOUS
 62
    4
 10
599.028481342644
 20
326.9355852897969
 11
599.028481342644
 21
313.43558528979685
  0
LINE
  8
_0-2_寸法
  6
CONTINUOUS
 62
    4
 10
589.528481342644
 20
313.43558528979685
 11
598.528481342644
 21
313.43558528979685
  0
INSERT
  2
-000-_Dot
  8
_0-2_寸法
 10
589.028481342644
 20
313.43558528979685
 41
1
 42
1
 50
180
  0
INSERT
  2
-000-_Dot
  8
_0-2_寸法
 10
599.028481342644
 20
313.43558528979685
 41
1
 42
1
 50
0
  0
TEXT
  8
_0-2_寸法
 62
    7
 10
592.778481342644
 20
313.93558528979685
 40
2.5
 41
1
 50
0
  1
20
  0
POINT
  8
_0-1_Defpoints
 62
    7
 10
589.028481342644
 20
326.9355852897969
  0
POINT
  8
_0-1_Defpoints
 62
    7
 10
599.028481342644
 20
326.9355852897969
  0
POINT
  8
_0-1_Defpoints
 62
    7
 10
599.028481342644
 20
313.43558528979685
  0
ENDBLK
  0
BLOCK
  2
-006-_D9
 70
   64
 10
0
 20
0
 30
0
  0
LINE
  8
_0-2_寸法
  6
CONTINUOUS
 62
    4
 10
589.028481342644
 20
326.9355852897969
 11
589.028481342644
 21
313.43558528979685
  0
LINE
  8
_0-2_寸法
  6
CONTINUOUS
 62
    4
 10
544.028481342644
 20
326.9355852897969
 11
544.028481342644
 21
313.43558528979685
  0
LINE
  8
_0-2_寸法
  6
CONTINUOUS
 62
    4
 10
588.528481342644
 20
313.43558528979685
 11
544.528481342644
 21
313.43558528979685
  0
INSERT
  2
-000-_Dot
  8
_0-2_寸法
 10
589.028481342644
 20
313.43558528979685
 41
1
 42
1
 50
0
  0
INSERT
  2
-000-_Dot
  8
_0-2_寸法
 10
544.028481342644
 20
313.43558528979685
 41
1
 42
1
 50
180
  0
TEXT
  8
_0-2_寸法
 62
    7
 10
565.278481342644
 20
313.93558528979685
 40
2.5
 41
1
 50
0
  1
90
  0
POINT
  8
_0-1_Defpoints
 62
    7
 10
589.028481342644
 20
326.9355852897969
  0
POINT
  8
_0-1_Defpoints
 62
    7
 10
544.028481342644
 20
326.9355852897969
  0
POINT
  8
_0-1_Defpoints
 62
    7
 10
544.028481342644
 20
313.43558528979685
  0
ENDBLK
  0
BLOCK
  2
-007-_D10
 70
   64
 10
0
 20
0
 30
0
  0
LINE
  8
_0-2_寸法
  6
CONTINUOUS
 62
    4
 10
600.528481342644
 20
328.4355852897969
 11
606.528481342644
 21
328.4355852897969
  0
LINE
  8
_0-2_寸法
  6
CONTINUOUS
 62
    4
 10
600.528481342644
 20
330.9355852897969
 11
606.528481342644
 21
330.9355852897969
  0
LINE
  8
_0-2_寸法
  6
CONTINUOUS
 62
    4
 10
606.528481342644
 20
328.9355852897969
 11
606.528481342644
 21
330.4355852897969
  0
INSERT
  2
-000-_Dot
  8
_0-2_寸法
 10
606.528481342644
 20
328.4355852897969
 41
1
 42
1
 50
270
  0
INSERT
  2
-000-_Dot
  8
_0-2_寸法
 10
606.528481342644
 20
330.9355852897969
 41
1
 42
1
 50
90
  0
TEXT
  8
_0-2_寸法
 62
    7
 10
606.028481342644
 20
329.06058528979696
 40
2.5
 41
1
 50
90
  1
5
  0
POINT
  8
_0-1_Defpoints
 62
    7
 10
600.528481342644
 20
328.4355852897969
  0
POINT
  8
_0-1_Defpoints
 62
    7
 10
600.528481342644
 20
330.9355852897969
  0
POINT
  8
_0-1_Defpoints
 62
    7
 10
606.528481342644
 20
330.9355852897969
  0
ENDBLK
  0
BLOCK
  2
-008-_D11
 70
   64
 10
0
 20
0
 30
0
  0
LINE
  8
_0-2_寸法
  6
CONTINUOUS
 62
    4
 10
600.528481342644
 20
328.4355852897969
 11
614.028481342644
 21
328.4355852897969
  0
LINE
  8
_0-2_寸法
  6
CONTINUOUS
 62
    4
 10
594.17848134264398
 20
368.4355852897969
 11
614.028481342644
 21
368.4355852897969
  0
LINE
  8
_0-2_寸法
  6
CONTINUOUS
 62
    4
 10
614.028481342644
 20
328.9355852897969
 11
614.028481342644
 21
367.9355852897969
  0
INSERT
  2
-000-_Dot
  8
_0-2_寸法
 10
614.028481342644
 20
328.4355852897969
 41
1
 42
1
 50
270
  0
INSERT
  2
-000-_Dot
  8
_0-2_寸法
 10
614.028481342644
 20
368.4355852897969
 41
1
 42
1
 50
90
  0
TEXT
  8
_0-2_寸法
 62
    7
 10
613.528481342644
 20
347.18558528979696
 40
2.5
 41
1
 50
90
  1
80
  0
POINT
  8
_0-1_Defpoints
 62
    7
 10
600.528481342644
 20
328.4355852897969
  0
POINT
  8
_0-1_Defpoints
 62
    7
 10
594.17848134264398
 20
368.4355852897969
  0
POINT
  8
_0-1_Defpoints
 62
    7
 10
614.028481342644
 20
368.4355852897969
  0
ENDBLK
  0
BLOCK
  2
-009-_D12
 70
   64
 10
0
 20
0
 30
0
  0
LINE
  8
_0-2_寸法
  6
CONTINUOUS
 62
    4
 10
594.17848134264398
 20
368.4355852897969
 11
614.028481342644
 21
368.4355852897969
  0
LINE
  8
_0-2_寸法
  6
CONTINUOUS
 62
    4
 10
586.528481342644
 20
370.9355852897969
 11
614.028481342644
 21
370.9355852897969
  0
LINE
  8
_0-2_寸法
  6
CONTINUOUS
 62
    4
 10
614.028481342644
 20
368.9355852897969
 11
614.028481342644
 21
370.4355852897969
  0
INSERT
  2
-000-_Dot
  8
_0-2_寸法
 10
614.028481342644
 20
368.4355852897969
 41
1
 42
1
 50
270
  0
INSERT
  2
-000-_Dot
  8
_0-2_寸法
 10
614.028481342644
 20
370.9355852897969
 41
1
 42
1
 50
90
  0
TEXT
  8
_0-2_寸法
 62
    7
 10
613.528481342644
 20
369.06058528979696
 40
2.5
 41
1
 50
90
  1
5
  0
POINT
  8
_0-1_Defpoints
 62
    7
 10
594.17848134264398
 20
368.4355852897969
  0
POINT
  8
_0-1_Defpoints
 62
    7
 10
586.528481342644
 20
370.9355852897969
  0
POINT
  8
_0-1_Defpoints
 62
    7
 10
614.028481342644
 20
370.9355852897969
  0
ENDBLK
  0
BLOCK
  2
-010-_D13
 70
   64
 10
0
 20
0
 30
0
  0
LINE
  8
_0-2_寸法
  6
CONTINUOUS
 62
    4
 10
583.528481342644
 20
371.53558528979693
 11
583.528481342644
 21
377.22582228979695
  0
LINE
  8
_0-2_寸法
  6
CONTINUOUS
 62
    4
 10
549.528481342644
 20
371.53558528979693
 11
549.528481342644
 21
377.22582228979695
  0
LINE
  8
_0-2_寸法
  6
CONTINUOUS
 62
    4
 10
583.028481342644
 20
377.22582228979695
 11
550.028481342644
 21
377.22582228979695
  0
INSERT
  2
-000-_Dot
  8
_0-2_寸法
 10
583.528481342644
 20
377.22582228979695
 41
1
 42
1
 50
0
  0
INSERT
  2
-000-_Dot
  8
_0-2_寸法
 10
549.528481342644
 20
377.22582228979695
 41
1
 42
1
 50
180
  0
TEXT
  8
_0-2_寸法
 62
    7
 10
565.278481342644
 20
377.72582228979689
 40
2.5
 41
1
 50
0
  1
68
  0
POINT
  8
_0-1_Defpoints
 62
    7
 10
583.528481342644
 20
371.53558528979693
  0
POINT
  8
_0-1_Defpoints
 62
    7
 10
549.528481342644
 20
371.53558528979693
  0
POINT
  8
_0-1_Defpoints
 62
    7
 10
549.528481342644
 20
377.22582228979695
  0
ENDBLK
  0
BLOCK
  2
-011-_D14
 70
   64
 10
0
 20
0
 30
0
  0
LINE
  8
_0-2_寸法
  6
CONTINUOUS
 62
    4
 10
653.65612984264396
 20
328.4355852897969
 11
647.65612984264396
 21
328.4355852897969
  0
LINE
  8
_0-2_寸法
  6
CONTINUOUS
 62
    4
 10
661.65612984264396
 20
340.9355852897969
 11
647.65612984264396
 21
340.9355852897969
  0
LINE
  8
_0-2_寸法
  6
CONTINUOUS
 62
    4
 10
647.65612984264396
 20
328.9355852897969
 11
647.65612984264396
 21
340.43558528979685
  0
INSERT
  2
-000-_Dot
  8
_0-2_寸法
 10
647.65612984264396
 20
328.4355852897969
 41
1
 42
1
 50
270
  0
INSERT
  2
-000-_Dot
  8
_0-2_寸法
 10
647.65612984264396
 20
340.9355852897969
 41
1
 42
1
 50
90
  0
TEXT
  8
_0-2_寸法
 62
    7
 10
647.15612984264396
 20
333.43558528979702
 40
2.5
 41
1
 50
90
  1
25
  0
POINT
  8
_0-1_Defpoints
 62
    7
 10
653.65612984264396
 20
328.4355852897969
  0
POINT
  8
_0-1_Defpoints
 62
    7
 10
661.65612984264396
 20
340.9355852897969
  0
POINT
  8
_0-1_Defpoints
 62
    7
 10
647.65612984264396
 20
340.9355852897969
  0
ENDBLK
  0
BLOCK
  2
-012-_D15
 70
   64
 10
0
 20
0
 30
0
  0
LINE
  8
_0-2_寸法
  6
CONTINUOUS
 62
    4
 10
655.15612984264396
 20
326.9355852897969
 11
655.15612984264396
 21
313.43558528979685
  0
LINE
  8
_0-2_寸法
  6
CONTINUOUS
 62
    4
 10
665.15612984264396
 20
326.9355852897969
 11
665.15612984264396
 21
313.43558528979685
  0
LINE
  8
_0-2_寸法
  6
CONTINUOUS
 62
    4
 10
655.65612984264396
 20
313.43558528979685
 11
664.65612984264396
 21
313.43558528979685
  0
INSERT
  2
-000-_Dot
  8
_0-2_寸法
 10
655.15612984264396
 20
313.43558528979685
 41
1
 42
1
 50
180
  0
INSERT
  2
-000-_Dot
  8
_0-2_寸法
 10
665.15612984264396
 20
313.43558528979685
 41
1
 42
1
 50
0
  0
TEXT
  8
_0-2_寸法
 62
    7
 10
658.90612984264396
 20
313.93558528979685
 40
2.5
 41
1
 50
0
  1
20
  0
POINT
  8
_0-1_Defpoints
 62
    7
 10
655.15612984264396
 20
326.9355852897969
  0
POINT
  8
_0-1_Defpoints
 62
    7
 10
665.15612984264396
 20
326.9355852897969
  0
POINT
  8
_0-1_Defpoints
 62
    7
 10
665.15612984264396
 20
313.43558528979685
  0
ENDBLK
  0
BLOCK
  2
-013-_D16
 70
   64
 10
0
 20
0
 30
0
  0
LINE
  8
_0-2_寸法
  6
CONTINUOUS
 62
    4
 10
665.15612984264396
 20
326.9355852897969
 11
665.15612984264396
 21
320.9355852897969
  0
LINE
  8
_0-2_寸法
  6
CONTINUOUS
 62
    4
 10
665.65612984264396
 20
320.9355852897969
 11
694.65612984264396
 21
320.9355852897969
  0
INSERT
  2
-000-_Dot
  8
_0-2_寸法
 10
665.15612984264396
 20
320.9355852897969
 41
1
 42
1
 50
180
  0
INSERT
  2
-000-_Dot
  8
_0-2_寸法
 10
695.15612984264396
 20
320.9355852897969
 41
1
 42
1
 50
0
  0
TEXT
  8
_0-2_寸法
 62
    7
 10
678.90612984264396
 20
321.4355852897969
 40
2.5
 41
1
 50
0
  1
60
  0
POINT
  8
_0-1_Defpoints
 62
    7
 10
665.15612984264396
 20
326.9355852897969
  0
POINT
  8
_0-1_Defpoints
 62
    7
 10
695.15612984264396
 20
320.9355852897969
  0
POINT
  8
_0-1_Defpoints
 62
    7
 10
695.15612984264396
 20
320.9355852897969
  0
ENDBLK
  0
BLOCK
  2
-014-_D17
 70
   64
 10
0
 20
0
 30
0
  0
LINE
  8
_0-2_寸法
  6
CONTINUOUS
 62
    4
 10
695.15612984264396
 20
320.81058528979685
 11
695.15612984264396
 21
320.9355852897969
  0
LINE
  8
_0-2_寸法
  6
CONTINUOUS
 62
    4
 10
725.15612984264396
 20
326.9355852897969
 11
725.15612984264396
 21
320.9355852897969
  0
LINE
  8
_0-2_寸法
  6
CONTINUOUS
 62
    4
 10
695.65612984264396
 20
320.9355852897969
 11
724.65612984264396
 21
320.9355852897969
  0
INSERT
  2
-000-_Dot
  8
_0-2_寸法
 10
695.15612984264396
 20
320.9355852897969
 41
1
 42
1
 50
180
  0
INSERT
  2
-000-_Dot
  8
_0-2_寸法
 10
725.15612984264396
 20
320.9355852897969
 41
1
 42
1
 50
0
  0
TEXT
  8
_0-2_寸法
 62
    7
 10
708.90612984264396
 20
321.4355852897969
 40
2.5
 41
1
 50
0
  1
60
  0
POINT
  8
_0-1_Defpoints
 62
    7
 10
695.15612984264396
 20
320.81058528979685
  0
POINT
  8
_0-1_Defpoints
 62
    7
 10
725.15612984264396
 20
326.9355852897969
  0
POINT
  8
_0-1_Defpoints
 62
    7
 10
725.15612984264396
 20
320.9355852897969
  0
ENDBLK
  0
BLOCK
  2
-015-_D18
 70
   64
 10
0
 20
0
 30
0
  0
LINE
  8
_0-2_寸法
  6
CONTINUOUS
 62
    4
 10
725.15612984264396
 20
326.9355852897969
 11
725.15612984264396
 21
313.43558528979685
  0
LINE
  8
_0-2_寸法
  6
CONTINUOUS
 62
    4
 10
735.15612984264396
 20
326.9355852897969
 11
735.15612984264396
 21
313.43558528979685
  0
LINE
  8
_0-2_寸法
  6
CONTINUOUS
 62
    4
 10
725.65612984264396
 20
313.43558528979685
 11
734.65612984264396
 21
313.43558528979685
  0
INSERT
  2
-000-_Dot
  8
_0-2_寸法
 10
725.15612984264396
 20
313.43558528979685
 41
1
 42
1
 50
180
  0
INSERT
  2
-000-_Dot
  8
_0-2_寸法
 10
735.15612984264396
 20
313.43558528979685
 41
1
 42
1
 50
0
  0
TEXT
  8
_0-2_寸法
 62
    7
 10
728.90612984264396
 20
313.93558528979685
 40
2.5
 41
1
 50
0
  1
20
  0
POINT
  8
_0-1_Defpoints
 62
    7
 10
725.15612984264396
 20
326.9355852897969
  0
POINT
  8
_0-1_Defpoints
 62
    7
 10
735.15612984264396
 20
326.9355852897969
  0
POINT
  8
_0-1_Defpoints
 62
    7
 10
735.15612984264396
 20
313.43558528979685
  0
ENDBLK
  0
BLOCK
  2
-016-_D19
 70
   64
 10
0
 20
0
 30
0
  0
LINE
  8
_0-2_寸法
  6
CONTINUOUS
 62
    4
 10
725.15612984264396
 20
326.9355852897969
 11
725.15612984264396
 21
313.43558528979685
  0
LINE
  8
_0-2_寸法
  6
CONTINUOUS
 62
    4
 10
665.15612984264396
 20
326.9355852897969
 11
665.15612984264396
 21
313.43558528979685
  0
LINE
  8
_0-2_寸法
  6
CONTINUOUS
 62
    4
 10
724.65612984264396
 20
313.43558528979685
 11
665.65612984264396
 21
313.43558528979685
  0
INSERT
  2
-000-_Dot
  8
_0-2_寸法
 10
725.15612984264396
 20
313.43558528979685
 41
1
 42
1
 50
0
  0
INSERT
  2
-000-_Dot
  8
_0-2_寸法
 10
665.15612984264396
 20
313.43558528979685
 41
1
 42
1
 50
180
  0
TEXT
  8
_0-2_寸法
 62
    7
 10
693.28112984264396
 20
313.93558528979685
 40
2.5
 41
1
 50
0
  1
120
  0
POINT
  8
_0-1_Defpoints
 62
    7
 10
725.15612984264396
 20
326.9355852897969
  0
POINT
  8
_0-1_Defpoints
 62
    7
 10
665.15612984264396
 20
326.9355852897969
  0
POINT
  8
_0-1_Defpoints
 62
    7
 10
665.15612984264396
 20
313.43558528979685
  0
ENDBLK
  0
BLOCK
  2
-017-_D20
 70
   64
 10
0
 20
0
 30
0
  0
LINE
  8
_0-2_寸法
  6
CONTINUOUS
 62
    4
 10
737.14048184264402
 20
328.4355852897969
 11
743.14048184264402
 21
328.4355852897969
  0
LINE
  8
_0-2_寸法
  6
CONTINUOUS
 62
    4
 10
737.14048184264402
 20
330.9355852897969
 11
743.14048184264402
 21
330.9355852897969
  0
LINE
  8
_0-2_寸法
  6
CONTINUOUS
 62
    4
 10
743.14048184264402
 20
328.9355852897969
 11
743.14048184264402
 21
330.4355852897969
  0
INSERT
  2
-000-_Dot
  8
_0-2_寸法
 10
743.14048184264402
 20
328.4355852897969
 41
1
 42
1
 50
270
  0
INSERT
  2
-000-_Dot
  8
_0-2_寸法
 10
743.14048184264402
 20
330.9355852897969
 41
1
 42
1
 50
90
  0
TEXT
  8
_0-2_寸法
 62
    7
 10
742.64048184264402
 20
329.06058528979702
 40
2.5
 41
1
 50
90
  1
5
  0
POINT
  8
_0-1_Defpoints
 62
    7
 10
737.14048184264402
 20
328.4355852897969
  0
POINT
  8
_0-1_Defpoints
 62
    7
 10
737.14048184264402
 20
330.9355852897969
  0
POINT
  8
_0-1_Defpoints
 62
    7
 10
743.14048184264402
 20
330.9355852897969
  0
ENDBLK
  0
BLOCK
  2
-018-_D21
 70
   64
 10
0
 20
0
 30
0
  0
LINE
  8
_0-2_寸法
  6
CONTINUOUS
 62
    4
 10
737.14048184264402
 20
328.4355852897969
 11
750.64048184264402
 21
328.4355852897969
  0
LINE
  8
_0-2_寸法
  6
CONTINUOUS
 62
    4
 10
730.790481842644
 20
368.4355852897969
 11
750.64048184264402
 21
368.4355852897969
  0
LINE
  8
_0-2_寸法
  6
CONTINUOUS
 62
    4
 10
750.64048184264402
 20
328.9355852897969
 11
750.64048184264402
 21
367.9355852897969
  0
INSERT
  2
-000-_Dot
  8
_0-2_寸法
 10
750.64048184264402
 20
328.4355852897969
 41
1
 42
1
 50
270
  0
INSERT
  2
-000-_Dot
  8
_0-2_寸法
 10
750.64048184264402
 20
368.4355852897969
 41
1
 42
1
 50
90
  0
TEXT
  8
_0-2_寸法
 62
    7
 10
750.14048184264402
 20
347.18558528979702
 40
2.5
 41
1
 50
90
  1
80
  0
POINT
  8
_0-1_Defpoints
 62
    7
 10
737.14048184264402
 20
328.4355852897969
  0
POINT
  8
_0-1_Defpoints
 62
    7
 10
730.790481842644
 20
368.4355852897969
  0
POINT
  8
_0-1_Defpoints
 62
    7
 10
750.64048184264402
 20
368.4355852897969
  0
ENDBLK
  0
BLOCK
  2
-019-_D22
 70
   64
 10
0
 20
0
 30
0
  0
LINE
  8
_0-2_寸法
  6
CONTINUOUS
 62
    4
 10
730.790481842644
 20
368.4355852897969
 11
750.64048184264402
 21
368.4355852897969
  0
LINE
  8
_0-2_寸法
  6
CONTINUOUS
 62
    4
 10
723.14048184264402
 20
370.9355852897969
 11
750.64048184264402
 21
370.9355852897969
  0
LINE
  8
_0-2_寸法
  6
CONTINUOUS
 62
    4
 10
750.64048184264402
 20
368.9355852897969
 11
750.64048184264402
 21
370.4355852897969
  0
INSERT
  2
-000-_Dot
  8
_0-2_寸法
 10
750.64048184264402
 20
368.4355852897969
 41
1
 42
1
 50
270
  0
INSERT
  2
-000-_Dot
  8
_0-2_寸法
 10
750.64048184264402
 20
370.9355852897969
 41
1
 42
1
 50
90
  0
TEXT
  8
_0-2_寸法
 62
    7
 10
750.14048184264402
 20
369.06058528979702
 40
2.5
 41
1
 50
90
  1
5
  0
POINT
  8
_0-1_Defpoints
 62
    7
 10
730.790481842644
 20
368.4355852897969
  0
POINT
  8
_0-1_Defpoints
 62
    7
 10
723.14048184264402
 20
370.9355852897969
  0
POINT
  8
_0-1_Defpoints
 62
    7
 10
750.64048184264402
 20
370.9355852897969
  0
ENDBLK
  0
BLOCK
  2
-020-_D23
 70
   64
 10
0
 20
0
 30
0
  0
LINE
  8
_0-2_寸法
  6
CONTINUOUS
 62
    4
 10
712.15612984264396
 20
371.62963628979696
 11
712.15612984264396
 21
377.31987328979687
  0
LINE
  8
_0-2_寸法
  6
CONTINUOUS
 62
    4
 10
678.15612984264396
 20
371.62963628979696
 11
678.15612984264396
 21
377.31987328979687
  0
LINE
  8
_0-2_寸法
  6
CONTINUOUS
 62
    4
 10
711.65612984264396
 20
377.31987328979687
 11
678.65612984264396
 21
377.31987328979687
  0
INSERT
  2
-000-_Dot
  8
_0-2_寸法
 10
712.15612984264396
 20
377.31987328979687
 41
1
 42
1
 50
0
  0
INSERT
  2
-000-_Dot
  8
_0-2_寸法
 10
678.15612984264396
 20
377.31987328979687
 41
1
 42
1
 50
180
  0
TEXT
  8
_0-2_寸法
 62
    7
 10
693.90612984264396
 20
377.81987328979687
 40
2.5
 41
1
 50
0
  1
68
  0
POINT
  8
_0-1_Defpoints
 62
    7
 10
712.15612984264396
 20
371.62963628979696
  0
POINT
  8
_0-1_Defpoints
 62
    7
 10
678.15612984264396
 20
371.62963628979696
  0
POINT
  8
_0-1_Defpoints
 62
    7
 10
678.15612984264396
 20
377.31987328979687
  0
ENDBLK
  0
BLOCK
  2
-021-_D24
 70
   64
 10
0
 20
0
 30
0
  0
LINE
  8
_0-2_寸法
  6
CONTINUOUS
 62
    4
 10
784.47610984264395
 20
328.11020578979696
 11
778.47610984264395
 21
328.11020578979696
  0
LINE
  8
_0-2_寸法
  6
CONTINUOUS
 62
    4
 10
792.47610984264395
 20
340.61020578979691
 11
778.47610984264395
 21
340.61020578979691
  0
LINE
  8
_0-2_寸法
  6
CONTINUOUS
 62
    4
 10
778.47610984264395
 20
328.61020578979696
 11
778.47610984264395
 21
340.11020578979685
  0
INSERT
  2
-000-_Dot
  8
_0-2_寸法
 10
778.47610984264395
 20
328.11020578979696
 41
1
 42
1
 50
270
  0
INSERT
  2
-000-_Dot
  8
_0-2_寸法
 10
778.47610984264395
 20
340.61020578979691
 41
1
 42
1
 50
90
  0
TEXT
  8
_0-2_寸法
 62
    7
 10
777.9761098426435
 20
333.11020578979702
 40
2.5
 41
1
 50
90
  1
25
  0
POINT
  8
_0-1_Defpoints
 62
    7
 10
784.47610984264395
 20
328.11020578979696
  0
POINT
  8
_0-1_Defpoints
 62
    7
 10
792.47610984264395
 20
340.61020578979691
  0
POINT
  8
_0-1_Defpoints
 62
    7
 10
778.47610984264395
 20
340.61020578979691
  0
ENDBLK
  0
BLOCK
  2
-022-_D25
 70
   64
 10
0
 20
0
 30
0
  0
LINE
  8
_0-2_寸法
  6
CONTINUOUS
 62
    4
 10
785.97610984264395
 20
326.74417878979688
 11
785.97610984264395
 21
313.43558528979685
  0
LINE
  8
_0-2_寸法
  6
CONTINUOUS
 62
    4
 10
795.97610984264395
 20
326.74417878979688
 11
795.97610984264395
 21
313.43558528979685
  0
LINE
  8
_0-2_寸法
  6
CONTINUOUS
 62
    4
 10
786.47610984264395
 20
313.43558528979685
 11
795.47610984264395
 21
313.43558528979685
  0
INSERT
  2
-000-_Dot
  8
_0-2_寸法
 10
785.97610984264395
 20
313.43558528979685
 41
1
 42
1
 50
180
  0
INSERT
  2
-000-_Dot
  8
_0-2_寸法
 10
795.97610984264395
 20
313.43558528979685
 41
1
 42
1
 50
0
  0
TEXT
  8
_0-2_寸法
 62
    7
 10
789.72610984264395
 20
313.93558528979685
 40
2.5
 41
1
 50
0
  1
20
  0
POINT
  8
_0-1_Defpoints
 62
    7
 10
785.97610984264395
 20
326.74417878979688
  0
POINT
  8
_0-1_Defpoints
 62
    7
 10
795.97610984264395
 20
326.74417878979688
  0
POINT
  8
_0-1_Defpoints
 62
    7
 10
795.97610984264395
 20
313.43558528979685
  0
ENDBLK
  0
BLOCK
  2
-023-_D26
 70
   64
 10
0
 20
0
 30
0
  0
LINE
  8
_0-2_寸法
  6
CONTINUOUS
 62
    4
 10
795.97610984264395
 20
326.74417878979688
 11
795.97610984264395
 21
320.9355852897969
  0
LINE
  8
_0-2_寸法
  6
CONTINUOUS
 62
    4
 10
796.47610984264395
 20
320.9355852897969
 11
832.97610984264395
 21
320.9355852897969
  0
INSERT
  2
-000-_Dot
  8
_0-2_寸法
 10
795.97610984264395
 20
320.9355852897969
 41
1
 42
1
 50
180
  0
INSERT
  2
-000-_Dot
  8
_0-2_寸法
 10
833.47610984264395
 20
320.9355852897969
 41
1
 42
1
 50
0
  0
TEXT
  8
_0-2_寸法
 62
    7
 10
813.47610984264395
 20
321.4355852897969
 40
2.5
 41
1
 50
0
  1
75
  0
POINT
  8
_0-1_Defpoints
 62
    7
 10
795.97610984264395
 20
326.74417878979688
  0
POINT
  8
_0-1_Defpoints
 62
    7
 10
833.47610984264395
 20
320.9355852897969
  0
POINT
  8
_0-1_Defpoints
 62
    7
 10
833.47610984264395
 20
320.9355852897969
  0
ENDBLK
  0
BLOCK
  2
-024-_D27
 70
   64
 10
0
 20
0
 30
0
  0
LINE
  8
_0-2_寸法
  6
CONTINUOUS
 62
    4
 10
833.47610984264395
 20
320.81058528979685
 11
833.47610984264395
 21
320.9355852897969
  0
LINE
  8
_0-2_寸法
  6
CONTINUOUS
 62
    4
 10
870.97610984264395
 20
326.74417878979688
 11
870.97610984264395
 21
320.9355852897969
  0
LINE
  8
_0-2_寸法
  6
CONTINUOUS
 62
    4
 10
833.97610984264395
 20
320.9355852897969
 11
870.47610984264395
 21
320.9355852897969
  0
INSERT
  2
-000-_Dot
  8
_0-2_寸法
 10
833.47610984264395
 20
320.9355852897969
 41
1
 42
1
 50
180
  0
INSERT
  2
-000-_Dot
  8
_0-2_寸法
 10
870.97610984264395
 20
320.9355852897969
 41
1
 42
1
 50
0
  0
TEXT
  8
_0-2_寸法
 62
    7
 10
850.97610984264395
 20
321.4355852897969
 40
2.5
 41
1
 50
0
  1
75
  0
POINT
  8
_0-1_Defpoints
 62
    7
 10
833.47610984264395
 20
320.81058528979685
  0
POINT
  8
_0-1_Defpoints
 62
    7
 10
870.97610984264395
 20
326.74417878979688
  0
POINT
  8
_0-1_Defpoints
 62
    7
 10
870.97610984264395
 20
320.9355852897969
  0
ENDBLK
  0
BLOCK
  2
-025-_D28
 70
   64
 10
0
 20
0
 30
0
  0
LINE
  8
_0-2_寸法
  6
CONTINUOUS
 62
    4
 10
870.97610984264395
 20
326.74417878979688
 11
870.97610984264395
 21
313.43558528979685
  0
LINE
  8
_0-2_寸法
  6
CONTINUOUS
 62
    4
 10
880.97610984264395
 20
326.74417878979688
 11
880.97610984264395
 21
313.43558528979685
  0
LINE
  8
_0-2_寸法
  6
CONTINUOUS
 62
    4
 10
871.47610984264395
 20
313.43558528979685
 11
880.47610984264395
 21
313.43558528979685
  0
INSERT
  2
-000-_Dot
  8
_0-2_寸法
 10
870.97610984264395
 20
313.43558528979685
 41
1
 42
1
 50
180
  0
INSERT
  2
-000-_Dot
  8
_0-2_寸法
 10
880.97610984264395
 20
313.43558528979685
 41
1
 42
1
 50
0
  0
TEXT
  8
_0-2_寸法
 62
    7
 10
874.72610984264395
 20
313.93558528979685
 40
2.5
 41
1
 50
0
  1
20
  0
POINT
  8
_0-1_Defpoints
 62
    7
 10
870.97610984264395
 20
326.74417878979688
  0
POINT
  8
_0-1_Defpoints
 62
    7
 10
880.97610984264395
 20
326.74417878979688
  0
POINT
  8
_0-1_Defpoints
 62
    7
 10
880.97610984264395
 20
313.43558528979685
  0
ENDBLK
  0
BLOCK
  2
-026-_D29
 70
   64
 10
0
 20
0
 30
0
  0
LINE
  8
_0-2_寸法
  6
CONTINUOUS
 62
    4
 10
870.97610984264395
 20
326.74417878979688
 11
870.97610984264395
 21
313.43558528979685
  0
LINE
  8
_0-2_寸法
  6
CONTINUOUS
 62
    4
 10
795.97610984264395
 20
326.74417878979688
 11
795.97610984264395
 21
313.43558528979685
  0
LINE
  8
_0-2_寸法
  6
CONTINUOUS
 62
    4
 10
870.47610984264395
 20
313.43558528979685
 11
796.47610984264395
 21
313.43558528979685
  0
INSERT
  2
-000-_Dot
  8
_0-2_寸法
 10
870.97610984264395
 20
313.43558528979685
 41
1
 42
1
 50
0
  0
INSERT
  2
-000-_Dot
  8
_0-2_寸法
 10
795.97610984264395
 20
313.43558528979685
 41
1
 42
1
 50
180
  0
TEXT
  8
_0-2_寸法
 62
    7
 10
831.60110984264395
 20
313.93558528979685
 40
2.5
 41
1
 50
0
  1
150
  0
POINT
  8
_0-1_Defpoints
 62
    7
 10
870.97610984264395
 20
326.74417878979688
  0
POINT
  8
_0-1_Defpoints
 62
    7
 10
795.97610984264395
 20
326.74417878979688
  0
POINT
  8
_0-1_Defpoints
 62
    7
 10
795.97610984264395
 20
313.43558528979685
  0
ENDBLK
  0
BLOCK
  2
-027-_D30
 70
   64
 10
0
 20
0
 30
0
  0
LINE
  8
_0-2_寸法
  6
CONTINUOUS
 62
    4
 10
882.47610984264395
 20
328.11020578979696
 11
888.47610984264395
 21
328.11020578979696
  0
LINE
  8
_0-2_寸法
  6
CONTINUOUS
 62
    4
 10
882.47610984264395
 20
330.61020578979696
 11
888.47610984264395
 21
330.61020578979696
  0
LINE
  8
_0-2_寸法
  6
CONTINUOUS
 62
    4
 10
888.47610984264395
 20
328.61020578979696
 11
888.47610984264395
 21
330.11020578979696
  0
INSERT
  2
-000-_Dot
  8
_0-2_寸法
 10
888.47610984264395
 20
328.11020578979696
 41
1
 42
1
 50
270
  0
INSERT
  2
-000-_Dot
  8
_0-2_寸法
 10
888.47610984264395
 20
330.61020578979696
 41
1
 42
1
 50
90
  0
TEXT
  8
_0-2_寸法
 62
    7
 10
887.9761098426435
 20
328.73520578979708
 40
2.5
 41
1
 50
90
  1
5
  0
POINT
  8
_0-1_Defpoints
 62
    7
 10
882.47610984264395
 20
328.11020578979696
  0
POINT
  8
_0-1_Defpoints
 62
    7
 10
882.47610984264395
 20
330.61020578979696
  0
POINT
  8
_0-1_Defpoints
 62
    7
 10
888.47610984264395
 20
330.61020578979696
  0
ENDBLK
  0
BLOCK
  2
-028-_D31
 70
   64
 10
0
 20
0
 30
0
  0
LINE
  8
_0-2_寸法
  6
CONTINUOUS
 62
    4
 10
882.47610984264395
 20
328.11020578979696
 11
895.97610984264395
 21
328.11020578979696
  0
LINE
  8
_0-2_寸法
  6
CONTINUOUS
 62
    4
 10
876.12610984264404
 20
368.11020578979691
 11
895.97610984264395
 21
368.11020578979691
  0
LINE
  8
_0-2_寸法
  6
CONTINUOUS
 62
    4
 10
895.97610984264395
 20
328.61020578979696
 11
895.97610984264395
 21
367.61020578979691
  0
INSERT
  2
-000-_Dot
  8
_0-2_寸法
 10
895.97610984264395
 20
328.11020578979696
 41
1
 42
1
 50
270
  0
INSERT
  2
-000-_Dot
  8
_0-2_寸法
 10
895.97610984264395
 20
368.11020578979691
 41
1
 42
1
 50
90
  0
TEXT
  8
_0-2_寸法
 62
    7
 10
895.47610984264395
 20
346.86020578979702
 40
2.5
 41
1
 50
90
  1
80
  0
POINT
  8
_0-1_Defpoints
 62
    7
 10
882.47610984264395
 20
328.11020578979696
  0
POINT
  8
_0-1_Defpoints
 62
    7
 10
876.12610984264404
 20
368.11020578979691
  0
POINT
  8
_0-1_Defpoints
 62
    7
 10
895.97610984264395
 20
368.11020578979691
  0
ENDBLK
  0
BLOCK
  2
-029-_D32
 70
   64
 10
0
 20
0
 30
0
  0
LINE
  8
_0-2_寸法
  6
CONTINUOUS
 62
    4
 10
876.12610984264404
 20
368.11020578979691
 11
895.97610984264395
 21
368.11020578979691
  0
LINE
  8
_0-2_寸法
  6
CONTINUOUS
 62
    4
 10
868.47610984264395
 20
370.61020578979691
 11
895.97610984264395
 21
370.61020578979691
  0
LINE
  8
_0-2_寸法
  6
CONTINUOUS
 62
    4
 10
895.97610984264395
 20
368.61020578979691
 11
895.97610984264395
 21
370.11020578979691
  0
INSERT
  2
-000-_Dot
  8
_0-2_寸法
 10
895.97610984264395
 20
368.11020578979691
 41
1
 42
1
 50
270
  0
INSERT
  2
-000-_Dot
  8
_0-2_寸法
 10
895.97610984264395
 20
370.61020578979691
 41
1
 42
1
 50
90
  0
TEXT
  8
_0-2_寸法
 62
    7
 10
895.47610984264395
 20
368.73520578979702
 40
2.5
 41
1
 50
90
  1
5
  0
POINT
  8
_0-1_Defpoints
 62
    7
 10
876.12610984264404
 20
368.11020578979691
  0
POINT
  8
_0-1_Defpoints
 62
    7
 10
868.47610984264395
 20
370.61020578979691
  0
POINT
  8
_0-1_Defpoints
 62
    7
 10
895.97610984264395
 20
370.61020578979691
  0
ENDBLK
  0
BLOCK
  2
-030-_D33
 70
   64
 10
0
 20
0
 30
0
  0
LINE
  8
_0-2_寸法
  6
CONTINUOUS
 62
    4
 10
816.47610984264395
 20
371.21020578979687
 11
816.47610984264395
 21
376.90044278979684
  0
LINE
  8
_0-2_寸法
  6
CONTINUOUS
 62
    4
 10
850.47610984264395
 20
371.21020578979687
 11
850.47610984264395
 21
376.90044278979684
  0
LINE
  8
_0-2_寸法
  6
CONTINUOUS
 62
    4
 10
816.97610984264395
 20
376.90044278979684
 11
849.97610984264395
 21
376.90044278979684
  0
INSERT
  2
-000-_Dot
  8
_0-2_寸法
 10
816.47610984264395
 20
376.90044278979684
 41
1
 42
1
 50
180
  0
INSERT
  2
-000-_Dot
  8
_0-2_寸法
 10
850.47610984264395
 20
376.90044278979684
 41
1
 42
1
 50
0
  0
TEXT
  8
_0-2_寸法
 62
    7
 10
832.22610984264395
 20
377.40044278979684
 40
2.5
 41
1
 50
0
  1
68
  0
POINT
  8
_0-1_Defpoints
 62
    7
 10
816.47610984264395
 20
371.21020578979687
  0
POINT
  8
_0-1_Defpoints
 62
    7
 10
850.47610984264395
 20
371.21020578979687
  0
POINT
  8
_0-1_Defpoints
 62
    7
 10
850.47610984264395
 20
376.90044278979684
  0
ENDBLK
  0
BLOCK
  2
-031-_D34
 70
   64
 10
0
 20
0
 30
0
  0
LINE
  8
_0-2_寸法
  6
CONTINUOUS
 62
    4
 10
723.73726734264403
 20
231.60298828979691
 11
723.73726734264403
 21
199.39664228979689
  0
LINE
  8
_0-2_寸法
  6
CONTINUOUS
 62
    4
 10
724.23726734264403
 20
199.39664228979689
 11
753.23726734264403
 21
199.39664228979689
  0
INSERT
  2
-000-_Dot
  8
_0-2_寸法
 10
723.73726734264403
 20
199.39664228979689
 41
1
 42
1
 50
180
  0
INSERT
  2
-000-_Dot
  8
_0-2_寸法
 10
753.73726734264403
 20
199.39664228979689
 41
1
 42
1
 50
0
  0
TEXT
  8
_0-2_寸法
 62
    7
 10
737.48726734264403
 20
199.89664228979694
 40
2.5
 41
1
 50
0
  1
60
  0
POINT
  8
_0-1_Defpoints
 62
    7
 10
723.73726734264403
 20
231.60298828979691
  0
POINT
  8
_0-1_Defpoints
 62
    7
 10
753.73726734264403
 20
199.39664228979689
  0
POINT
  8
_0-1_Defpoints
 62
    7
 10
753.73726734264403
 20
199.39664228979689
  0
ENDBLK
  0
BLOCK
  2
-032-_D35
 70
   64
 10
0
 20
0
 30
0
  0
LINE
  8
_0-2_寸法
  6
CONTINUOUS
 62
    4
 10
753.73726734264403
 20
199.27164228979694
 11
753.73726734264403
 21
199.39664228979689
  0
LINE
  8
_0-2_寸法
  6
CONTINUOUS
 62
    4
 10
783.73726734264403
 20
205.1318562897969
 11
783.73726734264403
 21
199.39664228979689
  0
LINE
  8
_0-2_寸法
  6
CONTINUOUS
 62
    4
 10
754.23726734264403
 20
199.39664228979689
 11
783.23726734264403
 21
199.39664228979689
  0
INSERT
  2
-000-_Dot
  8
_0-2_寸法
 10
753.73726734264403
 20
199.39664228979689
 41
1
 42
1
 50
180
  0
INSERT
  2
-000-_Dot
  8
_0-2_寸法
 10
783.73726734264403
 20
199.39664228979689
 41
1
 42
1
 50
0
  0
TEXT
  8
_0-2_寸法
 62
    7
 10
767.48726734264403
 20
199.89664228979694
 40
2.5
 41
1
 50
0
  1
60
  0
POINT
  8
_0-1_Defpoints
 62
    7
 10
753.73726734264403
 20
199.27164228979694
  0
POINT
  8
_0-1_Defpoints
 62
    7
 10
783.73726734264403
 20
205.1318562897969
  0
POINT
  8
_0-1_Defpoints
 62
    7
 10
783.73726734264403
 20
199.39664228979689
  0
ENDBLK
  0
BLOCK
  2
-033-_D36
 70
   64
 10
0
 20
0
 30
0
  0
LINE
  8
_0-2_寸法
  6
CONTINUOUS
 62
    4
 10
783.73726734264403
 20
205.1318562897969
 11
783.73726734264403
 21
191.89664228979689
  0
LINE
  8
_0-2_寸法
  6
CONTINUOUS
 62
    4
 10
793.73726734264403
 20
205.20523578979689
 11
793.73726734264403
 21
191.89664228979689
  0
LINE
  8
_0-2_寸法
  6
CONTINUOUS
 62
    4
 10
784.23726734264403
 20
191.89664228979689
 11
793.23726734264403
 21
191.89664228979689
  0
INSERT
  2
-000-_Dot
  8
_0-2_寸法
 10
783.73726734264403
 20
191.89664228979689
 41
1
 42
1
 50
180
  0
INSERT
  2
-000-_Dot
  8
_0-2_寸法
 10
793.73726734264403
 20
191.89664228979689
 41
1
 42
1
 50
0
  0
TEXT
  8
_0-2_寸法
 62
    7
 10
787.48726734264403
 20
192.39664228979689
 40
2.5
 41
1
 50
0
  1
20
  0
POINT
  8
_0-1_Defpoints
 62
    7
 10
783.73726734264403
 20
205.1318562897969
  0
POINT
  8
_0-1_Defpoints
 62
    7
 10
793.73726734264403
 20
205.20523578979689
  0
POINT
  8
_0-1_Defpoints
 62
    7
 10
793.73726734264403
 20
191.89664228979689
  0
ENDBLK
  0
BLOCK
  2
-034-_D37
 70
   64
 10
0
 20
0
 30
0
  0
LINE
  8
_0-2_寸法
  6
CONTINUOUS
 62
    4
 10
783.73726734264403
 20
205.1318562897969
 11
783.73726734264403
 21
191.86098128979691
  0
LINE
  8
_0-2_寸法
  6
CONTINUOUS
 62
    4
 10
723.73726734264403
 20
231.60298828979691
 11
723.73726734264403
 21
191.86098128979691
  0
LINE
  8
_0-2_寸法
  6
CONTINUOUS
 62
    4
 10
783.23726734264403
 20
191.86098128979691
 11
724.23726734264403
 21
191.86098128979691
  0
INSERT
  2
-000-_Dot
  8
_0-2_寸法
 10
783.73726734264403
 20
191.86098128979691
 41
1
 42
1
 50
0
  0
INSERT
  2
-000-_Dot
  8
_0-2_寸法
 10
723.73726734264403
 20
191.86098128979691
 41
1
 42
1
 50
180
  0
TEXT
  8
_0-2_寸法
 62
    7
 10
751.86226734264403
 20
192.36098128979691
 40
2.5
 41
1
 50
0
  1
120
  0
POINT
  8
_0-1_Defpoints
 62
    7
 10
783.73726734264403
 20
205.1318562897969
  0
POINT
  8
_0-1_Defpoints
 62
    7
 10
723.73726734264403
 20
231.60298828979691
  0
POINT
  8
_0-1_Defpoints
 62
    7
 10
723.73726734264403
 20
191.86098128979691
  0
ENDBLK
  0
BLOCK
  2
-035-_D38
 70
   64
 10
0
 20
0
 30
0
  0
LINE
  8
_0-2_寸法
  6
CONTINUOUS
 62
    4
 10
795.23726734264403
 20
206.57126278979695
 11
801.23726734264403
 21
206.57126278979695
  0
LINE
  8
_0-2_寸法
  6
CONTINUOUS
 62
    4
 10
795.23726734264403
 20
209.07126278979695
 11
801.23726734264403
 21
209.07126278979695
  0
LINE
  8
_0-2_寸法
  6
CONTINUOUS
 62
    4
 10
801.23726734264403
 20
207.07126278979695
 11
801.23726734264403
 21
208.57126278979695
  0
INSERT
  2
-000-_Dot
  8
_0-2_寸法
 10
801.23726734264403
 20
206.57126278979695
 41
1
 42
1
 50
270
  0
INSERT
  2
-000-_Dot
  8
_0-2_寸法
 10
801.23726734264403
 20
209.07126278979695
 41
1
 42
1
 50
90
  0
TEXT
  8
_0-2_寸法
 62
    7
 10
800.73726734264403
 20
207.19626278979706
 40
2.5
 41
1
 50
90
  1
5
  0
POINT
  8
_0-1_Defpoints
 62
    7
 10
795.23726734264403
 20
206.57126278979695
  0
POINT
  8
_0-1_Defpoints
 62
    7
 10
795.23726734264403
 20
209.07126278979695
  0
POINT
  8
_0-1_Defpoints
 62
    7
 10
801.23726734264403
 20
209.07126278979695
  0
ENDBLK
  0
BLOCK
  2
-036-_D39
 70
   64
 10
0
 20
0
 30
0
  0
LINE
  8
_0-2_寸法
  6
CONTINUOUS
 62
    4
 10
795.23726734264403
 20
206.57126278979695
 11
808.73726734264403
 21
206.57126278979695
  0
LINE
  8
_0-2_寸法
  6
CONTINUOUS
 62
    4
 10
788.88726734264401
 20
246.57126278979689
 11
808.73726734264403
 21
246.57126278979689
  0
LINE
  8
_0-2_寸法
  6
CONTINUOUS
 62
    4
 10
808.73726734264403
 20
207.07126278979695
 11
808.73726734264403
 21
246.07126278979689
  0
INSERT
  2
-000-_Dot
  8
_0-2_寸法
 10
808.73726734264403
 20
206.57126278979695
 41
1
 42
1
 50
270
  0
INSERT
  2
-000-_Dot
  8
_0-2_寸法
 10
808.73726734264403
 20
246.57126278979689
 41
1
 42
1
 50
90
  0
TEXT
  8
_0-2_寸法
 62
    7
 10
808.23726734264403
 20
225.32126278979706
 40
2.5
 41
1
 50
90
  1
80
  0
POINT
  8
_0-1_Defpoints
 62
    7
 10
795.23726734264403
 20
206.57126278979695
  0
POINT
  8
_0-1_Defpoints
 62
    7
 10
788.88726734264401
 20
246.57126278979689
  0
POINT
  8
_0-1_Defpoints
 62
    7
 10
808.73726734264403
 20
246.57126278979689
  0
ENDBLK
  0
BLOCK
  2
-037-_D40
 70
   64
 10
0
 20
0
 30
0
  0
LINE
  8
_0-2_寸法
  6
CONTINUOUS
 62
    4
 10
788.88726734264401
 20
246.57126278979689
 11
808.73726734264403
 21
246.57126278979689
  0
LINE
  8
_0-2_寸法
  6
CONTINUOUS
 62
    4
 10
781.23726734264403
 20
249.07126278979689
 11
808.73726734264403
 21
249.07126278979689
  0
LINE
  8
_0-2_寸法
  6
CONTINUOUS
 62
    4
 10
808.73726734264403
 20
247.07126278979689
 11
808.73726734264403
 21
248.57126278979689
  0
INSERT
  2
-000-_Dot
  8
_0-2_寸法
 10
808.73726734264403
 20
246.57126278979689
 41
1
 42
1
 50
270
  0
INSERT
  2
-000-_Dot
  8
_0-2_寸法
 10
808.73726734264403
 20
249.07126278979689
 41
1
 42
1
 50
90
  0
TEXT
  8
_0-2_寸法
 62
    7
 10
808.23726734264403
 20
247.19626278979706
 40
2.5
 41
1
 50
90
  1
5
  0
POINT
  8
_0-1_Defpoints
 62
    7
 10
788.88726734264401
 20
246.57126278979689
  0
POINT
  8
_0-1_Defpoints
 62
    7
 10
781.23726734264403
 20
249.07126278979689
  0
POINT
  8
_0-1_Defpoints
 62
    7
 10
808.73726734264403
 20
249.07126278979689
  0
ENDBLK
  0
BLOCK
  2
-038-_D41
 70
   64
 10
0
 20
0
 30
0
  0
LINE
  8
_0-2_寸法
  6
CONTINUOUS
 62
    4
 10
736.73726734264403
 20
249.67126278979691
 11
736.73726734264403
 21
255.36149978979694
  0
LINE
  8
_0-2_寸法
  6
CONTINUOUS
 62
    4
 10
770.73726734264403
 20
249.67126278979691
 11
770.73726734264403
 21
255.36149978979694
  0
LINE
  8
_0-2_寸法
  6
CONTINUOUS
 62
    4
 10
737.23726734264403
 20
255.36149978979694
 11
770.23726734264403
 21
255.36149978979694
  0
INSERT
  2
-000-_Dot
  8
_0-2_寸法
 10
736.73726734264403
 20
255.36149978979694
 41
1
 42
1
 50
180
  0
INSERT
  2
-000-_Dot
  8
_0-2_寸法
 10
770.73726734264403
 20
255.36149978979694
 41
1
 42
1
 50
0
  0
TEXT
  8
_0-2_寸法
 62
    7
 10
752.48726734264403
 20
255.86149978979688
 40
2.5
 41
1
 50
0
  1
68
  0
POINT
  8
_0-1_Defpoints
 62
    7
 10
736.73726734264403
 20
249.67126278979691
  0
POINT
  8
_0-1_Defpoints
 62
    7
 10
770.73726734264403
 20
249.67126278979691
  0
POINT
  8
_0-1_Defpoints
 62
    7
 10
770.73726734264403
 20
255.36149978979694
  0
ENDBLK
  0
BLOCK
  2
-039-_D42
 70
   64
 10
0
 20
0
 30
0
  0
LINE
  8
_0-2_寸法
  6
CONTINUOUS
 62
    4
 10
514.46833984264401
 20
206.86098128979691
 11
510.59745834264402
 21
206.86098128979691
  0
LINE
  8
_0-2_寸法
  6
CONTINUOUS
 62
    4
 10
522.46833984264401
 20
219.36098128979691
 11
510.59745834264402
 21
219.36098128979691
  0
LINE
  8
_0-2_寸法
  6
CONTINUOUS
 62
    4
 10
510.59745834264402
 20
207.36098128979694
 11
510.59745834264402
 21
218.86098128979691
  0
INSERT
  2
-000-_Dot
  8
_0-2_寸法
 10
510.59745834264402
 20
206.86098128979691
 41
1
 42
1
 50
270
  0
INSERT
  2
-000-_Dot
  8
_0-2_寸法
 10
510.59745834264402
 20
219.36098128979691
 41
1
 42
1
 50
90
  0
TEXT
  8
_0-2_寸法
 62
    7
 10
510.09745834264402
 20
211.860981289797
 40
2.5
 41
1
 50
90
  1
25
  0
POINT
  8
_0-1_Defpoints
 62
    7
 10
514.46833984264401
 20
206.86098128979691
  0
POINT
  8
_0-1_Defpoints
 62
    7
 10
522.46833984264401
 20
219.36098128979691
  0
POINT
  8
_0-1_Defpoints
 62
    7
 10
510.59745834264402
 20
219.36098128979691
  0
ENDBLK
  0
BLOCK
  2
-040-_D43
 70
   64
 10
0
 20
0
 30
0
  0
LINE
  8
_0-2_寸法
  6
CONTINUOUS
 62
    4
 10
515.96833984264401
 20
205.36098128979694
 11
515.96833984264401
 21
191.86098128979691
  0
LINE
  8
_0-2_寸法
  6
CONTINUOUS
 62
    4
 10
525.96833984264401
 20
205.36098128979694
 11
525.96833984264401
 21
191.86098128979691
  0
LINE
  8
_0-2_寸法
  6
CONTINUOUS
 62
    4
 10
516.46833984264401
 20
191.86098128979691
 11
525.46833984264401
 21
191.86098128979691
  0
INSERT
  2
-000-_Dot
  8
_0-2_寸法
 10
515.96833984264401
 20
191.86098128979691
 41
1
 42
1
 50
180
  0
INSERT
  2
-000-_Dot
  8
_0-2_寸法
 10
525.96833984264401
 20
191.86098128979691
 41
1
 42
1
 50
0
  0
TEXT
  8
_0-2_寸法
 62
    7
 10
519.71833984264401
 20
192.36098128979691
 40
2.5
 41
1
 50
0
  1
20
  0
POINT
  8
_0-1_Defpoints
 62
    7
 10
515.96833984264401
 20
205.36098128979694
  0
POINT
  8
_0-1_Defpoints
 62
    7
 10
525.96833984264401
 20
205.36098128979694
  0
POINT
  8
_0-1_Defpoints
 62
    7
 10
525.96833984264401
 20
191.86098128979691
  0
ENDBLK
  0
BLOCK
  2
-041-_D44
 70
   64
 10
0
 20
0
 30
0
  0
LINE
  8
_0-2_寸法
  6
CONTINUOUS
 62
    4
 10
525.96833984264401
 20
205.36098128979694
 11
525.96833984264401
 21
199.36098128979691
  0
LINE
  8
_0-2_寸法
  6
CONTINUOUS
 62
    4
 10
526.46833984264401
 20
199.36098128979691
 11
575.46833984264401
 21
199.36098128979691
  0
INSERT
  2
-000-_Dot
  8
_0-2_寸法
 10
525.96833984264401
 20
199.36098128979691
 41
1
 42
1
 50
180
  0
INSERT
  2
-000-_Dot
  8
_0-2_寸法
 10
575.96833984264401
 20
199.36098128979691
 41
1
 42
1
 50
0
  0
TEXT
  8
_0-2_寸法
 62
    7
 10
549.09333984264401
 20
199.86098128979694
 40
2.5
 41
1
 50
0
  1
100
  0
POINT
  8
_0-1_Defpoints
 62
    7
 10
525.96833984264401
 20
205.36098128979694
  0
POINT
  8
_0-1_Defpoints
 62
    7
 10
575.96833984264401
 20
199.36098128979691
  0
POINT
  8
_0-1_Defpoints
 62
    7
 10
575.96833984264401
 20
199.36098128979691
  0
ENDBLK
  0
BLOCK
  2
-042-_D45
 70
   64
 10
0
 20
0
 30
0
  0
LINE
  8
_0-2_寸法
  6
CONTINUOUS
 62
    4
 10
625.96833984264401
 20
205.36098128979694
 11
625.96833984264401
 21
199.36098128979691
  0
LINE
  8
_0-2_寸法
  6
CONTINUOUS
 62
    4
 10
576.46833984264401
 20
199.36098128979691
 11
625.46833984264401
 21
199.36098128979691
  0
INSERT
  2
-000-_Dot
  8
_0-2_寸法
 10
575.96833984264401
 20
199.36098128979691
 41
1
 42
1
 50
180
  0
INSERT
  2
-000-_Dot
  8
_0-2_寸法
 10
625.96833984264401
 20
199.36098128979691
 41
1
 42
1
 50
0
  0
TEXT
  8
_0-2_寸法
 62
    7
 10
599.09333984264401
 20
199.86098128979694
 40
2.5
 41
1
 50
0
  1
100
  0
POINT
  8
_0-1_Defpoints
 62
    7
 10
575.96833984264401
 20
199.36098128979691
  0
POINT
  8
_0-1_Defpoints
 62
    7
 10
625.96833984264401
 20
205.36098128979694
  0
POINT
  8
_0-1_Defpoints
 62
    7
 10
625.96833984264401
 20
199.36098128979691
  0
ENDBLK
  0
BLOCK
  2
-043-_D46
 70
   64
 10
0
 20
0
 30
0
  0
LINE
  8
_0-2_寸法
  6
CONTINUOUS
 62
    4
 10
625.96833984264401
 20
205.36098128979694
 11
625.96833984264401
 21
191.86098128979691
  0
LINE
  8
_0-2_寸法
  6
CONTINUOUS
 62
    4
 10
635.96833984264401
 20
205.36098128979694
 11
635.96833984264401
 21
191.86098128979691
  0
LINE
  8
_0-2_寸法
  6
CONTINUOUS
 62
    4
 10
626.46833984264401
 20
191.86098128979691
 11
635.46833984264401
 21
191.86098128979691
  0
INSERT
  2
-000-_Dot
  8
_0-2_寸法
 10
625.96833984264401
 20
191.86098128979691
 41
1
 42
1
 50
180
  0
INSERT
  2
-000-_Dot
  8
_0-2_寸法
 10
635.96833984264401
 20
191.86098128979691
 41
1
 42
1
 50
0
  0
TEXT
  8
_0-2_寸法
 62
    7
 10
629.71833984264401
 20
192.36098128979691
 40
2.5
 41
1
 50
0
  1
20
  0
POINT
  8
_0-1_Defpoints
 62
    7
 10
625.96833984264401
 20
205.36098128979694
  0
POINT
  8
_0-1_Defpoints
 62
    7
 10
635.96833984264401
 20
205.36098128979694
  0
POINT
  8
_0-1_Defpoints
 62
    7
 10
635.96833984264401
 20
191.86098128979691
  0
ENDBLK
  0
BLOCK
  2
-044-_D47
 70
   64
 10
0
 20
0
 30
0
  0
LINE
  8
_0-2_寸法
  6
CONTINUOUS
 62
    4
 10
625.96833984264401
 20
205.36098128979694
 11
625.96833984264401
 21
191.86098128979691
  0
LINE
  8
_0-2_寸法
  6
CONTINUOUS
 62
    4
 10
525.96833984264401
 20
205.36098128979694
 11
525.96833984264401
 21
191.86098128979691
  0
LINE
  8
_0-2_寸法
  6
CONTINUOUS
 62
    4
 10
625.46833984264401
 20
191.86098128979691
 11
526.46833984264401
 21
191.86098128979691
  0
INSERT
  2
-000-_Dot
  8
_0-2_寸法
 10
625.96833984264401
 20
191.86098128979691
 41
1
 42
1
 50
0
  0
INSERT
  2
-000-_Dot
  8
_0-2_寸法
 10
525.96833984264401
 20
191.86098128979691
 41
1
 42
1
 50
180
  0
TEXT
  8
_0-2_寸法
 62
    7
 10
574.09333984264401
 20
192.36098128979691
 40
2.5
 41
1
 50
0
  1
200
  0
POINT
  8
_0-1_Defpoints
 62
    7
 10
625.96833984264401
 20
205.36098128979694
  0
POINT
  8
_0-1_Defpoints
 62
    7
 10
525.96833984264401
 20
205.36098128979694
  0
POINT
  8
_0-1_Defpoints
 62
    7
 10
525.96833984264401
 20
191.86098128979691
  0
ENDBLK
  0
BLOCK
  2
-045-_D48
 70
   64
 10
0
 20
0
 30
0
  0
LINE
  8
_0-2_寸法
  6
CONTINUOUS
 62
    4
 10
637.95269184264396
 20
206.86098128979691
 11
642.49638084264404
 21
206.86098128979691
  0
LINE
  8
_0-2_寸法
  6
CONTINUOUS
 62
    4
 10
637.95269184264396
 20
209.36098128979691
 11
642.49638084264404
 21
209.36098128979691
  0
LINE
  8
_0-2_寸法
  6
CONTINUOUS
 62
    4
 10
642.49638084264404
 20
207.36098128979694
 11
642.49638084264404
 21
208.86098128979691
  0
INSERT
  2
-000-_Dot
  8
_0-2_寸法
 10
642.49638084264404
 20
206.86098128979691
 41
1
 42
1
 50
270
  0
INSERT
  2
-000-_Dot
  8
_0-2_寸法
 10
642.49638084264404
 20
209.36098128979691
 41
1
 42
1
 50
90
  0
TEXT
  8
_0-2_寸法
 62
    7
 10
641.99638084264404
 20
207.485981289797
 40
2.5
 41
1
 50
90
  1
5
  0
POINT
  8
_0-1_Defpoints
 62
    7
 10
637.95269184264396
 20
206.86098128979691
  0
POINT
  8
_0-1_Defpoints
 62
    7
 10
637.95269184264396
 20
209.36098128979691
  0
POINT
  8
_0-1_Defpoints
 62
    7
 10
642.49638084264404
 20
209.36098128979691
  0
ENDBLK
  0
BLOCK
  2
-046-_D49
 70
   64
 10
0
 20
0
 30
0
  0
LINE
  8
_0-2_寸法
  6
CONTINUOUS
 62
    4
 10
637.95269184264396
 20
206.86098128979691
 11
646.35850584264404
 21
206.86098128979691
  0
LINE
  8
_0-2_寸法
  6
CONTINUOUS
 62
    4
 10
631.60269184264405
 20
246.86098128979694
 11
646.35850584264404
 21
246.86098128979694
  0
LINE
  8
_0-2_寸法
  6
CONTINUOUS
 62
    4
 10
646.35850584264404
 20
207.36098128979694
 11
646.35850584264404
 21
246.36098128979691
  0
INSERT
  2
-000-_Dot
  8
_0-2_寸法
 10
646.35850584264404
 20
206.86098128979691
 41
1
 42
1
 50
270
  0
INSERT
  2
-000-_Dot
  8
_0-2_寸法
 10
646.35850584264404
 20
246.86098128979694
 41
1
 42
1
 50
90
  0
TEXT
  8
_0-2_寸法
 62
    7
 10
645.85850584264404
 20
225.610981289797
 40
2.5
 41
1
 50
90
  1
80
  0
POINT
  8
_0-1_Defpoints
 62
    7
 10
637.95269184264396
 20
206.86098128979691
  0
POINT
  8
_0-1_Defpoints
 62
    7
 10
631.60269184264405
 20
246.86098128979694
  0
POINT
  8
_0-1_Defpoints
 62
    7
 10
646.35850584264404
 20
246.86098128979694
  0
ENDBLK
  0
BLOCK
  2
-047-_D50
 70
   64
 10
0
 20
0
 30
0
  0
LINE
  8
_0-2_寸法
  6
CONTINUOUS
 62
    4
 10
631.60269184264405
 20
246.86098128979694
 11
646.35850584264404
 21
246.86098128979694
  0
LINE
  8
_0-2_寸法
  6
CONTINUOUS
 62
    4
 10
623.95269184264396
 20
249.36098128979694
 11
646.35850584264404
 21
249.36098128979694
  0
LINE
  8
_0-2_寸法
  6
CONTINUOUS
 62
    4
 10
646.35850584264404
 20
247.36098128979694
 11
646.35850584264404
 21
248.86098128979691
  0
INSERT
  2
-000-_Dot
  8
_0-2_寸法
 10
646.35850584264404
 20
246.86098128979694
 41
1
 42
1
 50
270
  0
INSERT
  2
-000-_Dot
  8
_0-2_寸法
 10
646.35850584264404
 20
249.36098128979694
 41
1
 42
1
 50
90
  0
TEXT
  8
_0-2_寸法
 62
    7
 10
645.85850584264404
 20
247.48598128979705
 40
2.5
 41
1
 50
90
  1
5
  0
POINT
  8
_0-1_Defpoints
 62
    7
 10
631.60269184264405
 20
246.86098128979694
  0
POINT
  8
_0-1_Defpoints
 62
    7
 10
623.95269184264396
 20
249.36098128979694
  0
POINT
  8
_0-1_Defpoints
 62
    7
 10
646.35850584264404
 20
249.36098128979694
  0
ENDBLK
  0
BLOCK
  2
-048-_D51
 70
   64
 10
0
 20
0
 30
0
  0
LINE
  8
_0-2_寸法
  6
CONTINUOUS
 62
    4
 10
540.46833984264401
 20
250.05503228979691
 11
540.46833984264401
 21
255.74526928979691
  0
LINE
  8
_0-2_寸法
  6
CONTINUOUS
 62
    4
 10
574.46833984264401
 20
250.05503228979691
 11
574.46833984264401
 21
255.74526928979691
  0
LINE
  8
_0-2_寸法
  6
CONTINUOUS
 62
    4
 10
540.96833984264401
 20
255.74526928979691
 11
573.96833984264401
 21
255.74526928979691
  0
INSERT
  2
-000-_Dot
  8
_0-2_寸法
 10
540.46833984264401
 20
255.74526928979691
 41
1
 42
1
 50
180
  0
INSERT
  2
-000-_Dot
  8
_0-2_寸法
 10
574.46833984264401
 20
255.74526928979691
 41
1
 42
1
 50
0
  0
TEXT
  8
_0-2_寸法
 62
    7
 10
556.21833984264401
 20
256.24526928979697
 40
2.5
 41
1
 50
0
  1
68
  0
POINT
  8
_0-1_Defpoints
 62
    7
 10
540.46833984264401
 20
250.05503228979691
  0
POINT
  8
_0-1_Defpoints
 62
    7
 10
574.46833984264401
 20
250.05503228979691
  0
POINT
  8
_0-1_Defpoints
 62
    7
 10
574.46833984264401
 20
255.74526928979691
  0
ENDBLK
  0
BLOCK
  2
-049-_D52
 70
   64
 10
0
 20
0
 30
0
  0
LINE
  8
_0-2_寸法
  6
CONTINUOUS
 62
    4
 10
574.46833984264401
 20
250.05503228979691
 11
574.46833984264401
 21
255.74526928979691
  0
LINE
  8
_0-2_寸法
  6
CONTINUOUS
 62
    4
 10
573.96833984264401
 20
255.74526928979691
 11
573.46833984264401
 21
255.74526928979691
  0
LINE
  8
_0-2_寸法
  6
CONTINUOUS
 62
    4
 10
576.46833984264401
 20
255.74526928979691
 11
576.96833984264401
 21
255.74526928979691
  0
INSERT
  2
-000-_Dot
  8
_0-2_寸法
 10
574.46833984264401
 20
255.74526928979691
 41
1
 42
1
 50
0
  0
INSERT
  2
-000-_Dot
  8
_0-2_寸法
 10
575.96833984264401
 20
255.74526928979691
 41
1
 42
1
 50
180
  0
TEXT
  8
_0-2_寸法
 62
    7
 10
574.59333984264401
 20
256.24526928979697
 40
2.5
 41
1
 50
0
  1
3
  0
POINT
  8
_0-1_Defpoints
 62
    7
 10
574.46833984264401
 20
250.05503228979691
  0
POINT
  8
_0-1_Defpoints
 62
    7
 10
575.96833984264401
 20
255.74526928979691
  0
POINT
  8
_0-1_Defpoints
 62
    7
 10
575.96833984264401
 20
255.74526928979691
  0
ENDBLK
  0
BLOCK
  2
-050-_D53
 70
   64
 10
0
 20
0
 30
0
  0
LINE
  8
_0-2_寸法
  6
CONTINUOUS
 62
    4
 10
577.46833984264401
 20
250.05503228979691
 11
577.46833984264401
 21
255.74526928979691
  0
LINE
  8
_0-2_寸法
  6
CONTINUOUS
 62
    4
 10
575.46833984264401
 20
255.74526928979691
 11
574.96833984264401
 21
255.74526928979691
  0
LINE
  8
_0-2_寸法
  6
CONTINUOUS
 62
    4
 10
577.96833984264401
 20
255.74526928979691
 11
578.46833984264401
 21
255.74526928979691
  0
INSERT
  2
-000-_Dot
  8
_0-2_寸法
 10
575.96833984264401
 20
255.74526928979691
 41
1
 42
1
 50
0
  0
INSERT
  2
-000-_Dot
  8
_0-2_寸法
 10
577.46833984264401
 20
255.74526928979691
 41
1
 42
1
 50
180
  0
TEXT
  8
_0-2_寸法
 62
    7
 10
576.09333984264401
 20
256.24526928979697
 40
2.5
 41
1
 50
0
  1
3
  0
POINT
  8
_0-1_Defpoints
 62
    7
 10
575.96833984264401
 20
255.74526928979691
  0
POINT
  8
_0-1_Defpoints
 62
    7
 10
577.46833984264401
 20
250.05503228979691
  0
POINT
  8
_0-1_Defpoints
 62
    7
 10
577.46833984264401
 20
255.74526928979691
  0
ENDBLK
  0
BLOCK
  2
-051-_D54
 70
   64
 10
0
 20
0
 30
0
  0
LINE
  8
_0-2_寸法
  6
CONTINUOUS
 62
    4
 10
577.46833984264401
 20
250.05503228979691
 11
577.46833984264401
 21
255.74526928979691
  0
LINE
  8
_0-2_寸法
  6
CONTINUOUS
 62
    4
 10
611.46833984264401
 20
250.05503228979691
 11
611.46833984264401
 21
255.74526928979691
  0
LINE
  8
_0-2_寸法
  6
CONTINUOUS
 62
    4
 10
577.96833984264401
 20
255.74526928979691
 11
610.96833984264401
 21
255.74526928979691
  0
INSERT
  2
-000-_Dot
  8
_0-2_寸法
 10
577.46833984264401
 20
255.74526928979691
 41
1
 42
1
 50
180
  0
INSERT
  2
-000-_Dot
  8
_0-2_寸法
 10
611.46833984264401
 20
255.74526928979691
 41
1
 42
1
 50
0
  0
TEXT
  8
_0-2_寸法
 62
    7
 10
593.21833984264401
 20
256.24526928979697
 40
2.5
 41
1
 50
0
  1
68
  0
POINT
  8
_0-1_Defpoints
 62
    7
 10
577.46833984264401
 20
250.05503228979691
  0
POINT
  8
_0-1_Defpoints
 62
    7
 10
611.46833984264401
 20
250.05503228979691
  0
POINT
  8
_0-1_Defpoints
 62
    7
 10
611.46833984264401
 20
255.74526928979691
  0
ENDBLK
  0
ENDSEC
  0
SECTION
  2
ENTITIES
  0
LINE
  8
_0-3_躯体と製品
  6
CONTINUOUS
 62
    4
 10
198.83991483717978
 20
299.58701453976437
 11
255.53991483717959
 21
299.58701453976437
  0
LINE
  8
_0-3_躯体と製品
  6
CONTINUOUS
 62
    4
 10
232.53991483717959
 20
301.08701453976448
 11
203.53991483717959
 21
301.08701453976448
  0
TEXT
  8
_0-4_文字-記号
 62
    7
 10
176.2784298371796
 20
92.409205539764571
 40
10
 41
0.8
 50
0
  1
ＢＢ－１２０Ｌ
  0
TEXT
  8
_0-4_文字-記号
 62
    7
 10
-179.25943916282029
 20
97.065608539764526
 40
10
 41
0.8
 50
0
  1
ＢＢ－２００
  0
LINE
  8
_0-3_躯体と製品
  6
CONTINUOUS
 62
    4
 10
-47.835665162820305
 20
62.937806539764551
 11
-41.035665162820351
 21
62.937806539764551
  0
LINE
  8
_0-3_躯体と製品
  6
CONTINUOUS
 62
    4
 10
-42.835665162820305
 20
61.137806539764483
 11
-47.335665162820305
 21
61.137806539764483
  0
LINE
  8
_0-3_躯体と製品
  6
CONTINUOUS
 62
    4
 10
-136.83566516282031
 20
56.237806539764449
 11
-40.13566516282026
 21
56.237806539764449
  0
LINE
  8
_0-3_躯体と製品
  6
CONTINUOUS
 62
    4
 10
-110.83566516282031
 20
57.937806539764551
 11
-42.835665162820305
 21
57.937806539764551
  0
LINE
  8
_0-3_躯体と製品
  6
CONTINUOUS
 62
    4
 10
-141.33566516282031
 20
5.9378065397644946
 11
-141.33566516282031
 21
57.637806539764483
  0
LINE
  8
_0-3_躯体と製品
  6
CONTINUOUS
 62
    4
 10
-139.83566516282031
 20
-22.062193460235505
 11
-139.83566516282031
 21
53.237806539764449
  0
LINE
  8
_0-3_躯体と製品
  6
CONTINUOUS
 62
    4
 10
-143.63566516282026
 20
5.9378065397644946
 11
-141.33566516282031
 21
5.9378065397644946
  0
ARC
  8
_0-3_躯体と製品
  6
CONTINUOUS
 62
    4
 10
-142.33566516282031
 20
-0.7702924602356233
 40
1
 50
0
 51
112.0243130000012
  0
LINE
  8
_0-3_躯体と製品
  6
CONTINUOUS
 62
    4
 10
-159.83566516282031
 20
-22.062193460235505
 11
-139.83566516282031
 21
-22.062193460235505
  0
ARC
  8
_0-3_躯体と製品
  6
CONTINUOUS
 62
    4
 10
-142.33566516282031
 20
-19.562193460235505
 40
1
 50
270
 51
0
  0
LINE
  8
_0-3_躯体と製品
  6
CONTINUOUS
 62
    4
 10
-158.53566516282035
 20
-20.562193460235449
 11
-142.33566516282031
 21
-20.562193460235449
  0
LINE
  8
_0-3_躯体と製品
  6
CONTINUOUS
 62
    4
 10
-159.83566516282031
 20
-17.062193460235505
 11
-159.83566516282031
 21
-22.062193460235505
  0
LINE
  8
_0-3_躯体と製品
  6
CONTINUOUS
 62
    4
 10
-158.53566516282035
 20
-17.062193460235505
 11
-158.53566516282035
 21
-20.562193460235449
  0
LINE
  8
_0-3_躯体と製品
  6
CONTINUOUS
 62
    4
 10
-159.83566516282031
 20
-17.062193460235505
 11
-158.53566516282035
 21
-17.062193460235505
  0
LINE
  8
_0-3_躯体と製品
  6
CONTINUOUS
 62
    4
 10
-143.63566516282026
 20
8.1378065397644832
 11
-143.63566516282026
 21
5.9378065397644946
  0
LINE
  8
_0-3_躯体と製品
  6
CONTINUOUS
 62
    4
 10
-144.83566516282031
 20
8.1378065397644832
 11
-144.83566516282031
 21
5.7662335397644711
  0
ARC
  8
_0-3_躯体と製品
  6
CONTINUOUS
 62
    4
 10
-143.83566516282031
 20
2.9378065397644946
 40
3
 50
109.47122100000172
 51
131.81031499999833
  0
ARC
  8
_0-3_躯体と製品
  6
CONTINUOUS
 62
    4
 10
-143.83566516282031
 20
2.9378065397644946
 40
3
 50
228.18968500000162
 51
292.0243130000012
  0
ARC
  8
_0-3_躯体と製品
  6
CONTINUOUS
 62
    4
 10
-143.83566516282031
 20
2.9378065397644946
 40
1.5
 50
216.8698980000006
 51
143.13010199999928
  0
LINE
  8
_0-3_躯体と製品
  6
CONTINUOUS
 62
    4
 10
-145.83566516282031
 20
0.7017385397644488
 11
-145.83566516282031
 21
1.7378065397644491
  0
LINE
  8
_0-3_躯体と製品
  6
CONTINUOUS
 62
    4
 10
-145.03566516282035
 20
2.0378065397644605
 11
-145.53566516282035
 21
2.0378065397644605
  0
ARC
  8
_0-3_躯体と製品
  6
CONTINUOUS
 62
    4
 10
-145.53566516282035
 20
1.7378065397644491
 40
0.2999999999999999
 50
90
 51
180
  0
LINE
  8
_0-3_躯体と製品
  6
CONTINUOUS
 62
    4
 10
-145.03566516282035
 20
3.8378065397644718
 11
-145.53566516282035
 21
3.8378065397644718
  0
ARC
  8
_0-3_躯体と製品
  6
CONTINUOUS
 62
    4
 10
-145.53566516282035
 20
4.1378065397644832
 40
0.2999999999999999
 50
180
 51
270
  0
LINE
  8
_0-3_躯体と製品
  6
CONTINUOUS
 62
    4
 10
-145.83566516282031
 20
5.1738745397643697
 11
-145.83566516282031
 21
4.1378065397644832
  0
ARC
  8
_0-3_躯体と製品
  6
CONTINUOUS
 62
    4
 10
-144.2356651628204
 20
8.1378065397644832
 40
0.5999999999999999
 50
0
 51
180
  0
LINE
  8
_0-3_躯体と製品
  6
CONTINUOUS
 62
    4
 10
-141.33566516282031
 20
-0.7702924602356233
 11
-141.33566516282031
 21
-19.562193460235505
  0
LINE
  8
_0-3_躯体と製品
  6
CONTINUOUS
 62
    4
 10
-110.83566516282031
 20
61.137806539764483
 11
-106.33566516282031
 21
61.137806539764483
  0
LINE
  8
_0-3_躯体と製品
  6
CONTINUOUS
 62
    4
 10
-105.83566516282031
 20
62.937806539764551
 11
-113.83566516282031
 21
62.937806539764551
  0
ARC
  8
_0-3_躯体と製品
  6
CONTINUOUS
 62
    4
 10
-113.83566516282031
 20
59.937806539764495
 40
3
 50
90
 51
131.81031499999833
  0
LINE
  8
_0-3_躯体と製品
  6
CONTINUOUS
 62
    4
 10
-141.03566516282035
 20
57.937806539764551
 11
-115.83566516282031
 21
57.937806539764551
  0
ARC
  8
_0-3_躯体と製品
  6
CONTINUOUS
 62
    4
 10
-141.03566516282035
 20
57.637806539764483
 40
0.2999999999999999
 50
90
 51
180
  0
ARC
  8
_0-3_躯体と製品
  6
CONTINUOUS
 62
    4
 10
-136.83566516282031
 20
53.237806539764449
 40
3
 50
90
 51
180
  0
LINE
  8
_0-3_躯体と製品
  6
CONTINUOUS
 62
    4
 10
-115.03566516282035
 20
60.837806539764472
 11
-115.53566516282035
 21
60.837806539764472
  0
ARC
  8
_0-3_躯体と製品
  6
CONTINUOUS
 62
    4
 10
-115.53566516282035
 20
61.137806539764483
 40
0.2999999999999999
 50
180
 51
270
  0
ARC
  8
_0-3_躯体と製品
  6
CONTINUOUS
 62
    4
 10
-113.83566516282031
 20
59.937806539764495
 40
1.5
 50
216.8698980000006
 51
143.13010199999928
  0
LINE
  8
_0-3_躯体と製品
  6
CONTINUOUS
 62
    4
 10
-115.83566516282031
 20
57.937806539764551
 11
-115.83566516282031
 21
58.737806539764449
  0
LINE
  8
_0-3_躯体と製品
  6
CONTINUOUS
 62
    4
 10
-115.03566516282035
 20
59.03780653976446
 11
-115.53566516282035
 21
59.03780653976446
  0
ARC
  8
_0-3_躯体と製品
  6
CONTINUOUS
 62
    4
 10
-115.53566516282035
 20
58.737806539764449
 40
0.2999999999999999
 50
90
 51
180
  0
LINE
  8
_0-3_躯体と製品
  6
CONTINUOUS
 62
    4
 10
-115.83566516282031
 20
62.173874539764597
 11
-115.83566516282031
 21
61.137806539764483
  0
LINE
  8
_0-3_躯体と製品
  6
CONTINUOUS
 62
    4
 10
-110.83566516282031
 20
61.137806539764483
 11
-110.83566516282031
 21
57.937806539764551
  0
LINE
  8
_0-3_躯体と製品
  6
CONTINUOUS
 62
    4
 10
-105.83566516282031
 20
62.937806539764551
 11
-105.83566516282031
 21
61.637806539764483
  0
LINE
  8
_0-3_躯体と製品
  6
CONTINUOUS
 62
    4
 10
-47.835665162820305
 20
62.937806539764551
 11
-47.835665162820305
 21
61.637806539764483
  0
ARC
  8
_0-3_躯体と製品
  6
CONTINUOUS
 62
    4
 10
-106.33566516282031
 20
61.637806539764483
 40
0.5
 50
270
 51
0
  0
ARC
  8
_0-3_躯体と製品
  6
CONTINUOUS
 62
    4
 10
-47.335665162820305
 20
61.637806539764483
 40
0.5
 50
180
 51
270
  0
LINE
  8
_0-3_躯体と製品
  6
CONTINUOUS
 62
    4
 10
80.164334837179695
 20
-22.062193460235505
 11
60.164334837179695
 21
-22.062193460235505
  0
LINE
  8
_0-3_躯体と製品
  6
CONTINUOUS
 62
    4
 10
80.164334837179695
 20
-17.062193460235505
 11
78.86433483717974
 21
-17.062193460235505
  0
LINE
  8
_0-3_躯体と製品
  6
CONTINUOUS
 62
    4
 10
60.164334837179695
 20
-22.062193460235505
 11
60.164334837179695
 21
53.237806539764449
  0
LINE
  8
_0-3_躯体と製品
  6
CONTINUOUS
 62
    4
 10
61.664334837179695
 20
32.53780653976446
 11
61.664334837179695
 21
5.9378065397644946
  0
LINE
  8
_0-3_躯体と製品
  6
PLINE3
 62
    3
 10
-39.835665162820305
 20
78.706382539764604
 11
-39.835665162820305
 21
-37.062193460235505
  0
LINE
  8
_0-3_躯体と製品
  6
CONTINUOUS
 62
    4
 10
61.664334837179695
 20
-0.7702924602356233
 11
61.664334837179695
 21
-19.562193460235505
  0
LINE
  8
_0-3_躯体と製品
  6
CONTINUOUS
 62
    4
 10
78.86433483717974
 20
-20.562193460235449
 11
62.664334837179695
 21
-20.562193460235449
  0
ARC
  8
_0-3_躯体と製品
  6
CONTINUOUS
 62
    4
 10
62.664334837179695
 20
-19.562193460235505
 40
1
 50
180
 51
270
  0
LINE
  8
_0-3_躯体と製品
  6
CONTINUOUS
 62
    4
 10
78.86433483717974
 20
-17.062193460235505
 11
78.86433483717974
 21
-20.562193460235449
  0
LINE
  8
_0-3_躯体と製品
  6
CONTINUOUS
 62
    4
 10
61.664334837179695
 20
5.9378065397644946
 11
63.964334837179649
 21
5.9378065397644946
  0
ARC
  8
_0-3_躯体と製品
  6
CONTINUOUS
 62
    4
 10
64.164334837179695
 20
2.9378065397644946
 40
1.5
 50
36.869898000000617
 51
323.13010199999928
  0
ARC
  8
_0-3_躯体と製品
  6
CONTINUOUS
 62
    4
 10
64.164334837179695
 20
2.9378065397644946
 40
3
 50
247.9756869999988
 51
311.8103149999983
  0
ARC
  8
_0-3_躯体と製品
  6
CONTINUOUS
 62
    4
 10
62.664334837179695
 20
-0.7702924602356233
 40
1
 50
67.975686999998743
 51
180
  0
LINE
  8
_0-3_躯体と製品
  6
CONTINUOUS
 62
    4
 10
65.164334837179695
 20
8.1378065397644832
 11
65.164334837179695
 21
5.829173539764497
  0
LINE
  8
_0-3_躯体と製品
  6
CONTINUOUS
 62
    4
 10
63.964334837179649
 20
8.1378065397644832
 11
63.964334837179649
 21
5.9378065397644946
  0
ARC
  8
_0-3_躯体と製品
  6
CONTINUOUS
 62
    4
 10
64.164334837179695
 20
2.9378065397644946
 40
3
 50
48.189685000001631
 51
74.533990000000784
  0
LINE
  8
_0-3_躯体と製品
  6
CONTINUOUS
 62
    4
 10
66.164334837179695
 20
0.7017385397644488
 11
66.164334837179695
 21
1.7378065397644491
  0
ARC
  8
_0-3_躯体と製品
  6
CONTINUOUS
 62
    4
 10
65.86433483717974
 20
1.7378065397644491
 40
0.2999999999999999
 50
0
 51
90
  0
LINE
  8
_0-3_躯体と製品
  6
CONTINUOUS
 62
    4
 10
65.36433483717974
 20
2.0378065397644605
 11
65.86433483717974
 21
2.0378065397644605
  0
LINE
  8
_0-3_躯体と製品
  6
CONTINUOUS
 62
    4
 10
65.36433483717974
 20
3.8378065397644718
 11
65.86433483717974
 21
3.8378065397644718
  0
ARC
  8
_0-3_躯体と製品
  6
CONTINUOUS
 62
    4
 10
65.86433483717974
 20
4.1378065397644832
 40
0.2999999999999999
 50
270
 51
0
  0
LINE
  8
_0-3_躯体と製品
  6
CONTINUOUS
 62
    4
 10
66.164334837179695
 20
5.1738745397643697
 11
66.164334837179695
 21
4.1378065397644832
  0
ARC
  8
_0-3_躯体と製品
  6
CONTINUOUS
 62
    4
 10
64.564334837179558
 20
8.1378065397644832
 40
0.5999999999999999
 50
0
 51
180
  0
LINE
  8
_0-3_躯体と製品
  6
CONTINUOUS
 62
    4
 10
-39.535665162820351
 20
56.237806539764449
 11
57.164334837179695
 21
56.237806539764449
  0
LINE
  8
_0-3_躯体と製品
  6
CONTINUOUS
 62
    4
 10
-36.835665162820305
 20
57.937806539764551
 11
31.164334837179695
 21
57.937806539764551
  0
LINE
  8
_0-3_躯体と製品
  6
CONTINUOUS
 62
    4
 10
-31.835665162820305
 20
62.937806539764551
 11
-31.835665162820305
 21
61.637806539764483
  0
ARC
  8
_0-3_躯体と製品
  6
CONTINUOUS
 62
    4
 10
-38.63566516282026
 20
62.637806539764483
 40
0.2999999999999999
 50
90
 51
180
  0
ARC
  8
_0-3_躯体と製品
  6
CONTINUOUS
 62
    4
 10
-41.035665162820351
 20
62.637806539764483
 40
0.2999999999999999
 50
0
 51
90
  0
ARC
  8
_0-3_躯体と製品
  6
CONTINUOUS
 62
    4
 10
-39.835665162820305
 20
59.937806539764495
 40
1.5
 50
126.86989800000062
 51
53.130101999999454
  0
LINE
  8
_0-3_躯体と製品
  6
CONTINUOUS
 62
    4
 10
-39.535665162820351
 20
56.237806539764449
 11
-39.835665162820305
 21
56.53780653976446
  0
LINE
  8
_0-3_躯体と製品
  6
CONTINUOUS
 62
    4
 10
-38.935665162820442
 20
61.137806539764483
 11
-38.935665162820442
 21
62.637806539764483
  0
LINE
  8
_0-3_躯体と製品
  6
CONTINUOUS
 62
    4
 10
-40.735665162820396
 20
61.137806539764483
 11
-40.735665162820396
 21
62.637806539764483
  0
LINE
  8
_0-3_躯体と製品
  6
CONTINUOUS
 62
    4
 10
-42.835665162820305
 20
61.137806539764483
 11
-42.835665162820305
 21
57.937806539764551
  0
LINE
  8
_0-3_躯体と製品
  6
CONTINUOUS
 62
    4
 10
-40.13566516282026
 20
56.237806539764449
 11
-39.835665162820305
 21
56.53780653976446
  0
LINE
  8
_0-3_躯体と製品
  6
CONTINUOUS
 62
    4
 10
-36.835665162820305
 20
61.137806539764483
 11
-36.835665162820305
 21
57.937806539764551
  0
LINE
  8
_0-3_躯体と製品
  6
CONTINUOUS
 62
    4
 10
-36.835665162820305
 20
61.137806539764483
 11
-32.335665162820305
 21
61.137806539764483
  0
ARC
  8
_0-3_躯体と製品
  6
CONTINUOUS
 62
    4
 10
-32.335665162820305
 20
61.637806539764483
 40
0.5
 50
270
 51
0
  0
LINE
  8
_0-3_躯体と製品
  6
CONTINUOUS
 62
    4
 10
-31.835665162820305
 20
62.937806539764551
 11
-38.63566516282026
 21
62.937806539764551
  0
ARC
  8
_0-3_躯体と製品
  6
CONTINUOUS
 62
    4
 10
34.164334837179695
 20
59.937806539764495
 40
3
 50
48.189685000001631
 51
90
  0
LINE
  8
_0-3_躯体と製品
  6
CONTINUOUS
 62
    4
 10
26.164334837179695
 20
62.937806539764551
 11
26.164334837179695
 21
61.637806539764483
  0
LINE
  8
_0-3_躯体と製品
  6
CONTINUOUS
 62
    4
 10
36.164334837179695
 20
57.937806539764551
 11
67.464334837179649
 21
57.937806539764551
  0
LINE
  8
_0-3_躯体と製品
  6
CONTINUOUS
 62
    4
 10
31.164334837179695
 20
61.137806539764483
 11
31.164334837179695
 21
57.937806539764551
  0
LINE
  8
_0-3_躯体と製品
  6
CONTINUOUS
 62
    4
 10
31.164334837179695
 20
61.137806539764483
 11
26.664334837179695
 21
61.137806539764483
  0
ARC
  8
_0-3_躯体と製品
  6
CONTINUOUS
 62
    4
 10
26.664334837179695
 20
61.637806539764483
 40
0.5
 50
180
 51
270
  0
LINE
  8
_0-3_躯体と製品
  6
CONTINUOUS
 62
    4
 10
35.36433483717974
 20
60.837806539764472
 11
35.86433483717974
 21
60.837806539764472
  0
ARC
  8
_0-3_躯体と製品
  6
CONTINUOUS
 62
    4
 10
35.86433483717974
 20
61.137806539764483
 40
0.2999999999999999
 50
270
 51
0
  0
ARC
  8
_0-3_躯体と製品
  6
CONTINUOUS
 62
    4
 10
34.164334837179695
 20
59.937806539764495
 40
1.5
 50
36.869898000000617
 51
323.13010199999928
  0
LINE
  8
_0-3_躯体と製品
  6
CONTINUOUS
 62
    4
 10
36.164334837179695
 20
57.937806539764551
 11
36.164334837179695
 21
58.737806539764449
  0
LINE
  8
_0-3_躯体と製品
  6
CONTINUOUS
 62
    4
 10
35.36433483717974
 20
59.03780653976446
 11
35.86433483717974
 21
59.03780653976446
  0
ARC
  8
_0-3_躯体と製品
  6
CONTINUOUS
 62
    4
 10
35.86433483717974
 20
58.737806539764449
 40
0.2999999999999999
 50
0
 51
90
  0
LINE
  8
_0-3_躯体と製品
  6
CONTINUOUS
 62
    4
 10
36.164334837179695
 20
62.173874539764597
 11
36.164334837179695
 21
61.137806539764483
  0
LINE
  8
_0-3_躯体と製品
  6
CONTINUOUS
 62
    4
 10
61.664334837179695
 20
56.437806539764495
 11
61.664334837179695
 21
33.53780653976446
  0
LINE
  8
_0-3_躯体と製品
  6
CONTINUOUS
 62
    4
 10
61.664334837179695
 20
32.53780653976446
 11
63.964334837179649
 21
32.53780653976446
  0
LINE
  8
_0-3_躯体と製品
  6
CONTINUOUS
 62
    4
 10
61.664334837179695
 20
33.53780653976446
 11
64.664334837179695
 21
33.53780653976446
  0
LINE
  8
_0-3_躯体と製品
  6
CONTINUOUS
 62
    4
 10
63.964334837179649
 20
32.53780653976446
 11
63.964334837179649
 21
30.337806539764472
  0
LINE
  8
_0-3_躯体と製品
  6
CONTINUOUS
 62
    4
 10
65.164334837179695
 20
30.337806539764472
 11
65.164334837179695
 21
33.03780653976446
  0
ARC
  8
_0-3_躯体と製品
  6
CONTINUOUS
 62
    4
 10
64.664334837179695
 20
33.03780653976446
 40
0.5
 50
0
 51
90
  0
ARC
  8
_0-3_躯体と製品
  6
CONTINUOUS
 62
    4
 10
64.564334837179558
 20
30.337806539764472
 40
0.5999999999999999
 50
180
 51
0
  0
LINE
  8
_0-3_躯体と製品
  6
CONTINUOUS
 62
    4
 10
61.664334837179695
 20
56.437806539764495
 11
66.164334837179695
 21
56.437806539764495
  0
ARC
  8
_0-3_躯体と製品
  6
CONTINUOUS
 62
    4
 10
57.164334837179695
 20
53.237806539764449
 40
3
 50
0
 51
90
  0
LINE
  8
_0-3_躯体と製品
  6
CONTINUOUS
 62
    4
 10
66.164334837179695
 20
56.437806539764495
 11
66.164334837179695
 21
55.337806539764472
  0
LINE
  8
_0-3_躯体と製品
  6
CONTINUOUS
 62
    4
 10
67.464334837179649
 20
57.937806539764551
 11
67.464334837179649
 21
56.03780653976446
  0
LINE
  8
_0-3_躯体と製品
  6
CONTINUOUS
 62
    4
 10
66.164334837179695
 20
55.337806539764472
 11
66.764334837179604
 21
55.337806539764472
  0
LINE
  8
_0-3_躯体と製品
  6
CONTINUOUS
 62
    4
 10
66.764334837179604
 20
55.337806539764472
 11
67.464334837179649
 21
56.03780653976446
  0
LINE
  8
_0-3_躯体と製品
  6
CONTINUOUS
 62
    4
 10
26.164334837179695
 20
62.937806539764551
 11
34.164334837179695
 21
62.937806539764551
  0
LINE
  8
_0-3_躯体と製品
  6
CONTINUOUS
 62
    4
 10
80.164334837179695
 20
-17.062193460235505
 11
80.164334837179695
 21
-22.062193460235505
  0
LINE
  8
_0-3_躯体と製品
  6
CONTINUOUS
 62
    4
 10
-58.415382162820379
 20
299.58701453976437
 11
-16.715382162820333
 21
299.58701453976437
  0
LINE
  8
_0-3_躯体と製品
  6
CONTINUOUS
 62
    4
 10
-24.715382162820333
 20
301.08701453976448
 11
-53.715382162820333
 21
301.08701453976448
  0
LINE
  8
_0-3_躯体と製品
  6
CONTINUOUS
 62
    4
 10
-103.71538216282033
 20
221.08701453976448
 11
-103.71538216282033
 21
296.58701453976448
  0
LINE
  8
_0-3_躯体と製品
  6
CONTINUOUS
 62
    4
 10
-105.21538216282033
 20
249.79511453976454
 11
-105.21538216282033
 21
300.58701453976448
  0
LINE
  8
_0-3_躯体と製品
  6
PLINE3
 62
    3
 10
-58.715382162820333
 20
206.08701453976448
 11
-58.715382162820333
 21
309.86750253976459
  0
LINE
  8
_0-3_躯体と製品
  6
CONTINUOUS
 62
    4
 10
-123.71538216282033
 20
221.08701453976448
 11
-103.71538216282033
 21
221.08701453976448
  0
LINE
  8
_0-3_躯体と製品
  6
CONTINUOUS
 62
    4
 10
-122.41538216282038
 20
222.58701453976448
 11
-106.21538216282033
 21
222.58701453976448
  0
LINE
  8
_0-3_躯体と製品
  6
CONTINUOUS
 62
    4
 10
-123.71538216282033
 20
226.08701453976448
 11
-123.71538216282033
 21
221.08701453976448
  0
LINE
  8
_0-3_躯体と製品
  6
CONTINUOUS
 62
    4
 10
-122.41538216282038
 20
226.08701453976448
 11
-122.41538216282038
 21
222.58701453976448
  0
LINE
  8
_0-3_躯体と製品
  6
CONTINUOUS
 62
    4
 10
-123.71538216282033
 20
226.08701453976448
 11
-122.41538216282038
 21
226.08701453976448
  0
LINE
  8
_0-3_躯体と製品
  6
CONTINUOUS
 62
    4
 10
-105.21538216282033
 20
242.37891553976442
 11
-105.21538216282033
 21
223.58701453976448
  0
ARC
  8
_0-3_躯体と製品
  6
CONTINUOUS
 62
    4
 10
-106.21538216282033
 20
223.58701453976448
 40
1
 50
270
 51
0
  0
LINE
  8
_0-3_躯体と製品
  6
CONTINUOUS
 62
    4
 10
-109.71538216282033
 20
243.85094653976455
 11
-109.71538216282033
 21
244.88701453976444
  0
ARC
  8
_0-3_躯体と製品
  6
CONTINUOUS
 62
    4
 10
-109.41538216282038
 20
244.88701453976444
 40
0.2999999999999999
 50
90
 51
180
  0
LINE
  8
_0-3_躯体と製品
  6
CONTINUOUS
 62
    4
 10
-108.91538216282038
 20
245.1870145397645
 11
-109.41538216282038
 21
245.1870145397645
  0
LINE
  8
_0-3_躯体と製品
  6
CONTINUOUS
 62
    4
 10
-108.91538216282038
 20
246.98701453976446
 11
-109.41538216282038
 21
246.98701453976446
  0
ARC
  8
_0-3_躯体と製品
  6
CONTINUOUS
 62
    4
 10
-109.41538216282038
 20
247.28701453976453
 40
0.2999999999999999
 50
180
 51
270
  0
LINE
  8
_0-3_躯体と製品
  6
CONTINUOUS
 62
    4
 10
-109.71538216282033
 20
248.32308253976453
 11
-109.71538216282033
 21
247.28701453976453
  0
ARC
  8
_0-3_躯体と製品
  6
CONTINUOUS
 62
    4
 10
-106.21538216282033
 20
242.37891553976442
 40
1
 50
0
 51
112.0243130000012
  0
ARC
  8
_0-3_躯体と製品
  6
CONTINUOUS
 62
    4
 10
-107.71538216282033
 20
246.08701453976448
 40
3
 50
228.18968500000162
 51
292.0243130000012
  0
ARC
  8
_0-3_躯体と製品
  6
CONTINUOUS
 62
    4
 10
-107.71538216282033
 20
246.08701453976448
 40
1.5
 50
216.8698980000006
 51
143.13010199999928
  0
ARC
  8
_0-3_躯体と製品
  6
CONTINUOUS
 62
    4
 10
-106.21538216282033
 20
249.79511453976454
 40
1
 50
247.9756869999988
 51
0
  0
ARC
  8
_0-3_躯体と製品
  6
CONTINUOUS
 62
    4
 10
-107.71538216282033
 20
246.08701453976448
 40
3
 50
67.975686999998743
 51
131.81031499999833
  0
TEXT
  8
_0-4_文字-記号
 62
    7
 10
-182.36922616282038
 20
340.21483953976451
 40
10
 41
0.8
 50
0
  1
ＢＢ－９０
  0
LINE
  8
_0-3_躯体と製品
  6
CONTINUOUS
 62
    4
 10
-100.71538216282033
 20
299.58701453976437
 11
-59.015382162820288
 21
299.58701453976437
  0
LINE
  8
_0-3_躯体と製品
  6
CONTINUOUS
 62
    4
 10
-63.715382162820333
 20
301.08701453976448
 11
-92.715382162820333
 21
301.08701453976448
  0
LINE
  8
_0-3_躯体と製品
  6
CONTINUOUS
 62
    4
 10
-95.715382162820333
 20
306.08701453976448
 11
-87.715382162820333
 21
306.08701453976448
  0
ARC
  8
_0-3_躯体と製品
  6
CONTINUOUS
 62
    4
 10
-100.71538216282033
 20
296.58701453976448
 40
3
 50
90
 51
180
  0
LINE
  8
_0-3_躯体と製品
  6
CONTINUOUS
 62
    4
 10
-97.715382162820333
 20
301.08701453976448
 11
-104.71538216282033
 21
301.08701453976448
  0
ARC
  8
_0-3_躯体と製品
  6
CONTINUOUS
 62
    4
 10
-104.71538216282033
 20
300.58701453976448
 40
0.5
 50
90
 51
180
  0
LINE
  8
_0-3_躯体と製品
  6
CONTINUOUS
 62
    4
 10
-96.915382162820379
 20
302.1870145397645
 11
-97.415382162820379
 21
302.1870145397645
  0
ARC
  8
_0-3_躯体と製品
  6
CONTINUOUS
 62
    4
 10
-97.415382162820379
 20
301.88701453976432
 40
0.2999999999999999
 50
90
 51
180
  0
LINE
  8
_0-3_躯体と製品
  6
CONTINUOUS
 62
    4
 10
-97.715382162820333
 20
301.08701453976448
 11
-97.715382162820333
 21
301.88701453976432
  0
LINE
  8
_0-3_躯体と製品
  6
CONTINUOUS
 62
    4
 10
-96.915382162820379
 20
303.98701453976446
 11
-97.415382162820379
 21
303.98701453976446
  0
ARC
  8
_0-3_躯体と製品
  6
CONTINUOUS
 62
    4
 10
-97.415382162820379
 20
304.28701453976453
 40
0.2999999999999999
 50
180
 51
270
  0
LINE
  8
_0-3_躯体と製品
  6
CONTINUOUS
 62
    4
 10
-97.715382162820333
 20
305.32308253976453
 11
-97.715382162820333
 21
304.28701453976453
  0
ARC
  8
_0-3_躯体と製品
  6
CONTINUOUS
 62
    4
 10
-95.715382162820333
 20
303.08701453976437
 40
1.5
 50
216.8698980000006
 51
143.13010199999928
  0
ARC
  8
_0-3_躯体と製品
  6
CONTINUOUS
 62
    4
 10
-95.715382162820333
 20
303.08701453976437
 40
3
 50
90
 51
131.81031499999833
  0
LINE
  8
_0-3_躯体と製品
  6
CONTINUOUS
 62
    4
 10
-92.715382162820333
 20
304.28701453976453
 11
-92.715382162820333
 21
301.08701453976448
  0
LINE
  8
_0-3_躯体と製品
  6
CONTINUOUS
 62
    4
 10
-92.715382162820333
 20
304.28701453976453
 11
-88.215382162820333
 21
304.28701453976453
  0
LINE
  8
_0-3_躯体と製品
  6
CONTINUOUS
 62
    4
 10
-87.715382162820333
 20
306.08701453976448
 11
-87.715382162820333
 21
304.78701453976453
  0
ARC
  8
_0-3_躯体と製品
  6
CONTINUOUS
 62
    4
 10
-88.215382162820333
 20
304.78701453976453
 40
0.5
 50
270
 51
0
  0
LINE
  8
_0-3_躯体と製品
  6
CONTINUOUS
 62
    4
 10
-63.215382162820333
 20
301.58701453976448
 11
-54.215382162820333
 21
301.58701453976448
  0
LINE
  8
_0-3_躯体と製品
  6
CONTINUOUS
 62
    4
 10
-63.215382162820333
 20
301.58701453976448
 11
-63.715382162820333
 21
301.08701453976448
  0
LINE
  8
_0-3_躯体と製品
  6
CONTINUOUS
 62
    4
 10
-58.415382162820379
 20
299.58701453976437
 11
-58.715382162820333
 21
299.88701453976432
  0
LINE
  8
_0-3_躯体と製品
  6
CONTINUOUS
 62
    4
 10
-59.015382162820288
 20
299.58701453976437
 11
-58.715382162820333
 21
299.88701453976432
  0
LINE
  8
_0-3_躯体と製品
  6
CONTINUOUS
 62
    4
 10
-54.215382162820333
 20
301.58701453976448
 11
-53.715382162820333
 21
301.08701453976448
  0
LINE
  8
_0-3_躯体と製品
  6
CONTINUOUS
 62
    4
 10
138.53991483717959
 20
221.08701453976448
 11
138.53991483717959
 21
296.58701453976448
  0
LINE
  8
_0-3_躯体と製品
  6
CONTINUOUS
 62
    4
 10
137.03991483717959
 20
249.79511453976454
 11
137.03991483717959
 21
300.08701453976448
  0
LINE
  8
_0-3_躯体と製品
  6
PLINE3
 62
    3
 10
198.53991483717959
 20
206.08701453976448
 11
198.53991483717959
 21
309.86750253976459
  0
LINE
  8
_0-3_躯体と製品
  6
CONTINUOUS
 62
    4
 10
-13.715382162820333
 20
221.08701453976448
 11
-13.715382162820333
 21
296.58701453976448
  0
LINE
  8
_0-3_躯体と製品
  6
CONTINUOUS
 62
    4
 10
-12.215382162820333
 20
299.58701453976437
 11
-12.215382162820333
 21
276.6870145397645
  0
LINE
  8
_0-3_躯体と製品
  6
CONTINUOUS
 62
    4
 10
-12.215382162820333
 20
242.37891553976442
 11
-12.215382162820333
 21
223.58701453976448
  0
LINE
  8
_0-3_躯体と製品
  6
CONTINUOUS
 62
    4
 10
6.2846178371796668
 20
221.08701453976448
 11
-13.715382162820333
 21
221.08701453976448
  0
LINE
  8
_0-3_躯体と製品
  6
CONTINUOUS
 62
    4
 10
4.9846178371797123
 20
222.58701453976448
 11
-11.215382162820333
 21
222.58701453976448
  0
ARC
  8
_0-3_躯体と製品
  6
CONTINUOUS
 62
    4
 10
-11.215382162820333
 20
223.58701453976448
 40
1
 50
180
 51
270
  0
LINE
  8
_0-3_躯体と製品
  6
CONTINUOUS
 62
    4
 10
6.2846178371796668
 20
226.08701453976448
 11
6.2846178371796668
 21
221.08701453976448
  0
LINE
  8
_0-3_躯体と製品
  6
CONTINUOUS
 62
    4
 10
4.9846178371797123
 20
226.08701453976448
 11
4.9846178371797123
 21
222.58701453976448
  0
LINE
  8
_0-3_躯体と製品
  6
CONTINUOUS
 62
    4
 10
6.2846178371796668
 20
226.08701453976448
 11
4.9846178371797123
 21
226.08701453976448
  0
LINE
  8
_0-3_躯体と製品
  6
CONTINUOUS
 62
    4
 10
-12.215382162820333
 20
275.6870145397645
 11
-12.215382162820333
 21
249.08701453976437
  0
ARC
  8
_0-3_躯体と製品
  6
CONTINUOUS
 62
    4
 10
-9.3153821628202422
 20
251.28701453976453
 40
0.5999999999999999
 50
0
 51
180
  0
LINE
  8
_0-3_躯体と製品
  6
CONTINUOUS
 62
    4
 10
-9.9153821628203787
 20
249.08701453976437
 11
-12.215382162820333
 21
249.08701453976437
  0
LINE
  8
_0-3_躯体と製品
  6
CONTINUOUS
 62
    4
 10
-9.9153821628203787
 20
251.28701453976453
 11
-9.9153821628203787
 21
249.08701453976437
  0
LINE
  8
_0-3_躯体と製品
  6
CONTINUOUS
 62
    4
 10
-8.7153821628203332
 20
251.28701453976453
 11
-8.7153821628203332
 21
248.91544253976451
  0
ARC
  8
_0-3_躯体と製品
  6
CONTINUOUS
 62
    4
 10
-9.7153821628203332
 20
246.08701453976448
 40
3
 50
48.189685000001631
 51
70.528778999998195
  0
LINE
  8
_0-3_躯体と製品
  6
CONTINUOUS
 62
    4
 10
-7.7153821628203332
 20
243.85094653976455
 11
-7.7153821628203332
 21
244.88701453976444
  0
ARC
  8
_0-3_躯体と製品
  6
CONTINUOUS
 62
    4
 10
-8.0153821628202877
 20
244.88701453976444
 40
0.2999999999999999
 50
0
 51
90
  0
LINE
  8
_0-3_躯体と製品
  6
CONTINUOUS
 62
    4
 10
-8.5153821628202877
 20
245.1870145397645
 11
-8.0153821628202877
 21
245.1870145397645
  0
LINE
  8
_0-3_躯体と製品
  6
CONTINUOUS
 62
    4
 10
-8.5153821628202877
 20
246.98701453976446
 11
-8.0153821628202877
 21
246.98701453976446
  0
LINE
  8
_0-3_躯体と製品
  6
CONTINUOUS
 62
    4
 10
-7.7153821628203332
 20
248.32308253976453
 11
-7.7153821628203332
 21
247.28701453976453
  0
ARC
  8
_0-3_躯体と製品
  6
CONTINUOUS
 62
    4
 10
-8.0153821628202877
 20
247.28701453976453
 40
0.2999999999999999
 50
270
 51
0
  0
ARC
  8
_0-3_躯体と製品
  6
CONTINUOUS
 62
    4
 10
-11.215382162820333
 20
242.37891553976442
 40
1
 50
67.975686999998743
 51
180
  0
ARC
  8
_0-3_躯体と製品
  6
CONTINUOUS
 62
    4
 10
-9.7153821628203332
 20
246.08701453976448
 40
3
 50
247.9756869999988
 51
311.8103149999983
  0
ARC
  8
_0-3_躯体と製品
  6
CONTINUOUS
 62
    4
 10
-9.7153821628203332
 20
246.08701453976448
 40
1.5
 50
36.869898000000617
 51
323.13010199999928
  0
LINE
  8
_0-3_躯体と製品
  6
CONTINUOUS
 62
    4
 10
-9.9153821628203787
 20
275.6870145397645
 11
-9.9153821628203787
 21
273.48701453976435
  0
LINE
  8
_0-3_躯体と製品
  6
CONTINUOUS
 62
    4
 10
-8.7153821628203332
 20
273.48701453976435
 11
-8.7153821628203332
 21
276.1870145397645
  0
ARC
  8
_0-3_躯体と製品
  6
CONTINUOUS
 62
    4
 10
-9.3153821628202422
 20
273.48701453976435
 40
0.5999999999999999
 50
180
 51
0
  0
LINE
  8
_0-3_躯体と製品
  6
CONTINUOUS
 62
    4
 10
-12.215382162820333
 20
275.6870145397645
 11
-9.9153821628203787
 21
275.6870145397645
  0
ARC
  8
_0-3_躯体と製品
  6
CONTINUOUS
 62
    4
 10
-9.2153821628203332
 20
276.1870145397645
 40
0.5
 50
0
 51
90
  0
LINE
  8
_0-3_躯体と製品
  6
CONTINUOUS
 62
    4
 10
-12.215382162820333
 20
276.6870145397645
 11
-9.2153821628203332
 21
276.6870145397645
  0
LINE
  8
_0-3_躯体と製品
  6
CONTINUOUS
 62
    4
 10
137.03991483717959
 20
242.37891553976442
 11
137.03991483717959
 21
223.58701453976448
  0
LINE
  8
_0-3_躯体と製品
  6
CONTINUOUS
 62
    4
 10
118.53991483717959
 20
221.08701453976448
 11
138.53991483717959
 21
221.08701453976448
  0
LINE
  8
_0-3_躯体と製品
  6
CONTINUOUS
 62
    4
 10
119.83991483717978
 20
222.58701453976448
 11
136.03991483717959
 21
222.58701453976448
  0
LINE
  8
_0-3_躯体と製品
  6
CONTINUOUS
 62
    4
 10
118.53991483717959
 20
226.08701453976448
 11
119.83991483717978
 21
226.08701453976448
  0
LINE
  8
_0-3_躯体と製品
  6
CONTINUOUS
 62
    4
 10
118.53991483717959
 20
226.08701453976448
 11
118.53991483717959
 21
221.08701453976448
  0
LINE
  8
_0-3_躯体と製品
  6
CONTINUOUS
 62
    4
 10
119.83991483717978
 20
226.08701453976448
 11
119.83991483717978
 21
222.58701453976448
  0
ARC
  8
_0-3_躯体と製品
  6
CONTINUOUS
 62
    4
 10
136.03991483717959
 20
223.58701453976448
 40
1
 50
270
 51
0
  0
ARC
  8
_0-3_躯体と製品
  6
CONTINUOUS
 62
    4
 10
134.53991483717959
 20
246.08701453976448
 40
3
 50
228.18968500000162
 51
292.0243130000012
  0
ARC
  8
_0-3_躯体と製品
  6
CONTINUOUS
 62
    4
 10
134.53991483717959
 20
246.08701453976448
 40
1.5
 50
216.8698980000006
 51
143.13010199999928
  0
ARC
  8
_0-3_躯体と製品
  6
CONTINUOUS
 62
    4
 10
134.53991483717959
 20
246.08701453976448
 40
3
 50
67.975686999998743
 51
131.81031499999833
  0
LINE
  8
_0-3_躯体と製品
  6
CONTINUOUS
 62
    4
 10
132.53991483717959
 20
243.85094653976455
 11
132.53991483717959
 21
244.88701453976444
  0
ARC
  8
_0-3_躯体と製品
  6
CONTINUOUS
 62
    4
 10
132.83991483717978
 20
244.88701453976444
 40
0.2999999999999999
 50
90
 51
180
  0
LINE
  8
_0-3_躯体と製品
  6
CONTINUOUS
 62
    4
 10
133.33991483717978
 20
245.1870145397645
 11
132.83991483717978
 21
245.1870145397645
  0
LINE
  8
_0-3_躯体と製品
  6
CONTINUOUS
 62
    4
 10
133.33991483717978
 20
246.98701453976446
 11
132.83991483717978
 21
246.98701453976446
  0
ARC
  8
_0-3_躯体と製品
  6
CONTINUOUS
 62
    4
 10
132.83991483717978
 20
247.28701453976453
 40
0.2999999999999999
 50
180
 51
270
  0
LINE
  8
_0-3_躯体と製品
  6
CONTINUOUS
 62
    4
 10
132.53991483717959
 20
248.32308253976453
 11
132.53991483717959
 21
247.28701453976453
  0
ARC
  8
_0-3_躯体と製品
  6
CONTINUOUS
 62
    4
 10
136.03991483717959
 20
242.37891553976442
 40
1
 50
0
 51
112.0243130000012
  0
ARC
  8
_0-3_躯体と製品
  6
CONTINUOUS
 62
    4
 10
136.03991483717959
 20
249.79511453976454
 40
1
 50
247.9756869999988
 51
0
  0
TEXT
  8
_0-4_文字-記号
 62
    7
 10
56.720918837179624
 20
336.23607953976443
 40
10
 41
0.8
 50
0
  1
ＢＢ－１２０
  0
ARC
  8
_0-3_躯体と製品
  6
CONTINUOUS
 62
    4
 10
-16.715382162820333
 20
296.58701453976448
 40
3
 50
0
 51
90
  0
LINE
  8
_0-3_躯体と製品
  6
CONTINUOUS
 62
    4
 10
-6.4153821628203787
 20
301.08701453976448
 11
-19.715382162820333
 21
301.08701453976448
  0
ARC
  8
_0-3_躯体と製品
  6
CONTINUOUS
 62
    4
 10
-21.715382162820333
 20
303.08701453976437
 40
1.5
 50
36.869898000000617
 51
323.13010199999928
  0
LINE
  8
_0-3_躯体と製品
  6
CONTINUOUS
 62
    4
 10
-21.715382162820333
 20
306.08701453976448
 11
-29.715382162820333
 21
306.08701453976448
  0
LINE
  8
_0-3_躯体と製品
  6
CONTINUOUS
 62
    4
 10
-24.715382162820333
 20
304.28701453976453
 11
-24.715382162820333
 21
301.08701453976448
  0
LINE
  8
_0-3_躯体と製品
  6
CONTINUOUS
 62
    4
 10
-24.715382162820333
 20
304.28701453976453
 11
-29.215382162820333
 21
304.28701453976453
  0
LINE
  8
_0-3_躯体と製品
  6
CONTINUOUS
 62
    4
 10
-29.715382162820333
 20
306.08701453976448
 11
-29.715382162820333
 21
304.78701453976453
  0
ARC
  8
_0-3_躯体と製品
  6
CONTINUOUS
 62
    4
 10
-29.215382162820333
 20
304.78701453976453
 40
0.5
 50
180
 51
270
  0
LINE
  8
_0-3_躯体と製品
  6
CONTINUOUS
 62
    4
 10
-20.515382162820288
 20
302.1870145397645
 11
-20.015382162820288
 21
302.1870145397645
  0
ARC
  8
_0-3_躯体と製品
  6
CONTINUOUS
 62
    4
 10
-20.015382162820288
 20
301.88701453976432
 40
0.2999999999999999
 50
0
 51
90
  0
LINE
  8
_0-3_躯体と製品
  6
CONTINUOUS
 62
    4
 10
-19.715382162820333
 20
301.08701453976448
 11
-19.715382162820333
 21
301.88701453976432
  0
LINE
  8
_0-3_躯体と製品
  6
CONTINUOUS
 62
    4
 10
-20.515382162820288
 20
303.98701453976446
 11
-20.015382162820288
 21
303.98701453976446
  0
ARC
  8
_0-3_躯体と製品
  6
CONTINUOUS
 62
    4
 10
-20.015382162820288
 20
304.28701453976453
 40
0.2999999999999999
 50
270
 51
0
  0
LINE
  8
_0-3_躯体と製品
  6
CONTINUOUS
 62
    4
 10
-19.715382162820333
 20
305.32308253976453
 11
-19.715382162820333
 21
304.28701453976453
  0
ARC
  8
_0-3_躯体と製品
  6
CONTINUOUS
 62
    4
 10
-21.715382162820333
 20
303.08701453976437
 40
3
 50
48.189685000001631
 51
90
  0
LINE
  8
_0-3_躯体と製品
  6
CONTINUOUS
 62
    4
 10
-7.7153821628203332
 20
298.48701453976435
 11
-7.1153821628204241
 21
298.48701453976435
  0
LINE
  8
_0-3_躯体と製品
  6
CONTINUOUS
 62
    4
 10
-7.7153821628203332
 20
299.58701453976437
 11
-7.7153821628203332
 21
298.48701453976435
  0
LINE
  8
_0-3_躯体と製品
  6
CONTINUOUS
 62
    4
 10
-12.215382162820333
 20
299.58701453976437
 11
-7.7153821628203332
 21
299.58701453976437
  0
LINE
  8
_0-3_躯体と製品
  6
CONTINUOUS
 62
    4
 10
-6.4153821628203787
 20
301.08701453976448
 11
-6.4153821628203787
 21
299.1870145397645
  0
LINE
  8
_0-3_躯体と製品
  6
CONTINUOUS
 62
    4
 10
-6.4153821628203787
 20
299.1870145397645
 11
-7.1153821628204241
 21
298.48701453976435
  0
LINE
  8
_0-3_躯体と製品
  6
CONTINUOUS
 62
    4
 10
141.53991483717959
 20
299.58701453976437
 11
198.23991483717964
 21
299.58701453976437
  0
LINE
  8
_0-3_躯体と製品
  6
CONTINUOUS
 62
    4
 10
159.53991483717959
 20
301.08701453976448
 11
138.03991483717959
 21
301.08701453976448
  0
ARC
  8
_0-3_躯体と製品
  6
CONTINUOUS
 62
    4
 10
141.53991483717959
 20
296.58701453976448
 40
3
 50
90
 51
180
  0
ARC
  8
_0-3_躯体と製品
  6
CONTINUOUS
 62
    4
 10
138.03991483717959
 20
300.08701453976448
 40
1
 50
90
 51
180
  0
LINE
  8
_0-3_躯体と製品
  6
CONTINUOUS
 62
    4
 10
193.53991483717959
 20
301.08701453976448
 11
164.53991483717959
 21
301.08701453976448
  0
LINE
  8
_0-3_躯体と製品
  6
CONTINUOUS
 62
    4
 10
164.53991483717959
 20
304.28701453976453
 11
169.03991483717959
 21
304.28701453976453
  0
LINE
  8
_0-3_躯体と製品
  6
CONTINUOUS
 62
    4
 10
161.53991483717959
 20
306.08701453976448
 11
169.53991483717959
 21
306.08701453976448
  0
LINE
  8
_0-3_躯体と製品
  6
CONTINUOUS
 62
    4
 10
160.33991483717978
 20
302.1870145397645
 11
159.83991483717978
 21
302.1870145397645
  0
ARC
  8
_0-3_躯体と製品
  6
CONTINUOUS
 62
    4
 10
159.83991483717978
 20
301.88701453976432
 40
0.2999999999999999
 50
90
 51
180
  0
LINE
  8
_0-3_躯体と製品
  6
CONTINUOUS
 62
    4
 10
159.53991483717959
 20
301.08701453976448
 11
159.53991483717959
 21
301.88701453976432
  0
LINE
  8
_0-3_躯体と製品
  6
CONTINUOUS
 62
    4
 10
160.33991483717978
 20
303.98701453976446
 11
159.83991483717978
 21
303.98701453976446
  0
ARC
  8
_0-3_躯体と製品
  6
CONTINUOUS
 62
    4
 10
159.83991483717978
 20
304.28701453976453
 40
0.2999999999999999
 50
180
 51
270
  0
LINE
  8
_0-3_躯体と製品
  6
CONTINUOUS
 62
    4
 10
159.53991483717959
 20
305.32308253976453
 11
159.53991483717959
 21
304.28701453976453
  0
ARC
  8
_0-3_躯体と製品
  6
CONTINUOUS
 62
    4
 10
161.53991483717959
 20
303.08701453976437
 40
1.5
 50
216.8698980000006
 51
143.13010199999928
  0
ARC
  8
_0-3_躯体と製品
  6
CONTINUOUS
 62
    4
 10
161.53991483717959
 20
303.08701453976437
 40
3
 50
90
 51
131.81031499999833
  0
LINE
  8
_0-3_躯体と製品
  6
CONTINUOUS
 62
    4
 10
164.53991483717959
 20
304.28701453976453
 11
164.53991483717959
 21
301.08701453976448
  0
LINE
  8
_0-3_躯体と製品
  6
CONTINUOUS
 62
    4
 10
169.53991483717959
 20
306.08701453976448
 11
169.53991483717959
 21
304.78701453976453
  0
ARC
  8
_0-3_躯体と製品
  6
CONTINUOUS
 62
    4
 10
169.03991483717959
 20
304.78701453976453
 40
0.5
 50
270
 51
0
  0
LINE
  8
_0-3_躯体と製品
  6
CONTINUOUS
 62
    4
 10
193.93991483717969
 20
301.48701453976435
 11
203.13991483717973
 21
301.48701453976435
  0
LINE
  8
_0-3_躯体と製品
  6
CONTINUOUS
 62
    4
 10
193.53991483717959
 20
301.08701453976448
 11
193.93991483717969
 21
301.48701453976435
  0
LINE
  8
_0-3_躯体と製品
  6
CONTINUOUS
 62
    4
 10
198.83991483717978
 20
299.58701453976437
 11
198.53991483717959
 21
299.88701453976432
  0
LINE
  8
_0-3_躯体と製品
  6
CONTINUOUS
 62
    4
 10
198.23991483717964
 20
299.58701453976437
 11
198.53991483717959
 21
299.88701453976432
  0
LINE
  8
_0-3_躯体と製品
  6
CONTINUOUS
 62
    4
 10
203.53991483717959
 20
301.08701453976448
 11
203.13991483717973
 21
301.48701453976435
  0
LINE
  8
_0-3_躯体と製品
  6
CONTINUOUS
 62
    4
 10
372.70218983717973
 20
55.858369539764453
 11
316.00218983717969
 21
55.858369539764453
  0
LINE
  8
_0-3_躯体と製品
  6
CONTINUOUS
 62
    4
 10
349.70218983717973
 20
57.358369539764453
 11
320.70218983717973
 21
57.358369539764453
  0
LINE
  8
_0-3_躯体と製品
  6
PLINE3
 62
    3
 10
315.70218983717973
 20
-36.990871460235553
 11
315.70218983717973
 21
66.138857539764558
  0
LINE
  8
_0-3_躯体と製品
  6
CONTINUOUS
 62
    4
 10
315.40218983717978
 20
55.858369539764453
 11
255.70218983717973
 21
55.858369539764453
  0
LINE
  8
_0-3_躯体と製品
  6
CONTINUOUS
 62
    4
 10
255.70218983717973
 20
57.358369539764453
 11
276.70218983717973
 21
57.358369539764453
  0
LINE
  8
_0-3_躯体と製品
  6
CONTINUOUS
 62
    4
 10
255.70218983717973
 20
57.358369539764453
 11
255.70218983717973
 21
55.858369539764453
  0
LINE
  8
_0-3_躯体と製品
  6
CONTINUOUS
 62
    4
 10
310.70218983717973
 20
57.358369539764453
 11
281.70218983717973
 21
57.358369539764453
  0
LINE
  8
_0-3_躯体と製品
  6
CONTINUOUS
 62
    4
 10
281.70218983717973
 20
60.558369539764499
 11
286.20218983717973
 21
60.558369539764499
  0
LINE
  8
_0-3_躯体と製品
  6
CONTINUOUS
 62
    4
 10
278.70218983717973
 20
62.358369539764453
 11
286.70218983717973
 21
62.358369539764453
  0
ARC
  8
_0-3_躯体と製品
  6
CONTINUOUS
 62
    4
 10
277.00218983717969
 20
58.158369539764465
 40
0.2999999999999999
 50
90
 51
180
  0
ARC
  8
_0-3_躯体と製品
  6
CONTINUOUS
 62
    4
 10
277.00218983717969
 20
60.558369539764499
 40
0.2999999999999999
 50
180
 51
270
  0
ARC
  8
_0-3_躯体と製品
  6
CONTINUOUS
 62
    4
 10
278.70218983717973
 20
59.358369539764453
 40
3
 50
90
 51
131.81031499999833
  0
LINE
  8
_0-3_躯体と製品
  6
CONTINUOUS
 62
    4
 10
277.50218983717969
 20
58.458369539764476
 11
277.00218983717969
 21
58.458369539764476
  0
LINE
  8
_0-3_躯体と製品
  6
CONTINUOUS
 62
    4
 10
276.70218983717973
 20
57.358369539764453
 11
276.70218983717973
 21
58.158369539764465
  0
LINE
  8
_0-3_躯体と製品
  6
CONTINUOUS
 62
    4
 10
277.50218983717969
 20
60.258369539764487
 11
277.00218983717969
 21
60.258369539764487
  0
LINE
  8
_0-3_躯体と製品
  6
CONTINUOUS
 62
    4
 10
276.70218983717973
 20
61.594437539764385
 11
276.70218983717973
 21
60.558369539764499
  0
ARC
  8
_0-3_躯体と製品
  6
CONTINUOUS
 62
    4
 10
278.70218983717973
 20
59.358369539764453
 40
1.5
 50
216.8698980000006
 51
143.13010199999928
  0
LINE
  8
_0-3_躯体と製品
  6
CONTINUOUS
 62
    4
 10
281.70218983717973
 20
60.558369539764499
 11
281.70218983717973
 21
57.358369539764453
  0
LINE
  8
_0-3_躯体と製品
  6
CONTINUOUS
 62
    4
 10
286.70218983717973
 20
62.358369539764453
 11
286.70218983717973
 21
61.058369539764499
  0
ARC
  8
_0-3_躯体と製品
  6
CONTINUOUS
 62
    4
 10
286.20218983717973
 20
61.058369539764499
 40
0.5
 50
270
 51
0
  0
LINE
  8
_0-3_躯体と製品
  6
CONTINUOUS
 62
    4
 10
311.10218983717959
 20
57.758369539764487
 11
320.30218983717964
 21
57.758369539764487
  0
LINE
  8
_0-3_躯体と製品
  6
CONTINUOUS
 62
    4
 10
316.00218983717969
 20
55.858369539764453
 11
315.70218983717973
 21
56.158369539764465
  0
LINE
  8
_0-3_躯体と製品
  6
CONTINUOUS
 62
    4
 10
315.40218983717978
 20
55.858369539764453
 11
315.70218983717973
 21
56.158369539764465
  0
LINE
  8
_0-3_躯体と製品
  6
CONTINUOUS
 62
    4
 10
310.70218983717973
 20
57.358369539764453
 11
311.10218983717959
 21
57.758369539764487
  0
LINE
  8
_0-3_躯体と製品
  6
CONTINUOUS
 62
    4
 10
320.70218983717973
 20
57.358369539764453
 11
320.30218983717964
 21
57.758369539764487
  0
LINE
  8
_0-3_躯体と製品
  6
CONTINUOUS
 62
    4
 10
375.70218983717973
 20
-22.641630460235433
 11
375.70218983717973
 21
52.858369539764453
  0
LINE
  8
_0-3_躯体と製品
  6
CONTINUOUS
 62
    4
 10
377.20218983717973
 20
31.958369539764476
 11
377.20218983717973
 21
5.358369539764567
  0
LINE
  8
_0-3_躯体と製品
  6
CONTINUOUS
 62
    4
 10
395.70218983717973
 20
-22.641630460235433
 11
375.70218983717973
 21
-22.641630460235433
  0
LINE
  8
_0-3_躯体と製品
  6
CONTINUOUS
 62
    4
 10
395.70218983717973
 20
-17.641630460235433
 11
394.40218983717978
 21
-17.641630460235433
  0
LINE
  8
_0-3_躯体と製品
  6
CONTINUOUS
 62
    4
 10
377.20218983717973
 20
-1.349729460235551
 11
377.20218983717973
 21
-20.141630460235547
  0
LINE
  8
_0-3_躯体と製品
  6
CONTINUOUS
 62
    4
 10
394.40218983717978
 20
-21.141630460235547
 11
378.20218983717973
 21
-21.141630460235547
  0
ARC
  8
_0-3_躯体と製品
  6
CONTINUOUS
 62
    4
 10
378.20218983717973
 20
-20.141630460235547
 40
1
 50
180
 51
270
  0
LINE
  8
_0-3_躯体と製品
  6
CONTINUOUS
 62
    4
 10
394.40218983717978
 20
-17.641630460235433
 11
394.40218983717978
 21
-21.141630460235547
  0
LINE
  8
_0-3_躯体と製品
  6
CONTINUOUS
 62
    4
 10
379.50218983717969
 20
5.358369539764567
 11
377.20218983717973
 21
5.358369539764567
  0
ARC
  8
_0-3_躯体と製品
  6
CONTINUOUS
 62
    4
 10
379.70218983717973
 20
2.358369539764567
 40
3
 50
247.9756869999988
 51
311.8103149999983
  0
ARC
  8
_0-3_躯体と製品
  6
CONTINUOUS
 62
    4
 10
379.70218983717973
 20
2.358369539764567
 40
1.5
 50
36.869898000000617
 51
323.13010199999928
  0
ARC
  8
_0-3_躯体と製品
  6
CONTINUOUS
 62
    4
 10
378.20218983717973
 20
-1.349729460235551
 40
1
 50
67.975686999998743
 51
180
  0
LINE
  8
_0-3_躯体と製品
  6
CONTINUOUS
 62
    4
 10
379.50218983717969
 20
7.5583695397643851
 11
379.50218983717969
 21
5.358369539764567
  0
LINE
  8
_0-3_躯体と製品
  6
CONTINUOUS
 62
    4
 10
380.70218983717973
 20
7.5583695397643851
 11
380.70218983717973
 21
5.1867965397644866
  0
ARC
  8
_0-3_躯体と製品
  6
CONTINUOUS
 62
    4
 10
379.70218983717973
 20
2.358369539764567
 40
3
 50
48.189685000001631
 51
70.528778999998195
  0
LINE
  8
_0-3_躯体と製品
  6
CONTINUOUS
 62
    4
 10
381.70218983717973
 20
0.1223015397644644
 11
381.70218983717973
 21
1.1583695397644647
  0
ARC
  8
_0-3_躯体と製品
  6
CONTINUOUS
 62
    4
 10
381.40218983717978
 20
1.1583695397644647
 40
0.2999999999999999
 50
0
 51
90
  0
LINE
  8
_0-3_躯体と製品
  6
CONTINUOUS
 62
    4
 10
380.90218983717978
 20
1.458369539764476
 11
381.40218983717978
 21
1.458369539764476
  0
LINE
  8
_0-3_躯体と製品
  6
CONTINUOUS
 62
    4
 10
380.90218983717978
 20
3.2583695397644874
 11
381.40218983717978
 21
3.2583695397644874
  0
LINE
  8
_0-3_躯体と製品
  6
CONTINUOUS
 62
    4
 10
381.70218983717973
 20
4.594437539764499
 11
381.70218983717973
 21
3.5583695397644988
  0
ARC
  8
_0-3_躯体と製品
  6
CONTINUOUS
 62
    4
 10
381.40218983717978
 20
3.5583695397644988
 40
0.2999999999999999
 50
270
 51
0
  0
ARC
  8
_0-3_躯体と製品
  6
CONTINUOUS
 62
    4
 10
380.10218983717959
 20
7.5583695397643851
 40
0.5999999999999999
 50
0
 51
180
  0
LINE
  8
_0-3_躯体と製品
  6
CONTINUOUS
 62
    4
 10
395.70218983717973
 20
-17.641630460235433
 11
395.70218983717973
 21
-22.641630460235433
  0
LINE
  8
_0-3_躯体と製品
  6
CONTINUOUS
 62
    4
 10
383.00218983717969
 20
57.358369539764453
 11
354.70218983717973
 21
57.358369539764453
  0
LINE
  8
_0-3_躯体と製品
  6
CONTINUOUS
 62
    4
 10
349.70218983717973
 20
60.558369539764499
 11
345.20218983717973
 21
60.558369539764499
  0
LINE
  8
_0-3_躯体と製品
  6
CONTINUOUS
 62
    4
 10
352.70218983717973
 20
62.358369539764453
 11
344.70218983717973
 21
62.358369539764453
  0
LINE
  8
_0-3_躯体と製品
  6
CONTINUOUS
 62
    4
 10
344.70218983717973
 20
62.358369539764453
 11
344.70218983717973
 21
61.058369539764499
  0
ARC
  8
_0-3_躯体と製品
  6
CONTINUOUS
 62
    4
 10
345.20218983717973
 20
61.058369539764499
 40
0.5
 50
180
 51
270
  0
LINE
  8
_0-3_躯体と製品
  6
CONTINUOUS
 62
    4
 10
353.90218983717978
 20
58.458369539764476
 11
354.40218983717978
 21
58.458369539764476
  0
ARC
  8
_0-3_躯体と製品
  6
CONTINUOUS
 62
    4
 10
354.40218983717978
 20
58.158369539764465
 40
0.2999999999999999
 50
0
 51
90
  0
LINE
  8
_0-3_躯体と製品
  6
CONTINUOUS
 62
    4
 10
354.70218983717973
 20
57.358369539764453
 11
354.70218983717973
 21
58.158369539764465
  0
LINE
  8
_0-3_躯体と製品
  6
CONTINUOUS
 62
    4
 10
353.90218983717978
 20
60.258369539764487
 11
354.40218983717978
 21
60.258369539764487
  0
ARC
  8
_0-3_躯体と製品
  6
CONTINUOUS
 62
    4
 10
354.40218983717978
 20
60.558369539764499
 40
0.2999999999999999
 50
270
 51
0
  0
LINE
  8
_0-3_躯体と製品
  6
CONTINUOUS
 62
    4
 10
354.70218983717973
 20
61.594437539764385
 11
354.70218983717973
 21
60.558369539764499
  0
ARC
  8
_0-3_躯体と製品
  6
CONTINUOUS
 62
    4
 10
352.70218983717973
 20
59.358369539764453
 40
1.5
 50
36.869898000000617
 51
323.13010199999928
  0
ARC
  8
_0-3_躯体と製品
  6
CONTINUOUS
 62
    4
 10
352.70218983717973
 20
59.358369539764453
 40
3
 50
48.189685000001631
 51
90
  0
LINE
  8
_0-3_躯体と製品
  6
CONTINUOUS
 62
    4
 10
349.70218983717973
 20
60.558369539764499
 11
349.70218983717973
 21
57.358369539764453
  0
LINE
  8
_0-3_躯体と製品
  6
CONTINUOUS
 62
    4
 10
377.20218983717973
 20
55.858369539764453
 11
377.20218983717973
 21
32.958369539764476
  0
LINE
  8
_0-3_躯体と製品
  6
CONTINUOUS
 62
    4
 10
377.20218983717973
 20
31.958369539764476
 11
379.50218983717969
 21
31.958369539764476
  0
LINE
  8
_0-3_躯体と製品
  6
CONTINUOUS
 62
    4
 10
377.20218983717973
 20
32.958369539764476
 11
380.20218983717973
 21
32.958369539764476
  0
ARC
  8
_0-3_躯体と製品
  6
CONTINUOUS
 62
    4
 10
380.10218983717959
 20
29.758369539764601
 40
0.5999999999999999
 50
180
 51
0
  0
LINE
  8
_0-3_躯体と製品
  6
CONTINUOUS
 62
    4
 10
379.50218983717969
 20
31.958369539764476
 11
379.50218983717969
 21
29.758369539764601
  0
LINE
  8
_0-3_躯体と製品
  6
CONTINUOUS
 62
    4
 10
380.70218983717973
 20
29.758369539764601
 11
380.70218983717973
 21
32.458369539764476
  0
ARC
  8
_0-3_躯体と製品
  6
CONTINUOUS
 62
    4
 10
380.20218983717973
 20
32.458369539764476
 40
0.5
 50
0
 51
90
  0
LINE
  8
_0-3_躯体と製品
  6
CONTINUOUS
 62
    4
 10
377.20218983717973
 20
55.858369539764453
 11
381.70218983717973
 21
55.858369539764453
  0
ARC
  8
_0-3_躯体と製品
  6
CONTINUOUS
 62
    4
 10
372.70218983717973
 20
52.858369539764453
 40
3
 50
0
 51
90
  0
LINE
  8
_0-3_躯体と製品
  6
CONTINUOUS
 62
    4
 10
383.00218983717969
 20
57.358369539764453
 11
383.00218983717969
 21
55.458369539764476
  0
LINE
  8
_0-3_躯体と製品
  6
CONTINUOUS
 62
    4
 10
383.00218983717969
 20
55.458369539764476
 11
382.30218983717964
 21
54.758369539764601
  0
LINE
  8
_0-3_躯体と製品
  6
CONTINUOUS
 62
    4
 10
381.70218983717973
 20
54.758369539764601
 11
382.30218983717964
 21
54.758369539764601
  0
LINE
  8
_0-3_躯体と製品
  6
CONTINUOUS
 62
    4
 10
381.70218983717973
 20
55.858369539764453
 11
381.70218983717973
 21
54.758369539764601
  0
LINE
  8
_0-3_躯体と製品
  6
CONTINUOUS
 62
    4
 10
403.17987483717957
 20
298.93625553976449
 11
474.87987483717961
 21
298.93625553976449
  0
LINE
  8
_0-3_躯体と製品
  6
CONTINUOUS
 62
    4
 10
470.17987483717957
 20
300.43625553976449
 11
441.17987483717957
 21
300.43625553976449
  0
LINE
  8
_0-3_躯体と製品
  6
CONTINUOUS
 62
    4
 10
400.17987483717957
 20
220.4362555397646
 11
400.17987483717957
 21
295.93625553976449
  0
LINE
  8
_0-3_躯体と製品
  6
CONTINUOUS
 62
    4
 10
398.67987483717957
 20
249.14435453976455
 11
398.67987483717957
 21
299.43625553976449
  0
LINE
  8
_0-3_躯体と製品
  6
CONTINUOUS
 62
    4
 10
258.53991483717959
 20
221.08701453976448
 11
258.53991483717959
 21
296.58701453976448
  0
LINE
  8
_0-3_躯体と製品
  6
CONTINUOUS
 62
    4
 10
260.03991483717959
 20
299.58701453976437
 11
260.03991483717959
 21
276.6870145397645
  0
LINE
  8
_0-3_躯体と製品
  6
CONTINUOUS
 62
    4
 10
278.53991483717959
 20
221.08701453976448
 11
258.53991483717959
 21
221.08701453976448
  0
LINE
  8
_0-3_躯体と製品
  6
CONTINUOUS
 62
    4
 10
277.23991483717964
 20
222.58701453976448
 11
261.03991483717959
 21
222.58701453976448
  0
LINE
  8
_0-3_躯体と製品
  6
CONTINUOUS
 62
    4
 10
260.03991483717959
 20
242.37891553976442
 11
260.03991483717959
 21
223.58701453976448
  0
ARC
  8
_0-3_躯体と製品
  6
CONTINUOUS
 62
    4
 10
261.03991483717959
 20
223.58701453976448
 40
1
 50
180
 51
270
  0
LINE
  8
_0-3_躯体と製品
  6
CONTINUOUS
 62
    4
 10
260.03991483717959
 20
275.6870145397645
 11
260.03991483717959
 21
249.08701453976437
  0
ARC
  8
_0-3_躯体と製品
  6
CONTINUOUS
 62
    4
 10
262.93991483717969
 20
251.28701453976453
 40
0.5999999999999999
 50
0
 51
180
  0
LINE
  8
_0-3_躯体と製品
  6
CONTINUOUS
 62
    4
 10
262.33991483717978
 20
249.08701453976437
 11
260.03991483717959
 21
249.08701453976437
  0
ARC
  8
_0-3_躯体と製品
  6
CONTINUOUS
 62
    4
 10
261.03991483717959
 20
242.37891553976442
 40
1
 50
67.975686999998743
 51
180
  0
LINE
  8
_0-3_躯体と製品
  6
CONTINUOUS
 62
    4
 10
262.33991483717978
 20
251.28701453976453
 11
262.33991483717978
 21
249.08701453976437
  0
LINE
  8
_0-3_躯体と製品
  6
CONTINUOUS
 62
    4
 10
263.53991483717959
 20
251.28701453976453
 11
263.53991483717959
 21
248.91544253976451
  0
ARC
  8
_0-3_躯体と製品
  6
CONTINUOUS
 62
    4
 10
262.53991483717959
 20
246.08701453976448
 40
3
 50
48.189685000001631
 51
70.528778999998195
  0
LINE
  8
_0-3_躯体と製品
  6
CONTINUOUS
 62
    4
 10
264.53991483717959
 20
243.85094653976455
 11
264.53991483717959
 21
244.88701453976444
  0
ARC
  8
_0-3_躯体と製品
  6
CONTINUOUS
 62
    4
 10
264.23991483717964
 20
244.88701453976444
 40
0.2999999999999999
 50
0
 51
90
  0
LINE
  8
_0-3_躯体と製品
  6
CONTINUOUS
 62
    4
 10
263.73991483717964
 20
245.1870145397645
 11
264.23991483717964
 21
245.1870145397645
  0
LINE
  8
_0-3_躯体と製品
  6
CONTINUOUS
 62
    4
 10
263.73991483717964
 20
246.98701453976446
 11
264.23991483717964
 21
246.98701453976446
  0
LINE
  8
_0-3_躯体と製品
  6
CONTINUOUS
 62
    4
 10
264.53991483717959
 20
248.32308253976453
 11
264.53991483717959
 21
247.28701453976453
  0
ARC
  8
_0-3_躯体と製品
  6
CONTINUOUS
 62
    4
 10
264.23991483717964
 20
247.28701453976453
 40
0.2999999999999999
 50
270
 51
0
  0
ARC
  8
_0-3_躯体と製品
  6
CONTINUOUS
 62
    4
 10
262.53991483717959
 20
246.08701453976448
 40
3
 50
247.9756869999988
 51
311.8103149999983
  0
ARC
  8
_0-3_躯体と製品
  6
CONTINUOUS
 62
    4
 10
262.53991483717959
 20
246.08701453976448
 40
1.5
 50
36.869898000000617
 51
323.13010199999928
  0
LINE
  8
_0-3_躯体と製品
  6
CONTINUOUS
 62
    4
 10
262.33991483717978
 20
275.6870145397645
 11
262.33991483717978
 21
273.48701453976435
  0
LINE
  8
_0-3_躯体と製品
  6
CONTINUOUS
 62
    4
 10
263.53991483717959
 20
273.48701453976435
 11
263.53991483717959
 21
276.1870145397645
  0
ARC
  8
_0-3_躯体と製品
  6
CONTINUOUS
 62
    4
 10
262.93991483717969
 20
273.48701453976435
 40
0.5999999999999999
 50
180
 51
0
  0
LINE
  8
_0-3_躯体と製品
  6
CONTINUOUS
 62
    4
 10
260.03991483717959
 20
275.6870145397645
 11
262.33991483717978
 21
275.6870145397645
  0
LINE
  8
_0-3_躯体と製品
  6
CONTINUOUS
 62
    4
 10
260.03991483717959
 20
276.6870145397645
 11
263.03991483717959
 21
276.6870145397645
  0
ARC
  8
_0-3_躯体と製品
  6
CONTINUOUS
 62
    4
 10
263.03991483717959
 20
276.1870145397645
 40
0.5
 50
0
 51
90
  0
LINE
  8
_0-3_躯体と製品
  6
CONTINUOUS
 62
    4
 10
278.53991483717959
 20
226.08701453976448
 11
278.53991483717959
 21
221.08701453976448
  0
LINE
  8
_0-3_躯体と製品
  6
CONTINUOUS
 62
    4
 10
277.23991483717964
 20
226.08701453976448
 11
277.23991483717964
 21
222.58701453976448
  0
LINE
  8
_0-3_躯体と製品
  6
CONTINUOUS
 62
    4
 10
278.53991483717959
 20
226.08701453976448
 11
277.23991483717964
 21
226.08701453976448
  0
ARC
  8
_0-3_躯体と製品
  6
CONTINUOUS
 62
    4
 10
396.17987483717957
 20
245.43625553976449
 40
3
 50
228.18968500000162
 51
292.0243130000012
  0
ARC
  8
_0-3_躯体と製品
  6
CONTINUOUS
 62
    4
 10
396.17987483717957
 20
245.43625553976449
 40
1.5
 50
216.8698980000006
 51
143.13010199999928
  0
ARC
  8
_0-3_躯体と製品
  6
CONTINUOUS
 62
    4
 10
396.17987483717957
 20
245.43625553976449
 40
3
 50
67.975686999998743
 51
131.81031499999833
  0
LINE
  8
_0-3_躯体と製品
  6
CONTINUOUS
 62
    4
 10
380.17987483717957
 20
220.4362555397646
 11
400.17987483717957
 21
220.4362555397646
  0
LINE
  8
_0-3_躯体と製品
  6
CONTINUOUS
 62
    4
 10
381.47987483717975
 20
221.9362555397646
 11
397.67987483717957
 21
221.9362555397646
  0
LINE
  8
_0-3_躯体と製品
  6
CONTINUOUS
 62
    4
 10
380.17987483717957
 20
225.4362555397646
 11
380.17987483717957
 21
220.4362555397646
  0
LINE
  8
_0-3_躯体と製品
  6
CONTINUOUS
 62
    4
 10
381.47987483717975
 20
225.4362555397646
 11
381.47987483717975
 21
221.9362555397646
  0
LINE
  8
_0-3_躯体と製品
  6
CONTINUOUS
 62
    4
 10
380.17987483717957
 20
225.4362555397646
 11
381.47987483717975
 21
225.4362555397646
  0
LINE
  8
_0-3_躯体と製品
  6
CONTINUOUS
 62
    4
 10
394.17987483717957
 20
243.20018753976456
 11
394.17987483717957
 21
244.23625553976444
  0
ARC
  8
_0-3_躯体と製品
  6
CONTINUOUS
 62
    4
 10
394.47987483717975
 20
244.23625553976444
 40
0.2999999999999999
 50
90
 51
180
  0
LINE
  8
_0-3_躯体と製品
  6
CONTINUOUS
 62
    4
 10
394.97987483717975
 20
244.53625553976451
 11
394.47987483717975
 21
244.53625553976451
  0
LINE
  8
_0-3_躯体と製品
  6
CONTINUOUS
 62
    4
 10
394.97987483717975
 20
246.33625553976435
 11
394.47987483717975
 21
246.33625553976435
  0
ARC
  8
_0-3_躯体と製品
  6
CONTINUOUS
 62
    4
 10
394.47987483717975
 20
246.63625553976442
 40
0.2999999999999999
 50
180
 51
270
  0
LINE
  8
_0-3_躯体と製品
  6
CONTINUOUS
 62
    4
 10
394.17987483717957
 20
247.67232353976442
 11
394.17987483717957
 21
246.63625553976442
  0
LINE
  8
_0-3_躯体と製品
  6
CONTINUOUS
 62
    4
 10
398.67987483717957
 20
241.72815653976443
 11
398.67987483717957
 21
222.9362555397646
  0
ARC
  8
_0-3_躯体と製品
  6
CONTINUOUS
 62
    4
 10
397.67987483717957
 20
222.9362555397646
 40
1
 50
270
 51
0
  0
ARC
  8
_0-3_躯体と製品
  6
CONTINUOUS
 62
    4
 10
397.67987483717957
 20
241.72815653976443
 40
1
 50
0
 51
112.0243130000012
  0
ARC
  8
_0-3_躯体と製品
  6
CONTINUOUS
 62
    4
 10
397.67987483717957
 20
249.14435453976455
 40
1
 50
247.9756869999988
 51
0
  0
ARC
  8
_0-3_躯体と製品
  6
CONTINUOUS
 62
    4
 10
237.23991483717964
 20
301.88701453976432
 40
0.2999999999999999
 50
0
 51
90
  0
ARC
  8
_0-3_躯体と製品
  6
CONTINUOUS
 62
    4
 10
237.23991483717964
 20
304.28701453976453
 40
0.2999999999999999
 50
270
 51
0
  0
ARC
  8
_0-3_躯体と製品
  6
CONTINUOUS
 62
    4
 10
235.53991483717959
 20
303.08701453976437
 40
3
 50
48.189685000001631
 51
90
  0
LINE
  8
_0-3_躯体と製品
  6
CONTINUOUS
 62
    4
 10
231.03991483717959
 20
299.58701453976437
 11
218.53991483717959
 21
299.58701453976437
  0
LINE
  8
_0-3_躯体と製品
  6
CONTINUOUS
 62
    4
 10
232.53991483717959
 20
304.28701453976453
 11
228.03991483717959
 21
304.28701453976453
  0
LINE
  8
_0-3_躯体と製品
  6
CONTINUOUS
 62
    4
 10
235.53991483717959
 20
306.08701453976448
 11
227.53991483717959
 21
306.08701453976448
  0
LINE
  8
_0-3_躯体と製品
  6
CONTINUOUS
 62
    4
 10
227.53991483717959
 20
306.08701453976448
 11
227.53991483717959
 21
304.78701453976453
  0
ARC
  8
_0-3_躯体と製品
  6
CONTINUOUS
 62
    4
 10
228.03991483717959
 20
304.78701453976453
 40
0.5
 50
180
 51
270
  0
LINE
  8
_0-3_躯体と製品
  6
CONTINUOUS
 62
    4
 10
236.73991483717964
 20
302.1870145397645
 11
237.23991483717964
 21
302.1870145397645
  0
LINE
  8
_0-3_躯体と製品
  6
CONTINUOUS
 62
    4
 10
236.73991483717964
 20
303.98701453976446
 11
237.23991483717964
 21
303.98701453976446
  0
ARC
  8
_0-3_躯体と製品
  6
CONTINUOUS
 62
    4
 10
235.53991483717959
 20
303.08701453976437
 40
1.5
 50
36.869898000000617
 51
323.13010199999928
  0
LINE
  8
_0-3_躯体と製品
  6
CONTINUOUS
 62
    4
 10
232.53991483717959
 20
304.28701453976453
 11
232.53991483717959
 21
301.08701453976448
  0
LINE
  8
_0-3_躯体と製品
  6
CONTINUOUS
 62
    4
 10
265.83991483717978
 20
301.08701453976448
 11
237.53991483717959
 21
301.08701453976448
  0
LINE
  8
_0-3_躯体と製品
  6
CONTINUOUS
 62
    4
 10
237.53991483717959
 20
301.08701453976448
 11
237.53991483717959
 21
301.88701453976432
  0
LINE
  8
_0-3_躯体と製品
  6
CONTINUOUS
 62
    4
 10
237.53991483717959
 20
305.32308253976453
 11
237.53991483717959
 21
304.28701453976453
  0
LINE
  8
_0-3_躯体と製品
  6
CONTINUOUS
 62
    4
 10
260.03991483717959
 20
299.58701453976437
 11
264.53991483717959
 21
299.58701453976437
  0
ARC
  8
_0-3_躯体と製品
  6
CONTINUOUS
 62
    4
 10
255.53991483717959
 20
296.58701453976448
 40
3
 50
0
 51
90
  0
LINE
  8
_0-3_躯体と製品
  6
CONTINUOUS
 62
    4
 10
265.83991483717978
 20
301.08701453976448
 11
265.83991483717978
 21
299.1870145397645
  0
LINE
  8
_0-3_躯体と製品
  6
CONTINUOUS
 62
    4
 10
265.83991483717978
 20
299.1870145397645
 11
265.13991483717973
 21
298.48701453976435
  0
LINE
  8
_0-3_躯体と製品
  6
CONTINUOUS
 62
    4
 10
264.53991483717959
 20
298.48701453976435
 11
265.13991483717973
 21
298.48701453976435
  0
LINE
  8
_0-3_躯体と製品
  6
CONTINUOUS
 62
    4
 10
264.53991483717959
 20
299.58701453976437
 11
264.53991483717959
 21
298.48701453976435
  0
TEXT
  8
_0-4_文字-記号
 62
    7
 10
333.2333548371796
 20
336.82909753976446
 40
10
 41
0.8
 50
0
  1
ＢＢ－１５０
  0
LINE
  8
_0-3_躯体と製品
  6
CONTINUOUS
 62
    4
 10
436.17987483717957
 20
300.43625553976449
 11
399.67987483717957
 21
300.43625553976449
  0
ARC
  8
_0-3_躯体と製品
  6
CONTINUOUS
 62
    4
 10
403.17987483717957
 20
295.93625553976449
 40
3
 50
90
 51
180
  0
ARC
  8
_0-3_躯体と製品
  6
CONTINUOUS
 62
    4
 10
399.67987483717957
 20
299.43625553976449
 40
1
 50
90
 51
180
  0
LINE
  8
_0-3_躯体と製品
  6
CONTINUOUS
 62
    4
 10
441.17987483717957
 20
303.63625553976442
 11
445.67987483717957
 21
303.63625553976442
  0
LINE
  8
_0-3_躯体と製品
  6
CONTINUOUS
 62
    4
 10
438.17987483717957
 20
305.43625553976449
 11
446.17987483717957
 21
305.43625553976449
  0
LINE
  8
_0-3_躯体と製品
  6
CONTINUOUS
 62
    4
 10
436.97987483717975
 20
301.53625553976451
 11
436.47987483717975
 21
301.53625553976451
  0
ARC
  8
_0-3_躯体と製品
  6
CONTINUOUS
 62
    4
 10
436.47987483717975
 20
301.23625553976456
 40
0.2999999999999999
 50
90
 51
180
  0
LINE
  8
_0-3_躯体と製品
  6
CONTINUOUS
 62
    4
 10
436.17987483717957
 20
300.43625553976449
 11
436.17987483717957
 21
301.23625553976456
  0
LINE
  8
_0-3_躯体と製品
  6
CONTINUOUS
 62
    4
 10
436.97987483717975
 20
303.33625553976447
 11
436.47987483717975
 21
303.33625553976447
  0
ARC
  8
_0-3_躯体と製品
  6
CONTINUOUS
 62
    4
 10
436.47987483717975
 20
303.63625553976442
 40
0.2999999999999999
 50
180
 51
270
  0
LINE
  8
_0-3_躯体と製品
  6
CONTINUOUS
 62
    4
 10
436.17987483717957
 20
304.67232353976453
 11
436.17987483717957
 21
303.63625553976442
  0
ARC
  8
_0-3_躯体と製品
  6
CONTINUOUS
 62
    4
 10
438.17987483717957
 20
302.43625553976437
 40
1.5
 50
216.8698980000006
 51
143.13010199999928
  0
ARC
  8
_0-3_躯体と製品
  6
CONTINUOUS
 62
    4
 10
438.17987483717957
 20
302.43625553976437
 40
3
 50
90
 51
131.81031499999833
  0
LINE
  8
_0-3_躯体と製品
  6
CONTINUOUS
 62
    4
 10
441.17987483717957
 20
303.63625553976442
 11
441.17987483717957
 21
300.43625553976449
  0
LINE
  8
_0-3_躯体と製品
  6
CONTINUOUS
 62
    4
 10
446.17987483717957
 20
305.43625553976449
 11
446.17987483717957
 21
304.13625553976442
  0
ARC
  8
_0-3_躯体と製品
  6
CONTINUOUS
 62
    4
 10
445.67987483717957
 20
304.13625553976442
 40
0.5
 50
270
 51
0
  0
LINE
  8
_0-3_躯体と製品
  6
CONTINUOUS
 62
    4
 10
550.17987483717957
 20
220.4362555397646
 11
550.17987483717957
 21
295.93625553976449
  0
LINE
  8
_0-3_躯体と製品
  6
CONTINUOUS
 62
    4
 10
551.67987483717957
 20
298.93625553976449
 11
551.67987483717957
 21
276.03625553976451
  0
LINE
  8
_0-3_躯体と製品
  6
PLINE3
 62
    3
 10
475.17987483717957
 20
309.21674353976448
 11
475.17987483717957
 21
208.24113353976452
  0
LINE
  8
_0-3_躯体と製品
  6
CONTINUOUS
 62
    4
 10
551.67987483717957
 20
241.72815653976443
 11
551.67987483717957
 21
222.9362555397646
  0
LINE
  8
_0-3_躯体と製品
  6
CONTINUOUS
 62
    4
 10
570.17987483717957
 20
220.4362555397646
 11
550.17987483717957
 21
220.4362555397646
  0
LINE
  8
_0-3_躯体と製品
  6
CONTINUOUS
 62
    4
 10
568.87987483717961
 20
221.9362555397646
 11
552.67987483717957
 21
221.9362555397646
  0
ARC
  8
_0-3_躯体と製品
  6
CONTINUOUS
 62
    4
 10
552.67987483717957
 20
222.9362555397646
 40
1
 50
180
 51
270
  0
LINE
  8
_0-3_躯体と製品
  6
CONTINUOUS
 62
    4
 10
570.17987483717957
 20
225.4362555397646
 11
570.17987483717957
 21
220.4362555397646
  0
LINE
  8
_0-3_躯体と製品
  6
CONTINUOUS
 62
    4
 10
568.87987483717961
 20
225.4362555397646
 11
568.87987483717961
 21
221.9362555397646
  0
LINE
  8
_0-3_躯体と製品
  6
CONTINUOUS
 62
    4
 10
570.17987483717957
 20
225.4362555397646
 11
568.87987483717961
 21
225.4362555397646
  0
LINE
  8
_0-3_躯体と製品
  6
CONTINUOUS
 62
    4
 10
553.97987483717975
 20
248.43625553976437
 11
551.67987483717957
 21
248.43625553976437
  0
LINE
  8
_0-3_躯体と製品
  6
CONTINUOUS
 62
    4
 10
551.67987483717957
 20
275.03625553976451
 11
553.97987483717975
 21
275.03625553976451
  0
LINE
  8
_0-3_躯体と製品
  6
CONTINUOUS
 62
    4
 10
551.67987483717957
 20
276.03625553976451
 11
554.67987483717957
 21
276.03625553976451
  0
ARC
  8
_0-3_躯体と製品
  6
CONTINUOUS
 62
    4
 10
552.67987483717957
 20
241.72815653976443
 40
1
 50
67.975686999998743
 51
180
  0
ARC
  8
_0-3_躯体と製品
  6
CONTINUOUS
 62
    4
 10
554.17987483717957
 20
245.43625553976449
 40
1.5
 50
36.869898000000617
 51
323.13010199999928
  0
LINE
  8
_0-3_躯体と製品
  6
CONTINUOUS
 62
    4
 10
551.67987483717957
 20
275.03625553976451
 11
551.67987483717957
 21
248.43625553976437
  0
LINE
  8
_0-3_躯体と製品
  6
CONTINUOUS
 62
    4
 10
553.97987483717975
 20
250.63625553976442
 11
553.97987483717975
 21
248.43625553976437
  0
LINE
  8
_0-3_躯体と製品
  6
CONTINUOUS
 62
    4
 10
555.17987483717957
 20
250.63625553976442
 11
555.17987483717957
 21
248.26468253976452
  0
ARC
  8
_0-3_躯体と製品
  6
CONTINUOUS
 62
    4
 10
554.57987483717966
 20
250.63625553976442
 40
0.5999999999999999
 50
0
 51
180
  0
ARC
  8
_0-3_躯体と製品
  6
CONTINUOUS
 62
    4
 10
554.17987483717957
 20
245.43625553976449
 40
3
 50
48.189685000001631
 51
70.528778999998195
  0
LINE
  8
_0-3_躯体と製品
  6
CONTINUOUS
 62
    4
 10
556.17987483717957
 20
243.20018753976456
 11
556.17987483717957
 21
244.23625553976444
  0
ARC
  8
_0-3_躯体と製品
  6
CONTINUOUS
 62
    4
 10
555.87987483717961
 20
244.23625553976444
 40
0.2999999999999999
 50
0
 51
90
  0
LINE
  8
_0-3_躯体と製品
  6
CONTINUOUS
 62
    4
 10
555.37987483717961
 20
244.53625553976451
 11
555.87987483717961
 21
244.53625553976451
  0
LINE
  8
_0-3_躯体と製品
  6
CONTINUOUS
 62
    4
 10
555.37987483717961
 20
246.33625553976435
 11
555.87987483717961
 21
246.33625553976435
  0
LINE
  8
_0-3_躯体と製品
  6
CONTINUOUS
 62
    4
 10
556.17987483717957
 20
247.67232353976442
 11
556.17987483717957
 21
246.63625553976442
  0
ARC
  8
_0-3_躯体と製品
  6
CONTINUOUS
 62
    4
 10
555.87987483717961
 20
246.63625553976442
 40
0.2999999999999999
 50
270
 51
0
  0
ARC
  8
_0-3_躯体と製品
  6
CONTINUOUS
 62
    4
 10
554.17987483717957
 20
245.43625553976449
 40
3
 50
247.9756869999988
 51
311.8103149999983
  0
LINE
  8
_0-3_躯体と製品
  6
CONTINUOUS
 62
    4
 10
553.97987483717975
 20
275.03625553976451
 11
553.97987483717975
 21
272.83625553976435
  0
LINE
  8
_0-3_躯体と製品
  6
CONTINUOUS
 62
    4
 10
555.17987483717957
 20
272.83625553976435
 11
555.17987483717957
 21
275.53625553976451
  0
ARC
  8
_0-3_躯体と製品
  6
CONTINUOUS
 62
    4
 10
554.57987483717966
 20
272.83625553976435
 40
0.5999999999999999
 50
180
 51
0
  0
ARC
  8
_0-3_躯体と製品
  6
CONTINUOUS
 62
    4
 10
554.67987483717957
 20
275.53625553976451
 40
0.5
 50
0
 51
90
  0
LINE
  8
_0-3_躯体と製品
  6
CONTINUOUS
 62
    4
 10
475.47987483717975
 20
298.93625553976449
 11
547.17987483717957
 21
298.93625553976449
  0
LINE
  8
_0-3_躯体と製品
  6
CONTINUOUS
 62
    4
 10
557.47987483717975
 20
300.43625553976449
 11
514.17987483717957
 21
300.43625553976449
  0
LINE
  8
_0-3_躯体と製品
  6
CONTINUOUS
 62
    4
 10
509.17987483717957
 20
300.43625553976449
 11
480.17987483717957
 21
300.43625553976449
  0
LINE
  8
_0-3_躯体と製品
  6
CONTINUOUS
 62
    4
 10
470.67987483717957
 20
300.93625553976449
 11
479.67987483717957
 21
300.93625553976449
  0
LINE
  8
_0-3_躯体と製品
  6
CONTINUOUS
 62
    4
 10
470.17987483717957
 20
300.43625553976449
 11
470.67987483717957
 21
300.93625553976449
  0
LINE
  8
_0-3_躯体と製品
  6
CONTINUOUS
 62
    4
 10
480.17987483717957
 20
300.43625553976449
 11
479.67987483717957
 21
300.93625553976449
  0
LINE
  8
_0-3_躯体と製品
  6
CONTINUOUS
 62
    4
 10
475.47987483717975
 20
298.93625553976449
 11
475.17987483717957
 21
299.23625553976444
  0
LINE
  8
_0-3_躯体と製品
  6
CONTINUOUS
 62
    4
 10
474.87987483717961
 20
298.93625553976449
 11
475.17987483717957
 21
299.23625553976444
  0
LINE
  8
_0-3_躯体と製品
  6
CONTINUOUS
 62
    4
 10
509.17987483717957
 20
303.63625553976442
 11
504.67987483717957
 21
303.63625553976442
  0
LINE
  8
_0-3_躯体と製品
  6
CONTINUOUS
 62
    4
 10
512.17987483717957
 20
305.43625553976449
 11
504.17987483717957
 21
305.43625553976449
  0
LINE
  8
_0-3_躯体と製品
  6
CONTINUOUS
 62
    4
 10
507.67987483717957
 20
298.93625553976449
 11
495.17987483717957
 21
298.93625553976449
  0
LINE
  8
_0-3_躯体と製品
  6
CONTINUOUS
 62
    4
 10
504.17987483717957
 20
305.43625553976449
 11
504.17987483717957
 21
304.13625553976442
  0
ARC
  8
_0-3_躯体と製品
  6
CONTINUOUS
 62
    4
 10
504.67987483717957
 20
304.13625553976442
 40
0.5
 50
180
 51
270
  0
LINE
  8
_0-3_躯体と製品
  6
CONTINUOUS
 62
    4
 10
513.37987483717961
 20
301.53625553976451
 11
513.87987483717961
 21
301.53625553976451
  0
LINE
  8
_0-3_躯体と製品
  6
CONTINUOUS
 62
    4
 10
513.37987483717961
 20
303.33625553976447
 11
513.87987483717961
 21
303.33625553976447
  0
ARC
  8
_0-3_躯体と製品
  6
CONTINUOUS
 62
    4
 10
512.17987483717957
 20
302.43625553976437
 40
1.5
 50
36.869898000000617
 51
323.13010199999928
  0
ARC
  8
_0-3_躯体と製品
  6
CONTINUOUS
 62
    4
 10
512.17987483717957
 20
302.43625553976437
 40
3
 50
48.189685000001631
 51
90
  0
LINE
  8
_0-3_躯体と製品
  6
CONTINUOUS
 62
    4
 10
509.17987483717957
 20
303.63625553976442
 11
509.17987483717957
 21
300.43625553976449
  0
ARC
  8
_0-3_躯体と製品
  6
CONTINUOUS
 62
    4
 10
513.87987483717961
 20
301.23625553976456
 40
0.2999999999999999
 50
0
 51
90
  0
LINE
  8
_0-3_躯体と製品
  6
CONTINUOUS
 62
    4
 10
514.17987483717957
 20
300.43625553976449
 11
514.17987483717957
 21
301.23625553976456
  0
ARC
  8
_0-3_躯体と製品
  6
CONTINUOUS
 62
    4
 10
513.87987483717961
 20
303.63625553976442
 40
0.2999999999999999
 50
270
 51
0
  0
LINE
  8
_0-3_躯体と製品
  6
CONTINUOUS
 62
    4
 10
514.17987483717957
 20
304.67232353976453
 11
514.17987483717957
 21
303.63625553976442
  0
LINE
  8
_0-3_躯体と製品
  6
CONTINUOUS
 62
    4
 10
551.67987483717957
 20
298.93625553976449
 11
556.17987483717957
 21
298.93625553976449
  0
ARC
  8
_0-3_躯体と製品
  6
CONTINUOUS
 62
    4
 10
547.17987483717957
 20
295.93625553976449
 40
3
 50
0
 51
90
  0
LINE
  8
_0-3_躯体と製品
  6
CONTINUOUS
 62
    4
 10
557.47987483717975
 20
300.43625553976449
 11
557.47987483717975
 21
298.53625553976451
  0
LINE
  8
_0-3_躯体と製品
  6
CONTINUOUS
 62
    4
 10
557.47987483717975
 20
298.53625553976451
 11
556.7798748371797
 21
297.83625553976435
  0
LINE
  8
_0-3_躯体と製品
  6
CONTINUOUS
 62
    4
 10
556.17987483717957
 20
297.83625553976435
 11
556.7798748371797
 21
297.83625553976435
  0
LINE
  8
_0-3_躯体と製品
  6
CONTINUOUS
 62
    4
 10
556.17987483717957
 20
298.93625553976449
 11
556.17987483717957
 21
297.83625553976435
  0
INSERT
  2
-001-_D4
  8
_0-2_寸法
 10
-1191.7723448481083
 20
-435.78415603982933
 41
2
 42
2
 50
0
  0
INSERT
  2
-002-_D5
  8
_0-2_寸法
 10
-1191.7723448481083
 20
-435.78415603982933
 41
2
 42
2
 50
0
  0
INSERT
  2
-003-_D6
  8
_0-2_寸法
 10
-1191.7723448481083
 20
-435.78415603982933
 41
2
 42
2
 50
0
  0
INSERT
  2
-004-_D7
  8
_0-2_寸法
 10
-1191.7723448481083
 20
-435.78415603982933
 41
2
 42
2
 50
0
  0
INSERT
  2
-005-_D8
  8
_0-2_寸法
 10
-1191.7723448481083
 20
-435.78415603982933
 41
2
 42
2
 50
0
  0
INSERT
  2
-006-_D9
  8
_0-2_寸法
 10
-1191.7723448481083
 20
-435.78415603982933
 41
2
 42
2
 50
0
  0
INSERT
  2
-007-_D10
  8
_0-2_寸法
 10
-1191.7723448481083
 20
-435.78415603982933
 41
2
 42
2
 50
0
  0
INSERT
  2
-008-_D11
  8
_0-2_寸法
 10
-1191.7723448481083
 20
-435.78415603982933
 41
2
 42
2
 50
0
  0
INSERT
  2
-009-_D12
  8
_0-2_寸法
 10
-1191.7723448481083
 20
-435.78415603982933
 41
2
 42
2
 50
0
  0
INSERT
  2
-010-_D13
  8
_0-2_寸法
 10
-1191.7723448481083
 20
-435.78415603982933
 41
2
 42
2
 50
0
  0
INSERT
  2
-011-_D14
  8
_0-2_寸法
 10
-1191.7723448481083
 20
-435.78415603982933
 41
2
 42
2
 50
0
  0
INSERT
  2
-012-_D15
  8
_0-2_寸法
 10
-1191.7723448481083
 20
-435.78415603982933
 41
2
 42
2
 50
0
  0
INSERT
  2
-013-_D16
  8
_0-2_寸法
 10
-1191.7723448481083
 20
-435.78415603982933
 41
2
 42
2
 50
0
  0
INSERT
  2
-014-_D17
  8
_0-2_寸法
 10
-1191.7723448481083
 20
-435.78415603982933
 41
2
 42
2
 50
0
  0
INSERT
  2
-015-_D18
  8
_0-2_寸法
 10
-1191.7723448481083
 20
-435.78415603982933
 41
2
 42
2
 50
0
  0
INSERT
  2
-016-_D19
  8
_0-2_寸法
 10
-1191.7723448481083
 20
-435.78415603982933
 41
2
 42
2
 50
0
  0
INSERT
  2
-017-_D20
  8
_0-2_寸法
 10
-1191.7723448481083
 20
-435.78415603982933
 41
2
 42
2
 50
0
  0
INSERT
  2
-018-_D21
  8
_0-2_寸法
 10
-1191.7723448481083
 20
-435.78415603982933
 41
2
 42
2
 50
0
  0
INSERT
  2
-019-_D22
  8
_0-2_寸法
 10
-1191.7723448481083
 20
-435.78415603982933
 41
2
 42
2
 50
0
  0
INSERT
  2
-020-_D23
  8
_0-2_寸法
 10
-1191.7723448481083
 20
-435.78415603982933
 41
2
 42
2
 50
0
  0
INSERT
  2
-021-_D24
  8
_0-2_寸法
 10
-1191.7723448481083
 20
-435.78415603982933
 41
2
 42
2
 50
0
  0
INSERT
  2
-022-_D25
  8
_0-2_寸法
 10
-1191.7723448481083
 20
-435.78415603982933
 41
2
 42
2
 50
0
  0
INSERT
  2
-023-_D26
  8
_0-2_寸法
 10
-1191.7723448481083
 20
-435.78415603982933
 41
2
 42
2
 50
0
  0
INSERT
  2
-024-_D27
  8
_0-2_寸法
 10
-1191.7723448481083
 20
-435.78415603982933
 41
2
 42
2
 50
0
  0
INSERT
  2
-025-_D28
  8
_0-2_寸法
 10
-1191.7723448481083
 20
-435.78415603982933
 41
2
 42
2
 50
0
  0
INSERT
  2
-026-_D29
  8
_0-2_寸法
 10
-1191.7723448481083
 20
-435.78415603982933
 41
2
 42
2
 50
0
  0
INSERT
  2
-027-_D30
  8
_0-2_寸法
 10
-1191.7723448481083
 20
-435.78415603982933
 41
2
 42
2
 50
0
  0
INSERT
  2
-028-_D31
  8
_0-2_寸法
 10
-1191.7723448481083
 20
-435.78415603982933
 41
2
 42
2
 50
0
  0
INSERT
  2
-029-_D32
  8
_0-2_寸法
 10
-1191.7723448481083
 20
-435.78415603982933
 41
2
 42
2
 50
0
  0
INSERT
  2
-030-_D33
  8
_0-2_寸法
 10
-1191.7723448481083
 20
-435.78415603982933
 41
2
 42
2
 50
0
  0
INSERT
  2
-031-_D34
  8
_0-2_寸法
 10
-1191.7723448481083
 20
-435.78415603982933
 41
2
 42
2
 50
0
  0
INSERT
  2
-032-_D35
  8
_0-2_寸法
 10
-1191.7723448481083
 20
-435.78415603982933
 41
2
 42
2
 50
0
  0
INSERT
  2
-033-_D36
  8
_0-2_寸法
 10
-1191.7723448481083
 20
-435.78415603982933
 41
2
 42
2
 50
0
  0
INSERT
  2
-034-_D37
  8
_0-2_寸法
 10
-1191.7723448481083
 20
-435.78415603982933
 41
2
 42
2
 50
0
  0
INSERT
  2
-035-_D38
  8
_0-2_寸法
 10
-1191.7723448481083
 20
-435.78415603982933
 41
2
 42
2
 50
0
  0
INSERT
  2
-036-_D39
  8
_0-2_寸法
 10
-1191.7723448481083
 20
-435.78415603982933
 41
2
 42
2
 50
0
  0
INSERT
  2
-037-_D40
  8
_0-2_寸法
 10
-1191.7723448481083
 20
-435.78415603982933
 41
2
 42
2
 50
0
  0
INSERT
  2
-038-_D41
  8
_0-2_寸法
 10
-1191.7723448481083
 20
-435.78415603982933
 41
2
 42
2
 50
0
  0
INSERT
  2
-039-_D42
  8
_0-2_寸法
 10
-1191.7723448481083
 20
-435.78415603982933
 41
2
 42
2
 50
0
  0
INSERT
  2
-040-_D43
  8
_0-2_寸法
 10
-1191.7723448481083
 20
-435.78415603982933
 41
2
 42
2
 50
0
  0
INSERT
  2
-041-_D44
  8
_0-2_寸法
 10
-1191.7723448481083
 20
-435.78415603982933
 41
2
 42
2
 50
0
  0
INSERT
  2
-042-_D45
  8
_0-2_寸法
 10
-1191.7723448481083
 20
-435.78415603982933
 41
2
 42
2
 50
0
  0
INSERT
  2
-043-_D46
  8
_0-2_寸法
 10
-1191.7723448481083
 20
-435.78415603982933
 41
2
 42
2
 50
0
  0
INSERT
  2
-044-_D47
  8
_0-2_寸法
 10
-1191.7723448481083
 20
-435.78415603982933
 41
2
 42
2
 50
0
  0
INSERT
  2
-045-_D48
  8
_0-2_寸法
 10
-1191.7723448481083
 20
-435.78415603982933
 41
2
 42
2
 50
0
  0
INSERT
  2
-046-_D49
  8
_0-2_寸法
 10
-1191.7723448481083
 20
-435.78415603982933
 41
2
 42
2
 50
0
  0
INSERT
  2
-047-_D50
  8
_0-2_寸法
 10
-1191.7723448481083
 20
-435.78415603982933
 41
2
 42
2
 50
0
  0
INSERT
  2
-048-_D51
  8
_0-2_寸法
 10
-1191.7723448481083
 20
-435.78415603982933
 41
2
 42
2
 50
0
  0
INSERT
  2
-049-_D52
  8
_0-2_寸法
 10
-1191.7723448481083
 20
-435.78415603982933
 41
2
 42
2
 50
0
  0
INSERT
  2
-050-_D53
  8
_0-2_寸法
 10
-1191.7723448481083
 20
-435.78415603982933
 41
2
 42
2
 50
0
  0
INSERT
  2
-051-_D54
  8
_0-2_寸法
 10
-1191.7723448481083
 20
-435.78415603982933
 41
2
 42
2
 50
0
  0
ENDSEC
  0
EOF
