  0
SECTION
  2
HEADER
  9
$ACADVER
  1
AC1015
  9
$DWGCODEPAGE
  3
ANSI_932
  9
$EXTMIN
 10
10
 20
16
  9
$EXTMAX
 10
705.1731954864
 20
422.4025479335
  9
$LIMMIN
 10
0
 20
0
  9
$LIMMAX
 10
840
 20
594
  9
$LTSCALE
 40
2
  9
$DIMSCALE
 40
2
  9
$DIMSTYLE
  2
M7DIMSTL
  9
$HANDSEED
  5
7FFFFFFF
  9
$PSLTSCALE
 70
     0
  9
$MEASUREMENT
 70
     1
  0
ENDSEC
  0
SECTION
  2
CLASSES
  0
CLASS
  1
CSOFTARXCLASS
  2
CSoftArxClass
  3
CSRasterApi
 90
     0
280
     0
281
     0
  0
CLASS
  1
IMAGEDEF
  2
AcDbRasterImageDef
  3
ISM
 90
     0
280
     0
281
     0
  0
CLASS
  1
RASTERVARIABLES
  2
AcDbRasterVariables
  3
ISM
 90
     0
280
     0
281
     0
  0
CLASS
  1
IMAGE
  2
AcDbRasterImage
  3
ISM
 90
   127
280
     0
281
     0
  0
CLASS
  1
IMAGEDEF_REACTOR
  2
AcDbRasterImageDefReactor
  3
ISM
 90
     1
280
     0
281
     0
  0
CLASS
  1
HATCH
  2
AcDbHatch
  3
M7
 90
     0
280
     0
281
     1
  0
ENDSEC
  0
SECTION
  2
TABLES
  0
TABLE
  2
VPORT
  5
FF
100
AcDbSymbolTable
 70
     5
  0
VPORT
  5
100
100
AcDbSymbolTableRecord
100
AcDbViewportTableRecord
  2
*ACTIVE
 70
     0
 10
0
 20
0
 11
1
 21
1
 12
420
 22
297
 13
0
 23
0
 14
0
 24
0
 15
0
 25
0
 16
0
 26
0
 36
1
 17
0
 27
0
 37
0
 40
297
 41
1.414141414141
 42
50
 43
0
 44
0
 50
0
 51
0
 71
     0
 72
   100
 73
     1
 74
     3
 75
     0
 76
     0
 77
     0
 78
     0
  0
ENDTAB
  0
TABLE
  2
LTYPE
  5
101
100
AcDbSymbolTable
 70
     1
  0
LTYPE
  5
102
100
AcDbSymbolTableRecord
100
AcDbLinetypeTableRecord
  2
BYBLOCK
 70
     0
  3

 72
    65
 73
     0
 40
0
  0
LTYPE
  5
103
100
AcDbSymbolTableRecord
100
AcDbLinetypeTableRecord
  2
BYLAYER
 70
     0
  3

 72
    65
 73
     0
 40
0
  0
LTYPE
  5
104
100
AcDbSymbolTableRecord
100
AcDbLinetypeTableRecord
  2
CONTINUOUS
 70
     0
  3
Solid line
 72
    65
 73
     0
 40
0
  0
LTYPE
  5
105
100
AcDbSymbolTableRecord
100
AcDbLinetypeTableRecord
  2
DOT
 70
     0
  3
...............................
 72
    65
 73
     2
 40
2
 49
1
 74
     0
 49
-1
 74
     0
  0
LTYPE
  5
106
100
AcDbSymbolTableRecord
100
AcDbLinetypeTableRecord
  2
DASHED
 70
     0
  3
- - - - - - - - - - - - - - - -
 72
    65
 73
     2
 40
4
 49
2
 74
     0
 49
-2
 74
     0
  0
LTYPE
  5
107
100
AcDbSymbolTableRecord
100
AcDbLinetypeTableRecord
  2
DASHED2
 70
     0
  3
-- -- -- -- -- -- -- -- -- -- -
 72
    65
 73
     2
 40
8
 49
5
 74
     0
 49
-3
 74
     0
  0
LTYPE
  5
108
100
AcDbSymbolTableRecord
100
AcDbLinetypeTableRecord
  2
CENTER
 70
     0
  3
--------- - --------- - -------
 72
    65
 73
     4
 40
23
 49
20
 74
     0
 49
-1
 74
     0
 49
1
 74
     0
 49
-1
 74
     0
  0
LTYPE
  5
109
100
AcDbSymbolTableRecord
100
AcDbLinetypeTableRecord
  2
CENTERX2
 70
     0
  3
-------------- - --------------
 72
    65
 73
     4
 40
43
 49
40
 74
     0
 49
-1
 74
     0
 49
1
 74
     0
 49
-1
 74
     0
  0
LTYPE
  5
10A
100
AcDbSymbolTableRecord
100
AcDbLinetypeTableRecord
  2
CENTER2
 70
     0
  3
------ - ----- - ------ - -----
 72
    65
 73
     4
 40
13
 49
10
 74
     0
 49
-1
 74
     0
 49
1
 74
     0
 49
-1
 74
     0
  0
LTYPE
  5
10B
100
AcDbSymbolTableRecord
100
AcDbLinetypeTableRecord
  2
PHANTOM
 70
     0
  3
-------- - - ------- - - ------
 72
    65
 73
     6
 40
25
 49
20
 74
     0
 49
-1
 74
     0
 49
1
 74
     0
 49
-1
 74
     0
 49
1
 74
     0
 49
-1
 74
     0
  0
LTYPE
  5
10C
100
AcDbSymbolTableRecord
100
AcDbLinetypeTableRecord
  2
PHANTOMX2
 70
     0
  3
------------- - - -------------
 72
    65
 73
     6
 40
45
 49
40
 74
     0
 49
-1
 74
     0
 49
1
 74
     0
 49
-1
 74
     0
 49
1
 74
     0
 49
-1
 74
     0
  0
LTYPE
  5
10D
100
AcDbSymbolTableRecord
100
AcDbLinetypeTableRecord
  2
PHANTOM2
 70
     0
  3
---- - - ---- - - ---- - - ----
 72
    65
 73
     6
 40
15
 49
10
 74
     0
 49
-1
 74
     0
 49
1
 74
     0
 49
-1
 74
     0
 49
1
 74
     0
 49
-1
 74
     0
  0
LTYPE
  5
10E
100
AcDbSymbolTableRecord
100
AcDbLinetypeTableRecord
  2
ACAD_ISO06W100
 70
     0
  3
------------ - - - ------------
 72
    65
 73
     8
 40
47
 49
40
 74
     0
 49
-1
 74
     0
 49
1
 74
     0
 49
-1
 74
     0
 49
1
 74
     0
 49
-1
 74
     0
 49
1
 74
     0
 49
-1
 74
     0
  0
LTYPE
  5
10F
100
AcDbSymbolTableRecord
100
AcDbLinetypeTableRecord
  2
ACAD_ISO14W100
 70
     0
  3
---- - - - -------- - - - -----
 72
    65
 73
     8
 40
27
 49
20
 74
     0
 49
-1
 74
     0
 49
1
 74
     0
 49
-1
 74
     0
 49
1
 74
     0
 49
-1
 74
     0
 49
1
 74
     0
 49
-1
 74
     0
  0
LTYPE
  5
110
100
AcDbSymbolTableRecord
100
AcDbLinetypeTableRecord
  2
ACAD_ISO11W100
 70
     0
  3
------- ------ - ------- ------
 72
    65
 73
     6
 40
44
 49
20
 74
     0
 49
-1
 74
     0
 49
20
 74
     0
 49
-1
 74
     0
 49
1
 74
     0
 49
-1
 74
     0
  0
LTYPE
  5
111
100
AcDbSymbolTableRecord
100
AcDbLinetypeTableRecord
  2
ACAD_ISO13W100
 70
     0
  3
------ ------ - - ------ ------
 72
    65
 73
     8
 40
46
 49
20
 74
     0
 49
-1
 74
     0
 49
20
 74
     0
 49
-1
 74
     0
 49
1
 74
     0
 49
-1
 74
     0
 49
1
 74
     0
 49
-1
 74
     0
  0
LTYPE
  5
112
100
AcDbSymbolTableRecord
100
AcDbLinetypeTableRecord
  2
ACAD_ISO15W100
 70
     0
  3
------ ----- - - - ------ -----
 72
    65
 73
    10
 40
48
 49
20
 74
     0
 49
-1
 74
     0
 49
20
 74
     0
 49
-1
 74
     0
 49
1
 74
     0
 49
-1
 74
     0
 49
1
 74
     0
 49
-1
 74
     0
 49
1
 74
     0
 49
-1
 74
     0
  0
LTYPE
  5
113
100
AcDbSymbolTableRecord
100
AcDbLinetypeTableRecord
  2
HIDDEN
 70
     0
  3
. . . . . . . . . . . . . . . .
 72
    65
 73
     2
 40
1.5
 49
1
 74
     0
 49
-0.5
 74
     0
  0
ENDTAB
  0
TABLE
  2
LAYER
  5
114
100
AcDbSymbolTable
 70
     1
  0
LAYER
  5
115
100
AcDbSymbolTableRecord
100
AcDbLayerTableRecord
  2
0
 70
     0
 62
     7
  6
CONTINUOUS
390
116
  0
LAYER
  5
117
100
AcDbSymbolTableRecord
100
AcDbLayerTableRecord
  2
レイヤ1
 70
     0
 62
     7
  6
CONTINUOUS
390
   278
  0
LAYER
  5
118
100
AcDbSymbolTableRecord
100
AcDbLayerTableRecord
  2
レイヤ2
 70
     0
 62
     7
  6
CONTINUOUS
390
   278
  0
LAYER
  5
119
100
AcDbSymbolTableRecord
100
AcDbLayerTableRecord
  2
レイヤ3
 70
     0
 62
     7
  6
CONTINUOUS
390
   278
  0
LAYER
  5
11A
100
AcDbSymbolTableRecord
100
AcDbLayerTableRecord
  2
レイヤ4
 70
     0
 62
     7
  6
CONTINUOUS
390
   278
  0
LAYER
  5
11B
100
AcDbSymbolTableRecord
100
AcDbLayerTableRecord
  2
レイヤ5
 70
     0
 62
     7
  6
CONTINUOUS
390
   278
  0
LAYER
  5
11C
100
AcDbSymbolTableRecord
100
AcDbLayerTableRecord
  2
レイヤ6
 70
     0
 62
     7
  6
CONTINUOUS
390
   278
  0
LAYER
  5
11D
100
AcDbSymbolTableRecord
100
AcDbLayerTableRecord
  2
レイヤ7
 70
     0
 62
     7
  6
CONTINUOUS
390
   278
  0
LAYER
  5
11E
100
AcDbSymbolTableRecord
100
AcDbLayerTableRecord
  2
レイヤ8
 70
     0
 62
     7
  6
CONTINUOUS
390
   278
  0
LAYER
  5
11F
100
AcDbSymbolTableRecord
100
AcDbLayerTableRecord
  2
レイヤ16
 70
     0
 62
     7
  6
CONTINUOUS
390
   278
  0
LAYER
  5
120
100
AcDbSymbolTableRecord
100
AcDbLayerTableRecord
  2
レイヤ1_2
 70
     0
 62
     7
  6
CONTINUOUS
390
   278
  0
ENDTAB
  0
TABLE
  2
STYLE
  5
121
100
AcDbSymbolTable
 70
     1
  0
STYLE
  5
122
100
AcDbSymbolTableRecord
100
AcDbTextStyleTableRecord
  2
STANDARD
 70
     0
 40
0
 41
0
 50
0
 71
     0
 42
1
  3
txt
  4
bigfont
  0
STYLE
  5
123
100
AcDbSymbolTableRecord
100
AcDbTextStyleTableRecord
  2
VSTANDARD
 70
     4
 40
0
 41
0
 50
0
 71
     0
 42
1
  3
txt
  4
bigfont
  0
ENDTAB
  0
TABLE
  2
VIEW
  5
124
100
AcDbSymbolTable
 70
     0
  0
ENDTAB
  0
TABLE
  2
UCS
  5
125
100
AcDbSymbolTable
 70
     0
  0
ENDTAB
  0
TABLE
  2
APPID
  5
126
100
AcDbSymbolTable
 70
     1
  0
APPID
  5
127
100
AcDbSymbolTableRecord
100
AcDbRegAppTableRecord
  2
ACAD
 70
     0
  0
ENDTAB
  0
TABLE
  2
DIMSTYLE
  5
128
100
AcDbSymbolTable
 70
     1
100
AcDbDimStyleTable
 71
     0
  0
DIMSTYLE
105
129
100
AcDbSymbolTableRecord
100
AcDbDimStyleTableRecord
  2
M7DIMSTL
 70
     0
  3

  4

  5

  6

  7

 40
2
 41
2.5
 42
0.625
 43
3.75
 44
1.25
 45
0
 46
0
 47
0
 48
0
140
2.5
141
2.5
142
0
143
0.03937007874016
144
1
145
0
146
1
147
0.625
 71
     0
 72
     0
 73
     0
 74
     0
 75
     0
 76
     0
 77
     1
 78
     8
170
     0
171
     3
172
     1
173
     0
174
     0
175
     0
176
     0
177
     0
178
     0
270
     2
271
     2
272
     2
273
     2
274
     3
340
122
275
     0
280
     0
281
     0
282
     0
283
     0
284
     8
285
     0
286
     0
287
     3
288
     0
  0
ENDTAB
  0
TABLE
  2
BLOCK_RECORD
  5
12A
100
AcDbSymbolTable
 70
     2
  0
BLOCK_RECORD
  5
12B
100
AcDbSymbolTableRecord
100
AcDbBlockTableRecord
  2
*MODEL_SPACE
  0
BLOCK_RECORD
  5
12C
100
AcDbSymbolTableRecord
100
AcDbBlockTableRecord
  2
*PAPER_SPACE
  0
BLOCK_RECORD
  5
12D
100
AcDbSymbolTableRecord
100
AcDbBlockTableRecord
  2
_DOT
  0
BLOCK_RECORD
  5
12E
100
AcDbSymbolTableRecord
100
AcDbBlockTableRecord
  2
_OPEN30
  0
BLOCK_RECORD
  5
12F
100
AcDbSymbolTableRecord
100
AcDbBlockTableRecord
  2
_ClosedBlank
  0
BLOCK_RECORD
  5
130
100
AcDbSymbolTableRecord
100
AcDbBlockTableRecord
  2
_Origin
  0
BLOCK_RECORD
  5
131
100
AcDbSymbolTableRecord
100
AcDbBlockTableRecord
  2
_Oblique
  0
BLOCK_RECORD
  5
132
100
AcDbSymbolTableRecord
100
AcDbBlockTableRecord
  2
_Origin2
  0
BLOCK_RECORD
  5
133
100
AcDbSymbolTableRecord
100
AcDbBlockTableRecord
  2
_BoxBlank
  0
BLOCK_RECORD
  5
134
100
AcDbSymbolTableRecord
100
AcDbBlockTableRecord
  2
_BoxFilled
  0
BLOCK_RECORD
  5
135
100
AcDbSymbolTableRecord
100
AcDbBlockTableRecord
  2
_Integral
  0
BLOCK_RECORD
  5
136
100
AcDbSymbolTableRecord
100
AcDbBlockTableRecord
  2
BK2
  0
BLOCK_RECORD
  5
137
100
AcDbSymbolTableRecord
100
AcDbBlockTableRecord
  2
BK3
  0
BLOCK_RECORD
  5
138
100
AcDbSymbolTableRecord
100
AcDbBlockTableRecord
  2
BK4
  0
BLOCK_RECORD
  5
139
100
AcDbSymbolTableRecord
100
AcDbBlockTableRecord
  2
BK5
  0
ENDTAB
  0
ENDSEC
  0
SECTION
  2
BLOCKS
  0
BLOCK
  5
13A
100
AcDbEntity
  8
0
100
AcDbBlockBegin
  2
*MODEL_SPACE
 70
     0
 10
0
 20
0
  3
*MODEL_SPACE
  1

  0
ENDBLK
  5
13B
100
AcDbEntity
  8
0
100
AcDbBlockEnd
  0
BLOCK
  5
13C
100
AcDbEntity
 67
     1
  8
0
100
AcDbBlockBegin
  2
*PAPER_SPACE
 70
     0
 10
0
 20
0
  3
*PAPER_SPACE
  1

  0
ENDBLK
  5
13D
100
AcDbEntity
 67
     1
  8
0
100
AcDbBlockEnd
  0
BLOCK
  5
13E
100
AcDbEntity
 67
     1
  8
0
100
AcDbBlockBegin
  2
_DOT
 70
     0
 10
0
 20
0
  3
_DOT
  1

  0
LWPOLYLINE
  5
13F
100
AcDbEntity
  8
0
  6
BYBLOCK
 62
     0
100
AcDbPolyline
 90
     2
 70
     1
 43
0.5
 10
-0.25
 20
0
 42
1
 10
0.25
 20
0
 42
1
  0
LINE
  5
140
100
AcDbEntity
  8
0
  6
BYBLOCK
 62
     0
100
AcDbLine
 10
-0.5
 20
0
 11
-1
 21
0
  0
ENDBLK
  5
141
100
AcDbEntity
  8
0
100
AcDbBlockEnd
  0
BLOCK
  5
142
100
AcDbEntity
 67
     1
  8
0
100
AcDbBlockBegin
  2
_OPEN30
 70
     0
 10
0
 20
0
  3
_OPEN30
  1

  0
LINE
  5
143
100
AcDbEntity
  8
0
  6
BYBLOCK
 62
     0
100
AcDbLine
 10
-1
 20
0.26794919
 11
0
 21
0
  0
LINE
  5
144
100
AcDbEntity
  8
0
  6
BYBLOCK
 62
     0
100
AcDbLine
 10
-1
 20
-0.26794919
 11
0
 21
0
  0
LINE
  5
145
100
AcDbEntity
  8
0
  6
BYBLOCK
 62
     0
100
AcDbLine
 10
0
 20
0
 11
-1
 21
0
  0
ENDBLK
  5
146
100
AcDbEntity
  8
0
100
AcDbBlockEnd
  0
BLOCK
  5
147
100
AcDbEntity
 67
     1
  8
0
100
AcDbBlockBegin
  2
_ClosedBlank
 70
     0
 10
0
 20
0
  3
_ClosedBlank
  1

  0
LINE
  5
148
100
AcDbEntity
  8
0
  6
BYBLOCK
 62
     0
100
AcDbLine
 10
-1
 20
0.1666666666667
 11
0
 21
0
  0
LINE
  5
149
100
AcDbEntity
  8
0
  6
BYBLOCK
 62
     0
100
AcDbLine
 10
0
 20
0
 11
-1
 21
-0.1666666666667
  0
LINE
  5
14A
100
AcDbEntity
  8
0
  6
BYBLOCK
 62
     0
100
AcDbLine
 10
-1
 20
0.1666666666667
 11
-1
 21
-0.1666666666667
  0
ENDBLK
  5
14B
100
AcDbEntity
  8
0
100
AcDbBlockEnd
  0
BLOCK
  5
14C
100
AcDbEntity
 67
     1
  8
0
100
AcDbBlockBegin
  2
_Origin
 70
     0
 10
0
 20
0
  3
_Origin
  1

  0
CIRCLE
  5
14D
100
AcDbEntity
  8
0
  6
BYBLOCK
 62
     0
100
AcDbCircle
 10
0
 20
0
 40
0.5
  0
LINE
  5
14E
100
AcDbEntity
  8
0
  6
BYBLOCK
 62
     0
100
AcDbLine
 10
0
 20
0
 11
-1
 21
0
  0
ENDBLK
  5
14F
100
AcDbEntity
  8
0
100
AcDbBlockEnd
  0
BLOCK
  5
150
100
AcDbEntity
 67
     1
  8
0
100
AcDbBlockBegin
  2
_Oblique
 70
     0
 10
0
 20
0
  3
_Oblique
  1

  0
LINE
  5
151
100
AcDbEntity
  8
0
  6
BYBLOCK
 62
     0
100
AcDbLine
 10
-0.5
 20
-0.5
 11
0.5
 21
0.5
  0
ENDBLK
  5
152
100
AcDbEntity
  8
0
100
AcDbBlockEnd
  0
BLOCK
  5
153
100
AcDbEntity
 67
     1
  8
0
100
AcDbBlockBegin
  2
_Origin2
 70
     0
 10
0
 20
0
  3
_Origin2
  1

  0
CIRCLE
  5
154
100
AcDbEntity
  8
0
  6
BYBLOCK
 62
     0
100
AcDbCircle
 10
0
 20
0
 40
0.5
  0
CIRCLE
  5
155
100
AcDbEntity
  8
0
  6
BYBLOCK
 62
     0
100
AcDbCircle
 10
0
 20
0
 40
0.25
  0
LINE
  5
156
100
AcDbEntity
  8
0
  6
BYBLOCK
 62
     0
100
AcDbLine
 10
-0.5
 20
0
 11
-1
 21
0
  0
ENDBLK
  5
157
100
AcDbEntity
  8
0
100
AcDbBlockEnd
  0
BLOCK
  5
158
100
AcDbEntity
 67
     1
  8
0
100
AcDbBlockBegin
  2
_BoxBlank
 70
     0
 10
0
 20
0
  3
_BoxBlank
  1

  0
LINE
  5
159
100
AcDbEntity
  8
0
  6
BYBLOCK
 62
     0
100
AcDbLine
 10
-0.5
 20
-0.5
 11
0.5
 21
-0.5
  0
LINE
  5
15A
100
AcDbEntity
  8
0
  6
BYBLOCK
 62
     0
100
AcDbLine
 10
0.5
 20
-0.5
 11
0.5
 21
0.5
  0
LINE
  5
15B
100
AcDbEntity
  8
0
  6
BYBLOCK
 62
     0
100
AcDbLine
 10
0.5
 20
0.5
 11
-0.5
 21
0.5
  0
LINE
  5
15C
100
AcDbEntity
  8
0
  6
BYBLOCK
 62
     0
100
AcDbLine
 10
-0.5
 20
0.5
 11
-0.5
 21
-0.5
  0
LINE
  5
15D
100
AcDbEntity
  8
0
  6
BYBLOCK
 62
     0
100
AcDbLine
 10
-0.5
 20
0
 11
-1
 21
0
  0
ENDBLK
  5
15E
100
AcDbEntity
  8
0
100
AcDbBlockEnd
  0
BLOCK
  5
15F
100
AcDbEntity
 67
     1
  8
0
100
AcDbBlockBegin
  2
_BoxFilled
 70
     0
 10
0
 20
0
  3
_BoxFilled
  1

  0
SOLID
  5
160
100
AcDbEntity
  8
0
  6
BYBLOCK
 62
     0
100
AcDbTrace
 10
-0.5
 20
0.5
 11
0.5
 21
0.5
 12
-0.5
 22
-0.5
 13
0.5
 23
-0.5
  0
LINE
  5
161
100
AcDbEntity
  8
0
  6
BYBLOCK
 62
     0
100
AcDbLine
 10
-0.5
 20
0
 11
-1
 21
0
  0
ENDBLK
  5
162
100
AcDbEntity
  8
0
100
AcDbBlockEnd
  0
BLOCK
  5
163
100
AcDbEntity
 67
     1
  8
0
100
AcDbBlockBegin
  2
_Integral
 70
     0
 10
0
 20
0
  3
_Integral
  1

  0
ARC
  5
164
100
AcDbEntity
  8
0
  6
BYBLOCK
 62
     0
100
AcDbCircle
 10
0.44488802
 20
-0.09133463
 40
0.45416667
100
AcDbArc
 50
101.999999998
 51
167.9999999799
  0
ARC
  5
165
100
AcDbEntity
  8
0
  6
BYBLOCK
 62
     0
100
AcDbCircle
 10
-0.44488802
 20
0.09133463
 40
0.45416667
100
AcDbArc
 50
282.0000000215
 51
348.0000000034
  0
ENDBLK
  5
166
100
AcDbEntity
  8
0
100
AcDbBlockEnd
  0
BLOCK
  5
167
100
AcDbEntity
  8
レイヤ1
100
AcDbBlockBegin
  2
BK2
 70
    64
 10
0
 20
0
  3
BK2
  1

  0
LINE
  5
168
100
AcDbEntity
  8
レイヤ1
  6
CONTINUOUS
 62
     0
100
AcDbLine
 10
361
 20
370.5651358227
 11
358.9348641773
 21
368.5
  0
LINE
  5
169
100
AcDbEntity
  8
レイヤ1
  6
CONTINUOUS
 62
     0
100
AcDbLine
 10
361
 20
371.9793493851
 11
357.5206506149
 21
368.5
  0
LINE
  5
16A
100
AcDbEntity
  8
レイヤ1
  6
CONTINUOUS
 62
     0
100
AcDbLine
 10
362.0147289754
 20
374.4082919229
 11
356.1064370525
 21
368.5
  0
LINE
  5
16B
100
AcDbEntity
  8
レイヤ1
  6
CONTINUOUS
 62
     0
100
AcDbLine
 10
360.5731230982
 20
374.380899608
 11
355
 21
368.8077765098
  0
LINE
  5
16C
100
AcDbEntity
  8
レイヤ1
  6
CONTINUOUS
 62
     0
100
AcDbLine
 10
359.2455449096
 20
374.4675349818
 11
355
 21
370.2219900722
  0
LINE
  5
16D
100
AcDbEntity
  8
レイヤ1
  6
CONTINUOUS
 62
     0
100
AcDbLine
 10
358.0098307725
 20
374.6460344071
 11
355
 21
371.6362036346
  0
LINE
  5
16E
100
AcDbEntity
  8
レイヤ1
  6
CONTINUOUS
 62
     0
100
AcDbLine
 10
356.8514587286
 20
374.9018759256
 11
355
 21
373.050417197
  0
LINE
  5
16F
100
AcDbEntity
  8
レイヤ1
  6
CONTINUOUS
 62
     0
100
AcDbLine
 10
355.7603782658
 20
375.2250090251
 11
355
 21
374.4646307593
  0
LINE
  5
170
100
AcDbEntity
  8
レイヤ1
  6
CONTINUOUS
 62
     0
100
AcDbLine
 10
356.0892519248
 20
368.5
 11
355
 21
369.5892519248
  0
LINE
  5
171
100
AcDbEntity
  8
レイヤ1
  6
CONTINUOUS
 62
     0
100
AcDbLine
 10
357.5034654871
 20
368.5
 11
355
 21
371.0034654871
  0
LINE
  5
172
100
AcDbEntity
  8
レイヤ1
  6
CONTINUOUS
 62
     0
100
AcDbLine
 10
358.9176790495
 20
368.5
 11
355
 21
372.4176790495
  0
LINE
  5
173
100
AcDbEntity
  8
レイヤ1
  6
CONTINUOUS
 62
     0
100
AcDbLine
 10
360.0401399348
 20
368.7917526771
 11
355
 21
373.8318926119
  0
LINE
  5
174
100
AcDbEntity
  8
レイヤ1
  6
CONTINUOUS
 62
     0
100
AcDbLine
 10
360.7371760267
 20
369.5089301476
 11
355
 21
375.2461061743
  0
LINE
  5
175
100
AcDbEntity
  8
レイヤ1
  6
CONTINUOUS
 62
     0
100
AcDbLine
 10
361
 20
370.6603197366
 11
356.7252198437
 21
374.9350998929
  0
LINE
  5
176
100
AcDbEntity
  8
レイヤ1
  6
CONTINUOUS
 62
     0
100
AcDbLine
 10
361
 20
372.074533299
 11
358.5126898245
 21
374.5618434745
  0
LINE
  5
177
100
AcDbEntity
  8
レイヤ1
  6
CONTINUOUS
 62
     0
100
AcDbLine
 10
361.4943734307
 20
372.9943734307
 11
360.0887073897
 21
374.4000394717
  0
LINE
  5
178
100
AcDbEntity
  8
レイヤ1
  6
CONTINUOUS
 62
     0
100
AcDbLine
 10
362.2014802119
 20
373.7014802119
 11
361.5183591068
 21
374.384601317
  0
LINE
  5
179
100
AcDbEntity
  8
レイヤ1
  6
CONTINUOUS
 62
     0
100
AcDbLine
 10
362.9085869931
 20
374.4085869931
 11
362.8365291726
 21
374.4806448135
  0
ENDBLK
  5
17A
100
AcDbEntity
 67
     1
  8
レイヤ1
100
AcDbBlockEnd
  0
BLOCK
  5
17B
100
AcDbEntity
  8
レイヤ16
100
AcDbBlockBegin
  2
BK3
 70
    64
 10
0
 20
0
  3
BK3
  1

  0
LINE
  5
17C
100
AcDbEntity
  8
レイヤ16
  6
CONTINUOUS
 62
     0
100
AcDbLine
 10
339.4626492786
 20
350.6527779283
 11
299.477426923
 21
419.9092146002
  0
LINE
  5
17D
100
AcDbEntity
  8
レイヤ16
  6
CONTINUOUS
 62
     0
100
AcDbLine
 10
299.477426923
 20
419.9092146002
 11
294.977426923
 21
419.9092146002
  0
CIRCLE
  5
17E
100
AcDbEntity
  8
レイヤ16
  6
CONTINUOUS
 62
     0
100
AcDbCircle
 10
339.4626492786
 20
350.6527779283
 40
1.4
  0
TEXT
  5
17F
100
AcDbEntity
  8
レイヤ16
  6
CONTINUOUS
 62
     0
100
AcDbText
 10
213.077426923
 20
415.4092146002
 40
6.993333333333
  1
Ｍ８オールアンカー
 41
0.8579599618684
  7
STANDARD
100
AcDbText
  0
ENDBLK
  5
180
100
AcDbEntity
 67
     1
  8
レイヤ16
100
AcDbBlockEnd
  0
BLOCK
  5
181
100
AcDbEntity
  8
レイヤ1
100
AcDbBlockBegin
  2
BK4
 70
    64
 10
0
 20
0
  3
BK4
  1

  0
POLYLINE
  5
182
100
AcDbEntity
  8
レイヤ1
  6
CONTINUOUS
 62
     0
100
AcDb2dPolyline
 66
     1
 10
0
 20
0
 70
     0
  0
VERTEX
  5
183
100
AcDbEntity
  8
レイヤ1
100
AcDbVertex
100
AcDb2dVertex
 10
533.7282641564
 20
328.4786388842
  0
VERTEX
  5
184
100
AcDbEntity
  8
レイヤ1
100
AcDbVertex
100
AcDb2dVertex
 10
546.2899243494
 20
350.236072566
  0
VERTEX
  5
185
100
AcDbEntity
  8
レイヤ1
100
AcDbVertex
100
AcDb2dVertex
 10
597.9892576828
 20
350.236072566
  0
SEQEND
  5
186
100
AcDbEntity
  8
レイヤ1
  0
TEXT
  5
187
100
AcDbEntity
  8
レイヤ1
  6
CONTINUOUS
 62
     0
100
AcDbText
 10
546.9892576828
 20
350.236072566
 40
6.993333333333
  1
ビルブレード　350
 41
0.8579599618684
  7
STANDARD
100
AcDbText
  0
ENDBLK
  5
188
100
AcDbEntity
 67
     1
  8
レイヤ1
100
AcDbBlockEnd
  0
BLOCK
  5
189
100
AcDbEntity
  8
レイヤ1
100
AcDbBlockBegin
  2
BK5
 70
    64
 10
0
 20
0
  3
BK5
  1

  0
POLYLINE
  5
18A
100
AcDbEntity
  8
レイヤ1
  6
CONTINUOUS
 62
     0
100
AcDb2dPolyline
 66
     1
 10
0
 20
0
 70
     0
  0
VERTEX
  5
18B
100
AcDbEntity
  8
レイヤ1
100
AcDbVertex
100
AcDb2dVertex
 10
621.1498270184
 20
332.6718710556
  0
VERTEX
  5
18C
100
AcDbEntity
  8
レイヤ1
100
AcDbVertex
100
AcDb2dVertex
 10
625.1406882263
 20
339.5842454338
  0
VERTEX
  5
18D
100
AcDbEntity
  8
レイヤ1
100
AcDbVertex
100
AcDb2dVertex
 10
655.8400215597
 20
339.5842454338
  0
SEQEND
  5
18E
100
AcDbEntity
  8
レイヤ1
  0
TEXT
  5
18F
100
AcDbEntity
  8
レイヤ1
  6
CONTINUOUS
 62
     0
100
AcDbText
 10
625.8400215597
 20
339.5842454338
 40
6.993333333333
  1
小口カバー
 41
0.8579599618684
  7
STANDARD
100
AcDbText
  0
ENDBLK
  5
190
100
AcDbEntity
 67
     1
  8
レイヤ1
100
AcDbBlockEnd
  0
ENDSEC
  0
SECTION
  2
ENTITIES
  0
LINE
  5
191
100
AcDbEntity
  8
レイヤ6
  6
CONTINUOUS
 62
     0
100
AcDbLine
 10
355
 20
308.5
 11
355
 21
409.7012428522
  0
LINE
  5
192
100
AcDbEntity
  8
レイヤ6
  6
CONTINUOUS
 62
     0
100
AcDbLine
 10
347
 20
409.7012428522
 11
347
 21
308.5
  0
LINE
  5
193
100
AcDbEntity
  8
レイヤ6
  6
CONTINUOUS
 62
     0
100
AcDbLine
 10
345
 20
268.5
 11
345
 21
409.7012428522
  0
LINE
  5
194
100
AcDbEntity
  8
レイヤ6
  6
CONTINUOUS
 62
     0
100
AcDbLine
 10
344
 20
269.5
 11
344
 21
409.7012428522
  0
LINE
  5
195
100
AcDbEntity
  8
レイヤ6
  6
CONTINUOUS
 62
     0
100
AcDbLine
 10
196
 20
409.7012428522
 11
196
 21
299.5
  0
LINE
  5
196
100
AcDbEntity
  8
レイヤ6
  6
CONTINUOUS
 62
     0
100
AcDbLine
 10
195
 20
409.7012428522
 11
195
 21
298.5
  0
LINE
  5
197
100
AcDbEntity
  8
レイヤ6
  6
CONTINUOUS
 62
     0
100
AcDbLine
 10
263.5010320264
 20
274.3000921589
 11
264.5010056989
 21
275.3001184858
  0
LINE
  5
198
100
AcDbEntity
  8
レイヤ6
  6
CONTINUOUS
 62
     0
100
AcDbLine
 10
256.5010320289
 20
274.2999078683
 11
263.5010320264
 21
274.3000921589
  0
LINE
  5
199
100
AcDbEntity
  8
レイヤ6
  6
CONTINUOUS
 62
     0
100
AcDbLine
 10
255.501005702
 20
275.2998815407
 11
264.5010056989
 21
275.3001184858
  0
LINE
  5
19A
100
AcDbEntity
  8
レイヤ6
  6
CONTINUOUS
 62
     0
100
AcDbLine
 10
255.501005702
 20
275.2998815407
 11
256.5010320289
 21
274.2999078683
  0
ARC
  5
19B
100
AcDbEntity
  8
レイヤ6
  6
CONTINUOUS
 62
     0
100
AcDbCircle
 10
255.5009267203
 20
278.2998815396
 40
1.5
100
AcDbArc
 50
90.00150843952
 51
210.0015084395
  0
ARC
  5
19C
100
AcDbEntity
  8
レイヤ6
  6
CONTINUOUS
 62
     0
100
AcDbCircle
 10
255.5008872294
 20
279.7998815391
 40
1.5
100
AcDbArc
 50
90.00150843951
 51
210.0015084395
  0
ARC
  5
19D
100
AcDbEntity
  8
レイヤ6
  6
CONTINUOUS
 62
     0
100
AcDbCircle
 10
255.5009662111
 20
276.7998815402
 40
1.5
100
AcDbArc
 50
90.00150843952
 51
270.0015084395
  0
LINE
  5
19E
100
AcDbEntity
  8
レイヤ6
  6
CONTINUOUS
 62
     0
100
AcDbLine
 10
230.499795
 20
264.627216
 11
230.500039
 21
266.927082
  0
LINE
  5
19F
100
AcDbEntity
  8
レイヤ6
  6
CONTINUOUS
 62
     0
100
AcDbLine
 10
230.499551
 20
268.500812
 11
230.500283
 21
270.800922
  0
ARC
  5
1A0
100
AcDbEntity
  8
レイヤ6
  6
CONTINUOUS
 62
     0
100
AcDbCircle
 10
236.877236
 20
265.627003
 40
1
100
AcDbArc
 50
-90
 51
-22.00335099999
  0
LINE
  5
1A1
100
AcDbEntity
  8
レイヤ6
  6
CONTINUOUS
 62
     0
100
AcDbLine
 10
236.606484
 20
268.426929
 11
237.536172
 21
270.72707
  0
LINE
  5
1A2
100
AcDbEntity
  8
レイヤ6
  6
CONTINUOUS
 62
     0
100
AcDbLine
 10
237.804482
 20
265.252308
 11
239.087197
 21
268.426868
  0
LINE
  5
1A3
100
AcDbEntity
  8
レイヤ6
  6
CONTINUOUS
 62
     0
100
AcDbLine
 10
236.000527
 20
266.92699
 11
236.606484
 21
268.426929
  0
LINE
  5
1A4
100
AcDbEntity
  8
レイヤ6
  6
CONTINUOUS
 62
     0
100
AcDbLine
 10
236.87748
 20
264.626896
 11
230.500039
 21
264.62685
  0
LINE
  5
1A5
100
AcDbEntity
  8
レイヤ6
  6
CONTINUOUS
 62
     0
100
AcDbLine
 10
230.500283
 20
266.92725
 11
236.000771
 21
266.926929
  0
ARC
  5
1A6
100
AcDbEntity
  8
レイヤ6
  6
CONTINUOUS
 62
     0
100
AcDbCircle
 10
283.12275
 20
265.624378
 40
1
100
AcDbArc
 50
-158.002167
 51
-90
  0
LINE
  5
1A7
100
AcDbEntity
  8
レイヤ6
  6
CONTINUOUS
 62
     0
100
AcDbLine
 10
283.393655
 20
268.424381
 11
282.464455
 21
270.724323
  0
LINE
  5
1A8
100
AcDbEntity
  8
レイヤ6
  6
CONTINUOUS
 62
     0
100
AcDbLine
 10
283.999673
 20
266.924534
 11
283.393655
 21
268.424381
  0
LINE
  5
1A9
100
AcDbEntity
  8
レイヤ6
  6
CONTINUOUS
 62
     0
100
AcDbLine
 10
282.195473
 20
265.249775
 11
280.913003
 21
268.424412
  0
LINE
  5
1AA
100
AcDbEntity
  8
レイヤ6
  6
CONTINUOUS
 62
     0
100
AcDbLine
 10
289.499276
 20
264.624515
 11
289.499535
 21
266.924442
  0
LINE
  5
1AB
100
AcDbEntity
  8
レイヤ6
  6
CONTINUOUS
 62
     0
100
AcDbLine
 10
289.499673
 20
268.498035
 11
289.499917
 21
270.795154
  0
LINE
  5
1AC
100
AcDbEntity
  8
レイヤ6
  6
CONTINUOUS
 62
     0
100
AcDbLine
 10
283.122567
 20
264.624164
 11
289.499184
 21
264.623524
  0
LINE
  5
1AD
100
AcDbEntity
  8
レイヤ6
  6
CONTINUOUS
 62
     0
100
AcDbLine
 10
289.499429
 20
266.923679
 11
283.999596
 21
266.924305
  0
LINE
  5
1AE
100
AcDbEntity
  8
レイヤ6
  6
CONTINUOUS
 62
     0
100
AcDbLine
 10
230.499551
 20
268.500812
 11
289.499642
 21
268.499592
  0
LINE
  5
1AF
100
AcDbEntity
  8
レイヤ6
  6
CONTINUOUS
 62
     0
100
AcDbLine
 10
230.499795
 20
270.800983
 11
289.499612
 21
270.795246
  0
LINE
  5
1B0
100
AcDbEntity
  8
レイヤ6
  6
CONTINUOUS
 62
     0
100
AcDbLine
 10
269.999825
 20
270.799747
 11
270.000024
 21
279.799
  0
LINE
  5
1B1
100
AcDbEntity
  8
レイヤ6
  6
CONTINUOUS
 62
     0
100
AcDbLine
 10
250.000039
 20
270.801685
 11
250.000283
 21
279.79993
  0
LINE
  5
1B2
100
AcDbEntity
  8
レイヤ6
  6
CONTINUOUS
 62
     0
100
AcDbLine
 10
310
 20
256.5
 11
310
 21
191.7
  0
LINE
  5
1B3
100
AcDbEntity
  8
レイヤ3
  6
CONTINUOUS
 62
     0
100
AcDbLine
 10
268.5001534079
 20
242.9962206773
 11
268.5001512472
 21
244.4962327739
  0
LINE
  5
1B4
100
AcDbEntity
  8
レイヤ3
  6
CONTINUOUS
 62
     0
100
AcDbLine
 10
269.5001367931
 20
242.9962206773
 11
268.5001534079
 21
242.9962206773
  0
ARC
  5
1B5
100
AcDbEntity
  8
レイヤ3
  6
CONTINUOUS
 62
     0
100
AcDbCircle
 10
268.500150979
 20
244.4962330751
 40
1
100
AcDbArc
 50
90
 51
180
  0
LINE
  5
1B6
100
AcDbEntity
  8
レイヤ3
  6
CONTINUOUS
 62
     0
100
AcDbLine
 10
269.5001431509
 20
238.9962206773
 11
269.5001421972
 21
239.7962206773
  0
LINE
  5
1B7
100
AcDbEntity
  8
レイヤ3
  6
CONTINUOUS
 62
     0
100
AcDbLine
 10
268.5001540566
 20
238.9962206773
 11
269.5001431509
 21
238.9962206773
  0
LINE
  5
1B8
100
AcDbEntity
  8
レイヤ3
  6
CONTINUOUS
 62
     0
100
AcDbLine
 10
269.5001421972
 20
239.7962206773
 11
268.5001539629
 21
239.7962206773
  0
LINE
  5
1B9
100
AcDbEntity
  8
レイヤ3
  6
CONTINUOUS
 62
     0
100
AcDbLine
 10
268.5001539629
 20
239.7962206773
 11
268.5001534478
 21
242.1962206773
  0
LINE
  5
1BA
100
AcDbEntity
  8
レイヤ3
  6
CONTINUOUS
 62
     0
100
AcDbLine
 10
268.5001534478
 20
242.1962206773
 11
269.5001377468
 21
242.1962206773
  0
LINE
  5
1BB
100
AcDbEntity
  8
レイヤ3
  6
CONTINUOUS
 62
     0
100
AcDbLine
 10
269.5001377468
 20
242.1962206773
 11
269.5001367931
 21
242.9962206773
  0
LINE
  5
1BC
100
AcDbEntity
  8
レイヤ3
  6
CONTINUOUS
 62
     0
100
AcDbLine
 10
271.0001185144
 20
244.4962352836
 11
271.0001206336
 21
243.4962339228
  0
LINE
  5
1BD
100
AcDbEntity
  8
レイヤ3
  6
CONTINUOUS
 62
     0
100
AcDbLine
 10
272.0001367931
 20
242.9962349824
 11
272.0001344089
 21
244.4962197236
  0
LINE
  5
1BE
100
AcDbEntity
  8
レイヤ3
  6
CONTINUOUS
 62
     0
100
AcDbLine
 10
271.0001206336
 20
243.4962339228
 11
271.5001206336
 21
242.9962349824
  0
LINE
  5
1BF
100
AcDbEntity
  8
レイヤ3
  6
CONTINUOUS
 62
     0
100
AcDbLine
 10
271.5001206336
 20
242.9962349824
 11
272.0001367931
 21
242.9962349824
  0
ARC
  5
1C0
100
AcDbEntity
  8
レイヤ3
  6
CONTINUOUS
 62
     0
100
AcDbCircle
 10
271.0001344089
 20
244.4962349824
 40
1
100
AcDbArc
 50
-0.0008742642137956
 51
90
  0
LINE
  5
1C1
100
AcDbEntity
  8
レイヤ3
  6
CONTINUOUS
 62
     0
100
AcDbLine
 10
272.0001382236
 20
238.9962063722
 11
271.5001382236
 21
238.9962063722
  0
LINE
  5
1C2
100
AcDbEntity
  8
レイヤ3
  6
CONTINUOUS
 62
     0
100
AcDbLine
 10
268.5001512472
 20
244.4962327739
 11
271.0001185144
 21
244.4962352836
  0
LINE
  5
1C3
100
AcDbEntity
  8
レイヤ3
  6
CONTINUOUS
 62
     0
100
AcDbLine
 10
271.0001344089
 20
245.4962502412
 11
268.500150383
 21
245.4962483339
  0
ARC
  5
1C4
100
AcDbEntity
  8
レイヤ3
  6
CONTINUOUS
 62
     0
100
AcDbCircle
 10
271.0001382236
 20
237.496221631
 40
1
100
AcDbArc
 50
-90
 51
-0.0008742642137956
  0
LINE
  5
1C5
100
AcDbEntity
  8
レイヤ3
  6
CONTINUOUS
 62
     0
100
AcDbLine
 10
271.0001382236
 20
238.4962063722
 11
271.0001382236
 21
237.4962066734
  0
LINE
  5
1C6
100
AcDbEntity
  8
レイヤ3
  6
CONTINUOUS
 62
     0
100
AcDbLine
 10
268.5001443271
 20
236.4962194635
 11
271.000140131
 21
236.496221631
  0
LINE
  5
1C7
100
AcDbEntity
  8
レイヤ3
  6
CONTINUOUS
 62
     0
100
AcDbLine
 10
271.0001382236
 20
237.4962066734
 11
268.50015432
 21
237.4962041637
  0
LINE
  5
1C8
100
AcDbEntity
  8
レイヤ3
  6
CONTINUOUS
 62
     0
100
AcDbLine
 10
272.0001382236
 20
237.4962063722
 11
272.0001382236
 21
238.9962063722
  0
LINE
  5
1C9
100
AcDbEntity
  8
レイヤ3
  6
CONTINUOUS
 62
     0
100
AcDbLine
 10
271.5001382236
 20
238.9962063722
 11
271.0001382236
 21
238.4962063722
  0
LINE
  5
1CA
100
AcDbEntity
  8
レイヤ3
  6
CONTINUOUS
 62
     0
100
AcDbLine
 10
268.50015432
 20
237.4962041637
 11
268.5001540566
 21
238.9962206773
  0
LINE
  5
1CB
100
AcDbEntity
  8
レイヤ3
  6
CONTINUOUS
 62
     0
100
AcDbLine
 10
268.5002053623
 20
222.8962685518
 11
269.0002053623
 21
223.3962685518
  0
LINE
  5
1CC
100
AcDbEntity
  8
レイヤ3
  6
CONTINUOUS
 62
     0
100
AcDbLine
 10
269.0002053623
 20
224.4962655
 11
268.5001443271
 21
224.9962197236
  0
LINE
  5
1CD
100
AcDbEntity
  8
レイヤ3
  6
CONTINUOUS
 62
     0
100
AcDbLine
 10
276.0366854581
 20
224.3087583421
 11
275.7585782055
 21
224.496258625
  0
LINE
  5
1CE
100
AcDbEntity
  8
レイヤ3
  6
CONTINUOUS
 62
     0
100
AcDbLine
 10
275.7585782055
 20
224.496258625
 11
269.0002053623
 21
224.4962655
  0
LINE
  5
1CF
100
AcDbEntity
  8
レイヤ3
  6
CONTINUOUS
 62
     0
100
AcDbLine
 10
269.0002053623
 20
223.3962685518
 11
272.9280954097
 21
223.3962685518
  0
LINE
  5
1D0
100
AcDbEntity
  8
レイヤ3
  6
CONTINUOUS
 62
     0
100
AcDbLine
 10
274.9501875738
 20
218.6962322585
 11
275.3501967291
 21
219.0962337844
  0
LINE
  5
1D1
100
AcDbEntity
  8
レイヤ3
  6
CONTINUOUS
 62
     0
100
AcDbLine
 10
274.0856499417
 20
218.6962322585
 11
274.9501875738
 21
218.6962322585
  0
LINE
  5
1D2
100
AcDbEntity
  8
レイヤ3
  6
CONTINUOUS
 62
     0
100
AcDbLine
 10
275.3501967291
 20
219.0962337844
 11
275.3501967291
 21
219.2349819533
  0
LINE
  5
1D3
100
AcDbEntity
  8
レイヤ3
  6
CONTINUOUS
 62
     0
100
AcDbLine
 10
275.3501967291
 20
219.2349819533
 11
275.2320034591
 21
219.5188501553
  0
ARC
  5
1D4
100
AcDbEntity
  8
レイヤ3
  6
CONTINUOUS
 62
     0
100
AcDbCircle
 10
276.5001906255
 20
220.7962307326
 40
1.799999952316
100
AcDbArc
 50
-153.7398771017
 51
-134.7930750986
  0
LINE
  5
1D5
100
AcDbEntity
  8
レイヤ3
  6
CONTINUOUS
 62
     0
100
AcDbLine
 10
274.8859604155
 20
219.9998259001
 11
274.7969966347
 21
220.0897425238
  0
LINE
  5
1D6
100
AcDbEntity
  8
レイヤ3
  6
CONTINUOUS
 62
     0
100
AcDbLine
 10
274.7969966347
 20
220.0897425238
 11
274.7273169637
 21
220.4849128766
  0
ARC
  5
1D7
100
AcDbEntity
  8
レイヤ3
  6
CONTINUOUS
 62
     0
100
AcDbCircle
 10
276.5001906255
 20
220.7962307326
 40
1.799999952324
100
AcDbArc
 50
149.1468146574
 51
189.9596369533
  0
ARC
  5
1D8
100
AcDbEntity
  8
レイヤ3
  6
CONTINUOUS
 62
     0
100
AcDbCircle
 10
276.5001906255
 20
220.7962307326
 40
3.200000047684
100
AcDbArc
 50
153.2557097831
 51
221.0144627149
  0
ARC
  5
1D9
100
AcDbEntity
  8
レイヤ3
  6
CONTINUOUS
 62
     0
100
AcDbCircle
 10
272.9280954097
 20
222.5962685518
 40
0.8
100
AcDbArc
 50
-26.74429021684
 51
90
  0
ARC
  5
1DA
100
AcDbEntity
  8
レイヤ3
  6
CONTINUOUS
 62
     0
100
AcDbCircle
 10
275.6398238043
 20
222.0249599807
 40
0.7499976184517
100
AcDbArc
 50
45.95276115794
 51
204.047322659
  0
LINE
  5
1DB
100
AcDbEntity
  8
レイヤ3
  6
CONTINUOUS
 62
     0
100
AcDbLine
 10
268.5001443271
 20
224.9962197236
 11
268.5001443271
 21
236.4962194635
  0
LINE
  5
1DC
100
AcDbEntity
  8
レイヤ3
  6
CONTINUOUS
 62
     0
100
AcDbLine
 10
269.5002145176
 20
210.4962807588
 11
268.5002053623
 21
210.4962807588
  0
LINE
  5
1DD
100
AcDbEntity
  8
レイヤ3
  6
CONTINUOUS
 62
     0
100
AcDbLine
 10
268.3001870518
 20
207.4962655
 11
269.0002145176
 21
207.4962655
  0
LINE
  5
1DE
100
AcDbEntity
  8
レイヤ3
  6
CONTINUOUS
 62
     0
100
AcDbLine
 10
269.0002145176
 20
207.4962655
 11
269.5002145176
 21
207.9962655
  0
ARC
  5
1DF
100
AcDbEntity
  8
レイヤ3
  6
CONTINUOUS
 62
     0
100
AcDbCircle
 10
268.3001870518
 20
208.296253293
 40
0.8000030517578
100
AcDbArc
 50
180
 51
270
  0
LINE
  5
1E0
100
AcDbEntity
  8
レイヤ3
  6
CONTINUOUS
 62
     0
100
AcDbLine
 10
269.5002145176
 20
207.9962655
 11
269.5002145176
 21
210.4962807588
  0
LINE
  5
1E1
100
AcDbEntity
  8
レイヤ3
  6
CONTINUOUS
 62
     0
100
AcDbLine
 10
267.500184
 20
244.4962197236
 11
267.500184
 21
208.296253293
  0
LINE
  5
1E2
100
AcDbEntity
  8
レイヤ3
  6
CONTINUOUS
 62
     0
100
AcDbLine
 10
268.5002053623
 20
210.4962807588
 11
268.5002053623
 21
222.8962685518
  0
LINE
  5
1E3
100
AcDbEntity
  8
レイヤ3
  6
CONTINUOUS
 62
     0
100
AcDbLine
 10
281.0001992588
 20
244.4962502412
 11
281.0001992588
 21
242.9962655
  0
LINE
  5
1E4
100
AcDbEntity
  8
レイヤ3
  6
CONTINUOUS
 62
     0
100
AcDbLine
 10
282.0002145176
 20
243.4962655
 11
282.0002145176
 21
244.4962807588
  0
LINE
  5
1E5
100
AcDbEntity
  8
レイヤ3
  6
CONTINUOUS
 62
     0
100
AcDbLine
 10
281.0001992588
 20
242.9962655
 11
281.5002145176
 21
242.9962655
  0
LINE
  5
1E6
100
AcDbEntity
  8
レイヤ3
  6
CONTINUOUS
 62
     0
100
AcDbLine
 10
281.5002145176
 20
242.9962655
 11
282.0002145176
 21
243.4962655
  0
ARC
  5
1E7
100
AcDbEntity
  8
レイヤ3
  6
CONTINUOUS
 62
     0
100
AcDbCircle
 10
282.0001992588
 20
244.4962655
 40
1
100
AcDbArc
 50
90
 51
180.0008742642
  0
LINE
  5
1E8
100
AcDbEntity
  8
レイヤ3
  6
CONTINUOUS
 62
     0
100
AcDbLine
 10
281.5001992588
 20
238.9962349824
 11
281.0001992588
 21
238.9962349824
  0
LINE
  5
1E9
100
AcDbEntity
  8
レイヤ3
  6
CONTINUOUS
 62
     0
100
AcDbLine
 10
284.500184
 20
244.4962807588
 11
284.500184
 21
242.9961885536
  0
LINE
  5
1EA
100
AcDbEntity
  8
レイヤ3
  6
CONTINUOUS
 62
     0
100
AcDbLine
 10
284.500184
 20
242.9961885536
 11
283.5001992588
 21
242.996192569
  0
ARC
  5
1EB
100
AcDbEntity
  8
レイヤ3
  6
CONTINUOUS
 62
     0
100
AcDbCircle
 10
284.500184
 20
244.4962655
 40
1
100
AcDbArc
 50
0
 51
90
  0
LINE
  5
1EC
100
AcDbEntity
  8
レイヤ3
  6
CONTINUOUS
 62
     0
100
AcDbLine
 10
283.5001992588
 20
239.7963079134
 11
283.5001992588
 21
238.9963079134
  0
LINE
  5
1ED
100
AcDbEntity
  8
レイヤ3
  6
CONTINUOUS
 62
     0
100
AcDbLine
 10
283.5001992588
 20
238.9963079134
 11
284.500184
 21
238.9963119288
  0
LINE
  5
1EE
100
AcDbEntity
  8
レイヤ3
  6
CONTINUOUS
 62
     0
100
AcDbLine
 10
283.5001992588
 20
242.196192569
 11
284.500184
 21
242.1961885536
  0
LINE
  5
1EF
100
AcDbEntity
  8
レイヤ3
  6
CONTINUOUS
 62
     0
100
AcDbLine
 10
284.500184
 20
242.1961885536
 11
284.500184
 21
239.7963119288
  0
LINE
  5
1F0
100
AcDbEntity
  8
レイヤ3
  6
CONTINUOUS
 62
     0
100
AcDbLine
 10
284.500184
 20
239.7963119288
 11
283.5001992588
 21
239.7963079134
  0
LINE
  5
1F1
100
AcDbEntity
  8
レイヤ3
  6
CONTINUOUS
 62
     0
100
AcDbLine
 10
283.5001992588
 20
242.996192569
 11
283.5001992588
 21
242.196192569
  0
LINE
  5
1F2
100
AcDbEntity
  8
レイヤ3
  6
CONTINUOUS
 62
     0
100
AcDbLine
 10
284.500184
 20
245.4962807588
 11
282.0001992588
 21
245.4962807588
  0
LINE
  5
1F3
100
AcDbEntity
  8
レイヤ3
  6
CONTINUOUS
 62
     0
100
AcDbLine
 10
282.0002145176
 20
244.4962807588
 11
284.500184
 21
244.4962807588
  0
LINE
  5
1F4
100
AcDbEntity
  8
レイヤ3
  6
CONTINUOUS
 62
     0
100
AcDbLine
 10
282.0001992588
 20
237.4962349824
 11
282.0001992588
 21
238.4962349824
  0
ARC
  5
1F5
100
AcDbEntity
  8
レイヤ3
  6
CONTINUOUS
 62
     0
100
AcDbCircle
 10
282.0001992588
 20
237.4962502412
 40
1
100
AcDbArc
 50
-179.9991257358
 51
-90
  0
LINE
  5
1F6
100
AcDbEntity
  8
レイヤ3
  6
CONTINUOUS
 62
     0
100
AcDbLine
 10
284.500184
 20
237.4962349824
 11
282.0001992588
 21
237.4962349824
  0
LINE
  5
1F7
100
AcDbEntity
  8
レイヤ3
  6
CONTINUOUS
 62
     0
100
AcDbLine
 10
282.0001992588
 20
236.4962502412
 11
284.5001931553
 21
236.4962502412
  0
LINE
  5
1F8
100
AcDbEntity
  8
レイヤ3
  6
CONTINUOUS
 62
     0
100
AcDbLine
 10
284.500184
 20
238.9963119288
 11
284.500184
 21
237.4962349824
  0
LINE
  5
1F9
100
AcDbEntity
  8
レイヤ3
  6
CONTINUOUS
 62
     0
100
AcDbLine
 10
282.0001992588
 20
238.4962349824
 11
281.5001992588
 21
238.9962349824
  0
LINE
  5
1FA
100
AcDbEntity
  8
レイヤ3
  6
CONTINUOUS
 62
     0
100
AcDbLine
 10
281.0001992588
 20
238.9962349824
 11
281.0001992588
 21
237.4962349824
  0
LINE
  5
1FB
100
AcDbEntity
  8
レイヤ3
  6
CONTINUOUS
 62
     0
100
AcDbLine
 10
277.241817903
 20
224.4962571162
 11
276.963710269
 21
224.3087573991
  0
LINE
  5
1FC
100
AcDbEntity
  8
レイヤ3
  6
CONTINUOUS
 62
     0
100
AcDbLine
 10
284.0001778965
 20
223.3962685518
 11
284.5001778965
 21
222.8962685518
  0
LINE
  5
1FD
100
AcDbEntity
  8
レイヤ3
  6
CONTINUOUS
 62
     0
100
AcDbLine
 10
284.5001931553
 20
224.9962349824
 11
284.0001931553
 21
224.4962502412
  0
LINE
  5
1FE
100
AcDbEntity
  8
レイヤ3
  6
CONTINUOUS
 62
     0
100
AcDbLine
 10
284.0001931553
 20
224.4962502412
 11
277.241817903
 21
224.4962571162
  0
LINE
  5
1FF
100
AcDbEntity
  8
レイヤ3
  6
CONTINUOUS
 62
     0
100
AcDbLine
 10
280.0722858414
 20
223.3962685518
 11
284.0001778965
 21
223.3962685518
  0
LINE
  5
200
100
AcDbEntity
  8
レイヤ3
  6
CONTINUOUS
 62
     0
100
AcDbLine
 10
277.650184522
 20
219.0962337844
 11
278.0501936773
 21
218.6962322585
  0
LINE
  5
201
100
AcDbEntity
  8
レイヤ3
  6
CONTINUOUS
 62
     0
100
AcDbLine
 10
278.0501936773
 20
218.6962322585
 11
278.9147220998
 21
218.6962322585
  0
ARC
  5
202
100
AcDbEntity
  8
レイヤ3
  6
CONTINUOUS
 62
     0
100
AcDbCircle
 10
276.5001906255
 20
220.7962307326
 40
1.799999952316
100
AcDbArc
 50
6.259959435184
 51
30.85309268661
  0
LINE
  5
203
100
AcDbEntity
  8
レイヤ3
  6
CONTINUOUS
 62
     0
100
AcDbLine
 10
278.2894578971
 20
220.9925021244
 11
278.3423029315
 21
220.877580527
  0
LINE
  5
204
100
AcDbEntity
  8
レイヤ3
  6
CONTINUOUS
 62
     0
100
AcDbLine
 10
278.3423029315
 20
220.877580527
 11
278.2726273857
 21
220.4824350033
  0
ARC
  5
205
100
AcDbEntity
  8
レイヤ3
  6
CONTINUOUS
 62
     0
100
AcDbCircle
 10
276.5001906255
 20
220.7962307326
 40
1.799999952333
100
AcDbArc
 50
-45.20726958469
 51
-10.03972678614
  0
LINE
  5
206
100
AcDbEntity
  8
レイヤ3
  6
CONTINUOUS
 62
     0
100
AcDbLine
 10
277.7683638433
 20
219.5188488357
 11
277.650184522
 21
219.2349819533
  0
LINE
  5
207
100
AcDbEntity
  8
レイヤ3
  6
CONTINUOUS
 62
     0
100
AcDbLine
 10
277.650184522
 20
219.2349819533
 11
277.650184522
 21
219.0962337844
  0
ARC
  5
208
100
AcDbEntity
  8
レイヤ3
  6
CONTINUOUS
 62
     0
100
AcDbCircle
 10
276.5001906255
 20
220.7962307326
 40
3.199993098637
100
AcDbArc
 50
-41.01457092891
 51
26.74429021686
  0
ARC
  5
209
100
AcDbEntity
  8
レイヤ3
  6
CONTINUOUS
 62
     0
100
AcDbCircle
 10
277.3605574468
 20
222.0249599807
 40
0.7499999999963
100
AcDbArc
 50
-24.04745052415
 51
134.0473667072
  0
ARC
  5
20A
100
AcDbEntity
  8
レイヤ3
  6
CONTINUOUS
 62
     0
100
AcDbCircle
 10
280.0722858414
 20
222.5962685518
 40
0.8
100
AcDbArc
 50
90
 51
206.7442902169
  0
LINE
  5
20B
100
AcDbEntity
  8
レイヤ3
  6
CONTINUOUS
 62
     0
100
AcDbLine
 10
284.5001931553
 20
236.4962502412
 11
284.5001931553
 21
224.9962349824
  0
LINE
  5
20C
100
AcDbEntity
  8
レイヤ3
  6
CONTINUOUS
 62
     0
100
AcDbLine
 10
284.5001778965
 20
210.4962655
 11
283.5001992588
 21
210.4962655
  0
LINE
  5
20D
100
AcDbEntity
  8
レイヤ3
  6
CONTINUOUS
 62
     0
100
AcDbLine
 10
283.5001992588
 20
207.9962502412
 11
284.0001992588
 21
207.4962655
  0
LINE
  5
20E
100
AcDbEntity
  8
レイヤ3
  6
CONTINUOUS
 62
     0
100
AcDbLine
 10
284.0001992588
 20
207.4962655
 11
284.700196207
 21
207.4962655
  0
ARC
  5
20F
100
AcDbEntity
  8
レイヤ3
  6
CONTINUOUS
 62
     0
100
AcDbCircle
 10
284.700196207
 20
208.296253293
 40
0.7999877929688
100
AcDbArc
 50
-90
 51
0
  0
LINE
  5
210
100
AcDbEntity
  8
レイヤ3
  6
CONTINUOUS
 62
     0
100
AcDbLine
 10
283.5001992588
 20
210.4962655
 11
283.5001992588
 21
207.9962502412
  0
LINE
  5
211
100
AcDbEntity
  8
レイヤ3
  6
CONTINUOUS
 62
     0
100
AcDbLine
 10
285.500184
 20
208.296253293
 11
285.500184
 21
244.4962655
  0
LINE
  5
212
100
AcDbEntity
  8
レイヤ3
  6
CONTINUOUS
 62
     0
100
AcDbLine
 10
284.5001778965
 20
222.8962685518
 11
284.5001778965
 21
210.4962655
  0
ARC
  5
213
100
AcDbEntity
  8
レイヤ3
  6
CONTINUOUS
 62
     0
100
AcDbCircle
 10
276.5001906255
 20
220.7962307326
 40
1.799999952317
100
AcDbArc
 50
79.14682349644
 51
100.8532691596
  0
LINE
  5
214
100
AcDbEntity
  8
レイヤ3
  6
CONTINUOUS
 62
     0
100
AcDbLine
 10
276.963710269
 20
224.3087573991
 11
276.0366854581
 21
224.3087583421
  0
LINE
  5
215
100
AcDbEntity
  8
レイヤ3
  6
CONTINUOUS
 62
     0
100
AcDbLine
 10
233.500061
 20
268.4999689824
 11
230.300061
 21
268.4999689824
  0
LINE
  5
216
100
AcDbEntity
  8
レイヤ3
  6
CONTINUOUS
 62
     0
100
AcDbLine
 10
234.000061
 20
267.9999689824
 11
233.500061
 21
268.4999689824
  0
LINE
  5
217
100
AcDbEntity
  8
レイヤ3
  6
CONTINUOUS
 62
     0
100
AcDbLine
 10
234.000061
 20
267.499959926
 11
234.000061
 21
267.9999689824
  0
LINE
  5
218
100
AcDbEntity
  8
レイヤ3
  6
CONTINUOUS
 62
     0
100
AcDbLine
 10
232.908905503
 20
266.8699750859
 11
234.000061
 21
267.499959926
  0
LINE
  5
219
100
AcDbEntity
  8
レイヤ3
  6
CONTINUOUS
 62
     0
100
AcDbLine
 10
226.6300701553
 20
266.8699750859
 11
232.908905503
 21
266.8699750859
  0
LINE
  5
21A
100
AcDbEntity
  8
レイヤ3
  6
CONTINUOUS
 62
     0
100
AcDbLine
 10
226.6300701553
 20
262.1299995
 11
226.6300701553
 21
266.8699750859
  0
LINE
  5
21B
100
AcDbEntity
  8
レイヤ3
  6
CONTINUOUS
 62
     0
100
AcDbLine
 10
238.0196698464
 20
262.1299995
 11
226.6300701553
 21
262.1299995
  0
ARC
  5
21C
100
AcDbEntity
  8
レイヤ3
  6
CONTINUOUS
 62
     0
100
AcDbCircle
 10
241.500061
 20
262.4999689824
 40
3.5
100
AcDbArc
 50
-6.067818771451
 51
186.0678187715
  0
LINE
  5
21D
100
AcDbEntity
  8
レイヤ3
  6
CONTINUOUS
 62
     0
100
AcDbLine
 10
252.5700640518
 20
262.1299995
 11
244.9804521536
 21
262.1299995
  0
LINE
  5
21E
100
AcDbEntity
  8
レイヤ3
  6
CONTINUOUS
 62
     0
100
AcDbLine
 10
252.5700640518
 20
262.7999476201
 11
252.5700640518
 21
262.1299995
  0
ARC
  5
21F
100
AcDbEntity
  8
レイヤ3
  6
CONTINUOUS
 62
     0
100
AcDbCircle
 10
254.3700640518
 20
262.7999476201
 40
1.8
100
AcDbArc
 50
90
 51
180
  0
LINE
  5
220
100
AcDbEntity
  8
レイヤ3
  6
CONTINUOUS
 62
     0
100
AcDbLine
 10
270.4300617629
 20
264.5999476201
 11
254.3700640518
 21
264.5999476201
  0
ARC
  5
221
100
AcDbEntity
  8
レイヤ3
  6
CONTINUOUS
 62
     0
100
AcDbCircle
 10
270.4300617629
 20
262.7999476201
 40
1.8
100
AcDbArc
 50
22.88611855973
 51
90
  0
LINE
  5
222
100
AcDbEntity
  8
レイヤ3
  6
CONTINUOUS
 62
     0
100
AcDbLine
 10
273.4603241191
 20
263.4999689824
 11
272.0883651406
 21
263.4999689824
  0
ARC
  5
223
100
AcDbEntity
  8
レイヤ3
  6
CONTINUOUS
 62
     0
100
AcDbCircle
 10
276.500061
 20
262.4999689824
 40
3.200000047684
100
AcDbArc
 50
138.984755795
 51
161.7900434166
  0
LINE
  5
224
100
AcDbEntity
  8
レイヤ3
  6
CONTINUOUS
 62
     0
100
AcDbLine
 10
274.9500671054
 20
264.6000003855
 11
274.0855489595
 21
264.6000003897
  0
LINE
  5
225
100
AcDbEntity
  8
レイヤ3
  6
CONTINUOUS
 62
     0
100
AcDbLine
 10
275.3500671035
 20
264.1999674565
 11
274.9500671054
 21
264.6000003855
  0
LINE
  5
226
100
AcDbEntity
  8
レイヤ3
  6
CONTINUOUS
 62
     0
100
AcDbLine
 10
275.3500671035
 20
264.0612177617
 11
275.3500671035
 21
264.1999674565
  0
LINE
  5
227
100
AcDbEntity
  8
レイヤ3
  6
CONTINUOUS
 62
     0
100
AcDbLine
 10
275.2318877822
 20
263.7773508794
 11
275.3500671035
 21
264.0612177617
  0
ARC
  5
228
100
AcDbEntity
  8
レイヤ3
  6
CONTINUOUS
 62
     0
100
AcDbCircle
 10
276.500061
 20
262.4999689824
 40
1.799999952302
100
AcDbArc
 50
134.7927304153
 51
169.9602746501
  0
LINE
  5
229
100
AcDbEntity
  8
レイヤ3
  6
CONTINUOUS
 62
     0
100
AcDbLine
 10
274.6579486941
 20
262.4186191881
 11
274.727624232
 21
262.8137646673
  0
LINE
  5
22A
100
AcDbEntity
  8
レイヤ3
  6
CONTINUOUS
 62
     0
100
AcDbLine
 10
274.7107937284
 20
262.3036975906
 11
274.6579486941
 21
262.4186191881
  0
ARC
  5
22B
100
AcDbEntity
  8
レイヤ3
  6
CONTINUOUS
 62
     0
100
AcDbCircle
 10
276.500061
 20
262.4999689824
 40
1.799999952316
100
AcDbArc
 50
-173.7400405648
 51
-149.1469073135
  0
ARC
  5
22C
100
AcDbEntity
  8
レイヤ3
  6
CONTINUOUS
 62
     0
100
AcDbCircle
 10
275.6396941787
 20
261.2712397344
 40
0.7499999999999
100
AcDbArc
 50
155.9525494758
 51
314.0473667073
  0
ARC
  5
22D
100
AcDbEntity
  8
レイヤ3
  6
CONTINUOUS
 62
     0
100
AcDbCircle
 10
276.500061
 20
262.4999689824
 40
1.799999952317
100
AcDbArc
 50
-100.8531765034
 51
-79.14673084044
  0
ARC
  5
22E
100
AcDbEntity
  8
レイヤ3
  6
CONTINUOUS
 62
     0
100
AcDbCircle
 10
277.3604278213
 20
261.2712397344
 40
0.7499976184491
100
AcDbArc
 50
-134.0472388421
 51
24.04732265899
  0
ARC
  5
22F
100
AcDbEntity
  8
レイヤ3
  6
CONTINUOUS
 62
     0
100
AcDbCircle
 10
276.500061
 20
262.4999689824
 40
1.79999995232
100
AcDbArc
 50
-30.85318534271
 51
9.959637129254
  0
LINE
  5
230
100
AcDbEntity
  8
レイヤ3
  6
CONTINUOUS
 62
     0
100
AcDbLine
 10
278.2032549909
 20
263.2064571912
 11
278.2729346609
 21
262.8112868439
  0
LINE
  5
231
100
AcDbEntity
  8
レイヤ3
  6
CONTINUOUS
 62
     0
100
AcDbLine
 10
278.11429121
 20
263.296373815
 11
278.2032549909
 21
263.2064571912
  0
ARC
  5
232
100
AcDbEntity
  8
レイヤ3
  6
CONTINUOUS
 62
     0
100
AcDbCircle
 10
276.500061
 20
262.4999689824
 40
1.799999952316
100
AcDbArc
 50
26.26012289833
 51
45.20692490145
  0
LINE
  5
233
100
AcDbEntity
  8
レイヤ3
  6
CONTINUOUS
 62
     0
100
AcDbLine
 10
277.6500548965
 20
264.0612177617
 11
277.7682481664
 21
263.7773495597
  0
LINE
  5
234
100
AcDbEntity
  8
レイヤ3
  6
CONTINUOUS
 62
     0
100
AcDbLine
 10
277.6500548965
 20
264.1999659307
 11
277.6500548965
 21
264.0612177617
  0
LINE
  5
235
100
AcDbEntity
  8
レイヤ3
  6
CONTINUOUS
 62
     0
100
AcDbLine
 10
278.0500640518
 20
264.5999674565
 11
277.6500548965
 21
264.1999659307
  0
LINE
  5
236
100
AcDbEntity
  8
レイヤ3
  6
CONTINUOUS
 62
     0
100
AcDbLine
 10
278.9146016838
 20
264.5999674565
 11
278.0500640518
 21
264.5999674565
  0
ARC
  5
237
100
AcDbEntity
  8
レイヤ3
  6
CONTINUOUS
 62
     0
100
AcDbCircle
 10
276.500061
 20
262.4999689824
 40
3.200000047684
100
AcDbArc
 50
-21.73213359799
 51
41.01446271486
  0
LINE
  5
238
100
AcDbEntity
  8
レイヤ3
  6
CONTINUOUS
 62
     0
100
AcDbLine
 10
279.9370837579
 20
260.6299781377
 11
279.472621229
 21
261.3151120332
  0
LINE
  5
239
100
AcDbEntity
  8
レイヤ3
  6
CONTINUOUS
 62
     0
100
AcDbLine
 10
293.3700671035
 20
260.6299781377
 11
279.9370837579
 21
260.6299781377
  0
LINE
  5
23A
100
AcDbEntity
  8
レイヤ3
  6
CONTINUOUS
 62
     0
100
AcDbLine
 10
293.3700671035
 20
266.8699445684
 11
293.3700671035
 21
260.6299781377
  0
LINE
  5
23B
100
AcDbEntity
  8
レイヤ3
  6
CONTINUOUS
 62
     0
100
AcDbLine
 10
287.09127769
 20
266.8699445684
 11
293.3700671035
 21
266.8699445684
  0
LINE
  5
23C
100
AcDbEntity
  8
レイヤ3
  6
CONTINUOUS
 62
     0
100
AcDbLine
 10
286.000061
 20
267.4999618959
 11
287.09127769
 21
266.8699445684
  0
LINE
  5
23D
100
AcDbEntity
  8
レイヤ3
  6
CONTINUOUS
 62
     0
100
AcDbLine
 10
286.000061
 20
267.9999689824
 11
286.000061
 21
267.4999618959
  0
LINE
  5
23E
100
AcDbEntity
  8
レイヤ3
  6
CONTINUOUS
 62
     0
100
AcDbLine
 10
286.500061
 20
268.4999689824
 11
286.000061
 21
267.9999689824
  0
LINE
  5
23F
100
AcDbEntity
  8
レイヤ3
  6
CONTINUOUS
 62
     0
100
AcDbLine
 10
294.500061
 20
268.4999689824
 11
286.500061
 21
268.4999689824
  0
LINE
  5
240
100
AcDbEntity
  8
レイヤ3
  6
CONTINUOUS
 62
     0
100
AcDbLine
 10
295.000061
 20
267.9999689824
 11
294.500061
 21
268.4999689824
  0
LINE
  5
241
100
AcDbEntity
  8
レイヤ3
  6
CONTINUOUS
 62
     0
100
AcDbLine
 10
295.000061
 20
239.3150003622
 11
295.000061
 21
267.9999689824
  0
ARC
  5
242
100
AcDbEntity
  8
レイヤ3
  6
CONTINUOUS
 62
     0
100
AcDbCircle
 10
294.185061
 20
239.3150003622
 40
0.8149938964844
100
AcDbArc
 50
180
 51
360
  0
LINE
  5
243
100
AcDbEntity
  8
レイヤ3
  6
CONTINUOUS
 62
     0
100
AcDbLine
 10
293.3700671035
 20
258.9999692955
 11
293.3700671035
 21
239.3150003622
  0
LINE
  5
244
100
AcDbEntity
  8
レイヤ3
  6
CONTINUOUS
 62
     0
100
AcDbLine
 10
278.450073207
 20
258.9999537236
 11
293.3700671035
 21
258.9999692955
  0
ARC
  5
245
100
AcDbEntity
  8
レイヤ3
  6
CONTINUOUS
 62
     0
100
AcDbCircle
 10
278.450073207
 20
257.9999384648
 40
1
100
AcDbArc
 50
90
 51
180
  0
LINE
  5
246
100
AcDbEntity
  8
レイヤ3
  6
CONTINUOUS
 62
     0
100
AcDbLine
 10
277.450073207
 20
239.4499506719
 11
277.450073207
 21
257.9999384648
  0
ARC
  5
247
100
AcDbEntity
  8
レイヤ3
  6
CONTINUOUS
 62
     0
100
AcDbCircle
 10
276.5000915176
 20
239.4499659307
 40
0.9500122070313
100
AcDbArc
 50
180
 51
359.9990797041
  0
LINE
  5
248
100
AcDbEntity
  8
レイヤ3
  6
CONTINUOUS
 62
     0
100
AcDbLine
 10
275.5500793105
 20
248.7999995
 11
275.5500793105
 21
239.4499659307
  0
LINE
  5
249
100
AcDbEntity
  8
レイヤ3
  6
CONTINUOUS
 62
     0
100
AcDbLine
 10
275.7500793105
 20
248.9999995
 11
275.5500793105
 21
248.7999995
  0
LINE
  5
24A
100
AcDbEntity
  8
レイヤ3
  6
CONTINUOUS
 62
     0
100
AcDbLine
 10
275.7500762588
 20
258.4999384648
 11
275.7500762588
 21
248.9999995
  0
LINE
  5
24B
100
AcDbEntity
  8
レイヤ3
  6
CONTINUOUS
 62
     0
100
AcDbLine
 10
275.2500762588
 20
258.9999384648
 11
275.7500762588
 21
258.4999384648
  0
LINE
  5
24C
100
AcDbEntity
  8
レイヤ3
  6
CONTINUOUS
 62
     0
100
AcDbLine
 10
267.600061
 20
258.9999543464
 11
275.2500762588
 21
258.9999384648
  0
LINE
  5
24D
100
AcDbEntity
  8
レイヤ3
  6
CONTINUOUS
 62
     0
100
AcDbLine
 10
267.600061
 20
259.8999537236
 11
267.600061
 21
258.9999543464
  0
LINE
  5
24E
100
AcDbEntity
  8
レイヤ3
  6
CONTINUOUS
 62
     0
100
AcDbLine
 10
270.6000617629
 20
259.8999537236
 11
267.600061
 21
259.8999537236
  0
LINE
  5
24F
100
AcDbEntity
  8
レイヤ3
  6
CONTINUOUS
 62
     0
100
AcDbLine
 10
270.6000617629
 20
262.9699689824
 11
270.6000617629
 21
259.8999537236
  0
LINE
  5
250
100
AcDbEntity
  8
レイヤ3
  6
CONTINUOUS
 62
     0
100
AcDbLine
 10
254.2000640518
 20
262.9699689824
 11
270.6000617629
 21
262.9699689824
  0
LINE
  5
251
100
AcDbEntity
  8
レイヤ3
  6
CONTINUOUS
 62
     0
100
AcDbLine
 10
254.2000640518
 20
259.8999842412
 11
254.2000640518
 21
262.9699689824
  0
LINE
  5
252
100
AcDbEntity
  8
レイヤ3
  6
CONTINUOUS
 62
     0
100
AcDbLine
 10
257.200061
 20
259.8999842412
 11
254.2000640518
 21
259.8999842412
  0
LINE
  5
253
100
AcDbEntity
  8
レイヤ3
  6
CONTINUOUS
 62
     0
100
AcDbLine
 10
257.200061
 20
258.9999689824
 11
257.200061
 21
259.8999842412
  0
LINE
  5
254
100
AcDbEntity
  8
レイヤ3
  6
CONTINUOUS
 62
     0
100
AcDbLine
 10
252.7998588198
 20
258.9999689824
 11
257.200061
 21
258.9999689824
  0
LINE
  5
255
100
AcDbEntity
  8
レイヤ3
  6
CONTINUOUS
 62
     0
100
AcDbLine
 10
252.7998588198
 20
238.4999995
 11
252.7998588198
 21
258.9999689824
  0
LINE
  5
256
100
AcDbEntity
  8
レイヤ3
  6
CONTINUOUS
 62
     0
100
AcDbLine
 10
251.2998798007
 20
238.4999995
 11
252.7998588198
 21
238.4999995
  0
LINE
  5
257
100
AcDbEntity
  8
レイヤ3
  6
CONTINUOUS
 62
     0
100
AcDbLine
 10
250.7998798007
 20
238.9999995
 11
251.2998798007
 21
238.4999995
  0
LINE
  5
258
100
AcDbEntity
  8
レイヤ3
  6
CONTINUOUS
 62
     0
100
AcDbLine
 10
250.7998798007
 20
242.4999995
 11
250.7998798007
 21
238.9999995
  0
LINE
  5
259
100
AcDbEntity
  8
レイヤ3
  6
CONTINUOUS
 62
     0
100
AcDbLine
 10
251.4998588199
 20
242.4999995
 11
250.7998798007
 21
242.4999995
  0
LINE
  5
25A
100
AcDbEntity
  8
レイヤ3
  6
CONTINUOUS
 62
     0
100
AcDbLine
 10
251.4998588199
 20
243.4999995
 11
251.4998588199
 21
242.4999995
  0
LINE
  5
25B
100
AcDbEntity
  8
レイヤ3
  6
CONTINUOUS
 62
     0
100
AcDbLine
 10
251.1698613398
 20
244.406660125
 11
251.4998588199
 21
243.4999995
  0
LINE
  5
25C
100
AcDbEntity
  8
レイヤ3
  6
CONTINUOUS
 62
     0
100
AcDbLine
 10
251.169805819
 20
250.5000025751
 11
251.1698613398
 21
244.406660125
  0
LINE
  5
25D
100
AcDbEntity
  8
レイヤ3
  6
CONTINUOUS
 62
     0
100
AcDbLine
 10
250.7998084772
 20
250.8699999169
 11
251.169805819
 21
250.5000025751
  0
LINE
  5
25E
100
AcDbEntity
  8
レイヤ3
  6
CONTINUOUS
 62
     0
100
AcDbLine
 10
250.7998084772
 20
252.1300029686
 11
250.7998084772
 21
250.8699999169
  0
LINE
  5
25F
100
AcDbEntity
  8
レイヤ3
  6
CONTINUOUS
 62
     0
100
AcDbLine
 10
251.1698060753
 20
252.5000005668
 11
250.7998084772
 21
252.1300029686
  0
LINE
  5
260
100
AcDbEntity
  8
レイヤ3
  6
CONTINUOUS
 62
     0
100
AcDbLine
 10
251.1698624719
 20
260.4999995
 11
251.1698060753
 21
252.5000005668
  0
LINE
  5
261
100
AcDbEntity
  8
レイヤ3
  6
CONTINUOUS
 62
     0
100
AcDbLine
 10
242.6500548965
 20
260.4999995
 11
251.1698624719
 21
260.4999995
  0
LINE
  5
262
100
AcDbEntity
  8
レイヤ3
  6
CONTINUOUS
 62
     0
100
AcDbLine
 10
242.6500548965
 20
260.9387202031
 11
242.6500548965
 21
260.4999995
  0
LINE
  5
263
100
AcDbEntity
  8
レイヤ3
  6
CONTINUOUS
 62
     0
100
AcDbLine
 10
242.7682342178
 20
261.2225870854
 11
242.6500548965
 21
260.9387202031
  0
ARC
  5
264
100
AcDbEntity
  8
レイヤ3
  6
CONTINUOUS
 62
     0
100
AcDbCircle
 10
241.500061
 20
262.4999689824
 40
1.79999995231
100
AcDbArc
 50
-45.20726958468
 51
-10.03972570897
  0
LINE
  5
265
100
AcDbEntity
  8
レイヤ3
  6
CONTINUOUS
 62
     0
100
AcDbLine
 10
243.3421733059
 20
262.5813187768
 11
243.272497766
 21
262.1861732864
  0
LINE
  5
266
100
AcDbEntity
  8
レイヤ3
  6
CONTINUOUS
 62
     0
100
AcDbLine
 10
243.2893282716
 20
262.6962403742
 11
243.3421733059
 21
262.5813187768
  0
ARC
  5
267
100
AcDbEntity
  8
レイヤ3
  6
CONTINUOUS
 62
     0
100
AcDbCircle
 10
241.500061
 20
262.4999689824
 40
1.799999952317
100
AcDbArc
 50
6.259959435183
 51
30.85309268648
  0
ARC
  5
268
100
AcDbEntity
  8
レイヤ3
  6
CONTINUOUS
 62
     0
100
AcDbCircle
 10
242.3604278213
 20
263.7286982305
 40
0.7499999999955
100
AcDbArc
 50
-24.0474505242
 51
134.0473667072
  0
ARC
  5
269
100
AcDbEntity
  8
レイヤ3
  6
CONTINUOUS
 62
     0
100
AcDbCircle
 10
241.500061
 20
262.4999689824
 40
1.799999952316
100
AcDbArc
 50
79.14682349642
 51
100.8532691597
  0
ARC
  5
26A
100
AcDbEntity
  8
レイヤ3
  6
CONTINUOUS
 62
     0
100
AcDbCircle
 10
240.6396941787
 20
263.7286982305
 40
0.7499976184493
100
AcDbArc
 50
45.95276115798
 51
204.047322659
  0
ARC
  5
26B
100
AcDbEntity
  8
レイヤ3
  6
CONTINUOUS
 62
     0
100
AcDbCircle
 10
241.500061
 20
262.4999689824
 40
1.799999952308
100
AcDbArc
 50
149.1468146573
 51
189.9596376571
  0
LINE
  5
26C
100
AcDbEntity
  8
レイヤ3
  6
CONTINUOUS
 62
     0
100
AcDbLine
 10
239.7968670091
 20
261.7934807736
 11
239.727187342
 21
262.1886511046
  0
LINE
  5
26D
100
AcDbEntity
  8
レイヤ3
  6
CONTINUOUS
 62
     0
100
AcDbLine
 10
239.88583079
 20
261.7035641499
 11
239.7968670091
 21
261.7934807736
  0
ARC
  5
26E
100
AcDbEntity
  8
レイヤ3
  6
CONTINUOUS
 62
     0
100
AcDbCircle
 10
241.500061
 20
262.4999689824
 40
1.799999952316
100
AcDbArc
 50
-153.7398771017
 51
-134.7930750986
  0
LINE
  5
26F
100
AcDbEntity
  8
レイヤ3
  6
CONTINUOUS
 62
     0
100
AcDbLine
 10
240.3500671035
 20
260.9387202031
 11
240.2318738336
 21
261.2225884051
  0
LINE
  5
270
100
AcDbEntity
  8
レイヤ3
  6
CONTINUOUS
 62
     0
100
AcDbLine
 10
240.3500671035
 20
260.4999995
 11
240.3500671035
 21
260.9387202031
  0
LINE
  5
271
100
AcDbEntity
  8
レイヤ3
  6
CONTINUOUS
 62
     0
100
AcDbLine
 10
226.6300701553
 20
260.4999995
 11
240.3500671035
 21
260.4999995
  0
LINE
  5
272
100
AcDbEntity
  8
レイヤ3
  6
CONTINUOUS
 62
     0
100
AcDbLine
 10
226.6300701553
 20
240.1299995
 11
226.6300701553
 21
260.4999995
  0
LINE
  5
273
100
AcDbEntity
  8
レイヤ3
  6
CONTINUOUS
 62
     0
100
AcDbLine
 10
232.2998588203
 20
240.1299995
 11
226.6300701553
 21
240.1299995
  0
LINE
  5
274
100
AcDbEntity
  8
レイヤ3
  6
CONTINUOUS
 62
     0
100
AcDbLine
 10
233.0215752874
 20
242.2300055336
 11
232.2998588203
 21
240.1299995
  0
LINE
  5
275
100
AcDbEntity
  8
レイヤ3
  6
CONTINUOUS
 62
     0
100
AcDbLine
 10
233.7998588203
 20
242.0999995
 11
233.0215752874
 21
242.2300055336
  0
LINE
  5
276
100
AcDbEntity
  8
レイヤ3
  6
CONTINUOUS
 62
     0
100
AcDbLine
 10
233.7998588203
 20
238.9999995
 11
233.7998588203
 21
242.0999995
  0
LINE
  5
277
100
AcDbEntity
  8
レイヤ3
  6
CONTINUOUS
 62
     0
100
AcDbLine
 10
233.2998588203
 20
238.4999995
 11
233.7998588203
 21
238.9999995
  0
LINE
  5
278
100
AcDbEntity
  8
レイヤ3
  6
CONTINUOUS
 62
     0
100
AcDbLine
 10
225.000061
 20
238.4999995
 11
233.2998588203
 21
238.4999995
  0
LINE
  5
279
100
AcDbEntity
  8
レイヤ3
  6
CONTINUOUS
 62
     0
100
AcDbLine
 10
225.500061
 20
268.4999689824
 11
225.000061
 21
267.9999689824
  0
LINE
  5
27A
100
AcDbEntity
  8
レイヤ3
  6
CONTINUOUS
 62
     0
100
AcDbLine
 10
228.700061
 20
268.4999689824
 11
225.500061
 21
268.4999689824
  0
LINE
  5
27B
100
AcDbEntity
  8
レイヤ3
  6
CONTINUOUS
 62
     0
100
AcDbLine
 10
228.7000610453
 20
268.1999689824
 11
228.700061
 21
268.4999689824
  0
LINE
  5
27C
100
AcDbEntity
  8
レイヤ3
  6
CONTINUOUS
 62
     0
100
AcDbLine
 10
229.3000610453
 20
268.1999689824
 11
228.7000610453
 21
268.1999689824
  0
LINE
  5
27D
100
AcDbEntity
  8
レイヤ3
  6
CONTINUOUS
 62
     0
100
AcDbLine
 10
229.300061
 20
268.4999689824
 11
229.3000610453
 21
268.1999689824
  0
LINE
  5
27E
100
AcDbEntity
  8
レイヤ3
  6
CONTINUOUS
 62
     0
100
AcDbLine
 10
229.700061
 20
268.4999689824
 11
229.300061
 21
268.4999689824
  0
LINE
  5
27F
100
AcDbEntity
  8
レイヤ3
  6
CONTINUOUS
 62
     0
100
AcDbLine
 10
229.7000610453
 20
268.1999689824
 11
229.700061
 21
268.4999689824
  0
LINE
  5
280
100
AcDbEntity
  8
レイヤ3
  6
CONTINUOUS
 62
     0
100
AcDbLine
 10
230.3000610453
 20
268.1999689824
 11
229.7000610453
 21
268.1999689824
  0
LINE
  5
281
100
AcDbEntity
  8
レイヤ3
  6
CONTINUOUS
 62
     0
100
AcDbLine
 10
230.300061
 20
268.4999689824
 11
230.3000610453
 21
268.1999689824
  0
LINE
  5
282
100
AcDbEntity
  8
レイヤ3
  6
CONTINUOUS
 62
     0
100
AcDbLine
 10
278.8002711362
 20
245.6962060712
 11
277.5729553321
 21
246.7260463097
  0
LINE
  5
283
100
AcDbEntity
  8
レイヤ3
  6
CONTINUOUS
 62
     0
100
AcDbLine
 10
278.7481766829
 20
245.4007637453
 11
277.4730425482
 21
246.6142631868
  0
LINE
  5
284
100
AcDbEntity
  8
レイヤ3
  6
CONTINUOUS
 62
     0
100
AcDbLine
 10
280.1002711362
 20
245.2962060712
 11
278.7488059073
 21
245.4001649349
  0
LINE
  5
285
100
AcDbEntity
  8
レイヤ3
  6
CONTINUOUS
 62
     0
100
AcDbLine
 10
280.1002711362
 20
241.1962060712
 11
282.3002711362
 21
239.926035479
  0
LINE
  5
286
100
AcDbEntity
  8
レイヤ3
  6
CONTINUOUS
 62
     0
100
AcDbLine
 10
278.8002711362
 20
245.6962060712
 11
280.9002711362
 21
245.6962060712
  0
LINE
  5
287
100
AcDbEntity
  8
レイヤ3
  6
CONTINUOUS
 62
     0
100
AcDbLine
 10
282.3002711362
 20
239.926035479
 11
282.3002711362
 21
237.6962060712
  0
LINE
  5
288
100
AcDbEntity
  8
レイヤ3
  6
CONTINUOUS
 62
     0
100
AcDbLine
 10
283.5002711362
 20
239.2003691272
 11
280.1002711362
 21
242.6003691272
  0
LINE
  5
289
100
AcDbEntity
  8
レイヤ3
  6
CONTINUOUS
 62
     0
100
AcDbLine
 10
280.9002711362
 20
243.2145826896
 11
280.1002711362
 21
244.0145826896
  0
LINE
  5
28A
100
AcDbEntity
  8
レイヤ3
  6
CONTINUOUS
 62
     0
100
AcDbLine
 10
280.9002711362
 20
244.6287962519
 11
280.1002711362
 21
245.4287962519
  0
LINE
  5
28B
100
AcDbEntity
  8
レイヤ3
  6
CONTINUOUS
 62
     0
100
AcDbLine
 10
280.1002711362
 20
245.6962060712
 11
280.1002711362
 21
241.1962060712
  0
LINE
  5
28C
100
AcDbEntity
  8
レイヤ3
  6
CONTINUOUS
 62
     0
100
AcDbLine
 10
283.5002711362
 20
243.6962060712
 11
283.5002711362
 21
237.6962060712
  0
LINE
  5
28D
100
AcDbEntity
  8
レイヤ3
  6
CONTINUOUS
 62
     0
100
AcDbLine
 10
283.2002711362
 20
237.3962060712
 11
282.6002711362
 21
237.3962060712
  0
LINE
  5
28E
100
AcDbEntity
  8
レイヤ3
  6
CONTINUOUS
 62
     0
100
AcDbLine
 10
282.6002711362
 20
243.9962060712
 11
283.2002711362
 21
243.9962060712
  0
LINE
  5
28F
100
AcDbEntity
  8
レイヤ3
  6
CONTINUOUS
 62
     0
100
AcDbLine
 10
282.3002711362
 20
243.6962060712
 11
282.3002711362
 21
242.4962060712
  0
LINE
  5
290
100
AcDbEntity
  8
レイヤ3
  6
CONTINUOUS
 62
     0
100
AcDbLine
 10
280.9002711362
 20
245.6962060712
 11
280.9002711362
 21
242.4962060712
  0
LINE
  5
291
100
AcDbEntity
  8
レイヤ3
  6
CONTINUOUS
 62
     0
100
AcDbLine
 10
282.3002711362
 20
242.4962060712
 11
280.9002711362
 21
242.4962060712
  0
LINE
  5
292
100
AcDbEntity
  8
レイヤ3
  6
CONTINUOUS
 62
     0
100
AcDbLine
 10
283.5002711362
 20
237.7861555648
 11
282.3002711362
 21
238.9861555648
  0
LINE
  5
293
100
AcDbEntity
  8
レイヤ3
  6
CONTINUOUS
 62
     0
100
AcDbLine
 10
283.5002711362
 20
240.6145826896
 11
281.6186477546
 21
242.4962060712
  0
LINE
  5
294
100
AcDbEntity
  8
レイヤ3
  6
CONTINUOUS
 62
     0
100
AcDbLine
 10
283.5002711362
 20
242.0287962519
 11
282.3002711362
 21
243.2287962519
  0
LINE
  5
295
100
AcDbEntity
  8
レイヤ3
  6
CONTINUOUS
 62
     0
100
AcDbLine
 10
283.5002711362
 20
243.4430098143
 11
282.9470748794
 21
243.9962060712
  0
LINE
  5
296
100
AcDbEntity
  8
レイヤ3
  6
CONTINUOUS
 62
     0
100
AcDbLine
 10
286.000061
 20
268.4999685
 11
234.000061
 21
268.4999685
  0
LINE
  5
297
100
AcDbEntity
  8
レイヤ3
  6
CONTINUOUS
 62
     0
100
AcDbLine
 10
266.702869
 20
245.508291
 11
266.668254
 21
246.499549
  0
LINE
  5
298
100
AcDbEntity
  8
レイヤ3
  6
CONTINUOUS
 62
     0
100
AcDbLine
 10
286.300412
 20
245.511191
 11
286.334926
 21
246.499549
  0
LINE
  5
299
100
AcDbEntity
  8
レイヤ3
  6
CONTINUOUS
 62
     0
100
AcDbLine
 10
279.330162
 20
246.499687
 11
286.33498
 21
246.501085
  0
LINE
  5
29A
100
AcDbEntity
  8
レイヤ3
  6
CONTINUOUS
 62
     0
100
AcDbLine
 10
278.500267
 20
225.500175
 11
279.058892
 21
241.497825
  0
LINE
  5
29B
100
AcDbEntity
  8
レイヤ3
  6
CONTINUOUS
 62
     0
100
AcDbLine
 10
274.500267
 20
225.500175
 11
273.941582
 21
241.497337
  0
LINE
  5
29C
100
AcDbEntity
  8
レイヤ3
  6
CONTINUOUS
 62
     0
100
AcDbLine
 10
279.058907
 20
241.497825
 11
278.330269
 21
243.499534
  0
LINE
  5
29D
100
AcDbEntity
  8
レイヤ3
  6
CONTINUOUS
 62
     0
100
AcDbLine
 10
274.670265
 20
243.49929
 11
273.941582
 21
241.497337
  0
LINE
  5
29E
100
AcDbEntity
  8
レイヤ3
  6
CONTINUOUS
 62
     0
100
AcDbLine
 10
278.330269
 20
243.499687
 11
278.330269
 21
245.7984715048
  0
LINE
  5
29F
100
AcDbEntity
  8
レイヤ3
  6
CONTINUOUS
 62
     0
100
AcDbLine
 10
274.670265
 20
243.499779
 11
274.670265
 21
245.7984639333
  0
LINE
  5
2A0
100
AcDbEntity
  8
レイヤ3
  6
CONTINUOUS
 62
     0
100
AcDbLine
 10
266.668215
 20
246.500653
 11
273.670372
 21
246.499687
  0
LINE
  5
2A1
100
AcDbEntity
  8
レイヤ3
  6
CONTINUOUS
 62
     0
100
AcDbLine
 10
278.500252
 20
225.500175
 11
274.500252
 21
225.500175
  0
LINE
  5
2A2
100
AcDbEntity
  8
レイヤ3
  6
CONTINUOUS
 62
     0
100
AcDbLine
 10
274.670265
 20
245.4986912922
 11
275.200009
 21
245.498686
  0
LINE
  5
2A3
100
AcDbEntity
  8
レイヤ3
  6
CONTINUOUS
 62
     0
100
AcDbLine
 10
264.400046
 20
262.599954
 11
260.400046
 21
262.599954
  0
LINE
  5
2A4
100
AcDbEntity
  8
レイヤ3
  6
CONTINUOUS
 62
     0
100
AcDbLine
 10
253.20001
 20
245.499263
 11
253.200061
 21
251.999954
  0
LINE
  5
2A5
100
AcDbEntity
  8
レイヤ3
  6
CONTINUOUS
 62
     0
100
AcDbLine
 10
275.200045
 20
249.99996
 11
275.2000083823
 21
245.498686
  0
LINE
  5
2A6
100
AcDbEntity
  8
レイヤ3
  6
CONTINUOUS
 62
     0
100
AcDbLine
 10
267.300046
 20
258.499954
 11
267.300046
 21
259.999954
  0
LINE
  5
2A7
100
AcDbEntity
  8
レイヤ3
  6
CONTINUOUS
 62
     0
100
AcDbLine
 10
257.500046
 20
259.999954
 11
257.500046
 21
258.499954
  0
LINE
  5
2A8
100
AcDbEntity
  8
レイヤ3
  6
CONTINUOUS
 62
     0
100
AcDbLine
 10
275.404836
 20
258.499954
 11
253.104836
 21
258.499954
  0
LINE
  5
2A9
100
AcDbEntity
  8
レイヤ3
  6
CONTINUOUS
 62
     0
100
AcDbLine
 10
270.300046
 20
259.999954
 11
270.300046
 21
262.599954
  0
LINE
  5
2AA
100
AcDbEntity
  8
レイヤ3
  6
CONTINUOUS
 62
     0
100
AcDbLine
 10
254.500046
 20
259.999954
 11
270.300046
 21
259.999954
  0
LINE
  5
2AB
100
AcDbEntity
  8
レイヤ3
  6
CONTINUOUS
 62
     0
100
AcDbLine
 10
257.500046
 20
258.499954
 11
254.500046
 21
258.499954
  0
LINE
  5
2AC
100
AcDbEntity
  8
レイヤ3
  6
CONTINUOUS
 62
     0
100
AcDbLine
 10
270.300046
 20
262.599954
 11
254.500046
 21
262.599954
  0
LINE
  5
2AD
100
AcDbEntity
  8
レイヤ3
  6
CONTINUOUS
 62
     0
100
AcDbLine
 10
254.500046
 20
262.599954
 11
254.500046
 21
259.999954
  0
LINE
  5
2AE
100
AcDbEntity
  8
レイヤ3
  6
CONTINUOUS
 62
     0
100
AcDbLine
 10
253.104836
 20
251.999954
 11
253.200061
 21
251.999954
  0
LINE
  5
2AF
100
AcDbEntity
  8
レイヤ3
  6
CONTINUOUS
 62
     0
100
AcDbLine
 10
275.200045
 20
249.999954
 11
275.404836
 21
249.999954
  0
LINE
  5
2B0
100
AcDbEntity
  8
レイヤ3
  6
CONTINUOUS
 62
     0
100
AcDbLine
 10
253.104836
 20
258.499954
 11
253.104836
 21
251.999954
  0
LINE
  5
2B1
100
AcDbEntity
  8
レイヤ3
  6
CONTINUOUS
 62
     0
100
AcDbLine
 10
275.404836
 20
249.999954
 11
275.404836
 21
258.499954
  0
LINE
  5
2B2
100
AcDbEntity
  8
レイヤ3
  6
CONTINUOUS
 62
     0
100
AcDbLine
 10
251.149867
 20
253.499966
 11
228.598697
 21
253.499966
  0
LINE
  5
2B3
100
AcDbEntity
  8
レイヤ3
  6
CONTINUOUS
 62
     0
100
AcDbLine
 10
228.598697
 20
240.149966
 11
228.598697
 21
253.499966
  0
LINE
  5
2B4
100
AcDbEntity
  8
レイヤ3
  6
CONTINUOUS
 62
     0
100
AcDbLine
 10
250.799876
 20
170
 11
250.799876
 21
238.538082
  0
LINE
  5
2B5
100
AcDbEntity
  8
レイヤ3
  6
CONTINUOUS
 62
     0
100
AcDbLine
 10
259.501231
 20
170
 11
259.501381
 21
245.498913
  0
LINE
  5
2B6
100
AcDbEntity
  8
レイヤ3
  6
CONTINUOUS
 62
     0
100
AcDbLine
 10
228.598697
 20
170
 11
228.598697
 21
238.499966
  0
LINE
  5
2B7
100
AcDbEntity
  8
レイヤ3
  6
CONTINUOUS
 62
     0
100
AcDbLine
 10
233.799855
 20
170
 11
233.799855
 21
239
  0
LINE
  5
2B8
100
AcDbEntity
  8
レイヤ3
  6
CONTINUOUS
 62
     0
100
AcDbLine
 10
233.799855
 20
224.899972
 11
233.799855
 21
225.199981
  0
LINE
  5
2B9
100
AcDbEntity
  8
レイヤ3
  6
CONTINUOUS
 62
     0
100
AcDbLine
 10
227.499906
 20
170
 11
227.499906
 21
238.499945
  0
LINE
  5
2BA
100
AcDbEntity
  8
レイヤ3
  6
CONTINUOUS
 62
     0
100
AcDbLine
 10
225.000057
 20
170
 11
225.000057
 21
238.4999995
  0
LINE
  5
2BB
100
AcDbEntity
  8
レイヤ3
  6
CONTINUOUS
 62
     0
100
AcDbLine
 10
295.000064
 20
238.499945
 11
295.000064
 21
170
  0
LINE
  5
2BC
100
AcDbEntity
  8
レイヤ3
  6
CONTINUOUS
 62
     0
100
AcDbLine
 10
293.35007
 20
238.499945
 11
293.35007
 21
170
  0
LINE
  5
2BD
100
AcDbEntity
  8
レイヤ3
  6
CONTINUOUS
 62
     0
100
AcDbLine
 10
262.001128
 20
170
 11
262.000568
 21
245.499393
  0
LINE
  5
2BE
100
AcDbEntity
  8
レイヤ3
  6
CONTINUOUS
 62
     0
100
AcDbLine
 10
252.799859
 20
245.499009
 11
268.528276
 21
245.498783
  0
LINE
  5
2BF
100
AcDbEntity
  8
レイヤ3
  6
CONTINUOUS
 62
     0
100
AcDbLine
 10
287.050248
 20
245.499388
 11
284.500537
 21
245.499637
  0
LINE
  5
2C0
100
AcDbEntity
  8
レイヤ3
  6
CONTINUOUS
 62
     0
100
AcDbLine
 10
252.799997
 20
170
 11
252.799997
 21
238.538082
  0
LINE
  5
2C1
100
AcDbEntity
  8
レイヤ3
  6
CONTINUOUS
 62
     0
100
AcDbLine
 10
287.000257
 20
170
 11
287.000248
 21
245.4992
  0
LINE
  5
2C2
100
AcDbEntity
  8
レイヤ7
  6
CONTINUOUS
 62
     0
100
AcDbLine
 10
233.8
 20
242.5
 11
233.8
 21
238.5
  0
LINE
  5
2C3
100
AcDbEntity
  8
レイヤ7
  6
CONTINUOUS
 62
     0
100
AcDbLine
 10
240.8
 20
246.5
 11
240.8
 21
169.9
  0
LINE
  5
2C4
100
AcDbEntity
  8
レイヤ7
  6
CONTINUOUS
 62
     0
100
AcDbLine
 10
243.8
 20
246.5
 11
243.8
 21
169.9
  0
LINE
  5
2C5
100
AcDbEntity
  8
レイヤ7
  6
CONTINUOUS
 62
     0
100
AcDbLine
 10
239.8
 20
242.5
 11
233.8
 21
242.5
  0
LINE
  5
2C6
100
AcDbEntity
  8
レイヤ7
  6
CONTINUOUS
 62
     0
100
AcDbLine
 10
239.8
 20
246.5
 11
239.8
 21
169.9
  0
LINE
  5
2C7
100
AcDbEntity
  8
レイヤ7
  6
CONTINUOUS
 62
     0
100
AcDbLine
 10
244.8
 20
246.5
 11
244.8
 21
169.9
  0
LINE
  5
2C8
100
AcDbEntity
  8
レイヤ7
  6
CONTINUOUS
 62
     0
100
AcDbLine
 10
239.8
 20
246.5
 11
244.8
 21
246.5
  0
LINE
  5
2C9
100
AcDbEntity
  8
レイヤ7
  6
CONTINUOUS
 62
     0
100
AcDbLine
 10
233.8
 20
238.5
 11
239.8
 21
237
  0
LINE
  5
2CA
100
AcDbEntity
  8
レイヤ7
  6
CONTINUOUS
 62
     0
100
AcDbLine
 10
239.8
 20
237
 11
239.8
 21
242.5
  0
LINE
  5
2CB
100
AcDbEntity
  8
レイヤ7
  6
CONTINUOUS
 62
     0
100
AcDbLine
 10
239.7142135624
 20
242.5
 11
239.8
 21
242.4142135624
  0
LINE
  5
2CC
100
AcDbEntity
  8
レイヤ7
  6
CONTINUOUS
 62
     0
100
AcDbLine
 10
233.8
 20
238.5147186258
 11
233.8196248343
 21
238.4950937914
  0
LINE
  5
2CD
100
AcDbEntity
  8
レイヤ7
  6
CONTINUOUS
 62
     0
100
AcDbLine
 10
250.8
 20
238.5
 11
244.8
 21
237
  0
LINE
  5
2CE
100
AcDbEntity
  8
レイヤ7
  6
CONTINUOUS
 62
     0
100
AcDbLine
 10
244.8
 20
242.5
 11
250.8
 21
242.5
  0
LINE
  5
2CF
100
AcDbEntity
  8
レイヤ7
  6
CONTINUOUS
 62
     0
100
AcDbLine
 10
244.8857864376
 20
242.5
 11
244.8
 21
242.4142135624
  0
LINE
  5
2D0
100
AcDbEntity
  8
レイヤ7
  6
CONTINUOUS
 62
     0
100
AcDbLine
 10
244.8
 20
237
 11
244.8
 21
242.5
  0
LINE
  5
2D1
100
AcDbEntity
  8
レイヤ7
  6
CONTINUOUS
 62
     0
100
AcDbLine
 10
250.8
 20
242.5
 11
250.8
 21
238.5
  0
LINE
  5
2D2
100
AcDbEntity
  8
レイヤ7
  6
CONTINUOUS
 62
     0
100
AcDbLine
 10
250.8
 20
238.5147186258
 11
250.7803751657
 21
238.4950937914
  0
LINE
  5
2D3
100
AcDbEntity
  8
レイヤ7
  6
CONTINUOUS
 62
     0
100
AcDbLine
 10
274
 20
214.5
 11
274
 21
169.9
  0
LINE
  5
2D4
100
AcDbEntity
  8
レイヤ7
  6
CONTINUOUS
 62
     0
100
AcDbLine
 10
279
 20
214.5
 11
279
 21
169.9
  0
LINE
  5
2D5
100
AcDbEntity
  8
レイヤ7
  6
CONTINUOUS
 62
     0
100
AcDbLine
 10
275
 20
214.5
 11
275
 21
169.9
  0
LINE
  5
2D6
100
AcDbEntity
  8
レイヤ7
  6
CONTINUOUS
 62
     0
100
AcDbLine
 10
278
 20
214.5
 11
278
 21
169.9
  0
LINE
  5
2D7
100
AcDbEntity
  8
レイヤ7
  6
CONTINUOUS
 62
     0
100
AcDbLine
 10
269.5
 20
206
 11
274
 21
206
  0
LINE
  5
2D8
100
AcDbEntity
  8
レイヤ7
  6
CONTINUOUS
 62
     0
100
AcDbLine
 10
283.5
 20
206
 11
279
 21
206
  0
LINE
  5
2D9
100
AcDbEntity
  8
レイヤ7
  6
CONTINUOUS
 62
     0
100
AcDbLine
 10
274
 20
214.5
 11
279
 21
214.5
  0
ARC
  5
2DA
100
AcDbEntity
  8
レイヤ3
  6
CONTINUOUS
 62
     0
100
AcDbCircle
 10
277.5247462614
 20
246.6685929765
 40
0.075
100
AcDbArc
 50
50.00000000004
 51
226.4187247401
  0
ARC
  5
2DB
100
AcDbEntity
  8
レイヤ3
  6
CONTINUOUS
 62
     0
100
AcDbCircle
 10
283.2002711362
 20
243.6962060712
 40
0.3
100
AcDbArc
 50
0
 51
90
  0
ARC
  5
2DC
100
AcDbEntity
  8
レイヤ3
  6
CONTINUOUS
 62
     0
100
AcDbCircle
 10
283.2002711362
 20
237.6962060712
 40
0.3
100
AcDbArc
 50
-90
 51
0
  0
ARC
  5
2DD
100
AcDbEntity
  8
レイヤ3
  6
CONTINUOUS
 62
     0
100
AcDbCircle
 10
282.6002711362
 20
237.6962060712
 40
0.3
100
AcDbArc
 50
-179.9999938591
 51
-90
  0
ARC
  5
2DE
100
AcDbEntity
  8
レイヤ3
  6
CONTINUOUS
 62
     0
100
AcDbCircle
 10
282.6002711362
 20
243.6962060712
 40
0.3
100
AcDbArc
 50
90
 51
180
  0
ARC
  5
2DF
100
AcDbEntity
  8
レイヤ3
  6
CONTINUOUS
 62
     0
100
AcDbCircle
 10
279.3725178094
 20
245.3757873029
 40
1.124697521623
100
AcDbArc
 50
92.15824469902
 51
146.246707332
  0
ARC
  5
2E0
100
AcDbEntity
  8
レイヤ3
  6
CONTINUOUS
 62
     0
100
AcDbCircle
 10
273.6280823523
 20
245.3760336372
 40
1.124540806852
100
AcDbArc
 50
22.06430238981
 51
87.84482773934
  0
ARC
  5
2E1
100
AcDbEntity
  8
レイヤ7
  6
CONTINUOUS
 62
     0
100
AcDbCircle
 10
283.5
 20
207.5
 40
1.5
100
AcDbArc
 50
-90
 51
0
  0
ARC
  5
2E2
100
AcDbEntity
  8
レイヤ7
  6
CONTINUOUS
 62
     0
100
AcDbCircle
 10
269.5
 20
207.5
 40
1.5
100
AcDbArc
 50
-179.9999938591
 51
-90
  0
LINE
  5
2E3
100
AcDbEntity
  8
レイヤ6
  6
CONTINUOUS
 62
     0
100
AcDbLine
 10
295
 20
258.5
 11
296
 21
259.5
  0
LINE
  5
2E4
100
AcDbEntity
  8
レイヤ6
  6
CONTINUOUS
 62
     0
100
AcDbLine
 10
296
 20
259.5
 11
309
 21
259.5
  0
LINE
  5
2E5
100
AcDbEntity
  8
レイヤ6
  6
CONTINUOUS
 62
     0
100
AcDbLine
 10
309
 20
259.5
 11
310
 21
258.5
  0
LINE
  5
2E6
100
AcDbEntity
  8
レイヤ6
  6
CONTINUOUS
 62
     0
100
AcDbLine
 10
347
 20
308.5
 11
355
 21
308.5
  0
LINE
  5
2E7
100
AcDbEntity
  8
レイヤ6
  6
CONTINUOUS
 62
     0
100
AcDbLine
 10
355
 20
298.3528003827
 11
349.8527977082
 21
303.5
  0
LINE
  5
2E8
100
AcDbEntity
  8
レイヤ6
  6
CONTINUOUS
 62
     0
100
AcDbLine
 10
355
 20
303.5
 11
347
 21
303.5
  0
LINE
  5
2E9
100
AcDbEntity
  8
レイヤ6
  6
CONTINUOUS
 62
     0
100
AcDbLine
 10
355
 20
258.5
 11
355
 21
303.5
  0
LINE
  5
2EA
100
AcDbEntity
  8
レイヤ6
  6
CONTINUOUS
 62
     0
100
AcDbLine
 10
351
 20
303.5
 11
351
 21
308.5
  0
LINE
  5
2EB
100
AcDbEntity
  8
レイヤ6
  6
CONTINUOUS
 62
     0
100
AcDbLine
 10
347
 20
303.5
 11
347
 21
266.5
  0
LINE
  5
2EC
100
AcDbEntity
  8
レイヤ6
  6
CONTINUOUS
 62
     0
100
AcDbLine
 10
355
 20
284.3528076573
 11
347
 21
292.3528035004
  0
LINE
  5
2ED
100
AcDbEntity
  8
レイヤ6
  6
CONTINUOUS
 62
     0
100
AcDbLine
 10
355
 20
270.0685413827
 11
347
 21
278.0685372258
  0
LINE
  5
2EE
100
AcDbEntity
  8
レイヤ6
  6
CONTINUOUS
 62
     0
100
AcDbLine
 10
352.5685473939
 20
258.5
 11
344.568543237
 21
266.5
  0
LINE
  5
2EF
100
AcDbEntity
  8
レイヤ6
  6
CONTINUOUS
 62
     0
100
AcDbLine
 10
310
 20
258.5
 11
355
 21
258.5
  0
LINE
  5
2F0
100
AcDbEntity
  8
レイヤ6
  6
CONTINUOUS
 62
     0
100
AcDbLine
 10
347
 20
266.5
 11
295.000061
 21
266.5
  0
LINE
  5
2F1
100
AcDbEntity
  8
レイヤ6
  6
CONTINUOUS
 62
     0
100
AcDbLine
 10
338.284273697
 20
258.5
 11
330.28426954
 21
266.5
  0
LINE
  5
2F2
100
AcDbEntity
  8
レイヤ6
  6
CONTINUOUS
 62
     0
100
AcDbLine
 10
324.284273697
 20
258.5
 11
316.28426954
 21
266.5
  0
LINE
  5
2F3
100
AcDbEntity
  8
レイヤ6
  6
CONTINUOUS
 62
     0
100
AcDbLine
 10
310
 20
266.5
 11
310
 21
258.5
  0
LINE
  5
2F4
100
AcDbEntity
  8
レイヤ6
  6
CONTINUOUS
 62
     0
100
AcDbLine
 10
310
 20
170
 11
310
 21
258.5
  0
LINE
  5
2F5
100
AcDbEntity
  8
レイヤ6
  6
CONTINUOUS
 62
     0
100
AcDbLine
 10
355
 20
258.5
 11
355
 21
170
  0
LINE
  5
2F6
100
AcDbEntity
  8
レイヤ6
  6
CONTINUOUS
 62
     0
100
AcDbLine
 10
310.7207592201
 20
269.5
 11
344
 21
269.5
  0
LINE
  5
2F7
100
AcDbEntity
  8
レイヤ6
  6
CONTINUOUS
 62
     0
100
AcDbLine
 10
300.7207592201
 20
299.5
 11
310.7207592201
 21
269.5
  0
LINE
  5
2F8
100
AcDbEntity
  8
レイヤ6
  6
CONTINUOUS
 62
     0
100
AcDbLine
 10
300
 20
298.5
 11
310
 21
268.5
  0
LINE
  5
2F9
100
AcDbEntity
  8
レイヤ6
  6
CONTINUOUS
 62
     0
100
AcDbLine
 10
310
 20
268.5
 11
345
 21
268.5
  0
LINE
  5
2FA
100
AcDbEntity
  8
レイヤ6
  6
CONTINUOUS
 62
     0
100
AcDbLine
 10
195
 20
298.5
 11
300
 21
298.5
  0
LINE
  5
2FB
100
AcDbEntity
  8
レイヤ6
  6
CONTINUOUS
 62
     0
100
AcDbLine
 10
196
 20
299.5
 11
300.7207592201
 21
299.5
  0
LINE
  5
2FC
100
AcDbEntity
  8
レイヤ6
  6
CONTINUOUS
 62
     0
100
AcDbLine
 10
355
 20
397.4898436574
 11
347
 21
405.4898395005
  0
LINE
  5
2FD
100
AcDbEntity
  8
レイヤ6
  6
CONTINUOUS
 62
     0
100
AcDbLine
 10
355
 20
383.2055773828
 11
347
 21
391.2055732259
  0
LINE
  5
2FE
100
AcDbEntity
  8
レイヤ6
  6
CONTINUOUS
 62
     0
100
AcDbLine
 10
355
 20
369.2055846574
 11
347
 21
377.2055805005
  0
LINE
  5
2FF
100
AcDbEntity
  8
レイヤ6
  6
CONTINUOUS
 62
     0
100
AcDbLine
 10
355
 20
354.9213183828
 11
347
 21
362.9213142258
  0
LINE
  5
300
100
AcDbEntity
  8
レイヤ6
  6
CONTINUOUS
 62
     0
100
AcDbLine
 10
355
 20
340.9213256574
 11
347
 21
348.9213215004
  0
LINE
  5
301
100
AcDbEntity
  8
レイヤ6
  6
CONTINUOUS
 62
     0
100
AcDbLine
 10
355
 20
326.6370593827
 11
347
 21
334.6370552258
  0
LINE
  5
302
100
AcDbEntity
  8
レイヤ6
  6
CONTINUOUS
 62
     0
100
AcDbLine
 10
355
 20
312.6370666574
 11
347
 21
320.6370625004
  0
LINE
  5
303
100
AcDbEntity
  8
レイヤ6
  6
CONTINUOUS
 62
     0
100
AcDbLine
 10
310
 20
262.5000005196
 11
307
 21
259.5
  0
LINE
  5
304
100
AcDbEntity
  8
レイヤ6
  6
CONTINUOUS
 62
     0
100
AcDbLine
 10
310
 20
265.5000010392
 11
304
 21
259.5
  0
LINE
  5
305
100
AcDbEntity
  8
レイヤ6
  6
CONTINUOUS
 62
     0
100
AcDbLine
 10
307.9999987876
 20
266.5
 11
301
 21
259.5
  0
LINE
  5
306
100
AcDbEntity
  8
レイヤ6
  6
CONTINUOUS
 62
     0
100
AcDbLine
 10
304.9999987876
 20
266.5
 11
298
 21
259.5
  0
LINE
  5
307
100
AcDbEntity
  8
レイヤ6
  6
CONTINUOUS
 62
     0
100
AcDbLine
 10
301.9999987876
 20
266.5
 11
295
 21
259.5
  0
LINE
  5
308
100
AcDbEntity
  8
レイヤ6
  6
CONTINUOUS
 62
     0
100
AcDbLine
 10
298.9999987876
 20
266.5
 11
295
 21
262.5000005196
  0
LINE
  5
309
100
AcDbEntity
  8
レイヤ6
  6
CONTINUOUS
 62
     0
100
AcDbLine
 10
302.9999963627
 20
266.5
 11
310
 21
259.5
  0
LINE
  5
30A
100
AcDbEntity
  8
レイヤ6
  6
CONTINUOUS
 62
     0
100
AcDbLine
 10
299.9999963627
 20
266.5
 11
307
 21
259.5
  0
LINE
  5
30B
100
AcDbEntity
  8
レイヤ6
  6
CONTINUOUS
 62
     0
100
AcDbLine
 10
296.9999963627
 20
266.5
 11
304
 21
259.5
  0
LINE
  5
30C
100
AcDbEntity
  8
レイヤ6
  6
CONTINUOUS
 62
     0
100
AcDbLine
 10
295
 20
265.4999968823
 11
301
 21
259.5
  0
LINE
  5
30D
100
AcDbEntity
  8
レイヤ6
  6
CONTINUOUS
 62
     0
100
AcDbLine
 10
295
 20
262.4999984412
 11
298
 21
259.5
  0
LINE
  5
30E
100
AcDbEntity
  8
レイヤ6
  6
CONTINUOUS
 62
     0
100
AcDbLine
 10
305.9999963627
 20
266.5
 11
310
 21
262.4999984412
  0
LINE
  5
30F
100
AcDbEntity
  8
レイヤ6
  6
CONTINUOUS
 62
     0
100
AcDbLine
 10
308.9999963627
 20
266.5
 11
310
 21
265.4999968823
  0
LINE
  5
310
100
AcDbEntity
  8
レイヤ6
  6
CONTINUOUS
 62
     0
100
AcDbLine
 10
295.9999987876
 20
266.5
 11
295
 21
265.5000010392
  0
LINE
  5
311
100
AcDbEntity
  8
レイヤ7
  6
CONTINUOUS
 62
     0
100
AcDbLine
 10
244.8
 20
241.6568542495
 11
248.5254833996
 21
237.9313708499
  0
LINE
  5
312
100
AcDbEntity
  8
レイヤ7
  6
CONTINUOUS
 62
     0
100
AcDbLine
 10
245.3710678119
 20
242.5
 11
249.6568542495
 21
238.2142135624
  0
LINE
  5
313
100
AcDbEntity
  8
レイヤ7
  6
CONTINUOUS
 62
     0
100
AcDbLine
 10
246.7852813742
 20
242.5
 11
250.7882250994
 21
238.4970562748
  0
LINE
  5
314
100
AcDbEntity
  8
レイヤ7
  6
CONTINUOUS
 62
     0
100
AcDbLine
 10
250.5426406871
 20
242.5
 11
245.1235209162
 21
237.080880229
  0
LINE
  5
315
100
AcDbEntity
  8
レイヤ7
  6
CONTINUOUS
 62
     0
100
AcDbLine
 10
249.1284271247
 20
242.5
 11
244.8
 21
238.1715728753
  0
LINE
  5
316
100
AcDbEntity
  8
レイヤ7
  6
CONTINUOUS
 62
     0
100
AcDbLine
 10
247.7142135624
 20
242.5
 11
244.8
 21
239.5857864376
  0
LINE
  5
317
100
AcDbEntity
  8
レイヤ7
  6
CONTINUOUS
 62
     0
100
AcDbLine
 10
250.8
 20
241.3431457505
 11
247.0091389993
 21
237.5522847498
  0
LINE
  5
318
100
AcDbEntity
  8
レイヤ7
  6
CONTINUOUS
 62
     0
100
AcDbLine
 10
246.3
 20
242.5
 11
244.8
 21
241
  0
LINE
  5
319
100
AcDbEntity
  8
レイヤ7
  6
CONTINUOUS
 62
     0
100
AcDbLine
 10
244.8
 20
237.4142135624
 11
245.1313708499
 21
237.0828427125
  0
LINE
  5
31A
100
AcDbEntity
  8
レイヤ7
  6
CONTINUOUS
 62
     0
100
AcDbLine
 10
244.8
 20
238.8284271247
 11
246.2627416998
 21
237.3656854249
  0
LINE
  5
31B
100
AcDbEntity
  8
レイヤ7
  6
CONTINUOUS
 62
     0
100
AcDbLine
 10
244.8
 20
240.2426406871
 11
247.3941125497
 21
237.6485281374
  0
LINE
  5
31C
100
AcDbEntity
  8
レイヤ7
  6
CONTINUOUS
 62
     0
100
AcDbLine
 10
248.1994949366
 20
242.5
 11
250.8
 21
239.8994949366
  0
LINE
  5
31D
100
AcDbEntity
  8
レイヤ7
  6
CONTINUOUS
 62
     0
100
AcDbLine
 10
249.613708499
 20
242.5
 11
250.8
 21
241.313708499
  0
LINE
  5
31E
100
AcDbEntity
  8
レイヤ7
  6
CONTINUOUS
 62
     0
100
AcDbLine
 10
250.8
 20
239.9289321881
 11
248.8947570825
 21
238.0236892706
  0
LINE
  5
31F
100
AcDbEntity
  8
レイヤ7
  6
CONTINUOUS
 62
     0
100
AcDbLine
 10
234.0573593129
 20
242.5
 11
239.4764790838
 21
237.080880229
  0
LINE
  5
320
100
AcDbEntity
  8
レイヤ7
  6
CONTINUOUS
 62
     0
100
AcDbLine
 10
234.986291501
 20
242.5
 11
233.8
 21
241.313708499
  0
LINE
  5
321
100
AcDbEntity
  8
レイヤ7
  6
CONTINUOUS
 62
     0
100
AcDbLine
 10
236.4005050634
 20
242.5
 11
233.8
 21
239.8994949366
  0
LINE
  5
322
100
AcDbEntity
  8
レイヤ7
  6
CONTINUOUS
 62
     0
100
AcDbLine
 10
233.8
 20
241.3431457505
 11
237.5908610007
 21
237.5522847498
  0
LINE
  5
323
100
AcDbEntity
  8
レイヤ7
  6
CONTINUOUS
 62
     0
100
AcDbLine
 10
237.8147186258
 20
242.5
 11
233.8117749006
 21
238.4970562748
  0
LINE
  5
324
100
AcDbEntity
  8
レイヤ7
  6
CONTINUOUS
 62
     0
100
AcDbLine
 10
239.2289321881
 20
242.5
 11
234.9431457505
 21
238.2142135624
  0
LINE
  5
325
100
AcDbEntity
  8
レイヤ7
  6
CONTINUOUS
 62
     0
100
AcDbLine
 10
235.4715728753
 20
242.5
 11
239.8
 21
238.1715728753
  0
LINE
  5
326
100
AcDbEntity
  8
レイヤ7
  6
CONTINUOUS
 62
     0
100
AcDbLine
 10
236.8857864376
 20
242.5
 11
239.8
 21
239.5857864376
  0
LINE
  5
327
100
AcDbEntity
  8
レイヤ7
  6
CONTINUOUS
 62
     0
100
AcDbLine
 10
238.3
 20
242.5
 11
239.8
 21
241
  0
LINE
  5
328
100
AcDbEntity
  8
レイヤ7
  6
CONTINUOUS
 62
     0
100
AcDbLine
 10
239.8
 20
241.6568542495
 11
236.0745166004
 21
237.9313708499
  0
LINE
  5
329
100
AcDbEntity
  8
レイヤ7
  6
CONTINUOUS
 62
     0
100
AcDbLine
 10
239.8
 20
240.2426406871
 11
237.2058874503
 21
237.6485281374
  0
LINE
  5
32A
100
AcDbEntity
  8
レイヤ7
  6
CONTINUOUS
 62
     0
100
AcDbLine
 10
239.8
 20
238.8284271247
 11
238.3372583002
 21
237.3656854249
  0
LINE
  5
32B
100
AcDbEntity
  8
レイヤ7
  6
CONTINUOUS
 62
     0
100
AcDbLine
 10
239.8
 20
237.4142135624
 11
239.4686291501
 21
237.0828427125
  0
LINE
  5
32C
100
AcDbEntity
  8
レイヤ7
  6
CONTINUOUS
 62
     0
100
AcDbLine
 10
233.8
 20
239.9289321881
 11
235.7052429175
 21
238.0236892706
  0
LINE
  5
32D
100
AcDbEntity
  8
レイヤ6
  6
CONTINUOUS
 62
     0
100
AcDbLine
 10
196
 20
372.4898899031
 11
233.2113722846
 21
409.7012428522
  0
LINE
  5
32E
100
AcDbEntity
  8
レイヤ6
  6
CONTINUOUS
 62
     0
100
AcDbLine
 10
196
 20
364.0046122031
 11
241.6966543937
 21
409.7012428522
  0
LINE
  5
32F
100
AcDbEntity
  8
レイヤ6
  6
CONTINUOUS
 62
     0
100
AcDbLine
 10
196
 20
368.2472510531
 11
237.4540133392
 21
409.7012428522
  0
LINE
  5
330
100
AcDbEntity
  8
レイヤ6
  6
CONTINUOUS
 62
     0
100
AcDbLine
 10
306.8512243018
 20
281.1086047548
 11
344
 21
318.25736115
  0
LINE
  5
331
100
AcDbEntity
  8
レイヤ6
  6
CONTINUOUS
 62
     0
100
AcDbLine
 10
305.7905644515
 20
284.2905843057
 11
344
 21
322.5
  0
LINE
  5
332
100
AcDbEntity
  8
レイヤ6
  6
CONTINUOUS
 62
     0
100
AcDbLine
 10
307.9118841521
 20
277.926625204
 11
344
 21
314.0147223
  0
LINE
  5
333
100
AcDbEntity
  8
レイヤ6
  6
CONTINUOUS
 62
     0
100
AcDbLine
 10
230.4903122186
 20
299.5
 11
340.691612333
 21
409.7012428522
  0
LINE
  5
334
100
AcDbEntity
  8
レイヤ6
  6
CONTINUOUS
 62
     0
100
AcDbLine
 10
226.2476711641
 20
299.5
 11
336.4489712785
 21
409.7012428522
  0
LINE
  5
335
100
AcDbEntity
  8
レイヤ6
  6
CONTINUOUS
 62
     0
100
AcDbLine
 10
222.0050301095
 20
299.5
 11
332.2063302239
 21
409.7012428522
  0
LINE
  5
336
100
AcDbEntity
  8
レイヤ3
  6
CONTINUOUS
 62
     0
100
AcDbLine
 10
225.500061
 20
268.4999689824
 11
225.000061
 21
267.9999689824
  0
LINE
  5
337
100
AcDbEntity
  8
レイヤ3
  6
CONTINUOUS
 62
     0
100
AcDbLine
 10
225.000061
 20
254.6299995
 11
160.6902426909
 21
254.6299995
  0
LINE
  5
338
100
AcDbEntity
  8
レイヤ2
  6
CONTINUOUS
 62
     0
100
AcDbLine
 10
205.000061
 20
254.6299995
 11
205.000061
 21
256.1299995
  0
LINE
  5
339
100
AcDbEntity
  8
レイヤ3
  6
CONTINUOUS
 62
     0
100
AcDbLine
 10
225.000061
 20
256.1299995
 11
206.500061
 21
256.1299995
  0
LINE
  5
33A
100
AcDbEntity
  8
レイヤ3
  6
CONTINUOUS
 62
     0
100
AcDbLine
 10
225.000061
 20
279.6299995
 11
179.6902426909
 21
279.6299995
  0
LINE
  5
33B
100
AcDbEntity
  8
レイヤ3
  6
CONTINUOUS
 62
     0
100
AcDbLine
 10
205.000061
 20
254.6299995
 11
205.000061
 21
259.6299995
  0
LINE
  5
33C
100
AcDbEntity
  8
レイヤ3
  6
CONTINUOUS
 62
     0
100
AcDbLine
 10
205.000061
 20
259.6299995
 11
225.000061
 21
259.6299995
  0
LINE
  5
33D
100
AcDbEntity
  8
レイヤ3
  6
CONTINUOUS
 62
     0
100
AcDbLine
 10
209.000061
 20
259.6299995
 11
209.000061
 21
258.1299995
  0
LINE
  5
33E
100
AcDbEntity
  8
レイヤ3
  6
CONTINUOUS
 62
     0
100
AcDbLine
 10
209.000061
 20
258.1299995
 11
206.500061
 21
258.1299995
  0
LINE
  5
33F
100
AcDbEntity
  8
レイヤ3
  6
CONTINUOUS
 62
     0
100
AcDbLine
 10
206.500061
 20
256.1299995
 11
206.500061
 21
258.1299995
  0
LINE
  5
340
100
AcDbEntity
  8
レイヤ3
  6
CONTINUOUS
 62
     0
100
AcDbLine
 10
170.6902426909
 20
274.0847054658
 11
179.6902426909
 21
274.0847054658
  0
LINE
  5
341
100
AcDbEntity
  8
レイヤ3
  6
CONTINUOUS
 62
     0
100
AcDbLine
 10
170.6902426909
 20
279.6299995
 11
160.6902426909
 21
279.6299995
  0
LINE
  5
342
100
AcDbEntity
  8
レイヤ2
  6
CONTINUOUS
 62
     0
100
AcDbLine
 10
160.6902426909
 20
254.6299995
 11
160.6902426909
 21
279.6299995
  0
LINE
  5
343
100
AcDbEntity
  8
レイヤ3
  6
CONTINUOUS
 62
     0
100
AcDbLine
 10
225.000061
 20
254.6299995
 11
225.000061
 21
238.4999995
  0
LINE
  5
344
100
AcDbEntity
  8
レイヤ3
  6
CONTINUOUS
 62
     0
100
AcDbLine
 10
225.000061
 20
254.6299995
 11
225.000061
 21
238.4999995
  0
LINE
  5
345
100
AcDbEntity
  8
レイヤ2
  6
CONTINUOUS
 62
     0
100
AcDbLine
 10
170.6902426909
 20
274.0847054658
 11
170.6902426909
 21
409.7012428522
  0
LINE
  5
346
100
AcDbEntity
  8
レイヤ2
  6
CONTINUOUS
 62
     0
100
AcDbLine
 10
179.6902426909
 20
274.0847054658
 11
179.6902426909
 21
409.7012428522
  0
LINE
  5
347
100
AcDbEntity
  8
レイヤ3
  6
CONTINUOUS
 62
     0
100
AcDbLine
 10
225.000061
 20
279.6299995
 11
225.000061
 21
256.1299995
  0
LINE
  5
348
100
AcDbEntity
  8
レイヤ1
  6
CONTINUOUS
 62
     0
100
AcDbLine
 10
355
 20
355.5
 11
355
 21
341.5
  0
LINE
  5
349
100
AcDbEntity
  8
レイヤ1
  6
CONTINUOUS
 62
     0
100
AcDbLine
 10
360
 20
349
 11
359.5
 21
348.5
  0
LINE
  5
34A
100
AcDbEntity
  8
レイヤ1
  6
CONTINUOUS
 62
     0
100
AcDbLine
 10
359.5
 20
348.5
 11
360
 21
348
  0
LINE
  5
34B
100
AcDbEntity
  8
レイヤ1
  6
CONTINUOUS
 62
     0
100
AcDbLine
 10
355
 20
355.5
 11
355
 21
341.5
  0
LINE
  5
34C
100
AcDbEntity
  8
レイヤ1
  6
CONTINUOUS
 62
     0
100
AcDbLine
 10
350.1
 20
352.5
 11
350.1
 21
344.5
  0
LINE
  5
34D
100
AcDbEntity
  8
レイヤ1
  6
CONTINUOUS
 62
     0
100
AcDbLine
 10
350.725
 20
352.5
 11
351.35
 21
344.5
  0
LINE
  5
34E
100
AcDbEntity
  8
レイヤ1
  6
CONTINUOUS
 62
     0
100
AcDbLine
 10
351.3500000708
 20
351.823417
 11
351.975
 21
345.176583
  0
LINE
  5
34F
100
AcDbEntity
  8
レイヤ1
  6
CONTINUOUS
 62
     0
100
AcDbLine
 10
350.178125
 20
351.823417
 11
350.725
 21
345.176583
  0
LINE
  5
350
100
AcDbEntity
  8
レイヤ1
  6
CONTINUOUS
 62
     0
100
AcDbLine
 10
351.9750001239
 20
352.5
 11
352.6000001239
 21
344.5
  0
LINE
  5
351
100
AcDbEntity
  8
レイヤ1
  6
CONTINUOUS
 62
     0
100
AcDbLine
 10
352.6000001947
 20
351.823417
 11
353.2250001239
 21
345.176583
  0
LINE
  5
352
100
AcDbEntity
  8
レイヤ1
  6
CONTINUOUS
 62
     0
100
AcDbLine
 10
353.2250001239
 20
352.5
 11
353.8500001239
 21
344.5
  0
LINE
  5
353
100
AcDbEntity
  8
レイヤ1
  6
CONTINUOUS
 62
     0
100
AcDbLine
 10
353.8500001947
 20
351.823417
 11
354.4750001239
 21
345.176583
  0
LINE
  5
354
100
AcDbEntity
  8
レイヤ1
  6
CONTINUOUS
 62
     0
100
AcDbLine
 10
354.4750001239
 20
352.5
 11
355.1000001239
 21
344.5
  0
LINE
  5
355
100
AcDbEntity
  8
レイヤ1
  6
CONTINUOUS
 62
     0
100
AcDbLine
 10
355.1000001947
 20
351.823417
 11
355.7250001239
 21
345.176583
  0
LINE
  5
356
100
AcDbEntity
  8
レイヤ1
  6
CONTINUOUS
 62
     0
100
AcDbLine
 10
355.7250001239
 20
352.5
 11
356.3500001239
 21
344.5
  0
LINE
  5
357
100
AcDbEntity
  8
レイヤ1
  6
CONTINUOUS
 62
     0
100
AcDbLine
 10
356.3500001947
 20
351.823417
 11
356.9750001239
 21
345.176583
  0
LINE
  5
358
100
AcDbEntity
  8
レイヤ1
  6
CONTINUOUS
 62
     0
100
AcDbLine
 10
356.9750001239
 20
352.5
 11
357.6000001239
 21
344.5
  0
LINE
  5
359
100
AcDbEntity
  8
レイヤ1
  6
CONTINUOUS
 62
     0
100
AcDbLine
 10
357.6000001947
 20
351.823417
 11
358.2250001239
 21
345.176583
  0
LINE
  5
35A
100
AcDbEntity
  8
レイヤ1
  6
CONTINUOUS
 62
     0
100
AcDbLine
 10
358.2250001239
 20
352.5
 11
358.8500001239
 21
344.5
  0
LINE
  5
35B
100
AcDbEntity
  8
レイヤ1
  6
CONTINUOUS
 62
     0
100
AcDbLine
 10
358.8500001947
 20
351.823417
 11
359.4750001239
 21
345.176583
  0
LINE
  5
35C
100
AcDbEntity
  8
レイヤ1
  6
CONTINUOUS
 62
     0
100
AcDbLine
 10
351.1937501062
 20
351.823417
 11
351.5062500354
 21
351.823417
  0
LINE
  5
35D
100
AcDbEntity
  8
レイヤ1
  6
CONTINUOUS
 62
     0
100
AcDbLine
 10
350.803124729
 20
352.5
 11
351.1937501062
 21
351.823417
  0
LINE
  5
35E
100
AcDbEntity
  8
レイヤ1
  6
CONTINUOUS
 62
     0
100
AcDbLine
 10
350.6468752887
 20
352.5
 11
350.25625
 21
351.823417
  0
LINE
  5
35F
100
AcDbEntity
  8
レイヤ1
  6
CONTINUOUS
 62
     0
100
AcDbLine
 10
350.25625
 20
351.823417
 11
350.1
 21
351.823417
  0
LINE
  5
360
100
AcDbEntity
  8
レイヤ1
  6
CONTINUOUS
 62
     0
100
AcDbLine
 10
351.5062500354
 20
351.823417
 11
351.8968754126
 21
352.5
  0
LINE
  5
361
100
AcDbEntity
  8
レイヤ1
  6
CONTINUOUS
 62
     0
100
AcDbLine
 10
352.4437501062
 20
351.823417
 11
352.7562500354
 21
351.823417
  0
LINE
  5
362
100
AcDbEntity
  8
レイヤ1
  6
CONTINUOUS
 62
     0
100
AcDbLine
 10
352.053124729
 20
352.5
 11
352.4437501062
 21
351.823417
  0
LINE
  5
363
100
AcDbEntity
  8
レイヤ1
  6
CONTINUOUS
 62
     0
100
AcDbLine
 10
352.7562500354
 20
351.823417
 11
353.1468754126
 21
352.5
  0
LINE
  5
364
100
AcDbEntity
  8
レイヤ1
  6
CONTINUOUS
 62
     0
100
AcDbLine
 10
353.6937501062
 20
351.823417
 11
354.0062500354
 21
351.823417
  0
LINE
  5
365
100
AcDbEntity
  8
レイヤ1
  6
CONTINUOUS
 62
     0
100
AcDbLine
 10
353.303124729
 20
352.5
 11
353.6937501062
 21
351.823417
  0
LINE
  5
366
100
AcDbEntity
  8
レイヤ1
  6
CONTINUOUS
 62
     0
100
AcDbLine
 10
354.0062500354
 20
351.823417
 11
354.3968754126
 21
352.5
  0
LINE
  5
367
100
AcDbEntity
  8
レイヤ1
  6
CONTINUOUS
 62
     0
100
AcDbLine
 10
354.9437501062
 20
351.823417
 11
355.2562500354
 21
351.823417
  0
LINE
  5
368
100
AcDbEntity
  8
レイヤ1
  6
CONTINUOUS
 62
     0
100
AcDbLine
 10
354.553124729
 20
352.5
 11
354.9437501062
 21
351.823417
  0
LINE
  5
369
100
AcDbEntity
  8
レイヤ1
  6
CONTINUOUS
 62
     0
100
AcDbLine
 10
355.2562500354
 20
351.823417
 11
355.6468754126
 21
352.5
  0
LINE
  5
36A
100
AcDbEntity
  8
レイヤ1
  6
CONTINUOUS
 62
     0
100
AcDbLine
 10
356.1937501062
 20
351.823417
 11
356.5062500354
 21
351.823417
  0
LINE
  5
36B
100
AcDbEntity
  8
レイヤ1
  6
CONTINUOUS
 62
     0
100
AcDbLine
 10
355.803124729
 20
352.5
 11
356.1937501062
 21
351.823417
  0
LINE
  5
36C
100
AcDbEntity
  8
レイヤ1
  6
CONTINUOUS
 62
     0
100
AcDbLine
 10
356.5062500354
 20
351.823417
 11
356.8968754126
 21
352.5
  0
LINE
  5
36D
100
AcDbEntity
  8
レイヤ1
  6
CONTINUOUS
 62
     0
100
AcDbLine
 10
357.4437501062
 20
351.823417
 11
357.7562500354
 21
351.823417
  0
LINE
  5
36E
100
AcDbEntity
  8
レイヤ1
  6
CONTINUOUS
 62
     0
100
AcDbLine
 10
357.053124729
 20
352.5
 11
357.4437501062
 21
351.823417
  0
LINE
  5
36F
100
AcDbEntity
  8
レイヤ1
  6
CONTINUOUS
 62
     0
100
AcDbLine
 10
357.7562500354
 20
351.823417
 11
358.1468754126
 21
352.5
  0
LINE
  5
370
100
AcDbEntity
  8
レイヤ1
  6
CONTINUOUS
 62
     0
100
AcDbLine
 10
358.6937501062
 20
351.823417
 11
359.0062500354
 21
351.823417
  0
LINE
  5
371
100
AcDbEntity
  8
レイヤ1
  6
CONTINUOUS
 62
     0
100
AcDbLine
 10
358.303124729
 20
352.5
 11
358.6937501062
 21
351.823417
  0
LINE
  5
372
100
AcDbEntity
  8
レイヤ1
  6
CONTINUOUS
 62
     0
100
AcDbLine
 10
359.0062500354
 20
351.823417
 11
359.3968754126
 21
352.5
  0
LINE
  5
373
100
AcDbEntity
  8
レイヤ1
  6
CONTINUOUS
 62
     0
100
AcDbLine
 10
359.553124729
 20
352.5
 11
359.9437501062
 21
351.823417
  0
LINE
  5
374
100
AcDbEntity
  8
レイヤ1
  6
CONTINUOUS
 62
     0
100
AcDbLine
 10
350.803124729
 20
352.5
 11
350.6468752887
 21
352.5
  0
LINE
  5
375
100
AcDbEntity
  8
レイヤ1
  6
CONTINUOUS
 62
     0
100
AcDbLine
 10
352.053124729
 20
352.5
 11
351.8968754126
 21
352.5
  0
LINE
  5
376
100
AcDbEntity
  8
レイヤ1
  6
CONTINUOUS
 62
     0
100
AcDbLine
 10
353.303124729
 20
352.5
 11
353.1468754126
 21
352.5
  0
LINE
  5
377
100
AcDbEntity
  8
レイヤ1
  6
CONTINUOUS
 62
     0
100
AcDbLine
 10
354.553124729
 20
352.5
 11
354.3968754126
 21
352.5
  0
LINE
  5
378
100
AcDbEntity
  8
レイヤ1
  6
CONTINUOUS
 62
     0
100
AcDbLine
 10
355.803124729
 20
352.5
 11
355.6468754126
 21
352.5
  0
LINE
  5
379
100
AcDbEntity
  8
レイヤ1
  6
CONTINUOUS
 62
     0
100
AcDbLine
 10
357.053124729
 20
352.5
 11
356.8968754126
 21
352.5
  0
LINE
  5
37A
100
AcDbEntity
  8
レイヤ1
  6
CONTINUOUS
 62
     0
100
AcDbLine
 10
358.303124729
 20
352.5
 11
358.1468754126
 21
352.5
  0
LINE
  5
37B
100
AcDbEntity
  8
レイヤ1
  6
CONTINUOUS
 62
     0
100
AcDbLine
 10
359.553124729
 20
352.5
 11
359.3968754126
 21
352.5
  0
LINE
  5
37C
100
AcDbEntity
  8
レイヤ1
  6
CONTINUOUS
 62
     0
100
AcDbLine
 10
351.8187501062
 20
345.176583
 11
352.1312500354
 21
345.176583
  0
LINE
  5
37D
100
AcDbEntity
  8
レイヤ1
  6
CONTINUOUS
 62
     0
100
AcDbLine
 10
351.428124729
 20
344.5
 11
351.8187501062
 21
345.176583
  0
LINE
  5
37E
100
AcDbEntity
  8
レイヤ1
  6
CONTINUOUS
 62
     0
100
AcDbLine
 10
352.1312500354
 20
345.176583
 11
352.5218754126
 21
344.5
  0
LINE
  5
37F
100
AcDbEntity
  8
レイヤ1
  6
CONTINUOUS
 62
     0
100
AcDbLine
 10
353.3812498938
 20
345.176583
 11
353.0687499646
 21
345.176583
  0
LINE
  5
380
100
AcDbEntity
  8
レイヤ1
  6
CONTINUOUS
 62
     0
100
AcDbLine
 10
353.771875271
 20
344.5
 11
353.3812498938
 21
345.176583
  0
LINE
  5
381
100
AcDbEntity
  8
レイヤ1
  6
CONTINUOUS
 62
     0
100
AcDbLine
 10
353.0687499646
 20
345.176583
 11
352.6781245874
 21
344.5
  0
LINE
  5
382
100
AcDbEntity
  8
レイヤ1
  6
CONTINUOUS
 62
     0
100
AcDbLine
 10
350.8812498938
 20
345.176583
 11
350.5687499646
 21
345.176583
  0
LINE
  5
383
100
AcDbEntity
  8
レイヤ1
  6
CONTINUOUS
 62
     0
100
AcDbLine
 10
351.271875271
 20
344.5
 11
350.8812498938
 21
345.176583
  0
LINE
  5
384
100
AcDbEntity
  8
レイヤ1
  6
CONTINUOUS
 62
     0
100
AcDbLine
 10
350.5687499646
 20
345.176583
 11
350.1781245874
 21
344.5
  0
LINE
  5
385
100
AcDbEntity
  8
レイヤ1
  6
CONTINUOUS
 62
     0
100
AcDbLine
 10
354.3187501062
 20
345.176583
 11
354.6312500354
 21
345.176583
  0
LINE
  5
386
100
AcDbEntity
  8
レイヤ1
  6
CONTINUOUS
 62
     0
100
AcDbLine
 10
353.928124729
 20
344.5
 11
354.3187501062
 21
345.176583
  0
LINE
  5
387
100
AcDbEntity
  8
レイヤ1
  6
CONTINUOUS
 62
     0
100
AcDbLine
 10
354.6312500354
 20
345.176583
 11
355.0218754126
 21
344.5
  0
LINE
  5
388
100
AcDbEntity
  8
レイヤ1
  6
CONTINUOUS
 62
     0
100
AcDbLine
 10
355.8812498938
 20
345.176583
 11
355.5687499646
 21
345.176583
  0
LINE
  5
389
100
AcDbEntity
  8
レイヤ1
  6
CONTINUOUS
 62
     0
100
AcDbLine
 10
356.271875271
 20
344.5
 11
355.8812498938
 21
345.176583
  0
LINE
  5
38A
100
AcDbEntity
  8
レイヤ1
  6
CONTINUOUS
 62
     0
100
AcDbLine
 10
355.5687499646
 20
345.176583
 11
355.1781245874
 21
344.5
  0
LINE
  5
38B
100
AcDbEntity
  8
レイヤ1
  6
CONTINUOUS
 62
     0
100
AcDbLine
 10
356.8187501062
 20
345.176583
 11
357.1312500354
 21
345.176583
  0
LINE
  5
38C
100
AcDbEntity
  8
レイヤ1
  6
CONTINUOUS
 62
     0
100
AcDbLine
 10
356.428124729
 20
344.5
 11
356.8187501062
 21
345.176583
  0
LINE
  5
38D
100
AcDbEntity
  8
レイヤ1
  6
CONTINUOUS
 62
     0
100
AcDbLine
 10
357.1312500354
 20
345.176583
 11
357.5218754126
 21
344.5
  0
LINE
  5
38E
100
AcDbEntity
  8
レイヤ1
  6
CONTINUOUS
 62
     0
100
AcDbLine
 10
358.3812498938
 20
345.176583
 11
358.0687499646
 21
345.176583
  0
LINE
  5
38F
100
AcDbEntity
  8
レイヤ1
  6
CONTINUOUS
 62
     0
100
AcDbLine
 10
358.771875271
 20
344.5
 11
358.3812498938
 21
345.176583
  0
LINE
  5
390
100
AcDbEntity
  8
レイヤ1
  6
CONTINUOUS
 62
     0
100
AcDbLine
 10
358.0687499646
 20
345.176583
 11
357.6781245874
 21
344.5
  0
LINE
  5
391
100
AcDbEntity
  8
レイヤ1
  6
CONTINUOUS
 62
     0
100
AcDbLine
 10
359.3187501062
 20
345.176583
 11
359.6312500354
 21
345.176583
  0
LINE
  5
392
100
AcDbEntity
  8
レイヤ1
  6
CONTINUOUS
 62
     0
100
AcDbLine
 10
358.928124729
 20
344.5
 11
359.3187501062
 21
345.176583
  0
LINE
  5
393
100
AcDbEntity
  8
レイヤ1
  6
CONTINUOUS
 62
     0
100
AcDbLine
 10
351.428124729
 20
344.5
 11
351.271875271
 21
344.5
  0
LINE
  5
394
100
AcDbEntity
  8
レイヤ1
  6
CONTINUOUS
 62
     0
100
AcDbLine
 10
352.6781245874
 20
344.5
 11
352.5218754126
 21
344.5
  0
LINE
  5
395
100
AcDbEntity
  8
レイヤ1
  6
CONTINUOUS
 62
     0
100
AcDbLine
 10
353.928124729
 20
344.5
 11
353.771875271
 21
344.5
  0
LINE
  5
396
100
AcDbEntity
  8
レイヤ1
  6
CONTINUOUS
 62
     0
100
AcDbLine
 10
355.1781245874
 20
344.5
 11
355.0218754126
 21
344.5
  0
LINE
  5
397
100
AcDbEntity
  8
レイヤ1
  6
CONTINUOUS
 62
     0
100
AcDbLine
 10
356.428124729
 20
344.5
 11
356.271875271
 21
344.5
  0
LINE
  5
398
100
AcDbEntity
  8
レイヤ1
  6
CONTINUOUS
 62
     0
100
AcDbLine
 10
357.6781245874
 20
344.5
 11
357.5218754126
 21
344.5
  0
LINE
  5
399
100
AcDbEntity
  8
レイヤ1
  6
CONTINUOUS
 62
     0
100
AcDbLine
 10
358.928124729
 20
344.5
 11
358.771875271
 21
344.5
  0
LINE
  5
39A
100
AcDbEntity
  8
レイヤ1
  6
CONTINUOUS
 62
     0
100
AcDbLine
 10
320.1
 20
353
 11
320.1
 21
349.5
  0
LINE
  5
39B
100
AcDbEntity
  8
レイヤ1
  6
CONTINUOUS
 62
     0
100
AcDbLine
 10
338.1
 20
349
 11
338.1
 21
348
  0
LINE
  5
39C
100
AcDbEntity
  8
レイヤ1
  6
CONTINUOUS
 62
     0
100
AcDbLine
 10
335.1
 20
348
 11
338.1
 21
348
  0
ARC
  5
39D
100
AcDbEntity
  8
レイヤ1
  6
CONTINUOUS
 62
     0
100
AcDbCircle
 10
344.2555389693
 20
-151.9161690786
 40
500
100
AcDbArc
 50
91.04920612215
 51
92.76909874384
  0
ARC
  5
39E
100
AcDbEntity
  8
レイヤ1
  6
CONTINUOUS
 62
     0
100
AcDbCircle
 10
342.9812825698
 20
848.9761725127
 40
500
100
AcDbArc
 50
-92.62291787717
 51
-90.55936266522
  0
LINE
  5
39F
100
AcDbEntity
  8
レイヤ1
  6
CONTINUOUS
 62
     0
100
AcDbLine
 10
350.1
 20
352.5
 11
336.1
 21
352.5
  0
ARC
  5
3A0
100
AcDbEntity
  8
レイヤ1
  6
CONTINUOUS
 62
     0
100
AcDbCircle
 10
343.7153750843
 20
852.4420026986
 40
500
100
AcDbArc
 50
-91.33114368712
 51
-91.15921568481
  0
ARC
  5
3A1
100
AcDbEntity
  8
レイヤ1
  6
CONTINUOUS
 62
     0
100
AcDbCircle
 10
343.7153750843
 20
852.4420026986
 40
500
100
AcDbArc
 50
-91.78991060825
 51
-91.61771776587
  0
ARC
  5
3A2
100
AcDbEntity
  8
レイヤ1
  6
CONTINUOUS
 62
     0
100
AcDbCircle
 10
343.7153750843
 20
852.4420026986
 40
500
100
AcDbArc
 50
-92.70712977025
 51
-92.53506235012
  0
ARC
  5
3A3
100
AcDbEntity
  8
レイヤ1
  6
CONTINUOUS
 62
     0
100
AcDbCircle
 10
343.7153750843
 20
852.4420026986
 40
500
100
AcDbArc
 50
-92.24833338039
 51
-92.07632349596
  0
LINE
  5
3A4
100
AcDbEntity
  8
レイヤ1
  6
CONTINUOUS
 62
     0
100
AcDbLine
 10
324.1
 20
352.8269137949
 11
324.1
 21
349.3328025292
  0
LINE
  5
3A5
100
AcDbEntity
  8
レイヤ1
  6
CONTINUOUS
 62
     0
100
AcDbLine
 10
321.6
 20
352.9313319569
 11
321.6
 21
349.4335409429
  0
LINE
  5
3A6
100
AcDbEntity
  8
レイヤ1
  6
CONTINUOUS
 62
     0
100
AcDbLine
 10
325.6
 20
352.7702772773
 11
325.6
 21
349.2783728215
  0
LINE
  5
3A7
100
AcDbEntity
  8
レイヤ1
  6
CONTINUOUS
 62
     0
100
AcDbLine
 10
328.1
 20
352.6859021246
 11
328.1
 21
349.1976741466
  0
LINE
  5
3A8
100
AcDbEntity
  8
レイヤ1
  6
CONTINUOUS
 62
     0
100
AcDbLine
 10
329.6
 20
352.6412862263
 11
329.6
 21
349.1552633095
  0
LINE
  5
3A9
100
AcDbEntity
  8
レイヤ1
  6
CONTINUOUS
 62
     0
100
AcDbLine
 10
332.1
 20
352.5769378445
 11
332.1
 21
349.0945888455
  0
LINE
  5
3AA
100
AcDbEntity
  8
レイヤ1
  6
CONTINUOUS
 62
     0
100
AcDbLine
 10
333.6
 20
352.5443339834
 11
333.6
 21
349.0641887222
  0
LINE
  5
3AB
100
AcDbEntity
  8
レイヤ1
  6
CONTINUOUS
 62
     0
100
AcDbLine
 10
336.1
 20
352.5
 11
336.1
 21
349.023526805
  0
ARC
  5
3AC
100
AcDbEntity
  8
レイヤ1
  6
CONTINUOUS
 62
     0
100
AcDbCircle
 10
322.9519956156
 20
355.3211217973
 40
2.745721694883
100
AcDbArc
 50
-119.4985030599
 51
-65.28489267065
  0
ARC
  5
3AD
100
AcDbEntity
  8
レイヤ1
  6
CONTINUOUS
 62
     0
100
AcDbCircle
 10
326.9312568702
 20
355.1652287807
 40
2.740079845223
100
AcDbArc
 50
-119.0679158062
 51
-64.76102671229
  0
ARC
  5
3AE
100
AcDbEntity
  8
レイヤ1
  6
CONTINUOUS
 62
     0
100
AcDbCircle
 10
330.9128218467
 20
355.049804596
 40
2.743075270285
100
AcDbArc
 50
-118.593673156
 51
-64.35518829701
  0
ARC
  5
3AF
100
AcDbEntity
  8
レイヤ1
  6
CONTINUOUS
 62
     0
100
AcDbCircle
 10
334.8932753531
 20
354.9624706675
 40
2.742252023749
100
AcDbArc
 50
-118.1389004187
 51
-63.89300671237
  0
LINE
  5
3B0
100
AcDbEntity
  8
レイヤ1
  6
CONTINUOUS
 62
     0
100
AcDbLine
 10
320.1
 20
344
 11
320.1
 21
347.5
  0
ARC
  5
3B1
100
AcDbEntity
  8
レイヤ1
  6
CONTINUOUS
 62
     0
100
AcDbCircle
 10
343.7153750843
 20
-155.4420026986
 40
500
100
AcDbArc
 50
91.15921568481
 51
91.33114368712
  0
ARC
  5
3B2
100
AcDbEntity
  8
レイヤ1
  6
CONTINUOUS
 62
     0
100
AcDbCircle
 10
343.7153750843
 20
-155.4420026986
 40
500
100
AcDbArc
 50
91.61771776587
 51
91.78991060825
  0
ARC
  5
3B3
100
AcDbEntity
  8
レイヤ1
  6
CONTINUOUS
 62
     0
100
AcDbCircle
 10
343.7153750843
 20
-155.4420026986
 40
500
100
AcDbArc
 50
92.53506235012
 51
92.70712977025
  0
ARC
  5
3B4
100
AcDbEntity
  8
レイヤ1
  6
CONTINUOUS
 62
     0
100
AcDbCircle
 10
343.7153750843
 20
-155.4420026986
 40
500
100
AcDbArc
 50
92.07632349596
 51
92.24833338039
  0
LINE
  5
3B5
100
AcDbEntity
  8
レイヤ1
  6
CONTINUOUS
 62
     0
100
AcDbLine
 10
324.1
 20
344.1730862051
 11
324.1
 21
347.6671974708
  0
LINE
  5
3B6
100
AcDbEntity
  8
レイヤ1
  6
CONTINUOUS
 62
     0
100
AcDbLine
 10
321.6
 20
344.0686680431
 11
321.6
 21
347.5664590571
  0
LINE
  5
3B7
100
AcDbEntity
  8
レイヤ1
  6
CONTINUOUS
 62
     0
100
AcDbLine
 10
325.6
 20
344.2297227227
 11
325.6
 21
347.7216271785
  0
LINE
  5
3B8
100
AcDbEntity
  8
レイヤ1
  6
CONTINUOUS
 62
     0
100
AcDbLine
 10
328.1
 20
344.3140978754
 11
328.1
 21
347.8023258534
  0
LINE
  5
3B9
100
AcDbEntity
  8
レイヤ1
  6
CONTINUOUS
 62
     0
100
AcDbLine
 10
329.6
 20
344.3587137737
 11
329.6
 21
347.8447366905
  0
LINE
  5
3BA
100
AcDbEntity
  8
レイヤ1
  6
CONTINUOUS
 62
     0
100
AcDbLine
 10
332.1
 20
344.4230621555
 11
332.1
 21
347.9054111545
  0
LINE
  5
3BB
100
AcDbEntity
  8
レイヤ1
  6
CONTINUOUS
 62
     0
100
AcDbLine
 10
333.6
 20
344.4556660166
 11
333.6
 21
347.9358112778
  0
LINE
  5
3BC
100
AcDbEntity
  8
レイヤ1
  6
CONTINUOUS
 62
     0
100
AcDbLine
 10
336.1
 20
344.5
 11
336.1
 21
347.976473195
  0
ARC
  5
3BD
100
AcDbEntity
  8
レイヤ1
  6
CONTINUOUS
 62
     0
100
AcDbCircle
 10
322.9519956156
 20
341.6788782027
 40
2.745721694883
100
AcDbArc
 50
65.28489267065
 51
119.4985030599
  0
ARC
  5
3BE
100
AcDbEntity
  8
レイヤ1
  6
CONTINUOUS
 62
     0
100
AcDbCircle
 10
326.9312568702
 20
341.8347712193
 40
2.740079845223
100
AcDbArc
 50
64.76102671229
 51
119.0679158062
  0
ARC
  5
3BF
100
AcDbEntity
  8
レイヤ1
  6
CONTINUOUS
 62
     0
100
AcDbCircle
 10
330.9128218467
 20
341.950195404
 40
2.743075270285
100
AcDbArc
 50
64.35518829701
 51
118.593673156
  0
ARC
  5
3C0
100
AcDbEntity
  8
レイヤ1
  6
CONTINUOUS
 62
     0
100
AcDbCircle
 10
334.8932753531
 20
342.0375293325
 40
2.742252023749
100
AcDbArc
 50
63.89300671236
 51
118.1389004187
  0
ARC
  5
3C1
100
AcDbEntity
  8
レイヤ1
  6
CONTINUOUS
 62
     0
100
AcDbCircle
 10
334.7438322302
 20
319.140419426
 40
32.80894380908
100
AcDbArc
 50
112.6786152049
 51
116.5088854144
  0
ARC
  5
3C2
100
AcDbEntity
  8
レイヤ1
  6
CONTINUOUS
 62
     0
100
AcDbCircle
 10
334.74383223
 20
377.8595805741
 40
32.80894380908
100
AcDbArc
 50
-116.5088854141
 51
-112.699477527
  0
LINE
  5
3C3
100
AcDbEntity
  8
レイヤ1
  6
CONTINUOUS
 62
     0
100
AcDbLine
 10
359.9437501062
 20
351.823417
 11
360
 21
351.823417
  0
LINE
  5
3C4
100
AcDbEntity
  8
レイヤ1
  6
CONTINUOUS
 62
     0
100
AcDbLine
 10
359.4750001239
 20
352.5
 11
360
 21
345.780001586
  0
LINE
  5
3C5
100
AcDbEntity
  8
レイヤ1
  6
CONTINUOUS
 62
     0
100
AcDbLine
 10
359.6312500354
 20
345.176583
 11
360
 21
344.537889326
  0
LINE
  5
3C6
100
AcDbEntity
  8
レイヤ1
  6
CONTINUOUS
 62
     0
100
AcDbLine
 10
350.1781245874
 20
344.5
 11
336.1
 21
344.5
  0
LINE
  5
3C7
100
AcDbEntity
  8
レイヤ1
  6
CONTINUOUS
 62
     0
100
AcDbLine
 10
360
 20
352.75
 11
320.1
 21
352.75
  0
LINE
  5
3C8
100
AcDbEntity
  8
レイヤ1
  6
CONTINUOUS
 62
     0
100
AcDbLine
 10
360
 20
344.25
 11
320.1
 21
344.25
  0
LINE
  5
3C9
100
AcDbEntity
  8
レイヤ1
  6
CONTINUOUS
 62
     0
100
AcDbLine
 10
320.1
 20
352.75
 11
317.6462613559
 21
348.5
  0
LINE
  5
3CA
100
AcDbEntity
  8
レイヤ1
  6
CONTINUOUS
 62
     0
100
AcDbLine
 10
320.1
 20
344.25
 11
317.6462613559
 21
348.5
  0
LINE
  5
3CB
100
AcDbEntity
  8
レイヤ6
  6
CONTINUOUS
 62
     0
100
AcDbLine
 10
264.5008872394
 20
279.7996204083
 11
270.000039
 21
279.799503
  0
LINE
  5
3CC
100
AcDbEntity
  8
レイヤ6
  6
CONTINUOUS
 62
     0
100
AcDbLine
 10
250.000283
 20
279.79993
 11
254.0008872299
 21
279.7998445861
  0
LINE
  5
3CD
100
AcDbEntity
  8
レイヤ6
  6
CONTINUOUS
 62
     0
100
AcDbLine
 10
255.500394907
 20
298.5
 11
255.501005702
 21
275.2998815407
  0
LINE
  5
3CE
100
AcDbEntity
  8
レイヤ6
  6
CONTINUOUS
 62
     0
100
AcDbLine
 10
264.5003949101
 20
298.5
 11
264.5010056989
 21
275.3001184858
  0
LINE
  5
3CF
100
AcDbEntity
  8
レイヤ1
  6
CONTINUOUS
 62
     0
100
AcDbLine
 10
354.9971134584
 20
355.5
 11
354.9971134584
 21
341.5
  0
ARC
  5
3D0
100
AcDbEntity
  8
レイヤ1
  6
CONTINUOUS
 62
     0
100
AcDbCircle
 10
355
 20
356.5
 40
1
100
AcDbArc
 50
-90
 51
0
  0
ARC
  5
3D1
100
AcDbEntity
  8
レイヤ1
  6
CONTINUOUS
 62
     0
100
AcDbCircle
 10
355
 20
340.5
 40
1
100
AcDbArc
 50
0
 51
90
  0
LINE
  5
3D2
100
AcDbEntity
  8
レイヤ8
  6
CONTINUOUS
 62
     0
100
AcDbLine
 10
361
 20
372.5
 11
363
 21
374.5
  0
ARC
  5
3D3
100
AcDbEntity
  8
レイヤ8
  6
CONTINUOUS
 62
     0
100
AcDbCircle
 10
359
 20
370.5
 40
2
100
AcDbArc
 50
-90
 51
0
  0
LINE
  5
3D4
100
AcDbEntity
  8
レイヤ1
  6
CONTINUOUS
 62
     0
100
AcDbLine
 10
355
 20
368.5
 11
359
 21
368.5
  0
LINE
  5
3D5
100
AcDbEntity
  8
レイヤ8
  6
CONTINUOUS
 62
     0
100
AcDbLine
 10
361
 20
372.5
 11
361
 21
370.5
  0
LINE
  5
3D6
100
AcDbEntity
  8
レイヤ8
  6
CONTINUOUS
 62
     0
100
AcDbLine
 10
363
 20
374.5
 11
369
 21
374.5
  0
ARC
  5
3D7
100
AcDbEntity
  8
レイヤ8
  6
CONTINUOUS
 62
     0
100
AcDbCircle
 10
355
 20
364.5
 40
1
100
AcDbArc
 50
0
 51
90
  0
LINE
  5
3D8
100
AcDbEntity
  8
レイヤ5
  6
CONTINUOUS
 62
     0
100
AcDbLine
 10
363.9896376227
 20
372.5000001936
 11
362.9792746661
 21
370.7500001686
  0
LINE
  5
3D9
100
AcDbEntity
  8
レイヤ5
  6
CONTINUOUS
 62
     0
100
AcDbLine
 10
362.9792746661
 20
370.7500001686
 11
363.9896376661
 21
369.0000001185
  0
LINE
  5
3DA
100
AcDbEntity
  8
レイヤ5
  6
CONTINUOUS
 62
     0
100
AcDbLine
 10
363.9896376227
 20
372.5000001936
 11
366.0103638463
 21
372.4999998064
  0
LINE
  5
3DB
100
AcDbEntity
  8
レイヤ5
  6
CONTINUOUS
 62
     0
100
AcDbLine
 10
363.9896376661
 20
369.0000001187
 11
365.5051815612
 21
369.0000000999
  0
ARC
  5
3DC
100
AcDbEntity
  8
レイヤ1
  6
CONTINUOUS
 62
     0
100
AcDbCircle
 10
365.520052703
 20
368.1507577351
 40
0.8492423646166
100
AcDbArc
 50
-78.68573913635
 51
91.00320782371
  0
LINE
  5
3DD
100
AcDbEntity
  8
レイヤ8
  6
CONTINUOUS
 62
     0
100
AcDbLine
 10
369
 20
374.5
 11
371.443842965
 21
372.056157035
  0
ARC
  5
3DE
100
AcDbEntity
  8
レイヤ1
  6
CONTINUOUS
 62
     0
100
AcDbCircle
 10
370.88768593
 20
371.5
 40
0.7865248217096
100
AcDbArc
 50
-129.4238238091
 51
45.00000000001
  0
ARC
  5
3DF
100
AcDbEntity
  8
レイヤ1
  6
CONTINUOUS
 62
     0
100
AcDbCircle
 10
368.8569157603
 20
371.5040381613
 40
0.5
100
AcDbArc
 50
50.57617619093
 51
175.9537810144
  0
ARC
  5
3E0
100
AcDbEntity
  8
レイヤ1
  6
CONTINUOUS
 62
     0
100
AcDbCircle
 10
365
 20
370.7500001686
 40
3.5
100
AcDbArc
 50
-89.99999969297
 51
-78.68573913635
  0
LINE
  5
3E1
100
AcDbEntity
  8
レイヤ1
  6
CONTINUOUS
 62
     0
100
AcDbLine
 10
369.1744416423
 20
371.8902729529
 11
370.3882019546
 21
370.8924334987
  0
LINE
  5
3E2
100
AcDbEntity
  8
レイヤ8
  6
CONTINUOUS
 62
     0
100
AcDbLine
 10
365.0000000188
 20
367.2500001846
 11
361.9999999893
 21
367.2500001686
  0
ARC
  5
3E3
100
AcDbEntity
  8
レイヤ1
  6
CONTINUOUS
 62
     0
100
AcDbCircle
 10
362
 20
365.2500001846
 40
2
100
AcDbArc
 50
90.00000030703
 51
180
  0
LINE
  5
3E4
100
AcDbEntity
  8
レイヤ5
  6
CONTINUOUS
 62
     0
100
AcDbLine
 10
366.0103638463
 20
372.4999998064
 11
366.7755715099
 21
371.1746212167
  0
ARC
  5
3E5
100
AcDbEntity
  8
レイヤ1
  6
CONTINUOUS
 62
     0
100
AcDbCircle
 10
367.5110367288
 20
371.5992422467
 40
0.8492420781073
100
AcDbArc
 50
-150.0000007101
 51
-4.046218985616
  0
LINE
  5
3E6
100
AcDbEntity
  8
レイヤ1
  6
CONTINUOUS
 62
     0
100
AcDbLine
 10
356
 20
364.5
 11
356
 21
356.5
  0
ARC
  5
3E7
100
AcDbEntity
  8
レイヤ1
  6
CONTINUOUS
 62
     0
100
AcDbCircle
 10
355
 20
332.5
 40
1
100
AcDbArc
 50
-90
 51
0
  0
LINE
  5
3E8
100
AcDbEntity
  8
レイヤ4
  6
CONTINUOUS
 62
     0
100
AcDbLine
 10
363.0207259566
 20
325.499999975
 11
362.010363
 21
323.7499999499
  0
LINE
  5
3E9
100
AcDbEntity
  8
レイヤ4
  6
CONTINUOUS
 62
     0
100
AcDbLine
 10
362.0103629566
 20
327.250000025
 11
363.0207259566
 21
325.499999975
  0
LINE
  5
3EA
100
AcDbEntity
  8
レイヤ4
  6
CONTINUOUS
 62
     0
100
AcDbLine
 10
359.9893641843
 20
323.7499992111
 11
362.010363
 21
323.7499999499
  0
LINE
  5
3EB
100
AcDbEntity
  8
レイヤ4
  6
CONTINUOUS
 62
     0
100
AcDbLine
 10
362.0103629566
 20
327.250000025
 11
359.9893637364
 21
327.2500000501
  0
ARC
  5
3EC
100
AcDbEntity
  8
レイヤ1
  6
CONTINUOUS
 62
     0
100
AcDbCircle
 10
359.3014424782
 20
323.9419870884
 40
0.5
100
AcDbArc
 50
30.00002094552
 51
120
  0
ARC
  5
3ED
100
AcDbEntity
  8
レイヤ1
  6
CONTINUOUS
 62
     0
100
AcDbCircle
 10
359.3014428415
 20
327.0580127019
 40
0.5
100
AcDbArc
 50
-120
 51
-30
  0
LINE
  5
3EE
100
AcDbEntity
  8
レイヤ4
  6
CONTINUOUS
 62
     0
100
AcDbLine
 10
359.9896370434
 20
327.250000025
 11
359.9844555434
 21
327.2410254038
  0
LINE
  5
3EF
100
AcDbEntity
  8
レイヤ4
  6
CONTINUOUS
 62
     0
100
AcDbLine
 10
359.9844553139
 20
323.7589748859
 11
359.989637
 21
323.7499999499
  0
LINE
  5
3F0
100
AcDbEntity
  8
レイヤ1
  6
CONTINUOUS
 62
     0
100
AcDbLine
 10
359.7344555434
 20
326.8080127019
 11
359.9844555434
 21
327.2410254038
  0
LINE
  5
3F1
100
AcDbEntity
  8
レイヤ1
  6
CONTINUOUS
 62
     0
100
AcDbLine
 10
359.989637
 20
323.7499999499
 11
359.7344554086
 21
324.1919874314
  0
LINE
  5
3F2
100
AcDbEntity
  8
レイヤ1
  6
CONTINUOUS
 62
     0
100
AcDbLine
 10
359.0514428415
 20
326.625
 11
355
 21
328.9641016151
  0
LINE
  5
3F3
100
AcDbEntity
  8
レイヤ1
  6
CONTINUOUS
 62
     0
100
AcDbLine
 10
359.0514424782
 20
324.3749997903
 11
355
 21
322.0358983849
  0
LINE
  5
3F4
100
AcDbEntity
  8
レイヤ1
  6
CONTINUOUS
 62
     0
100
AcDbLine
 10
355
 20
328.9641016151
 11
355
 21
331.5
  0
ARC
  5
3F5
100
AcDbEntity
  8
レイヤ1
  6
CONTINUOUS
 62
     0
100
AcDbCircle
 10
363
 20
334.4482797389
 40
3
100
AcDbArc
 50
180
 51
269.0036521035
  0
LINE
  5
3F6
100
AcDbEntity
  8
レイヤ1
  6
CONTINUOUS
 62
     0
100
AcDbLine
 10
704.5086943374
 20
325.5085444463
 11
362.9478339754
 21
331.4487333222
  0
ARC
  5
3F7
100
AcDbEntity
  8
レイヤ1
  6
CONTINUOUS
 62
     0
100
AcDbCircle
 10
704.5
 20
325.0086200435
 40
0.5
100
AcDbArc
 50
0
 51
89.00365210352
  0
ARC
  5
3F8
100
AcDbEntity
  8
レイヤ8
  6
CONTINUOUS
 62
     0
100
AcDbCircle
 10
693
 20
314.5
 40
2
100
AcDbArc
 50
-90
 51
0
  0
LINE
  5
3F9
100
AcDbEntity
  8
レイヤ2
  6
CONTINUOUS
 62
     0
100
AcDbLine
 10
689.249999975
 20
316.4896370434
 11
691.000000025
 21
315.4792740434
  0
LINE
  5
3FA
100
AcDbEntity
  8
レイヤ2
  6
CONTINUOUS
 62
     0
100
AcDbLine
 10
691.000000025
 20
315.4792740434
 11
692.7500000501
 21
316.489637
  0
LINE
  5
3FB
100
AcDbEntity
  8
レイヤ2
  6
CONTINUOUS
 62
     0
100
AcDbLine
 10
692.7500000501
 20
316.489637
 11
692.7500003184
 21
318.510363
  0
LINE
  5
3FC
100
AcDbEntity
  8
レイヤ2
  6
CONTINUOUS
 62
     0
100
AcDbLine
 10
691
 20
319.5207259711
 11
692.7500000501
 21
318.510363
  0
LINE
  5
3FD
100
AcDbEntity
  8
レイヤ2
  6
CONTINUOUS
 62
     0
100
AcDbLine
 10
689.2499999624
 20
317.5
 11
689.2499999627
 21
317.5243057482
  0
ARC
  5
3FE
100
AcDbEntity
  8
レイヤ1
  6
CONTINUOUS
 62
     0
100
AcDbCircle
 10
688.3750562448
 20
317.5243057373
 40
0.8749437173652
100
AcDbArc
 50
0
 51
179.4694833494
  0
LINE
  5
3FF
100
AcDbEntity
  8
レイヤ2
  6
CONTINUOUS
 62
     0
100
AcDbLine
 10
689.2499999621
 20
317.5243057482
 11
689.249999975
 21
316.4896370434
  0
ARC
  5
400
100
AcDbEntity
  8
レイヤ2
  6
CONTINUOUS
 62
     0
100
AcDbCircle
 10
691
 20
317.5
 40
3.5
100
AcDbArc
 50
179.4694833494
 51
210
  0
ARC
  5
401
100
AcDbEntity
  8
レイヤ1
  6
CONTINUOUS
 62
     0
100
AcDbCircle
 10
687.5358983849
 20
315.5
 40
0.5
100
AcDbArc
 50
-90
 51
30
  0
LINE
  5
402
100
AcDbEntity
  8
レイヤ1
  6
CONTINUOUS
 62
     0
100
AcDbLine
 10
686.25
 20
315
 11
687.5358983849
 21
315
  0
LINE
  5
403
100
AcDbEntity
  8
レイヤ8
  6
CONTINUOUS
 62
     0
100
AcDbLine
 10
686.25
 20
312.5
 11
693
 21
312.5
  0
ARC
  5
404
100
AcDbEntity
  8
レイヤ1
  6
CONTINUOUS
 62
     0
100
AcDbCircle
 10
686.25
 20
313.75
 40
1.25
100
AcDbArc
 50
89.99999999998
 51
270
  0
LINE
  5
405
100
AcDbEntity
  8
レイヤ1
  6
CONTINUOUS
 62
     0
100
AcDbLine
 10
355
 20
319.5
 11
362
 21
319.5
  0
LINE
  5
406
100
AcDbEntity
  8
レイヤ1
  6
CONTINUOUS
 62
     0
100
AcDbLine
 10
362
 20
319.5
 11
368
 21
325.5
  0
LINE
  5
407
100
AcDbEntity
  8
レイヤ1
  6
CONTINUOUS
 62
     0
100
AcDbLine
 10
355
 20
319.5
 11
355
 21
322.0358983849
  0
ARC
  5
408
100
AcDbEntity
  8
レイヤ1
  6
CONTINUOUS
 62
     0
100
AcDbCircle
 10
702.5
 20
325.0223542496
 40
2.5
100
AcDbArc
 50
-90.51003797697
 51
0
  0
LINE
  5
409
100
AcDbEntity
  8
レイヤ8
  6
CONTINUOUS
 62
     0
100
AcDbLine
 10
695
 20
320.5711373718
 11
695
 21
314.5
  0
LINE
  5
40A
100
AcDbEntity
  8
レイヤ1
  6
CONTINUOUS
 62
     0
100
AcDbLine
 10
702.4777456889
 20
322.5224533025
 11
697.0178034489
 21
322.5710581295
  0
ARC
  5
40B
100
AcDbEntity
  8
レイヤ1
  6
CONTINUOUS
 62
     0
100
AcDbCircle
 10
697
 20
320.5711373718
 40
2
100
AcDbArc
 50
89.48996202304
 51
180
  0
LINE
  5
40C
100
AcDbEntity
  8
レイヤ1
  6
CONTINUOUS
 62
     0
100
AcDbLine
 10
691
 20
319.5207259711
 11
691
 21
322.1290603073
  0
ARC
  5
40D
100
AcDbEntity
  8
レイヤ1
  6
CONTINUOUS
 62
     0
100
AcDbCircle
 10
690.5
 20
322.1290603073
 40
0.5
100
AcDbArc
 50
0
 51
89.48996202304
  0
LINE
  5
40E
100
AcDbEntity
  8
レイヤ1
  6
CONTINUOUS
 62
     0
100
AcDbLine
 10
356
 20
340.5
 11
356
 21
332.5
  0
LINE
  5
40F
100
AcDbEntity
  8
レイヤ1
  6
CONTINUOUS
 62
     0
100
AcDbLine
 10
690.5044508622
 20
322.6290404968
 11
595
 21
323.4792284866
  0
LINE
  5
410
100
AcDbEntity
  8
レイヤ1
  6
CONTINUOUS
 62
     0
100
AcDbLine
 10
575
 20
323.6572700297
 11
485
 21
324.4584569733
  0
LINE
  5
411
100
AcDbEntity
  8
レイヤ1
  6
CONTINUOUS
 62
     0
100
AcDbLine
 10
465
 20
324.6364985163
 11
368
 21
325.5
  0
LINE
  5
412
100
AcDbEntity
  8
レイヤ1
  6
CONTINUOUS
 62
     0
100
AcDbLine
 10
484.3062312071
 20
325.1646606925
 11
465.7062312071
 21
325.3302393275
  0
ARC
  5
413
100
AcDbEntity
  8
レイヤ1
  6
CONTINUOUS
 62
     0
100
AcDbCircle
 10
484.3
 20
324.4646884273
 40
0.7
100
AcDbArc
 50
0
 51
89.48996202302
  0
LINE
  5
414
100
AcDbEntity
  8
レイヤ1
  6
CONTINUOUS
 62
     0
100
AcDbLine
 10
485
 20
324.4584569733
 11
485
 21
324.4646884273
  0
ARC
  5
415
100
AcDbEntity
  8
レイヤ1
  6
CONTINUOUS
 62
     0
100
AcDbCircle
 10
465.7
 20
324.6302670623
 40
0.7
100
AcDbArc
 50
89.48996202304
 51
179.489962023
  0
LINE
  5
416
100
AcDbEntity
  8
レイヤ1
  6
CONTINUOUS
 62
     0
100
AcDbLine
 10
594.3062312071
 20
324.1854322059
 11
575.7062312071
 21
324.3510108409
  0
ARC
  5
417
100
AcDbEntity
  8
レイヤ1
  6
CONTINUOUS
 62
     0
100
AcDbCircle
 10
594.3
 20
323.4854599407
 40
0.7
100
AcDbArc
 50
0
 51
89.48996202302
  0
ARC
  5
418
100
AcDbEntity
  8
レイヤ1
  6
CONTINUOUS
 62
     0
100
AcDbCircle
 10
575.7
 20
323.6510385757
 40
0.7
100
AcDbArc
 50
89.48996202304
 51
179.489962023
  0
LINE
  5
419
100
AcDbEntity
  8
レイヤ1
  6
CONTINUOUS
 62
     0
100
AcDbLine
 10
595
 20
323.4792284866
 11
595
 21
323.4854599407
  0
LINE
  5
41A
100
AcDbEntity
  8
レイヤ1
  6
CONTINUOUS
 62
     0
100
AcDbLine
 10
355.0028865416
 20
319.5
 11
355.0028865416
 21
322.0358983849
  0
LINE
  5
41B
100
AcDbEntity
  8
レイヤ1
  6
CONTINUOUS
 62
     0
100
AcDbLine
 10
363.6
 20
354.1065422139
 11
364.7219809089
 21
356.0498701532
  0
LINE
  5
41C
100
AcDbEntity
  8
レイヤ1
  6
CONTINUOUS
 62
     0
100
AcDbLine
 10
363.6
 20
342.8482119647
 11
364.7219809089
 21
340.9048840255
  0
ARC
  5
41D
100
AcDbEntity
  8
レイヤ1
  6
CONTINUOUS
 62
     0
100
AcDbCircle
 10
370.4370924906
 20
348.4773770893
 40
6.837092490653
100
AcDbArc
 50
146.7094547469
 51
213.2905452531
  0
ARC
  5
41E
100
AcDbEntity
  8
レイヤ1
  6
CONTINUOUS
 62
     0
100
AcDbCircle
 10
365.7859904544
 20
354.1400119961
 40
2.186246667954
100
AcDbArc
 50
-179.1228107028
 51
-119.1228107028
  0
ARC
  5
41F
100
AcDbEntity
  8
レイヤ1
  6
CONTINUOUS
 62
     0
100
AcDbCircle
 10
365.7859904544
 20
342.8147421825
 40
2.186246667954
100
AcDbArc
 50
119.1228107028
 51
179.1228107028
  0
LINE
  5
420
100
AcDbEntity
  8
レイヤ1
  6
CONTINUOUS
 62
     0
100
AcDbLine
 10
368.9780190911
 20
340.9048840255
 11
364.7219809089
 21
340.9048840255
  0
LINE
  5
421
100
AcDbEntity
  8
レイヤ1
  6
CONTINUOUS
 62
     0
100
AcDbLine
 10
368.9780190911
 20
356.0498701532
 11
364.7219809089
 21
356.0498701532
  0
ARC
  5
422
100
AcDbEntity
  8
レイヤ1
  6
CONTINUOUS
 62
     0
100
AcDbCircle
 10
363.2629075093
 20
348.4773770893
 40
6.837092490653
100
AcDbArc
 50
-33.29054525311
 51
33.29054525312
  0
ARC
  5
423
100
AcDbEntity
  8
レイヤ1
  6
CONTINUOUS
 62
     0
100
AcDbCircle
 10
367.9140095456
 20
354.1400119961
 40
2.186246667954
100
AcDbArc
 50
-60.87718929724
 51
-0.8771892972352
  0
ARC
  5
424
100
AcDbEntity
  8
レイヤ1
  6
CONTINUOUS
 62
     0
100
AcDbCircle
 10
367.9140095456
 20
342.8147421825
 40
2.186246667954
100
AcDbArc
 50
0.8771892972352
 51
60.87718929724
  0
LINE
  5
425
100
AcDbEntity
  8
レイヤ1
  6
CONTINUOUS
 62
     0
100
AcDbLine
 10
369.4563399174
 20
341.7333599989
 11
368.9780190911
 21
340.9048840255
  0
ARC
  5
426
100
AcDbEntity
  8
レイヤ1
  6
CONTINUOUS
 62
     0
100
AcDbCircle
 10
369.8893526193
 20
341.4833599989
 40
0.5
100
AcDbArc
 50
92.36905839521
 51
150
  0
LINE
  5
427
100
AcDbEntity
  8
レイヤ1
  6
CONTINUOUS
 62
     0
100
AcDbLine
 10
369.4563399174
 20
355.2213941798
 11
368.9780190911
 21
356.0498701532
  0
ARC
  5
428
100
AcDbEntity
  8
レイヤ1
  6
CONTINUOUS
 62
     0
100
AcDbCircle
 10
369.6
 20
348.4773770893
 40
6.5
100
AcDbArc
 50
-87.6309416048
 51
87.6309416048
  0
ARC
  5
429
100
AcDbEntity
  8
レイヤ1
  6
CONTINUOUS
 62
     0
100
AcDbCircle
 10
369.8893526193
 20
355.4713941798
 40
0.5
100
AcDbArc
 50
-150
 51
-92.36905839521
  0
LINE
  5
42A
100
AcDbEntity
  8
レイヤ1
  6
CONTINUOUS
 62
     0
100
AcDbLine
 10
368.9780190912
 20
352.2301538391
 11
364.7219809088
 21
352.2301538391
  0
LINE
  5
42B
100
AcDbEntity
  8
レイヤ1
  6
CONTINUOUS
 62
     0
100
AcDbLine
 10
368.9780190911
 20
344.7246003396
 11
364.7219809088
 21
344.7246003396
  0
LINE
  5
42C
100
AcDbEntity
  8
レイヤ1
  6
CONTINUOUS
 62
     0
100
AcDbLine
 10
361.6
 20
340.4773770893
 11
361.6
 21
356.4773770893
  0
LINE
  5
42D
100
AcDbEntity
  8
レイヤ1
  6
CONTINUOUS
 62
     0
100
AcDbLine
 10
370.1
 20
342.8482119647
 11
370.1
 21
354.1065422139
  0
LINE
  5
42E
100
AcDbEntity
  8
レイヤ1
  6
CONTINUOUS
 62
     0
100
AcDbLine
 10
360
 20
340.4773770893
 11
361.6
 21
340.4773770893
  0
LINE
  5
42F
100
AcDbEntity
  8
レイヤ1
  6
CONTINUOUS
 62
     0
100
AcDbLine
 10
363.6
 20
340.7773770893
 11
361.6
 21
340.7773770893
  0
LINE
  5
430
100
AcDbEntity
  8
レイヤ1
  6
CONTINUOUS
 62
     0
100
AcDbLine
 10
360
 20
356.4773770893
 11
361.6
 21
356.4773770893
  0
LINE
  5
431
100
AcDbEntity
  8
レイヤ1
  6
CONTINUOUS
 62
     0
100
AcDbLine
 10
363.6
 20
340.7773770893
 11
363.6
 21
356.1773770893
  0
LINE
  5
432
100
AcDbEntity
  8
レイヤ1
  6
CONTINUOUS
 62
     0
100
AcDbLine
 10
363.6
 20
356.1773770893
 11
361.6
 21
356.1773770893
  0
ARC
  5
433
100
AcDbEntity
  8
レイヤ1
  6
CONTINUOUS
 62
     0
100
AcDbCircle
 10
360.9812524075
 20
390.8500192596
 40
16.47417590144
100
AcDbArc
 50
-111.2887559508
 51
-82.96127674704
  0
LINE
  5
434
100
AcDbEntity
  8
レイヤ1
  6
CONTINUOUS
 62
     0
100
AcDbLine
 10
360
 20
365.2500001846
 11
360
 21
334.4482797389
  0
CIRCLE
  5
435
100
AcDbEntity
  8
レイヤ1
  6
CONTINUOUS
 62
     0
100
AcDbCircle
 10
360
 20
352.75
 40
1.4
  0
CIRCLE
  5
436
100
AcDbEntity
  8
レイヤ1
  6
CONTINUOUS
 62
     0
100
AcDbCircle
 10
359.6323718036
 20
372.7902226648
 40
1.4
  0
INSERT
  5
437
100
AcDbEntity
  8
レイヤ1
100
AcDbBlockReference
  2
BK2
 10
0
 20
0
  0
TEXT
  5
438
100
AcDbEntity
  8
レイヤ16
  6
CONTINUOUS
 62
     0
100
AcDbText
 10
568.9401759777
 20
265.4958136452
 40
6
  1
設計風圧力
  7
STANDARD
100
AcDbText
  0
TEXT
  5
439
100
AcDbEntity
  8
レイヤ16
  6
CONTINUOUS
 62
     0
100
AcDbText
 10
551.7227846734
 20
251.8653788626
 40
6
  1
２５００Ｎ／㎡　以下
  7
STANDARD
100
AcDbText
  0
TEXT
  5
43A
100
AcDbEntity
  8
レイヤ16
  6
CONTINUOUS
 62
     0
100
AcDbText
 10
568.9401759777
 20
201.5045092974
 40
6
  1
耐積雪
  7
STANDARD
100
AcDbText
  0
TEXT
  5
43B
100
AcDbEntity
  8
レイヤ16
  6
CONTINUOUS
 62
     0
100
AcDbText
 10
551.7227846734
 20
187.8740745148
 40
6
  1
１００ｃｍ　以下
  7
STANDARD
100
AcDbText
  0
CIRCLE
  5
43C
100
AcDbEntity
  8
レイヤ16
  6
CONTINUOUS
 62
     0
100
AcDbCircle
 10
355
 20
296.5
 40
1.4
  0
CIRCLE
  5
43D
100
AcDbEntity
  8
レイヤ16
  6
CONTINUOUS
 62
     0
100
AcDbCircle
 10
307.6462613559
 20
348.5
 40
1.4
  0
CIRCLE
  5
43E
100
AcDbEntity
  8
レイヤ16
  6
CONTINUOUS
 62
     0
100
AcDbCircle
 10
307.6462613559
 20
368.5
 40
1.4
  0
LINE
  5
43F
100
AcDbEntity
  8
レイヤ16
  6
CONTINUOUS
 62
     0
100
AcDbLine
 10
307.6462613559
 20
348.5
 11
307.6462613559
 21
368.5
  0
CIRCLE
  5
440
100
AcDbEntity
  8
レイヤ16
  6
CONTINUOUS
 62
     0
100
AcDbCircle
 10
307.6462613559
 20
319.5
 40
1.4
  0
LINE
  5
441
100
AcDbEntity
  8
レイヤ16
  6
CONTINUOUS
 62
     0
100
AcDbLine
 10
315.6462613559
 20
348.5
 11
307.6462613559
 21
348.5
  0
LINE
  5
442
100
AcDbEntity
  8
レイヤ16
  6
CONTINUOUS
 62
     0
100
AcDbLine
 10
307.6462613559
 20
348.5
 11
307.6462613559
 21
319.5
  0
CIRCLE
  5
443
100
AcDbEntity
  8
レイヤ16
  6
CONTINUOUS
 62
     0
100
AcDbCircle
 10
705.0028865416
 20
296.5
 40
1.4
  0
LINE
  5
444
100
AcDbEntity
  8
レイヤ16
  6
CONTINUOUS
 62
     0
100
AcDbLine
 10
705.0028865416
 20
296.5
 11
705.0028865416
 21
322.5
  0
LINE
  5
445
100
AcDbEntity
  8
レイヤ16
  6
CONTINUOUS
 62
     0
100
AcDbLine
 10
355
 20
296.5
 11
705.0028865416
 21
296.5
  0
LINE
  5
446
100
AcDbEntity
  8
レイヤ16
  6
CONTINUOUS
 62
     0
100
AcDbLine
 10
359.6323718036
 20
372.7902226648
 11
376.457965424
 21
389.6158162852
  0
LINE
  5
447
100
AcDbEntity
  8
レイヤ16
  6
CONTINUOUS
 62
     0
100
AcDbLine
 10
376.457965424
 20
389.6158162852
 11
379.6111087793
 21
389.6158162852
  0
LINE
  5
448
100
AcDbEntity
  8
レイヤ16
  6
CONTINUOUS
 62
     0
100
AcDbLine
 10
376.457965424
 20
389.6158162852
 11
360
 21
352.75
  0
CIRCLE
  5
449
100
AcDbEntity
  8
レイヤ16
  6
CONTINUOUS
 62
     0
100
AcDbCircle
 10
292.6462613559
 20
368.5
 40
1.4
  0
CIRCLE
  5
44A
100
AcDbEntity
  8
レイヤ16
  6
CONTINUOUS
 62
     0
100
AcDbCircle
 10
292.6462613559
 20
319.5
 40
1.4
  0
LINE
  5
44B
100
AcDbEntity
  8
レイヤ16
  6
CONTINUOUS
 62
     0
100
AcDbLine
 10
292.6462613559
 20
319.5
 11
292.6462613559
 21
368.5
  0
LINE
  5
44C
100
AcDbEntity
  8
レイヤ16
  6
CONTINUOUS
 62
     0
100
AcDbLine
 10
353
 20
368.5
 11
292.6462613559
 21
368.5
  0
LINE
  5
44D
100
AcDbEntity
  8
レイヤ16
  6
CONTINUOUS
 62
     0
100
AcDbLine
 10
353
 20
319.5
 11
292.6462613559
 21
319.5
  0
TEXT
  5
44E
100
AcDbEntity
  8
レイヤ16
  6
CONTINUOUS
 62
     0
100
AcDbText
 10
381.1241271904
 20
385.2588333196
 40
6.993333333333
  1
シーリング処理（別途）
 41
0.8579599618684
  7
STANDARD
100
AcDbText
  0
TEXT
  5
44F
100
AcDbEntity
  8
レイヤ16
  6
CONTINUOUS
 62
     0
100
AcDbText
 10
292.6462613559
 20
339.5
 40
6.993333333333
  1
49
 41
0.8579599618684
 50
90
  7
STANDARD
100
AcDbText
  0
TEXT
  5
450
100
AcDbEntity
  8
レイヤ16
  6
CONTINUOUS
 62
     0
100
AcDbText
 10
307.6462613559
 20
329.5
 40
6.993333333333
  1
29
 41
0.8579599618684
 50
90
  7
STANDARD
100
AcDbText
  0
TEXT
  5
451
100
AcDbEntity
  8
レイヤ16
  6
CONTINUOUS
 62
     0
100
AcDbText
 10
523.2514432708
 20
296.5
 40
6.993333333333
  1
350
 41
0.8579599618684
  7
STANDARD
100
AcDbText
  0
LINE
  5
452
100
AcDbEntity
  8
レイヤ16
  6
CONTINUOUS
 62
     0
100
AcDbLine
 10
645.701045543
 20
244.6914658191
 11
535.2227846734
 21
244.6914658191
  0
LINE
  5
453
100
AcDbEntity
  8
レイヤ16
  6
CONTINUOUS
 62
     0
100
AcDbLine
 10
645.701045543
 20
179.8871179931
 11
535.2227846734
 21
179.8871179931
  0
LINE
  5
454
100
AcDbEntity
  8
レイヤ16
  6
CONTINUOUS
 62
     0
100
AcDbLine
 10
535.2227846734
 20
179.8871179931
 11
535.2227846734
 21
210.9740745148
  0
LINE
  5
455
100
AcDbEntity
  8
レイヤ16
  6
CONTINUOUS
 62
     0
100
AcDbLine
 10
535.2227846734
 20
210.9740745148
 11
645.701045543
 21
210.9740745148
  0
LINE
  5
456
100
AcDbEntity
  8
レイヤ16
  6
CONTINUOUS
 62
     0
100
AcDbLine
 10
645.701045543
 20
210.9740745148
 11
645.701045543
 21
179.8871179931
  0
LINE
  5
457
100
AcDbEntity
  8
レイヤ16
  6
CONTINUOUS
 62
     0
100
AcDbLine
 10
645.701045543
 20
276.9740745148
 11
645.701045543
 21
244.6914658191
  0
LINE
  5
458
100
AcDbEntity
  8
レイヤ16
  6
CONTINUOUS
 62
     0
100
AcDbLine
 10
535.2227846734
 20
276.9740745148
 11
645.701045543
 21
276.9740745148
  0
LINE
  5
459
100
AcDbEntity
  8
レイヤ16
  6
CONTINUOUS
 62
     0
100
AcDbLine
 10
535.2227846734
 20
244.6914658191
 11
535.2227846734
 21
276.9740745148
  0
INSERT
  5
45A
100
AcDbEntity
  8
レイヤ16
100
AcDbBlockReference
  2
BK3
 10
0
 20
0
  0
LINE
  5
45B
100
AcDbEntity
  8
レイヤ16
  6
CONTINUOUS
 62
     0
100
AcDbLine
 10
315.6462613559
 20
348.5
 11
378.1
 21
348.5
  0
TEXT
  5
45C
100
AcDbEntity
  8
レイヤ16
  6
CONTINUOUS
 62
     0
100
AcDbText
 10
307.6462613559
 20
354
 40
6.993333333333
  1
20
 41
0.8579599618684
 50
90
  7
STANDARD
100
AcDbText
  0
ARC
  5
45D
100
AcDbEntity
  8
レイヤ1
  6
CONTINUOUS
 62
     0
100
AcDbCircle
 10
703.1731954864
 20
325.7270785931
 40
2
100
AcDbArc
 50
-36.86989764585
 51
86.55261314813
  0
ARC
  5
45E
100
AcDbEntity
  8
レイヤ1
  6
CONTINUOUS
 62
     0
100
AcDbCircle
 10
690.0028865416
 20
321.5
 40
10
100
AcDbArc
 50
-90
 51
-36.86989764584
  0
LINE
  5
45F
100
AcDbEntity
  8
レイヤ1
  6
CONTINUOUS
 62
     0
100
AcDbLine
 10
356.0028865416
 20
377.5
 11
370.0028865416
 21
377.5
  0
ARC
  5
460
100
AcDbEntity
  8
レイヤ1
  6
CONTINUOUS
 62
     0
100
AcDbCircle
 10
356.0028865416
 20
376.5
 40
1
100
AcDbArc
 50
90
 51
180
  0
ARC
  5
461
100
AcDbEntity
  8
レイヤ1
  6
CONTINUOUS
 62
     0
100
AcDbCircle
 10
370.0028865416
 20
372.5
 40
5
100
AcDbArc
 50
0
 51
90
  0
ARC
  5
462
100
AcDbEntity
  8
レイヤ1
  6
CONTINUOUS
 62
     0
100
AcDbCircle
 10
356.0028865416
 20
319.5
 40
1
100
AcDbArc
 50
180
 51
270
  0
LINE
  5
463
100
AcDbEntity
  8
レイヤ1
  6
CONTINUOUS
 62
     0
100
AcDbLine
 10
375.0028865416
 20
371.0392969952
 11
375.0028865416
 21
372.5
  0
ARC
  5
464
100
AcDbEntity
  8
レイヤ1
  6
CONTINUOUS
 62
     0
100
AcDbCircle
 10
400.0028865416
 20
371.0392969952
 40
25
100
AcDbArc
 50
180
 51
266.5526131481
  0
ARC
  5
465
100
AcDbEntity
  8
レイヤ1
  6
CONTINUOUS
 62
     0
100
AcDbCircle
 10
368.417100104
 20
312.5
 40
1
100
AcDbArc
 50
-135
 51
-90
  0
LINE
  5
466
100
AcDbEntity
  8
レイヤ1
  6
CONTINUOUS
 62
     0
100
AcDbLine
 10
356.0028865416
 20
318.5
 11
360.5886729792
 21
318.5
  0
LINE
  5
467
100
AcDbEntity
  8
レイヤ1
  6
CONTINUOUS
 62
     0
100
AcDbLine
 10
361.2957797604
 20
318.2071067812
 11
367.7099933228
 21
311.7928932188
  0
ARC
  5
468
100
AcDbEntity
  8
レイヤ1
  6
CONTINUOUS
 62
     0
100
AcDbCircle
 10
360.5886729792
 20
317.5
 40
1
100
AcDbArc
 50
45.00000000001
 51
90
  0
LINE
  5
469
100
AcDbEntity
  8
レイヤ1
  6
CONTINUOUS
 62
     0
100
AcDbLine
 10
368.417100104
 20
311.5
 11
690.0028865416
 21
311.5
  0
LINE
  5
46A
100
AcDbEntity
  8
レイヤ1
  6
CONTINUOUS
 62
     0
100
AcDbLine
 10
703.2934593945
 20
327.7234594667
 11
398.499587691
 21
346.0845360753
  0
LINE
  5
46B
100
AcDbEntity
  8
レイヤ1
  6
CONTINUOUS
 62
     0
100
AcDbLine
 10
698.0028865416
 20
315.5
 11
704.7731954864
 21
324.5270785931
  0
TEXT
  5
46C
100
AcDbEntity
  8
レイヤ16
  6
CONTINUOUS
 62
     0
100
AcDbText
 10
344.0633333333
 20
130
 40
7.993333333333
  1
ＲＣ造納まり図例(後付け・先付けタイプ)
  7
STANDARD
100
AcDbText
  0
TEXT
  5
46D
100
AcDbEntity
  8
レイヤ16
  6
CONTINUOUS
 62
     0
100
AcDbText
 10
549.4188316059
 20
224.8967391304
 40
6.993333333333
  1
越えるところでは使用でき
 41
0.8579599618684
  7
STANDARD
100
AcDbText
  0
TEXT
  5
46E
100
AcDbEntity
  8
レイヤ16
  6
CONTINUOUS
 62
     0
100
AcDbText
 10
549.4188316059
 20
214.8967391304
 40
6.993333333333
  1
ません
 41
0.8579599618684
  7
STANDARD
100
AcDbText
  0
TEXT
  5
46F
100
AcDbEntity
  8
レイヤ16
  6
CONTINUOUS
 62
     0
100
AcDbText
 10
549.4188316059
 20
169.8967391304
 40
6.993333333333
  1
１００ｃｍを越える場合、雪下ろ
 41
0.8579599618684
  7
STANDARD
100
AcDbText
  0
TEXT
  5
470
100
AcDbEntity
  8
レイヤ16
  6
CONTINUOUS
 62
     0
100
AcDbText
 10
549.4188316059
 20
159.8967391304
 40
6.993333333333
  1
しが必要です。
 41
0.8579599618684
  7
STANDARD
100
AcDbText
  0
INSERT
  5
471
100
AcDbEntity
  8
レイヤ1
100
AcDbBlockReference
  2
BK4
 10
0
 20
0
  0
INSERT
  5
472
100
AcDbEntity
  8
レイヤ1
100
AcDbBlockReference
  2
BK5
 10
0
 20
0
  0
TEXT
  5
473
100
AcDbEntity
  8
レイヤ16
  6
CONTINUOUS
 62
     0
100
AcDbText
 10
549.4188316059
 20
234.8967391304
 40
6.993333333333
  1
設計風圧力が２５００Ｎ／㎡を
 41
0.8579599618684
  7
STANDARD
100
AcDbText
  0
LINE
  5
474
100
AcDbEntity
  8
レイヤ1_2
  6
CONTINUOUS
 62
     0
100
AcDbLine
 10
20
 20
562
 11
820
 21
562
  0
LINE
  5
475
100
AcDbEntity
  8
レイヤ1_2
  6
CONTINUOUS
 62
     0
100
AcDbLine
 10
820
 20
32
 11
820
 21
562
  0
LINE
  5
476
100
AcDbEntity
  8
レイヤ1_2
  6
CONTINUOUS
 62
     0
100
AcDbLine
 10
20
 20
32
 11
820
 21
32
  0
LINE
  5
477
100
AcDbEntity
  8
レイヤ1_2
  6
CONTINUOUS
 62
     0
100
AcDbLine
 10
20
 20
562
 11
20
 21
32
  0
LINE
  5
478
100
AcDbEntity
  8
レイヤ1_2
  6
CONTINUOUS
 62
     0
100
AcDbLine
 10
20
 20
532
 11
820
 21
532
  0
LINE
  5
479
100
AcDbEntity
  8
レイヤ1_2
  6
CONTINUOUS
 62
     0
100
AcDbLine
 10
20
 20
62
 11
820
 21
62
  0
LINE
  5
47A
100
AcDbEntity
  8
レイヤ1_2
  6
CONTINUOUS
 62
     0
100
AcDbLine
 10
477.2925484558
 20
57.24317891625
 11
476.067861314
 21
57.24317891625
  0
LINE
  5
47B
100
AcDbEntity
  8
レイヤ1_2
  6
CONTINUOUS
 62
     0
100
AcDbLine
 10
477.3997733216
 20
57.00778026654
 11
476.0169435008
 21
55.41785842571
  0
LINE
  5
47C
100
AcDbEntity
  8
レイヤ1_2
  6
CONTINUOUS
 62
     0
100
AcDbLine
 10
477.3794411913
 20
51.78361263054
 11
476.1272129368
 21
53.02129606299
  0
LINE
  5
47D
100
AcDbEntity
  8
レイヤ1_2
  6
CONTINUOUS
 62
     0
100
AcDbLine
 10
477.6215020257
 20
53.75804707442
 11
477.6215020257
 21
51.88470023755
  0
LINE
  5
47E
100
AcDbEntity
  8
レイヤ1_2
  6
CONTINUOUS
 62
     0
100
AcDbLine
 10
477.5797529184
 20
53.85866224812
 11
476.0169435008
 21
55.41785842571
  0
LINE
  5
47F
100
AcDbEntity
  8
レイヤ1_2
  6
CONTINUOUS
 62
     0
100
AcDbLine
 10
478.1879670721
 20
54.13472515828
 11
480.130157942
 21
54.13472515828
  0
LINE
  5
480
100
AcDbEntity
  8
レイヤ1_2
  6
CONTINUOUS
 62
     0
100
AcDbLine
 10
478.1879670721
 20
55.50522359458
 11
480.130157942
 21
55.50522359458
  0
LINE
  5
481
100
AcDbEntity
  8
レイヤ1_2
  6
CONTINUOUS
 62
     0
100
AcDbLine
 10
477.9747771628
 20
55.29203368522
 11
477.9747771628
 21
54.34791944202
  0
LINE
  5
482
100
AcDbEntity
  8
レイヤ1_2
  6
CONTINUOUS
 62
     0
100
AcDbLine
 10
480.130157942
 20
57.94904241231
 11
480.130157942
 21
55.50522359458
  0
LINE
  5
483
100
AcDbEntity
  8
レイヤ1_2
  6
CONTINUOUS
 62
     0
100
AcDbLine
 10
482.3797804195
 20
58.16223669604
 11
480.3433478514
 21
58.16223669604
  0
LINE
  5
484
100
AcDbEntity
  8
レイヤ1_2
  6
CONTINUOUS
 62
     0
100
AcDbLine
 10
482.5929703289
 20
57.94904241231
 11
482.5929703289
 21
55.50522359458
  0
LINE
  5
485
100
AcDbEntity
  8
レイヤ1_2
  6
CONTINUOUS
 62
     0
100
AcDbLine
 10
484.5351611988
 20
55.50522359458
 11
482.5929703289
 21
55.50522359458
  0
LINE
  5
486
100
AcDbEntity
  8
レイヤ1_2
  6
CONTINUOUS
 62
     0
100
AcDbLine
 10
484.5351611988
 20
54.13472515828
 11
482.5929703289
 21
54.13472515828
  0
LINE
  5
487
100
AcDbEntity
  8
レイヤ1_2
  6
CONTINUOUS
 62
     0
100
AcDbLine
 10
484.7483511082
 20
54.34791944202
 11
484.7483511082
 21
55.29203368522
  0
LINE
  5
488
100
AcDbEntity
  8
レイヤ1_2
  6
CONTINUOUS
 62
     0
100
AcDbLine
 10
472.0031850218
 20
57.24317891625
 11
473.733725765
 21
57.24317891625
  0
LINE
  5
489
100
AcDbEntity
  8
レイヤ1_2
  6
CONTINUOUS
 62
     0
100
AcDbLine
 10
472.0031850218
 20
55.87268047996
 11
473.733725765
 21
55.87268047996
  0
LINE
  5
48A
100
AcDbEntity
  8
レイヤ1_2
  6
CONTINUOUS
 62
     0
100
AcDbLine
 10
473.733725765
 20
57.94904241231
 11
473.733725765
 21
57.24317891625
  0
LINE
  5
48B
100
AcDbEntity
  8
レイヤ1_2
  6
CONTINUOUS
 62
     0
100
AcDbLine
 10
476.067861314
 20
57.94904241231
 11
476.067861314
 21
57.24317891625
  0
LINE
  5
48C
100
AcDbEntity
  8
レイヤ1_2
  6
CONTINUOUS
 62
     0
100
AcDbLine
 10
475.8546714046
 20
58.16223669604
 11
473.9469156744
 21
58.16223669604
  0
LINE
  5
48D
100
AcDbEntity
  8
レイヤ1_2
  6
CONTINUOUS
 62
     0
100
AcDbLine
 10
362.8426374634
 20
59.39049333403
 11
362.8426374634
 21
47.16440898203
  0
LINE
  5
48E
100
AcDbEntity
  8
レイヤ1_2
  6
CONTINUOUS
 62
     0
100
AcDbLine
 10
375.0528340579
 20
47.16440898203
 11
375.0528340579
 21
59.39049333403
  0
LINE
  5
48F
100
AcDbEntity
  8
レイヤ1_2
  6
CONTINUOUS
 62
     0
100
AcDbLine
 10
375.0528340579
 20
59.39049333403
 11
362.8426374634
 21
59.39049333403
  0
LINE
  5
490
100
AcDbEntity
  8
レイヤ1_2
  6
CONTINUOUS
 62
     0
100
AcDbLine
 10
362.8426374634
 20
47.16440898203
 11
375.0528340579
 21
47.16440898203
  0
LINE
  5
491
100
AcDbEntity
  8
レイヤ1_2
  6
CONTINUOUS
 62
     0
100
AcDbLine
 10
368.9142104926
 20
48.54001669718
 11
368.9142104926
 21
48.2485909554
  0
LINE
  5
492
100
AcDbEntity
  8
レイヤ1_2
  6
CONTINUOUS
 62
     0
100
AcDbLine
 10
368.6655005967
 20
49.96734273756
 11
368.6655005967
 21
53.1475932368
  0
LINE
  5
493
100
AcDbEntity
  8
レイヤ1_2
  6
CONTINUOUS
 62
     0
100
AcDbLine
 10
368.9142104926
 20
53.39155255321
 11
371.138356566
 21
55.6156986266
  0
LINE
  5
494
100
AcDbEntity
  8
レイヤ1_2
  6
CONTINUOUS
 62
     0
100
AcDbLine
 10
368.9142104926
 20
53.13779024544
 11
371.2668934237
 21
55.49046880214
  0
LINE
  5
495
100
AcDbEntity
  8
レイヤ1_2
  6
CONTINUOUS
 62
     0
100
AcDbLine
 10
371.762878418
 20
54.8431082987
 11
371.4473979464
 21
54.5232621933
  0
LINE
  5
496
100
AcDbEntity
  8
レイヤ1_2
  6
CONTINUOUS
 62
     0
100
AcDbLine
 10
369.8025251116
 20
50.52650693945
 11
369.8025251116
 21
50.08079672412
  0
LINE
  5
497
100
AcDbEntity
  8
レイヤ1_2
  6
CONTINUOUS
 62
     0
100
AcDbLine
 10
368.0258958736
 20
50.52650693945
 11
368.0258958736
 21
50.08079672412
  0
LINE
  5
498
100
AcDbEntity
  8
レイヤ1_2
  6
CONTINUOUS
 62
     0
100
AcDbLine
 10
366.3824928313
 20
54.5261011676
 11
366.0678172461
 21
54.84076800402
  0
LINE
  5
499
100
AcDbEntity
  8
レイヤ1_2
  6
CONTINUOUS
 62
     0
100
AcDbLine
 10
367.6458495151
 20
55.77522361048
 11
367.3301940682
 21
56.0908965549
  0
LINE
  5
49A
100
AcDbEntity
  8
レイヤ1_2
  6
CONTINUOUS
 62
     0
100
AcDbLine
 10
370.18257147
 20
55.77522361048
 11
370.4982269169
 21
56.0908965549
  0
LINE
  5
49B
100
AcDbEntity
  8
レイヤ1_2
  6
CONTINUOUS
 62
     0
100
AcDbLine
 10
454.0115244508
 20
58.02183213841
 11
454.3206708164
 21
57.24317891625
  0
LINE
  5
49C
100
AcDbEntity
  8
レイヤ1_2
  6
CONTINUOUS
 62
     0
100
AcDbLine
 10
453.8111427337
 20
58.16223669604
 11
451.0740740566
 21
58.16223669604
  0
LINE
  5
49D
100
AcDbEntity
  8
レイヤ1_2
  6
CONTINUOUS
 62
     0
100
AcDbLine
 10
422.3706703922
 20
52.59453567299
 11
422.3706703922
 21
52.38562828417
  0
LINE
  5
49E
100
AcDbEntity
  8
レイヤ1_2
  6
CONTINUOUS
 62
     0
100
AcDbLine
 10
424.8334477841
 20
52.59453567299
 11
424.8334477841
 21
52.38562828417
  0
LINE
  5
49F
100
AcDbEntity
  8
レイヤ1_2
  6
CONTINUOUS
 62
     0
100
AcDbLine
 10
422.2337697151
 20
55.87268047996
 11
422.1458271277
 21
55.5444399344
  0
LINE
  5
4A0
100
AcDbEntity
  8
レイヤ1_2
  6
CONTINUOUS
 62
     0
100
AcDbLine
 10
422.2337697151
 20
55.87268047996
 11
424.9703484613
 21
55.87268047996
  0
LINE
  5
4A1
100
AcDbEntity
  8
レイヤ1_2
  6
CONTINUOUS
 62
     0
100
AcDbLine
 10
422.1458271277
 20
55.5444399344
 11
425.0582910486
 21
55.5444399344
  0
LINE
  5
4A2
100
AcDbEntity
  8
レイヤ1_2
  6
CONTINUOUS
 62
     0
100
AcDbLine
 10
422.6010428764
 20
57.24317891625
 11
424.6030752999
 21
57.24317891625
  0
LINE
  5
4A3
100
AcDbEntity
  8
レイヤ1_2
  6
CONTINUOUS
 62
     0
100
AcDbLine
 10
420.6237869557
 20
57.24317891625
 11
420.8541594399
 21
57.24317891625
  0
LINE
  5
4A4
100
AcDbEntity
  8
レイヤ1_2
  6
CONTINUOUS
 62
     0
100
AcDbLine
 10
426.3499587365
 20
57.24317891625
 11
426.5803312206
 21
57.24317891625
  0
LINE
  5
4A5
100
AcDbEntity
  8
レイヤ1_2
  6
CONTINUOUS
 62
     0
100
AcDbLine
 10
433.5713644727
 20
55.36705434645
 11
433.5713644727
 21
55.87268047996
  0
LINE
  5
4A6
100
AcDbEntity
  8
レイヤ1_2
  6
CONTINUOUS
 62
     0
100
AcDbLine
 10
455.6355402295
 20
58.16223669604
 11
455.6355402295
 21
57.68646572363
  0
LINE
  5
4A7
100
AcDbEntity
  8
レイヤ1_2
  6
CONTINUOUS
 62
     0
100
AcDbLine
 10
457.1937302991
 20
58.16223669604
 11
455.6355402295
 21
58.16223669604
  0
LINE
  5
4A8
100
AcDbEntity
  8
レイヤ1_2
  6
CONTINUOUS
 62
     0
100
AcDbLine
 10
457.1937302991
 20
57.68646572363
 11
457.1937302991
 21
58.16223669604
  0
LINE
  5
4A9
100
AcDbEntity
  8
レイヤ1_2
  6
CONTINUOUS
 62
     0
100
AcDbLine
 10
455.6355402295
 20
57.68646572363
 11
457.1937302991
 21
57.68646572363
  0
LINE
  5
4AA
100
AcDbEntity
  8
レイヤ1_2
  6
CONTINUOUS
 62
     0
100
AcDbLine
 10
435.9055000217
 20
55.36705434645
 11
435.9055000217
 21
55.87268047996
  0
LINE
  5
4AB
100
AcDbEntity
  8
レイヤ1_2
  6
CONTINUOUS
 62
     0
100
AcDbLine
 10
394.3104409472
 20
57.0299890069
 11
394.3104409472
 21
55.67590762842
  0
LINE
  5
4AC
100
AcDbEntity
  8
レイヤ1_2
  6
CONTINUOUS
 62
     0
100
AcDbLine
 10
395.6816524078
 20
57.24317891625
 11
394.5236308565
 21
57.24317891625
  0
LINE
  5
4AD
100
AcDbEntity
  8
レイヤ1_2
  6
CONTINUOUS
 62
     0
100
AcDbLine
 10
377.2555281591
 20
50.80193556414
 11
377.2555281591
 21
49.32256749422
  0
LINE
  5
4AE
100
AcDbEntity
  8
レイヤ1_2
  6
CONTINUOUS
 62
     0
100
AcDbLine
 10
388.2704334627
 20
51.01512984788
 11
377.4687180685
 21
51.01512984788
  0
LINE
  5
4AF
100
AcDbEntity
  8
レイヤ1_2
  6
CONTINUOUS
 62
     0
100
AcDbLine
 10
388.4836233721
 20
49.32256749422
 11
388.4836233721
 21
50.80193556414
  0
LINE
  5
4B0
100
AcDbEntity
  8
レイヤ1_2
  6
CONTINUOUS
 62
     0
100
AcDbLine
 10
377.4687180685
 20
49.10937321048
 11
388.2704334627
 21
49.10937321048
  0
LINE
  5
4B1
100
AcDbEntity
  8
レイヤ1_2
  6
CONTINUOUS
 62
     0
100
AcDbLine
 10
377.2555281591
 20
57.94904241231
 11
377.2555281591
 21
56.46967434239
  0
LINE
  5
4B2
100
AcDbEntity
  8
レイヤ1_2
  6
CONTINUOUS
 62
     0
100
AcDbLine
 10
388.2704334627
 20
58.16223669604
 11
377.4687180685
 21
58.16223669604
  0
LINE
  5
4B3
100
AcDbEntity
  8
レイヤ1_2
  6
CONTINUOUS
 62
     0
100
AcDbLine
 10
388.4836233721
 20
56.46967434239
 11
388.4836233721
 21
57.94904241231
  0
LINE
  5
4B4
100
AcDbEntity
  8
レイヤ1_2
  6
CONTINUOUS
 62
     0
100
AcDbLine
 10
377.4687180685
 20
56.25648005865
 11
388.2704334627
 21
56.25648005865
  0
LINE
  5
4B5
100
AcDbEntity
  8
レイヤ1_2
  6
CONTINUOUS
 62
     0
100
AcDbLine
 10
422.3706703922
 20
54.1739414981
 11
422.3706703922
 21
54.00607894102
  0
LINE
  5
4B6
100
AcDbEntity
  8
レイヤ1_2
  6
CONTINUOUS
 62
     0
100
AcDbLine
 10
424.8334477841
 20
54.1739414981
 11
424.8334477841
 21
54.00607894102
  0
LINE
  5
4B7
100
AcDbEntity
  8
レイヤ1_2
  6
CONTINUOUS
 62
     0
100
AcDbLine
 10
427.3109580964
 20
55.87268047996
 11
427.0675324547
 21
55.5444399344
  0
LINE
  5
4B8
100
AcDbEntity
  8
レイヤ1_2
  6
CONTINUOUS
 62
     0
100
AcDbLine
 10
419.8931600799
 20
55.87268047996
 11
420.1365857216
 21
55.5444399344
  0
LINE
  5
4B9
100
AcDbEntity
  8
レイヤ1_2
  6
CONTINUOUS
 62
     0
100
AcDbLine
 10
424.9703484613
 20
55.87268047996
 11
425.0582910486
 21
55.5444399344
  0
LINE
  5
4BA
100
AcDbEntity
  8
レイヤ1_2
  6
CONTINUOUS
 62
     0
100
AcDbLine
 10
431.6436615579
 20
51.56814804224
 11
433.5873922105
 21
53.1084731334
  0
LINE
  5
4BB
100
AcDbEntity
  8
レイヤ1_2
  6
CONTINUOUS
 62
     0
100
AcDbLine
 10
442.6519527951
 20
54.98188121162
 11
442.6519527951
 21
55.87268047996
  0
LINE
  5
4BC
100
AcDbEntity
  8
レイヤ1_2
  6
CONTINUOUS
 62
     0
100
AcDbLine
 10
445.0058255582
 20
55.87268047996
 11
442.6519527951
 21
55.87268047996
  0
LINE
  5
4BD
100
AcDbEntity
  8
レイヤ1_2
  6
CONTINUOUS
 62
     0
100
AcDbLine
 10
445.2190154676
 20
57.0299890069
 11
445.2190154676
 21
56.0858747637
  0
LINE
  5
4BE
100
AcDbEntity
  8
レイヤ1_2
  6
CONTINUOUS
 62
     0
100
AcDbLine
 10
442.6519527951
 20
57.24317891625
 11
445.0058255582
 21
57.24317891625
  0
LINE
  5
4BF
100
AcDbEntity
  8
レイヤ1_2
  6
CONTINUOUS
 62
     0
100
AcDbLine
 10
442.6519527951
 20
54.97287873228
 11
445.0058255582
 21
54.97287873228
  0
LINE
  5
4C0
100
AcDbEntity
  8
レイヤ1_2
  6
CONTINUOUS
 62
     0
100
AcDbLine
 10
440.3177822511
 20
54.98188121162
 11
440.3177822511
 21
55.87268047996
  0
LINE
  5
4C1
100
AcDbEntity
  8
レイヤ1_2
  6
CONTINUOUS
 62
     0
100
AcDbLine
 10
440.3177822511
 20
57.24317891625
 11
439.704178858
 21
57.24317891625
  0
LINE
  5
4C2
100
AcDbEntity
  8
レイヤ1_2
  6
CONTINUOUS
 62
     0
100
AcDbLine
 10
437.7506845835
 20
53.60238029598
 11
439.2401793491
 21
53.60238029598
  0
LINE
  5
4C3
100
AcDbEntity
  8
レイヤ1_2
  6
CONTINUOUS
 62
     0
100
AcDbLine
 10
437.7506845835
 20
54.75968444854
 11
437.7506845835
 21
53.60238029598
  0
LINE
  5
4C4
100
AcDbEntity
  8
レイヤ1_2
  6
CONTINUOUS
 62
     0
100
AcDbLine
 10
440.3177822511
 20
54.97287873228
 11
437.9638744929
 21
54.97287873228
  0
LINE
  5
4C5
100
AcDbEntity
  8
レイヤ1_2
  6
CONTINUOUS
 62
     0
100
AcDbLine
 10
438.2239927785
 20
58.03612762068
 11
439.9493192577
 21
58.03612762068
  0
LINE
  5
4C6
100
AcDbEntity
  8
レイヤ1_2
  6
CONTINUOUS
 62
     0
100
AcDbLine
 10
439.704178858
 20
57.24317891625
 11
439.9493192577
 21
58.03612762068
  0
LINE
  5
4C7
100
AcDbEntity
  8
レイヤ1_2
  6
CONTINUOUS
 62
     0
100
AcDbLine
 10
457.3550575286
 20
57.24317891625
 11
454.3206708164
 21
57.24317891625
  0
LINE
  5
4C8
100
AcDbEntity
  8
レイヤ1_2
  6
CONTINUOUS
 62
     0
100
AcDbLine
 10
464.4151010403
 20
56.79173825975
 11
458.748070912
 21
55.17367601579
  0
LINE
  5
4C9
100
AcDbEntity
  8
レイヤ1_2
  6
CONTINUOUS
 62
     0
100
AcDbLine
 10
464.4151010403
 20
58.16223669604
 11
470.0821661636
 21
56.54417445209
  0
LINE
  5
4CA
100
AcDbEntity
  8
レイヤ1_2
  6
CONTINUOUS
 62
     0
100
AcDbLine
 10
470.0821661636
 20
55.17367601579
 11
470.0821661636
 21
56.54417445209
  0
LINE
  5
4CB
100
AcDbEntity
  8
レイヤ1_2
  6
CONTINUOUS
 62
     0
100
AcDbLine
 10
464.4151010403
 20
56.79173825975
 11
470.0821661636
 21
55.17367601579
  0
LINE
  5
4CC
100
AcDbEntity
  8
レイヤ1_2
  6
CONTINUOUS
 62
     0
100
AcDbLine
 10
435.9055000217
 20
53.35608505927
 11
437.0605119978
 21
52.43664233381
  0
LINE
  5
4CD
100
AcDbEntity
  8
レイヤ1_2
  6
CONTINUOUS
 62
     0
100
AcDbLine
 10
387.5873998694
 20
52.89611873111
 11
387.5873998694
 21
54.37549117541
  0
LINE
  5
4CE
100
AcDbEntity
  8
レイヤ1_2
  6
CONTINUOUS
 62
     0
100
AcDbLine
 10
378.5757518164
 20
54.58868545915
 11
387.3741749649
 21
54.58868545915
  0
LINE
  5
4CF
100
AcDbEntity
  8
レイヤ1_2
  6
CONTINUOUS
 62
     0
100
AcDbLine
 10
378.3625619071
 20
52.89611873111
 11
378.3625619071
 21
54.37549117541
  0
LINE
  5
4D0
100
AcDbEntity
  8
レイヤ1_2
  6
CONTINUOUS
 62
     0
100
AcDbLine
 10
378.5757518164
 20
52.68292882176
 11
387.3741749649
 21
52.68292882176
  0
LINE
  5
4D1
100
AcDbEntity
  8
レイヤ1_2
  6
CONTINUOUS
 62
     0
100
AcDbLine
 10
389.8548348327
 20
56.42418076357
 11
389.8548348327
 21
57.89121307461
  0
LINE
  5
4D2
100
AcDbEntity
  8
レイヤ1_2
  6
CONTINUOUS
 62
     0
100
AcDbLine
 10
393.4844175361
 20
57.28267521656
 11
390.1182426541
 21
58.09840570546
  0
LINE
  5
4D3
100
AcDbEntity
  8
レイヤ1_2
  6
CONTINUOUS
 62
     0
100
AcDbLine
 10
393.6473895334
 20
55.60845027467
 11
393.6473895334
 21
57.07547821133
  0
LINE
  5
4D4
100
AcDbEntity
  8
レイヤ1_2
  6
CONTINUOUS
 62
     0
100
AcDbLine
 10
393.3840167071
 20
55.40125326945
 11
390.0178068301
 21
56.21698375834
  0
LINE
  5
4D5
100
AcDbEntity
  8
レイヤ1_2
  6
CONTINUOUS
 62
     0
100
AcDbLine
 10
389.8548348327
 20
53.65647391095
 11
389.8548348327
 21
55.12350622199
  0
LINE
  5
4D6
100
AcDbEntity
  8
レイヤ1_2
  6
CONTINUOUS
 62
     0
100
AcDbLine
 10
393.3840167071
 20
52.63354641682
 11
390.0178068301
 21
53.44928128011
  0
LINE
  5
4D7
100
AcDbEntity
  8
レイヤ1_2
  6
CONTINUOUS
 62
     0
100
AcDbLine
 10
393.6473895334
 20
54.30777135871
 11
393.6473895334
 21
52.84074342205
  0
LINE
  5
4D8
100
AcDbEntity
  8
レイヤ1_2
  6
CONTINUOUS
 62
     0
100
AcDbLine
 10
393.4844175361
 20
54.51496836393
 11
390.1182426541
 21
55.33069885283
  0
LINE
  5
4D9
100
AcDbEntity
  8
レイヤ1_2
  6
CONTINUOUS
 62
     0
100
AcDbLine
 10
392.1678683601
 20
49.23090668166
 11
393.4017941979
 21
51.82214656668
  0
LINE
  5
4DA
100
AcDbEntity
  8
レイヤ1_2
  6
CONTINUOUS
 62
     0
100
AcDbLine
 10
390.2541284745
 20
49.10937321048
 11
391.9753955267
 21
49.10937321048
  0
LINE
  5
4DB
100
AcDbEntity
  8
レイヤ1_2
  6
CONTINUOUS
 62
     0
100
AcDbLine
 10
391.2957914492
 20
52.00547256617
 11
390.061620646
 21
49.41423705554
  0
LINE
  5
4DC
100
AcDbEntity
  8
レイヤ1_2
  6
CONTINUOUS
 62
     0
100
AcDbLine
 10
391.4882642827
 20
52.12699728859
 11
393.2093213645
 21
52.12699728859
  0
LINE
  5
4DD
100
AcDbEntity
  8
レイヤ1_2
  6
CONTINUOUS
 62
     0
100
AcDbLine
 10
397.6357415984
 20
55.46271771906
 11
394.5236308565
 21
55.46271771906
  0
LINE
  5
4DE
100
AcDbEntity
  8
レイヤ1_2
  6
CONTINUOUS
 62
     0
100
AcDbLine
 10
397.6357415984
 20
54.4583551046
 11
397.6357415984
 21
55.46271771906
  0
LINE
  5
4DF
100
AcDbEntity
  8
レイヤ1_2
  6
CONTINUOUS
 62
     0
100
AcDbLine
 10
394.8519895104
 20
54.4583551046
 11
397.6357415984
 21
54.4583551046
  0
LINE
  5
4E0
100
AcDbEntity
  8
レイヤ1_2
  6
CONTINUOUS
 62
     0
100
AcDbLine
 10
394.6387996011
 20
52.89108381676
 11
394.6387996011
 21
54.24516082086
  0
LINE
  5
4E1
100
AcDbEntity
  8
レイヤ1_2
  6
CONTINUOUS
 62
     0
100
AcDbLine
 10
397.6357415984
 20
52.67788953302
 11
394.8519895104
 21
52.67788953302
  0
LINE
  5
4E2
100
AcDbEntity
  8
レイヤ1_2
  6
CONTINUOUS
 62
     0
100
AcDbLine
 10
397.6357415984
 20
51.67352691857
 11
397.6357415984
 21
52.67788953302
  0
LINE
  5
4E3
100
AcDbEntity
  8
レイヤ1_2
  6
CONTINUOUS
 62
     0
100
AcDbLine
 10
394.5236308565
 20
51.67352691857
 11
397.6357415984
 21
51.67352691857
  0
LINE
  5
4E4
100
AcDbEntity
  8
レイヤ1_2
  6
CONTINUOUS
 62
     0
100
AcDbLine
 10
394.3104409472
 20
50.10625563073
 11
394.3104409472
 21
51.46033700921
  0
LINE
  5
4E5
100
AcDbEntity
  8
レイヤ1_2
  6
CONTINUOUS
 62
     0
100
AcDbLine
 10
400.0985539852
 20
51.67352691857
 11
403.2106997221
 21
51.67352691857
  0
LINE
  5
4E6
100
AcDbEntity
  8
レイヤ1_2
  6
CONTINUOUS
 62
     0
100
AcDbLine
 10
400.0985539852
 20
52.67788953302
 11
400.0985539852
 21
51.67352691857
  0
LINE
  5
4E7
100
AcDbEntity
  8
レイヤ1_2
  6
CONTINUOUS
 62
     0
100
AcDbLine
 10
402.8823060732
 20
52.67788953302
 11
400.0985539852
 21
52.67788953302
  0
LINE
  5
4E8
100
AcDbEntity
  8
レイヤ1_2
  6
CONTINUOUS
 62
     0
100
AcDbLine
 10
403.0954959825
 20
54.24516082086
 11
403.0954959825
 21
52.89108381676
  0
LINE
  5
4E9
100
AcDbEntity
  8
レイヤ1_2
  6
CONTINUOUS
 62
     0
100
AcDbLine
 10
400.0985539852
 20
54.4583551046
 11
402.8823060732
 21
54.4583551046
  0
LINE
  5
4EA
100
AcDbEntity
  8
レイヤ1_2
  6
CONTINUOUS
 62
     0
100
AcDbLine
 10
400.0985539852
 20
55.46271771906
 11
400.0985539852
 21
54.4583551046
  0
LINE
  5
4EB
100
AcDbEntity
  8
レイヤ1_2
  6
CONTINUOUS
 62
     0
100
AcDbLine
 10
403.2106997221
 20
55.46271771906
 11
400.0985539852
 21
55.46271771906
  0
LINE
  5
4EC
100
AcDbEntity
  8
レイヤ1_2
  6
CONTINUOUS
 62
     0
100
AcDbLine
 10
403.4238896315
 20
57.0299890069
 11
403.4238896315
 21
55.67590762842
  0
LINE
  5
4ED
100
AcDbEntity
  8
レイヤ1_2
  6
CONTINUOUS
 62
     0
100
AcDbLine
 10
403.2106997221
 20
57.24317891625
 11
402.0526431758
 21
57.24317891625
  0
LINE
  5
4EE
100
AcDbEntity
  8
レイヤ1_2
  6
CONTINUOUS
 62
     0
100
AcDbLine
 10
398.1772901616
 20
57.24317891625
 11
399.557005422
 21
57.24317891625
  0
LINE
  5
4EF
100
AcDbEntity
  8
レイヤ1_2
  6
CONTINUOUS
 62
     0
100
AcDbLine
 10
397.2202802386
 20
58.1008291134
 11
398.0275812922
 21
57.30458649889
  0
LINE
  5
4F0
100
AcDbEntity
  8
レイヤ1_2
  6
CONTINUOUS
 62
     0
100
AcDbLine
 10
400.514015345
 20
58.1008291134
 11
399.7067142914
 21
57.30458649889
  0
LINE
  5
4F1
100
AcDbEntity
  8
レイヤ1_2
  6
CONTINUOUS
 62
     0
100
AcDbLine
 10
395.0963250238
 20
58.16223669604
 11
397.0705713692
 21
58.16223669604
  0
LINE
  5
4F2
100
AcDbEntity
  8
レイヤ1_2
  6
CONTINUOUS
 62
     0
100
AcDbLine
 10
394.9965191108
 20
57.91892041387
 11
395.6816524078
 21
57.24317891625
  0
LINE
  5
4F3
100
AcDbEntity
  8
レイヤ1_2
  6
CONTINUOUS
 62
     0
100
AcDbLine
 10
402.7377764728
 20
57.91892041387
 11
402.0526431758
 21
57.24317891625
  0
LINE
  5
4F4
100
AcDbEntity
  8
レイヤ1_2
  6
CONTINUOUS
 62
     0
100
AcDbLine
 10
402.6379705598
 20
58.16223669604
 11
400.6637242144
 21
58.16223669604
  0
LINE
  5
4F5
100
AcDbEntity
  8
レイヤ1_2
  6
CONTINUOUS
 62
     0
100
AcDbLine
 10
409.1960449219
 20
56.25648005865
 11
405.3108582957
 21
56.25648005865
  0
LINE
  5
4F6
100
AcDbEntity
  8
レイヤ1_2
  6
CONTINUOUS
 62
     0
100
AcDbLine
 10
415.54407893
 20
56.25648005865
 11
411.6588573088
 21
56.25648005865
  0
LINE
  5
4F7
100
AcDbEntity
  8
レイヤ1_2
  6
CONTINUOUS
 62
     0
100
AcDbLine
 10
415.54407893
 20
58.16223669604
 11
405.3108582957
 21
58.16223669604
  0
LINE
  5
4F8
100
AcDbEntity
  8
レイヤ1_2
  6
CONTINUOUS
 62
     0
100
AcDbLine
 10
415.7572688394
 20
57.94904241231
 11
415.7572688394
 21
56.46967434239
  0
LINE
  5
4F9
100
AcDbEntity
  8
レイヤ1_2
  6
CONTINUOUS
 62
     0
100
AcDbLine
 10
417.4993229575
 20
57.24317891625
 11
418.8769035192
 21
57.24317891625
  0
LINE
  5
4FA
100
AcDbEntity
  8
レイヤ1_2
  6
CONTINUOUS
 62
     0
100
AcDbLine
 10
417.2861330482
 20
56.0858747637
 11
417.2861330482
 21
57.0299890069
  0
LINE
  5
4FB
100
AcDbEntity
  8
レイヤ1_2
  6
CONTINUOUS
 62
     0
100
AcDbLine
 10
417.4993229575
 20
55.87268047996
 11
419.8931600799
 21
55.87268047996
  0
LINE
  5
4FC
100
AcDbEntity
  8
レイヤ1_2
  6
CONTINUOUS
 62
     0
100
AcDbLine
 10
417.4993229575
 20
55.5444399344
 11
420.1365857216
 21
55.5444399344
  0
LINE
  5
4FD
100
AcDbEntity
  8
レイヤ1_2
  6
CONTINUOUS
 62
     0
100
AcDbLine
 10
417.2861330482
 20
54.38713140745
 11
417.2861330482
 21
55.33124565066
  0
LINE
  5
4FE
100
AcDbEntity
  8
レイヤ1_2
  6
CONTINUOUS
 62
     0
100
AcDbLine
 10
417.4993229575
 20
54.1739414981
 11
422.3706703922
 21
54.1739414981
  0
LINE
  5
4FF
100
AcDbEntity
  8
レイヤ1_2
  6
CONTINUOUS
 62
     0
100
AcDbLine
 10
417.8276816114
 20
54.00607894102
 11
422.3706703922
 21
54.00607894102
  0
LINE
  5
500
100
AcDbEntity
  8
レイヤ1_2
  6
CONTINUOUS
 62
     0
100
AcDbLine
 10
417.8276816114
 20
52.59453567299
 11
422.3706703922
 21
52.59453567299
  0
LINE
  5
501
100
AcDbEntity
  8
レイヤ1_2
  6
CONTINUOUS
 62
     0
100
AcDbLine
 10
417.614491702
 20
52.80772558234
 11
417.614491702
 21
53.79288903166
  0
LINE
  5
502
100
AcDbEntity
  8
レイヤ1_2
  6
CONTINUOUS
 62
     0
100
AcDbLine
 10
417.4993229575
 20
52.38562828417
 11
422.3706703922
 21
52.38562828417
  0
LINE
  5
503
100
AcDbEntity
  8
レイヤ1_2
  6
CONTINUOUS
 62
     0
100
AcDbLine
 10
417.2861330482
 20
51.22831975723
 11
417.2861330482
 21
52.17243400044
  0
LINE
  5
504
100
AcDbEntity
  8
レイヤ1_2
  6
CONTINUOUS
 62
     0
100
AcDbLine
 10
429.7047952188
 20
52.38562828417
 11
424.8334477841
 21
52.38562828417
  0
LINE
  5
505
100
AcDbEntity
  8
レイヤ1_2
  6
CONTINUOUS
 62
     0
100
AcDbLine
 10
429.9179851282
 20
52.17243400044
 11
429.9179851282
 21
51.22831975723
  0
LINE
  5
506
100
AcDbEntity
  8
レイヤ1_2
  6
CONTINUOUS
 62
     0
100
AcDbLine
 10
429.3764365649
 20
52.59453567299
 11
424.8334477841
 21
52.59453567299
  0
LINE
  5
507
100
AcDbEntity
  8
レイヤ1_2
  6
CONTINUOUS
 62
     0
100
AcDbLine
 10
429.5896264743
 20
53.79288903166
 11
429.5896264743
 21
52.80772558234
  0
LINE
  5
508
100
AcDbEntity
  8
レイヤ1_2
  6
CONTINUOUS
 62
     0
100
AcDbLine
 10
429.3764365649
 20
54.00607894102
 11
424.8334477841
 21
54.00607894102
  0
LINE
  5
509
100
AcDbEntity
  8
レイヤ1_2
  6
CONTINUOUS
 62
     0
100
AcDbLine
 10
429.7047952188
 20
54.1739414981
 11
424.8334477841
 21
54.1739414981
  0
LINE
  5
50A
100
AcDbEntity
  8
レイヤ1_2
  6
CONTINUOUS
 62
     0
100
AcDbLine
 10
429.9179851282
 20
55.33124565066
 11
429.9179851282
 21
54.38713140745
  0
LINE
  5
50B
100
AcDbEntity
  8
レイヤ1_2
  6
CONTINUOUS
 62
     0
100
AcDbLine
 10
429.7047952188
 20
55.5444399344
 11
427.0675324547
 21
55.5444399344
  0
LINE
  5
50C
100
AcDbEntity
  8
レイヤ1_2
  6
CONTINUOUS
 62
     0
100
AcDbLine
 10
429.7047952188
 20
55.87268047996
 11
427.3109580964
 21
55.87268047996
  0
LINE
  5
50D
100
AcDbEntity
  8
レイヤ1_2
  6
CONTINUOUS
 62
     0
100
AcDbLine
 10
429.7047952188
 20
57.24317891625
 11
428.3272146571
 21
57.24317891625
  0
LINE
  5
50E
100
AcDbEntity
  8
レイヤ1_2
  6
CONTINUOUS
 62
     0
100
AcDbLine
 10
429.9179851282
 20
57.0299890069
 11
429.9179851282
 21
56.0858747637
  0
LINE
  5
50F
100
AcDbEntity
  8
レイヤ1_2
  6
CONTINUOUS
 62
     0
100
AcDbLine
 10
427.1979240506
 20
58.07603073857
 11
426.5803312206
 21
57.24317891625
  0
LINE
  5
510
100
AcDbEntity
  8
レイヤ1_2
  6
CONTINUOUS
 62
     0
100
AcDbLine
 10
426.1460425182
 20
58.00422524854
 11
426.3499587365
 21
57.24317891625
  0
LINE
  5
511
100
AcDbEntity
  8
レイヤ1_2
  6
CONTINUOUS
 62
     0
100
AcDbLine
 10
421.0580756581
 20
58.00422524854
 11
420.8541594399
 21
57.24317891625
  0
LINE
  5
512
100
AcDbEntity
  8
レイヤ1_2
  6
CONTINUOUS
 62
     0
100
AcDbLine
 10
420.0061941257
 20
58.07603073857
 11
420.6237869557
 21
57.24317891625
  0
LINE
  5
513
100
AcDbEntity
  8
レイヤ1_2
  6
CONTINUOUS
 62
     0
100
AcDbLine
 10
418.4777148626
 20
58.16223669604
 11
419.834928299
 21
58.16223669604
  0
LINE
  5
514
100
AcDbEntity
  8
レイヤ1_2
  6
CONTINUOUS
 62
     0
100
AcDbLine
 10
418.3635609748
 20
57.93545120563
 11
418.8769035192
 21
57.24317891625
  0
LINE
  5
515
100
AcDbEntity
  8
レイヤ1_2
  6
CONTINUOUS
 62
     0
100
AcDbLine
 10
428.8405572015
 20
57.93545120563
 11
428.3272146571
 21
57.24317891625
  0
LINE
  5
516
100
AcDbEntity
  8
レイヤ1_2
  6
CONTINUOUS
 62
     0
100
AcDbLine
 10
428.7264033137
 20
58.16223669604
 11
427.3691898773
 21
58.16223669604
  0
LINE
  5
517
100
AcDbEntity
  8
レイヤ1_2
  6
CONTINUOUS
 62
     0
100
AcDbLine
 10
424.5420439142
 20
58.16223669604
 11
425.9400965864
 21
58.16223669604
  0
LINE
  5
518
100
AcDbEntity
  8
レイヤ1_2
  6
CONTINUOUS
 62
     0
100
AcDbLine
 10
424.4047582914
 20
57.98332007419
 11
424.6030752999
 21
57.24317891625
  0
LINE
  5
519
100
AcDbEntity
  8
レイヤ1_2
  6
CONTINUOUS
 62
     0
100
AcDbLine
 10
422.6620742621
 20
58.16223669604
 11
421.2640215899
 21
58.16223669604
  0
LINE
  5
51A
100
AcDbEntity
  8
レイヤ1_2
  6
CONTINUOUS
 62
     0
100
AcDbLine
 10
422.799359885
 20
57.98332007419
 11
422.6010428764
 21
57.24317891625
  0
LINE
  5
51B
100
AcDbEntity
  8
レイヤ1_2
  6
CONTINUOUS
 62
     0
100
AcDbLine
 10
431.8408237295
 20
57.24317891625
 11
433.5713644727
 21
57.24317891625
  0
LINE
  5
51C
100
AcDbEntity
  8
レイヤ1_2
  6
CONTINUOUS
 62
     0
100
AcDbLine
 10
431.6276338202
 20
56.0858747637
 11
431.6276338202
 21
57.0299890069
  0
LINE
  5
51D
100
AcDbEntity
  8
レイヤ1_2
  6
CONTINUOUS
 62
     0
100
AcDbLine
 10
431.8408237295
 20
55.87268047996
 11
433.5713644727
 21
55.87268047996
  0
LINE
  5
51E
100
AcDbEntity
  8
レイヤ1_2
  6
CONTINUOUS
 62
     0
100
AcDbLine
 10
433.5713644727
 20
57.94904241231
 11
433.5713644727
 21
57.24317891625
  0
LINE
  5
51F
100
AcDbEntity
  8
レイヤ1_2
  6
CONTINUOUS
 62
     0
100
AcDbLine
 10
435.6923101123
 20
58.16223669604
 11
433.7845543821
 21
58.16223669604
  0
LINE
  5
520
100
AcDbEntity
  8
レイヤ1_2
  6
CONTINUOUS
 62
     0
100
AcDbLine
 10
435.9055000217
 20
57.94904241231
 11
435.9055000217
 21
57.24317891625
  0
LINE
  5
521
100
AcDbEntity
  8
レイヤ1_2
  6
CONTINUOUS
 62
     0
100
AcDbLine
 10
436.8473220884
 20
57.24317891625
 11
435.9055000217
 21
57.24317891625
  0
LINE
  5
522
100
AcDbEntity
  8
レイヤ1_2
  6
CONTINUOUS
 62
     0
100
AcDbLine
 10
436.8473220884
 20
55.87268047996
 11
435.9055000217
 21
55.87268047996
  0
LINE
  5
523
100
AcDbEntity
  8
レイヤ1_2
  6
CONTINUOUS
 62
     0
100
AcDbLine
 10
437.0605119978
 20
56.0858747637
 11
437.0605119978
 21
57.0299890069
  0
LINE
  5
524
100
AcDbEntity
  8
レイヤ1_2
  6
CONTINUOUS
 62
     0
100
AcDbLine
 10
431.6276338202
 20
53.72366005297
 11
431.6276338202
 21
51.55410627417
  0
LINE
  5
525
100
AcDbEntity
  8
レイヤ1_2
  6
CONTINUOUS
 62
     0
100
AcDbLine
 10
431.7084024201
 20
53.89074834433
 11
433.5713644727
 21
55.36705434645
  0
LINE
  5
526
100
AcDbEntity
  8
レイヤ1_2
  6
CONTINUOUS
 62
     0
100
AcDbLine
 10
436.9800933484
 20
54.51162633564
 11
435.9055000217
 21
55.36705434645
  0
LINE
  5
527
100
AcDbEntity
  8
レイヤ1_2
  6
CONTINUOUS
 62
     0
100
AcDbLine
 10
437.0605119978
 20
54.34482675354
 11
437.0605119978
 21
52.43664233381
  0
LINE
  5
528
100
AcDbEntity
  8
レイヤ1_2
  6
CONTINUOUS
 62
     0
100
AcDbLine
 10
437.8441563905
 20
55.87268047996
 11
440.3177822511
 21
55.87268047996
  0
LINE
  5
529
100
AcDbEntity
  8
レイヤ1_2
  6
CONTINUOUS
 62
     0
100
AcDbLine
 10
437.6404851376
 20
56.1488483753
 11
438.2239927785
 21
58.03612762068
  0
LINE
  5
52A
100
AcDbEntity
  8
レイヤ1_2
  6
CONTINUOUS
 62
     0
100
AcDbLine
 10
440.3177822511
 20
57.94904241231
 11
440.3177822511
 21
57.24317891625
  0
LINE
  5
52B
100
AcDbEntity
  8
レイヤ1_2
  6
CONTINUOUS
 62
     0
100
AcDbLine
 10
442.6519527951
 20
57.94904241231
 11
442.6519527951
 21
57.24317891625
  0
LINE
  5
52C
100
AcDbEntity
  8
レイヤ1_2
  6
CONTINUOUS
 62
     0
100
AcDbLine
 10
442.4387628857
 20
58.16223669604
 11
440.5309721604
 21
58.16223669604
  0
LINE
  5
52D
100
AcDbEntity
  8
レイヤ1_2
  6
CONTINUOUS
 62
     0
100
AcDbLine
 10
445.0058255582
 20
53.60238029598
 11
443.7295556971
 21
53.60238029598
  0
LINE
  5
52E
100
AcDbEntity
  8
レイヤ1_2
  6
CONTINUOUS
 62
     0
100
AcDbLine
 10
445.2190154676
 20
53.81557020534
 11
445.2190154676
 21
54.75968444854
  0
LINE
  5
52F
100
AcDbEntity
  8
レイヤ1_2
  6
CONTINUOUS
 62
     0
100
AcDbLine
 10
446.5533071393
 20
53.15435165788
 11
447.8251676228
 21
53.15435165788
  0
LINE
  5
530
100
AcDbEntity
  8
レイヤ1_2
  6
CONTINUOUS
 62
     0
100
AcDbLine
 10
446.3401172299
 20
54.31165581044
 11
446.3401172299
 21
53.36754156724
  0
LINE
  5
531
100
AcDbEntity
  8
レイヤ1_2
  6
CONTINUOUS
 62
     0
100
AcDbLine
 10
451.5598054982
 20
54.52485009418
 11
446.5533071393
 21
54.52485009418
  0
LINE
  5
532
100
AcDbEntity
  8
レイヤ1_2
  6
CONTINUOUS
 62
     0
100
AcDbLine
 10
451.5598054982
 20
53.15435165788
 11
450.2879450146
 21
53.15435165788
  0
LINE
  5
533
100
AcDbEntity
  8
レイヤ1_2
  6
CONTINUOUS
 62
     0
100
AcDbLine
 10
451.7729954075
 20
53.36754156724
 11
451.7729954075
 21
54.31165581044
  0
LINE
  5
534
100
AcDbEntity
  8
レイヤ1_2
  6
CONTINUOUS
 62
     0
100
AcDbLine
 10
446.5533071393
 20
55.87268047996
 11
451.9813909936
 21
55.87268047996
  0
LINE
  5
535
100
AcDbEntity
  8
レイヤ1_2
  6
CONTINUOUS
 62
     0
100
AcDbLine
 10
446.3401172299
 20
57.0299890069
 11
446.3401172299
 21
56.0858747637
  0
LINE
  5
536
100
AcDbEntity
  8
レイヤ1_2
  6
CONTINUOUS
 62
     0
100
AcDbLine
 10
446.5533071393
 20
57.24317891625
 11
451.4382676526
 21
57.24317891625
  0
LINE
  5
537
100
AcDbEntity
  8
レイヤ1_2
  6
CONTINUOUS
 62
     0
100
AcDbLine
 10
457.5682474379
 20
56.0858747637
 11
457.5682474379
 21
57.0299890069
  0
LINE
  5
538
100
AcDbEntity
  8
レイヤ1_2
  6
CONTINUOUS
 62
     0
100
AcDbLine
 10
457.3550575286
 20
55.87268047996
 11
454.8678535844
 21
55.87268047996
  0
LINE
  5
539
100
AcDbEntity
  8
レイヤ1_2
  6
CONTINUOUS
 62
     0
100
AcDbLine
 10
458.9612608214
 20
52.01805766485
 11
461.6361782707
 21
52.01805766485
  0
LINE
  5
53A
100
AcDbEntity
  8
レイヤ1_2
  6
CONTINUOUS
 62
     0
100
AcDbLine
 10
458.748070912
 20
53.17536181741
 11
458.748070912
 21
52.23124757421
  0
LINE
  5
53B
100
AcDbEntity
  8
レイヤ1_2
  6
CONTINUOUS
 62
     0
100
AcDbLine
 10
460.5007635286
 20
55.29203368522
 11
460.5007635286
 21
54.34791944202
  0
LINE
  5
53C
100
AcDbEntity
  8
レイヤ1_2
  6
CONTINUOUS
 62
     0
100
AcDbLine
 10
468.1162836377
 20
55.50522359458
 11
460.713953438
 21
55.50522359458
  0
LINE
  5
53D
100
AcDbEntity
  8
レイヤ1_2
  6
CONTINUOUS
 62
     0
100
AcDbLine
 10
468.329473547
 20
54.34791944202
 11
468.329473547
 21
55.29203368522
  0
LINE
  5
53E
100
AcDbEntity
  8
レイヤ1_2
  6
CONTINUOUS
 62
     0
100
AcDbLine
 10
468.1162836377
 20
54.13472515828
 11
460.713953438
 21
54.13472515828
  0
LINE
  5
53F
100
AcDbEntity
  8
レイヤ1_2
  6
CONTINUOUS
 62
     0
100
AcDbLine
 10
469.8689762543
 20
53.38855610115
 11
458.9612608214
 21
53.38855610115
  0
LINE
  5
540
100
AcDbEntity
  8
レイヤ1_2
  6
CONTINUOUS
 62
     0
100
AcDbLine
 10
469.8689762543
 20
52.01805766485
 11
464.0989906576
 21
52.01805766485
  0
LINE
  5
541
100
AcDbEntity
  8
レイヤ1_2
  6
CONTINUOUS
 62
     0
100
AcDbLine
 10
470.0821661636
 20
52.23124757421
 11
470.0821661636
 21
53.17536181741
  0
LINE
  5
542
100
AcDbEntity
  8
レイヤ1_2
  6
CONTINUOUS
 62
     0
100
AcDbLine
 10
471.7899951125
 20
56.0858747637
 11
471.7899951125
 21
57.0299890069
  0
LINE
  5
543
100
AcDbEntity
  8
レイヤ1_2
  6
CONTINUOUS
 62
     0
100
AcDbLine
 10
458.748070912
 20
56.54417445209
 11
464.4151010403
 21
58.16223669604
  0
LINE
  5
544
100
AcDbEntity
  8
レイヤ1_2
  6
CONTINUOUS
 62
     0
100
AcDbLine
 10
458.748070912
 20
56.54417445209
 11
458.748070912
 21
55.17367601579
  0
LINE
  5
545
100
AcDbEntity
  8
レイヤ1_2
  6
CONTINUOUS
 62
     0
100
AcDbLine
 10
469.6961006547
 20
51.36619154735
 11
467.3319393438
 21
51.36619154735
  0
LINE
  5
546
100
AcDbEntity
  8
レイヤ1_2
  6
CONTINUOUS
 62
     0
100
AcDbLine
 10
405.0976683863
 20
57.94904241231
 11
405.0976683863
 21
56.46967434239
  0
LINE
  5
547
100
AcDbEntity
  8
レイヤ1_2
  6
CONTINUOUS
 62
     0
100
AcDbLine
 10
369.1629203885
 20
49.96734273756
 11
369.1629203885
 21
53.1475932368
  0
LINE
  5
548
100
AcDbEntity
  8
レイヤ1_2
  6
CONTINUOUS
 62
     0
100
AcDbLine
 10
368.9142104926
 20
53.60236717283
 11
371.0329514434
 21
55.72110374922
  0
LINE
  5
549
100
AcDbEntity
  8
レイヤ1_2
  6
CONTINUOUS
 62
     0
100
AcDbLine
 10
369.1629203885
 20
53.1475932368
 11
371.3863665607
 21
55.3710087883
  0
LINE
  5
54A
100
AcDbEntity
  8
レイヤ1_2
  6
CONTINUOUS
 62
     0
100
AcDbLine
 10
368.9142104926
 20
57.91787493643
 11
368.9142104926
 21
58.20930067821
  0
LINE
  5
54B
100
AcDbEntity
  8
レイヤ1_2
  6
CONTINUOUS
 62
     0
100
AcDbLine
 10
373.6031286762
 20
53.228948004
 11
373.8945675412
 21
53.228948004
  0
LINE
  5
54C
100
AcDbEntity
  8
レイヤ1_2
  6
CONTINUOUS
 62
     0
100
AcDbLine
 10
364.2252923089
 20
53.228948004
 11
363.933853444
 21
53.228948004
  0
LINE
  5
54D
100
AcDbEntity
  8
レイヤ1_2
  6
CONTINUOUS
 62
     0
100
AcDbLine
 10
451.4382676526
 20
57.24317891625
 11
451.0664801285
 21
58.18311124971
  0
LINE
  5
54E
100
AcDbEntity
  8
レイヤ1_2
  6
CONTINUOUS
 62
     0
100
AcDbLine
 10
369.0032029318
 20
49.97746068446
 11
369.0032029318
 21
53.22677831024
  0
LINE
  5
54F
100
AcDbEntity
  8
レイヤ1_2
  6
CONTINUOUS
 62
     0
100
AcDbLine
 10
368.8378862653
 20
49.97669079313
 11
368.8378862653
 21
53.21411884706
  0
LINE
  5
550
100
AcDbEntity
  8
レイヤ1_2
  6
CONTINUOUS
 62
     0
100
AcDbLine
 10
368.9142104926
 20
53.60236717283
 11
366.7954695418
 21
55.72110374922
  0
LINE
  5
551
100
AcDbEntity
  8
レイヤ1_2
  6
CONTINUOUS
 62
     0
100
AcDbLine
 10
368.6655005967
 20
53.1475932368
 11
366.4420894196
 21
55.3710087883
  0
LINE
  5
552
100
AcDbEntity
  8
レイヤ1_2
  6
CONTINUOUS
 62
     0
100
AcDbLine
 10
368.9142104926
 20
53.39155255321
 11
366.6900644192
 21
55.6156986266
  0
LINE
  5
553
100
AcDbEntity
  8
レイヤ1_2
  6
CONTINUOUS
 62
     0
100
AcDbLine
 10
368.9142104926
 20
53.13779024544
 11
366.5615275615
 21
55.49046880214
  0
LINE
  5
554
100
AcDbEntity
  8
レイヤ1_2
  6
CONTINUOUS
 62
     0
100
AcDbLine
 10
471.8248851879
 20
53.67798275009
 11
473.733725765
 21
55.87268047996
  0
LINE
  5
555
100
AcDbEntity
  8
レイヤ1_2
  6
CONTINUOUS
 62
     0
100
AcDbLine
 10
480.130157942
 20
54.13472515828
 11
480.130157942
 21
50.47759259345
  0
LINE
  5
556
100
AcDbEntity
  8
レイヤ1_2
  6
CONTINUOUS
 62
     0
100
AcDbLine
 10
482.5929703289
 20
54.13472515828
 11
482.5929703289
 21
50.47759259345
  0
LINE
  5
557
100
AcDbEntity
  8
レイヤ1_2
  6
CONTINUOUS
 62
     0
100
AcDbLine
 10
472.0393699145
 20
50.84459016866
 11
473.733725765
 21
52.79269082942
  0
LINE
  5
558
100
AcDbEntity
  8
レイヤ1_2
  6
CONTINUOUS
 62
     0
100
AcDbLine
 10
477.9320131987
 20
50.47987164678
 11
480.130157942
 21
50.47987164678
  0
LINE
  5
559
100
AcDbEntity
  8
レイヤ1_2
  6
CONTINUOUS
 62
     0
100
AcDbLine
 10
477.7188232893
 20
50.26667736304
 11
477.7188232893
 21
49.32256749422
  0
LINE
  5
55A
100
AcDbEntity
  8
レイヤ1_2
  6
CONTINUOUS
 62
     0
100
AcDbLine
 10
484.7911150722
 20
50.47987164678
 11
482.5929703289
 21
50.47987164678
  0
LINE
  5
55B
100
AcDbEntity
  8
レイヤ1_2
  6
CONTINUOUS
 62
     0
100
AcDbLine
 10
484.7911150722
 20
49.10937321048
 11
477.9320131987
 21
49.10937321048
  0
LINE
  5
55C
100
AcDbEntity
  8
レイヤ1_2
  6
CONTINUOUS
 62
     0
100
AcDbLine
 10
485.0043049816
 20
49.32256749422
 11
485.0043049816
 21
50.26667736304
  0
LINE
  5
55D
100
AcDbEntity
  8
レイヤ1_2
  6
CONTINUOUS
 62
     0
100
AcDbLine
 10
476.067861314
 20
49.32256749422
 11
476.067861314
 21
53.0799477846
  0
LINE
  5
55E
100
AcDbEntity
  8
レイヤ1_2
  6
CONTINUOUS
 62
     0
100
AcDbLine
 10
473.9469156744
 20
49.10937321048
 11
475.8546714046
 21
49.10937321048
  0
LINE
  5
55F
100
AcDbEntity
  8
レイヤ1_2
  6
CONTINUOUS
 62
     0
100
AcDbLine
 10
473.733725765
 20
49.32256749422
 11
473.733725765
 21
52.79269082942
  0
LINE
  5
560
100
AcDbEntity
  8
レイヤ1_2
  6
CONTINUOUS
 62
     0
100
AcDbLine
 10
457.5564191074
 20
49.0766265825
 11
454.8678535844
 21
55.87268047996
  0
LINE
  5
561
100
AcDbEntity
  8
レイヤ1_2
  6
CONTINUOUS
 62
     0
100
AcDbLine
 10
462.8152668485
 20
50.47759259345
 11
467.3319393438
 21
50.47759259345
  0
LINE
  5
562
100
AcDbEntity
  8
レイヤ1_2
  6
CONTINUOUS
 62
     0
100
AcDbLine
 10
467.3319393438
 20
50.47759259345
 11
467.3319393438
 21
51.36463864153
  0
LINE
  5
563
100
AcDbEntity
  8
レイヤ1_2
  6
CONTINUOUS
 62
     0
100
AcDbLine
 10
439.3737904906
 20
49.10937321048
 11
440.3177822511
 21
51.75246702658
  0
LINE
  5
564
100
AcDbEntity
  8
レイヤ1_2
  6
CONTINUOUS
 62
     0
100
AcDbLine
 10
443.5959445556
 20
49.10937321048
 11
442.6519527951
 21
51.75246702658
  0
LINE
  5
565
100
AcDbEntity
  8
レイヤ1_2
  6
CONTINUOUS
 62
     0
100
AcDbLine
 10
447.8251676228
 20
53.15435165788
 11
447.8251676228
 21
50.47759259345
  0
LINE
  5
566
100
AcDbEntity
  8
レイヤ1_2
  6
CONTINUOUS
 62
     0
100
AcDbLine
 10
450.2879450146
 20
53.15435165788
 11
450.2879450146
 21
50.47759259345
  0
LINE
  5
567
100
AcDbEntity
  8
レイヤ1_2
  6
CONTINUOUS
 62
     0
100
AcDbLine
 10
464.0989906576
 20
52.01805766485
 11
462.8152668485
 21
50.47759259345
  0
LINE
  5
568
100
AcDbEntity
  8
レイヤ1_2
  6
CONTINUOUS
 62
     0
100
AcDbLine
 10
397.6357415984
 20
49.89306572137
 11
394.5236308565
 21
49.89306572137
  0
LINE
  5
569
100
AcDbEntity
  8
レイヤ1_2
  6
CONTINUOUS
 62
     0
100
AcDbLine
 10
397.6357415984
 20
49.32256749422
 11
397.6357415984
 21
49.89306572137
  0
LINE
  5
56A
100
AcDbEntity
  8
レイヤ1_2
  6
CONTINUOUS
 62
     0
100
AcDbLine
 10
399.8853640759
 20
49.10937321048
 11
397.8489665028
 21
49.10937321048
  0
LINE
  5
56B
100
AcDbEntity
  8
レイヤ1_2
  6
CONTINUOUS
 62
     0
100
AcDbLine
 10
400.0985539852
 20
49.89306572137
 11
400.0985539852
 21
49.32256749422
  0
LINE
  5
56C
100
AcDbEntity
  8
レイヤ1_2
  6
CONTINUOUS
 62
     0
100
AcDbLine
 10
403.2106997221
 20
49.89306572137
 11
400.0985539852
 21
49.89306572137
  0
LINE
  5
56D
100
AcDbEntity
  8
レイヤ1_2
  6
CONTINUOUS
 62
     0
100
AcDbLine
 10
403.4238896315
 20
51.46033700921
 11
403.4238896315
 21
50.10625563073
  0
LINE
  5
56E
100
AcDbEntity
  8
レイヤ1_2
  6
CONTINUOUS
 62
     0
100
AcDbLine
 10
409.1960449219
 20
51.01512984788
 11
409.1960449219
 21
56.25648005865
  0
LINE
  5
56F
100
AcDbEntity
  8
レイヤ1_2
  6
CONTINUOUS
 62
     0
100
AcDbLine
 10
405.0265934182
 20
51.01512984788
 11
409.1960449219
 21
51.01512984788
  0
LINE
  5
570
100
AcDbEntity
  8
レイヤ1_2
  6
CONTINUOUS
 62
     0
100
AcDbLine
 10
404.8134035088
 20
49.32256749422
 11
404.8134035088
 21
50.80193556414
  0
LINE
  5
571
100
AcDbEntity
  8
レイヤ1_2
  6
CONTINUOUS
 62
     0
100
AcDbLine
 10
415.8283088124
 20
49.10937321048
 11
405.0265934182
 21
49.10937321048
  0
LINE
  5
572
100
AcDbEntity
  8
レイヤ1_2
  6
CONTINUOUS
 62
     0
100
AcDbLine
 10
416.0414987218
 20
50.80193556414
 11
416.0414987218
 21
49.32256749422
  0
LINE
  5
573
100
AcDbEntity
  8
レイヤ1_2
  6
CONTINUOUS
 62
     0
100
AcDbLine
 10
411.6588573088
 20
51.01512984788
 11
415.8283088124
 21
51.01512984788
  0
LINE
  5
574
100
AcDbEntity
  8
レイヤ1_2
  6
CONTINUOUS
 62
     0
100
AcDbLine
 10
411.6588573088
 20
56.25648005865
 11
411.6588573088
 21
51.01512984788
  0
LINE
  5
575
100
AcDbEntity
  8
レイヤ1_2
  6
CONTINUOUS
 62
     0
100
AcDbLine
 10
417.4993229575
 20
51.01512984788
 11
420.3679730625
 21
51.01512984788
  0
LINE
  5
576
100
AcDbEntity
  8
レイヤ1_2
  6
CONTINUOUS
 62
     0
100
AcDbLine
 10
424.8334477841
 20
49.32256749422
 11
424.8334477841
 21
50.47759259345
  0
LINE
  5
577
100
AcDbEntity
  8
レイヤ1_2
  6
CONTINUOUS
 62
     0
100
AcDbLine
 10
422.5838603016
 20
49.10937321048
 11
424.6202578747
 21
49.10937321048
  0
LINE
  5
578
100
AcDbEntity
  8
レイヤ1_2
  6
CONTINUOUS
 62
     0
100
AcDbLine
 10
422.3706703922
 20
49.32256749422
 11
422.3706703922
 21
50.47759259345
  0
LINE
  5
579
100
AcDbEntity
  8
レイヤ1_2
  6
CONTINUOUS
 62
     0
100
AcDbLine
 10
420.5424584348
 20
49.15005934284
 11
422.3706703922
 21
50.47759259345
  0
LINE
  5
57A
100
AcDbEntity
  8
レイヤ1_2
  6
CONTINUOUS
 62
     0
100
AcDbLine
 10
426.6616597415
 20
49.15005934284
 11
424.8334477841
 21
50.47759259345
  0
LINE
  5
57B
100
AcDbEntity
  8
レイヤ1_2
  6
CONTINUOUS
 62
     0
100
AcDbLine
 10
429.7047952188
 20
51.01512984788
 11
426.8361451138
 21
51.01512984788
  0
LINE
  5
57C
100
AcDbEntity
  8
レイヤ1_2
  6
CONTINUOUS
 62
     0
100
AcDbLine
 10
417.9886938854
 20
49.36836727982
 11
420.3679730625
 21
51.01512984788
  0
LINE
  5
57D
100
AcDbEntity
  8
レイヤ1_2
  6
CONTINUOUS
 62
     0
100
AcDbLine
 10
418.0696024655
 20
49.10937321048
 11
420.4172111128
 21
49.10937321048
  0
LINE
  5
57E
100
AcDbEntity
  8
レイヤ1_2
  6
CONTINUOUS
 62
     0
100
AcDbLine
 10
429.215424291
 20
49.36836727982
 11
426.8361451138
 21
51.01512984788
  0
LINE
  5
57F
100
AcDbEntity
  8
レイヤ1_2
  6
CONTINUOUS
 62
     0
100
AcDbLine
 10
429.1345157108
 20
49.10937321048
 11
426.7869070635
 21
49.10937321048
  0
LINE
  5
580
100
AcDbEntity
  8
レイヤ1_2
  6
CONTINUOUS
 62
     0
100
AcDbLine
 10
459.4065379728
 20
49.34248843248
 11
461.6361782707
 21
52.01805766485
  0
LINE
  5
581
100
AcDbEntity
  8
レイヤ1_2
  6
CONTINUOUS
 62
     0
100
AcDbLine
 10
437.7822501282
 20
49.10937321048
 11
439.3737904906
 21
49.10937321048
  0
LINE
  5
582
100
AcDbEntity
  8
レイヤ1_2
  6
CONTINUOUS
 62
     0
100
AcDbLine
 10
437.6484290163
 20
49.29930452767
 11
439.185307094
 21
53.60238029598
  0
LINE
  5
583
100
AcDbEntity
  8
レイヤ1_2
  6
CONTINUOUS
 62
     0
100
AcDbLine
 10
445.187484918
 20
49.10937321048
 11
443.5959445556
 21
49.10937321048
  0
LINE
  5
584
100
AcDbEntity
  8
レイヤ1_2
  6
CONTINUOUS
 62
     0
100
AcDbLine
 10
445.3213060298
 20
49.29930452767
 11
443.7844279521
 21
53.60238029598
  0
LINE
  5
585
100
AcDbEntity
  8
レイヤ1_2
  6
CONTINUOUS
 62
     0
100
AcDbLine
 10
471.7899951125
 20
53.58470779036
 11
471.7899951125
 21
50.93786512839
  0
LINE
  5
586
100
AcDbEntity
  8
レイヤ1_2
  6
CONTINUOUS
 62
     0
100
AcDbLine
 10
442.6519527951
 20
49.32256749422
 11
442.6519527951
 21
51.75246702658
  0
LINE
  5
587
100
AcDbEntity
  8
レイヤ1_2
  6
CONTINUOUS
 62
     0
100
AcDbLine
 10
440.5309721604
 20
49.10937321048
 11
442.4387628857
 21
49.10937321048
  0
LINE
  5
588
100
AcDbEntity
  8
レイヤ1_2
  6
CONTINUOUS
 62
     0
100
AcDbLine
 10
440.3177822511
 20
49.32256749422
 11
440.3177822511
 21
51.75246702658
  0
LINE
  5
589
100
AcDbEntity
  8
レイヤ1_2
  6
CONTINUOUS
 62
     0
100
AcDbLine
 10
446.5533071393
 20
50.47987164678
 11
447.8251676228
 21
50.47987164678
  0
LINE
  5
58A
100
AcDbEntity
  8
レイヤ1_2
  6
CONTINUOUS
 62
     0
100
AcDbLine
 10
446.3401172299
 20
50.26667736304
 11
446.3401172299
 21
49.32256749422
  0
LINE
  5
58B
100
AcDbEntity
  8
レイヤ1_2
  6
CONTINUOUS
 62
     0
100
AcDbLine
 10
451.5598054982
 20
50.47987164678
 11
450.2879450146
 21
50.47987164678
  0
LINE
  5
58C
100
AcDbEntity
  8
レイヤ1_2
  6
CONTINUOUS
 62
     0
100
AcDbLine
 10
451.5598054982
 20
49.10937321048
 11
446.5533071393
 21
49.10937321048
  0
LINE
  5
58D
100
AcDbEntity
  8
レイヤ1_2
  6
CONTINUOUS
 62
     0
100
AcDbLine
 10
451.7729954075
 20
49.32256749422
 11
451.7729954075
 21
50.26667736304
  0
LINE
  5
58E
100
AcDbEntity
  8
レイヤ1_2
  6
CONTINUOUS
 62
     0
100
AcDbLine
 10
433.5713644727
 20
49.32256749422
 11
433.5713644727
 21
53.09118994783
  0
LINE
  5
58F
100
AcDbEntity
  8
レイヤ1_2
  6
CONTINUOUS
 62
     0
100
AcDbLine
 10
435.6923101123
 20
49.10937321048
 11
433.7845543821
 21
49.10937321048
  0
LINE
  5
590
100
AcDbEntity
  8
レイヤ1_2
  6
CONTINUOUS
 62
     0
100
AcDbLine
 10
435.9055000217
 20
49.32256749422
 11
435.9055000217
 21
53.35608505927
  0
LINE
  5
591
100
AcDbEntity
  8
レイヤ1_2
  6
CONTINUOUS
 62
     0
100
AcDbLine
 10
469.6961006547
 20
49.10937321048
 11
459.515722562
 21
49.10937321048
  0
LINE
  5
592
100
AcDbEntity
  8
レイヤ1_2
  6
CONTINUOUS
 62
     0
100
AcDbLine
 10
469.9093255592
 20
51.15299726361
 11
469.9093255592
 21
49.32256749422
  0
LINE
  5
593
100
AcDbEntity
  8
レイヤ1_2
  6
CONTINUOUS
 62
     0
100
AcDbLine
 10
454.6189687132
 20
49.21703114012
 11
451.9813909936
 21
55.87268047996
  0
LINE
  5
594
100
AcDbEntity
  8
レイヤ1_2
  6
CONTINUOUS
 62
     0
100
AcDbLine
 10
454.8193504304
 20
49.0766265825
 11
457.5418961573
 21
49.0766265825
  0
ARC
  5
595
100
AcDbEntity
  8
レイヤ1_2
  6
CONTINUOUS
 62
     0
100
AcDbCircle
 10
477.2925484558
 20
57.10105085189
 40
0.1421279960157
100
AcDbArc
 50
-41.01509094242
 51
90
  0
ARC
  5
596
100
AcDbEntity
  8
レイヤ1_2
  6
CONTINUOUS
 62
     0
100
AcDbCircle
 10
477.4793520894
 20
51.88470023755
 40
0.1421279960157
100
AcDbArc
 50
-134.6650390624
 51
0
  0
ARC
  5
597
100
AcDbEntity
  8
レイヤ1_2
  6
CONTINUOUS
 62
     0
100
AcDbCircle
 10
477.4793520894
 20
53.75804707442
 40
0.1421279960157
100
AcDbArc
 50
0
 51
45.06604003906
  0
ARC
  5
598
100
AcDbEntity
  8
レイヤ1_2
  6
CONTINUOUS
 62
     0
100
AcDbCircle
 10
477.9320131987
 20
49.32256749422
 40
0.2131919940236
100
AcDbArc
 50
180
 51
270
  0
ARC
  5
599
100
AcDbEntity
  8
レイヤ1_2
  6
CONTINUOUS
 62
     0
100
AcDbCircle
 10
477.9320131987
 20
50.26667736304
 40
0.2131919940236
100
AcDbArc
 50
90
 51
180
  0
ARC
  5
59A
100
AcDbEntity
  8
レイヤ1_2
  6
CONTINUOUS
 62
     0
100
AcDbCircle
 10
478.1879670721
 20
54.34791944202
 40
0.2131919940236
100
AcDbArc
 50
180
 51
270
  0
ARC
  5
59B
100
AcDbEntity
  8
レイヤ1_2
  6
CONTINUOUS
 62
     0
100
AcDbCircle
 10
478.1879670721
 20
55.29203368522
 40
0.2131919940236
100
AcDbArc
 50
90
 51
180
  0
ARC
  5
59C
100
AcDbEntity
  8
レイヤ1_2
  6
CONTINUOUS
 62
     0
100
AcDbCircle
 10
480.3433478514
 20
57.94904241231
 40
0.2131919940236
100
AcDbArc
 50
90
 51
180
  0
ARC
  5
59D
100
AcDbEntity
  8
レイヤ1_2
  6
CONTINUOUS
 62
     0
100
AcDbCircle
 10
482.3797804195
 20
57.94904241231
 40
0.2131919940236
100
AcDbArc
 50
0
 51
90
  0
ARC
  5
59E
100
AcDbEntity
  8
レイヤ1_2
  6
CONTINUOUS
 62
     0
100
AcDbCircle
 10
484.5351611988
 20
55.29203368522
 40
0.2131919940236
100
AcDbArc
 50
0
 51
90
  0
ARC
  5
59F
100
AcDbEntity
  8
レイヤ1_2
  6
CONTINUOUS
 62
     0
100
AcDbCircle
 10
484.5351611988
 20
54.34791944202
 40
0.2131919940236
100
AcDbArc
 50
-90
 51
0
  0
ARC
  5
5A0
100
AcDbEntity
  8
レイヤ1_2
  6
CONTINUOUS
 62
     0
100
AcDbCircle
 10
484.7911150722
 20
50.26667736304
 40
0.2131919940236
100
AcDbArc
 50
0
 51
90
  0
ARC
  5
5A1
100
AcDbEntity
  8
レイヤ1_2
  6
CONTINUOUS
 62
     0
100
AcDbCircle
 10
484.7911150722
 20
49.32256749422
 40
0.2131919940236
100
AcDbArc
 50
-90
 51
0
  0
ARC
  5
5A2
100
AcDbEntity
  8
レイヤ1_2
  6
CONTINUOUS
 62
     0
100
AcDbCircle
 10
475.8546714046
 20
49.32256749422
 40
0.2131919940236
100
AcDbArc
 50
-90
 51
0
  0
ARC
  5
5A3
100
AcDbEntity
  8
レイヤ1_2
  6
CONTINUOUS
 62
     0
100
AcDbCircle
 10
473.9469156744
 20
49.32256749422
 40
0.2131919940236
100
AcDbArc
 50
180
 51
270
  0
ARC
  5
5A4
100
AcDbEntity
  8
レイヤ1_2
  6
CONTINUOUS
 62
     0
100
AcDbCircle
 10
473.9469156744
 20
57.94904241231
 40
0.2131919940236
100
AcDbArc
 50
90
 51
180
  0
ARC
  5
5A5
100
AcDbEntity
  8
レイヤ1_2
  6
CONTINUOUS
 62
     0
100
AcDbCircle
 10
475.8546714046
 20
57.94904241231
 40
0.2131919940236
100
AcDbArc
 50
0
 51
90
  0
ARC
  5
5A6
100
AcDbEntity
  8
レイヤ1_2
  6
CONTINUOUS
 62
     0
100
AcDbCircle
 10
368.9142104926
 20
53.228948004
 40
3.271071703738
100
AcDbArc
 50
-74.2427520752
 51
29.52146911621
  0
ARC
  5
5A7
100
AcDbEntity
  8
レイヤ1_2
  6
CONTINUOUS
 62
     0
100
AcDbCircle
 10
368.9142104926
 20
53.228948004
 40
3.271071703738
100
AcDbArc
 50
61.03636169434
 51
118.9636230469
  0
CIRCLE
  5
5A8
100
AcDbEntity
  8
レイヤ1_2
  6
CONTINUOUS
 62
     0
100
AcDbCircle
 10
368.9142104926
 20
53.228948004
 40
4.68892802603
  0
ARC
  5
5A9
100
AcDbEntity
  8
レイヤ1_2
  6
CONTINUOUS
 62
     0
100
AcDbCircle
 10
369.239979512
 20
48.22664467801
 40
0.3265134846382
100
AcDbArc
 50
86.80894470217
 51
176.1456298828
  0
ARC
  5
5AA
100
AcDbEntity
  8
レイヤ1_2
  6
CONTINUOUS
 62
     0
100
AcDbCircle
 10
368.9142104926
 20
53.228948004
 40
3.271071703738
100
AcDbArc
 50
-94.36083984375
 51
-85.63917541504
  0
ARC
  5
5AB
100
AcDbEntity
  8
レイヤ1_2
  6
CONTINUOUS
 62
     0
100
AcDbCircle
 10
368.9142104926
 20
53.228948004
 40
3.271071703738
100
AcDbArc
 50
40.90832519531
 51
49.63009643555
  0
ARC
  5
5AC
100
AcDbEntity
  8
レイヤ1_2
  6
CONTINUOUS
 62
     0
100
AcDbCircle
 10
368.9142104926
 20
53.228948004
 40
3.271071703738
100
AcDbArc
 50
130.3698883057
 51
139.0916595459
  0
ARC
  5
5AD
100
AcDbEntity
  8
レイヤ1_2
  6
CONTINUOUS
 62
     0
100
AcDbCircle
 10
368.9142104926
 20
53.228948004
 40
3.271071703738
100
AcDbArc
 50
150.478515625
 51
254.2427368164
  0
ARC
  5
5AE
100
AcDbEntity
  8
レイヤ1_2
  6
CONTINUOUS
 62
     0
100
AcDbCircle
 10
368.9142104926
 20
53.228948004
 40
3.112819118389
100
AcDbArc
 50
-73.41914367676
 51
28.71322631836
  0
ARC
  5
5AF
100
AcDbEntity
  8
レイヤ1_2
  6
CONTINUOUS
 62
     0
100
AcDbCircle
 10
368.9142104926
 20
53.228948004
 40
3.124824884776
100
AcDbArc
 50
61.80863952636
 51
118.1913452148
  0
ARC
  5
5B0
100
AcDbEntity
  8
レイヤ1_2
  6
CONTINUOUS
 62
     0
100
AcDbCircle
 10
368.9142104926
 20
53.228948004
 40
3.112819118389
100
AcDbArc
 50
151.2867584229
 51
253.419128418
  0
CIRCLE
  5
5B1
100
AcDbEntity
  8
レイヤ1_2
  6
CONTINUOUS
 62
     0
100
AcDbCircle
 10
368.9142104926
 20
53.228948004
 40
4.177802746821
  0
CIRCLE
  5
5B2
100
AcDbEntity
  8
レイヤ1_2
  6
CONTINUOUS
 62
     0
100
AcDbCircle
 10
368.9142104926
 20
53.228948004
 40
4.540401060149
  0
CIRCLE
  5
5B3
100
AcDbEntity
  8
レイヤ1_2
  6
CONTINUOUS
 62
     0
100
AcDbCircle
 10
368.9142104926
 20
53.228948004
 40
4.359183786458
  0
ARC
  5
5B4
100
AcDbEntity
  8
レイヤ1_2
  6
CONTINUOUS
 62
     0
100
AcDbCircle
 10
368.9142104926
 20
53.228948004
 40
2.84468778404
100
AcDbArc
 50
153.345199585
 51
251.3209228516
  0
ARC
  5
5B5
100
AcDbEntity
  8
レイヤ1_2
  6
CONTINUOUS
 62
     0
100
AcDbCircle
 10
368.9142104926
 20
53.228948004
 40
2.84468778404
100
AcDbArc
 50
-71.32093811035
 51
26.65478515625
  0
ARC
  5
5B6
100
AcDbEntity
  8
レイヤ1_2
  6
CONTINUOUS
 62
     0
100
AcDbCircle
 10
368.9142104926
 20
53.228948004
 40
2.84468778404
100
AcDbArc
 50
63.52107238769
 51
116.4789123535
  0
ARC
  5
5B7
100
AcDbEntity
  8
レイヤ1_2
  6
CONTINUOUS
 62
     0
100
AcDbCircle
 10
368.9142104926
 20
53.228948004
 40
2.963755470445
100
AcDbArc
 50
-72.22804260254
 51
27.54460144043
  0
ARC
  5
5B8
100
AcDbEntity
  8
レイヤ1_2
  6
CONTINUOUS
 62
     0
100
AcDbCircle
 10
368.9142104926
 20
53.228948004
 40
2.971273940502
100
AcDbArc
 50
62.98234558105
 51
117.0176391602
  0
ARC
  5
5B9
100
AcDbEntity
  8
レイヤ1_2
  6
CONTINUOUS
 62
     0
100
AcDbCircle
 10
368.9142104926
 20
53.228948004
 40
2.974730522936
100
AcDbArc
 50
152.263092041
 51
252.424041748
  0
ARC
  5
5BA
100
AcDbEntity
  8
レイヤ1_2
  6
CONTINUOUS
 62
     0
100
AcDbCircle
 10
453.8111427337
 20
57.94904241231
 40
0.2131919940236
100
AcDbArc
 50
19.96281433103
 51
90
  0
ARC
  5
5BB
100
AcDbEntity
  8
レイヤ1_2
  6
CONTINUOUS
 62
     0
100
AcDbCircle
 10
394.5236308565
 20
55.67590762842
 40
0.2131919940236
100
AcDbArc
 50
180
 51
270
  0
ARC
  5
5BC
100
AcDbEntity
  8
レイヤ1_2
  6
CONTINUOUS
 62
     0
100
AcDbCircle
 10
394.5236308565
 20
57.0299890069
 40
0.2131919940236
100
AcDbArc
 50
90
 51
180
  0
ARC
  5
5BD
100
AcDbEntity
  8
レイヤ1_2
  6
CONTINUOUS
 62
     0
100
AcDbCircle
 10
377.4687180685
 20
49.32256749422
 40
0.2131919940236
100
AcDbArc
 50
180
 51
270
  0
ARC
  5
5BE
100
AcDbEntity
  8
レイヤ1_2
  6
CONTINUOUS
 62
     0
100
AcDbCircle
 10
377.4687180685
 20
50.80193556414
 40
0.2131919940236
100
AcDbArc
 50
90
 51
180
  0
ARC
  5
5BF
100
AcDbEntity
  8
レイヤ1_2
  6
CONTINUOUS
 62
     0
100
AcDbCircle
 10
388.2704334627
 20
50.80193556414
 40
0.2131919940236
100
AcDbArc
 50
0
 51
90
  0
ARC
  5
5C0
100
AcDbEntity
  8
レイヤ1_2
  6
CONTINUOUS
 62
     0
100
AcDbCircle
 10
388.2704334627
 20
49.32256749422
 40
0.2131919940236
100
AcDbArc
 50
-90
 51
0
  0
ARC
  5
5C1
100
AcDbEntity
  8
レイヤ1_2
  6
CONTINUOUS
 62
     0
100
AcDbCircle
 10
377.4687180685
 20
56.46967434239
 40
0.2131919940236
100
AcDbArc
 50
180
 51
270
  0
ARC
  5
5C2
100
AcDbEntity
  8
レイヤ1_2
  6
CONTINUOUS
 62
     0
100
AcDbCircle
 10
377.4687180685
 20
57.94904241231
 40
0.2131919940236
100
AcDbArc
 50
90
 51
180
  0
ARC
  5
5C3
100
AcDbEntity
  8
レイヤ1_2
  6
CONTINUOUS
 62
     0
100
AcDbCircle
 10
388.2704334627
 20
57.94904241231
 40
0.2131919940236
100
AcDbArc
 50
0
 51
90
  0
ARC
  5
5C4
100
AcDbEntity
  8
レイヤ1_2
  6
CONTINUOUS
 62
     0
100
AcDbCircle
 10
388.2704334627
 20
56.46967434239
 40
0.2131919940236
100
AcDbArc
 50
-90
 51
0
  0
ARC
  5
5C5
100
AcDbEntity
  8
レイヤ1_2
  6
CONTINUOUS
 62
     0
100
AcDbCircle
 10
445.0058255582
 20
56.0858747637
 40
0.2131919940236
100
AcDbArc
 50
-90
 51
0
  0
ARC
  5
5C6
100
AcDbEntity
  8
レイヤ1_2
  6
CONTINUOUS
 62
     0
100
AcDbCircle
 10
445.0058255582
 20
57.0299890069
 40
0.2131919940236
100
AcDbArc
 50
0
 51
90
  0
ARC
  5
5C7
100
AcDbEntity
  8
レイヤ1_2
  6
CONTINUOUS
 62
     0
100
AcDbCircle
 10
445.0058255582
 20
54.75968444854
 40
0.2131919940236
100
AcDbArc
 50
0
 51
90
  0
ARC
  5
5C8
100
AcDbEntity
  8
レイヤ1_2
  6
CONTINUOUS
 62
     0
100
AcDbCircle
 10
437.9638744929
 20
54.75968444854
 40
0.2131919940236
100
AcDbArc
 50
90
 51
180
  0
ARC
  5
5C9
100
AcDbEntity
  8
レイヤ1_2
  6
CONTINUOUS
 62
     0
100
AcDbCircle
 10
457.3550575286
 20
57.0299890069
 40
0.2131919940236
100
AcDbArc
 50
0
 51
90
  0
ARC
  5
5CA
100
AcDbEntity
  8
レイヤ1_2
  6
CONTINUOUS
 62
     0
100
AcDbCircle
 10
387.3741749649
 20
54.37549117541
 40
0.2131919940236
100
AcDbArc
 50
0
 51
90
  0
ARC
  5
5CB
100
AcDbEntity
  8
レイヤ1_2
  6
CONTINUOUS
 62
     0
100
AcDbCircle
 10
387.3741749649
 20
52.89611873111
 40
0.2131919940236
100
AcDbArc
 50
-90
 51
0
  0
ARC
  5
5CC
100
AcDbEntity
  8
レイヤ1_2
  6
CONTINUOUS
 62
     0
100
AcDbCircle
 10
378.5757518164
 20
54.37549117541
 40
0.2131919940236
100
AcDbArc
 50
90
 51
180
  0
ARC
  5
5CD
100
AcDbEntity
  8
レイヤ1_2
  6
CONTINUOUS
 62
     0
100
AcDbCircle
 10
378.5757518164
 20
52.89611873111
 40
0.2131919940236
100
AcDbArc
 50
180
 51
270
  0
ARC
  5
5CE
100
AcDbEntity
  8
レイヤ1_2
  6
CONTINUOUS
 62
     0
100
AcDbCircle
 10
390.0680247421
 20
57.89121307461
 40
0.2131919940236
100
AcDbArc
 50
76.37803649899
 51
180
  0
ARC
  5
5CF
100
AcDbEntity
  8
レイヤ1_2
  6
CONTINUOUS
 62
     0
100
AcDbCircle
 10
390.0680247421
 20
56.42418076357
 40
0.2131919940236
100
AcDbArc
 50
180
 51
256.378036499
  0
ARC
  5
5D0
100
AcDbEntity
  8
レイヤ1_2
  6
CONTINUOUS
 62
     0
100
AcDbCircle
 10
393.4341996241
 20
57.07547821133
 40
0.2131919940236
100
AcDbArc
 50
0
 51
76.37803649899
  0
ARC
  5
5D1
100
AcDbEntity
  8
レイヤ1_2
  6
CONTINUOUS
 62
     0
100
AcDbCircle
 10
393.4341996241
 20
55.60845027467
 40
0.2131919940236
100
AcDbArc
 50
-103.621963501
 51
0
  0
ARC
  5
5D2
100
AcDbEntity
  8
レイヤ1_2
  6
CONTINUOUS
 62
     0
100
AcDbCircle
 10
390.0680247421
 20
55.12350622199
 40
0.2131919940236
100
AcDbArc
 50
76.37803649899
 51
180
  0
ARC
  5
5D3
100
AcDbEntity
  8
レイヤ1_2
  6
CONTINUOUS
 62
     0
100
AcDbCircle
 10
390.0680247421
 20
53.65647391095
 40
0.2131919940236
100
AcDbArc
 50
180
 51
256.378036499
  0
ARC
  5
5D4
100
AcDbEntity
  8
レイヤ1_2
  6
CONTINUOUS
 62
     0
100
AcDbCircle
 10
393.4341996241
 20
52.84074342205
 40
0.2131919940236
100
AcDbArc
 50
-103.621963501
 51
0
  0
ARC
  5
5D5
100
AcDbEntity
  8
レイヤ1_2
  6
CONTINUOUS
 62
     0
100
AcDbCircle
 10
393.4341996241
 20
54.30777135871
 40
0.2131919940236
100
AcDbArc
 50
0
 51
76.37803649899
  0
ARC
  5
5D6
100
AcDbEntity
  8
レイヤ1_2
  6
CONTINUOUS
 62
     0
100
AcDbCircle
 10
393.2093213645
 20
51.91380300485
 40
0.2131919940236
100
AcDbArc
 50
-25.46334838869
 51
90
  0
ARC
  5
5D7
100
AcDbEntity
  8
レイヤ1_2
  6
CONTINUOUS
 62
     0
100
AcDbCircle
 10
391.9753955267
 20
49.32256749422
 40
0.2131919940236
100
AcDbArc
 50
-90
 51
-25.46334838867
  0
ARC
  5
5D8
100
AcDbEntity
  8
レイヤ1_2
  6
CONTINUOUS
 62
     0
100
AcDbCircle
 10
390.2541284745
 20
49.32256749422
 40
0.2131919940236
100
AcDbArc
 50
154.5324707032
 51
270
  0
ARC
  5
5D9
100
AcDbEntity
  8
レイヤ1_2
  6
CONTINUOUS
 62
     0
100
AcDbCircle
 10
391.4882642827
 20
51.91380300485
 40
0.2131919940236
100
AcDbArc
 50
90
 51
154.5324707032
  0
ARC
  5
5DA
100
AcDbEntity
  8
レイヤ1_2
  6
CONTINUOUS
 62
     0
100
AcDbCircle
 10
394.8519895104
 20
54.24516082086
 40
0.2131919940236
100
AcDbArc
 50
90
 51
180
  0
ARC
  5
5DB
100
AcDbEntity
  8
レイヤ1_2
  6
CONTINUOUS
 62
     0
100
AcDbCircle
 10
394.8519895104
 20
52.89108381676
 40
0.2131919940236
100
AcDbArc
 50
180
 51
270
  0
ARC
  5
5DC
100
AcDbEntity
  8
レイヤ1_2
  6
CONTINUOUS
 62
     0
100
AcDbCircle
 10
394.5236308565
 20
51.46033700921
 40
0.2131919940236
100
AcDbArc
 50
90
 51
180
  0
ARC
  5
5DD
100
AcDbEntity
  8
レイヤ1_2
  6
CONTINUOUS
 62
     0
100
AcDbCircle
 10
394.5236308565
 20
50.10625563073
 40
0.2131919940236
100
AcDbArc
 50
180
 51
270
  0
ARC
  5
5DE
100
AcDbEntity
  8
レイヤ1_2
  6
CONTINUOUS
 62
     0
100
AcDbCircle
 10
397.8489665028
 20
49.32256749422
 40
0.2131919940236
100
AcDbArc
 50
180
 51
270
  0
ARC
  5
5DF
100
AcDbEntity
  8
レイヤ1_2
  6
CONTINUOUS
 62
     0
100
AcDbCircle
 10
399.8853640759
 20
49.32256749422
 40
0.2131919940236
100
AcDbArc
 50
-90
 51
0
  0
ARC
  5
5E0
100
AcDbEntity
  8
レイヤ1_2
  6
CONTINUOUS
 62
     0
100
AcDbCircle
 10
403.2106997221
 20
50.10625563073
 40
0.2131919940236
100
AcDbArc
 50
-90
 51
0
  0
ARC
  5
5E1
100
AcDbEntity
  8
レイヤ1_2
  6
CONTINUOUS
 62
     0
100
AcDbCircle
 10
403.2106997221
 20
51.46033700921
 40
0.2131919940236
100
AcDbArc
 50
0
 51
90
  0
ARC
  5
5E2
100
AcDbEntity
  8
レイヤ1_2
  6
CONTINUOUS
 62
     0
100
AcDbCircle
 10
402.8823060732
 20
52.89108381676
 40
0.2131919940236
100
AcDbArc
 50
-90
 51
0
  0
ARC
  5
5E3
100
AcDbEntity
  8
レイヤ1_2
  6
CONTINUOUS
 62
     0
100
AcDbCircle
 10
402.8823060732
 20
54.24516082086
 40
0.2131919940236
100
AcDbArc
 50
0
 51
90
  0
ARC
  5
5E4
100
AcDbEntity
  8
レイヤ1_2
  6
CONTINUOUS
 62
     0
100
AcDbCircle
 10
403.2106997221
 20
55.67590762842
 40
0.2131919940236
100
AcDbArc
 50
-90
 51
0
  0
ARC
  5
5E5
100
AcDbEntity
  8
レイヤ1_2
  6
CONTINUOUS
 62
     0
100
AcDbCircle
 10
403.2106997221
 20
57.0299890069
 40
0.2131919940236
100
AcDbArc
 50
0
 51
90
  0
ARC
  5
5E6
100
AcDbEntity
  8
レイヤ1_2
  6
CONTINUOUS
 62
     0
100
AcDbCircle
 10
399.557005422
 20
57.45637319999
 40
0.2131919940236
100
AcDbArc
 50
-90
 51
-45.39506530759
  0
ARC
  5
5E7
100
AcDbEntity
  8
レイヤ1_2
  6
CONTINUOUS
 62
     0
100
AcDbCircle
 10
398.1772901616
 20
57.45637319999
 40
0.2131919940236
100
AcDbArc
 50
-134.6049499512
 51
-90
  0
ARC
  5
5E8
100
AcDbEntity
  8
レイヤ1_2
  6
CONTINUOUS
 62
     0
100
AcDbCircle
 10
397.0705713692
 20
57.94904241231
 40
0.2131919940236
100
AcDbArc
 50
45.39505004879
 51
90
  0
ARC
  5
5E9
100
AcDbEntity
  8
レイヤ1_2
  6
CONTINUOUS
 62
     0
100
AcDbCircle
 10
400.6637242144
 20
57.94904241231
 40
0.2131919940236
100
AcDbArc
 50
90
 51
134.6049346924
  0
ARC
  5
5EA
100
AcDbEntity
  8
レイヤ1_2
  6
CONTINUOUS
 62
     0
100
AcDbCircle
 10
395.0963250238
 20
58.02010863168
 40
0.1421279960157
100
AcDbArc
 50
90
 51
225.3950500488
  0
ARC
  5
5EB
100
AcDbEntity
  8
レイヤ1_2
  6
CONTINUOUS
 62
     0
100
AcDbCircle
 10
402.6379705598
 20
58.02010863168
 40
0.1421279960157
100
AcDbArc
 50
-45.39506530758
 51
90
  0
ARC
  5
5EC
100
AcDbEntity
  8
レイヤ1_2
  6
CONTINUOUS
 62
     0
100
AcDbCircle
 10
405.0265934182
 20
50.80193556414
 40
0.2131919940236
100
AcDbArc
 50
90
 51
180
  0
ARC
  5
5ED
100
AcDbEntity
  8
レイヤ1_2
  6
CONTINUOUS
 62
     0
100
AcDbCircle
 10
405.0265934182
 20
49.32256749422
 40
0.2131919940236
100
AcDbArc
 50
180
 51
270
  0
ARC
  5
5EE
100
AcDbEntity
  8
レイヤ1_2
  6
CONTINUOUS
 62
     0
100
AcDbCircle
 10
415.8283088124
 20
49.32256749422
 40
0.2131919940236
100
AcDbArc
 50
-90
 51
0
  0
ARC
  5
5EF
100
AcDbEntity
  8
レイヤ1_2
  6
CONTINUOUS
 62
     0
100
AcDbCircle
 10
415.8283088124
 20
50.80193556414
 40
0.2131919940236
100
AcDbArc
 50
0
 51
90
  0
ARC
  5
5F0
100
AcDbEntity
  8
レイヤ1_2
  6
CONTINUOUS
 62
     0
100
AcDbCircle
 10
415.54407893
 20
56.46967434239
 40
0.2131919940236
100
AcDbArc
 50
-90
 51
0
  0
ARC
  5
5F1
100
AcDbEntity
  8
レイヤ1_2
  6
CONTINUOUS
 62
     0
100
AcDbCircle
 10
415.54407893
 20
57.94904241231
 40
0.2131919940236
100
AcDbArc
 50
0
 51
90
  0
ARC
  5
5F2
100
AcDbEntity
  8
レイヤ1_2
  6
CONTINUOUS
 62
     0
100
AcDbCircle
 10
417.4993229575
 20
57.0299890069
 40
0.2131919940236
100
AcDbArc
 50
90
 51
180
  0
ARC
  5
5F3
100
AcDbEntity
  8
レイヤ1_2
  6
CONTINUOUS
 62
     0
100
AcDbCircle
 10
417.4993229575
 20
56.0858747637
 40
0.2131919940236
100
AcDbArc
 50
180
 51
270
  0
ARC
  5
5F4
100
AcDbEntity
  8
レイヤ1_2
  6
CONTINUOUS
 62
     0
100
AcDbCircle
 10
417.4993229575
 20
55.33124565066
 40
0.2131919940236
100
AcDbArc
 50
90
 51
180
  0
ARC
  5
5F5
100
AcDbEntity
  8
レイヤ1_2
  6
CONTINUOUS
 62
     0
100
AcDbCircle
 10
417.4993229575
 20
54.38713140745
 40
0.2131919940236
100
AcDbArc
 50
180
 51
270
  0
ARC
  5
5F6
100
AcDbEntity
  8
レイヤ1_2
  6
CONTINUOUS
 62
     0
100
AcDbCircle
 10
417.8276816114
 20
53.79288903166
 40
0.2131919940236
100
AcDbArc
 50
90
 51
180
  0
ARC
  5
5F7
100
AcDbEntity
  8
レイヤ1_2
  6
CONTINUOUS
 62
     0
100
AcDbCircle
 10
417.8276816114
 20
52.80772558234
 40
0.2131919940236
100
AcDbArc
 50
180
 51
270
  0
ARC
  5
5F8
100
AcDbEntity
  8
レイヤ1_2
  6
CONTINUOUS
 62
     0
100
AcDbCircle
 10
417.4993229575
 20
52.17243400044
 40
0.2131919940236
100
AcDbArc
 50
90
 51
180
  0
ARC
  5
5F9
100
AcDbEntity
  8
レイヤ1_2
  6
CONTINUOUS
 62
     0
100
AcDbCircle
 10
417.4993229575
 20
51.22831975723
 40
0.2131919940236
100
AcDbArc
 50
180
 51
270
  0
ARC
  5
5FA
100
AcDbEntity
  8
レイヤ1_2
  6
CONTINUOUS
 62
     0
100
AcDbCircle
 10
424.6202578747
 20
49.32256749422
 40
0.2131919940236
100
AcDbArc
 50
-90
 51
0
  0
ARC
  5
5FB
100
AcDbEntity
  8
レイヤ1_2
  6
CONTINUOUS
 62
     0
100
AcDbCircle
 10
422.5838603016
 20
49.32256749422
 40
0.2131919940236
100
AcDbArc
 50
180
 51
270
  0
ARC
  5
5FC
100
AcDbEntity
  8
レイヤ1_2
  6
CONTINUOUS
 62
     0
100
AcDbCircle
 10
420.4172111128
 20
49.32256749422
 40
0.2131919940236
100
AcDbArc
 50
-90
 51
-54.0148925781
  0
ARC
  5
5FD
100
AcDbEntity
  8
レイヤ1_2
  6
CONTINUOUS
 62
     0
100
AcDbCircle
 10
426.7869070635
 20
49.32256749422
 40
0.2131919940236
100
AcDbArc
 50
-125.9851226807
 51
-90
  0
ARC
  5
5FE
100
AcDbEntity
  8
レイヤ1_2
  6
CONTINUOUS
 62
     0
100
AcDbCircle
 10
429.7047952188
 20
51.22831975723
 40
0.2131919940236
100
AcDbArc
 50
-90
 51
0
  0
ARC
  5
5FF
100
AcDbEntity
  8
レイヤ1_2
  6
CONTINUOUS
 62
     0
100
AcDbCircle
 10
429.7047952188
 20
52.17243400044
 40
0.2131919940236
100
AcDbArc
 50
0
 51
90
  0
ARC
  5
600
100
AcDbEntity
  8
レイヤ1_2
  6
CONTINUOUS
 62
     0
100
AcDbCircle
 10
429.3764365649
 20
52.80772558234
 40
0.2131919940236
100
AcDbArc
 50
-90
 51
0
  0
ARC
  5
601
100
AcDbEntity
  8
レイヤ1_2
  6
CONTINUOUS
 62
     0
100
AcDbCircle
 10
429.3764365649
 20
53.79288903166
 40
0.2131919940236
100
AcDbArc
 50
0
 51
90
  0
ARC
  5
602
100
AcDbEntity
  8
レイヤ1_2
  6
CONTINUOUS
 62
     0
100
AcDbCircle
 10
429.7047952188
 20
54.38713140745
 40
0.2131919940236
100
AcDbArc
 50
-90
 51
0
  0
ARC
  5
603
100
AcDbEntity
  8
レイヤ1_2
  6
CONTINUOUS
 62
     0
100
AcDbCircle
 10
429.7047952188
 20
55.33124565066
 40
0.2131919940236
100
AcDbArc
 50
0
 51
90
  0
ARC
  5
604
100
AcDbEntity
  8
レイヤ1_2
  6
CONTINUOUS
 62
     0
100
AcDbCircle
 10
429.7047952188
 20
56.0858747637
 40
0.2131919940236
100
AcDbArc
 50
-90
 51
0
  0
ARC
  5
605
100
AcDbEntity
  8
レイヤ1_2
  6
CONTINUOUS
 62
     0
100
AcDbCircle
 10
429.7047952188
 20
57.0299890069
 40
0.2131919940236
100
AcDbArc
 50
0
 51
90
  0
ARC
  5
606
100
AcDbEntity
  8
レイヤ1_2
  6
CONTINUOUS
 62
     0
100
AcDbCircle
 10
427.3691898773
 20
57.94904241231
 40
0.2131919940236
100
AcDbArc
 50
90
 51
143.4417266846
  0
ARC
  5
607
100
AcDbEntity
  8
レイヤ1_2
  6
CONTINUOUS
 62
     0
100
AcDbCircle
 10
425.9400965864
 20
57.94904241231
 40
0.2131919940236
100
AcDbArc
 50
15.00106811523
 51
90
  0
ARC
  5
608
100
AcDbEntity
  8
レイヤ1_2
  6
CONTINUOUS
 62
     0
100
AcDbCircle
 10
421.2640215899
 20
57.94904241231
 40
0.2131919940236
100
AcDbArc
 50
90
 51
164.998916626
  0
ARC
  5
609
100
AcDbEntity
  8
レイヤ1_2
  6
CONTINUOUS
 62
     0
100
AcDbCircle
 10
419.834928299
 20
57.94904241231
 40
0.2131919940236
100
AcDbArc
 50
36.55825805661
 51
90
  0
ARC
  5
60A
100
AcDbEntity
  8
レイヤ1_2
  6
CONTINUOUS
 62
     0
100
AcDbCircle
 10
418.4777148626
 20
58.02010863168
 40
0.1421279960157
100
AcDbArc
 50
90
 51
216.5582580566
  0
ARC
  5
60B
100
AcDbEntity
  8
レイヤ1_2
  6
CONTINUOUS
 62
     0
100
AcDbCircle
 10
428.7264033137
 20
58.02010863168
 40
0.1421279960157
100
AcDbArc
 50
-36.55827331539
 51
90
  0
ARC
  5
60C
100
AcDbEntity
  8
レイヤ1_2
  6
CONTINUOUS
 62
     0
100
AcDbCircle
 10
424.5420439142
 20
58.02010863168
 40
0.1421279960157
100
AcDbArc
 50
90
 51
195.0010681152
  0
ARC
  5
60D
100
AcDbEntity
  8
レイヤ1_2
  6
CONTINUOUS
 62
     0
100
AcDbCircle
 10
422.6620742621
 20
58.02010863168
 40
0.1421279960157
100
AcDbArc
 50
-15.00108337399
 51
90
  0
ARC
  5
60E
100
AcDbEntity
  8
レイヤ1_2
  6
CONTINUOUS
 62
     0
100
AcDbCircle
 10
418.0696024655
 20
49.25150127485
 40
0.1421279960157
100
AcDbArc
 50
124.6880187988
 51
270
  0
ARC
  5
60F
100
AcDbEntity
  8
レイヤ1_2
  6
CONTINUOUS
 62
     0
100
AcDbCircle
 10
429.1345157108
 20
49.25150127485
 40
0.1421279960157
100
AcDbArc
 50
-90
 51
55.31196594246
  0
ARC
  5
610
100
AcDbEntity
  8
レイヤ1_2
  6
CONTINUOUS
 62
     0
100
AcDbCircle
 10
459.515722562
 20
49.25150127485
 40
0.1421279960157
100
AcDbArc
 50
140.1944274903
 51
270
  0
ARC
  5
611
100
AcDbEntity
  8
レイヤ1_2
  6
CONTINUOUS
 62
     0
100
AcDbCircle
 10
437.7822501282
 20
49.25150127485
 40
0.1421279960157
100
AcDbArc
 50
160.3453369141
 51
270
  0
ARC
  5
612
100
AcDbEntity
  8
レイヤ1_2
  6
CONTINUOUS
 62
     0
100
AcDbCircle
 10
445.187484918
 20
49.25150127485
 40
0.1421279960157
100
AcDbArc
 50
-90
 51
19.65464782716
  0
ARC
  5
613
100
AcDbEntity
  8
レイヤ1_2
  6
CONTINUOUS
 62
     0
100
AcDbCircle
 10
471.9321100537
 20
53.58470779036
 40
0.1421279960157
100
AcDbArc
 50
138.9849090576
 51
180
  0
ARC
  5
614
100
AcDbEntity
  8
レイヤ1_2
  6
CONTINUOUS
 62
     0
100
AcDbCircle
 10
431.8408237295
 20
57.0299890069
 40
0.2131919940236
100
AcDbArc
 50
90
 51
180
  0
ARC
  5
615
100
AcDbEntity
  8
レイヤ1_2
  6
CONTINUOUS
 62
     0
100
AcDbCircle
 10
431.8408237295
 20
56.0858747637
 40
0.2131919940236
100
AcDbArc
 50
180
 51
270
  0
ARC
  5
616
100
AcDbEntity
  8
レイヤ1_2
  6
CONTINUOUS
 62
     0
100
AcDbCircle
 10
433.7845543821
 20
57.94904241231
 40
0.2131919940236
100
AcDbArc
 50
90
 51
180
  0
ARC
  5
617
100
AcDbEntity
  8
レイヤ1_2
  6
CONTINUOUS
 62
     0
100
AcDbCircle
 10
435.6923101123
 20
57.94904241231
 40
0.2131919940236
100
AcDbArc
 50
0
 51
90
  0
ARC
  5
618
100
AcDbEntity
  8
レイヤ1_2
  6
CONTINUOUS
 62
     0
100
AcDbCircle
 10
436.8473220884
 20
57.0299890069
 40
0.2131919940236
100
AcDbArc
 50
0
 51
90
  0
ARC
  5
619
100
AcDbEntity
  8
レイヤ1_2
  6
CONTINUOUS
 62
     0
100
AcDbCircle
 10
436.8473220884
 20
56.0858747637
 40
0.2131919940236
100
AcDbArc
 50
-90
 51
0
  0
ARC
  5
61A
100
AcDbEntity
  8
レイヤ1_2
  6
CONTINUOUS
 62
     0
100
AcDbCircle
 10
431.8408237295
 20
53.72366005297
 40
0.2131919940236
100
AcDbArc
 50
128.3954162598
 51
180
  0
ARC
  5
61B
100
AcDbEntity
  8
レイヤ1_2
  6
CONTINUOUS
 62
     0
100
AcDbCircle
 10
436.8473220884
 20
54.34482675354
 40
0.2131919940236
100
AcDbArc
 50
0
 51
51.47834777839
  0
ARC
  5
61C
100
AcDbEntity
  8
レイヤ1_2
  6
CONTINUOUS
 62
     0
100
AcDbCircle
 10
437.8441563905
 20
56.0858747637
 40
0.2131919940236
100
AcDbArc
 50
162.8192138672
 51
270
  0
ARC
  5
61D
100
AcDbEntity
  8
レイヤ1_2
  6
CONTINUOUS
 62
     0
100
AcDbCircle
 10
440.5309721604
 20
57.94904241231
 40
0.2131919940236
100
AcDbArc
 50
90
 51
180
  0
ARC
  5
61E
100
AcDbEntity
  8
レイヤ1_2
  6
CONTINUOUS
 62
     0
100
AcDbCircle
 10
442.4387628857
 20
57.94904241231
 40
0.2131919940236
100
AcDbArc
 50
0
 51
90
  0
ARC
  5
61F
100
AcDbEntity
  8
レイヤ1_2
  6
CONTINUOUS
 62
     0
100
AcDbCircle
 10
445.0058255582
 20
53.81557020534
 40
0.2131919940236
100
AcDbArc
 50
-90
 51
0
  0
ARC
  5
620
100
AcDbEntity
  8
レイヤ1_2
  6
CONTINUOUS
 62
     0
100
AcDbCircle
 10
442.4387628857
 20
49.32256749422
 40
0.2131919940236
100
AcDbArc
 50
-90
 51
0
  0
ARC
  5
621
100
AcDbEntity
  8
レイヤ1_2
  6
CONTINUOUS
 62
     0
100
AcDbCircle
 10
440.5309721604
 20
49.32256749422
 40
0.2131919940236
100
AcDbArc
 50
180
 51
270
  0
ARC
  5
622
100
AcDbEntity
  8
レイヤ1_2
  6
CONTINUOUS
 62
     0
100
AcDbCircle
 10
446.5533071393
 20
49.32256749422
 40
0.2131919940236
100
AcDbArc
 50
180
 51
270
  0
ARC
  5
623
100
AcDbEntity
  8
レイヤ1_2
  6
CONTINUOUS
 62
     0
100
AcDbCircle
 10
446.5533071393
 20
50.26667736304
 40
0.2131919940236
100
AcDbArc
 50
90
 51
180
  0
ARC
  5
624
100
AcDbEntity
  8
レイヤ1_2
  6
CONTINUOUS
 62
     0
100
AcDbCircle
 10
446.5533071393
 20
53.36754156724
 40
0.2131919940236
100
AcDbArc
 50
180
 51
270
  0
ARC
  5
625
100
AcDbEntity
  8
レイヤ1_2
  6
CONTINUOUS
 62
     0
100
AcDbCircle
 10
446.5533071393
 20
54.31165581044
 40
0.2131919940236
100
AcDbArc
 50
90
 51
180
  0
ARC
  5
626
100
AcDbEntity
  8
レイヤ1_2
  6
CONTINUOUS
 62
     0
100
AcDbCircle
 10
451.5598054982
 20
54.31165581044
 40
0.2131919940236
100
AcDbArc
 50
0
 51
90
  0
ARC
  5
627
100
AcDbEntity
  8
レイヤ1_2
  6
CONTINUOUS
 62
     0
100
AcDbCircle
 10
451.5598054982
 20
53.36754156724
 40
0.2131919940236
100
AcDbArc
 50
-90
 51
0
  0
ARC
  5
628
100
AcDbEntity
  8
レイヤ1_2
  6
CONTINUOUS
 62
     0
100
AcDbCircle
 10
451.5598054982
 20
50.26667736304
 40
0.2131919940236
100
AcDbArc
 50
0
 51
90
  0
ARC
  5
629
100
AcDbEntity
  8
レイヤ1_2
  6
CONTINUOUS
 62
     0
100
AcDbCircle
 10
451.5598054982
 20
49.32256749422
 40
0.2131919940236
100
AcDbArc
 50
-90
 51
0
  0
ARC
  5
62A
100
AcDbEntity
  8
レイヤ1_2
  6
CONTINUOUS
 62
     0
100
AcDbCircle
 10
446.5533071393
 20
56.0858747637
 40
0.2131919940236
100
AcDbArc
 50
180
 51
270
  0
ARC
  5
62B
100
AcDbEntity
  8
レイヤ1_2
  6
CONTINUOUS
 62
     0
100
AcDbCircle
 10
446.5533071393
 20
57.0299890069
 40
0.2131919940236
100
AcDbArc
 50
90
 51
180
  0
ARC
  5
62C
100
AcDbEntity
  8
レイヤ1_2
  6
CONTINUOUS
 62
     0
100
AcDbCircle
 10
457.3550575286
 20
56.0858747637
 40
0.2131919940236
100
AcDbArc
 50
-90
 51
0
  0
ARC
  5
62D
100
AcDbEntity
  8
レイヤ1_2
  6
CONTINUOUS
 62
     0
100
AcDbCircle
 10
433.7845543821
 20
49.32256749422
 40
0.2131919940236
100
AcDbArc
 50
180
 51
270
  0
ARC
  5
62E
100
AcDbEntity
  8
レイヤ1_2
  6
CONTINUOUS
 62
     0
100
AcDbCircle
 10
435.6923101123
 20
49.32256749422
 40
0.2131919940236
100
AcDbArc
 50
-90
 51
0
  0
ARC
  5
62F
100
AcDbEntity
  8
レイヤ1_2
  6
CONTINUOUS
 62
     0
100
AcDbCircle
 10
458.9612608214
 20
52.23124757421
 40
0.2131919940236
100
AcDbArc
 50
180
 51
270
  0
ARC
  5
630
100
AcDbEntity
  8
レイヤ1_2
  6
CONTINUOUS
 62
     0
100
AcDbCircle
 10
458.9612608214
 20
53.17536181741
 40
0.2131919940236
100
AcDbArc
 50
90
 51
180
  0
ARC
  5
631
100
AcDbEntity
  8
レイヤ1_2
  6
CONTINUOUS
 62
     0
100
AcDbCircle
 10
460.713953438
 20
54.34791944202
 40
0.2131919940236
100
AcDbArc
 50
180
 51
270
  0
ARC
  5
632
100
AcDbEntity
  8
レイヤ1_2
  6
CONTINUOUS
 62
     0
100
AcDbCircle
 10
460.713953438
 20
55.29203368522
 40
0.2131919940236
100
AcDbArc
 50
90
 51
180
  0
ARC
  5
633
100
AcDbEntity
  8
レイヤ1_2
  6
CONTINUOUS
 62
     0
100
AcDbCircle
 10
468.1162836377
 20
55.29203368522
 40
0.2131919940236
100
AcDbArc
 50
0
 51
90
  0
ARC
  5
634
100
AcDbEntity
  8
レイヤ1_2
  6
CONTINUOUS
 62
     0
100
AcDbCircle
 10
468.1162836377
 20
54.34791944202
 40
0.2131919940236
100
AcDbArc
 50
-90
 51
0
  0
ARC
  5
635
100
AcDbEntity
  8
レイヤ1_2
  6
CONTINUOUS
 62
     0
100
AcDbCircle
 10
469.8689762543
 20
53.17536181741
 40
0.2131919940236
100
AcDbArc
 50
0
 51
90
  0
ARC
  5
636
100
AcDbEntity
  8
レイヤ1_2
  6
CONTINUOUS
 62
     0
100
AcDbCircle
 10
469.8689762543
 20
52.23124757421
 40
0.2131919940236
100
AcDbArc
 50
-90
 51
0
  0
ARC
  5
637
100
AcDbEntity
  8
レイヤ1_2
  6
CONTINUOUS
 62
     0
100
AcDbCircle
 10
469.6961006547
 20
49.32256749422
 40
0.2131919940236
100
AcDbArc
 50
-90
 51
0
  0
ARC
  5
638
100
AcDbEntity
  8
レイヤ1_2
  6
CONTINUOUS
 62
     0
100
AcDbCircle
 10
469.6961006547
 20
51.15299726361
 40
0.2131919940236
100
AcDbArc
 50
0
 51
90
  0
ARC
  5
639
100
AcDbEntity
  8
レイヤ1_2
  6
CONTINUOUS
 62
     0
100
AcDbCircle
 10
405.3108582957
 20
57.94904241231
 40
0.2131919940236
100
AcDbArc
 50
90
 51
180
  0
ARC
  5
63A
100
AcDbEntity
  8
レイヤ1_2
  6
CONTINUOUS
 62
     0
100
AcDbCircle
 10
405.3108582957
 20
56.46967434239
 40
0.2131919940236
100
AcDbArc
 50
180
 51
270
  0
ARC
  5
63B
100
AcDbEntity
  8
レイヤ1_2
  6
CONTINUOUS
 62
     0
100
AcDbCircle
 10
368.5884414732
 20
48.22664467801
 40
0.3265134846382
100
AcDbArc
 50
3.854354858388
 51
93.19104003907
  0
ARC
  5
63C
100
AcDbEntity
  8
レイヤ1_2
  6
CONTINUOUS
 62
     0
100
AcDbCircle
 10
369.239979512
 20
58.23125132999
 40
0.3265134846382
100
AcDbArc
 50
-176.1456451416
 51
-86.80895996093
  0
ARC
  5
63D
100
AcDbEntity
  8
レイヤ1_2
  6
CONTINUOUS
 62
     0
100
AcDbCircle
 10
368.5884414732
 20
58.23125132999
 40
0.3265134846382
100
AcDbArc
 50
-93.19105529783
 51
-3.854370117173
  0
ARC
  5
63E
100
AcDbEntity
  8
レイヤ1_2
  6
CONTINUOUS
 62
     0
100
AcDbCircle
 10
373.9165094442
 20
53.55472139778
 40
0.3265134846382
100
AcDbArc
 50
176.8089447022
 51
266.1456298828
  0
ARC
  5
63F
100
AcDbEntity
  8
レイヤ1_2
  6
CONTINUOUS
 62
     0
100
AcDbCircle
 10
373.9165094442
 20
52.90317023583
 40
0.3265134846382
100
AcDbArc
 50
93.85435485843
 51
183.1910400391
  0
ARC
  5
640
100
AcDbEntity
  8
レイヤ1_2
  6
CONTINUOUS
 62
     0
100
AcDbCircle
 10
363.911911541
 20
53.55472139778
 40
0.3265134846382
100
AcDbArc
 50
-86.14564514157
 51
3.19104003905
  0
ARC
  5
641
100
AcDbEntity
  8
レイヤ1_2
  6
CONTINUOUS
 62
     0
100
AcDbCircle
 10
363.911911541
 20
52.90317023583
 40
0.3265134846382
100
AcDbArc
 50
-3.191055297851
 51
86.14562988281
  0
ARC
  5
642
100
AcDbEntity
  8
レイヤ1_2
  6
CONTINUOUS
 62
     0
100
AcDbCircle
 10
454.8193504304
 20
49.28981649185
 40
0.2131919940236
100
AcDbArc
 50
-160.037185669
 51
-90
  0
ARC
  5
643
100
AcDbEntity
  8
レイヤ1_2
  6
CONTINUOUS
 62
     0
100
AcDbCircle
 10
471.9321100537
 20
50.93786512839
 40
0.1421279960157
100
AcDbArc
 50
180
 51
318.9849090576
  0
ARC
  5
644
100
AcDbEntity
  8
レイヤ1_2
  6
CONTINUOUS
 62
     0
100
AcDbCircle
 10
472.0031850218
 20
57.0299890069
 40
0.2131919940236
100
AcDbArc
 50
90
 51
180
  0
ARC
  5
645
100
AcDbEntity
  8
レイヤ1_2
  6
CONTINUOUS
 62
     0
100
AcDbCircle
 10
472.0031850218
 20
56.0858747637
 40
0.2131919940236
100
AcDbArc
 50
180
 51
270
  0
TEXT
  5
646
100
AcDbEntity
  8
レイヤ1_2
  6
CONTINUOUS
 62
     0
100
AcDbText
 10
375.0528340579
 20
40.16440898203
 40
7
  1
東京都江東区亀戸６－２０－７
 41
0.8619047619048
  7
STANDARD
100
AcDbText
  0
TEXT
  5
647
100
AcDbEntity
  8
レイヤ1_2
  6
CONTINUOUS
 62
     0
100
AcDbText
 10
375.0528340579
 20
33.16440898203
 40
7
  1
Ｔ：０３－３６８５－３４５２
 41
0.8619047619048
  7
STANDARD
100
AcDbText
  0
TEXT
  5
648
100
AcDbEntity
  8
レイヤ1_2
  6
CONTINUOUS
 62
     0
100
AcDbText
 10
295.816
 20
539
 40
16
  1
ビル用アルミ製庇　ビルブレード　350
 41
0
  7
STANDARD
100
AcDbText
  0
ENDSEC
  0
SECTION
  2
OBJECTS
  0
DICTIONARY
  5
649
100
AcDbDictionary
  3
ACAD_GROUP
350
64A
  3
ACAD_IMAGE_DICT
350
64B
  3
ACAD_MLINESTYLE
350
64C
  0
DICTIONARY
  5
64A
330
649
100
AcDbDictionary
  0
DICTIONARY
  5
64B
100
AcDbDictionary
  0
DICTIONARY
  5
64C
100
AcDbDictionary
  3
STANDARD
350
64D
  0
RASTERVARIABLES
  5
64E
100
AcDbRasterVariables
 90
     0
 70
     1
 71
     1
 72
     0
  0
MLINESTYLE
  5
64D
100
AcDbMlineStyle
  2
STANDARD
 70
     0
  3

 62
   256
 51
90
 52
90
 71
     0
  0
ENDSEC
  0
EOF
