  0
SECTION
  2
HEADER
  9
$ACADVER
  1
AC1015
  9
$ACADMAINTVER
 70
    20
  9
$DWGCODEPAGE
  3
ANSI_932
  9
$INSBASE
 10
0.0
 20
0.0
 30
0.0
  9
$EXTMIN
 10
-0.2282355989621009
 20
-454.3906210965651
 30
0.0
  9
$EXTMAX
 10
591.7717644010378
 20
-34.39062109656504
 30
0.0
  9
$LIMMIN
 10
0.0
 20
0.0
  9
$LIMMAX
 10
594.0
 20
420.0
  9
$ORTHOMODE
 70
     1
  9
$REGENMODE
 70
     1
  9
$FILLMODE
 70
     1
  9
$QTEXTMODE
 70
     0
  9
$MIRRTEXT
 70
     0
  9
$LTSCALE
 40
2.0
  9
$ATTMODE
 70
     1
  9
$TEXTSIZE
 40
0.2
  9
$TRACEWID
 40
0.05
  9
$TEXTSTYLE
  7
STANDARD
  9
$CLAYER
  8
_0-0_
  9
$CELTYPE
  6
CONTINUOUS
  9
$CECOLOR
 62
   256
  9
$CELTSCALE
 40
1.0
  9
$DISPSILH
 70
     0
  9
$DIMSCALE
 40
1.0
  9
$DIMASZ
 40
0.18
  9
$DIMEXO
 40
0.0625
  9
$DIMDLI
 40
0.38
  9
$DIMRND
 40
0.0
  9
$DIMDLE
 40
0.0
  9
$DIMEXE
 40
0.18
  9
$DIMTP
 40
0.0
  9
$DIMTM
 40
0.0
  9
$DIMTXT
 40
0.18
  9
$DIMCEN
 40
0.09
  9
$DIMTSZ
 40
0.0
  9
$DIMTOL
 70
     0
  9
$DIMLIM
 70
     0
  9
$DIMTIH
 70
     1
  9
$DIMTOH
 70
     1
  9
$DIMSE1
 70
     0
  9
$DIMSE2
 70
     0
  9
$DIMTAD
 70
     0
  9
$DIMZIN
 70
     0
  9
$DIMBLK
  1

  9
$DIMASO
 70
     1
  9
$DIMSHO
 70
     1
  9
$DIMPOST
  1

  9
$DIMAPOST
  1

  9
$DIMALT
 70
     0
  9
$DIMALTD
 70
     2
  9
$DIMALTF
 40
25.4
  9
$DIMLFAC
 40
1.0
  9
$DIMTOFL
 70
     0
  9
$DIMTVP
 40
0.0
  9
$DIMTIX
 70
     0
  9
$DIMSOXD
 70
     0
  9
$DIMSAH
 70
     0
  9
$DIMBLK1
  1

  9
$DIMBLK2
  1

  9
$DIMSTYLE
  2
Standard
  9
$DIMCLRD
 70
     0
  9
$DIMCLRE
 70
     0
  9
$DIMCLRT
 70
     0
  9
$DIMTFAC
 40
1.0
  9
$DIMGAP
 40
0.09
  9
$DIMJUST
 70
     0
  9
$DIMSD1
 70
     0
  9
$DIMSD2
 70
     0
  9
$DIMTOLJ
 70
     1
  9
$DIMTZIN
 70
     0
  9
$DIMALTZ
 70
     0
  9
$DIMALTTZ
 70
     0
  9
$DIMUPT
 70
     0
  9
$DIMDEC
 70
     4
  9
$DIMTDEC
 70
     4
  9
$DIMALTU
 70
     2
  9
$DIMALTTD
 70
     2
  9
$DIMTXSTY
  7
STANDARD
  9
$DIMAUNIT
 70
     0
  9
$DIMADEC
 70
     0
  9
$DIMALTRND
 40
0.0
  9
$DIMAZIN
 70
     0
  9
$DIMDSEP
 70
    46
  9
$DIMATFIT
 70
     3
  9
$DIMFRAC
 70
     0
  9
$DIMLDRBLK
  1

  9
$DIMLUNIT
 70
     2
  9
$DIMLWD
 70
    -2
  9
$DIMLWE
 70
    -2
  9
$DIMTMOVE
 70
     0
  9
$LUNITS
 70
     2
  9
$LUPREC
 70
     4
  9
$SKETCHINC
 40
0.1
  9
$FILLETRAD
 40
0.0
  9
$AUNITS
 70
     0
  9
$AUPREC
 70
     0
  9
$MENU
  1
.
  9
$ELEVATION
 40
0.0
  9
$PELEVATION
 40
0.0
  9
$THICKNESS
 40
0.0
  9
$LIMCHECK
 70
     0
  9
$CHAMFERA
 40
0.0
  9
$CHAMFERB
 40
0.0
  9
$CHAMFERC
 40
0.0
  9
$CHAMFERD
 40
0.0
  9
$SKPOLY
 70
     0
  9
$TDCREATE
 40
2456415.446670127
  9
$TDUCREATE
 40
2456415.071670127
  9
$TDUPDATE
 40
2456420.415656400
  9
$TDUUPDATE
 40
2456420.040656400
  9
$TDINDWG
 40
0.2057664815
  9
$TDUSRTIMER
 40
0.2057664815
  9
$USRTIMER
 70
     1
  9
$ANGBASE
 50
0.0
  9
$ANGDIR
 70
     0
  9
$PDMODE
 70
     0
  9
$PDSIZE
 40
0.0
  9
$PLINEWID
 40
0.0
  9
$SPLFRAME
 70
     0
  9
$SPLINETYPE
 70
     6
  9
$SPLINESEGS
 70
     8
  9
$HANDSEED
  5
18985
  9
$SURFTAB1
 70
     6
  9
$SURFTAB2
 70
     6
  9
$SURFTYPE
 70
     6
  9
$SURFU
 70
     6
  9
$SURFV
 70
     6
  9
$UCSBASE
  2

  9
$UCSNAME
  2

  9
$UCSORG
 10
0.0
 20
0.0
 30
0.0
  9
$UCSXDIR
 10
1.0
 20
0.0
 30
0.0
  9
$UCSYDIR
 10
0.0
 20
1.0
 30
0.0
  9
$UCSORTHOREF
  2

  9
$UCSORTHOVIEW
 70
     0
  9
$UCSORGTOP
 10
0.0
 20
0.0
 30
0.0
  9
$UCSORGBOTTOM
 10
0.0
 20
0.0
 30
0.0
  9
$UCSORGLEFT
 10
0.0
 20
0.0
 30
0.0
  9
$UCSORGRIGHT
 10
0.0
 20
0.0
 30
0.0
  9
$UCSORGFRONT
 10
0.0
 20
0.0
 30
0.0
  9
$UCSORGBACK
 10
0.0
 20
0.0
 30
0.0
  9
$PUCSBASE
  2

  9
$PUCSNAME
  2

  9
$PUCSORG
 10
0.0
 20
0.0
 30
0.0
  9
$PUCSXDIR
 10
1.0
 20
0.0
 30
0.0
  9
$PUCSYDIR
 10
0.0
 20
1.0
 30
0.0
  9
$PUCSORTHOREF
  2

  9
$PUCSORTHOVIEW
 70
     0
  9
$PUCSORGTOP
 10
0.0
 20
0.0
 30
0.0
  9
$PUCSORGBOTTOM
 10
0.0
 20
0.0
 30
0.0
  9
$PUCSORGLEFT
 10
0.0
 20
0.0
 30
0.0
  9
$PUCSORGRIGHT
 10
0.0
 20
0.0
 30
0.0
  9
$PUCSORGFRONT
 10
0.0
 20
0.0
 30
0.0
  9
$PUCSORGBACK
 10
0.0
 20
0.0
 30
0.0
  9
$USERI1
 70
     0
  9
$USERI2
 70
     0
  9
$USERI3
 70
     0
  9
$USERI4
 70
     0
  9
$USERI5
 70
     0
  9
$USERR1
 40
0.0
  9
$USERR2
 40
0.0
  9
$USERR3
 40
0.0
  9
$USERR4
 40
0.0
  9
$USERR5
 40
0.0
  9
$WORLDVIEW
 70
     1
  9
$SHADEDGE
 70
     3
  9
$SHADEDIF
 70
    70
  9
$TILEMODE
 70
     1
  9
$MAXACTVP
 70
    64
  9
$PINSBASE
 10
0.0
 20
0.0
 30
0.0
  9
$PLIMCHECK
 70
     0
  9
$PEXTMIN
 10
1.000000000000000E+20
 20
1.000000000000000E+20
 30
1.000000000000000E+20
  9
$PEXTMAX
 10
-1.000000000000000E+20
 20
-1.000000000000000E+20
 30
-1.000000000000000E+20
  9
$PLIMMIN
 10
0.0
 20
0.0
  9
$PLIMMAX
 10
12.0
 20
9.0
  9
$UNITMODE
 70
     0
  9
$VISRETAIN
 70
     1
  9
$PLINEGEN
 70
     0
  9
$PSLTSCALE
 70
     1
  9
$TREEDEPTH
 70
  3020
  9
$CMLSTYLE
  2
Standard
  9
$CMLJUST
 70
     0
  9
$CMLSCALE
 40
1.0
  9
$PROXYGRAPHICS
 70
     1
  9
$MEASUREMENT
 70
     0
  9
$CELWEIGHT
370
    -1
  9
$ENDCAPS
280
     0
  9
$JOINSTYLE
280
     0
  9
$LWDISPLAY
290
     0
  9
$INSUNITS
 70
     0
  9
$HYPERLINKBASE
  1

  9
$STYLESHEET
  1
monochrome.ctb
  9
$XEDIT
290
     1
  9
$CEPSNTYPE
380
     0
  9
$PSTYLEMODE
290
     1
  9
$FINGERPRINTGUID
  2
{97FD9AA7-CD06-49ED-A567-316195184221}
  9
$VERSIONGUID
  2
{7520C23D-AB0A-487F-8EE3-328CDE50C13C}
  9
$EXTNAMES
290
     1
  9
$PSVPSCALE
 40
0.0
  9
$OLESTARTUP
290
     0
  0
ENDSEC
  0
SECTION
  2
CLASSES
  0
CLASS
  1
ACDBDICTIONARYWDFLT
  2
AcDbDictionaryWithDefault
  3
ObjectDBX Classes
 90
        0
280
     0
281
     0
  0
CLASS
  1
MATERIAL
  2
AcDbMaterial
  3
ObjectDBX Classes
 90
     1153
280
     0
281
     0
  0
CLASS
  1
VISUALSTYLE
  2
AcDbVisualStyle
  3
ObjectDBX Classes
 90
     4095
280
     0
281
     0
  0
CLASS
  1
SCALE
  2
AcDbScale
  3
ObjectDBX Classes
 90
     1153
280
     0
281
     0
  0
CLASS
  1
TABLESTYLE
  2
AcDbTableStyle
  3
ObjectDBX Classes
 90
     4095
280
     0
281
     0
  0
CLASS
  1
MLEADERSTYLE
  2
AcDbMLeaderStyle
  3
ACDB_MLEADERSTYLE_CLASS
 90
     4095
280
     0
281
     0
  0
CLASS
  1
CELLSTYLEMAP
  2
AcDbCellStyleMap
  3
ObjectDBX Classes
 90
     1152
280
     0
281
     0
  0
CLASS
  1
DICTIONARYVAR
  2
AcDbDictionaryVar
  3
ObjectDBX Classes
 90
        0
280
     0
281
     0
  0
CLASS
  1
SORTENTSTABLE
  2
AcDbSortentsTable
  3
ObjectDBX Classes
 90
        0
280
     0
281
     0
  0
CLASS
  1
ACDBPLACEHOLDER
  2
AcDbPlaceHolder
  3
ObjectDBX Classes
 90
        0
280
     0
281
     0
  0
CLASS
  1
LAYOUT
  2
AcDbLayout
  3
ObjectDBX Classes
 90
        0
280
     0
281
     0
  0
CLASS
  1
ACAD_EVALUATION_GRAPH
  2
AcDbEvalGraph
  3
ObjectDBX Classes
 90
    33921
280
     0
281
     0
  0
CLASS
  1
ACAECUSTOBJ
  2
AcAeEditorObj
  3
AcAeEditorObj
 90
    33792
280
     0
281
     0
  0
CLASS
  1
ACDB_DYNAMICBLOCKPURGEPREVENTER_VERSION
  2
AcDbDynamicBlockPurgePreventer
  3
ObjectDBX Classes
 90
    33921
280
     0
281
     0
  0
ENDSEC
  0
SECTION
  2
TABLES
  0
TABLE
  2
VPORT
  5
8
102
{ACAD_XDICTIONARY
360
180A5
102
}
330
0
100
AcDbSymbolTable
 70
     1
  0
VPORT
  5
9A
330
8
100
AcDbSymbolTableRecord
100
AcDbViewportTableRecord
  2
*Active
 70
     0
 10
0.0
 20
0.0
 11
1.0
 21
1.0
 12
416.5422428431524
 22
-225.299182723119
 13
0.0
 23
0.0
 14
1.0
 24
1.0
 15
0.0
 25
0.0
 16
0.0
 26
0.0
 36
1.0
 17
0.0
 27
0.0
 37
0.0
 40
914.6070099171691
 41
1.739393939393939
 42
50.0
 43
0.0
 44
0.0
 50
0.0
 51
0.0
 71
     0
 72
   100
 73
     1
 74
     1
 75
     0
 76
     0
 77
     0
 78
     0
281
     0
 65
     1
110
0.0
120
0.0
130
0.0
111
1.0
121
0.0
131
0.0
112
0.0
122
1.0
132
0.0
 79
     0
146
0.0
1001
ACAD_NAV_VCDISPLAY
1070
     3
  0
ENDTAB
  0
TABLE
  2
LTYPE
  5
5
330
0
100
AcDbSymbolTable
 70
     3
  0
LTYPE
  5
5A
330
5
100
AcDbSymbolTableRecord
100
AcDbLinetypeTableRecord
  2
ByBlock
 70
     0
  3

 72
    65
 73
     0
 40
0.0
  0
LTYPE
  5
5B
330
5
100
AcDbSymbolTableRecord
100
AcDbLinetypeTableRecord
  2
ByLayer
 70
     0
  3

 72
    65
 73
     0
 40
0.0
  0
LTYPE
  5
5C
330
5
100
AcDbSymbolTableRecord
100
AcDbLinetypeTableRecord
  2
CONTINUOUS
 70
     0
  3
実線
 72
    65
 73
     0
 40
0.0
  0
LTYPE
  5
6F
330
5
100
AcDbSymbolTableRecord
100
AcDbLinetypeTableRecord
  2
DASHED1
 70
     0
  3
--  --  --  --  --  --  --  --  
 72
    65
 73
     2
 40
2.5
 49
1.25
 74
     0
 49
-1.25
 74
     0
  0
LTYPE
  5
72
330
5
100
AcDbSymbolTableRecord
100
AcDbLinetypeTableRecord
  2
CENTER1
 70
     0
  3
----- - ----- - ----- - ----- - 
 72
    65
 73
     4
 40
10.0
 49
6.25
 74
     0
 49
-1.25
 74
     0
 49
1.25
 74
     0
 49
-1.25
 74
     0
  0
ENDTAB
  0
TABLE
  2
LAYER
  5
2
102
{ACAD_XDICTIONARY
360
17AD0
102
}
330
0
100
AcDbSymbolTable
 70
     6
  0
LAYER
  5
54
102
{ACAD_XDICTIONARY
360
5E92
102
}
330
2
100
AcDbSymbolTableRecord
100
AcDbLayerTableRecord
  2
0
 70
     0
 62
     7
  6
CONTINUOUS
370
    -3
390
F
  0
LAYER
  5
92
102
{ACAD_XDICTIONARY
360
5E94
102
}
330
2
100
AcDbSymbolTableRecord
100
AcDbLayerTableRecord
  2
_0-0_
 70
     0
 62
     7
  6
CONTINUOUS
370
    -3
390
F
  0
LAYER
  5
94
102
{ACAD_XDICTIONARY
360
5E98
102
}
330
2
100
AcDbSymbolTableRecord
100
AcDbLayerTableRecord
  2
_2-0_
 70
     0
 62
     7
  6
CONTINUOUS
370
    -3
390
F
  0
LAYER
  5
95
102
{ACAD_XDICTIONARY
360
5E9A
102
}
330
2
100
AcDbSymbolTableRecord
100
AcDbLayerTableRecord
  2
_3-0_
 70
     0
 62
     7
  6
CONTINUOUS
370
    -3
390
F
  0
LAYER
  5
5EF1
330
2
100
AcDbSymbolTableRecord
100
AcDbLayerTableRecord
  2
hojyo_line
 70
     0
 62
    -7
  6
CONTINUOUS
290
     0
370
    -3
390
F
1001
AcAecLayerStandard
1000

1000

1001
AcCmTransparency
1071
        0
  0
LAYER
  5
17AC9
330
2
100
AcDbSymbolTableRecord
100
AcDbLayerTableRecord
  2
Defpoints
 70
     0
 62
     7
  6
CONTINUOUS
290
     0
370
    -3
390
F
  0
ENDTAB
  0
TABLE
  2
STYLE
  5
3
330
0
100
AcDbSymbolTable
 70
     1
  0
STYLE
  5
55
330
3
100
AcDbSymbolTableRecord
100
AcDbTextStyleTableRecord
  2
STANDARD
 70
     0
 40
0.0
 41
1.0
 50
0.0
 71
     0
 42
0.2
  3
txt
  4
bigfont.shx
  0
ENDTAB
  0
TABLE
  2
VIEW
  5
6
330
0
100
AcDbSymbolTable
 70
     0
  0
ENDTAB
  0
TABLE
  2
UCS
  5
7
330
0
100
AcDbSymbolTable
 70
     0
  0
ENDTAB
  0
TABLE
  2
APPID
  5
9
330
0
100
AcDbSymbolTable
 70
    13
  0
APPID
  5
56
330
9
100
AcDbSymbolTableRecord
100
AcDbRegAppTableRecord
  2
ACAD
 70
     0
  0
APPID
  5
5D
330
9
100
AcDbSymbolTableRecord
100
AcDbRegAppTableRecord
  2
AcadAnnotative
 70
     0
  0
APPID
  5
5EA0
330
9
100
AcDbSymbolTableRecord
100
AcDbRegAppTableRecord
  2
ACAD_NAV_VCDISPLAY
 70
     0
  0
APPID
  5
5EE8
330
9
100
AcDbSymbolTableRecord
100
AcDbRegAppTableRecord
  2
ACAD_PSEXT
 70
     0
  0
APPID
  5
5EF2
330
9
100
AcDbSymbolTableRecord
100
AcDbRegAppTableRecord
  2
AcAecLayerStandard
 70
     0
  0
APPID
  5
5EF3
330
9
100
AcDbSymbolTableRecord
100
AcDbRegAppTableRecord
  2
AcCmTransparency
 70
     0
  0
APPID
  5
5FBF
330
9
100
AcDbSymbolTableRecord
100
AcDbRegAppTableRecord
  2
ACAD_EXEMPT_FROM_CAD_STANDARDS
 70
     0
  0
APPID
  5
17ACE
330
9
100
AcDbSymbolTableRecord
100
AcDbRegAppTableRecord
  2
ACAD_DSTYLE_DIMJAG
 70
     0
  0
APPID
  5
17ACF
330
9
100
AcDbSymbolTableRecord
100
AcDbRegAppTableRecord
  2
ACAD_DSTYLE_DIMTALN
 70
     0
  0
APPID
  5
180DB
330
9
100
AcDbSymbolTableRecord
100
AcDbRegAppTableRecord
  2
ACAD_MLEADERVER
 70
     0
  0
APPID
  5
182D8
330
9
100
AcDbSymbolTableRecord
100
AcDbRegAppTableRecord
  2
ACAUTHENVIRON
 70
     0
  0
APPID
  5
182DC
330
9
100
AcDbSymbolTableRecord
100
AcDbRegAppTableRecord
  2
AcDbDynamicBlockTrueName
 70
     0
  0
APPID
  5
182DD
330
9
100
AcDbSymbolTableRecord
100
AcDbRegAppTableRecord
  2
AcDbDynamicBlockGUID
 70
     0
  0
ENDTAB
  0
TABLE
  2
DIMSTYLE
  5
A
330
0
100
AcDbSymbolTable
 70
     1
100
AcDbDimStyleTable
 71
     1
340
57
  0
DIMSTYLE
105
57
330
A
100
AcDbSymbolTableRecord
100
AcDbDimStyleTableRecord
  2
Standard
 70
     0
340
55
  0
ENDTAB
  0
TABLE
  2
BLOCK_RECORD
  5
1
330
0
100
AcDbSymbolTable
 70
     0
  0
BLOCK_RECORD
  5
6B
102
{ACAD_XDICTIONARY
360
181DD
102
}
330
1
100
AcDbSymbolTableRecord
100
AcDbBlockTableRecord
  2
*Model_Space
340
6E
  0
BLOCK_RECORD
  5
67
330
1
100
AcDbSymbolTableRecord
100
AcDbBlockTableRecord
  2
*Paper_Space
340
6A
  0
ENDTAB
  0
ENDSEC
  0
SECTION
  2
BLOCKS
  0
BLOCK
  5
6C
330
6B
100
AcDbEntity
  8
0
100
AcDbBlockBegin
  2
*Model_Space
 70
     0
 10
0.0
 20
0.0
 30
0.0
  3
*Model_Space
  1

  0
ENDBLK
  5
6D
330
6B
100
AcDbEntity
  8
0
100
AcDbBlockEnd
  0
BLOCK
  5
68
330
67
100
AcDbEntity
 67
     1
  8
0
100
AcDbBlockBegin
  2
*Paper_Space
 70
     0
 10
0.0
 20
0.0
 30
0.0
  3
*Paper_Space
  1

  0
ENDBLK
  5
69
330
67
100
AcDbEntity
 67
     1
  8
0
100
AcDbBlockEnd
  0
ENDSEC
  0
SECTION
  2
ENTITIES
  0
LINE
  5
9C
330
6B
100
AcDbEntity
  8
_2-0_
  6
Continuous
 62
     7
100
AcDbLine
 10
562.6143820282245
 20
-259.6077107842936
 30
0.0
 11
543.5176025012403
 21
-226.5311183826157
 31
0.0
  0
LINE
  5
E2F
330
6B
100
AcDbEntity
  8
hojyo_line
  6
DASHED1
 62
     9
100
AcDbLine
 10
583.7717644010378
 20
-446.3906210965651
 30
0.0
 11
583.7717644010378
 21
-42.39062109656509
 31
0.0
  0
LINE
  5
E30
330
6B
100
AcDbEntity
  8
hojyo_line
  6
DASHED1
 62
     9
100
AcDbLine
 10
583.7717644010378
 20
-42.39062109656509
 30
0.0
 11
7.771764401037898
 21
-42.39062109656503
 31
0.0
  0
LINE
  5
E31
330
6B
100
AcDbEntity
  8
hojyo_line
  6
DASHED1
 62
     9
100
AcDbLine
 10
7.771764401037898
 20
-42.39062109656503
 30
0.0
 11
7.771764401037898
 21
-446.3906210965649
 31
0.0
  0
LINE
  5
E32
330
6B
100
AcDbEntity
  8
hojyo_line
  6
DASHED1
 62
     9
100
AcDbLine
 10
7.771764401037898
 20
-446.3906210965649
 30
0.0
 11
583.7717644010378
 21
-446.3906210965651
 31
0.0
  0
LINE
  5
E37
330
6B
100
AcDbEntity
  8
_0-0_
  6
Continuous
 62
     3
100
AcDbLine
 10
579.7717644010378
 20
-440.3906210965651
 30
0.0
 11
579.7717644010378
 21
-48.3906210965651
 31
0.0
  0
LINE
  5
E38
330
6B
100
AcDbEntity
  8
_0-0_
  6
Continuous
 62
     3
100
AcDbLine
 10
579.7717644010378
 20
-48.3906210965651
 30
0.0
 11
11.7717644010379
 21
-48.39062109656503
 31
0.0
  0
LINE
  5
E39
330
6B
100
AcDbEntity
  8
_0-0_
  6
Continuous
 62
     3
100
AcDbLine
 10
11.7717644010379
 20
-48.39062109656503
 30
0.0
 11
11.7717644010379
 21
-440.3906210965649
 31
0.0
  0
LINE
  5
E3A
330
6B
100
AcDbEntity
  8
_0-0_
  6
Continuous
 62
     3
100
AcDbLine
 10
459.7717644010379
 20
-440.3906210965651
 30
0.0
 11
459.7717644010379
 21
-390.3906210965652
 31
0.0
  0
LINE
  5
E3B
330
6B
100
AcDbEntity
  8
_0-0_
  6
Continuous
 62
     3
100
AcDbLine
 10
579.7717644010378
 20
-423.7239544332316
 30
0.0
 11
459.7717644010379
 21
-423.7239544332316
 31
0.0
  0
LINE
  5
E3C
330
6B
100
AcDbEntity
  8
_0-0_
  6
Continuous
 62
     3
100
AcDbLine
 10
579.7717644010378
 20
-407.0572877632317
 30
0.0
 11
459.7717644010379
 21
-407.0572877632317
 31
0.0
  0
LINE
  5
E3D
330
6B
100
AcDbEntity
  8
hojyo_line
  6
DASHED1
 62
     9
100
AcDbLine
 10
459.7717644010379
 20
-398.7239544298984
 30
0.0
 11
579.7717644010378
 21
-398.7239544298984
 31
0.0
  0
LINE
  5
E3E
330
6B
100
AcDbEntity
  8
hojyo_line
  6
DASHED1
 62
     9
100
AcDbLine
 10
459.7717644010379
 20
-415.3906210982317
 30
0.0
 11
579.7717644010378
 21
-415.3906210982317
 31
0.0
  0
LINE
  5
E3F
330
6B
100
AcDbEntity
  8
hojyo_line
  6
DASHED1
 62
     9
100
AcDbLine
 10
459.7717644010379
 20
-432.0572877648984
 30
0.0
 11
579.7717644010378
 21
-432.0572877648984
 31
0.0
  0
LINE
  5
E40
330
6B
100
AcDbEntity
  8
hojyo_line
  6
DASHED1
 62
     9
100
AcDbLine
 10
187.7717644010379
 20
-427.8906210965651
 30
0.0
 11
459.7717644010379
 21
-427.8906210965651
 31
0.0
  0
LINE
  5
E41
330
6B
100
AcDbEntity
  8
hojyo_line
  6
DASHED1
 62
     9
100
AcDbLine
 10
323.7717644010378
 20
-390.3906210965652
 30
0.0
 11
323.7717644010378
 21
-440.3906210965651
 31
0.0
  0
LINE
  5
E42
330
6B
100
AcDbEntity
  8
hojyo_line
  6
DASHED1
 62
     9
100
AcDbLine
 10
187.7717644010379
 20
-409.1406210965651
 30
0.0
 11
459.7717644010379
 21
-409.1406210965651
 31
0.0
  0
TEXT
  5
E43
330
6B
100
AcDbEntity
  8
_0-0_
 62
     3
100
AcDbText
 10
219.7717644010379
 20
-415.1406210965651
 30
0.0
 40
12.0
  1
ＳＫＹ ＭＡＲＫＥＲ ｔｙｐｅＷ
100
AcDbText
  0
TEXT
  5
E44
330
6B
100
AcDbEntity
  8
_0-0_
 62
     3
100
AcDbText
 10
247.7717644010379
 20
-431.8906210965651
 30
0.0
 40
8.0
  1
-　標　準　納　ま　り　図　集　-
100
AcDbText
  0
TEXT
  5
E45
330
6B
100
AcDbEntity
  8
_0-0_
 62
     3
100
AcDbText
 10
468.9717644010379
 20
-402.7239544298983
 30
0.0
 40
8.0
  1
Sanyo Ind., Ltd.
 72
     1
 11
519.7717644010379
 21
-398.7239544298984
 31
0.0
100
AcDbText
 73
     2
  0
LINE
  5
E46
330
6B
100
AcDbEntity
  8
_0-0_
  6
Continuous
 62
     3
100
AcDbLine
 10
559.7717644010379
 20
-440.3906210965651
 30
0.0
 11
559.7717644010379
 21
-423.7239544332316
 31
0.0
  0
LINE
  5
E47
330
6B
100
AcDbEntity
  8
hojyo_line
  6
DASHED1
 62
     9
100
AcDbLine
 10
569.7717644010379
 20
-423.7239544332316
 30
0.0
 11
569.7717644010379
 21
-440.3906210965651
 31
0.0
  0
LINE
  5
E48
330
6B
100
AcDbEntity
  8
hojyo_line
  6
DASHED1
 62
     9
100
AcDbLine
 10
509.7717644010379
 20
-423.7239544332316
 30
0.0
 11
509.7717644010379
 21
-440.3906210965651
 31
0.0
  0
LINE
  5
E49
330
6B
100
AcDbEntity
  8
hojyo_line
  6
DASHED1
 62
     9
100
AcDbLine
 10
519.7717644010379
 20
-390.3906210965652
 30
0.0
 11
519.7717644010379
 21
-423.7239544332316
 31
0.0
  0
LINE
  5
E4A
330
6B
100
AcDbEntity
  8
_0-0_
  6
Continuous
 62
     3
100
AcDbLine
 10
579.7717644010378
 20
-440.3906210965651
 30
0.0
 11
11.7717644010379
 21
-440.3906210965651
 31
0.0
  0
LINE
  5
E4B
330
6B
100
AcDbEntity
  8
_0-0_
  6
Continuous
 62
     3
100
AcDbLine
 10
187.7717644010379
 20
-390.3906210965652
 30
0.0
 11
187.7717644010379
 21
-440.3906210965651
 31
0.0
  0
LINE
  5
E4C
330
6B
100
AcDbEntity
  8
_0-0_
  6
Continuous
 62
     3
100
AcDbLine
 10
579.7717644010378
 20
-390.3906210965652
 30
0.0
 11
11.7717644010379
 21
-390.3906210965652
 31
0.0
  0
LINE
  5
E4D
330
6B
100
AcDbEntity
  8
_0-0_
  6
Continuous
 62
     7
100
AcDbLine
 10
187.7717644010379
 20
-400.3906210965651
 30
0.0
 11
11.7717644010379
 21
-400.3906210965651
 31
0.0
  0
LINE
  5
E4E
330
6B
100
AcDbEntity
  8
_0-0_
  6
Continuous
 62
     7
100
AcDbLine
 10
187.7717644010379
 20
-410.3906210965651
 30
0.0
 11
11.7717644010379
 21
-410.3906210965651
 31
0.0
  0
LINE
  5
E4F
330
6B
100
AcDbEntity
  8
_0-0_
  6
Continuous
 62
     7
100
AcDbLine
 10
187.7717644010379
 20
-430.3906210965651
 30
0.0
 11
11.7717644010379
 21
-430.3906210965651
 31
0.0
  0
LINE
  5
E50
330
6B
100
AcDbEntity
  8
_0-0_
  6
Continuous
 62
     7
100
AcDbLine
 10
187.7717644010379
 20
-420.3906210965651
 30
0.0
 11
11.7717644010379
 21
-420.3906210965651
 31
0.0
  0
LINE
  5
E51
330
6B
100
AcDbEntity
  8
hojyo_line
  6
DASHED1
 62
     9
100
AcDbLine
 10
26.77176440103789
 20
-48.39062109656503
 30
0.0
 11
26.77176440103789
 21
-440.3906210965649
 31
0.0
  0
LINE
  5
E52
330
6B
100
AcDbEntity
  8
hojyo_line
  6
DASHED1
 62
     9
100
AcDbLine
 10
579.7717644010378
 20
-63.3906210965651
 30
0.0
 11
11.7717644010379
 21
-63.39062109656503
 31
0.0
  0
LINE
  5
E53
330
6B
100
AcDbEntity
  8
_3-0_
  6
Continuous
 62
     7
100
AcDbLine
 10
218.1640942944023
 20
-316.423024160164
 30
0.0
 11
233.7640942944022
 21
-316.423024160164
 31
0.0
  0
LINE
  5
E54
330
6B
100
AcDbEntity
  8
_3-0_
  6
Continuous
 62
     7
100
AcDbLine
 10
234.9640942944022
 20
-317.623024160164
 30
0.0
 11
234.9640942944022
 21
-318.423024160164
 31
0.0
  0
ARC
  5
E55
330
6B
100
AcDbEntity
  8
_3-0_
  6
Continuous
 62
     7
100
AcDbCircle
 10
233.7640942944022
 20
-317.623024160164
 30
0.0
 40
1.2
100
AcDbArc
 50
0.0
 51
90.0
  0
LINE
  5
E56
330
6B
100
AcDbEntity
  8
_3-0_
  6
Continuous
 62
     7
100
AcDbLine
 10
216.9640942944022
 20
-315.223024160164
 30
0.0
 11
216.9640942944022
 21
-299.623024160164
 31
0.0
  0
ARC
  5
E57
330
6B
100
AcDbEntity
  8
_3-0_
  6
Continuous
 62
     7
100
AcDbCircle
 10
218.1640942944023
 20
-315.223024160164
 30
0.0
 40
1.2
100
AcDbArc
 50
180.0
 51
270.0
  0
LINE
  5
E58
330
6B
100
AcDbEntity
  8
_3-0_
  6
Continuous
 62
     7
100
AcDbLine
 10
217.7640942944023
 20
-310.423024160164
 30
0.0
 11
217.7640942944023
 21
-306.423024160164
 31
0.0
  0
LINE
  5
E59
330
6B
100
AcDbEntity
  8
_3-0_
  6
Continuous
 62
     7
100
AcDbLine
 10
216.9640942944022
 20
-305.423024160164
 30
0.0
 11
217.3640942944022
 21
-305.423024160164
 31
0.0
  0
LINE
  5
E5A
330
6B
100
AcDbEntity
  8
_3-0_
  6
Continuous
 62
     7
100
AcDbLine
 10
216.9640942944022
 20
-311.423024160164
 30
0.0
 11
217.3640942944022
 21
-311.423024160164
 31
0.0
  0
LINE
  5
E5B
330
6B
100
AcDbEntity
  8
_3-0_
  6
Continuous
 62
     7
100
AcDbLine
 10
217.7640942944023
 20
-311.223024160164
 30
0.0
 11
217.7640942944023
 21
-305.6230241601641
 31
0.0
  0
LINE
  5
E5C
330
6B
100
AcDbEntity
  8
_3-0_
  6
Continuous
 62
     7
100
AcDbLine
 10
217.3640942944022
 20
-311.223024160164
 30
0.0
 11
217.7640942944023
 21
-311.223024160164
 31
0.0
  0
LINE
  5
E5D
330
6B
100
AcDbEntity
  8
_3-0_
  6
Continuous
 62
     7
100
AcDbLine
 10
217.3640942944022
 20
-305.6230241601641
 30
0.0
 11
217.7640942944023
 21
-305.6230241601641
 31
0.0
  0
LINE
  5
E5E
330
6B
100
AcDbEntity
  8
_3-0_
  6
Continuous
 62
     7
100
AcDbLine
 10
217.3640942944022
 20
-308.423024160164
 30
0.0
 11
217.7640942944023
 21
-308.1920840524881
 31
0.0
  0
LINE
  5
E5F
330
6B
100
AcDbEntity
  8
_3-0_
  6
Continuous
 62
     7
100
AcDbLine
 10
217.3640942944022
 20
-311.423024160164
 30
0.0
 11
217.3640942944022
 21
-305.423024160164
 31
0.0
  0
ARC
  5
E60
330
6B
100
AcDbEntity
  8
_3-0_
  6
Continuous
 62
     7
100
AcDbCircle
 10
217.7194789097868
 20
-308.423024160164
 30
0.0
 40
1.644615384615485
100
AcDbArc
 50
313.1426143825129
 51
46.85738561748701
  0
ARC
  5
E61
330
6B
100
AcDbEntity
  8
_3-0_
  6
Continuous
 62
     7
100
AcDbCircle
 10
218.72399133251
 20
-306.5936015931907
 30
0.0
 40
0.640778814623709
100
AcDbArc
 50
280.8030026030686
 51
357.3682309568824
  0
ARC
  5
E62
330
6B
100
AcDbEntity
  8
_3-0_
  6
Continuous
 62
     7
100
AcDbCircle
 10
218.72399133251
 20
-310.2524467271373
 30
0.0
 40
0.640778814623709
100
AcDbArc
 50
2.631769043117595
 51
79.19699739693133
  0
LINE
  5
E63
330
6B
100
AcDbEntity
  8
_3-0_
  6
Continuous
 62
     7
100
AcDbLine
 10
217.7640942944023
 20
-306.0230241601641
 30
0.0
 11
219.0961451019711
 21
-306.0230241601641
 31
0.0
  0
LINE
  5
E64
330
6B
100
AcDbEntity
  8
_3-0_
  6
Continuous
 62
     7
100
AcDbLine
 10
219.3640942944022
 20
-306.623024160164
 30
0.0
 11
219.0961451019711
 21
-306.0230241601641
 31
0.0
  0
LINE
  5
E65
330
6B
100
AcDbEntity
  8
_3-0_
  6
Continuous
 62
     7
100
AcDbLine
 10
217.7640942944023
 20
-307.223024160164
 30
0.0
 11
218.8440942944025
 21
-307.223024160164
 31
0.0
  0
LINE
  5
E66
330
6B
100
AcDbEntity
  8
_3-0_
  6
Continuous
 62
     7
100
AcDbLine
 10
217.7640942944023
 20
-309.6230241601641
 30
0.0
 11
218.8440942944025
 21
-309.6230241601641
 31
0.0
  0
LINE
  5
E67
330
6B
100
AcDbEntity
  8
_3-0_
  6
Continuous
 62
     7
100
AcDbLine
 10
219.3640942944022
 20
-306.623024160164
 30
0.0
 11
219.3640942944022
 21
-310.223024160164
 31
0.0
  0
LINE
  5
E68
330
6B
100
AcDbEntity
  8
_3-0_
  6
Continuous
 62
     7
100
AcDbLine
 10
219.3640942944022
 20
-310.223024160164
 30
0.0
 11
219.0961451019711
 21
-310.8230241601641
 31
0.0
  0
LINE
  5
E69
330
6B
100
AcDbEntity
  8
_3-0_
  6
Continuous
 62
     7
100
AcDbLine
 10
217.7640942944023
 20
-310.8230241601641
 30
0.0
 11
219.0961451019711
 21
-310.8230241601641
 31
0.0
  0
LINE
  5
E6A
330
6B
100
AcDbEntity
  8
_3-0_
  6
CENTER1
 62
     4
100
AcDbLine
 10
207.8820951802414
 20
-308.423024160164
 30
0.0
 11
223.2159515908189
 21
-308.423024160164
 31
0.0
  0
LINE
  5
E6B
330
6B
100
AcDbEntity
  8
_3-0_
  6
Continuous
 62
     7
100
AcDbLine
 10
216.9640942944022
 20
-319.223024160164
 30
0.0
 11
216.9640942944022
 21
-318.423024160164
 31
0.0
  0
LINE
  5
E6C
330
6B
100
AcDbEntity
  8
_3-0_
  6
Continuous
 62
     7
100
AcDbLine
 10
236.1640942944022
 20
-338.423024160164
 30
0.0
 11
236.9640942944022
 21
-338.423024160164
 31
0.0
  0
ARC
  5
E6D
330
6B
100
AcDbEntity
  8
_3-0_
  6
Continuous
 62
     7
100
AcDbCircle
 10
236.1640942944022
 20
-337.223024160164
 30
0.0
 40
1.2
100
AcDbArc
 50
180.0
 51
270.0
  0
ARC
  5
E6E
330
6B
100
AcDbEntity
  8
_3-0_
  6
Continuous
 62
     7
100
AcDbCircle
 10
218.1640942944023
 20
-319.223024160164
 30
0.0
 40
1.2
100
AcDbArc
 50
180.0
 51
270.0
  0
LINE
  5
E6F
330
6B
100
AcDbEntity
  8
_3-0_
  6
Continuous
 62
     7
100
AcDbLine
 10
233.7640942944022
 20
-320.423024160164
 30
0.0
 11
218.1640942944023
 21
-320.423024160164
 31
0.0
  0
LINE
  5
E70
330
6B
100
AcDbEntity
  8
_3-0_
  6
Continuous
 62
     7
100
AcDbLine
 10
234.9640942944022
 20
-321.623024160164
 30
0.0
 11
234.9640942944022
 21
-337.223024160164
 31
0.0
  0
ARC
  5
E71
330
6B
100
AcDbEntity
  8
_3-0_
  6
Continuous
 62
     7
100
AcDbCircle
 10
233.7640942944022
 20
-321.623024160164
 30
0.0
 40
1.2
100
AcDbArc
 50
0.0
 51
90.00000000000003
  0
LINE
  5
E72
330
6B
100
AcDbEntity
  8
_3-0_
  6
Continuous
 62
     7
100
AcDbLine
 10
216.9640942944022
 20
-318.8230241601641
 30
0.0
 11
236.9640942944022
 21
-318.8230241601641
 31
0.0
  0
LINE
  5
E73
330
6B
100
AcDbEntity
  8
_3-0_
  6
Continuous
 62
     7
100
AcDbLine
 10
234.0307609608823
 20
-326.1188425185205
 30
0.0
 11
234.0307609608823
 21
-330.7855091861207
 31
0.0
  0
LINE
  5
E74
330
6B
100
AcDbEntity
  8
_3-0_
  6
Continuous
 62
     7
100
AcDbLine
 10
234.9640942944022
 20
-331.9521758530206
 30
0.0
 11
234.4974276276423
 21
-331.9521758530206
 31
0.0
  0
LINE
  5
E75
330
6B
100
AcDbEntity
  8
_3-0_
  6
Continuous
 62
     7
100
AcDbLine
 10
234.9640942944022
 20
-324.9521758516205
 30
0.0
 11
234.4974276276423
 21
-324.9521758516205
 31
0.0
  0
LINE
  5
E76
330
6B
100
AcDbEntity
  8
_3-0_
  6
Continuous
 62
     7
100
AcDbLine
 10
234.0307609608823
 20
-325.1855091850005
 30
0.0
 11
234.0307609608823
 21
-331.7188425196405
 31
0.0
  0
LINE
  5
E77
330
6B
100
AcDbEntity
  8
_3-0_
  6
Continuous
 62
     7
100
AcDbLine
 10
234.4974276276423
 20
-325.1855091850005
 30
0.0
 11
234.0307609608823
 21
-325.1855091850005
 31
0.0
  0
LINE
  5
E78
330
6B
100
AcDbEntity
  8
_3-0_
  6
Continuous
 62
     7
100
AcDbLine
 10
234.4974276276423
 20
-331.7188425196405
 30
0.0
 11
234.0307609608823
 21
-331.7188425196405
 31
0.0
  0
LINE
  5
E79
330
6B
100
AcDbEntity
  8
_3-0_
  6
Continuous
 62
     7
100
AcDbLine
 10
234.4974276276423
 20
-328.4521758523206
 30
0.0
 11
234.0307609608823
 21
-328.7216059779964
 31
0.0
  0
LINE
  5
E7A
330
6B
100
AcDbEntity
  8
_3-0_
  6
Continuous
 62
     7
100
AcDbLine
 10
234.4974276276423
 20
-324.9521758516205
 30
0.0
 11
234.4974276276423
 21
-331.9521758530206
 31
0.0
  0
ARC
  5
E7B
330
6B
100
AcDbEntity
  8
_3-0_
  6
Continuous
 62
     7
100
AcDbCircle
 10
234.082812242944
 20
-328.4521758523206
 30
0.0
 40
1.91871794910181
100
AcDbArc
 50
133.1426143825128
 51
226.857385617487
  0
ARC
  5
E7C
330
6B
100
AcDbEntity
  8
_3-0_
  6
Continuous
 62
     7
100
AcDbCircle
 10
232.9108810828657
 20
-330.5865021808829
 30
0.0
 40
0.7475752838771756
100
AcDbArc
 50
100.8030026030686
 51
177.3682309568823
  0
ARC
  5
E7D
330
6B
100
AcDbEntity
  8
_3-0_
  6
Continuous
 62
     7
100
AcDbCircle
 10
232.9108810828657
 20
-326.317849523758
 30
0.0
 40
0.7475752838771755
100
AcDbArc
 50
182.6317690431176
 51
259.1969973969313
  0
LINE
  5
E7E
330
6B
100
AcDbEntity
  8
_3-0_
  6
Continuous
 62
     7
100
AcDbLine
 10
234.0307609608823
 20
-331.2521758528805
 30
0.0
 11
232.4767016850741
 21
-331.2521758528805
 31
0.0
  0
LINE
  5
E7F
330
6B
100
AcDbEntity
  8
_3-0_
  6
Continuous
 62
     7
100
AcDbLine
 10
232.1640942938422
 20
-330.5521758527405
 30
0.0
 11
232.4767016850741
 21
-331.2521758528805
 31
0.0
  0
LINE
  5
E80
330
6B
100
AcDbEntity
  8
_3-0_
  6
Continuous
 62
     7
100
AcDbLine
 10
234.0307609608823
 20
-329.8521758526006
 30
0.0
 11
232.7707609606302
 21
-329.8521758526006
 31
0.0
  0
LINE
  5
E81
330
6B
100
AcDbEntity
  8
_3-0_
  6
Continuous
 62
     7
100
AcDbLine
 10
234.0307609608823
 20
-327.0521758520406
 30
0.0
 11
232.7707609606304
 21
-327.0521758520406
 31
0.0
  0
LINE
  5
E82
330
6B
100
AcDbEntity
  8
_3-0_
  6
Continuous
 62
     7
100
AcDbLine
 10
232.1640942938422
 20
-330.5521758527405
 30
0.0
 11
232.1640942938422
 21
-326.3521758519005
 31
0.0
  0
LINE
  5
E83
330
6B
100
AcDbEntity
  8
_3-0_
  6
Continuous
 62
     7
100
AcDbLine
 10
232.1640942938422
 20
-326.3521758519005
 30
0.0
 11
232.4767016850741
 21
-325.6521758517607
 31
0.0
  0
LINE
  5
E84
330
6B
100
AcDbEntity
  8
_3-0_
  6
Continuous
 62
     7
100
AcDbLine
 10
234.0307609608823
 20
-325.6521758517607
 30
0.0
 11
232.4767016850741
 21
-325.6521758517607
 31
0.0
  0
LINE
  5
E85
330
6B
100
AcDbEntity
  8
_3-0_
  6
CENTER1
 62
     4
100
AcDbLine
 10
231.4126318222469
 20
-328.4521758523206
 30
0.0
 11
242.2100797443815
 21
-328.4521758523206
 31
0.0
  0
LINE
  5
E86
330
6B
100
AcDbEntity
  8
_3-0_
  6
Continuous
 62
     7
100
AcDbLine
 10
214.9640942944022
 20
-318.423024160164
 30
0.0
 11
236.9640942944022
 21
-318.423024160164
 31
0.0
  0
LINE
  5
E87
330
6B
100
AcDbEntity
  8
_3-0_
  6
Continuous
 62
     7
100
AcDbLine
 10
222.4640942937025
 20
-316.423024160164
 30
0.0
 11
222.4640942937025
 21
-315.956357493404
 31
0.0
  0
LINE
  5
E88
330
6B
100
AcDbEntity
  8
_3-0_
  6
Continuous
 62
     7
100
AcDbLine
 10
229.4640942951024
 20
-316.423024160164
 30
0.0
 11
229.4640942951024
 21
-315.956357493404
 31
0.0
  0
LINE
  5
E89
330
6B
100
AcDbEntity
  8
_3-0_
  6
Continuous
 62
     7
100
AcDbLine
 10
229.4640942951024
 20
-315.956357493404
 30
0.0
 11
222.4640942937025
 21
-315.956357493404
 31
0.0
  0
LINE
  5
E8A
330
6B
100
AcDbEntity
  8
_3-0_
  6
Continuous
 62
     7
100
AcDbLine
 10
228.2974276282023
 20
-315.956357493404
 30
0.0
 11
223.6307609606025
 21
-315.956357493404
 31
0.0
  0
ARC
  5
E8B
330
6B
100
AcDbEntity
  8
_3-0_
  6
Continuous
 62
     7
100
AcDbCircle
 10
225.9640942944022
 20
-316.0084087754658
 30
0.0
 40
1.91871794910181
100
AcDbArc
 50
43.14261438251288
 51
136.857385617487
  0
ARC
  5
E8C
330
6B
100
AcDbEntity
  8
_3-0_
  6
Continuous
 62
     7
100
AcDbCircle
 10
223.82976796584
 20
-314.8364776153876
 30
0.0
 40
0.7475752838771756
100
AcDbArc
 50
10.80300260306862
 51
87.36823095688238
  0
ARC
  5
E8D
330
6B
100
AcDbEntity
  8
_3-0_
  6
Continuous
 62
     7
100
AcDbCircle
 10
228.0984206229648
 20
-314.8364776153876
 30
0.0
 40
0.7475752838771755
100
AcDbArc
 50
92.63176904311761
 51
169.1969973969314
  0
LINE
  5
E8E
330
6B
100
AcDbEntity
  8
_3-0_
  6
Continuous
 62
     7
100
AcDbLine
 10
223.1640942938422
 20
-315.956357493404
 30
0.0
 11
223.1640942938422
 21
-314.4022982175961
 31
0.0
  0
LINE
  5
E8F
330
6B
100
AcDbEntity
  8
_3-0_
  6
Continuous
 62
     7
100
AcDbLine
 10
223.8640942939823
 20
-314.0896908263639
 30
0.0
 11
223.1640942938422
 21
-314.4022982175961
 31
0.0
  0
LINE
  5
E90
330
6B
100
AcDbEntity
  8
_3-0_
  6
Continuous
 62
     7
100
AcDbLine
 10
224.5640942941224
 20
-315.956357493404
 30
0.0
 11
224.5640942941224
 21
-314.6963574931519
 31
0.0
  0
LINE
  5
E91
330
6B
100
AcDbEntity
  8
_3-0_
  6
Continuous
 62
     7
100
AcDbLine
 10
227.3640942946824
 20
-315.956357493404
 30
0.0
 11
227.3640942946824
 21
-314.6963574931522
 31
0.0
  0
LINE
  5
E92
330
6B
100
AcDbEntity
  8
_3-0_
  6
Continuous
 62
     7
100
AcDbLine
 10
223.8640942939823
 20
-314.0896908263639
 30
0.0
 11
228.0640942948224
 21
-314.0896908263639
 31
0.0
  0
LINE
  5
E93
330
6B
100
AcDbEntity
  8
_3-0_
  6
Continuous
 62
     7
100
AcDbLine
 10
228.0640942948224
 20
-314.0896908263639
 30
0.0
 11
228.7640942949622
 21
-314.4022982175961
 31
0.0
  0
LINE
  5
E94
330
6B
100
AcDbEntity
  8
_3-0_
  6
Continuous
 62
     7
100
AcDbLine
 10
228.7640942949622
 20
-315.956357493404
 30
0.0
 11
228.7640942949622
 21
-314.4022982175961
 31
0.0
  0
LINE
  5
E95
330
6B
100
AcDbEntity
  8
_3-0_
  6
Continuous
 62
     7
100
AcDbLine
 10
228.2974276282023
 20
-321.356357493684
 30
0.0
 11
223.6307609606025
 21
-321.356357493684
 31
0.0
  0
LINE
  5
E96
330
6B
100
AcDbEntity
  8
_3-0_
  6
Continuous
 62
     7
100
AcDbLine
 10
222.4640942937025
 20
-320.423024160164
 30
0.0
 11
222.4640942937025
 21
-320.8896908269239
 31
0.0
  0
LINE
  5
E97
330
6B
100
AcDbEntity
  8
_3-0_
  6
Continuous
 62
     7
100
AcDbLine
 10
229.4640942951024
 20
-320.423024160164
 30
0.0
 11
229.4640942951024
 21
-320.8896908269239
 31
0.0
  0
LINE
  5
E98
330
6B
100
AcDbEntity
  8
_3-0_
  6
Continuous
 62
     7
100
AcDbLine
 10
229.2307609617225
 20
-321.356357493684
 30
0.0
 11
222.6974276270824
 21
-321.356357493684
 31
0.0
  0
LINE
  5
E99
330
6B
100
AcDbEntity
  8
_3-0_
  6
Continuous
 62
     7
100
AcDbLine
 10
229.2307609617225
 20
-320.8896908269239
 30
0.0
 11
229.2307609617225
 21
-321.356357493684
 31
0.0
  0
LINE
  5
E9A
330
6B
100
AcDbEntity
  8
_3-0_
  6
Continuous
 62
     7
100
AcDbLine
 10
222.6974276270824
 20
-320.8896908269239
 30
0.0
 11
222.6974276270824
 21
-321.356357493684
 31
0.0
  0
LINE
  5
E9B
330
6B
100
AcDbEntity
  8
_3-0_
  6
Continuous
 62
     7
100
AcDbLine
 10
225.9640942944022
 20
-320.8896908269239
 30
0.0
 11
225.6946641687263
 21
-321.356357493684
 31
0.0
  0
LINE
  5
E9C
330
6B
100
AcDbEntity
  8
_3-0_
  6
Continuous
 62
     7
100
AcDbLine
 10
229.4640942951024
 20
-320.8896908269239
 30
0.0
 11
222.4640942937025
 21
-320.8896908269239
 31
0.0
  0
ARC
  5
E9D
330
6B
100
AcDbEntity
  8
_3-0_
  6
Continuous
 62
     7
100
AcDbCircle
 10
225.9640942944022
 20
-321.3043062116224
 30
0.0
 40
1.91871794910181
100
AcDbArc
 50
223.1426143825129
 51
316.8573856174871
  0
ARC
  5
E9E
330
6B
100
AcDbEntity
  8
_3-0_
  6
Continuous
 62
     7
100
AcDbCircle
 10
223.82976796584
 20
-322.4762373717003
 30
0.0
 40
0.7475752838771755
100
AcDbArc
 50
272.6317690431176
 51
349.1969973969313
  0
ARC
  5
E9F
330
6B
100
AcDbEntity
  8
_3-0_
  6
Continuous
 62
     7
100
AcDbCircle
 10
228.0984206229648
 20
-322.4762373717003
 30
0.0
 40
0.7475752838771755
100
AcDbArc
 50
190.8030026030686
 51
267.3682309568824
  0
LINE
  5
EA0
330
6B
100
AcDbEntity
  8
_3-0_
  6
Continuous
 62
     7
100
AcDbLine
 10
223.1640942938422
 20
-321.356357493684
 30
0.0
 11
223.1640942938422
 21
-322.9104167694918
 31
0.0
  0
LINE
  5
EA1
330
6B
100
AcDbEntity
  8
_3-0_
  6
Continuous
 62
     7
100
AcDbLine
 10
223.8640942939823
 20
-323.223024160724
 30
0.0
 11
223.1640942938422
 21
-322.9104167694918
 31
0.0
  0
LINE
  5
EA2
330
6B
100
AcDbEntity
  8
_3-0_
  6
Continuous
 62
     7
100
AcDbLine
 10
224.5640942941224
 20
-321.356357493684
 30
0.0
 11
224.5640942941224
 21
-322.616357493936
 31
0.0
  0
LINE
  5
EA3
330
6B
100
AcDbEntity
  8
_3-0_
  6
Continuous
 62
     7
100
AcDbLine
 10
227.3640942946824
 20
-321.356357493684
 30
0.0
 11
227.3640942946824
 21
-322.6163574939358
 31
0.0
  0
LINE
  5
EA4
330
6B
100
AcDbEntity
  8
_3-0_
  6
Continuous
 62
     7
100
AcDbLine
 10
223.8640942939823
 20
-323.223024160724
 30
0.0
 11
228.0640942948224
 21
-323.223024160724
 31
0.0
  0
LINE
  5
EA5
330
6B
100
AcDbEntity
  8
_3-0_
  6
Continuous
 62
     7
100
AcDbLine
 10
228.0640942948224
 20
-323.223024160724
 30
0.0
 11
228.7640942949622
 21
-322.9104167694918
 31
0.0
  0
LINE
  5
EA6
330
6B
100
AcDbEntity
  8
_3-0_
  6
Continuous
 62
     7
100
AcDbLine
 10
228.7640942949622
 20
-321.356357493684
 30
0.0
 11
228.7640942949622
 21
-322.9104167694918
 31
0.0
  0
LINE
  5
EA7
330
6B
100
AcDbEntity
  8
_3-0_
  6
Continuous
 62
     7
100
AcDbLine
 10
224.7974276275022
 20
-323.223024160724
 30
0.0
 11
224.7974276275022
 21
-324.1314982955128
 31
0.0
  0
LINE
  5
EA8
330
6B
100
AcDbEntity
  8
_3-0_
  6
Continuous
 62
     7
100
AcDbLine
 10
227.1307609613023
 20
-323.223024160724
 30
0.0
 11
227.1307609613023
 21
-324.1228105410337
 31
0.0
  0
LINE
  5
EA9
330
6B
100
AcDbEntity
  8
_3-0_
  6
Continuous
 62
     7
100
AcDbLine
 10
224.7974276275022
 20
-324.1228105410337
 30
0.0
 11
227.1307609613023
 21
-324.1228105410337
 31
0.0
  0
LINE
  5
EAA
330
6B
100
AcDbEntity
  8
_3-0_
  6
Continuous
 62
     7
100
AcDbLine
 10
224.5640942941224
 20
-323.8894772076537
 30
0.0
 11
224.7974276275022
 21
-324.1228105410337
 31
0.0
  0
LINE
  5
EAB
330
6B
100
AcDbEntity
  8
_3-0_
  6
Continuous
 62
     7
100
AcDbLine
 10
224.5640942941224
 20
-323.8894772076537
 30
0.0
 11
227.3640942946824
 21
-323.8894772076537
 31
0.0
  0
LINE
  5
EAC
330
6B
100
AcDbEntity
  8
_3-0_
  6
Continuous
 62
     7
100
AcDbLine
 10
227.1307609613023
 20
-324.1228105410337
 30
0.0
 11
227.3640942946824
 21
-323.8894772076537
 31
0.0
  0
LINE
  5
EAD
330
6B
100
AcDbEntity
  8
_3-0_
  6
CENTER1
 62
     4
100
AcDbLine
 10
225.9640942944022
 20
-313.6006300377153
 30
0.0
 11
225.9640942944022
 21
-324.9671599831184
 31
0.0
  0
LINE
  5
EAE
330
6B
100
AcDbEntity
  8
_3-0_
  6
Continuous
 62
     7
100
AcDbLine
 10
224.5640942941224
 20
-323.223024160724
 30
0.0
 11
224.5640942941224
 21
-323.8894772076537
 31
0.0
  0
LINE
  5
EAF
330
6B
100
AcDbEntity
  8
_3-0_
  6
Continuous
 62
     7
100
AcDbLine
 10
227.3640942946824
 20
-323.223024160724
 30
0.0
 11
227.3640942946824
 21
-323.8894772076537
 31
0.0
  0
LINE
  5
EB0
330
6B
100
AcDbEntity
  8
_3-0_
  6
Continuous
 62
     7
100
AcDbLine
 10
214.9640942944022
 20
-298.8811423519434
 30
0.0
 11
214.9640942944022
 21
-318.423024160164
 31
0.0
  0
LINE
  5
EB1
330
6B
100
AcDbEntity
  8
_3-0_
  6
Continuous
 62
     3
100
AcDbLine
 10
196.9640942944022
 20
-228.423024160164
 30
0.0
 11
214.9640942944022
 21
-228.423024160164
 31
0.0
  0
ARC
  5
EB2
330
6B
100
AcDbEntity
  8
_3-0_
  6
Continuous
 62
     7
100
AcDbCircle
 10
215.7640942944023
 20
-299.623024160164
 30
0.0
 40
1.2
100
AcDbArc
 50
0.0
 51
87.97383037244946
  0
LINE
  5
EB3
330
6B
100
AcDbEntity
  8
_3-0_
  6
Continuous
 62
     7
100
AcDbLine
 10
215.8065214475706
 20
-298.423024160164
 30
0.0
 11
214.9640942944022
 21
-298.423024160164
 31
0.0
  0
LINE
  5
EB4
330
6B
100
AcDbEntity
  8
_3-0_
  6
Continuous
 62
     3
100
AcDbLine
 10
196.9640942944022
 20
-224.423024160164
 30
0.0
 11
214.9640942944022
 21
-224.423024160164
 31
0.0
  0
LINE
  5
EB5
330
6B
100
AcDbEntity
  8
_3-0_
  6
Continuous
 62
     4
100
AcDbLine
 10
214.5640942944022
 20
-224.423024160164
 30
0.0
 11
214.5640942944022
 21
-109.4672378085093
 31
0.0
  0
LINE
  5
EB6
330
6B
100
AcDbEntity
  8
_3-0_
  6
Continuous
 62
     3
100
AcDbLine
 10
214.9640942944022
 20
-224.423024160164
 30
0.0
 11
214.9640942944022
 21
-109.4672378085093
 31
0.0
  0
LINE
  5
EB7
330
6B
100
AcDbEntity
  8
_3-0_
  6
Continuous
 62
     4
100
AcDbLine
 10
197.3640942944022
 20
-224.423024160164
 30
0.0
 11
197.3640942944022
 21
-109.4672378085093
 31
0.0
  0
LINE
  5
EB8
330
6B
100
AcDbEntity
  8
_3-0_
  6
Continuous
 62
     3
100
AcDbLine
 10
196.9640942944022
 20
-224.423024160164
 30
0.0
 11
196.9640942944022
 21
-109.4672378085093
 31
0.0
  0
LINE
  5
EB9
330
6B
100
AcDbEntity
  8
_3-0_
  6
Continuous
 62
     7
100
AcDbLine
 10
218.1640942944023
 20
-152.423024160164
 30
0.0
 11
233.7640942944022
 21
-152.423024160164
 31
0.0
  0
LINE
  5
EBA
330
6B
100
AcDbEntity
  8
_3-0_
  6
Continuous
 62
     7
100
AcDbLine
 10
234.9640942944022
 20
-153.623024160164
 30
0.0
 11
234.9640942944022
 21
-154.423024160164
 31
0.0
  0
ARC
  5
EBB
330
6B
100
AcDbEntity
  8
_3-0_
  6
Continuous
 62
     7
100
AcDbCircle
 10
233.7640942944022
 20
-153.623024160164
 30
0.0
 40
1.2
100
AcDbArc
 50
0.0
 51
90.0
  0
LINE
  5
EBC
330
6B
100
AcDbEntity
  8
_3-0_
  6
Continuous
 62
     7
100
AcDbLine
 10
216.9640942944022
 20
-151.2230241601641
 30
0.0
 11
216.9640942944022
 21
-135.623024160164
 31
0.0
  0
ARC
  5
EBD
330
6B
100
AcDbEntity
  8
_3-0_
  6
Continuous
 62
     7
100
AcDbCircle
 10
218.1640942944023
 20
-151.2230241601641
 30
0.0
 40
1.2
100
AcDbArc
 50
180.0
 51
270.0
  0
LINE
  5
EBE
330
6B
100
AcDbEntity
  8
_3-0_
  6
Continuous
 62
     7
100
AcDbLine
 10
217.7640942944023
 20
-146.423024160164
 30
0.0
 11
217.7640942944023
 21
-142.423024160164
 31
0.0
  0
LINE
  5
EBF
330
6B
100
AcDbEntity
  8
_3-0_
  6
Continuous
 62
     7
100
AcDbLine
 10
216.9640942944022
 20
-141.423024160164
 30
0.0
 11
217.3640942944022
 21
-141.423024160164
 31
0.0
  0
LINE
  5
EC0
330
6B
100
AcDbEntity
  8
_3-0_
  6
Continuous
 62
     7
100
AcDbLine
 10
216.9640942944022
 20
-147.423024160164
 30
0.0
 11
217.3640942944022
 21
-147.423024160164
 31
0.0
  0
LINE
  5
EC1
330
6B
100
AcDbEntity
  8
_3-0_
  6
Continuous
 62
     7
100
AcDbLine
 10
217.7640942944023
 20
-147.2230241601641
 30
0.0
 11
217.7640942944023
 21
-141.623024160164
 31
0.0
  0
LINE
  5
EC2
330
6B
100
AcDbEntity
  8
_3-0_
  6
Continuous
 62
     7
100
AcDbLine
 10
217.3640942944022
 20
-147.2230241601641
 30
0.0
 11
217.7640942944023
 21
-147.2230241601641
 31
0.0
  0
LINE
  5
EC3
330
6B
100
AcDbEntity
  8
_3-0_
  6
Continuous
 62
     7
100
AcDbLine
 10
217.3640942944022
 20
-141.623024160164
 30
0.0
 11
217.7640942944023
 21
-141.623024160164
 31
0.0
  0
LINE
  5
EC4
330
6B
100
AcDbEntity
  8
_3-0_
  6
Continuous
 62
     7
100
AcDbLine
 10
217.3640942944022
 20
-144.423024160164
 30
0.0
 11
217.7640942944023
 21
-144.1920840524881
 31
0.0
  0
LINE
  5
EC5
330
6B
100
AcDbEntity
  8
_3-0_
  6
Continuous
 62
     7
100
AcDbLine
 10
217.3640942944022
 20
-147.423024160164
 30
0.0
 11
217.3640942944022
 21
-141.423024160164
 31
0.0
  0
ARC
  5
EC6
330
6B
100
AcDbEntity
  8
_3-0_
  6
Continuous
 62
     7
100
AcDbCircle
 10
217.7194789097868
 20
-144.423024160164
 30
0.0
 40
1.644615384615485
100
AcDbArc
 50
313.1426143825129
 51
46.85738561748701
  0
ARC
  5
EC7
330
6B
100
AcDbEntity
  8
_3-0_
  6
Continuous
 62
     7
100
AcDbCircle
 10
218.72399133251
 20
-142.5936015931907
 30
0.0
 40
0.640778814623709
100
AcDbArc
 50
280.8030026030686
 51
357.3682309568824
  0
ARC
  5
EC8
330
6B
100
AcDbEntity
  8
_3-0_
  6
Continuous
 62
     7
100
AcDbCircle
 10
218.72399133251
 20
-146.2524467271373
 30
0.0
 40
0.640778814623709
100
AcDbArc
 50
2.631769043117595
 51
79.19699739693133
  0
LINE
  5
EC9
330
6B
100
AcDbEntity
  8
_3-0_
  6
Continuous
 62
     7
100
AcDbLine
 10
217.7640942944023
 20
-142.0230241601641
 30
0.0
 11
219.0961451019711
 21
-142.0230241601641
 31
0.0
  0
LINE
  5
ECA
330
6B
100
AcDbEntity
  8
_3-0_
  6
Continuous
 62
     7
100
AcDbLine
 10
219.3640942944022
 20
-142.623024160164
 30
0.0
 11
219.0961451019711
 21
-142.0230241601641
 31
0.0
  0
LINE
  5
ECB
330
6B
100
AcDbEntity
  8
_3-0_
  6
Continuous
 62
     7
100
AcDbLine
 10
217.7640942944023
 20
-143.2230241601641
 30
0.0
 11
218.8440942944025
 21
-143.2230241601641
 31
0.0
  0
LINE
  5
ECC
330
6B
100
AcDbEntity
  8
_3-0_
  6
Continuous
 62
     7
100
AcDbLine
 10
217.7640942944023
 20
-145.623024160164
 30
0.0
 11
218.8440942944025
 21
-145.623024160164
 31
0.0
  0
LINE
  5
ECD
330
6B
100
AcDbEntity
  8
_3-0_
  6
Continuous
 62
     7
100
AcDbLine
 10
219.3640942944022
 20
-142.623024160164
 30
0.0
 11
219.3640942944022
 21
-146.2230241601641
 31
0.0
  0
LINE
  5
ECE
330
6B
100
AcDbEntity
  8
_3-0_
  6
Continuous
 62
     7
100
AcDbLine
 10
219.3640942944022
 20
-146.2230241601641
 30
0.0
 11
219.0961451019711
 21
-146.8230241601641
 31
0.0
  0
LINE
  5
ECF
330
6B
100
AcDbEntity
  8
_3-0_
  6
Continuous
 62
     7
100
AcDbLine
 10
217.7640942944023
 20
-146.8230241601641
 30
0.0
 11
219.0961451019711
 21
-146.8230241601641
 31
0.0
  0
LINE
  5
ED0
330
6B
100
AcDbEntity
  8
_3-0_
  6
CENTER1
 62
     4
100
AcDbLine
 10
207.8820951802414
 20
-144.423024160164
 30
0.0
 11
223.2159515908189
 21
-144.423024160164
 31
0.0
  0
LINE
  5
ED1
330
6B
100
AcDbEntity
  8
_3-0_
  6
Continuous
 62
     7
100
AcDbLine
 10
216.9640942944022
 20
-155.2230241601641
 30
0.0
 11
216.9640942944022
 21
-154.423024160164
 31
0.0
  0
LINE
  5
ED2
330
6B
100
AcDbEntity
  8
_3-0_
  6
Continuous
 62
     7
100
AcDbLine
 10
236.1640942944022
 20
-174.423024160164
 30
0.0
 11
236.9640942944022
 21
-174.423024160164
 31
0.0
  0
ARC
  5
ED3
330
6B
100
AcDbEntity
  8
_3-0_
  6
Continuous
 62
     7
100
AcDbCircle
 10
236.1640942944022
 20
-173.2230241601641
 30
0.0
 40
1.2
100
AcDbArc
 50
180.0
 51
270.0
  0
ARC
  5
ED4
330
6B
100
AcDbEntity
  8
_3-0_
  6
Continuous
 62
     7
100
AcDbCircle
 10
218.1640942944023
 20
-155.2230241601641
 30
0.0
 40
1.2
100
AcDbArc
 50
180.0
 51
270.0
  0
LINE
  5
ED5
330
6B
100
AcDbEntity
  8
_3-0_
  6
Continuous
 62
     7
100
AcDbLine
 10
233.7640942944022
 20
-156.423024160164
 30
0.0
 11
218.1640942944023
 21
-156.423024160164
 31
0.0
  0
LINE
  5
ED6
330
6B
100
AcDbEntity
  8
_3-0_
  6
Continuous
 62
     7
100
AcDbLine
 10
234.9640942944022
 20
-157.623024160164
 30
0.0
 11
234.9640942944022
 21
-173.2230241601641
 31
0.0
  0
ARC
  5
ED7
330
6B
100
AcDbEntity
  8
_3-0_
  6
Continuous
 62
     7
100
AcDbCircle
 10
233.7640942944022
 20
-157.623024160164
 30
0.0
 40
1.2
100
AcDbArc
 50
0.0
 51
90.00000000000003
  0
LINE
  5
ED8
330
6B
100
AcDbEntity
  8
_3-0_
  6
Continuous
 62
     7
100
AcDbLine
 10
216.9640942944022
 20
-154.8230241601641
 30
0.0
 11
236.9640942944022
 21
-154.8230241601641
 31
0.0
  0
LINE
  5
ED9
330
6B
100
AcDbEntity
  8
_3-0_
  6
Continuous
 62
     7
100
AcDbLine
 10
234.0307609608823
 20
-162.1188425185205
 30
0.0
 11
234.0307609608823
 21
-166.7855091861206
 31
0.0
  0
LINE
  5
EDA
330
6B
100
AcDbEntity
  8
_3-0_
  6
Continuous
 62
     7
100
AcDbLine
 10
234.9640942944022
 20
-167.9521758530206
 30
0.0
 11
234.4974276276423
 21
-167.9521758530206
 31
0.0
  0
LINE
  5
EDB
330
6B
100
AcDbEntity
  8
_3-0_
  6
Continuous
 62
     7
100
AcDbLine
 10
234.9640942944022
 20
-160.9521758516206
 30
0.0
 11
234.4974276276423
 21
-160.9521758516206
 31
0.0
  0
LINE
  5
EDC
330
6B
100
AcDbEntity
  8
_3-0_
  6
Continuous
 62
     7
100
AcDbLine
 10
234.0307609608823
 20
-161.1855091850005
 30
0.0
 11
234.0307609608823
 21
-167.7188425196406
 31
0.0
  0
LINE
  5
EDD
330
6B
100
AcDbEntity
  8
_3-0_
  6
Continuous
 62
     7
100
AcDbLine
 10
234.4974276276423
 20
-161.1855091850005
 30
0.0
 11
234.0307609608823
 21
-161.1855091850005
 31
0.0
  0
LINE
  5
EDE
330
6B
100
AcDbEntity
  8
_3-0_
  6
Continuous
 62
     7
100
AcDbLine
 10
234.4974276276423
 20
-167.7188425196406
 30
0.0
 11
234.0307609608823
 21
-167.7188425196406
 31
0.0
  0
LINE
  5
EDF
330
6B
100
AcDbEntity
  8
_3-0_
  6
Continuous
 62
     7
100
AcDbLine
 10
234.4974276276423
 20
-164.4521758523206
 30
0.0
 11
234.0307609608823
 21
-164.7216059779964
 31
0.0
  0
LINE
  5
EE0
330
6B
100
AcDbEntity
  8
_3-0_
  6
Continuous
 62
     7
100
AcDbLine
 10
234.4974276276423
 20
-160.9521758516206
 30
0.0
 11
234.4974276276423
 21
-167.9521758530206
 31
0.0
  0
ARC
  5
EE1
330
6B
100
AcDbEntity
  8
_3-0_
  6
Continuous
 62
     7
100
AcDbCircle
 10
234.082812242944
 20
-164.4521758523206
 30
0.0
 40
1.91871794910181
100
AcDbArc
 50
133.1426143825128
 51
226.857385617487
  0
ARC
  5
EE2
330
6B
100
AcDbEntity
  8
_3-0_
  6
Continuous
 62
     7
100
AcDbCircle
 10
232.9108810828657
 20
-166.586502180883
 30
0.0
 40
0.7475752838771756
100
AcDbArc
 50
100.8030026030686
 51
177.3682309568823
  0
ARC
  5
EE3
330
6B
100
AcDbEntity
  8
_3-0_
  6
Continuous
 62
     7
100
AcDbCircle
 10
232.9108810828657
 20
-162.3178495237581
 30
0.0
 40
0.7475752838771755
100
AcDbArc
 50
182.6317690431176
 51
259.1969973969313
  0
LINE
  5
EE4
330
6B
100
AcDbEntity
  8
_3-0_
  6
Continuous
 62
     7
100
AcDbLine
 10
234.0307609608823
 20
-167.2521758528805
 30
0.0
 11
232.4767016850741
 21
-167.2521758528805
 31
0.0
  0
LINE
  5
EE5
330
6B
100
AcDbEntity
  8
_3-0_
  6
Continuous
 62
     7
100
AcDbLine
 10
232.1640942938422
 20
-166.5521758527405
 30
0.0
 11
232.4767016850741
 21
-167.2521758528805
 31
0.0
  0
LINE
  5
EE6
330
6B
100
AcDbEntity
  8
_3-0_
  6
Continuous
 62
     7
100
AcDbLine
 10
234.0307609608823
 20
-165.8521758526005
 30
0.0
 11
232.7707609606302
 21
-165.8521758526005
 31
0.0
  0
LINE
  5
EE7
330
6B
100
AcDbEntity
  8
_3-0_
  6
Continuous
 62
     7
100
AcDbLine
 10
234.0307609608823
 20
-163.0521758520406
 30
0.0
 11
232.7707609606304
 21
-163.0521758520406
 31
0.0
  0
LINE
  5
EE8
330
6B
100
AcDbEntity
  8
_3-0_
  6
Continuous
 62
     7
100
AcDbLine
 10
232.1640942938422
 20
-166.5521758527405
 30
0.0
 11
232.1640942938422
 21
-162.3521758519006
 31
0.0
  0
LINE
  5
EE9
330
6B
100
AcDbEntity
  8
_3-0_
  6
Continuous
 62
     7
100
AcDbLine
 10
232.1640942938422
 20
-162.3521758519006
 30
0.0
 11
232.4767016850741
 21
-161.6521758517606
 31
0.0
  0
LINE
  5
EEA
330
6B
100
AcDbEntity
  8
_3-0_
  6
Continuous
 62
     7
100
AcDbLine
 10
234.0307609608823
 20
-161.6521758517606
 30
0.0
 11
232.4767016850741
 21
-161.6521758517606
 31
0.0
  0
LINE
  5
EEB
330
6B
100
AcDbEntity
  8
_3-0_
  6
CENTER1
 62
     4
100
AcDbLine
 10
231.4126318222469
 20
-164.4521758523206
 30
0.0
 11
242.2100797443815
 21
-164.4521758523206
 31
0.0
  0
LINE
  5
EEC
330
6B
100
AcDbEntity
  8
_3-0_
  6
Continuous
 62
     7
100
AcDbLine
 10
214.9640942944022
 20
-154.423024160164
 30
0.0
 11
236.9640942944022
 21
-154.423024160164
 31
0.0
  0
LINE
  5
EED
330
6B
100
AcDbEntity
  8
_3-0_
  6
Continuous
 62
     7
100
AcDbLine
 10
222.4640942937025
 20
-152.423024160164
 30
0.0
 11
222.4640942937025
 21
-151.9563574934041
 31
0.0
  0
LINE
  5
EEE
330
6B
100
AcDbEntity
  8
_3-0_
  6
Continuous
 62
     7
100
AcDbLine
 10
229.4640942951024
 20
-152.423024160164
 30
0.0
 11
229.4640942951024
 21
-151.9563574934041
 31
0.0
  0
LINE
  5
EEF
330
6B
100
AcDbEntity
  8
_3-0_
  6
Continuous
 62
     7
100
AcDbLine
 10
229.4640942951024
 20
-151.9563574934041
 30
0.0
 11
222.4640942937025
 21
-151.9563574934041
 31
0.0
  0
LINE
  5
EF0
330
6B
100
AcDbEntity
  8
_3-0_
  6
Continuous
 62
     7
100
AcDbLine
 10
228.2974276282023
 20
-151.9563574934041
 30
0.0
 11
223.6307609606025
 21
-151.9563574934041
 31
0.0
  0
ARC
  5
EF1
330
6B
100
AcDbEntity
  8
_3-0_
  6
Continuous
 62
     7
100
AcDbCircle
 10
225.9640942944022
 20
-152.0084087754658
 30
0.0
 40
1.91871794910181
100
AcDbArc
 50
43.14261438251288
 51
136.857385617487
  0
ARC
  5
EF2
330
6B
100
AcDbEntity
  8
_3-0_
  6
Continuous
 62
     7
100
AcDbCircle
 10
223.82976796584
 20
-150.8364776153877
 30
0.0
 40
0.7475752838771756
100
AcDbArc
 50
10.80300260306862
 51
87.36823095688238
  0
ARC
  5
EF3
330
6B
100
AcDbEntity
  8
_3-0_
  6
Continuous
 62
     7
100
AcDbCircle
 10
228.0984206229648
 20
-150.8364776153877
 30
0.0
 40
0.7475752838771755
100
AcDbArc
 50
92.63176904311761
 51
169.1969973969314
  0
LINE
  5
EF4
330
6B
100
AcDbEntity
  8
_3-0_
  6
Continuous
 62
     7
100
AcDbLine
 10
223.1640942938422
 20
-151.9563574934041
 30
0.0
 11
223.1640942938422
 21
-150.4022982175962
 31
0.0
  0
LINE
  5
EF5
330
6B
100
AcDbEntity
  8
_3-0_
  6
Continuous
 62
     7
100
AcDbLine
 10
223.8640942939823
 20
-150.0896908263641
 30
0.0
 11
223.1640942938422
 21
-150.4022982175962
 31
0.0
  0
LINE
  5
EF6
330
6B
100
AcDbEntity
  8
_3-0_
  6
Continuous
 62
     7
100
AcDbLine
 10
224.5640942941224
 20
-151.9563574934041
 30
0.0
 11
224.5640942941224
 21
-150.6963574931519
 31
0.0
  0
LINE
  5
EF7
330
6B
100
AcDbEntity
  8
_3-0_
  6
Continuous
 62
     7
100
AcDbLine
 10
227.3640942946824
 20
-151.9563574934041
 30
0.0
 11
227.3640942946824
 21
-150.6963574931521
 31
0.0
  0
LINE
  5
EF8
330
6B
100
AcDbEntity
  8
_3-0_
  6
Continuous
 62
     7
100
AcDbLine
 10
223.8640942939823
 20
-150.0896908263641
 30
0.0
 11
228.0640942948224
 21
-150.0896908263641
 31
0.0
  0
LINE
  5
EF9
330
6B
100
AcDbEntity
  8
_3-0_
  6
Continuous
 62
     7
100
AcDbLine
 10
228.0640942948224
 20
-150.0896908263641
 30
0.0
 11
228.7640942949622
 21
-150.4022982175962
 31
0.0
  0
LINE
  5
EFA
330
6B
100
AcDbEntity
  8
_3-0_
  6
Continuous
 62
     7
100
AcDbLine
 10
228.7640942949622
 20
-151.9563574934041
 30
0.0
 11
228.7640942949622
 21
-150.4022982175962
 31
0.0
  0
LINE
  5
EFB
330
6B
100
AcDbEntity
  8
_3-0_
  6
Continuous
 62
     7
100
AcDbLine
 10
228.2974276282023
 20
-157.3563574936841
 30
0.0
 11
223.6307609606025
 21
-157.3563574936841
 31
0.0
  0
LINE
  5
EFC
330
6B
100
AcDbEntity
  8
_3-0_
  6
Continuous
 62
     7
100
AcDbLine
 10
222.4640942937025
 20
-156.423024160164
 30
0.0
 11
222.4640942937025
 21
-156.889690826924
 31
0.0
  0
LINE
  5
EFD
330
6B
100
AcDbEntity
  8
_3-0_
  6
Continuous
 62
     7
100
AcDbLine
 10
229.4640942951024
 20
-156.423024160164
 30
0.0
 11
229.4640942951024
 21
-156.889690826924
 31
0.0
  0
LINE
  5
EFE
330
6B
100
AcDbEntity
  8
_3-0_
  6
Continuous
 62
     7
100
AcDbLine
 10
229.2307609617225
 20
-157.3563574936841
 30
0.0
 11
222.6974276270824
 21
-157.3563574936841
 31
0.0
  0
LINE
  5
EFF
330
6B
100
AcDbEntity
  8
_3-0_
  6
Continuous
 62
     7
100
AcDbLine
 10
229.2307609617225
 20
-156.889690826924
 30
0.0
 11
229.2307609617225
 21
-157.3563574936841
 31
0.0
  0
LINE
  5
F00
330
6B
100
AcDbEntity
  8
_3-0_
  6
Continuous
 62
     7
100
AcDbLine
 10
222.6974276270824
 20
-156.889690826924
 30
0.0
 11
222.6974276270824
 21
-157.3563574936841
 31
0.0
  0
LINE
  5
F01
330
6B
100
AcDbEntity
  8
_3-0_
  6
Continuous
 62
     7
100
AcDbLine
 10
225.9640942944022
 20
-156.889690826924
 30
0.0
 11
225.6946641687263
 21
-157.3563574936841
 31
0.0
  0
LINE
  5
F02
330
6B
100
AcDbEntity
  8
_3-0_
  6
Continuous
 62
     7
100
AcDbLine
 10
229.4640942951024
 20
-156.889690826924
 30
0.0
 11
222.4640942937025
 21
-156.889690826924
 31
0.0
  0
ARC
  5
F03
330
6B
100
AcDbEntity
  8
_3-0_
  6
Continuous
 62
     7
100
AcDbCircle
 10
225.9640942944022
 20
-157.3043062116223
 30
0.0
 40
1.91871794910181
100
AcDbArc
 50
223.1426143825129
 51
316.8573856174871
  0
ARC
  5
F04
330
6B
100
AcDbEntity
  8
_3-0_
  6
Continuous
 62
     7
100
AcDbCircle
 10
223.82976796584
 20
-158.4762373717003
 30
0.0
 40
0.7475752838771755
100
AcDbArc
 50
272.6317690431176
 51
349.1969973969313
  0
ARC
  5
F05
330
6B
100
AcDbEntity
  8
_3-0_
  6
Continuous
 62
     7
100
AcDbCircle
 10
228.0984206229648
 20
-158.4762373717003
 30
0.0
 40
0.7475752838771755
100
AcDbArc
 50
190.8030026030686
 51
267.3682309568824
  0
LINE
  5
F06
330
6B
100
AcDbEntity
  8
_3-0_
  6
Continuous
 62
     7
100
AcDbLine
 10
223.1640942938422
 20
-157.3563574936841
 30
0.0
 11
223.1640942938422
 21
-158.9104167694919
 31
0.0
  0
LINE
  5
F07
330
6B
100
AcDbEntity
  8
_3-0_
  6
Continuous
 62
     7
100
AcDbLine
 10
223.8640942939823
 20
-159.2230241607241
 30
0.0
 11
223.1640942938422
 21
-158.9104167694919
 31
0.0
  0
LINE
  5
F08
330
6B
100
AcDbEntity
  8
_3-0_
  6
Continuous
 62
     7
100
AcDbLine
 10
224.5640942941224
 20
-157.3563574936841
 30
0.0
 11
224.5640942941224
 21
-158.616357493936
 31
0.0
  0
LINE
  5
F09
330
6B
100
AcDbEntity
  8
_3-0_
  6
Continuous
 62
     7
100
AcDbLine
 10
227.3640942946824
 20
-157.3563574936841
 30
0.0
 11
227.3640942946824
 21
-158.6163574939357
 31
0.0
  0
LINE
  5
F0A
330
6B
100
AcDbEntity
  8
_3-0_
  6
Continuous
 62
     7
100
AcDbLine
 10
223.8640942939823
 20
-159.2230241607241
 30
0.0
 11
228.0640942948224
 21
-159.2230241607241
 31
0.0
  0
LINE
  5
F0B
330
6B
100
AcDbEntity
  8
_3-0_
  6
Continuous
 62
     7
100
AcDbLine
 10
228.0640942948224
 20
-159.2230241607241
 30
0.0
 11
228.7640942949622
 21
-158.9104167694919
 31
0.0
  0
LINE
  5
F0C
330
6B
100
AcDbEntity
  8
_3-0_
  6
Continuous
 62
     7
100
AcDbLine
 10
228.7640942949622
 20
-157.3563574936841
 30
0.0
 11
228.7640942949622
 21
-158.9104167694919
 31
0.0
  0
LINE
  5
F0D
330
6B
100
AcDbEntity
  8
_3-0_
  6
Continuous
 62
     7
100
AcDbLine
 10
224.7974276275022
 20
-159.2230241607241
 30
0.0
 11
224.7974276275022
 21
-160.1314982955127
 31
0.0
  0
LINE
  5
F0E
330
6B
100
AcDbEntity
  8
_3-0_
  6
Continuous
 62
     7
100
AcDbLine
 10
227.1307609613023
 20
-159.2230241607241
 30
0.0
 11
227.1307609613023
 21
-160.1228105410337
 31
0.0
  0
LINE
  5
F0F
330
6B
100
AcDbEntity
  8
_3-0_
  6
Continuous
 62
     7
100
AcDbLine
 10
224.7974276275022
 20
-160.1228105410337
 30
0.0
 11
227.1307609613023
 21
-160.1228105410337
 31
0.0
  0
LINE
  5
F10
330
6B
100
AcDbEntity
  8
_3-0_
  6
Continuous
 62
     7
100
AcDbLine
 10
224.5640942941224
 20
-159.8894772076537
 30
0.0
 11
224.7974276275022
 21
-160.1228105410337
 31
0.0
  0
LINE
  5
F11
330
6B
100
AcDbEntity
  8
_3-0_
  6
Continuous
 62
     7
100
AcDbLine
 10
224.5640942941224
 20
-159.8894772076537
 30
0.0
 11
227.3640942946824
 21
-159.8894772076537
 31
0.0
  0
LINE
  5
F12
330
6B
100
AcDbEntity
  8
_3-0_
  6
Continuous
 62
     7
100
AcDbLine
 10
227.1307609613023
 20
-160.1228105410337
 30
0.0
 11
227.3640942946824
 21
-159.8894772076537
 31
0.0
  0
LINE
  5
F13
330
6B
100
AcDbEntity
  8
_3-0_
  6
CENTER1
 62
     4
100
AcDbLine
 10
225.9640942944022
 20
-149.6006300377153
 30
0.0
 11
225.9640942944022
 21
-160.9671599831183
 31
0.0
  0
LINE
  5
F14
330
6B
100
AcDbEntity
  8
_3-0_
  6
Continuous
 62
     7
100
AcDbLine
 10
224.5640942941224
 20
-159.2230241607241
 30
0.0
 11
224.5640942941224
 21
-159.8894772076537
 31
0.0
  0
LINE
  5
F15
330
6B
100
AcDbEntity
  8
_3-0_
  6
Continuous
 62
     7
100
AcDbLine
 10
227.3640942946824
 20
-159.2230241607241
 30
0.0
 11
227.3640942946824
 21
-159.8894772076537
 31
0.0
  0
LINE
  5
F16
330
6B
100
AcDbEntity
  8
_3-0_
  6
Continuous
 62
     7
100
AcDbLine
 10
214.9640942944022
 20
-134.8811423519435
 30
0.0
 11
214.9640942944022
 21
-154.423024160164
 31
0.0
  0
ARC
  5
F17
330
6B
100
AcDbEntity
  8
_3-0_
  6
Continuous
 62
     7
100
AcDbCircle
 10
215.7640942944023
 20
-135.623024160164
 30
0.0
 40
1.2
100
AcDbArc
 50
0.0
 51
87.97383037244946
  0
LINE
  5
F18
330
6B
100
AcDbEntity
  8
_3-0_
  6
Continuous
 62
     7
100
AcDbLine
 10
215.8065214475706
 20
-134.423024160164
 30
0.0
 11
214.9640942944022
 21
-134.423024160164
 31
0.0
  0
LINE
  5
F19
330
6B
100
AcDbEntity
  8
_3-0_
  6
Continuous
 62
     3
100
AcDbLine
 10
214.9640942944022
 20
-228.423024160164
 30
0.0
 11
214.9640942944022
 21
-352.7151118779066
 31
0.0
  0
LINE
  5
F1A
330
6B
100
AcDbEntity
  8
_3-0_
  6
Continuous
 62
     4
100
AcDbLine
 10
214.5640942944022
 20
-228.423024160164
 30
0.0
 11
214.5640942944022
 21
-352.7151118779066
 31
0.0
  0
LINE
  5
F1B
330
6B
100
AcDbEntity
  8
_3-0_
  6
Continuous
 62
     4
100
AcDbLine
 10
197.3640942944022
 20
-228.423024160164
 30
0.0
 11
197.3640942944022
 21
-352.7151118779066
 31
0.0
  0
LINE
  5
F1C
330
6B
100
AcDbEntity
  8
_3-0_
  6
Continuous
 62
     3
100
AcDbLine
 10
196.9640942944022
 20
-228.423024160164
 30
0.0
 11
196.9640942944022
 21
-352.7151118779066
 31
0.0
  0
LINE
  5
F1D
330
6B
100
AcDbEntity
  8
_3-0_
  6
Continuous
 62
     3
100
AcDbLine
 10
149.6621466902461
 20
-228.423024160164
 30
0.0
 11
131.6621466902462
 21
-228.423024160164
 31
0.0
  0
LINE
  5
F1E
330
6B
100
AcDbEntity
  8
_3-0_
  6
Continuous
 62
     3
100
AcDbLine
 10
149.6621466902461
 20
-224.423024160164
 30
0.0
 11
131.6621466902462
 21
-224.423024160164
 31
0.0
  0
LINE
  5
F1F
330
6B
100
AcDbEntity
  8
_3-0_
  6
Continuous
 62
     4
100
AcDbLine
 10
149.2621466902462
 20
-228.423024160164
 30
0.0
 11
149.2621466902461
 21
-261.6315367925336
 31
0.0
  0
LINE
  5
F20
330
6B
100
AcDbEntity
  8
_3-0_
  6
Continuous
 62
     3
100
AcDbLine
 10
149.6621466902461
 20
-228.423024160164
 30
0.0
 11
149.6621466902461
 21
-261.6315367925336
 31
0.0
  0
LINE
  5
F21
330
6B
100
AcDbEntity
  8
_3-0_
  6
Continuous
 62
     4
100
AcDbLine
 10
149.2621466902462
 20
-109.4672378085093
 30
0.0
 11
149.2621466902462
 21
-224.423024160164
 31
0.0
  0
LINE
  5
F22
330
6B
100
AcDbEntity
  8
_3-0_
  6
Continuous
 62
     3
100
AcDbLine
 10
149.6621466902461
 20
-109.4672378085093
 30
0.0
 11
149.6621466902461
 21
-224.423024160164
 31
0.0
  0
LINE
  5
F23
330
6B
100
AcDbEntity
  8
_3-0_
  6
Continuous
 62
     3
100
AcDbLine
 10
109.6621466902462
 20
-228.423024160164
 30
0.0
 11
91.6621466902462
 21
-228.423024160164
 31
0.0
  0
LINE
  5
F24
330
6B
100
AcDbEntity
  8
_3-0_
  6
Continuous
 62
     3
100
AcDbLine
 10
109.6621466902462
 20
-224.423024160164
 30
0.0
 11
91.6621466902462
 21
-224.423024160164
 31
0.0
  0
LINE
  5
F25
330
6B
100
AcDbEntity
  8
_3-0_
  6
Continuous
 62
     3
100
AcDbLine
 10
91.6621466902462
 20
-228.423024160164
 30
0.0
 11
91.6621466902462
 21
-352.7151118779066
 31
0.0
  0
LINE
  5
F26
330
6B
100
AcDbEntity
  8
_3-0_
  6
Continuous
 62
     4
100
AcDbLine
 10
92.06214669024623
 20
-228.423024160164
 30
0.0
 11
92.06214669024623
 21
-352.7151118779066
 31
0.0
  0
LINE
  5
F27
330
6B
100
AcDbEntity
  8
_3-0_
  6
Continuous
 62
     4
100
AcDbLine
 10
92.06214669024623
 20
-109.4672378085093
 30
0.0
 11
92.06214669024623
 21
-224.423024160164
 31
0.0
  0
LINE
  5
F28
330
6B
100
AcDbEntity
  8
_3-0_
  6
Continuous
 62
     3
100
AcDbLine
 10
91.6621466902462
 20
-109.4672378085093
 30
0.0
 11
91.6621466902462
 21
-224.423024160164
 31
0.0
  0
LINE
  5
F29
330
6B
100
AcDbEntity
  8
_3-0_
  6
Continuous
 62
     3
100
AcDbLine
 10
69.66214669024623
 20
-228.423024160164
 30
0.0
 11
51.66214669024623
 21
-228.423024160164
 31
0.0
  0
LINE
  5
F2A
330
6B
100
AcDbEntity
  8
_3-0_
  6
Continuous
 62
     3
100
AcDbLine
 10
69.66214669024623
 20
-224.423024160164
 30
0.0
 11
51.66214669024623
 21
-224.423024160164
 31
0.0
  0
LINE
  5
F2B
330
6B
100
AcDbEntity
  8
_3-0_
  6
Continuous
 62
     3
100
AcDbLine
 10
51.66214669024623
 20
-228.423024160164
 30
0.0
 11
51.66214669024623
 21
-352.7151118779066
 31
0.0
  0
LINE
  5
F2C
330
6B
100
AcDbEntity
  8
_3-0_
  6
Continuous
 62
     4
100
AcDbLine
 10
52.06214669024621
 20
-228.423024160164
 30
0.0
 11
52.06214669024621
 21
-352.7151118779066
 31
0.0
  0
LINE
  5
F2D
330
6B
100
AcDbEntity
  8
_3-0_
  6
Continuous
 62
     4
100
AcDbLine
 10
69.26214669024623
 20
-228.423024160164
 30
0.0
 11
69.26214669024623
 21
-352.7151118779066
 31
0.0
  0
LINE
  5
F2E
330
6B
100
AcDbEntity
  8
_3-0_
  6
Continuous
 62
     3
100
AcDbLine
 10
69.66214669024623
 20
-228.423024160164
 30
0.0
 11
69.66214669024623
 21
-352.7151118779066
 31
0.0
  0
LINE
  5
F2F
330
6B
100
AcDbEntity
  8
_3-0_
  6
Continuous
 62
     4
100
AcDbLine
 10
52.06214669024621
 20
-109.4672378085093
 30
0.0
 11
52.06214669024621
 21
-224.423024160164
 31
0.0
  0
LINE
  5
F30
330
6B
100
AcDbEntity
  8
_3-0_
  6
Continuous
 62
     3
100
AcDbLine
 10
51.66214669024623
 20
-109.4672378085093
 30
0.0
 11
51.66214669024623
 21
-224.423024160164
 31
0.0
  0
LINE
  5
F31
330
6B
100
AcDbEntity
  8
_3-0_
  6
Continuous
 62
     4
100
AcDbLine
 10
69.26214669024623
 20
-109.4672378085093
 30
0.0
 11
69.26214669024623
 21
-224.423024160164
 31
0.0
  0
LINE
  5
F32
330
6B
100
AcDbEntity
  8
_3-0_
  6
Continuous
 62
     3
100
AcDbLine
 10
69.66214669024623
 20
-109.4672378085093
 30
0.0
 11
69.66214669024623
 21
-224.423024160164
 31
0.0
  0
LINE
  5
F33
330
6B
100
AcDbEntity
  8
_3-0_
  6
Continuous
 62
     7
100
AcDbLine
 10
51.66214669024623
 20
-298.423024160164
 30
0.0
 11
30.39732146588586
 21
-298.423024160164
 31
0.0
  0
LINE
  5
F34
330
6B
100
AcDbEntity
  8
_3-0_
  6
Continuous
 62
     7
100
AcDbLine
 10
51.66214669024623
 20
-318.423024160164
 30
0.0
 11
30.39732146588586
 21
-318.423024160164
 31
0.0
  0
LINE
  5
F35
330
6B
100
AcDbEntity
  8
_3-0_
  6
Continuous
 62
     7
100
AcDbLine
 10
91.6621466902462
 20
-318.423024160164
 30
0.0
 11
69.66214669024623
 21
-318.423024160164
 31
0.0
  0
LINE
  5
F36
330
6B
100
AcDbEntity
  8
_3-0_
  6
Continuous
 62
     7
100
AcDbLine
 10
91.6621466902462
 20
-298.423024160164
 30
0.0
 11
69.66214669024623
 21
-298.423024160164
 31
0.0
  0
LINE
  5
F37
330
6B
100
AcDbEntity
  8
_3-0_
  6
Continuous
 62
     7
100
AcDbLine
 10
170.8210476321573
 20
-298.423024160164
 30
0.0
 11
149.6621466902461
 21
-298.423024160164
 31
0.0
  0
LINE
  5
F38
330
6B
100
AcDbEntity
  8
_3-0_
  6
Continuous
 62
     7
100
AcDbLine
 10
131.6621466902462
 20
-298.423024160164
 30
0.0
 11
109.6621466902462
 21
-298.423024160164
 31
0.0
  0
LINE
  5
F39
330
6B
100
AcDbEntity
  8
_3-0_
  6
Continuous
 62
     7
100
AcDbLine
 10
170.8210476321573
 20
-318.423024160164
 30
0.0
 11
149.6621466902461
 21
-318.423024160164
 31
0.0
  0
LINE
  5
F3A
330
6B
100
AcDbEntity
  8
_3-0_
  6
Continuous
 62
     7
100
AcDbLine
 10
131.6621466902462
 20
-318.423024160164
 30
0.0
 11
109.6621466902462
 21
-318.423024160164
 31
0.0
  0
LINE
  5
F3B
330
6B
100
AcDbEntity
  8
_3-0_
  6
Continuous
 62
     7
100
AcDbLine
 10
91.6621466902462
 20
-134.423024160164
 30
0.0
 11
69.66214669024623
 21
-134.423024160164
 31
0.0
  0
LINE
  5
F3C
330
6B
100
AcDbEntity
  8
_3-0_
  6
Continuous
 62
     7
100
AcDbLine
 10
170.8210476321573
 20
-134.423024160164
 30
0.0
 11
149.6621466902461
 21
-134.423024160164
 31
0.0
  0
LINE
  5
F3D
330
6B
100
AcDbEntity
  8
_3-0_
  6
Continuous
 62
     7
100
AcDbLine
 10
131.6621466902462
 20
-134.423024160164
 30
0.0
 11
109.6621466902462
 21
-134.423024160164
 31
0.0
  0
LINE
  5
F3E
330
6B
100
AcDbEntity
  8
_3-0_
  6
Continuous
 62
     7
100
AcDbLine
 10
91.6621466902462
 20
-154.423024160164
 30
0.0
 11
69.66214669024623
 21
-154.423024160164
 31
0.0
  0
LINE
  5
F3F
330
6B
100
AcDbEntity
  8
_3-0_
  6
Continuous
 62
     7
100
AcDbLine
 10
170.8210476321573
 20
-154.423024160164
 30
0.0
 11
149.6621466902461
 21
-154.423024160164
 31
0.0
  0
LINE
  5
F40
330
6B
100
AcDbEntity
  8
_3-0_
  6
Continuous
 62
     7
100
AcDbLine
 10
131.6621466902462
 20
-154.423024160164
 30
0.0
 11
109.6621466902462
 21
-154.423024160164
 31
0.0
  0
LINE
  5
F41
330
6B
100
AcDbEntity
  8
_3-0_
  6
Continuous
 62
     7
100
AcDbLine
 10
70.66214669024619
 20
-154.423024160164
 30
0.0
 11
70.66214669024619
 21
-174.423024160164
 31
0.0
  0
LINE
  5
F42
330
6B
100
AcDbEntity
  8
_3-0_
  6
Continuous
 62
     7
100
AcDbLine
 10
70.66214669024619
 20
-174.423024160164
 30
0.0
 11
90.66214669024615
 21
-174.423024160164
 31
0.0
  0
LINE
  5
F43
330
6B
100
AcDbEntity
  8
_3-0_
  6
Continuous
 62
     7
100
AcDbLine
 10
90.66214669024615
 20
-154.423024160164
 30
0.0
 11
90.66214669024615
 21
-174.423024160164
 31
0.0
  0
LINE
  5
F44
330
6B
100
AcDbEntity
  8
_3-0_
  6
CENTER1
 62
     4
100
AcDbLine
 10
80.66214669024622
 20
-157.2339314360968
 30
0.0
 11
80.66214669024622
 21
-172.029813232289
 31
0.0
  0
LINE
  5
F45
330
6B
100
AcDbEntity
  8
_3-0_
  6
CENTER1
 62
     4
100
AcDbLine
 10
76.54702355726614
 20
-164.423024160164
 30
0.0
 11
84.57907367519934
 21
-164.423024160164
 31
0.0
  0
LINE
  5
F46
330
6B
100
AcDbEntity
  8
_3-0_
  6
Continuous
 62
     7
100
AcDbLine
 10
77.32881335624615
 20
-162.4985232624803
 30
0.0
 11
77.32881335624615
 21
-166.3475250578476
 31
0.0
  0
LINE
  5
F47
330
6B
100
AcDbEntity
  8
_3-0_
  6
Continuous
 62
     7
100
AcDbLine
 10
77.32881335624615
 20
-166.3475250578476
 30
0.0
 11
80.66214669024622
 21
-168.2720259555313
 31
0.0
  0
LINE
  5
F48
330
6B
100
AcDbEntity
  8
_3-0_
  6
Continuous
 62
     7
100
AcDbLine
 10
80.66214669024622
 20
-168.2720259555313
 30
0.0
 11
83.99548002424621
 21
-166.3475250578476
 31
0.0
  0
LINE
  5
F49
330
6B
100
AcDbEntity
  8
_3-0_
  6
Continuous
 62
     7
100
AcDbLine
 10
83.99548002424621
 20
-166.3475250578476
 30
0.0
 11
83.99548002424621
 21
-162.4985232624803
 31
0.0
  0
ARC
  5
F4A
330
6B
100
AcDbEntity
  8
_3-0_
  6
Continuous
 62
     7
100
AcDbCircle
 10
80.66214669024622
 20
-168.223024160164
 30
0.0
 40
2.2
100
AcDbArc
 50
200.0051901246304
 51
339.9948098753754
  0
LINE
  5
F4B
330
6B
100
AcDbEntity
  8
_3-0_
  6
Continuous
 62
     7
100
AcDbLine
 10
90.66214669024615
 20
-156.423024160164
 30
0.0
 11
70.66214669024619
 21
-156.423024160164
 31
0.0
  0
LINE
  5
F4C
330
6B
100
AcDbEntity
  8
_3-0_
  6
Continuous
 62
     7
100
AcDbLine
 10
75.66214668924622
 20
-157.023024160164
 30
0.0
 11
75.66214668924622
 21
-156.423024160164
 31
0.0
  0
LINE
  5
F4D
330
6B
100
AcDbEntity
  8
_3-0_
  6
Continuous
 62
     7
100
AcDbLine
 10
85.66214669124622
 20
-157.023024160164
 30
0.0
 11
75.66214668924622
 21
-157.023024160164
 31
0.0
  0
LINE
  5
F4E
330
6B
100
AcDbEntity
  8
_3-0_
  6
Continuous
 62
     7
100
AcDbLine
 10
85.26214669124623
 20
-157.623024160164
 30
0.0
 11
76.06214668924621
 21
-157.623024160164
 31
0.0
  0
LINE
  5
F4F
330
6B
100
AcDbEntity
  8
_3-0_
  6
Continuous
 62
     7
100
AcDbLine
 10
76.06214668924621
 20
-157.623024160164
 30
0.0
 11
76.06214668924621
 21
-157.023024160164
 31
0.0
  0
LINE
  5
F50
330
6B
100
AcDbEntity
  8
_3-0_
  6
Continuous
 62
     7
100
AcDbLine
 10
85.26214669124623
 20
-157.623024160164
 30
0.0
 11
85.26214669124623
 21
-157.023024160164
 31
0.0
  0
LINE
  5
F51
330
6B
100
AcDbEntity
  8
_3-0_
  6
Continuous
 62
     7
100
AcDbLine
 10
85.66214669124622
 20
-157.023024160164
 30
0.0
 11
85.66214669124622
 21
-156.423024160164
 31
0.0
  0
LINE
  5
F52
330
6B
100
AcDbEntity
  8
_3-0_
  6
Continuous
 62
     7
100
AcDbLine
 10
80.66214669024622
 20
-157.623024160164
 30
0.0
 11
81.00855685175998
 21
-157.023024160164
 31
0.0
  0
LINE
  5
F53
330
6B
100
AcDbEntity
  8
_3-0_
  6
Continuous
 62
     7
100
AcDbLine
 10
84.16214669094626
 20
-157.623024160164
 30
0.0
 11
77.1621466895465
 21
-157.623024160164
 31
0.0
  0
ARC
  5
F54
330
6B
100
AcDbEntity
  8
_3-0_
  6
Continuous
 62
     7
100
AcDbCircle
 10
80.66214669024619
 20
-157.5449472370713
 30
0.0
 40
2.878076923652715
100
AcDbArc
 50
223.1426143825129
 51
316.8573856174871
  0
ARC
  5
F55
330
6B
100
AcDbEntity
  8
_3-0_
  6
Continuous
 62
     7
100
AcDbCircle
 10
77.46065719740285
 20
-159.3028439771885
 30
0.0
 40
1.121362925815763
100
AcDbArc
 50
272.6317690431176
 51
349.1969973969313
  0
ARC
  5
F56
330
6B
100
AcDbEntity
  8
_3-0_
  6
Continuous
 62
     7
100
AcDbCircle
 10
83.86363618309003
 20
-159.3028439771885
 30
0.0
 40
1.121362925815763
100
AcDbArc
 50
190.8030026030686
 51
267.3682309568824
  0
LINE
  5
F57
330
6B
100
AcDbEntity
  8
_3-0_
  6
Continuous
 62
     7
100
AcDbLine
 10
76.46214668940621
 20
-157.623024160164
 30
0.0
 11
76.46214668940621
 21
-159.9541130738757
 31
0.0
  0
LINE
  5
F58
330
6B
100
AcDbEntity
  8
_3-0_
  6
Continuous
 62
     7
100
AcDbLine
 10
77.5121466896163
 20
-160.423024160724
 30
0.0
 11
76.46214668940621
 21
-159.9541130738757
 31
0.0
  0
LINE
  5
F59
330
6B
100
AcDbEntity
  8
_3-0_
  6
Continuous
 62
     7
100
AcDbLine
 10
78.56214668982637
 20
-157.623024160164
 30
0.0
 11
78.56214668982637
 21
-159.5130241605418
 31
0.0
  0
LINE
  5
F5A
330
6B
100
AcDbEntity
  8
_3-0_
  6
Continuous
 62
     7
100
AcDbLine
 10
82.76214669066634
 20
-157.623024160164
 30
0.0
 11
82.76214669066634
 21
-159.5130241605415
 31
0.0
  0
LINE
  5
F5B
330
6B
100
AcDbEntity
  8
_3-0_
  6
Continuous
 62
     7
100
AcDbLine
 10
77.5121466896163
 20
-160.423024160724
 30
0.0
 11
83.81214669087643
 21
-160.423024160724
 31
0.0
  0
LINE
  5
F5C
330
6B
100
AcDbEntity
  8
_3-0_
  6
Continuous
 62
     7
100
AcDbLine
 10
83.81214669087643
 20
-160.423024160724
 30
0.0
 11
84.86214669108626
 21
-159.9541130738757
 31
0.0
  0
LINE
  5
F5D
330
6B
100
AcDbEntity
  8
_3-0_
  6
Continuous
 62
     7
100
AcDbLine
 10
84.86214669108626
 20
-157.623024160164
 30
0.0
 11
84.86214669108626
 21
-159.9541130738757
 31
0.0
  0
ARC
  5
F5E
330
6B
100
AcDbEntity
  8
_3-0_
  6
Continuous
 62
     7
100
AcDbCircle
 10
80.66214669024622
 20
-164.423024160164
 30
0.0
 40
5.000000001
100
AcDbArc
 50
126.8698976718183
 51
53.13010232818174
  0
LINE
  5
F5F
330
6B
100
AcDbEntity
  8
_3-0_
  6
Continuous
 62
     7
100
AcDbLine
 10
78.79275761139786
 20
-161.6533146526899
 30
0.0
 11
77.32881335624615
 21
-162.4985232624803
 31
0.0
  0
ARC
  5
F60
330
6B
100
AcDbEntity
  8
_3-0_
  6
Continuous
 62
     7
100
AcDbCircle
 10
80.66214669024622
 20
-164.423024160164
 30
0.0
 40
3.33333333400001
100
AcDbArc
 50
123.9896214503668
 51
56.01037854963037
  0
LINE
  5
F61
330
6B
100
AcDbEntity
  8
_3-0_
  6
Continuous
 62
     7
100
AcDbLine
 10
83.99548002424621
 20
-162.4985232624803
 30
0.0
 11
82.52966131648493
 21
-161.6522324369711
 31
0.0
  0
LINE
  5
F62
330
6B
100
AcDbEntity
  8
_3-0_
  6
Continuous
 62
     7
100
AcDbLine
 10
70.66214669024619
 20
-318.423024160164
 30
0.0
 11
70.66214669024619
 21
-338.423024160164
 31
0.0
  0
LINE
  5
F63
330
6B
100
AcDbEntity
  8
_3-0_
  6
Continuous
 62
     7
100
AcDbLine
 10
70.66214669024619
 20
-338.423024160164
 30
0.0
 11
90.66214669024615
 21
-338.423024160164
 31
0.0
  0
LINE
  5
F64
330
6B
100
AcDbEntity
  8
_3-0_
  6
Continuous
 62
     7
100
AcDbLine
 10
90.66214669024615
 20
-318.423024160164
 30
0.0
 11
90.66214669024615
 21
-338.423024160164
 31
0.0
  0
LINE
  5
F65
330
6B
100
AcDbEntity
  8
_3-0_
  6
CENTER1
 62
     4
100
AcDbLine
 10
80.66214669024622
 20
-321.2339314360968
 30
0.0
 11
80.66214669024622
 21
-336.029813232289
 31
0.0
  0
LINE
  5
F66
330
6B
100
AcDbEntity
  8
_3-0_
  6
CENTER1
 62
     4
100
AcDbLine
 10
76.54702355726614
 20
-328.423024160164
 30
0.0
 11
84.57907367519934
 21
-328.423024160164
 31
0.0
  0
LINE
  5
F67
330
6B
100
AcDbEntity
  8
_3-0_
  6
Continuous
 62
     7
100
AcDbLine
 10
77.32881335624615
 20
-326.4985232624804
 30
0.0
 11
77.32881335624615
 21
-330.3475250578476
 31
0.0
  0
LINE
  5
F68
330
6B
100
AcDbEntity
  8
_3-0_
  6
Continuous
 62
     7
100
AcDbLine
 10
77.32881335624615
 20
-330.3475250578476
 30
0.0
 11
80.66214669024622
 21
-332.2720259555314
 31
0.0
  0
LINE
  5
F69
330
6B
100
AcDbEntity
  8
_3-0_
  6
Continuous
 62
     7
100
AcDbLine
 10
80.66214669024622
 20
-332.2720259555314
 30
0.0
 11
83.99548002424621
 21
-330.3475250578476
 31
0.0
  0
LINE
  5
F6A
330
6B
100
AcDbEntity
  8
_3-0_
  6
Continuous
 62
     7
100
AcDbLine
 10
83.99548002424621
 20
-330.3475250578476
 30
0.0
 11
83.99548002424621
 21
-326.4985232624804
 31
0.0
  0
ARC
  5
F6B
330
6B
100
AcDbEntity
  8
_3-0_
  6
Continuous
 62
     7
100
AcDbCircle
 10
80.66214669024622
 20
-332.223024160164
 30
0.0
 40
2.2
100
AcDbArc
 50
200.0051901246304
 51
339.9948098753754
  0
LINE
  5
F6C
330
6B
100
AcDbEntity
  8
_3-0_
  6
Continuous
 62
     7
100
AcDbLine
 10
90.66214669024615
 20
-320.423024160164
 30
0.0
 11
70.66214669024619
 21
-320.423024160164
 31
0.0
  0
LINE
  5
F6D
330
6B
100
AcDbEntity
  8
_3-0_
  6
Continuous
 62
     7
100
AcDbLine
 10
75.66214668924622
 20
-321.0230241601641
 30
0.0
 11
75.66214668924622
 21
-320.423024160164
 31
0.0
  0
LINE
  5
F6E
330
6B
100
AcDbEntity
  8
_3-0_
  6
Continuous
 62
     7
100
AcDbLine
 10
85.66214669124622
 20
-321.0230241601641
 30
0.0
 11
75.66214668924622
 21
-321.0230241601641
 31
0.0
  0
LINE
  5
F6F
330
6B
100
AcDbEntity
  8
_3-0_
  6
Continuous
 62
     7
100
AcDbLine
 10
85.26214669124623
 20
-321.623024160164
 30
0.0
 11
76.06214668924621
 21
-321.623024160164
 31
0.0
  0
LINE
  5
F70
330
6B
100
AcDbEntity
  8
_3-0_
  6
Continuous
 62
     7
100
AcDbLine
 10
76.06214668924621
 20
-321.623024160164
 30
0.0
 11
76.06214668924621
 21
-321.0230241601641
 31
0.0
  0
LINE
  5
F71
330
6B
100
AcDbEntity
  8
_3-0_
  6
Continuous
 62
     7
100
AcDbLine
 10
85.26214669124623
 20
-321.623024160164
 30
0.0
 11
85.26214669124623
 21
-321.0230241601641
 31
0.0
  0
LINE
  5
F72
330
6B
100
AcDbEntity
  8
_3-0_
  6
Continuous
 62
     7
100
AcDbLine
 10
85.66214669124622
 20
-321.0230241601641
 30
0.0
 11
85.66214669124622
 21
-320.423024160164
 31
0.0
  0
LINE
  5
F73
330
6B
100
AcDbEntity
  8
_3-0_
  6
Continuous
 62
     7
100
AcDbLine
 10
80.66214669024622
 20
-321.623024160164
 30
0.0
 11
81.00855685175998
 21
-321.0230241601641
 31
0.0
  0
LINE
  5
F74
330
6B
100
AcDbEntity
  8
_3-0_
  6
Continuous
 62
     7
100
AcDbLine
 10
84.16214669094626
 20
-321.623024160164
 30
0.0
 11
77.1621466895465
 21
-321.623024160164
 31
0.0
  0
ARC
  5
F75
330
6B
100
AcDbEntity
  8
_3-0_
  6
Continuous
 62
     7
100
AcDbCircle
 10
80.66214669024619
 20
-321.5449472370714
 30
0.0
 40
2.878076923652715
100
AcDbArc
 50
223.1426143825129
 51
316.8573856174871
  0
ARC
  5
F76
330
6B
100
AcDbEntity
  8
_3-0_
  6
Continuous
 62
     7
100
AcDbCircle
 10
77.46065719740285
 20
-323.3028439771885
 30
0.0
 40
1.121362925815763
100
AcDbArc
 50
272.6317690431176
 51
349.1969973969313
  0
ARC
  5
F77
330
6B
100
AcDbEntity
  8
_3-0_
  6
Continuous
 62
     7
100
AcDbCircle
 10
83.86363618309003
 20
-323.3028439771885
 30
0.0
 40
1.121362925815763
100
AcDbArc
 50
190.8030026030686
 51
267.3682309568824
  0
LINE
  5
F78
330
6B
100
AcDbEntity
  8
_3-0_
  6
Continuous
 62
     7
100
AcDbLine
 10
76.46214668940621
 20
-321.623024160164
 30
0.0
 11
76.46214668940621
 21
-323.9541130738758
 31
0.0
  0
LINE
  5
F79
330
6B
100
AcDbEntity
  8
_3-0_
  6
Continuous
 62
     7
100
AcDbLine
 10
77.5121466896163
 20
-324.4230241607241
 30
0.0
 11
76.46214668940621
 21
-323.9541130738758
 31
0.0
  0
LINE
  5
F7A
330
6B
100
AcDbEntity
  8
_3-0_
  6
Continuous
 62
     7
100
AcDbLine
 10
78.56214668982637
 20
-321.623024160164
 30
0.0
 11
78.56214668982637
 21
-323.5130241605418
 31
0.0
  0
LINE
  5
F7B
330
6B
100
AcDbEntity
  8
_3-0_
  6
Continuous
 62
     7
100
AcDbLine
 10
82.76214669066634
 20
-321.623024160164
 30
0.0
 11
82.76214669066634
 21
-323.5130241605416
 31
0.0
  0
LINE
  5
F7C
330
6B
100
AcDbEntity
  8
_3-0_
  6
Continuous
 62
     7
100
AcDbLine
 10
77.5121466896163
 20
-324.4230241607241
 30
0.0
 11
83.81214669087643
 21
-324.4230241607241
 31
0.0
  0
LINE
  5
F7D
330
6B
100
AcDbEntity
  8
_3-0_
  6
Continuous
 62
     7
100
AcDbLine
 10
83.81214669087643
 20
-324.4230241607241
 30
0.0
 11
84.86214669108626
 21
-323.9541130738758
 31
0.0
  0
LINE
  5
F7E
330
6B
100
AcDbEntity
  8
_3-0_
  6
Continuous
 62
     7
100
AcDbLine
 10
84.86214669108626
 20
-321.623024160164
 30
0.0
 11
84.86214669108626
 21
-323.9541130738758
 31
0.0
  0
ARC
  5
F7F
330
6B
100
AcDbEntity
  8
_3-0_
  6
Continuous
 62
     7
100
AcDbCircle
 10
80.66214669024622
 20
-328.423024160164
 30
0.0
 40
5.000000001
100
AcDbArc
 50
126.8698976718183
 51
53.13010232818174
  0
LINE
  5
F80
330
6B
100
AcDbEntity
  8
_3-0_
  6
Continuous
 62
     7
100
AcDbLine
 10
78.79275761139786
 20
-325.6533146526899
 30
0.0
 11
77.32881335624615
 21
-326.4985232624804
 31
0.0
  0
ARC
  5
F81
330
6B
100
AcDbEntity
  8
_3-0_
  6
Continuous
 62
     7
100
AcDbCircle
 10
80.66214669024622
 20
-328.423024160164
 30
0.0
 40
3.33333333400001
100
AcDbArc
 50
123.9896214503668
 51
56.01037854963037
  0
LINE
  5
F82
330
6B
100
AcDbEntity
  8
_3-0_
  6
Continuous
 62
     7
100
AcDbLine
 10
83.99548002424621
 20
-326.4985232624804
 30
0.0
 11
82.52966131648493
 21
-325.6522324369712
 31
0.0
  0
LINE
  5
F83
330
6B
100
AcDbEntity
  8
_3-0_
  6
Continuous
 62
     7
100
AcDbLine
 10
78.91214668989623
 20
-160.423024160724
 30
0.0
 11
78.91214668989623
 21
-161.785735362907
 31
0.0
  0
LINE
  5
F84
330
6B
100
AcDbEntity
  8
_3-0_
  6
Continuous
 62
     7
100
AcDbLine
 10
82.41214669059633
 20
-160.423024160724
 30
0.0
 11
82.41214669059633
 21
-161.7727037311884
 31
0.0
  0
LINE
  5
F85
330
6B
100
AcDbEntity
  8
_3-0_
  6
Continuous
 62
     7
100
AcDbLine
 10
78.91214668989623
 20
-161.7727037311884
 30
0.0
 11
82.41214669059633
 21
-161.7727037311884
 31
0.0
  0
LINE
  5
F86
330
6B
100
AcDbEntity
  8
_3-0_
  6
Continuous
 62
     7
100
AcDbLine
 10
78.56214668982644
 20
-161.4227037311183
 30
0.0
 11
78.91214668989623
 21
-161.7727037311884
 31
0.0
  0
LINE
  5
F87
330
6B
100
AcDbEntity
  8
_3-0_
  6
Continuous
 62
     7
100
AcDbLine
 10
78.56214668982644
 20
-161.4227037311183
 30
0.0
 11
82.76214669066641
 21
-161.4227037311183
 31
0.0
  0
LINE
  5
F88
330
6B
100
AcDbEntity
  8
_3-0_
  6
Continuous
 62
     7
100
AcDbLine
 10
82.41214669059633
 20
-161.7727037311884
 30
0.0
 11
82.76214669066641
 21
-161.4227037311183
 31
0.0
  0
LINE
  5
F89
330
6B
100
AcDbEntity
  8
_3-0_
  6
Continuous
 62
     7
100
AcDbLine
 10
78.56214668982644
 20
-160.423024160724
 30
0.0
 11
78.56214668982644
 21
-161.4227037311183
 31
0.0
  0
LINE
  5
F8A
330
6B
100
AcDbEntity
  8
_3-0_
  6
Continuous
 62
     7
100
AcDbLine
 10
82.76214669066641
 20
-160.423024160724
 30
0.0
 11
82.76214669066641
 21
-161.4227037311183
 31
0.0
  0
LINE
  5
F8B
330
6B
100
AcDbEntity
  8
_3-0_
  6
Continuous
 62
     7
100
AcDbLine
 10
78.91214668989623
 20
-324.4230241607241
 30
0.0
 11
78.91214668989623
 21
-325.7857353629072
 31
0.0
  0
LINE
  5
F8C
330
6B
100
AcDbEntity
  8
_3-0_
  6
Continuous
 62
     7
100
AcDbLine
 10
82.41214669059633
 20
-324.4230241607241
 30
0.0
 11
82.41214669059633
 21
-325.7727037311885
 31
0.0
  0
LINE
  5
F8D
330
6B
100
AcDbEntity
  8
_3-0_
  6
Continuous
 62
     7
100
AcDbLine
 10
78.91214668989623
 20
-325.7727037311885
 30
0.0
 11
82.41214669059633
 21
-325.7727037311885
 31
0.0
  0
LINE
  5
F8E
330
6B
100
AcDbEntity
  8
_3-0_
  6
Continuous
 62
     7
100
AcDbLine
 10
78.56214668982644
 20
-325.4227037311184
 30
0.0
 11
78.91214668989623
 21
-325.7727037311885
 31
0.0
  0
LINE
  5
F8F
330
6B
100
AcDbEntity
  8
_3-0_
  6
Continuous
 62
     7
100
AcDbLine
 10
78.56214668982644
 20
-325.4227037311184
 30
0.0
 11
82.76214669066641
 21
-325.4227037311184
 31
0.0
  0
LINE
  5
F90
330
6B
100
AcDbEntity
  8
_3-0_
  6
Continuous
 62
     7
100
AcDbLine
 10
82.41214669059633
 20
-325.7727037311885
 30
0.0
 11
82.76214669066641
 21
-325.4227037311184
 31
0.0
  0
LINE
  5
F91
330
6B
100
AcDbEntity
  8
_3-0_
  6
Continuous
 62
     7
100
AcDbLine
 10
78.56214668982644
 20
-324.4230241607241
 30
0.0
 11
78.56214668982644
 21
-325.4227037311184
 31
0.0
  0
LINE
  5
F92
330
6B
100
AcDbEntity
  8
_3-0_
  6
Continuous
 62
     7
100
AcDbLine
 10
82.76214669066641
 20
-324.4230241607241
 30
0.0
 11
82.76214669066641
 21
-325.4227037311184
 31
0.0
  0
LINE
  5
F93
330
6B
100
AcDbEntity
  8
_3-0_
  6
Continuous
 62
     7
100
AcDbLine
 10
34.02886738235219
 20
-224.423024160164
 30
0.0
 11
32.99359120194207
 21
-220.5593208550077
 31
0.0
  0
LINE
  5
F94
330
6B
100
AcDbEntity
  8
_3-0_
  6
Continuous
 62
     7
100
AcDbLine
 10
34.02886738235219
 20
-224.423024160164
 30
0.0
 11
35.0641435627623
 21
-220.5593208550077
 31
0.0
  0
LINE
  5
F95
330
6B
100
AcDbEntity
  8
_3-0_
  6
Continuous
 62
     7
100
AcDbLine
 10
34.02886738235219
 20
-228.423024160164
 30
0.0
 11
32.99359120194207
 21
-232.2867274653203
 31
0.0
  0
LINE
  5
F96
330
6B
100
AcDbEntity
  8
_3-0_
  6
Continuous
 62
     7
100
AcDbLine
 10
34.02886738235219
 20
-228.423024160164
 30
0.0
 11
35.0641435627623
 21
-232.2867274653203
 31
0.0
  0
LINE
  5
F97
330
6B
100
AcDbEntity
  8
_3-0_
  6
Continuous
 62
     7
100
AcDbLine
 10
31.42886738235217
 20
-224.423024160164
 30
0.0
 11
50.01871188124107
 21
-224.423024160164
 31
0.0
  0
LINE
  5
F98
330
6B
100
AcDbEntity
  8
_3-0_
  6
Continuous
 62
     7
100
AcDbLine
 10
31.42886738235217
 20
-228.423024160164
 30
0.0
 11
50.01871188124107
 21
-228.423024160164
 31
0.0
  0
TEXT
  5
F99
330
6B
100
AcDbEntity
  8
_3-0_
 62
     3
100
AcDbText
 10
33.05681125200124
 20
-220.1001644700849
 30
0.0
 40
8.0
  1
10
 50
90.0
100
AcDbText
  0
LINE
  5
F9A
330
6B
100
AcDbEntity
  8
_3-0_
  6
Continuous
 62
     7
100
AcDbLine
 10
34.02886738235219
 20
-211.2439190854341
 30
0.0
 11
34.02886738235219
 21
-232.2867274653203
 31
0.0
  0
LINE
  5
F9B
330
6B
100
AcDbEntity
  8
_3-0_
  6
Continuous
 62
     7
100
AcDbLine
 10
183.3889481614917
 20
-224.423024160164
 30
0.0
 11
182.3536719810816
 21
-220.5593208550077
 31
0.0
  0
LINE
  5
F9C
330
6B
100
AcDbEntity
  8
_3-0_
  6
Continuous
 62
     7
100
AcDbLine
 10
183.3889481614917
 20
-224.423024160164
 30
0.0
 11
184.4242243419017
 21
-220.5593208550077
 31
0.0
  0
LINE
  5
F9D
330
6B
100
AcDbEntity
  8
_3-0_
  6
Continuous
 62
     7
100
AcDbLine
 10
183.3889481614917
 20
-228.423024160164
 30
0.0
 11
182.3536719810816
 21
-232.2867274653203
 31
0.0
  0
LINE
  5
F9E
330
6B
100
AcDbEntity
  8
_3-0_
  6
Continuous
 62
     7
100
AcDbLine
 10
183.3889481614917
 20
-228.423024160164
 30
0.0
 11
184.4242243419017
 21
-232.2867274653203
 31
0.0
  0
LINE
  5
F9F
330
6B
100
AcDbEntity
  8
_3-0_
  6
Continuous
 62
     7
100
AcDbLine
 10
180.7889481614917
 20
-224.423024160164
 30
0.0
 11
196.2036303092928
 21
-224.423024160164
 31
0.0
  0
LINE
  5
FA0
330
6B
100
AcDbEntity
  8
_3-0_
  6
Continuous
 62
     7
100
AcDbLine
 10
180.7889481614917
 20
-228.423024160164
 30
0.0
 11
196.2036303092928
 21
-228.423024160164
 31
0.0
  0
TEXT
  5
FA1
330
6B
100
AcDbEntity
  8
_3-0_
 62
     3
100
AcDbText
 10
181.896125271337
 20
-219.3674176230268
 30
0.0
 40
8.0
  1
10
 50
90.0
100
AcDbText
  0
LINE
  5
FA2
330
6B
100
AcDbEntity
  8
_3-0_
  6
Continuous
 62
     7
100
AcDbLine
 10
183.3889481614917
 20
-210.5499757782096
 30
0.0
 11
183.3889481614917
 21
-232.2867274653203
 31
0.0
  0
LINE
  5
FA3
330
6B
100
AcDbEntity
  8
_3-0_
  6
Continuous
 62
     7
100
AcDbLine
 10
51.66214669024623
 20
-134.423024160164
 30
0.0
 11
45.86633683107078
 21
-134.423024160164
 31
0.0
  0
LINE
  5
FA4
330
6B
100
AcDbEntity
  8
_3-0_
  6
Continuous
 62
     7
100
AcDbLine
 10
33.48363302647778
 20
-134.423024160164
 30
0.0
 11
30.39732146588586
 21
-134.423024160164
 31
0.0
  0
LINE
  5
FA5
330
6B
100
AcDbEntity
  8
_3-0_
  6
Continuous
 62
     7
100
AcDbLine
 10
51.66214669024623
 20
-154.423024160164
 30
0.0
 11
45.86633683107078
 21
-154.423024160164
 31
0.0
  0
LINE
  5
FA6
330
6B
100
AcDbEntity
  8
_3-0_
  6
Continuous
 62
     7
100
AcDbLine
 10
33.48363302647778
 20
-154.423024160164
 30
0.0
 11
30.39732146588586
 21
-154.423024160164
 31
0.0
  0
TEXT
  5
FA7
330
6B
100
AcDbEntity
  8
_3-0_
 62
     3
100
AcDbText
 10
43.47189919019404
 20
-221.3756776465169
 30
0.0
 40
6.0
  1
※目地幅10mmを確保してください。
 50
90.0
100
AcDbText
  0
LINE
  5
FA8
330
6B
100
AcDbEntity
  8
hojyo_line
  6
DASHED1
 62
     9
100
AcDbLine
 10
579.7717644010378
 20
-83.39062109656509
 30
0.0
 11
11.7717644010379
 21
-83.39062109656504
 31
0.0
  0
TEXT
  5
FA9
330
6B
100
AcDbEntity
  8
_0-0_
 62
     3
100
AcDbText
 10
26.77176440103789
 20
-87.39062109656506
 30
0.0
 40
8.0
  1
・ルーバーのジョイント部分
100
AcDbText
  0
TEXT
  5
FAA
330
6B
100
AcDbEntity
  8
_0-0_
 62
     2
100
AcDbText
 10
26.77176440103789
 20
-68.39062109656504
 30
0.0
 40
10.0
  1
＜　ジョイント部分・躯体との取り合い　＞
100
AcDbText
  0
LINE
  5
FAB
330
6B
100
AcDbEntity
  8
hojyo_line
  6
DASHED1
 62
     9
100
AcDbLine
 10
295.7717644010378
 20
-48.39062109656503
 30
0.0
 11
295.7717644010378
 21
-394.0657585622294
 31
0.0
  0
LINE
  5
FAC
330
6B
100
AcDbEntity
  8
_3-0_
  6
Continuous
 62
     3
100
AcDbLine
 10
242.8398093549526
 20
-181.9892359620813
 30
0.0
 11
236.9640942944022
 21
-192.1662729777524
 31
0.0
  0
LINE
  5
FAD
330
6B
100
AcDbEntity
  8
_3-0_
  6
Continuous
 62
     3
100
AcDbLine
 10
241.9297074608214
 20
-179.5655786827813
 30
0.0
 11
236.9640942944022
 21
-188.1662729777524
 31
0.0
  0
LINE
  5
FAE
330
6B
100
AcDbEntity
  8
_3-0_
  6
Continuous
 62
     3
100
AcDbLine
 10
241.0139270114765
 20
-177.1517569496251
 30
0.0
 11
236.9640942944022
 21
-184.1662729777524
 31
0.0
  0
TEXT
  5
FAF
330
6B
100
AcDbEntity
  8
_0-0_
 62
     3
100
AcDbText
 10
468.2717644010379
 20
-435.0572877648984
 30
0.0
 40
6.0
  1
ｼﾞｮｲﾝﾄ・躯体との取り合い
100
AcDbText
  0
LINE
  5
FD5
330
6B
100
AcDbEntity
  8
_2-0_
  6
Continuous
 62
     7
100
AcDbLine
 10
81.66507898679547
 20
-175.3544505858731
 30
0.0
 11
98.17245179184659
 21
-204.3381834378384
 31
0.0
  0
LINE
  5
FD6
330
6B
100
AcDbEntity
  8
_2-0_
  6
Continuous
 62
     7
100
AcDbLine
 10
81.66507898679547
 20
-175.3544505858731
 30
0.0
 11
83.69017340429911
 21
-183.0938945323202
 31
0.0
  0
LINE
  5
FD7
330
6B
100
AcDbEntity
  8
_2-0_
  6
Continuous
 62
     7
100
AcDbLine
 10
81.66507898679547
 20
-175.3544505858731
 30
0.0
 11
87.2885841706392
 21
-181.0444584459102
 31
0.0
  0
TEXT
  5
FD8
330
6B
100
AcDbEntity
  8
_2-0_
 62
     3
100
AcDbText
 10
102.1724517918465
 20
-203.5381834378384
 30
0.0
 40
6.0
  1
固定アングル
 72
     1
 11
123.1724517918466
 21
-204.3381834378384
 31
0.0
100
AcDbText
 73
     1
  0
LINE
  5
FD9
330
6B
100
AcDbEntity
  8
_3-0_
  6
Continuous
 62
     4
100
AcDbLine
 10
132.0621466902462
 20
-206.4794775787142
 30
0.0
 11
132.0621466902462
 21
-224.423024160164
 31
0.0
  0
LINE
  5
FDA
330
6B
100
AcDbEntity
  8
_3-0_
  6
Continuous
 62
     3
100
AcDbLine
 10
131.6621466902462
 20
-206.4794775787142
 30
0.0
 11
131.6621466902462
 21
-224.423024160164
 31
0.0
  0
LINE
  5
FDB
330
6B
100
AcDbEntity
  8
_3-0_
  6
Continuous
 62
     4
100
AcDbLine
 10
109.2621466902462
 20
-206.4794775787142
 30
0.0
 11
109.2621466902462
 21
-224.423024160164
 31
0.0
  0
LINE
  5
FDC
330
6B
100
AcDbEntity
  8
_3-0_
  6
Continuous
 62
     4
100
AcDbLine
 10
109.2621466902462
 20
-109.4672378085093
 30
0.0
 11
109.2621466902462
 21
-196.2080255181586
 31
0.0
  0
LINE
  5
FDD
330
6B
100
AcDbEntity
  8
_3-0_
  6
Continuous
 62
     3
100
AcDbLine
 10
109.6621466902462
 20
-206.4794775787142
 30
0.0
 11
109.6621466902462
 21
-224.423024160164
 31
0.0
  0
LINE
  5
FDE
330
6B
100
AcDbEntity
  8
_3-0_
  6
Continuous
 62
     3
100
AcDbLine
 10
109.6621466902462
 20
-109.4672378085093
 30
0.0
 11
109.6621466902462
 21
-196.2080255181586
 31
0.0
  0
LINE
  5
FE2
330
6B
100
AcDbEntity
  8
_2-0_
  6
Continuous
 62
     7
100
AcDbLine
 10
80.85753390753769
 20
-303.6874702063303
 30
0.0
 11
82.9280862683578
 21
-295.9600635960177
 31
0.0
  0
LINE
  5
FE3
330
6B
100
AcDbEntity
  8
_2-0_
  6
Continuous
 62
     7
100
AcDbLine
 10
80.85753390753769
 20
-303.6874702063303
 30
0.0
 11
86.51438815703
 21
-298.0306159568378
 31
0.0
  0
LINE
  5
FE4
330
6B
100
AcDbEntity
  8
_2-0_
  6
Continuous
 62
     7
100
AcDbLine
 10
80.85753390753769
 20
-303.6874702063303
 30
0.0
 11
93.57433462624305
 21
-281.6613252518037
 31
0.0
  0
LINE
  5
FE6
330
6B
100
AcDbEntity
  8
_3-0_
  6
Continuous
 62
     3
100
AcDbLine
 10
131.6621466902462
 20
-284.0177541970449
 30
0.0
 11
131.6621466902462
 21
-352.7151118779066
 31
0.0
  0
LINE
  5
FE7
330
6B
100
AcDbEntity
  8
_3-0_
  6
Continuous
 62
     4
100
AcDbLine
 10
132.0621466902462
 20
-284.0177541970449
 30
0.0
 11
132.0621466902462
 21
-352.7151118779066
 31
0.0
  0
LINE
  5
FE8
330
6B
100
AcDbEntity
  8
_3-0_
  6
Continuous
 62
     4
100
AcDbLine
 10
109.2621466902462
 20
-284.0177541970449
 30
0.0
 11
109.2621466902462
 21
-352.7151118779066
 31
0.0
  0
LINE
  5
FE9
330
6B
100
AcDbEntity
  8
_3-0_
  6
Continuous
 62
     3
100
AcDbLine
 10
109.6621466902462
 20
-284.0177541970449
 30
0.0
 11
109.6621466902462
 21
-352.7151118779066
 31
0.0
  0
LINE
  5
FEC
330
6B
100
AcDbEntity
  8
_3-0_
  6
Continuous
 62
     4
100
AcDbLine
 10
109.2621466902462
 20
-228.423024160164
 30
0.0
 11
109.2621466902462
 21
-261.6315367925336
 31
0.0
  0
LINE
  5
FED
330
6B
100
AcDbEntity
  8
_3-0_
  6
Continuous
 62
     3
100
AcDbLine
 10
109.6621466902462
 20
-228.423024160164
 30
0.0
 11
109.6621466902462
 21
-261.6315367925336
 31
0.0
  0
LINE
  5
FEE
330
6B
100
AcDbEntity
  8
_3-0_
  6
Continuous
 62
     3
100
AcDbLine
 10
131.6621466902462
 20
-228.423024160164
 30
0.0
 11
131.6621466902462
 21
-261.6315367925336
 31
0.0
  0
LINE
  5
FEF
330
6B
100
AcDbEntity
  8
_3-0_
  6
Continuous
 62
     4
100
AcDbLine
 10
132.0621466902462
 20
-228.423024160164
 30
0.0
 11
132.0621466902462
 21
-261.6315367925336
 31
0.0
  0
LINE
  5
FF0
330
6B
100
AcDbEntity
  8
_2-0_
  6
Continuous
 62
     7
100
AcDbLine
 10
105.7619086829684
 20
-163.1481660513132
 30
0.0
 11
111.4187629324606
 21
-168.8050203008057
 31
0.0
  0
LINE
  5
FF1
330
6B
100
AcDbEntity
  8
_2-0_
  6
Continuous
 62
     7
100
AcDbLine
 10
105.7619086829684
 20
-163.1481660513132
 30
0.0
 11
107.8324610437885
 21
-170.8755726616257
 31
0.0
  0
LINE
  5
FF2
330
6B
100
AcDbEntity
  8
_2-0_
  6
Continuous
 62
     7
100
AcDbLine
 10
105.7619086829684
 20
-163.1481660513132
 30
0.0
 11
114.1756957879643
 21
-177.7212728012347
 31
0.0
  0
LINE
  5
FF4
330
6B
100
AcDbEntity
  8
_3-0_
  6
Continuous
 62
     4
100
AcDbLine
 10
132.0621466902462
 20
-179.8735296278215
 30
0.0
 11
132.0621466902462
 21
-196.2080255181586
 31
0.0
  0
LINE
  5
FF5
330
6B
100
AcDbEntity
  8
_3-0_
  6
Continuous
 62
     4
100
AcDbLine
 10
132.0621466902462
 20
-109.4672378085093
 30
0.0
 11
132.0621466902462
 21
-170.9327809889162
 31
0.0
  0
LINE
  5
FF6
330
6B
100
AcDbEntity
  8
_3-0_
  6
Continuous
 62
     3
100
AcDbLine
 10
131.6621466902462
 20
-179.8735296278215
 30
0.0
 11
131.6621466902462
 21
-196.2080255181586
 31
0.0
  0
LINE
  5
FF7
330
6B
100
AcDbEntity
  8
_3-0_
  6
Continuous
 62
     3
100
AcDbLine
 10
131.6621466902462
 20
-109.4672378085093
 30
0.0
 11
131.6621466902462
 21
-170.9327809889162
 31
0.0
  0
LINE
  5
FF9
330
6B
100
AcDbEntity
  8
_2-0_
  6
Continuous
 62
     7
100
AcDbLine
 10
210.2218174754776
 20
-190.712629085963
 30
0.0
 11
215.8786717249698
 21
-196.3694833354555
 31
0.0
  0
LINE
  5
FFA
330
6B
100
AcDbEntity
  8
_2-0_
  6
Continuous
 62
     7
100
AcDbLine
 10
210.2218174754776
 20
-190.712629085963
 30
0.0
 11
212.2923698362977
 21
-198.4400356962756
 31
0.0
  0
LINE
  5
FFB
330
6B
100
AcDbEntity
  8
_2-0_
  6
Continuous
 62
     7
100
AcDbLine
 10
210.2218174754776
 20
-190.712629085963
 30
0.0
 11
218.6356045804735
 21
-205.2857358358846
 31
0.0
  0
TEXT
  5
FFC
330
6B
100
AcDbEntity
  8
_2-0_
 62
     3
100
AcDbText
 10
219.6801531035288
 20
-204.4857358358846
 30
0.0
 40
6.0
  1
ルーバー
 72
     1
 11
233.0801531035288
 21
-205.2857358358846
 31
0.0
100
AcDbText
 73
     1
  0
LINE
  5
FFD
330
6B
100
AcDbEntity
  8
_2-0_
  6
Continuous
 62
     7
100
AcDbLine
 10
218.6356045804735
 20
-205.2857358358846
 30
0.0
 11
247.5247016265841
 21
-205.2857358358846
 31
0.0
  0
LINE
  5
FFE
330
6B
100
AcDbEntity
  8
_2-0_
  6
Continuous
 62
     7
100
AcDbLine
 10
237.0847791463609
 20
-167.5474581142201
 30
0.0
 11
239.1098735638645
 21
-175.2869020606672
 31
0.0
  0
LINE
  5
FFF
330
6B
100
AcDbEntity
  8
_2-0_
  6
Continuous
 62
     7
100
AcDbLine
 10
237.0847791463609
 20
-167.5474581142201
 30
0.0
 11
242.7082843302046
 21
-173.2374659742572
 31
0.0
  0
LINE
  5
1000
330
6B
100
AcDbEntity
  8
_2-0_
  6
Continuous
 62
     7
100
AcDbLine
 10
237.0847791463609
 20
-167.5474581142201
 30
0.0
 11
245.4793674732661
 21
-181.7932963164111
 31
0.0
  0
TEXT
  5
1001
330
6B
100
AcDbEntity
  8
_2-0_
 62
     3
100
AcDbText
 10
249.4793674732662
 20
-180.9932963164111
 30
0.0
 40
6.0
  1
固定アングル
 72
     1
 11
270.4793674732662
 21
-181.7932963164111
 31
0.0
100
AcDbText
 73
     1
  0
LINE
  5
1003
330
6B
100
AcDbEntity
  8
_3-0_
  6
Continuous
 62
     3
100
AcDbLine
 10
236.9640942944022
 20
-109.4672378085093
 30
0.0
 11
236.9640942944022
 21
-196.8335647987213
 31
0.0
  0
LINE
  5
1006
330
6B
100
AcDbEntity
  8
_2-0_
  6
Continuous
 62
     7
100
AcDbLine
 10
217.6039623490001
 20
-303.6874702063303
 30
0.0
 11
227.596995738777
 21
-286.3790286535041
 31
0.0
  0
LINE
  5
1007
330
6B
100
AcDbEntity
  8
_2-0_
  6
Continuous
 62
     7
100
AcDbLine
 10
217.6039623490001
 20
-303.6874702063303
 30
0.0
 11
219.6745147098202
 21
-295.9600635960177
 31
0.0
  0
LINE
  5
1008
330
6B
100
AcDbEntity
  8
_2-0_
  6
Continuous
 62
     7
100
AcDbLine
 10
217.6039623490001
 20
-303.6874702063303
 30
0.0
 11
223.2608165984924
 21
-298.0306159568378
 31
0.0
  0
LINE
  5
1009
330
6B
100
AcDbEntity
  8
_3-0_
  6
Continuous
 62
     3
100
AcDbLine
 10
242.8398093549526
 20
-252.1119016698248
 30
0.0
 11
236.9640942944022
 21
-262.2889386854957
 31
0.0
  0
LINE
  5
100A
330
6B
100
AcDbEntity
  8
_3-0_
  6
Continuous
 62
     3
100
AcDbLine
 10
241.9297074608214
 20
-249.6882443905247
 30
0.0
 11
236.9640942944022
 21
-258.2889386854958
 31
0.0
  0
LINE
  5
100B
330
6B
100
AcDbEntity
  8
_3-0_
  6
Continuous
 62
     3
100
AcDbLine
 10
241.0139270114765
 20
-247.2744226573685
 30
0.0
 11
236.9640942944022
 21
-254.2889386854957
 31
0.0
  0
LINE
  5
100C
330
6B
100
AcDbEntity
  8
_3-0_
  6
Continuous
 62
     3
100
AcDbLine
 10
435.9939124088876
 20
-126.1563862103274
 30
0.0
 11
417.9939124088876
 21
-126.1563862103274
 31
0.0
  0
LINE
  5
100D
330
6B
100
AcDbEntity
  8
_3-0_
  6
Continuous
 62
     3
100
AcDbLine
 10
395.9939124088876
 20
-126.1563862103274
 30
0.0
 11
377.9939124088877
 21
-126.1563862103274
 31
0.0
  0
LINE
  5
100E
330
6B
100
AcDbEntity
  8
_3-0_
  6
Continuous
 62
     3
100
AcDbLine
 10
355.9939124088876
 20
-126.1563862103274
 30
0.0
 11
337.9939124088876
 21
-126.1563862103274
 31
0.0
  0
LINE
  5
100F
330
6B
100
AcDbEntity
  8
_3-0_
  6
Continuous
 62
     7
100
AcDbLine
 10
337.9939124088876
 20
-196.1563862103274
 30
0.0
 11
316.7290871845272
 21
-196.1563862103274
 31
0.0
  0
LINE
  5
1010
330
6B
100
AcDbEntity
  8
_3-0_
  6
Continuous
 62
     7
100
AcDbLine
 10
337.9939124088876
 20
-216.1563862103274
 30
0.0
 11
316.7290871845272
 21
-216.1563862103274
 31
0.0
  0
LINE
  5
1011
330
6B
100
AcDbEntity
  8
_3-0_
  6
Continuous
 62
     7
100
AcDbLine
 10
377.9939124088877
 20
-216.1563862103274
 30
0.0
 11
355.9939124088876
 21
-216.1563862103274
 31
0.0
  0
LINE
  5
1012
330
6B
100
AcDbEntity
  8
_3-0_
  6
Continuous
 62
     7
100
AcDbLine
 10
377.9939124088877
 20
-196.1563862103274
 30
0.0
 11
355.9939124088876
 21
-196.1563862103274
 31
0.0
  0
LINE
  5
1013
330
6B
100
AcDbEntity
  8
_3-0_
  6
Continuous
 62
     7
100
AcDbLine
 10
457.1528133507985
 20
-196.1563862103274
 30
0.0
 11
435.9939124088876
 21
-196.1563862103274
 31
0.0
  0
LINE
  5
1014
330
6B
100
AcDbEntity
  8
_3-0_
  6
Continuous
 62
     7
100
AcDbLine
 10
417.9939124088876
 20
-196.1563862103274
 30
0.0
 11
395.9939124088876
 21
-196.1563862103274
 31
0.0
  0
LINE
  5
1015
330
6B
100
AcDbEntity
  8
_3-0_
  6
Continuous
 62
     7
100
AcDbLine
 10
457.1528133507985
 20
-216.1563862103274
 30
0.0
 11
435.9939124088876
 21
-216.1563862103274
 31
0.0
  0
LINE
  5
1016
330
6B
100
AcDbEntity
  8
_3-0_
  6
Continuous
 62
     7
100
AcDbLine
 10
417.9939124088876
 20
-216.1563862103274
 30
0.0
 11
395.9939124088876
 21
-216.1563862103274
 31
0.0
  0
LINE
  5
1017
330
6B
100
AcDbEntity
  8
_3-0_
  6
Continuous
 62
     7
100
AcDbLine
 10
356.9939124088875
 20
-216.1563862103274
 30
0.0
 11
356.9939124088875
 21
-236.1563862103274
 31
0.0
  0
LINE
  5
1018
330
6B
100
AcDbEntity
  8
_3-0_
  6
Continuous
 62
     7
100
AcDbLine
 10
356.9939124088875
 20
-236.1563862103274
 30
0.0
 11
376.9939124088874
 21
-236.1563862103274
 31
0.0
  0
LINE
  5
1019
330
6B
100
AcDbEntity
  8
_3-0_
  6
Continuous
 62
     7
100
AcDbLine
 10
376.9939124088874
 20
-216.1563862103274
 30
0.0
 11
376.9939124088874
 21
-236.1563862103274
 31
0.0
  0
LINE
  5
101A
330
6B
100
AcDbEntity
  8
_3-0_
  6
CENTER1
 62
     4
100
AcDbLine
 10
366.9939124088876
 20
-218.9672934862602
 30
0.0
 11
366.9939124088876
 21
-233.7631752824524
 31
0.0
  0
LINE
  5
101B
330
6B
100
AcDbEntity
  8
_3-0_
  6
CENTER1
 62
     4
100
AcDbLine
 10
362.8787892759074
 20
-226.1563862103274
 30
0.0
 11
370.9108393938407
 21
-226.1563862103274
 31
0.0
  0
LINE
  5
101C
330
6B
100
AcDbEntity
  8
_3-0_
  6
Continuous
 62
     7
100
AcDbLine
 10
363.6605790748875
 20
-224.2318853126437
 30
0.0
 11
363.6605790748875
 21
-228.080887108011
 31
0.0
  0
LINE
  5
101D
330
6B
100
AcDbEntity
  8
_3-0_
  6
Continuous
 62
     7
100
AcDbLine
 10
363.6605790748875
 20
-228.080887108011
 30
0.0
 11
366.9939124088876
 21
-230.0053880056948
 31
0.0
  0
LINE
  5
101E
330
6B
100
AcDbEntity
  8
_3-0_
  6
Continuous
 62
     7
100
AcDbLine
 10
366.9939124088876
 20
-230.0053880056948
 30
0.0
 11
370.3272457428877
 21
-228.080887108011
 31
0.0
  0
LINE
  5
101F
330
6B
100
AcDbEntity
  8
_3-0_
  6
Continuous
 62
     7
100
AcDbLine
 10
370.3272457428877
 20
-228.080887108011
 30
0.0
 11
370.3272457428877
 21
-224.2318853126437
 31
0.0
  0
ARC
  5
1020
330
6B
100
AcDbEntity
  8
_3-0_
  6
Continuous
 62
     7
100
AcDbCircle
 10
366.9939124088876
 20
-229.9563862103274
 30
0.0
 40
2.2
100
AcDbArc
 50
200.0051901246304
 51
339.9948098753754
  0
LINE
  5
1021
330
6B
100
AcDbEntity
  8
_3-0_
  6
Continuous
 62
     7
100
AcDbLine
 10
376.9939124088874
 20
-218.1563862103274
 30
0.0
 11
356.9939124088875
 21
-218.1563862103274
 31
0.0
  0
LINE
  5
1022
330
6B
100
AcDbEntity
  8
_3-0_
  6
Continuous
 62
     7
100
AcDbLine
 10
361.9939124078876
 20
-218.7563862103274
 30
0.0
 11
361.9939124078876
 21
-218.1563862103274
 31
0.0
  0
LINE
  5
1023
330
6B
100
AcDbEntity
  8
_3-0_
  6
Continuous
 62
     7
100
AcDbLine
 10
371.9939124098876
 20
-218.7563862103274
 30
0.0
 11
361.9939124078876
 21
-218.7563862103274
 31
0.0
  0
LINE
  5
1024
330
6B
100
AcDbEntity
  8
_3-0_
  6
Continuous
 62
     7
100
AcDbLine
 10
371.5939124098876
 20
-219.3563862103275
 30
0.0
 11
362.3939124078876
 21
-219.3563862103275
 31
0.0
  0
LINE
  5
1025
330
6B
100
AcDbEntity
  8
_3-0_
  6
Continuous
 62
     7
100
AcDbLine
 10
362.3939124078876
 20
-219.3563862103275
 30
0.0
 11
362.3939124078876
 21
-218.7563862103274
 31
0.0
  0
LINE
  5
1026
330
6B
100
AcDbEntity
  8
_3-0_
  6
Continuous
 62
     7
100
AcDbLine
 10
371.5939124098876
 20
-219.3563862103275
 30
0.0
 11
371.5939124098876
 21
-218.7563862103274
 31
0.0
  0
LINE
  5
1027
330
6B
100
AcDbEntity
  8
_3-0_
  6
Continuous
 62
     7
100
AcDbLine
 10
371.9939124098876
 20
-218.7563862103274
 30
0.0
 11
371.9939124098876
 21
-218.1563862103274
 31
0.0
  0
LINE
  5
1028
330
6B
100
AcDbEntity
  8
_3-0_
  6
Continuous
 62
     7
100
AcDbLine
 10
366.9939124088876
 20
-219.3563862103275
 30
0.0
 11
367.3403225704012
 21
-218.7563862103274
 31
0.0
  0
LINE
  5
1029
330
6B
100
AcDbEntity
  8
_3-0_
  6
Continuous
 62
     7
100
AcDbLine
 10
370.4939124095876
 20
-219.3563862103275
 30
0.0
 11
363.4939124081878
 21
-219.3563862103275
 31
0.0
  0
ARC
  5
102A
330
6B
100
AcDbEntity
  8
_3-0_
  6
Continuous
 62
     7
100
AcDbCircle
 10
366.9939124088875
 20
-219.2783092872348
 30
0.0
 40
2.878076923652715
100
AcDbArc
 50
223.1426143825129
 51
316.8573856174871
  0
ARC
  5
102B
330
6B
100
AcDbEntity
  8
_3-0_
  6
Continuous
 62
     7
100
AcDbCircle
 10
363.7924229160441
 20
-221.0362060273518
 30
0.0
 40
1.121362925815763
100
AcDbArc
 50
272.6317690431176
 51
349.1969973969313
  0
ARC
  5
102C
330
6B
100
AcDbEntity
  8
_3-0_
  6
Continuous
 62
     7
100
AcDbCircle
 10
370.1954019017313
 20
-221.0362060273518
 30
0.0
 40
1.121362925815763
100
AcDbArc
 50
190.8030026030686
 51
267.3682309568824
  0
LINE
  5
102D
330
6B
100
AcDbEntity
  8
_3-0_
  6
Continuous
 62
     7
100
AcDbLine
 10
362.7939124080476
 20
-219.3563862103275
 30
0.0
 11
362.7939124080476
 21
-221.6874751240392
 31
0.0
  0
LINE
  5
102E
330
6B
100
AcDbEntity
  8
_3-0_
  6
Continuous
 62
     7
100
AcDbLine
 10
363.8439124082577
 20
-222.1563862108875
 30
0.0
 11
362.7939124080476
 21
-221.6874751240392
 31
0.0
  0
LINE
  5
102F
330
6B
100
AcDbEntity
  8
_3-0_
  6
Continuous
 62
     7
100
AcDbLine
 10
364.8939124084677
 20
-219.3563862103275
 30
0.0
 11
364.8939124084677
 21
-221.2463862107052
 31
0.0
  0
LINE
  5
1030
330
6B
100
AcDbEntity
  8
_3-0_
  6
Continuous
 62
     7
100
AcDbLine
 10
369.0939124093077
 20
-219.3563862103275
 30
0.0
 11
369.0939124093077
 21
-221.246386210705
 31
0.0
  0
LINE
  5
1031
330
6B
100
AcDbEntity
  8
_3-0_
  6
Continuous
 62
     7
100
AcDbLine
 10
363.8439124082577
 20
-222.1563862108875
 30
0.0
 11
370.1439124095177
 21
-222.1563862108875
 31
0.0
  0
LINE
  5
1032
330
6B
100
AcDbEntity
  8
_3-0_
  6
Continuous
 62
     7
100
AcDbLine
 10
370.1439124095177
 20
-222.1563862108875
 30
0.0
 11
371.1939124097276
 21
-221.6874751240392
 31
0.0
  0
LINE
  5
1033
330
6B
100
AcDbEntity
  8
_3-0_
  6
Continuous
 62
     7
100
AcDbLine
 10
371.1939124097276
 20
-219.3563862103275
 30
0.0
 11
371.1939124097276
 21
-221.6874751240392
 31
0.0
  0
ARC
  5
1034
330
6B
100
AcDbEntity
  8
_3-0_
  6
Continuous
 62
     7
100
AcDbCircle
 10
366.9939124088876
 20
-226.1563862103274
 30
0.0
 40
5.000000001
100
AcDbArc
 50
126.8698976718183
 51
53.13010232818174
  0
LINE
  5
1035
330
6B
100
AcDbEntity
  8
_3-0_
  6
Continuous
 62
     7
100
AcDbLine
 10
365.1245233300392
 20
-223.3866767028533
 30
0.0
 11
363.6605790748875
 21
-224.2318853126437
 31
0.0
  0
ARC
  5
1036
330
6B
100
AcDbEntity
  8
_3-0_
  6
Continuous
 62
     7
100
AcDbCircle
 10
366.9939124088876
 20
-226.1563862103274
 30
0.0
 40
3.33333333400001
100
AcDbArc
 50
123.9896214503668
 51
56.01037854963037
  0
LINE
  5
1037
330
6B
100
AcDbEntity
  8
_3-0_
  6
Continuous
 62
     7
100
AcDbLine
 10
370.3272457428877
 20
-224.2318853126437
 30
0.0
 11
368.8614270351263
 21
-223.3855944871346
 31
0.0
  0
LINE
  5
1038
330
6B
100
AcDbEntity
  8
_3-0_
  6
Continuous
 62
     7
100
AcDbLine
 10
365.2439124085376
 20
-222.1563862108876
 30
0.0
 11
365.2439124085376
 21
-223.5190974130706
 31
0.0
  0
LINE
  5
1039
330
6B
100
AcDbEntity
  8
_3-0_
  6
Continuous
 62
     7
100
AcDbLine
 10
368.7439124092377
 20
-222.1563862108876
 30
0.0
 11
368.7439124092377
 21
-223.5060657813519
 31
0.0
  0
LINE
  5
103A
330
6B
100
AcDbEntity
  8
_3-0_
  6
Continuous
 62
     7
100
AcDbLine
 10
365.2439124085376
 20
-223.5060657813519
 30
0.0
 11
368.7439124092377
 21
-223.5060657813519
 31
0.0
  0
LINE
  5
103B
330
6B
100
AcDbEntity
  8
_3-0_
  6
Continuous
 62
     7
100
AcDbLine
 10
364.8939124084678
 20
-223.1560657812818
 30
0.0
 11
365.2439124085376
 21
-223.5060657813519
 31
0.0
  0
LINE
  5
103C
330
6B
100
AcDbEntity
  8
_3-0_
  6
Continuous
 62
     7
100
AcDbLine
 10
364.8939124084678
 20
-223.1560657812818
 30
0.0
 11
369.0939124093078
 21
-223.1560657812818
 31
0.0
  0
LINE
  5
103D
330
6B
100
AcDbEntity
  8
_3-0_
  6
Continuous
 62
     7
100
AcDbLine
 10
368.7439124092377
 20
-223.5060657813519
 30
0.0
 11
369.0939124093078
 21
-223.1560657812818
 31
0.0
  0
LINE
  5
103E
330
6B
100
AcDbEntity
  8
_3-0_
  6
Continuous
 62
     7
100
AcDbLine
 10
364.8939124084678
 20
-222.1563862108876
 30
0.0
 11
364.8939124084678
 21
-223.1560657812818
 31
0.0
  0
LINE
  5
103F
330
6B
100
AcDbEntity
  8
_3-0_
  6
Continuous
 62
     7
100
AcDbLine
 10
369.0939124093078
 20
-222.1563862108876
 30
0.0
 11
369.0939124093078
 21
-223.1560657812818
 31
0.0
  0
LINE
  5
1040
330
6B
100
AcDbEntity
  8
_3-0_
  6
Continuous
 62
     3
100
AcDbLine
 10
417.9939124088876
 20
-126.1563862103274
 30
0.0
 11
417.9939124088876
 21
-352.7151118779066
 31
0.0
  0
LINE
  5
1041
330
6B
100
AcDbEntity
  8
_3-0_
  6
Continuous
 62
     4
100
AcDbLine
 10
418.3939124088876
 20
-126.1563862103274
 30
0.0
 11
418.3939124088876
 21
-352.7151118779066
 31
0.0
  0
LINE
  5
1042
330
6B
100
AcDbEntity
  8
_3-0_
  6
Continuous
 62
     4
100
AcDbLine
 10
435.5939124088876
 20
-126.1563862103274
 30
0.0
 11
435.5939124088876
 21
-352.7151118779066
 31
0.0
  0
LINE
  5
1043
330
6B
100
AcDbEntity
  8
_3-0_
  6
Continuous
 62
     3
100
AcDbLine
 10
435.9939124088876
 20
-126.1563862103274
 30
0.0
 11
435.9939124088876
 21
-352.7151118779066
 31
0.0
  0
LINE
  5
1044
330
6B
100
AcDbEntity
  8
_3-0_
  6
Continuous
 62
     3
100
AcDbLine
 10
377.9939124088877
 20
-126.1563862103274
 30
0.0
 11
377.9939124088877
 21
-352.7151118779066
 31
0.0
  0
LINE
  5
1045
330
6B
100
AcDbEntity
  8
_3-0_
  6
Continuous
 62
     4
100
AcDbLine
 10
378.3939124088876
 20
-126.1563862103274
 30
0.0
 11
378.3939124088876
 21
-352.7151118779066
 31
0.0
  0
LINE
  5
1046
330
6B
100
AcDbEntity
  8
_3-0_
  6
Continuous
 62
     4
100
AcDbLine
 10
395.5939124088877
 20
-126.1563862103274
 30
0.0
 11
395.5939124088877
 21
-352.7151118779066
 31
0.0
  0
LINE
  5
1047
330
6B
100
AcDbEntity
  8
_3-0_
  6
Continuous
 62
     3
100
AcDbLine
 10
395.9939124088876
 20
-126.1563862103274
 30
0.0
 11
395.9939124088876
 21
-352.7151118779066
 31
0.0
  0
LINE
  5
1048
330
6B
100
AcDbEntity
  8
_3-0_
  6
Continuous
 62
     3
100
AcDbLine
 10
337.9939124088876
 20
-126.1563862103274
 30
0.0
 11
337.9939124088876
 21
-352.7151118779066
 31
0.0
  0
LINE
  5
1049
330
6B
100
AcDbEntity
  8
_3-0_
  6
Continuous
 62
     4
100
AcDbLine
 10
338.3939124088876
 20
-126.1563862103274
 30
0.0
 11
338.3939124088876
 21
-352.7151118779066
 31
0.0
  0
LINE
  5
104A
330
6B
100
AcDbEntity
  8
_3-0_
  6
Continuous
 62
     4
100
AcDbLine
 10
355.5939124088876
 20
-126.1563862103274
 30
0.0
 11
355.5939124088876
 21
-352.7151118779066
 31
0.0
  0
LINE
  5
104B
330
6B
100
AcDbEntity
  8
_3-0_
  6
Continuous
 62
     3
100
AcDbLine
 10
355.9939124088876
 20
-126.1563862103274
 30
0.0
 11
355.9939124088876
 21
-352.7151118779066
 31
0.0
  0
LINE
  5
104C
330
6B
100
AcDbEntity
  8
_3-0_
  6
Continuous
 62
     7
100
AcDbLine
 10
485.9499417136897
 20
-122.1563862103274
 30
0.0
 11
501.3646238614907
 21
-122.1563862103274
 31
0.0
  0
LINE
  5
104D
330
6B
100
AcDbEntity
  8
_3-0_
  6
Continuous
 62
     7
100
AcDbLine
 10
523.3250878466
 20
-214.1563862103274
 30
0.0
 11
538.9250878466
 21
-214.1563862103274
 31
0.0
  0
LINE
  5
104E
330
6B
100
AcDbEntity
  8
_3-0_
  6
Continuous
 62
     7
100
AcDbLine
 10
540.1250878466
 20
-215.3563862103275
 30
0.0
 11
540.1250878466
 21
-216.1563862103274
 31
0.0
  0
ARC
  5
104F
330
6B
100
AcDbEntity
  8
_3-0_
  6
Continuous
 62
     7
100
AcDbCircle
 10
538.9250878466
 20
-215.3563862103275
 30
0.0
 40
1.2
100
AcDbArc
 50
0.0
 51
90.0
  0
LINE
  5
1050
330
6B
100
AcDbEntity
  8
_3-0_
  6
Continuous
 62
     7
100
AcDbLine
 10
522.1250878466
 20
-212.9563862103274
 30
0.0
 11
522.1250878466
 21
-197.3563862103274
 31
0.0
  0
ARC
  5
1051
330
6B
100
AcDbEntity
  8
_3-0_
  6
Continuous
 62
     7
100
AcDbCircle
 10
523.3250878466
 20
-212.9563862103274
 30
0.0
 40
1.2
100
AcDbArc
 50
180.0
 51
270.0
  0
LINE
  5
1052
330
6B
100
AcDbEntity
  8
_3-0_
  6
Continuous
 62
     7
100
AcDbLine
 10
522.9250878466
 20
-208.1563862103274
 30
0.0
 11
522.9250878466
 21
-204.1563862103274
 31
0.0
  0
LINE
  5
1053
330
6B
100
AcDbEntity
  8
_3-0_
  6
Continuous
 62
     7
100
AcDbLine
 10
522.1250878466
 20
-203.1563862103274
 30
0.0
 11
522.5250878466
 21
-203.1563862103274
 31
0.0
  0
LINE
  5
1054
330
6B
100
AcDbEntity
  8
_3-0_
  6
Continuous
 62
     7
100
AcDbLine
 10
522.1250878466
 20
-209.1563862103274
 30
0.0
 11
522.5250878466
 21
-209.1563862103274
 31
0.0
  0
LINE
  5
1055
330
6B
100
AcDbEntity
  8
_3-0_
  6
Continuous
 62
     7
100
AcDbLine
 10
522.9250878466
 20
-208.9563862103274
 30
0.0
 11
522.9250878466
 21
-203.3563862103274
 31
0.0
  0
LINE
  5
1056
330
6B
100
AcDbEntity
  8
_3-0_
  6
Continuous
 62
     7
100
AcDbLine
 10
522.5250878466
 20
-208.9563862103274
 30
0.0
 11
522.9250878466
 21
-208.9563862103274
 31
0.0
  0
LINE
  5
1057
330
6B
100
AcDbEntity
  8
_3-0_
  6
Continuous
 62
     7
100
AcDbLine
 10
522.5250878466
 20
-203.3563862103274
 30
0.0
 11
522.9250878466
 21
-203.3563862103274
 31
0.0
  0
LINE
  5
1058
330
6B
100
AcDbEntity
  8
_3-0_
  6
Continuous
 62
     7
100
AcDbLine
 10
522.5250878466
 20
-206.1563862103274
 30
0.0
 11
522.9250878466
 21
-205.9254461026515
 31
0.0
  0
LINE
  5
1059
330
6B
100
AcDbEntity
  8
_3-0_
  6
Continuous
 62
     7
100
AcDbLine
 10
522.5250878466
 20
-209.1563862103274
 30
0.0
 11
522.5250878466
 21
-203.1563862103274
 31
0.0
  0
ARC
  5
105A
330
6B
100
AcDbEntity
  8
_3-0_
  6
Continuous
 62
     7
100
AcDbCircle
 10
522.8804724619846
 20
-206.1563862103274
 30
0.0
 40
1.644615384615485
100
AcDbArc
 50
313.1426143825129
 51
46.85738561748701
  0
ARC
  5
105B
330
6B
100
AcDbEntity
  8
_3-0_
  6
Continuous
 62
     7
100
AcDbCircle
 10
523.8849848847078
 20
-204.3269636433541
 30
0.0
 40
0.640778814623709
100
AcDbArc
 50
280.8030026030686
 51
357.3682309568824
  0
ARC
  5
105C
330
6B
100
AcDbEntity
  8
_3-0_
  6
Continuous
 62
     7
100
AcDbCircle
 10
523.8849848847078
 20
-207.9858087773007
 30
0.0
 40
0.640778814623709
100
AcDbArc
 50
2.631769043117595
 51
79.19699739693133
  0
LINE
  5
105D
330
6B
100
AcDbEntity
  8
_3-0_
  6
Continuous
 62
     7
100
AcDbLine
 10
522.9250878466
 20
-203.7563862103276
 30
0.0
 11
524.2571386541689
 21
-203.7563862103276
 31
0.0
  0
LINE
  5
105E
330
6B
100
AcDbEntity
  8
_3-0_
  6
Continuous
 62
     7
100
AcDbLine
 10
524.5250878466
 20
-204.3563862103275
 30
0.0
 11
524.2571386541689
 21
-203.7563862103276
 31
0.0
  0
LINE
  5
105F
330
6B
100
AcDbEntity
  8
_3-0_
  6
Continuous
 62
     7
100
AcDbLine
 10
522.9250878466
 20
-204.9563862103274
 30
0.0
 11
524.0050878466003
 21
-204.9563862103274
 31
0.0
  0
LINE
  5
1060
330
6B
100
AcDbEntity
  8
_3-0_
  6
Continuous
 62
     7
100
AcDbLine
 10
522.9250878466
 20
-207.3563862103275
 30
0.0
 11
524.0050878466003
 21
-207.3563862103275
 31
0.0
  0
LINE
  5
1061
330
6B
100
AcDbEntity
  8
_3-0_
  6
Continuous
 62
     7
100
AcDbLine
 10
524.5250878466
 20
-204.3563862103275
 30
0.0
 11
524.5250878466
 21
-207.9563862103273
 31
0.0
  0
LINE
  5
1062
330
6B
100
AcDbEntity
  8
_3-0_
  6
Continuous
 62
     7
100
AcDbLine
 10
524.5250878466
 20
-207.9563862103273
 30
0.0
 11
524.2571386541689
 21
-208.5563862103275
 31
0.0
  0
LINE
  5
1063
330
6B
100
AcDbEntity
  8
_3-0_
  6
Continuous
 62
     7
100
AcDbLine
 10
522.9250878466
 20
-208.5563862103275
 30
0.0
 11
524.2571386541689
 21
-208.5563862103275
 31
0.0
  0
LINE
  5
1064
330
6B
100
AcDbEntity
  8
_3-0_
  6
CENTER1
 62
     4
100
AcDbLine
 10
513.0430887324392
 20
-206.1563862103274
 30
0.0
 11
528.3769451430167
 21
-206.1563862103274
 31
0.0
  0
LINE
  5
1065
330
6B
100
AcDbEntity
  8
_3-0_
  6
Continuous
 62
     7
100
AcDbLine
 10
522.1250878466
 20
-216.9563862103274
 30
0.0
 11
522.1250878466
 21
-216.1563862103274
 31
0.0
  0
LINE
  5
1066
330
6B
100
AcDbEntity
  8
_3-0_
  6
Continuous
 62
     7
100
AcDbLine
 10
541.3250878466
 20
-236.1563862103274
 30
0.0
 11
542.1250878466
 21
-236.1563862103274
 31
0.0
  0
ARC
  5
1067
330
6B
100
AcDbEntity
  8
_3-0_
  6
Continuous
 62
     7
100
AcDbCircle
 10
541.3250878466
 20
-234.9563862103273
 30
0.0
 40
1.2
100
AcDbArc
 50
180.0
 51
270.0
  0
ARC
  5
1068
330
6B
100
AcDbEntity
  8
_3-0_
  6
Continuous
 62
     7
100
AcDbCircle
 10
523.3250878466
 20
-216.9563862103274
 30
0.0
 40
1.2
100
AcDbArc
 50
180.0
 51
270.0
  0
LINE
  5
1069
330
6B
100
AcDbEntity
  8
_3-0_
  6
Continuous
 62
     7
100
AcDbLine
 10
538.9250878466
 20
-218.1563862103274
 30
0.0
 11
523.3250878466
 21
-218.1563862103274
 31
0.0
  0
LINE
  5
106A
330
6B
100
AcDbEntity
  8
_3-0_
  6
Continuous
 62
     7
100
AcDbLine
 10
540.1250878466
 20
-219.3563862103275
 30
0.0
 11
540.1250878466
 21
-234.9563862103273
 31
0.0
  0
ARC
  5
106B
330
6B
100
AcDbEntity
  8
_3-0_
  6
Continuous
 62
     7
100
AcDbCircle
 10
538.9250878466
 20
-219.3563862103275
 30
0.0
 40
1.2
100
AcDbArc
 50
0.0
 51
90.00000000000003
  0
LINE
  5
106C
330
6B
100
AcDbEntity
  8
_3-0_
  6
Continuous
 62
     7
100
AcDbLine
 10
522.1250878466
 20
-216.5563862103275
 30
0.0
 11
542.1250878466
 21
-216.5563862103275
 31
0.0
  0
LINE
  5
106D
330
6B
100
AcDbEntity
  8
_3-0_
  6
Continuous
 62
     7
100
AcDbLine
 10
539.19175451308
 20
-223.852204568684
 30
0.0
 11
539.19175451308
 21
-228.518871236284
 31
0.0
  0
LINE
  5
106E
330
6B
100
AcDbEntity
  8
_3-0_
  6
Continuous
 62
     7
100
AcDbLine
 10
540.1250878466
 20
-229.6855379031841
 30
0.0
 11
539.65842117984
 21
-229.6855379031841
 31
0.0
  0
LINE
  5
106F
330
6B
100
AcDbEntity
  8
_3-0_
  6
Continuous
 62
     7
100
AcDbLine
 10
540.1250878466
 20
-222.6855379017839
 30
0.0
 11
539.65842117984
 21
-222.6855379017839
 31
0.0
  0
LINE
  5
1070
330
6B
100
AcDbEntity
  8
_3-0_
  6
Continuous
 62
     7
100
AcDbLine
 10
539.19175451308
 20
-222.9188712351638
 30
0.0
 11
539.19175451308
 21
-229.4522045698039
 31
0.0
  0
LINE
  5
1071
330
6B
100
AcDbEntity
  8
_3-0_
  6
Continuous
 62
     7
100
AcDbLine
 10
539.65842117984
 20
-222.9188712351638
 30
0.0
 11
539.19175451308
 21
-222.9188712351638
 31
0.0
  0
LINE
  5
1072
330
6B
100
AcDbEntity
  8
_3-0_
  6
Continuous
 62
     7
100
AcDbLine
 10
539.65842117984
 20
-229.4522045698039
 30
0.0
 11
539.19175451308
 21
-229.4522045698039
 31
0.0
  0
LINE
  5
1073
330
6B
100
AcDbEntity
  8
_3-0_
  6
Continuous
 62
     7
100
AcDbLine
 10
539.65842117984
 20
-226.185537902484
 30
0.0
 11
539.19175451308
 21
-226.4549680281598
 31
0.0
  0
LINE
  5
1074
330
6B
100
AcDbEntity
  8
_3-0_
  6
Continuous
 62
     7
100
AcDbLine
 10
539.65842117984
 20
-222.6855379017839
 30
0.0
 11
539.65842117984
 21
-229.6855379031841
 31
0.0
  0
ARC
  5
1075
330
6B
100
AcDbEntity
  8
_3-0_
  6
Continuous
 62
     7
100
AcDbCircle
 10
539.2438057951417
 20
-226.185537902484
 30
0.0
 40
1.91871794910181
100
AcDbArc
 50
133.1426143825128
 51
226.857385617487
  0
ARC
  5
1076
330
6B
100
AcDbEntity
  8
_3-0_
  6
Continuous
 62
     7
100
AcDbCircle
 10
538.0718746350635
 20
-228.3198642310463
 30
0.0
 40
0.7475752838771756
100
AcDbArc
 50
100.8030026030686
 51
177.3682309568823
  0
ARC
  5
1077
330
6B
100
AcDbEntity
  8
_3-0_
  6
Continuous
 62
     7
100
AcDbCircle
 10
538.0718746350635
 20
-224.0512115739214
 30
0.0
 40
0.7475752838771755
100
AcDbArc
 50
182.6317690431176
 51
259.1969973969313
  0
LINE
  5
1078
330
6B
100
AcDbEntity
  8
_3-0_
  6
Continuous
 62
     7
100
AcDbLine
 10
539.19175451308
 20
-228.985537903044
 30
0.0
 11
537.637695237272
 21
-228.985537903044
 31
0.0
  0
LINE
  5
1079
330
6B
100
AcDbEntity
  8
_3-0_
  6
Continuous
 62
     7
100
AcDbLine
 10
537.32508784604
 20
-228.2855379029038
 30
0.0
 11
537.637695237272
 21
-228.985537903044
 31
0.0
  0
LINE
  5
107A
330
6B
100
AcDbEntity
  8
_3-0_
  6
Continuous
 62
     7
100
AcDbLine
 10
539.19175451308
 20
-227.585537902764
 30
0.0
 11
537.9317545128279
 21
-227.585537902764
 31
0.0
  0
LINE
  5
107B
330
6B
100
AcDbEntity
  8
_3-0_
  6
Continuous
 62
     7
100
AcDbLine
 10
539.19175451308
 20
-224.785537902204
 30
0.0
 11
537.9317545128283
 21
-224.785537902204
 31
0.0
  0
LINE
  5
107C
330
6B
100
AcDbEntity
  8
_3-0_
  6
Continuous
 62
     7
100
AcDbLine
 10
537.32508784604
 20
-228.2855379029038
 30
0.0
 11
537.32508784604
 21
-224.0855379020639
 31
0.0
  0
LINE
  5
107D
330
6B
100
AcDbEntity
  8
_3-0_
  6
Continuous
 62
     7
100
AcDbLine
 10
537.32508784604
 20
-224.0855379020639
 30
0.0
 11
537.637695237272
 21
-223.385537901924
 31
0.0
  0
LINE
  5
107E
330
6B
100
AcDbEntity
  8
_3-0_
  6
Continuous
 62
     7
100
AcDbLine
 10
539.19175451308
 20
-223.385537901924
 30
0.0
 11
537.637695237272
 21
-223.385537901924
 31
0.0
  0
LINE
  5
107F
330
6B
100
AcDbEntity
  8
_3-0_
  6
CENTER1
 62
     4
100
AcDbLine
 10
536.5736253744447
 20
-226.185537902484
 30
0.0
 11
547.3710732965793
 21
-226.185537902484
 31
0.0
  0
LINE
  5
1080
330
6B
100
AcDbEntity
  8
_3-0_
  6
Continuous
 62
     7
100
AcDbLine
 10
520.1250878466001
 20
-216.1563862103274
 30
0.0
 11
542.1250878466
 21
-216.1563862103274
 31
0.0
  0
LINE
  5
1081
330
6B
100
AcDbEntity
  8
_3-0_
  6
Continuous
 62
     7
100
AcDbLine
 10
527.6250878459003
 20
-214.1563862103274
 30
0.0
 11
527.6250878459003
 21
-213.6897195435675
 31
0.0
  0
LINE
  5
1082
330
6B
100
AcDbEntity
  8
_3-0_
  6
Continuous
 62
     7
100
AcDbLine
 10
534.6250878473001
 20
-214.1563862103274
 30
0.0
 11
534.6250878473001
 21
-213.6897195435675
 31
0.0
  0
LINE
  5
1083
330
6B
100
AcDbEntity
  8
_3-0_
  6
Continuous
 62
     7
100
AcDbLine
 10
534.6250878473001
 20
-213.6897195435675
 30
0.0
 11
527.6250878459003
 21
-213.6897195435675
 31
0.0
  0
LINE
  5
1084
330
6B
100
AcDbEntity
  8
_3-0_
  6
Continuous
 62
     7
100
AcDbLine
 10
533.4584211804001
 20
-213.6897195435675
 30
0.0
 11
528.7917545128002
 21
-213.6897195435675
 31
0.0
  0
ARC
  5
1085
330
6B
100
AcDbEntity
  8
_3-0_
  6
Continuous
 62
     7
100
AcDbCircle
 10
531.1250878466
 20
-213.7417708256292
 30
0.0
 40
1.91871794910181
100
AcDbArc
 50
43.14261438251288
 51
136.857385617487
  0
ARC
  5
1086
330
6B
100
AcDbEntity
  8
_3-0_
  6
Continuous
 62
     7
100
AcDbCircle
 10
528.9907615180377
 20
-212.569839665551
 30
0.0
 40
0.7475752838771756
100
AcDbArc
 50
10.80300260306862
 51
87.36823095688238
  0
ARC
  5
1087
330
6B
100
AcDbEntity
  8
_3-0_
  6
Continuous
 62
     7
100
AcDbCircle
 10
533.2594141751626
 20
-212.569839665551
 30
0.0
 40
0.7475752838771755
100
AcDbArc
 50
92.63176904311761
 51
169.1969973969314
  0
LINE
  5
1088
330
6B
100
AcDbEntity
  8
_3-0_
  6
Continuous
 62
     7
100
AcDbLine
 10
528.32508784604
 20
-213.6897195435675
 30
0.0
 11
528.32508784604
 21
-212.1356602677596
 31
0.0
  0
LINE
  5
1089
330
6B
100
AcDbEntity
  8
_3-0_
  6
Continuous
 62
     7
100
AcDbLine
 10
529.0250878461802
 20
-211.8230528765273
 30
0.0
 11
528.32508784604
 21
-212.1356602677596
 31
0.0
  0
LINE
  5
108A
330
6B
100
AcDbEntity
  8
_3-0_
  6
Continuous
 62
     7
100
AcDbLine
 10
529.7250878463201
 20
-213.6897195435675
 30
0.0
 11
529.7250878463201
 21
-212.4297195433153
 31
0.0
  0
LINE
  5
108B
330
6B
100
AcDbEntity
  8
_3-0_
  6
Continuous
 62
     7
100
AcDbLine
 10
532.5250878468802
 20
-213.6897195435675
 30
0.0
 11
532.5250878468802
 21
-212.4297195433156
 31
0.0
  0
LINE
  5
108C
330
6B
100
AcDbEntity
  8
_3-0_
  6
Continuous
 62
     7
100
AcDbLine
 10
529.0250878461802
 20
-211.8230528765273
 30
0.0
 11
533.2250878470203
 21
-211.8230528765273
 31
0.0
  0
LINE
  5
108D
330
6B
100
AcDbEntity
  8
_3-0_
  6
Continuous
 62
     7
100
AcDbLine
 10
533.2250878470203
 20
-211.8230528765273
 30
0.0
 11
533.9250878471601
 21
-212.1356602677596
 31
0.0
  0
LINE
  5
108E
330
6B
100
AcDbEntity
  8
_3-0_
  6
Continuous
 62
     7
100
AcDbLine
 10
533.9250878471601
 20
-213.6897195435675
 30
0.0
 11
533.9250878471601
 21
-212.1356602677596
 31
0.0
  0
LINE
  5
108F
330
6B
100
AcDbEntity
  8
_3-0_
  6
Continuous
 62
     7
100
AcDbLine
 10
533.4584211804001
 20
-219.0897195438475
 30
0.0
 11
528.7917545128002
 21
-219.0897195438475
 31
0.0
  0
LINE
  5
1090
330
6B
100
AcDbEntity
  8
_3-0_
  6
Continuous
 62
     7
100
AcDbLine
 10
527.6250878459003
 20
-218.1563862103274
 30
0.0
 11
527.6250878459003
 21
-218.6230528770873
 31
0.0
  0
LINE
  5
1091
330
6B
100
AcDbEntity
  8
_3-0_
  6
Continuous
 62
     7
100
AcDbLine
 10
534.6250878473001
 20
-218.1563862103274
 30
0.0
 11
534.6250878473001
 21
-218.6230528770873
 31
0.0
  0
LINE
  5
1092
330
6B
100
AcDbEntity
  8
_3-0_
  6
Continuous
 62
     7
100
AcDbLine
 10
534.3917545139203
 20
-219.0897195438475
 30
0.0
 11
527.8584211792802
 21
-219.0897195438475
 31
0.0
  0
LINE
  5
1093
330
6B
100
AcDbEntity
  8
_3-0_
  6
Continuous
 62
     7
100
AcDbLine
 10
534.3917545139203
 20
-218.6230528770873
 30
0.0
 11
534.3917545139203
 21
-219.0897195438475
 31
0.0
  0
LINE
  5
1094
330
6B
100
AcDbEntity
  8
_3-0_
  6
Continuous
 62
     7
100
AcDbLine
 10
527.8584211792802
 20
-218.6230528770873
 30
0.0
 11
527.8584211792802
 21
-219.0897195438475
 31
0.0
  0
LINE
  5
1095
330
6B
100
AcDbEntity
  8
_3-0_
  6
Continuous
 62
     7
100
AcDbLine
 10
531.1250878466
 20
-218.6230528770873
 30
0.0
 11
530.8556577209242
 21
-219.0897195438475
 31
0.0
  0
LINE
  5
1096
330
6B
100
AcDbEntity
  8
_3-0_
  6
Continuous
 62
     7
100
AcDbLine
 10
534.6250878473001
 20
-218.6230528770873
 30
0.0
 11
527.6250878459003
 21
-218.6230528770873
 31
0.0
  0
ARC
  5
1097
330
6B
100
AcDbEntity
  8
_3-0_
  6
Continuous
 62
     7
100
AcDbCircle
 10
531.1250878466
 20
-219.0376682617857
 30
0.0
 40
1.91871794910181
100
AcDbArc
 50
223.1426143825129
 51
316.8573856174871
  0
ARC
  5
1098
330
6B
100
AcDbEntity
  8
_3-0_
  6
Continuous
 62
     7
100
AcDbCircle
 10
528.9907615180377
 20
-220.2095994218637
 30
0.0
 40
0.7475752838771755
100
AcDbArc
 50
272.6317690431176
 51
349.1969973969313
  0
ARC
  5
1099
330
6B
100
AcDbEntity
  8
_3-0_
  6
Continuous
 62
     7
100
AcDbCircle
 10
533.2594141751626
 20
-220.2095994218637
 30
0.0
 40
0.7475752838771755
100
AcDbArc
 50
190.8030026030686
 51
267.3682309568824
  0
LINE
  5
109A
330
6B
100
AcDbEntity
  8
_3-0_
  6
Continuous
 62
     7
100
AcDbLine
 10
528.32508784604
 20
-219.0897195438475
 30
0.0
 11
528.32508784604
 21
-220.6437788196552
 31
0.0
  0
LINE
  5
109B
330
6B
100
AcDbEntity
  8
_3-0_
  6
Continuous
 62
     7
100
AcDbLine
 10
529.0250878461802
 20
-220.9563862108874
 30
0.0
 11
528.32508784604
 21
-220.6437788196552
 31
0.0
  0
LINE
  5
109C
330
6B
100
AcDbEntity
  8
_3-0_
  6
Continuous
 62
     7
100
AcDbLine
 10
529.7250878463201
 20
-219.0897195438475
 30
0.0
 11
529.7250878463201
 21
-220.3497195440994
 31
0.0
  0
LINE
  5
109D
330
6B
100
AcDbEntity
  8
_3-0_
  6
Continuous
 62
     7
100
AcDbLine
 10
532.5250878468802
 20
-219.0897195438475
 30
0.0
 11
532.5250878468802
 21
-220.3497195440992
 31
0.0
  0
LINE
  5
109E
330
6B
100
AcDbEntity
  8
_3-0_
  6
Continuous
 62
     7
100
AcDbLine
 10
529.0250878461802
 20
-220.9563862108874
 30
0.0
 11
533.2250878470203
 21
-220.9563862108874
 31
0.0
  0
LINE
  5
109F
330
6B
100
AcDbEntity
  8
_3-0_
  6
Continuous
 62
     7
100
AcDbLine
 10
533.2250878470203
 20
-220.9563862108874
 30
0.0
 11
533.9250878471601
 21
-220.6437788196552
 31
0.0
  0
LINE
  5
10A0
330
6B
100
AcDbEntity
  8
_3-0_
  6
Continuous
 62
     7
100
AcDbLine
 10
533.9250878471601
 20
-219.0897195438475
 30
0.0
 11
533.9250878471601
 21
-220.6437788196552
 31
0.0
  0
LINE
  5
10A1
330
6B
100
AcDbEntity
  8
_3-0_
  6
Continuous
 62
     7
100
AcDbLine
 10
529.9584211797
 20
-220.9563862108874
 30
0.0
 11
529.9584211797
 21
-221.8648603456762
 31
0.0
  0
LINE
  5
10A2
330
6B
100
AcDbEntity
  8
_3-0_
  6
Continuous
 62
     7
100
AcDbLine
 10
532.2917545135001
 20
-220.9563862108874
 30
0.0
 11
532.2917545135001
 21
-221.8561725911971
 31
0.0
  0
LINE
  5
10A3
330
6B
100
AcDbEntity
  8
_3-0_
  6
Continuous
 62
     7
100
AcDbLine
 10
529.9584211797
 20
-221.8561725911971
 30
0.0
 11
532.2917545135001
 21
-221.8561725911971
 31
0.0
  0
LINE
  5
10A4
330
6B
100
AcDbEntity
  8
_3-0_
  6
Continuous
 62
     7
100
AcDbLine
 10
529.7250878463201
 20
-221.6228392578172
 30
0.0
 11
529.9584211797
 21
-221.8561725911971
 31
0.0
  0
LINE
  5
10A5
330
6B
100
AcDbEntity
  8
_3-0_
  6
Continuous
 62
     7
100
AcDbLine
 10
529.7250878463201
 20
-221.6228392578172
 30
0.0
 11
532.5250878468802
 21
-221.6228392578172
 31
0.0
  0
LINE
  5
10A6
330
6B
100
AcDbEntity
  8
_3-0_
  6
Continuous
 62
     7
100
AcDbLine
 10
532.2917545135001
 20
-221.8561725911971
 30
0.0
 11
532.5250878468802
 21
-221.6228392578172
 31
0.0
  0
LINE
  5
10A7
330
6B
100
AcDbEntity
  8
_3-0_
  6
CENTER1
 62
     4
100
AcDbLine
 10
531.1250878466
 20
-211.3339920878787
 30
0.0
 11
531.1250878466
 21
-222.7005220332817
 31
0.0
  0
LINE
  5
10A8
330
6B
100
AcDbEntity
  8
_3-0_
  6
Continuous
 62
     7
100
AcDbLine
 10
529.7250878463201
 20
-220.9563862108874
 30
0.0
 11
529.7250878463201
 21
-221.6228392578172
 31
0.0
  0
LINE
  5
10A9
330
6B
100
AcDbEntity
  8
_3-0_
  6
Continuous
 62
     7
100
AcDbLine
 10
532.5250878468802
 20
-220.9563862108874
 30
0.0
 11
532.5250878468802
 21
-221.6228392578172
 31
0.0
  0
LINE
  5
10AA
330
6B
100
AcDbEntity
  8
_3-0_
  6
Continuous
 62
     7
100
AcDbLine
 10
520.1250878466001
 20
-196.6145044021068
 30
0.0
 11
520.1250878466001
 21
-216.1563862103274
 31
0.0
  0
LINE
  5
10AB
330
6B
100
AcDbEntity
  8
_3-0_
  6
Continuous
 62
     3
100
AcDbLine
 10
502.1250878466
 20
-126.1563862103274
 30
0.0
 11
520.1250878466001
 21
-126.1563862103274
 31
0.0
  0
ARC
  5
10AC
330
6B
100
AcDbEntity
  8
_3-0_
  6
Continuous
 62
     7
100
AcDbCircle
 10
520.9250878466
 20
-197.3563862103274
 30
0.0
 40
1.2
100
AcDbArc
 50
0.0
 51
87.97383037244946
  0
LINE
  5
10AD
330
6B
100
AcDbEntity
  8
_3-0_
  6
Continuous
 62
     7
100
AcDbLine
 10
520.9675149997685
 20
-196.1563862103274
 30
0.0
 11
520.1250878466001
 21
-196.1563862103274
 31
0.0
  0
LINE
  5
10AE
330
6B
100
AcDbEntity
  8
_3-0_
  6
Continuous
 62
     7
100
AcDbLine
 10
488.5499417136896
 20
-122.1563862103274
 30
0.0
 11
487.5146655332793
 21
-118.2926829051711
 31
0.0
  0
LINE
  5
10AF
330
6B
100
AcDbEntity
  8
_3-0_
  6
Continuous
 62
     7
100
AcDbLine
 10
488.5499417136896
 20
-122.1563862103274
 30
0.0
 11
489.5852178940996
 21
-118.2926829051711
 31
0.0
  0
LINE
  5
10B0
330
6B
100
AcDbEntity
  8
_3-0_
  6
Continuous
 62
     7
100
AcDbLine
 10
488.5499417136896
 20
-126.1563862103274
 30
0.0
 11
487.5146655332793
 21
-130.0200895154836
 31
0.0
  0
LINE
  5
10B1
330
6B
100
AcDbEntity
  8
_3-0_
  6
Continuous
 62
     7
100
AcDbLine
 10
488.5499417136896
 20
-126.1563862103274
 30
0.0
 11
489.5852178940996
 21
-130.0200895154836
 31
0.0
  0
LINE
  5
10B2
330
6B
100
AcDbEntity
  8
_3-0_
  6
Continuous
 62
     7
100
AcDbLine
 10
485.9499417136897
 20
-126.1563862103274
 30
0.0
 11
501.3646238614907
 21
-126.1563862103274
 31
0.0
  0
TEXT
  5
10B3
330
6B
100
AcDbEntity
  8
_3-0_
 62
     3
100
AcDbText
 10
487.7269804748399
 20
-117.1007796731902
 30
0.0
 40
8.0
  1
10
 50
90.0
100
AcDbText
  0
LINE
  5
10B4
330
6B
100
AcDbEntity
  8
_3-0_
  6
Continuous
 62
     7
100
AcDbLine
 10
488.5499417136896
 20
-108.2833378283729
 30
0.0
 11
488.5499417136896
 21
-130.0200895154836
 31
0.0
  0
LINE
  5
10B5
330
6B
100
AcDbEntity
  8
_3-0_
  6
Continuous
 62
     3
100
AcDbLine
 10
502.1250878466
 20
-122.1563862103274
 30
0.0
 11
542.1250878466
 21
-122.1563862103274
 31
0.0
  0
LINE
  5
10B6
330
6B
100
AcDbEntity
  8
_3-0_
  6
Continuous
 62
     4
100
AcDbLine
 10
502.5250878466001
 20
-126.1563862103274
 30
0.0
 11
502.5250878466001
 21
-352.7151118779066
 31
0.0
  0
LINE
  5
10B7
330
6B
100
AcDbEntity
  8
_3-0_
  6
Continuous
 62
     3
100
AcDbLine
 10
502.1250878466
 20
-126.1563862103274
 30
0.0
 11
502.1250878466
 21
-352.7151118779066
 31
0.0
  0
LINE
  5
10B8
330
6B
100
AcDbEntity
  8
_3-0_
  6
Continuous
 62
     3
100
AcDbLine
 10
366.3214375465309
 20
-122.1563862103274
 30
0.0
 11
370.6062346803043
 21
-114.7348998745061
 31
0.0
  0
LINE
  5
10B9
330
6B
100
AcDbEntity
  8
_3-0_
  6
Continuous
 62
     3
100
AcDbLine
 10
368.6308386232893
 20
-122.1563862103274
 30
0.0
 11
372.7269706728114
 21
-115.0616773860437
 31
0.0
  0
LINE
  5
10BA
330
6B
100
AcDbEntity
  8
_3-0_
  6
Continuous
 62
     3
100
AcDbLine
 10
370.9402397000478
 20
-122.1563862103274
 30
0.0
 11
374.6852335650849
 21
-115.6698665620492
 31
0.0
  0
LINE
  5
10BB
330
6B
100
AcDbEntity
  8
_3-0_
  6
Continuous
 62
     7
100
AcDbLine
 10
298.3576587985644
 20
-122.1563862103274
 30
0.0
 11
297.3223826181543
 21
-118.2926829051711
 31
0.0
  0
LINE
  5
10BC
330
6B
100
AcDbEntity
  8
_3-0_
  6
Continuous
 62
     7
100
AcDbLine
 10
298.3576587985644
 20
-122.1563862103274
 30
0.0
 11
299.3929349789744
 21
-118.2926829051711
 31
0.0
  0
LINE
  5
10BD
330
6B
100
AcDbEntity
  8
_3-0_
  6
Continuous
 62
     7
100
AcDbLine
 10
298.3576587985644
 20
-126.1563862103274
 30
0.0
 11
297.3223826181543
 21
-130.0200895154836
 31
0.0
  0
LINE
  5
10BE
330
6B
100
AcDbEntity
  8
_3-0_
  6
Continuous
 62
     7
100
AcDbLine
 10
298.3576587985644
 20
-126.1563862103274
 30
0.0
 11
299.3929349789744
 21
-130.0200895154836
 31
0.0
  0
LINE
  5
10BF
330
6B
100
AcDbEntity
  8
_3-0_
  6
Continuous
 62
     7
100
AcDbLine
 10
295.7576587985643
 20
-122.1563862103274
 30
0.0
 11
314.3475032974532
 21
-122.1563862103274
 31
0.0
  0
LINE
  5
10C0
330
6B
100
AcDbEntity
  8
_3-0_
  6
Continuous
 62
     7
100
AcDbLine
 10
295.7576587985643
 20
-126.1563862103274
 30
0.0
 11
314.3475032974532
 21
-126.1563862103274
 31
0.0
  0
TEXT
  5
10C1
330
6B
100
AcDbEntity
  8
_3-0_
 62
     3
100
AcDbText
 10
297.3856026682134
 20
-117.8335265202483
 30
0.0
 40
8.0
  1
10
 50
90.0
100
AcDbText
  0
LINE
  5
10C2
330
6B
100
AcDbEntity
  8
_3-0_
  6
Continuous
 62
     7
100
AcDbLine
 10
298.3576587985644
 20
-108.9772811355975
 30
0.0
 11
298.3576587985644
 21
-130.0200895154836
 31
0.0
  0
LINE
  5
10C3
330
6B
100
AcDbEntity
  8
_3-0_
  6
Continuous
 62
     3
100
AcDbLine
 10
457.1528133507985
 20
-122.1563862103274
 30
0.0
 11
316.4556819159987
 21
-122.1563862103274
 31
0.0
  0
LINE
  5
10C4
330
6B
100
AcDbEntity
  8
_3-0_
  6
Continuous
 62
     3
100
AcDbLine
 10
518.3870326481158
 20
-122.1563862103274
 30
0.0
 11
522.6718297818893
 21
-114.7348998745061
 31
0.0
  0
LINE
  5
10C5
330
6B
100
AcDbEntity
  8
_3-0_
  6
Continuous
 62
     3
100
AcDbLine
 10
520.6964337248743
 20
-122.1563862103274
 30
0.0
 11
524.7925657743965
 21
-115.0616773860437
 31
0.0
  0
LINE
  5
10C6
330
6B
100
AcDbEntity
  8
_3-0_
  6
Continuous
 62
     3
100
AcDbLine
 10
523.0058348016329
 20
-122.1563862103274
 30
0.0
 11
526.75082866667
 21
-115.6698665620492
 31
0.0
  0
LINE
  5
10C7
330
6B
100
AcDbEntity
  8
_3-0_
  6
Continuous
 62
     3
100
AcDbLine
 10
548.0008029071504
 20
-174.0054194538464
 30
0.0
 11
542.1250878466
 21
-184.1824564695174
 31
0.0
  0
LINE
  5
10C8
330
6B
100
AcDbEntity
  8
_3-0_
  6
Continuous
 62
     3
100
AcDbLine
 10
547.0907010130193
 20
-171.5817621745463
 30
0.0
 11
542.1250878466
 21
-180.1824564695174
 31
0.0
  0
LINE
  5
10C9
330
6B
100
AcDbEntity
  8
_3-0_
  6
Continuous
 62
     3
100
AcDbLine
 10
546.1749205636742
 20
-169.1679404413901
 30
0.0
 11
542.1250878466
 21
-176.1824564695174
 31
0.0
  0
TEXT
  5
10CA
330
6B
100
AcDbEntity
  8
_3-0_
 62
     3
100
AcDbText
 10
312.4369473890065
 20
-307.9585927524068
 30
0.0
 40
6.0
  1
※躯体とのクリアランスを10mm確保してください。
 50
90.0
100
AcDbText
  0
TEXT
  5
10CB
330
6B
100
AcDbEntity
  8
_0-0_
 62
     3
100
AcDbText
 10
279.2641293342931
 20
-87.39062109656506
 30
0.0
 40
8.0
  1
・躯体との取り合い
100
AcDbText
  0
LINE
  5
10CC
330
6B
100
AcDbEntity
  8
_2-0_
  6
Continuous
 62
     7
100
AcDbLine
 10
515.901153411528
 20
-276.0496473070408
 30
0.0
 11
521.5580076610201
 21
-281.7065015565333
 31
0.0
  0
LINE
  5
10CD
330
6B
100
AcDbEntity
  8
_2-0_
  6
Continuous
 62
     7
100
AcDbLine
 10
515.901153411528
 20
-276.0496473070408
 30
0.0
 11
517.971705772348
 21
-283.7770539173535
 31
0.0
  0
LINE
  5
10CE
330
6B
100
AcDbEntity
  8
_2-0_
  6
Continuous
 62
     7
100
AcDbLine
 10
515.901153411528
 20
-276.0496473070408
 30
0.0
 11
524.3149405165239
 21
-290.6227540569624
 31
0.0
  0
TEXT
  5
10CF
330
6B
100
AcDbEntity
  8
_2-0_
 62
     3
100
AcDbText
 10
525.3594890395792
 20
-289.8227540569624
 30
0.0
 40
6.0
  1
ルーバー
 72
     1
 11
538.7594890395791
 21
-290.6227540569624
 31
0.0
100
AcDbText
 73
     1
  0
LINE
  5
10D0
330
6B
100
AcDbEntity
  8
_3-0_
  6
Continuous
 62
     3
100
AcDbLine
 10
546.1749205636742
 20
-291.7739180923652
 30
0.0
 11
542.1250878466
 21
-298.7884341204924
 31
0.0
  0
LINE
  5
10D1
330
6B
100
AcDbEntity
  8
_3-0_
  6
Continuous
 62
     3
100
AcDbLine
 10
548.0008029071504
 20
-296.6113971048214
 30
0.0
 11
542.1250878466
 21
-306.7884341204924
 31
0.0
  0
LINE
  5
10D2
330
6B
100
AcDbEntity
  8
_3-0_
  6
Continuous
 62
     3
100
AcDbLine
 10
547.0907010130193
 20
-294.1877398255213
 30
0.0
 11
542.1250878466
 21
-302.7884341204924
 31
0.0
  0
TEXT
  5
10D3
330
6B
100
AcDbEntity
  8
_2-0_
 62
     3
100
AcDbText
 10
516.6143820282245
 20
-258.8077107842936
 30
0.0
 40
6.0
  1
固定アングル
 72
     1
 11
537.6143820282245
 21
-259.6077107842936
 31
0.0
100
AcDbText
 73
     1
  0
LINE
  5
10D4
330
6B
100
AcDbEntity
  8
_3-0_
  6
Continuous
 62
     4
100
AcDbLine
 10
519.7250878466
 20
-261.3752794059812
 30
0.0
 11
519.7250878466
 21
-352.7151118779066
 31
0.0
  0
LINE
  5
10D5
330
6B
100
AcDbEntity
  8
_3-0_
  6
Continuous
 62
     3
100
AcDbLine
 10
520.1250878466001
 20
-261.3752794059812
 30
0.0
 11
520.1250878466001
 21
-352.7151118779066
 31
0.0
  0
LINE
  5
10D6
330
6B
100
AcDbEntity
  8
_2-0_
  6
Continuous
 62
     7
100
AcDbLine
 10
512.6143820282245
 20
-259.6077107842936
 30
0.0
 11
562.6143820282245
 21
-259.6077107842936
 31
0.0
  0
LINE
  5
10D7
330
6B
100
AcDbEntity
  8
_3-0_
  6
Continuous
 62
     4
100
AcDbLine
 10
519.7250878466
 20
-126.1563862103274
 30
0.0
 11
519.7250878466
 21
-252.1511945425682
 31
0.0
  0
LINE
  5
10D8
330
6B
100
AcDbEntity
  8
_3-0_
  6
Continuous
 62
     3
100
AcDbLine
 10
520.1250878466001
 20
-126.1563862103274
 30
0.0
 11
520.1250878466001
 21
-252.1511945425682
 31
0.0
  0
LINE
  5
10D9
330
6B
100
AcDbEntity
  8
_3-0_
  6
Continuous
 62
     3
100
AcDbLine
 10
542.1250878466
 20
-122.1563862103274
 30
0.0
 11
542.1250878466
 21
-252.1511945425682
 31
0.0
  0
LINE
  5
10DA
330
6B
100
AcDbEntity
  8
_3-0_
  6
Continuous
 62
     3
100
AcDbLine
 10
542.1250878466
 20
-291.8931970623223
 30
0.0
 11
542.1250878466
 21
-352.7151118779066
 31
0.0
  0
LINE
  5
10DB
330
6B
100
AcDbEntity
  8
_3-0_
  6
Continuous
 62
     3
100
AcDbLine
 10
542.1250878466
 20
-261.3752794059812
 30
0.0
 11
542.1250878466
 21
-282.412976227939
 31
0.0
  0
LINE
  5
10DC
330
6B
100
AcDbEntity
  8
_2-0_
  6
Continuous
 62
     7
100
AcDbLine
 10
524.3149405165239
 20
-290.6227540569624
 30
0.0
 11
553.2040375626345
 21
-290.6227540569624
 31
0.0
  0
LINE
  5
10DD
330
6B
100
AcDbEntity
  8
_2-0_
  6
Continuous
 62
     7
100
AcDbLine
 10
543.5176025012403
 20
-226.5311183826157
 30
0.0
 11
549.1744567507326
 21
-232.187972632108
 31
0.0
  0
LINE
  5
10DE
330
6B
100
AcDbEntity
  8
_2-0_
  6
Continuous
 62
     7
100
AcDbLine
 10
543.5176025012403
 20
-226.5311183826157
 30
0.0
 11
545.5881548620604
 21
-234.2585249929282
 31
0.0
  0
TEXT
  5
10DF
330
6B
100
AcDbEntity
  8
_3-0_
 62
     3
100
AcDbText
 10
497.4977280465791
 20
-307.3365232152628
 30
0.0
 40
6.0
  1
※躯体とのクリアランスを10mm確保してください。
 50
90.0
100
AcDbText
  0
TEXT
  5
10E0
330
6B
100
AcDbEntity
  8
_3-0_
 62
     3
100
AcDbText
 10
193.9047056278802
 20
-221.3756776465169
 30
0.0
 40
6.0
  1
※目地幅10mmを確保してください。
 50
90.0
100
AcDbText
  0
LINE
  5
10E1
330
6B
100
AcDbEntity
  8
_3-0_
  6
Continuous
 62
     3
100
AcDbLine
 10
236.9640942944022
 20
-288.9925975810501
 30
0.0
 11
236.9640942944022
 21
-352.7151118779066
 31
0.0
  0
LINE
  5
10E2
330
6B
100
AcDbEntity
  8
_3-0_
  6
Continuous
 62
     3
100
AcDbLine
 10
236.9640942944022
 20
-206.680618738404
 30
0.0
 11
236.9640942944022
 21
-264.2187582381639
 31
0.0
  0
TEXT
  5
135C
330
6B
100
AcDbEntity
  8
_0-0_
 62
     3
100
AcDbText
 10
499.7717644010378
 20
-419.3906210982317
 30
0.0
 40
8.0
  1
H22.01.07
100
AcDbText
  0
TEXT
  5
1B3C
330
6B
100
AcDbEntity
  8
_0-0_
 62
     3
100
AcDbText
 10
565.7717644010379
 20
-436.0572877648984
 30
0.0
 40
8.0
  1
５
100
AcDbText
  0
LINE
  5
184D7
330
6B
100
AcDbEntity
  8
_2-0_
  6
Continuous
 62
     7
100
AcDbLine
 10
245.4793674732662
 20
-181.7932963164111
 30
0.0
 11
295.4793674732662
 21
-181.7932963164111
 31
0.0
  0
LINE
  5
184D8
330
6B
100
AcDbEntity
  8
_2-0_
  6
Continuous
 62
     7
100
AcDbLine
 10
233.0801531035288
 20
-205.2857358358846
 30
0.0
 11
247.5247016265841
 21
-205.2857358358846
 31
0.0
  0
TEXT
  5
184D9
330
6B
100
AcDbEntity
  8
_2-0_
 62
     3
100
AcDbText
 10
228.7041543324273
 20
-284.8963433451757
 30
0.0
 40
8.0
  1
L50x50xt4
 72
     1
 11
262.0374876657606
 21
-285.9630100118423
 31
0.0
100
AcDbText
 73
     1
  0
LINE
  5
184DA
330
6B
100
AcDbEntity
  8
_2-0_
  6
Continuous
 62
     7
100
AcDbLine
 10
227.596995738777
 20
-286.3790286535041
 30
0.0
 11
294.6654705634298
 21
-286.3790286535041
 31
0.0
  0
TEXT
  5
184DB
330
6B
100
AcDbEntity
  8
_2-0_
 62
     3
100
AcDbText
 10
232.9261715400394
 20
-275.5641627031475
 30
0.0
 40
8.0
  1
下地アングル
 72
     1
 11
260.6595048733727
 21
-276.6308293698141
 31
0.0
100
AcDbText
 73
     1
  0
TEXT
  5
184DC
330
6B
100
AcDbEntity
  8
_2-0_
 62
     3
100
AcDbText
 10
96.39232054489568
 20
-280.1786399434753
 30
0.0
 40
8.0
  1
L50x50xt4
 72
     1
 11
129.725653878229
 21
-281.2453066101419
 31
0.0
100
AcDbText
 73
     1
  0
LINE
  5
184DD
330
6B
100
AcDbEntity
  8
_2-0_
  6
Continuous
 62
     7
100
AcDbLine
 10
93.57433462624305
 20
-281.6613252518037
 30
0.0
 11
160.6428094508958
 21
-281.6613252518037
 31
0.0
  0
TEXT
  5
184DE
330
6B
100
AcDbEntity
  8
_2-0_
 62
     3
100
AcDbText
 10
100.6143377525078
 20
-270.8464593014471
 30
0.0
 40
8.0
  1
下地アングル
 72
     1
 11
128.3476710858411
 21
-271.9131259681137
 31
0.0
100
AcDbText
 73
     1
  0
LINE
  5
184E0
330
6B
100
AcDbEntity
  8
_3-0_
  6
Continuous
 62
     3
100
AcDbLine
 10
149.6621466902461
 20
-281.6613252518037
 30
0.0
 11
149.6621466902461
 21
-352.7151118779066
 31
0.0
  0
LINE
  5
184E1
330
6B
100
AcDbEntity
  8
_3-0_
  6
Continuous
 62
     4
100
AcDbLine
 10
149.2621466902462
 20
-281.6613252518037
 30
0.0
 11
149.2621466902462
 21
-352.7151118779066
 31
0.0
  0
LINE
  5
184E2
330
6B
100
AcDbEntity
  8
_2-0_
  6
Continuous
 62
     7
100
AcDbLine
 10
98.17245179184659
 20
-204.3381834378384
 30
0.0
 11
148.1724517918466
 21
-204.3381834378384
 31
0.0
  0
TEXT
  5
184E3
330
6B
100
AcDbEntity
  8
_2-0_
 62
     3
100
AcDbText
 10
115.2202443110196
 20
-176.9212728012347
 30
0.0
 40
6.0
  1
ルーバー
 72
     1
 11
128.6202443110196
 21
-177.7212728012347
 31
0.0
100
AcDbText
 73
     1
  0
LINE
  5
184E4
330
6B
100
AcDbEntity
  8
_2-0_
  6
Continuous
 62
     7
100
AcDbLine
 10
114.1756957879643
 20
-177.7212728012347
 30
0.0
 11
143.0647928340749
 21
-177.7212728012347
 31
0.0
  0
LWPOLYLINE
  5
1858C
330
6B
100
AcDbEntity
  8
_0-0_
  6
Continuous
 62
     9
100
AcDbPolyline
 90
        4
 70
     1
 43
0.0
 10
-0.2282355989621009
 20
-454.3906210965651
 10
591.7717644010378
 20
-454.3906210965651
 10
591.7717644010378
 20
-34.39062109656509
 10
-0.2282355989621009
 20
-34.39062109656504
  0
ENDSEC
  0
SECTION
  2
OBJECTS
  0
DICTIONARY
  5
C
330
0
100
AcDbDictionary
281
     1
  3
ACAD_CIP_PREVIOUS_PRODUCT_INFO
350
5E91
  3
ACAD_COLOR
350
62
  3
ACAD_GROUP
350
D
  3
ACAD_LAYOUT
350
61
  3
ACAD_MATERIAL
350
10
  3
ACAD_MLEADERSTYLE
350
65
  3
ACAD_MLINESTYLE
350
5E
  3
ACAD_PLOTSETTINGS
350
60
  3
ACAD_PLOTSTYLENAME
350
E
  3
ACAD_SCALELIST
350
42
  3
ACAD_TABLESTYLE
350
63
  3
ACAD_VISUALSTYLE
350
29
  3
ACDB_RECOMPOSE_DATA
350
1894B
  3
AcDbVariableDictionary
350
5F3B
  3
DWGPROPS
350
1894C
  0
DICTIONARY
  5
180A5
330
8
100
AcDbDictionary
280
     1
281
     1
  0
DICTIONARY
  5
17AD0
330
2
100
AcDbDictionary
280
     1
281
     1
  3
ACAD_LAYERSTATES
360
17AD1
  0
DICTIONARY
  5
5E92
330
54
100
AcDbDictionary
280
     1
281
     1
  3
ADSK_XREC_LAYER_RECONCILED
360
5E93
  0
DICTIONARY
  5
5E94
330
92
100
AcDbDictionary
280
     1
281
     1
  3
ADSK_XREC_LAYER_RECONCILED
360
5E95
  0
DICTIONARY
  5
5E98
330
94
100
AcDbDictionary
280
     1
281
     1
  3
ADSK_XREC_LAYER_RECONCILED
360
5E99
  0
DICTIONARY
  5
5E9A
330
95
100
AcDbDictionary
280
     1
281
     1
  3
ADSK_XREC_LAYER_RECONCILED
360
5E9B
  0
DICTIONARY
  5
181DD
330
6B
100
AcDbDictionary
280
     1
281
     1
  3
ACAD_SORTENTS
360
181DE
  0
XRECORD
  5
5E91
102
{ACAD_REACTORS
330
C
102
}
330
C
100
AcDbXrecord
280
     1
300
ACDLT
300
2012
300
ACDLT_F_S
  0
DICTIONARY
  5
62
102
{ACAD_REACTORS
330
C
102
}
330
C
100
AcDbDictionary
281
     1
  0
DICTIONARY
  5
D
102
{ACAD_REACTORS
330
C
102
}
330
C
100
AcDbDictionary
281
     1
  0
DICTIONARY
  5
61
102
{ACAD_REACTORS
330
C
102
}
330
C
100
AcDbDictionary
281
     1
  3
Model
350
6E
  3
レイアウト1
350
6A
  0
DICTIONARY
  5
10
102
{ACAD_REACTORS
330
C
102
}
330
C
100
AcDbDictionary
281
     1
  3
ByBlock
350
19
  3
ByLayer
350
11
  3
Global
350
21
  0
DICTIONARY
  5
65
102
{ACAD_REACTORS
330
C
102
}
330
C
100
AcDbDictionary
281
     1
  3
Standard
350
66
  0
DICTIONARY
  5
5E
102
{ACAD_REACTORS
330
C
102
}
330
C
100
AcDbDictionary
281
     1
  3
Standard
350
5F
  0
DICTIONARY
  5
60
102
{ACAD_REACTORS
330
C
102
}
330
C
100
AcDbDictionary
281
     1
  0
ACDBDICTIONARYWDFLT
  5
E
102
{ACAD_REACTORS
330
C
102
}
330
C
100
AcDbDictionary
281
     1
  3
Normal
350
F
100
AcDbDictionaryWithDefault
340
F
  0
DICTIONARY
  5
42
102
{ACAD_REACTORS
330
C
102
}
330
C
100
AcDbDictionary
281
     1
  3
A0
350
43
  3
A1
350
44
  3
A2
350
45
  3
A3
350
46
  3
A4
350
47
  3
A5
350
48
  3
A6
350
49
  3
A7
350
4A
  3
A8
350
4B
  3
A9
350
4C
  3
B0
350
4D
  3
B1
350
4E
  3
B2
350
4F
  3
B3
350
50
  3
B4
350
51
  3
B5
350
52
  3
B6
350
53
  0
DICTIONARY
  5
63
102
{ACAD_REACTORS
330
C
102
}
330
C
100
AcDbDictionary
281
     1
  3
Standard
350
64
  0
DICTIONARY
  5
29
102
{ACAD_REACTORS
330
C
102
}
330
C
100
AcDbDictionary
281
     1
  3
2dWireframe
350
2F
  3
Basic
350
2E
  3
Brighten
350
35
  3
ColorChange
350
39
  3
Conceptual
350
32
  3
Dim
350
34
  3
EdgeColorOff
350
41
  3
Facepattern
350
38
  3
Flat
350
2A
  3
FlatWithEdges
350
2B
  3
Gouraud
350
2C
  3
GouraudWithEdges
350
2D
  3
Hidden
350
31
  3
JitterOff
350
3F
  3
Linepattern
350
37
  3
OverhangOff
350
40
  3
Realistic
350
33
  3
Shaded
350
3E
  3
Shaded with edges
350
3D
  3
Shades of Gray
350
3A
  3
Sketchy
350
3B
  3
Thicken
350
36
  3
Wireframe
350
30
  3
X-Ray
350
3C
  0
XRECORD
  5
1894B
102
{ACAD_REACTORS
330
C
102
}
330
C
100
AcDbXrecord
280
     1
 90
        1
330
64
  0
DICTIONARY
  5
5F3B
102
{ACAD_REACTORS
330
C
102
}
330
C
100
AcDbDictionary
281
     1
  3
CANNOSCALE
350
5F3E
  3
CMLEADERSTYLE
350
5F3D
  3
CTABLESTYLE
350
5F3C
  3
DIMASSOC
350
5F41
  3
INDEXCTL
350
5F40
  3
SORTENTS
350
5F3F
  3
XCLIPFRAME
350
18949
  0
XRECORD
  5
1894C
102
{ACAD_REACTORS
330
C
102
}
330
C
100
AcDbXrecord
280
     1
  1
DWGPROPS COOKIE
  2

  3

  4

  6

  7

  8
HON1000NB
  9

300
=
301
=
302
=
303
=
304
=
305
=
306
=
307
=
308
=
309
=
 40
0.20576625
 41
2456415.446670127
 42
2456420.4156564
  1

 90
        0
  0
DICTIONARY
  5
17AD1
102
{ACAD_REACTORS
330
17AD0
102
}
330
17AD0
100
AcDbDictionary
281
     1
  0
XRECORD
  5
5E93
102
{ACAD_REACTORS
330
5E92
102
}
330
5E92
100
AcDbXrecord
280
     1
290
     1
  0
XRECORD
  5
5E95
102
{ACAD_REACTORS
330
5E94
102
}
330
5E94
100
AcDbXrecord
280
     1
290
     1
  0
XRECORD
  5
5E99
102
{ACAD_REACTORS
330
5E98
102
}
330
5E98
100
AcDbXrecord
280
     1
290
     1
  0
XRECORD
  5
5E9B
102
{ACAD_REACTORS
330
5E9A
102
}
330
5E9A
100
AcDbXrecord
280
     1
290
     1
  0
SORTENTSTABLE
  5
181DE
102
{ACAD_REACTORS
330
181DD
102
}
330
181DD
100
AcDbSortentsTable
330
6B
331
EFB
  5
F28
331
F32
  5
F61
331
F71
  5
FA0
331
FA8
  5
FD7
331
E46
  5
E73
331
E85
  5
EB2
331
EBC
  5
EE9
331
1007
  5
1036
331
F79
  5
FA8
331
100F
  5
103E
331
E8D
  5
EBA
331
EC4
  5
EF1
331
F03
  5
F30
331
F3A
  5
F69
331
184DE
  5
184EF
331
E4E
  5
E7B
331
1017
  5
1046
331
F42
  5
F71
331
FD8
  5
100B
331
E56
  5
E83
331
ECC
  5
EF9
331
1038
  5
1067
331
1040
  5
106F
331
107F
  5
10AE
331
10B6
  5
10E5
331
1087
  5
10B6
331
10BE
  5
10ED
331
1048
  5
1077
331
1050
  5
107F
331
108F
  5
10BE
331
10C6
  5
10F5
331
10CE
  5
10FD
331
F4A
  5
F79
331
F81
  5
FB0
331
E5E
  5
E8B
331
E95
  5
EC2
331
ED4
  5
F01
331
F0B
  5
F38
331
FE8
  5
101A
331
EDC
  5
F09
331
F13
  5
F40
331
F52
  5
F81
331
F89
  5
FB8
331
E66
  5
E93
331
E9D
  5
ECA
331
F5A
  5
F89
331
F91
  5
FC0
331
FF0
  5
1021
331
E2F
  5
E60
331
E6E
  5
E9B
331
EA5
  5
ED2
331
EE4
  5
F11
331
F1B
  5
F48
331
EAD
  5
EDA
331
EEC
  5
F19
331
F23
  5
F52
331
F62
  5
F91
331
E37
  5
E64
331
E76
  5
EA3
331
F99
  5
FC8
331
1058
  5
1087
331
1019
  5
1048
331
10D6
  5
1107
331
1021
  5
1050
331
1060
  5
108F
331
1097
  5
10C6
331
1029
  5
1058
331
1068
  5
1097
331
109F
  5
10CE
331
10DE
  5
110F
331
10A7
  5
10D6
331
1031
  5
1060
331
1070
  5
109F
331
10AF
  5
10DE
331
F2B
  5
F5A
331
F6A
  5
F99
331
FA1
  5
FD0
331
1000
  5
1032
331
E3F
  5
E6C
331
E7E
  5
EAB
331
EB5
  5
EE2
331
EF4
  5
F21
331
FA9
  5
FD8
331
1008
  5
1037
331
E86
  5
EB3
331
EBD
  5
EEA
331
EFC
  5
F29
331
F33
  5
F62
331
184D7
  5
184E5
331
E47
  5
E74
331
F72
  5
FA1
331
F04
  5
F31
331
F3B
  5
F6A
331
F7A
  5
FA9
331
E4F
  5
E7C
331
E8E
  5
EBB
331
EC5
  5
EF2
331
1010
  5
103F
331
FD9
  5
100E
331
ECD
  5
EFA
331
F43
  5
F72
331
E57
  5
E84
331
1039
  5
1068
331
1078
  5
10A7
331
1080
  5
10AF
331
10B7
  5
10E6
331
1041
  5
1070
331
1049
  5
1078
331
1088
  5
10B7
331
10BF
  5
10EE
331
10C7
  5
10F6
331
1051
  5
1080
331
10CF
  5
10FE
331
ED5
  5
F02
331
F0C
  5
F39
331
F4B
  5
F7A
331
F82
  5
FB1
331
E5F
  5
E8C
331
E96
  5
EC3
331
F53
  5
F82
331
F8A
  5
FB9
331
FE9
  5
101B
331
E67
  5
E94
331
E9E
  5
ECB
331
EDD
  5
F0A
331
F14
  5
F41
331
FF1
  5
1022
331
EE5
  5
F12
331
F1C
  5
F49
331
F5B
  5
F8A
331
F92
  5
FC1
331
E30
  5
E61
331
E6F
  5
E9C
331
EA6
  5
ED3
331
F63
  5
F92
331
F9A
  5
FC9
331
FF9
  5
102B
331
E77
  5
EA4
331
EAE
  5
EDB
331
EED
  5
F1A
331
F24
  5
F53
331
101A
  5
1049
331
1059
  5
1088
331
1090
  5
10BF
331
1061
  5
1090
331
1098
  5
10C7
331
10D7
  5
1108
331
1022
  5
1051
331
10DF
  5
1110
331
102A
  5
1059
331
1069
  5
1098
331
10A0
  5
10CF
331
1032
  5
1061
331
1071
  5
10A0
331
10A8
  5
10D7
331
E38
  5
E65
331
FA2
  5
FD1
331
1001
  5
1033
331
EB6
  5
EE3
331
EF5
  5
F22
331
F2C
  5
F5B
331
F6B
  5
F9A
331
E40
  5
E6D
331
E7F
  5
EAC
331
F34
  5
F63
331
F73
  5
FA2
331
FAA
  5
FD9
331
1009
  5
1038
331
184D8
  5
184E6
331
E48
  5
E75
331
E87
  5
EB4
331
EBE
  5
EEB
331
EFD
  5
F2A
331
1011
  5
1040
331
E8F
  5
EBC
331
EC6
  5
EF3
331
F05
  5
F32
331
F3C
  5
F6B
331
E50
  5
E7D
331
F7B
  5
FAA
331
F44
  5
F73
331
FDA
  5
100F
331
ECE
  5
EFB
331
10B0
  5
10DF
331
103A
  5
1069
331
1079
  5
10A8
331
1042
  5
1071
331
1081
  5
10B0
331
10B8
  5
10E7
331
1089
  5
10B8
331
10C0
  5
10EF
331
104A
  5
1079
331
1052
  5
1081
331
10C8
  5
10F7
331
184E0
  5
F4F
331
E58
  5
E85
331
F83
  5
FB2
331
FE2
  5
1014
331
E60
  5
E8D
331
E97
  5
EC4
331
ED6
  5
F03
331
F0D
  5
F3A
331
F4C
  5
F7B
331
EDE
  5
F0B
331
F15
  5
F42
331
F54
  5
F83
331
F8B
  5
FBA
331
E68
  5
E95
331
E9F
  5
ECC
331
F5C
  5
F8B
331
F93
  5
FC2
331
FF2
  5
1023
331
E70
  5
E9D
331
EA7
  5
ED4
331
EE6
  5
F13
331
F1D
  5
F4A
331
E31
  5
E62
331
FFA
  5
102C
331
EEE
  5
F1B
331
F25
  5
F54
331
F64
  5
F93
331
F9B
  5
FCA
331
EAF
  5
EDC
331
105A
  5
1089
331
1091
  5
10C0
331
10D0
  5
10FF
331
101B
  5
104A
331
10D8
  5
1109
331
1023
  5
1052
331
1062
  5
1091
331
1099
  5
10C8
331
106A
  5
1099
331
10A1
  5
10D0
331
10E0
  5
1111
331
102B
  5
105A
331
1033
  5
1062
331
1072
  5
10A1
331
10A9
  5
10D8
331
E39
  5
E66
331
E78
  5
EA5
331
F2D
  5
F5C
331
F6C
  5
F9B
331
FA3
  5
FD2
331
E41
  5
E6E
331
E80
  5
EAD
331
EB7
  5
EE4
331
EF6
  5
F23
331
FAB
  5
FDA
331
100A
  5
1039
331
EBF
  5
EEC
331
EFE
  5
F2B
331
F35
  5
F64
331
F74
  5
FA3
331
184D9
  5
184EA
331
E49
  5
E76
331
E88
  5
EB5
331
F3D
  5
F6C
331
F7C
  5
FAB
331
1012
  5
1041
331
E51
  5
E7E
331
EC7
  5
EF4
331
F06
  5
F33
331
FDB
  5
1010
331
ECF
  5
EFC
331
F45
  5
F74
331
103B
  5
106A
331
107A
  5
10A9
331
10B1
  5
10E0
331
10B9
  5
10E8
331
1043
  5
1072
331
1082
  5
10B1
331
104B
  5
107A
331
108A
  5
10B9
331
10C1
  5
10F0
331
10C9
  5
10F8
331
1053
  5
1082
331
184E1
  5
F4D
331
E90
  5
EBD
331
E59
  5
E86
331
F0E
  5
F3B
331
F4D
  5
F7C
331
F84
  5
FB3
331
FE3
  5
1015
331
E61
  5
E8E
331
E98
  5
EC5
331
ED7
  5
F04
331
F8C
  5
FBB
331
E69
  5
E96
331
EA0
  5
ECD
331
EDF
  5
F0C
331
F16
  5
F43
331
F55
  5
F84
331
EE7
  5
F14
331
F1E
  5
F4B
331
F5D
  5
F8C
331
F94
  5
FC3
331
E32
  5
E63
331
E71
  5
E9E
331
EA8
  5
ED5
331
F65
  5
F94
331
F9C
  5
FCB
331
FFB
  5
102D
331
EEF
  5
F1C
331
F26
  5
F55
331
101C
  5
104B
331
105B
  5
108A
331
1092
  5
10C1
331
10D1
  5
1100
331
1063
  5
1092
331
109A
  5
10C9
331
10D9
  5
110A
331
1024
  5
1053
331
10E1
  5
1112
331
102C
  5
105B
331
106B
  5
109A
331
10A2
  5
10D1
331
1073
  5
10A2
331
10AA
  5
10D9
331
1034
  5
1063
331
E3A
  5
E67
331
E79
  5
EA6
331
EB0
  5
EDD
331
1003
  5
1034
331
EB8
  5
EE5
331
EF7
  5
F24
331
F2E
  5
F5D
331
F6D
  5
F9C
331
E42
  5
E6F
331
E81
  5
EAE
331
FA4
  5
FD3
331
F36
  5
F65
331
F75
  5
FA4
331
FAC
  5
FDB
331
100B
  5
103A
331
184DA
  5
184EB
331
E4A
  5
E77
331
E89
  5
EB6
331
EC0
  5
EED
331
EFF
  5
F2C
331
1013
  5
1042
331
EC8
  5
EF5
331
F07
  5
F34
331
F3E
  5
F6D
331
E52
  5
E7F
331
F7D
  5
FAC
331
F46
  5
F75
331
FDC
  5
1011
331
10B2
  5
10E1
331
103C
  5
106B
331
107B
  5
10AA
331
1044
  5
1073
331
1083
  5
10B2
331
10BA
  5
10E9
331
10C2
  5
10F1
331
104C
  5
107B
331
108B
  5
10BA
331
1054
  5
1083
331
10CA
  5
10F9
331
184E2
  5
184F0
331
E5A
  5
E87
331
E91
  5
EBE
331
ED0
  5
EFD
331
F85
  5
FB4
331
FE4
  5
1016
331
E99
  5
EC6
331
ED8
  5
F05
331
F0F
  5
F3C
331
F4E
  5
F7D
331
E62
  5
E8F
331
F17
  5
F44
331
F56
  5
F85
331
F8D
  5
FBC
331
FEC
  5
101D
331
E6A
  5
E97
331
EA1
  5
ECE
331
EE0
  5
F0D
331
F95
  5
FC4
331
FF4
  5
1025
331
E72
  5
E9F
331
EA9
  5
ED6
331
EE8
  5
F15
331
F1F
  5
F4C
331
F5E
  5
F8D
331
F27
  5
F56
331
F66
  5
F95
331
F9D
  5
FCC
331
FFC
  5
102E
331
1093
  5
10C2
331
10D2
  5
1101
331
101D
  5
104C
331
105C
  5
108B
331
1025
  5
1054
331
1064
  5
1093
331
109B
  5
10CA
331
10DA
  5
110B
331
106C
  5
109B
331
10A3
  5
10D2
331
10E2
  5
1113
331
102D
  5
105C
331
1035
  5
1064
331
1074
  5
10A3
331
10AB
  5
10DA
331
EF0
  5
F1D
331
E3B
  5
E68
331
E7A
  5
EA7
331
EB1
  5
EDE
331
F6E
  5
F9D
331
FA5
  5
FD4
331
E43
  5
E70
331
E82
  5
EAF
331
EB9
  5
EE6
331
EF8
  5
F25
331
F2F
  5
F5E
331
100C
  5
103B
331
EC1
  5
EEE
331
F00
  5
F2D
331
F37
  5
F66
331
F76
  5
FA5
331
184DB
  5
184EC
331
E4B
  5
E78
331
E8A
  5
EB7
331
FAD
  5
FE0
331
F3F
  5
F6E
331
F7E
  5
FAD
331
FD5
  5
1008
331
E53
  5
E80
331
EC9
  5
EF6
331
1014
  5
1043
331
FDD
  5
1012
331
F47
  5
F76
331
103D
  5
106C
331
107C
  5
10AB
331
10B3
  5
10E2
331
10BB
  5
10EA
331
1045
  5
1074
331
1084
  5
10B3
331
104D
  5
107C
331
108C
  5
10BB
331
10C3
  5
10F2
331
10CB
  5
10FA
331
1055
  5
1084
331
184E3
  5
184F1
331
E92
  5
EBF
331
ED1
  5
EFE
331
F08
  5
F35
331
E5B
  5
E88
331
F10
  5
F3D
331
F4F
  5
F7E
331
F86
  5
FB5
331
9C
  5
9C
331
E63
  5
E90
331
E9A
  5
EC7
331
ED9
  5
F06
331
F8E
  5
FBD
331
FED
  5
101E
331
EA2
  5
ECF
331
EE1
  5
F0E
331
F18
  5
F45
331
F57
  5
F86
331
E6B
  5
E98
331
F20
  5
F4E
331
F5F
  5
F8E
331
F96
  5
FC5
331
FF5
  5
1028
331
E73
  5
EA0
331
EAA
  5
ED7
331
EE9
  5
F16
331
F9E
  5
FCD
331
FFD
  5
102F
331
F67
  5
F96
331
101E
  5
104D
331
105D
  5
108C
331
1094
  5
10C3
331
10D3
  5
1103
331
109C
  5
10CB
331
10DB
  5
110C
331
1026
  5
1055
331
1065
  5
1094
331
102E
  5
105D
331
106D
  5
109C
331
10A4
  5
10D3
331
1075
  5
10A4
331
10AC
  5
10DB
331
1036
  5
1065
331
E7B
  5
EA8
331
EB2
  5
EDF
331
EF1
  5
F1E
331
F28
  5
F57
331
E3C
  5
E69
331
EF9
  5
F26
331
F30
  5
F5F
331
F6F
  5
F9E
331
FA6
  5
FD5
331
E44
  5
E71
331
E83
  5
EB0
331
EBA
  5
EE7
331
F77
  5
FA6
331
FAE
  5
FE1
331
100D
  5
103C
331
E4C
  5
E79
331
E8B
  5
EB8
331
EC2
  5
EEF
331
F01
  5
F2E
331
F38
  5
F67
331
184DC
  5
184ED
331
1015
  5
1044
331
ECA
  5
EF7
331
F40
  5
F6F
331
E54
  5
E81
331
F7F
  5
FAE
331
FD6
  5
1009
331
FDE
  5
1013
331
103E
  5
106D
331
107D
  5
10AC
331
10B4
  5
10E3
331
1046
  5
1075
331
1085
  5
10B4
331
10BC
  5
10EB
331
10C4
  5
10F3
331
104E
  5
107D
331
108D
  5
10BC
331
1056
  5
1085
331
10CC
  5
10FB
331
184E4
  5
184F2
331
F48
  5
F77
331
1858C
  5
18626
331
E5C
  5
E89
331
E93
  5
EC0
331
ED2
  5
EFF
331
F09
  5
F36
331
FE6
  5
1018
331
E9B
  5
EC8
331
EDA
  5
F07
331
F11
  5
F3E
331
F50
  5
F7F
331
E64
  5
E91
331
F87
  5
FB6
331
F19
  5
F46
331
F58
  5
F87
331
F8F
  5
FBE
331
FEE
  5
101F
331
E6C
  5
E99
331
EA3
  5
ED0
331
EE2
  5
F0F
331
F97
  5
FC6
331
FF6
  5
1029
331
EAB
  5
ED8
331
EEA
  5
F17
331
F21
  5
F50
331
F60
  5
F8F
331
E74
  5
EA1
331
F9F
  5
FCE
331
FFE
  5
1030
331
1095
  5
10C4
331
10D4
  5
1104
331
101F
  5
104E
331
105E
  5
108D
331
1027
  5
1056
331
1066
  5
1095
331
109D
  5
10CC
331
10DC
  5
110D
331
10A5
  5
10D4
331
102F
  5
105E
331
106E
  5
109D
331
1037
  5
1066
331
1076
  5
10A5
331
10AD
  5
10DC
331
135C
  5
138F
331
EF2
  5
F1F
331
F29
  5
F58
331
F68
  5
F97
331
E3D
  5
E6A
331
E7C
  5
EA9
331
EB3
  5
EE0
331
F70
  5
F9F
331
FA7
  5
FD6
331
1006
  5
1035
331
E84
  5
EB1
331
EBB
  5
EE8
331
EFA
  5
F27
331
F31
  5
F60
331
E45
  5
E72
331
100E
  5
103D
331
F02
  5
F2F
331
F39
  5
F68
331
F78
  5
FA7
331
FAF
  5
FE2
331
184DD
  5
184EE
331
E4D
  5
E7A
331
E8C
  5
EB9
331
EC3
  5
EF0
331
FD7
  5
100A
331
1016
  5
1045
331
E55
  5
E82
331
ECB
  5
EF8
331
F41
  5
F70
331
107E
  5
10AD
331
10B5
  5
10E4
331
1B3C
  5
1B84
331
103F
  5
106E
331
1047
  5
1076
331
1086
  5
10B5
331
10BD
  5
10EC
331
104F
  5
107E
331
108E
  5
10BD
331
10C5
  5
10F4
331
10CD
  5
10FC
331
1057
  5
1086
331
ED3
  5
F00
331
F0A
  5
F37
331
F49
  5
F78
331
F80
  5
FAF
331
E5D
  5
E8A
331
E94
  5
EC1
331
F51
  5
F80
331
F88
  5
FB7
331
FE7
  5
1019
331
E65
  5
E92
331
E9C
  5
EC9
331
EDB
  5
F08
331
F12
  5
F3F
331
FEF
  5
1020
331
EA4
  5
ED1
331
EE3
  5
F10
331
F1A
  5
F47
331
F59
  5
F88
331
E6D
  5
E9A
331
F90
  5
FBF
331
F22
  5
F51
331
F61
  5
F90
331
F98
  5
FC7
331
FF7
  5
102A
331
E75
  5
EA2
331
EAC
  5
ED9
331
EEB
  5
F18
331
FFF
  5
1031
331
1018
  5
1047
331
1020
  5
104F
331
105F
  5
108E
331
1096
  5
10C5
331
10D5
  5
1105
331
109E
  5
10CD
331
10DD
  5
110E
331
1028
  5
1057
331
1067
  5
1096
331
1030
  5
105F
331
106F
  5
109E
331
10A6
  5
10D5
331
10AE
  5
10DD
331
1077
  5
10A6
331
FA0
  5
FCF
331
E7D
  5
EAA
331
EB4
  5
EE1
331
EF3
  5
F20
331
F2A
  5
F59
331
E3E
  5
E6B
331
F69
  5
F98
  0
LAYOUT
  5
6E
102
{ACAD_XDICTIONARY
360
18983
102
}
102
{ACAD_REACTORS
330
61
102
}
330
61
100
AcDbPlotSettings
  1

  2
DWG To PDF.pc3
  4
ANSI_A_(11.00_x_8.50_Inches)
  6

 40
5.793749809265136
 41
17.79375076293945
 42
5.79376220703125
 43
17.79374694824219
 44
279.3999938964844
 45
215.8999938964844
 46
0.0
 47
0.0
 48
0.0
 49
0.0
140
0.0
141
0.0
142
1.0
143
156.6589216407263
 70
 11952
 72
     0
 73
     0
 74
     0
  7

 75
     0
147
0.0063832942900842
148
8609.627002889963
149
14362.29356115246
100
AcDbLayout
  1
Model
 70
     1
 71
     0
 10
0.0
 20
0.0
 11
12.0
 21
9.0
 12
0.0
 22
0.0
 32
0.0
 14
0.0
 24
0.0
 34
0.0
 15
0.0
 25
0.0
 35
0.0
146
0.0
 13
0.0
 23
0.0
 33
0.0
 16
1.0
 26
0.0
 36
0.0
 17
0.0
 27
1.0
 37
0.0
 76
     0
330
6B
331
9A
1001
ACAD_PSEXT
1000
DWG To PDF.pc3
1000
DWG To PDF
1000
ファイル
1000

1070
     0
  0
LAYOUT
  5
6A
102
{ACAD_XDICTIONARY
360
18981
102
}
102
{ACAD_REACTORS
330
61
102
}
330
61
100
AcDbPlotSettings
  1

  2
DWG To PDF.pc3
  4

  6

 40
0.0
 41
0.0
 42
0.0
 43
0.0
 44
0.0
 45
0.0
 46
0.0
 47
0.0
 48
0.0
 49
0.0
140
0.0
141
0.0
142
1.0
143
1.0
 70
   688
 72
     0
 73
     0
 74
     5
  7

 75
    16
147
1.0
148
0.0
149
0.0
100
AcDbLayout
  1
レイアウト1
 70
     1
 71
     1
 10
0.0
 20
0.0
 11
12.0
 21
9.0
 12
0.0
 22
0.0
 32
0.0
 14
1.000000000000000E+20
 24
1.000000000000000E+20
 34
1.000000000000000E+20
 15
-1.000000000000000E+20
 25
-1.000000000000000E+20
 35
-1.000000000000000E+20
146
0.0
 13
0.0
 23
0.0
 33
0.0
 16
1.0
 26
0.0
 36
0.0
 17
0.0
 27
1.0
 37
0.0
 76
     0
330
67
  0
MATERIAL
  5
19
102
{ACAD_XDICTIONARY
360
1A
102
}
102
{ACAD_REACTORS
330
10
102
}
330
10
100
AcDbMaterial
  1
ByBlock
 72
     0
 43
0.0208333333333333
 43
0.0
 43
0.0
 43
0.0
 43
0.0
 43
0.0208333333333333
 43
0.0
 43
0.0
 43
0.0
 43
0.0
 43
1.0
 43
0.0
 43
0.0
 43
0.0
 43
0.0
 43
1.0
 77
     0
 47
0.0208333333333333
 47
0.0
 47
0.0
 47
0.0
 47
0.0
 47
0.0208333333333333
 47
0.0
 47
0.0
 47
0.0
 47
0.0
 47
1.0
 47
0.0
 47
0.0
 47
0.0
 47
0.0
 47
1.0
171
     0
 49
0.0208333333333333
 49
0.0
 49
0.0
 49
0.0
 49
0.0
 49
0.0208333333333333
 49
0.0
 49
0.0
 49
0.0
 49
0.0
 49
1.0
 49
0.0
 49
0.0
 49
0.0
 49
0.0
 49
1.0
175
     0
142
0.0208333333333333
142
0.0
142
0.0
142
0.0
142
0.0
142
0.0208333333333333
142
0.0
142
0.0
142
0.0
142
0.0
142
1.0
142
0.0
142
0.0
142
0.0
142
0.0
142
1.0
179
     0
144
0.0208333333333333
144
0.0
144
0.0
144
0.0
144
0.0
144
0.0208333333333333
144
0.0
144
0.0
144
0.0
144
0.0
144
1.0
144
0.0
144
0.0
144
0.0
144
0.0
144
1.0
147
0.0208333333333333
147
0.0
147
0.0
147
0.0
147
0.0
147
0.0208333333333333
147
0.0
147
0.0
147
0.0
147
0.0
147
1.0
147
0.0
147
0.0
147
0.0
147
0.0
147
1.0
  0
MATERIAL
  5
11
102
{ACAD_XDICTIONARY
360
12
102
}
102
{ACAD_REACTORS
330
10
102
}
330
10
100
AcDbMaterial
  1
ByLayer
 72
     0
 43
0.0208333333333333
 43
0.0
 43
0.0
 43
0.0
 43
0.0
 43
0.0208333333333333
 43
0.0
 43
0.0
 43
0.0
 43
0.0
 43
1.0
 43
0.0
 43
0.0
 43
0.0
 43
0.0
 43
1.0
 77
     0
 47
0.0208333333333333
 47
0.0
 47
0.0
 47
0.0
 47
0.0
 47
0.0208333333333333
 47
0.0
 47
0.0
 47
0.0
 47
0.0
 47
1.0
 47
0.0
 47
0.0
 47
0.0
 47
0.0
 47
1.0
171
     0
 49
0.0208333333333333
 49
0.0
 49
0.0
 49
0.0
 49
0.0
 49
0.0208333333333333
 49
0.0
 49
0.0
 49
0.0
 49
0.0
 49
1.0
 49
0.0
 49
0.0
 49
0.0
 49
0.0
 49
1.0
175
     0
142
0.0208333333333333
142
0.0
142
0.0
142
0.0
142
0.0
142
0.0208333333333333
142
0.0
142
0.0
142
0.0
142
0.0
142
1.0
142
0.0
142
0.0
142
0.0
142
0.0
142
1.0
179
     0
144
0.0208333333333333
144
0.0
144
0.0
144
0.0
144
0.0
144
0.0208333333333333
144
0.0
144
0.0
144
0.0
144
0.0
144
1.0
144
0.0
144
0.0
144
0.0
144
0.0
144
1.0
147
0.0208333333333333
147
0.0
147
0.0
147
0.0
147
0.0
147
0.0208333333333333
147
0.0
147
0.0
147
0.0
147
0.0
147
1.0
147
0.0
147
0.0
147
0.0
147
0.0
147
1.0
  0
MATERIAL
  5
21
102
{ACAD_XDICTIONARY
360
22
102
}
102
{ACAD_REACTORS
330
10
102
}
330
10
100
AcDbMaterial
  1
Global
 72
     0
 43
0.0208333333333333
 43
0.0
 43
0.0
 43
0.0
 43
0.0
 43
0.0208333333333333
 43
0.0
 43
0.0
 43
0.0
 43
0.0
 43
1.0
 43
0.0
 43
0.0
 43
0.0
 43
0.0
 43
1.0
 77
     0
 47
0.0208333333333333
 47
0.0
 47
0.0
 47
0.0
 47
0.0
 47
0.0208333333333333
 47
0.0
 47
0.0
 47
0.0
 47
0.0
 47
1.0
 47
0.0
 47
0.0
 47
0.0
 47
0.0
 47
1.0
171
     0
 49
0.0208333333333333
 49
0.0
 49
0.0
 49
0.0
 49
0.0
 49
0.0208333333333333
 49
0.0
 49
0.0
 49
0.0
 49
0.0
 49
1.0
 49
0.0
 49
0.0
 49
0.0
 49
0.0
 49
1.0
175
     0
142
0.0208333333333333
142
0.0
142
0.0
142
0.0
142
0.0
142
0.0208333333333333
142
0.0
142
0.0
142
0.0
142
0.0
142
1.0
142
0.0
142
0.0
142
0.0
142
0.0
142
1.0
179
     0
144
0.0208333333333333
144
0.0
144
0.0
144
0.0
144
0.0
144
0.0208333333333333
144
0.0
144
0.0
144
0.0
144
0.0
144
1.0
144
0.0
144
0.0
144
0.0
144
0.0
144
1.0
147
0.0208333333333333
147
0.0
147
0.0
147
0.0
147
0.0
147
0.0208333333333333
147
0.0
147
0.0
147
0.0
147
0.0
147
1.0
147
0.0
147
0.0
147
0.0
147
0.0
147
1.0
  0
MLEADERSTYLE
  5
66
102
{ACAD_REACTORS
330
65
102
}
330
65
100
AcDbMLeaderStyle
170
     2
171
     1
172
     0
 90
        2
 40
0.0
 41
0.0
173
     1
 91
-1056964608
340
5A
 92
       -2
290
     1
 42
0.09
291
     1
 43
0.36
  3
Standard
 44
0.18
300

342
55
174
     1
178
     6
175
     1
176
     0
 93
-1056964608
 45
0.18
292
     0
297
     0
 46
0.18
 94
-1056964608
 47
1.0
 49
1.0
140
1.0
293
     1
141
0.0
294
     1
177
     0
142
1.0
295
     0
296
     0
143
0.125
1001
ACAD_MLEADERVER
1070
     2
  0
MLINESTYLE
  5
5F
102
{ACAD_REACTORS
330
5E
102
}
330
5E
100
AcDbMlineStyle
  2
STANDARD
 70
     0
  3

 62
   256
 51
90.0
 52
90.0
 71
     2
 49
0.5
 62
   256
  6
BYLAYER
 49
-0.5
 62
   256
  6
BYLAYER
  0
ACDBPLACEHOLDER
  5
F
102
{ACAD_REACTORS
330
E
102
}
330
E
  0
SCALE
  5
43
102
{ACAD_REACTORS
330
42
102
}
330
42
100
AcDbScale
 70
     0
300
1:1
140
1.0
141
1.0
290
     1
  0
SCALE
  5
44
102
{ACAD_REACTORS
330
42
102
}
330
42
100
AcDbScale
 70
     0
300
1/128" = 1'-0"
140
0.0078125
141
12.0
290
     0
  0
SCALE
  5
45
102
{ACAD_REACTORS
330
42
102
}
330
42
100
AcDbScale
 70
     0
300
1/64" = 1'-0"
140
0.015625
141
12.0
290
     0
  0
SCALE
  5
46
102
{ACAD_REACTORS
330
42
102
}
330
42
100
AcDbScale
 70
     0
300
1/32" = 1'-0"
140
0.03125
141
12.0
290
     0
  0
SCALE
  5
47
102
{ACAD_REACTORS
330
42
102
}
330
42
100
AcDbScale
 70
     0
300
1/16" = 1'-0"
140
0.0625
141
12.0
290
     0
  0
SCALE
  5
48
102
{ACAD_REACTORS
330
42
102
}
330
42
100
AcDbScale
 70
     0
300
3/32" = 1'-0"
140
0.09375
141
12.0
290
     0
  0
SCALE
  5
49
102
{ACAD_REACTORS
330
42
102
}
330
42
100
AcDbScale
 70
     0
300
1/8" = 1'-0"
140
0.125
141
12.0
290
     0
  0
SCALE
  5
4A
102
{ACAD_REACTORS
330
42
102
}
330
42
100
AcDbScale
 70
     0
300
3/16" = 1'-0"
140
0.1875
141
12.0
290
     0
  0
SCALE
  5
4B
102
{ACAD_REACTORS
330
42
102
}
330
42
100
AcDbScale
 70
     0
300
1/4" = 1'-0"
140
0.25
141
12.0
290
     0
  0
SCALE
  5
4C
102
{ACAD_REACTORS
330
42
102
}
330
42
100
AcDbScale
 70
     0
300
3/8" = 1'-0"
140
0.375
141
12.0
290
     0
  0
SCALE
  5
4D
102
{ACAD_REACTORS
330
42
102
}
330
42
100
AcDbScale
 70
     0
300
1/2" = 1'-0"
140
0.5
141
12.0
290
     0
  0
SCALE
  5
4E
102
{ACAD_REACTORS
330
42
102
}
330
42
100
AcDbScale
 70
     0
300
3/4" = 1'-0"
140
0.75
141
12.0
290
     0
  0
SCALE
  5
4F
102
{ACAD_REACTORS
330
42
102
}
330
42
100
AcDbScale
 70
     0
300
1" = 1'-0"
140
1.0
141
12.0
290
     0
  0
SCALE
  5
50
102
{ACAD_REACTORS
330
42
102
}
330
42
100
AcDbScale
 70
     0
300
1-1/2" = 1'-0"
140
1.5
141
12.0
290
     0
  0
SCALE
  5
51
102
{ACAD_REACTORS
330
42
102
}
330
42
100
AcDbScale
 70
     0
300
3" = 1'-0"
140
3.0
141
12.0
290
     0
  0
SCALE
  5
52
102
{ACAD_REACTORS
330
42
102
}
330
42
100
AcDbScale
 70
     0
300
6" = 1'-0"
140
6.0
141
12.0
290
     0
  0
SCALE
  5
53
102
{ACAD_REACTORS
330
42
102
}
330
42
100
AcDbScale
 70
     0
300
1'-0" = 1'-0"
140
12.0
141
12.0
290
     0
  0
TABLESTYLE
  5
64
102
{ACAD_XDICTIONARY
360
180A1
102
}
102
{ACAD_REACTORS
330
63
102
}
330
63
100
AcDbTableStyle
  3
Standard
 70
     0
 71
     0
 40
0.06
 41
0.06
280
     0
281
     0
  7
STANDARD
140
0.18
170
     2
 62
     0
 63
     7
283
     0
274
    -2
284
     1
 64
     0
275
    -2
285
     1
 65
     0
276
    -2
286
     1
 66
     0
277
    -2
287
     1
 67
     0
278
    -2
288
     1
 68
     0
279
    -2
289
     1
 69
     0
  7
STANDARD
140
0.25
170
     5
 62
     0
 63
     7
283
     0
274
    -2
284
     1
 64
     0
275
    -2
285
     1
 65
     0
276
    -2
286
     1
 66
     0
277
    -2
287
     1
 67
     0
278
    -2
288
     1
 68
     0
279
    -2
289
     1
 69
     0
  7
STANDARD
140
0.18
170
     5
 62
     0
 63
     7
283
     0
274
    -2
284
     1
 64
     0
275
    -2
285
     1
 65
     0
276
    -2
286
     1
 66
     0
277
    -2
287
     1
 67
     0
278
    -2
288
     1
 68
     0
279
    -2
289
     1
 69
     0
  0
VISUALSTYLE
  5
2F
102
{ACAD_XDICTIONARY
360
1895A
102
}
102
{ACAD_REACTORS
330
29
102
}
330
29
100
AcDbVisualStyle
  2
2dWireframe
 70
     4
 71
     0
 72
     2
 73
     0
 90
        0
 40
-0.6
 41
-30.0
 62
     5
 63
     7
 74
     1
 91
        4
 64
     7
 65
   257
 75
     1
175
     1
 42
1.0
 92
        0
 66
   257
 43
1.0
 76
     1
 77
     6
 78
     2
 67
     7
 79
     5
170
     0
171
     0
290
     0
174
     0
 93
        1
 44
0.0
173
     0
291
     0
 45
0.0
1001
ACAD
1000
AcDbSavedByObjectVersion
1070
     0
  0
VISUALSTYLE
  5
2E
102
{ACAD_XDICTIONARY
360
18958
102
}
102
{ACAD_REACTORS
330
29
102
}
330
29
100
AcDbVisualStyle
  2
Basic
 70
     7
 71
     1
 72
     0
 73
     1
 90
        0
 40
-0.6
 41
-30.0
 62
     5
 63
     7
 74
     0
 91
        4
 64
     7
 65
   257
 75
     1
175
     1
 42
1.0
 92
        8
 66
     7
 43
1.0
 76
     1
 77
     6
 78
     2
 67
     7
 79
     5
170
     0
171
     0
290
     0
174
     0
 93
        1
 44
0.0
173
     0
291
     1
 45
0.0
1001
ACAD
1000
AcDbSavedByObjectVersion
1070
     0
  0
VISUALSTYLE
  5
35
102
{ACAD_XDICTIONARY
360
18966
102
}
102
{ACAD_REACTORS
330
29
102
}
330
29
100
AcDbVisualStyle
  2
Brighten
 70
    12
 71
     2
 72
     2
 73
     0
 90
        0
 40
-0.6
 41
-30.0
 62
     5
 63
     7
 74
     1
 91
        4
 64
     7
 65
   257
 75
     1
175
     1
 42
1.0
 92
        8
 66
     7
 43
1.0
 76
     1
 77
     6
 78
     2
 67
     7
 79
     5
170
     0
171
     0
290
     0
174
     0
 93
        1
 44
50.0
173
     0
291
     1
 45
0.0
1001
ACAD
1000
AcDbSavedByObjectVersion
1070
     0
  0
VISUALSTYLE
  5
39
102
{ACAD_XDICTIONARY
360
1896E
102
}
102
{ACAD_REACTORS
330
29
102
}
330
29
100
AcDbVisualStyle
  2
ColorChange
 70
    16
 71
     2
 72
     2
 73
     3
 90
        0
 40
-0.6
 41
-30.0
 62
     5
 63
     8
 74
     1
 91
        4
 64
     7
 65
   257
 75
     1
175
     1
 42
1.0
 92
        8
 66
     8
 43
1.0
 76
     1
 77
     6
 78
     2
 67
     7
 79
     5
170
     0
171
     0
290
     0
174
     0
 93
        1
 44
0.0
173
     0
291
     1
 45
0.0
1001
ACAD
1000
AcDbSavedByObjectVersion
1070
     0
  0
VISUALSTYLE
  5
32
102
{ACAD_XDICTIONARY
360
18960
102
}
102
{ACAD_REACTORS
330
29
102
}
330
29
100
AcDbVisualStyle
  2
Conceptual
 70
     9
 71
     3
 72
     2
 73
     0
 90
        0
 40
-0.6
 41
-30.0
 62
     5
 63
     7
 74
     2
 91
        2
 64
     7
 65
   257
 75
     1
175
     1
 42
179.0
 92
        8
 66
     7
 43
1.0
 76
     1
 77
     6
 78
     2
 67
     7
 79
     3
170
     0
171
     0
290
     0
174
     0
 93
        1
 44
0.0
173
     0
291
     0
 45
0.0
1001
ACAD
1000
AcDbSavedByObjectVersion
1070
     0
  0
VISUALSTYLE
  5
34
102
{ACAD_XDICTIONARY
360
18964
102
}
102
{ACAD_REACTORS
330
29
102
}
330
29
100
AcDbVisualStyle
  2
Dim
 70
    11
 71
     2
 72
     2
 73
     0
 90
        0
 40
-0.6
 41
-30.0
 62
     5
 63
     7
 74
     1
 91
        4
 64
     7
 65
   257
 75
     1
175
     1
 42
1.0
 92
        8
 66
     7
 43
1.0
 76
     1
 77
     6
 78
     2
 67
     7
 79
     5
170
     0
171
     0
290
     0
174
     0
 93
        1
 44
-50.0
173
     0
291
     1
 45
0.0
1001
ACAD
1000
AcDbSavedByObjectVersion
1070
     0
  0
VISUALSTYLE
  5
41
102
{ACAD_XDICTIONARY
360
1897E
102
}
102
{ACAD_REACTORS
330
29
102
}
330
29
100
AcDbVisualStyle
  2
EdgeColorOff
 70
    22
 71
     2
 72
     2
 73
     0
 90
        0
 40
-0.6
 41
-30.0
 62
     5
 63
     7
 74
     1
 91
        4
 64
     7
 65
   257
 75
     1
175
     1
 42
1.0
 92
        8
 66
     7
 43
1.0
 76
     1
 77
     6
 78
     2
 67
     7
 79
     5
170
     0
171
     0
290
     0
174
     0
 93
        1
 44
0.0
173
     0
291
     1
 45
0.0
1001
ACAD
1000
AcDbSavedByObjectVersion
1070
     0
  0
VISUALSTYLE
  5
38
102
{ACAD_XDICTIONARY
360
1896C
102
}
102
{ACAD_REACTORS
330
29
102
}
330
29
100
AcDbVisualStyle
  2
Facepattern
 70
    15
 71
     2
 72
     2
 73
     0
 90
        0
 40
-0.6
 41
-30.0
 62
     5
 63
     7
 74
     1
 91
        4
 64
     7
 65
   257
 75
     1
175
     1
 42
1.0
 92
        8
 66
     7
 43
1.0
 76
     1
 77
     6
 78
     2
 67
     7
 79
     5
170
     0
171
     0
290
     0
174
     0
 93
        1
 44
0.0
173
     0
291
     1
 45
0.0
1001
ACAD
1000
AcDbSavedByObjectVersion
1070
     0
  0
VISUALSTYLE
  5
2A
102
{ACAD_XDICTIONARY
360
18950
102
}
102
{ACAD_REACTORS
330
29
102
}
330
29
100
AcDbVisualStyle
  2
Flat
 70
     0
 71
     2
 72
     1
 73
     1
 90
        2
 40
-0.6
 41
30.0
 62
     5
 63
     7
 74
     0
 91
        0
 64
     7
 65
   257
 75
     1
175
     1
 42
1.0
 92
        8
 66
     7
 43
1.0
 76
     1
 77
     6
 78
     2
 67
     7
 79
     5
170
     0
171
     0
290
     0
174
     0
 93
       13
 44
0.0
173
     0
291
     1
 45
0.0
1001
ACAD
1000
AcDbSavedByObjectVersion
1070
     0
  0
VISUALSTYLE
  5
2B
102
{ACAD_XDICTIONARY
360
18952
102
}
102
{ACAD_REACTORS
330
29
102
}
330
29
100
AcDbVisualStyle
  2
FlatWithEdges
 70
     1
 71
     2
 72
     1
 73
     1
 90
        2
 40
-0.6
 41
30.0
 62
     5
 63
     7
 74
     1
 91
        0
 64
     7
 65
   257
 75
     1
175
     1
 42
1.0
 92
        0
 66
   257
 43
1.0
 76
     1
 77
     6
 78
     2
 67
     7
 79
     5
170
     0
171
     0
290
     0
174
     0
 93
       13
 44
0.0
173
     0
291
     1
 45
0.0
1001
ACAD
1000
AcDbSavedByObjectVersion
1070
     0
  0
VISUALSTYLE
  5
2C
102
{ACAD_XDICTIONARY
360
18954
102
}
102
{ACAD_REACTORS
330
29
102
}
330
29
100
AcDbVisualStyle
  2
Gouraud
 70
     2
 71
     2
 72
     2
 73
     1
 90
        2
 40
-0.6
 41
30.0
 62
     5
 63
     7
 74
     0
 91
        0
 64
     7
 65
   257
 75
     1
175
     1
 42
1.0
 92
        0
 66
     7
 43
1.0
 76
     1
 77
     6
 78
     2
 67
     7
 79
     5
170
     0
171
     0
290
     0
174
     0
 93
       13
 44
0.0
173
     0
291
     1
 45
0.0
1001
ACAD
1000
AcDbSavedByObjectVersion
1070
     0
  0
VISUALSTYLE
  5
2D
102
{ACAD_XDICTIONARY
360
18956
102
}
102
{ACAD_REACTORS
330
29
102
}
330
29
100
AcDbVisualStyle
  2
GouraudWithEdges
 70
     3
 71
     2
 72
     2
 73
     1
 90
        2
 40
-0.6
 41
30.0
 62
     5
 63
     7
 74
     1
 91
        0
 64
     7
 65
   257
 75
     1
175
     1
 42
1.0
 92
        0
 66
   257
 43
1.0
 76
     1
 77
     6
 78
     2
 67
     7
 79
     5
170
     0
171
     0
290
     0
174
     0
 93
       13
 44
0.0
173
     0
291
     1
 45
0.0
1001
ACAD
1000
AcDbSavedByObjectVersion
1070
     0
  0
VISUALSTYLE
  5
31
102
{ACAD_XDICTIONARY
360
1895E
102
}
102
{ACAD_REACTORS
330
29
102
}
330
29
100
AcDbVisualStyle
  2
Hidden
 70
     6
 71
     1
 72
     2
 73
     2
 90
        0
 40
-0.6
 41
-30.0
 62
     5
 63
     7
 74
     2
 91
        2
 64
     7
 65
   257
 75
     2
175
     1
 42
40.0
 92
        0
 66
   257
 43
1.0
 76
     1
 77
     6
 78
     2
 67
     7
 79
     3
170
     0
171
     0
290
     0
174
     0
 93
        1
 44
0.0
173
     0
291
     0
 45
0.0
1001
ACAD
1000
AcDbSavedByObjectVersion
1070
     0
  0
VISUALSTYLE
  5
3F
102
{ACAD_XDICTIONARY
360
1897A
102
}
102
{ACAD_REACTORS
330
29
102
}
330
29
100
AcDbVisualStyle
  2
JitterOff
 70
    20
 71
     2
 72
     2
 73
     0
 90
        0
 40
-0.6
 41
-30.0
 62
     5
 63
     7
 74
     1
 91
        4
 64
     7
 65
   257
 75
     1
175
     1
 42
1.0
 92
       10
 66
     7
 43
1.0
 76
     1
 77
     6
 78
     2
 67
     7
 79
     5
170
     0
171
     0
290
     0
174
     0
 93
        1
 44
0.0
173
     0
291
     1
 45
0.0
1001
ACAD
1000
AcDbSavedByObjectVersion
1070
     0
  0
VISUALSTYLE
  5
37
102
{ACAD_XDICTIONARY
360
1896A
102
}
102
{ACAD_REACTORS
330
29
102
}
330
29
100
AcDbVisualStyle
  2
Linepattern
 70
    14
 71
     2
 72
     2
 73
     0
 90
        0
 40
-0.6
 41
-30.0
 62
     5
 63
     7
 74
     1
 91
        4
 64
     7
 65
   257
 75
     7
175
     7
 42
1.0
 92
        8
 66
     7
 43
1.0
 76
     1
 77
     6
 78
     2
 67
     7
 79
     5
170
     0
171
     0
290
     0
174
     0
 93
        1
 44
0.0
173
     0
291
     1
 45
0.0
1001
ACAD
1000
AcDbSavedByObjectVersion
1070
     0
  0
VISUALSTYLE
  5
40
102
{ACAD_XDICTIONARY
360
1897C
102
}
102
{ACAD_REACTORS
330
29
102
}
330
29
100
AcDbVisualStyle
  2
OverhangOff
 70
    21
 71
     2
 72
     2
 73
     0
 90
        0
 40
-0.6
 41
-30.0
 62
     5
 63
     7
 74
     1
 91
        4
 64
     7
 65
   257
 75
     1
175
     1
 42
1.0
 92
        9
 66
     7
 43
1.0
 76
     1
 77
     6
 78
     2
 67
     7
 79
     5
170
     0
171
     0
290
     0
174
     0
 93
        1
 44
0.0
173
     0
291
     1
 45
0.0
1001
ACAD
1000
AcDbSavedByObjectVersion
1070
     0
  0
VISUALSTYLE
  5
33
102
{ACAD_XDICTIONARY
360
18962
102
}
102
{ACAD_REACTORS
330
29
102
}
330
29
100
AcDbVisualStyle
  2
Realistic
 70
     8
 71
     2
 72
     2
 73
     0
 90
        2
 40
-0.6
 41
30.0
 62
     5
 63
     7
 74
     0
 91
        0
 64
     7
 65
   257
 75
     1
175
     1
 42
1.0
 92
        8
 66
   257
 43
1.0
 76
     1
 77
     6
 78
     2
 67
     7
 79
     3
170
     0
171
     0
290
     0
174
     0
 93
       13
 44
0.0
173
     0
291
     0
 45
0.0
1001
ACAD
1000
AcDbSavedByObjectVersion
1070
     0
  0
VISUALSTYLE
  5
3E
102
{ACAD_XDICTIONARY
360
18978
102
}
102
{ACAD_REACTORS
330
29
102
}
330
29
100
AcDbVisualStyle
  2
Shaded
 70
    27
 71
     2
 72
     2
 73
     1
 90
        2
 40
-0.6
 41
30.0
 62
     5
 63
     7
 74
     0
 91
        4
 64
     7
 65
   257
 75
     1
175
     1
 42
1.0
 92
        8
 66
   257
 43
1.0
 76
     1
 77
     6
 78
     2
 67
     8
 79
     3
170
     0
171
     0
290
     0
174
     0
 93
        5
 44
0.0
173
     0
291
     0
 45
0.0
1001
ACAD
1000
AcDbSavedByObjectVersion
1070
     0
  0
VISUALSTYLE
  5
3D
102
{ACAD_XDICTIONARY
360
18976
102
}
102
{ACAD_REACTORS
330
29
102
}
330
29
100
AcDbVisualStyle
  2
Shaded with edges
 70
    26
 71
     2
 72
     2
 73
     1
 90
        2
 40
-0.6
 41
30.0
 62
     5
 63
     7
 74
     1
 91
       10
 64
     7
 65
   257
 75
     2
175
     1
 42
1.0
 92
        8
 66
   257
 43
1.0
 76
     1
 77
     6
 78
     2
 67
     7
 79
     3
170
     0
171
     0
290
     0
174
     0
 93
        5
 44
0.0
173
     0
291
     0
 45
0.0
1001
ACAD
1000
AcDbSavedByObjectVersion
1070
     0
  0
VISUALSTYLE
  5
3A
102
{ACAD_XDICTIONARY
360
18970
102
}
102
{ACAD_REACTORS
330
29
102
}
330
29
100
AcDbVisualStyle
  2
Shades of Gray
 70
    23
 71
     2
 72
     2
 73
     3
 90
        0
 40
-0.6
 41
-30.0
 62
     5
 63
     7
 74
     2
 91
        2
 64
     7
 65
     7
 75
     1
175
     1
 42
40.0
 92
        8
 66
     7
 43
1.0
 76
     1
 77
     6
 78
     2
 67
     7
 79
     3
170
     0
171
     0
290
     0
174
     0
 93
        1
 44
0.0
173
     0
291
     0
 45
0.0
1001
ACAD
1000
AcDbSavedByObjectVersion
1070
     0
  0
VISUALSTYLE
  5
3B
102
{ACAD_XDICTIONARY
360
18972
102
}
102
{ACAD_REACTORS
330
29
102
}
330
29
100
AcDbVisualStyle
  2
Sketchy
 70
    24
 71
     1
 72
     2
 73
     2
 90
        0
 40
-0.6
 41
-30.0
 62
     5
 63
     7
 74
     2
 91
        2
 64
     7
 65
     7
 75
     1
175
     1
 42
40.0
 92
       11
 66
     7
 43
1.0
 76
     1
 77
     6
 78
     2
 67
     7
 79
     6
170
     0
171
     0
290
     0
174
     0
 93
        1
 44
0.0
173
     0
291
     0
 45
0.0
1001
ACAD
1000
AcDbSavedByObjectVersion
1070
     0
  0
VISUALSTYLE
  5
36
102
{ACAD_XDICTIONARY
360
18968
102
}
102
{ACAD_REACTORS
330
29
102
}
330
29
100
AcDbVisualStyle
  2
Thicken
 70
    13
 71
     2
 72
     2
 73
     0
 90
        0
 40
-0.6
 41
-30.0
 62
     5
 63
     7
 74
     1
 91
        4
 64
     7
 65
   257
 75
     1
175
     1
 42
1.0
 92
       12
 66
     7
 43
1.0
 76
     1
 77
     6
 78
     2
 67
     7
 79
     5
170
     0
171
     0
290
     0
174
     0
 93
        1
 44
0.0
173
     0
291
     1
 45
0.0
1001
ACAD
1000
AcDbSavedByObjectVersion
1070
     0
  0
VISUALSTYLE
  5
30
102
{ACAD_XDICTIONARY
360
1895C
102
}
102
{ACAD_REACTORS
330
29
102
}
330
29
100
AcDbVisualStyle
  2
Wireframe
 70
     5
 71
     0
 72
     2
 73
     0
 90
        0
 40
-0.6
 41
-30.0
 62
     5
 63
     7
 74
     1
 91
        4
 64
     7
 65
   257
 75
     1
175
     1
 42
1.0
 92
        0
 66
   257
 43
1.0
 76
     1
 77
     6
 78
     2
 67
     7
 79
     3
170
     0
171
     0
290
     0
174
     0
 93
        1
 44
0.0
173
     0
291
     0
 45
0.0
1001
ACAD
1000
AcDbSavedByObjectVersion
1070
     0
  0
VISUALSTYLE
  5
3C
102
{ACAD_XDICTIONARY
360
18974
102
}
102
{ACAD_REACTORS
330
29
102
}
330
29
100
AcDbVisualStyle
  2
X-Ray
 70
    25
 71
     2
 72
     2
 73
     1
 90
        1
 40
0.5
 41
-30.0
 62
     5
 63
     7
 74
     1
 91
        0
 64
     7
 65
   257
 75
     1
175
     1
 42
1.0
 92
        8
 66
     7
 43
1.0
 76
     1
 77
     6
 78
     2
 67
     7
 79
     3
170
     0
171
     0
290
     0
174
     0
 93
       13
 44
0.0
173
     0
291
     0
 45
0.0
1001
ACAD
1000
AcDbSavedByObjectVersion
1070
     0
  0
DICTIONARYVAR
  5
5F3E
102
{ACAD_REACTORS
330
5F3B
102
}
330
5F3B
100
DictionaryVariables
280
     0
  1
1:1
  0
DICTIONARYVAR
  5
5F3D
102
{ACAD_REACTORS
330
5F3B
102
}
330
5F3B
100
DictionaryVariables
280
     0
  1
STANDARD
  0
DICTIONARYVAR
  5
5F3C
102
{ACAD_REACTORS
330
5F3B
102
}
330
5F3B
100
DictionaryVariables
280
     0
  1
STANDARD
  0
DICTIONARYVAR
  5
5F41
102
{ACAD_REACTORS
330
5F3B
102
}
330
5F3B
100
DictionaryVariables
280
     0
  1
1
  0
DICTIONARYVAR
  5
5F40
102
{ACAD_REACTORS
330
5F3B
102
}
330
5F3B
100
DictionaryVariables
280
     0
  1
0
  0
DICTIONARYVAR
  5
5F3F
102
{ACAD_REACTORS
330
5F3B
102
}
330
5F3B
100
DictionaryVariables
280
     0
  1
127
  0
DICTIONARYVAR
  5
18949
102
{ACAD_REACTORS
330
5F3B
102
}
330
5F3B
100
DictionaryVariables
280
     0
  1
2
  0
DICTIONARY
  5
18983
330
6E
100
AcDbDictionary
280
     1
281
     1
  3
ACAD_XREC_ROUNDTRIP
360
18984
  0
DICTIONARY
  5
18981
330
6A
100
AcDbDictionary
280
     1
281
     1
  3
ACAD_XREC_ROUNDTRIP
360
18982
  0
DICTIONARY
  5
1A
330
19
100
AcDbDictionary
280
     1
281
     1
  3
ACAD_XREC_ROUNDTRIP
360
1894E
  3
BUMPTILE
360
1C
  3
DIFFUSETILE
360
1B
  3
OPACITYTILE
360
1F
  3
REFLECTIONTILE
360
1E
  3
REFRACTIONTILE
360
20
  3
SPECULARTILE
360
1D
  0
DICTIONARY
  5
12
330
11
100
AcDbDictionary
280
     1
281
     1
  3
ACAD_XREC_ROUNDTRIP
360
1894D
  3
BUMPTILE
360
14
  3
DIFFUSETILE
360
13
  3
OPACITYTILE
360
17
  3
REFLECTIONTILE
360
16
  3
REFRACTIONTILE
360
18
  3
SPECULARTILE
360
15
  0
DICTIONARY
  5
22
330
21
100
AcDbDictionary
280
     1
281
     1
  3
ACAD_XREC_ROUNDTRIP
360
1894F
  3
BUMPTILE
360
24
  3
DIFFUSETILE
360
23
  3
OPACITYTILE
360
27
  3
REFLECTIONTILE
360
26
  3
REFRACTIONTILE
360
28
  3
SPECULARTILE
360
25
  0
DICTIONARY
  5
180A1
330
64
100
AcDbDictionary
280
     1
281
     1
  3
ACAD_ROUNDTRIP_2008_TABLESTYLE_CELLSTYLEMAP
360
1894A
  3
ACAD_XREC_ROUNDTRIP
360
18980
  0
DICTIONARY
  5
1895A
330
2F
100
AcDbDictionary
280
     1
281
     1
  3
ACAD_XREC_ROUNDTRIP
360
1895B
  0
DICTIONARY
  5
18958
330
2E
100
AcDbDictionary
280
     1
281
     1
  3
ACAD_XREC_ROUNDTRIP
360
18959
  0
DICTIONARY
  5
18966
330
35
100
AcDbDictionary
280
     1
281
     1
  3
ACAD_XREC_ROUNDTRIP
360
18967
  0
DICTIONARY
  5
1896E
330
39
100
AcDbDictionary
280
     1
281
     1
  3
ACAD_XREC_ROUNDTRIP
360
1896F
  0
DICTIONARY
  5
18960
330
32
100
AcDbDictionary
280
     1
281
     1
  3
ACAD_XREC_ROUNDTRIP
360
18961
  0
DICTIONARY
  5
18964
330
34
100
AcDbDictionary
280
     1
281
     1
  3
ACAD_XREC_ROUNDTRIP
360
18965
  0
DICTIONARY
  5
1897E
330
41
100
AcDbDictionary
280
     1
281
     1
  3
ACAD_XREC_ROUNDTRIP
360
1897F
  0
DICTIONARY
  5
1896C
330
38
100
AcDbDictionary
280
     1
281
     1
  3
ACAD_XREC_ROUNDTRIP
360
1896D
  0
DICTIONARY
  5
18950
330
2A
100
AcDbDictionary
280
     1
281
     1
  3
ACAD_XREC_ROUNDTRIP
360
18951
  0
DICTIONARY
  5
18952
330
2B
100
AcDbDictionary
280
     1
281
     1
  3
ACAD_XREC_ROUNDTRIP
360
18953
  0
DICTIONARY
  5
18954
330
2C
100
AcDbDictionary
280
     1
281
     1
  3
ACAD_XREC_ROUNDTRIP
360
18955
  0
DICTIONARY
  5
18956
330
2D
100
AcDbDictionary
280
     1
281
     1
  3
ACAD_XREC_ROUNDTRIP
360
18957
  0
DICTIONARY
  5
1895E
330
31
100
AcDbDictionary
280
     1
281
     1
  3
ACAD_XREC_ROUNDTRIP
360
1895F
  0
DICTIONARY
  5
1897A
330
3F
100
AcDbDictionary
280
     1
281
     1
  3
ACAD_XREC_ROUNDTRIP
360
1897B
  0
DICTIONARY
  5
1896A
330
37
100
AcDbDictionary
280
     1
281
     1
  3
ACAD_XREC_ROUNDTRIP
360
1896B
  0
DICTIONARY
  5
1897C
330
40
100
AcDbDictionary
280
     1
281
     1
  3
ACAD_XREC_ROUNDTRIP
360
1897D
  0
DICTIONARY
  5
18962
330
33
100
AcDbDictionary
280
     1
281
     1
  3
ACAD_XREC_ROUNDTRIP
360
18963
  0
DICTIONARY
  5
18978
330
3E
100
AcDbDictionary
280
     1
281
     1
  3
ACAD_XREC_ROUNDTRIP
360
18979
  0
DICTIONARY
  5
18976
330
3D
100
AcDbDictionary
280
     1
281
     1
  3
ACAD_XREC_ROUNDTRIP
360
18977
  0
DICTIONARY
  5
18970
330
3A
100
AcDbDictionary
280
     1
281
     1
  3
ACAD_XREC_ROUNDTRIP
360
18971
  0
DICTIONARY
  5
18972
330
3B
100
AcDbDictionary
280
     1
281
     1
  3
ACAD_XREC_ROUNDTRIP
360
18973
  0
DICTIONARY
  5
18968
330
36
100
AcDbDictionary
280
     1
281
     1
  3
ACAD_XREC_ROUNDTRIP
360
18969
  0
DICTIONARY
  5
1895C
330
30
100
AcDbDictionary
280
     1
281
     1
  3
ACAD_XREC_ROUNDTRIP
360
1895D
  0
DICTIONARY
  5
18974
330
3C
100
AcDbDictionary
280
     1
281
     1
  3
ACAD_XREC_ROUNDTRIP
360
18975
  0
XRECORD
  5
18984
102
{ACAD_REACTORS
330
18983
102
}
330
18983
100
AcDbXrecord
280
     1
102
SHADEPLOT
 70
     0
102
SHADEPLOTRESLEVEL
 70
     2
102
SHADEPLOTCUSTOMDPI
 70
   300
  0
XRECORD
  5
18982
102
{ACAD_REACTORS
330
18981
102
}
330
18981
100
AcDbXrecord
280
     1
102
SHADEPLOT
 70
     0
102
SHADEPLOTRESLEVEL
 70
     2
102
SHADEPLOTCUSTOMDPI
 70
   300
  0
XRECORD
  5
1894E
102
{ACAD_REACTORS
330
1A
102
}
330
1A
100
AcDbXrecord
280
     1
102
MATERIAL
148
0.0
149
0.0
149
0.0
 93
        0
 94
      127
282
     0
 72
     0
 77
     0
171
     0
175
     0
179
     0
273
     0
  0
XRECORD
  5
1C
102
{ACAD_REACTORS
330
1A
102
}
330
1A
100
AcDbXrecord
280
     1
270
     1
271
     1
  0
XRECORD
  5
1B
102
{ACAD_REACTORS
330
1A
102
}
330
1A
100
AcDbXrecord
280
     1
270
     1
271
     1
  0
XRECORD
  5
1F
102
{ACAD_REACTORS
330
1A
102
}
330
1A
100
AcDbXrecord
280
     1
270
     1
271
     1
  0
XRECORD
  5
1E
102
{ACAD_REACTORS
330
1A
102
}
330
1A
100
AcDbXrecord
280
     1
270
     1
271
     1
  0
XRECORD
  5
20
102
{ACAD_REACTORS
330
1A
102
}
330
1A
100
AcDbXrecord
280
     1
270
     1
271
     1
  0
XRECORD
  5
1D
102
{ACAD_REACTORS
330
1A
102
}
330
1A
100
AcDbXrecord
280
     1
270
     1
271
     1
  0
XRECORD
  5
1894D
102
{ACAD_REACTORS
330
12
102
}
330
12
100
AcDbXrecord
280
     1
102
MATERIAL
148
0.0
149
0.0
149
0.0
 93
        0
 94
      127
282
     0
 72
     0
 77
     0
171
     0
175
     0
179
     0
273
     0
  0
XRECORD
  5
14
102
{ACAD_REACTORS
330
12
102
}
330
12
100
AcDbXrecord
280
     1
270
     1
271
     1
  0
XRECORD
  5
13
102
{ACAD_REACTORS
330
12
102
}
330
12
100
AcDbXrecord
280
     1
270
     1
271
     1
  0
XRECORD
  5
17
102
{ACAD_REACTORS
330
12
102
}
330
12
100
AcDbXrecord
280
     1
270
     1
271
     1
  0
XRECORD
  5
16
102
{ACAD_REACTORS
330
12
102
}
330
12
100
AcDbXrecord
280
     1
270
     1
271
     1
  0
XRECORD
  5
18
102
{ACAD_REACTORS
330
12
102
}
330
12
100
AcDbXrecord
280
     1
270
     1
271
     1
  0
XRECORD
  5
15
102
{ACAD_REACTORS
330
12
102
}
330
12
100
AcDbXrecord
280
     1
270
     1
271
     1
  0
XRECORD
  5
1894F
102
{ACAD_REACTORS
330
22
102
}
330
22
100
AcDbXrecord
280
     1
102
MATERIAL
148
0.0
149
0.0
149
0.0
 93
        0
 94
      127
282
     0
 72
     0
 77
     0
171
     0
175
     0
179
     0
273
     0
  0
XRECORD
  5
24
102
{ACAD_REACTORS
330
22
102
}
330
22
100
AcDbXrecord
280
     1
270
     1
271
     1
  0
XRECORD
  5
23
102
{ACAD_REACTORS
330
22
102
}
330
22
100
AcDbXrecord
280
     1
270
     1
271
     1
  0
XRECORD
  5
27
102
{ACAD_REACTORS
330
22
102
}
330
22
100
AcDbXrecord
280
     1
270
     1
271
     1
  0
XRECORD
  5
26
102
{ACAD_REACTORS
330
22
102
}
330
22
100
AcDbXrecord
280
     1
270
     1
271
     1
  0
XRECORD
  5
28
102
{ACAD_REACTORS
330
22
102
}
330
22
100
AcDbXrecord
280
     1
270
     1
271
     1
  0
XRECORD
  5
25
102
{ACAD_REACTORS
330
22
102
}
330
22
100
AcDbXrecord
280
     1
270
     1
271
     1
  0
CELLSTYLEMAP
  5
1894A
102
{ACAD_REACTORS
330
180A1
102
}
330
180A1
100
AcDbCellStyleMap
 90
        3
300
CELLSTYLE
  1
TABLEFORMAT_BEGIN
 90
        5
170
     1
 91
        0
 92
    32768
 62
   257
 93
        1
300
CONTENTFORMAT
  1
CONTENTFORMAT_BEGIN
 90
        0
 91
        0
 92
      512
 93
        0
300

 40
0.0
140
1.0
 94
        5
 62
     0
340
55
144
0.25
309
CONTENTFORMAT_END
171
     0
 94
        0
309
TABLEFORMAT_END
  1
CELLSTYLE_BEGIN
 90
        1
 91
        1
300
_TITLE
309
CELLSTYLE_END
300
CELLSTYLE
  1
TABLEFORMAT_BEGIN
 90
        5
170
     1
 91
        0
 92
        0
 62
   257
 93
        1
300
CONTENTFORMAT
  1
CONTENTFORMAT_BEGIN
 90
        0
 91
        0
 92
      512
 93
        0
300

 40
0.0
140
1.0
 94
        5
 62
     0
340
55
144
0.18
309
CONTENTFORMAT_END
171
     0
 94
        0
309
TABLEFORMAT_END
  1
CELLSTYLE_BEGIN
 90
        2
 91
        1
300
_HEADER
309
CELLSTYLE_END
300
CELLSTYLE
  1
TABLEFORMAT_BEGIN
 90
        5
170
     1
 91
        0
 92
        0
 62
   257
 93
        1
300
CONTENTFORMAT
  1
CONTENTFORMAT_BEGIN
 90
        0
 91
        0
 92
      512
 93
        0
300

 40
0.0
140
1.0
 94
        2
 62
     0
340
55
144
0.18
309
CONTENTFORMAT_END
171
     0
 94
        0
309
TABLEFORMAT_END
  1
CELLSTYLE_BEGIN
 90
        3
 91
        2
300
_DATA
309
CELLSTYLE_END
  0
XRECORD
  5
18980
102
{ACAD_REACTORS
330
180A1
102
}
330
180A1
100
AcDbXrecord
280
     1
102
ACAD_ROUNDTRIP_PRE2007_TABLESTYLE
 90
      512
 91
        0
  1

 92
      512
 93
        0
  2

 94
      512
 95
        0
  3

  0
XRECORD
  5
1895B
102
{ACAD_REACTORS
330
1895A
102
}
330
1895A
100
AcDbXrecord
280
     1
102
RTVSPropertyOp0
 70
     1
102
RTVSPropertyOp1
 70
     1
102
RTVSPropertyOp2
 70
     1
102
RTVSPropertyOp3
 70
     1
102
RTVSPropertyOp4
 70
     1
102
RTVSPropertyOp5
 70
     1
102
RTVSPropertyOp6
 70
     1
102
RTVSPropertyOp7
 70
     1
102
RTVSPropertyOp8
 70
     1
102
RTVSPropertyOp9
 70
     1
102
RTVSPropertyOp10
 70
     1
102
RTVSPropertyOp11
 70
     1
102
RTVSPropertyOp12
 70
     1
102
RTVSPropertyOp13
 70
     1
102
RTVSPropertyOp14
 70
     1
102
RTVSPropertyOp15
 70
     1
102
RTVSPropertyOp16
 70
     1
102
RTVSPropertyOp17
 70
     1
102
RTVSPropertyOp18
 70
     1
102
RTVSPropertyOp19
 70
     1
102
RTVSPropertyOp20
 70
     1
102
RTVSPropertyOp21
 70
     1
102
RTVSPropertyOp22
 70
     1
102
RTVSPropertyOp23
 70
     1
102
RTVSPropertyOp24
 70
     1
102
RTVSPropertyOp25
 70
     1
102
RTVSPropertyOp26
 70
     1
102
RTVSPropertyOp27
 70
     1
102
RTVSPropertyOp28
 70
     1
102
RTVSPropertyOp29
 70
     1
102
RTVSPropertyOp30
 70
     1
102
RTVSPropertyOp31
 70
     1
102
RTVSPropertyOp32
 70
     1
  0
XRECORD
  5
18959
102
{ACAD_REACTORS
330
18958
102
}
330
18958
100
AcDbXrecord
280
     1
102
RTVSPropertyOp0
 70
     1
102
RTVSPropertyOp1
 70
     1
102
RTVSPropertyOp2
 70
     1
102
RTVSPropertyOp3
 70
     1
102
RTVSPropertyOp4
 70
     1
102
RTVSPropertyOp5
 70
     1
102
RTVSPropertyOp6
 70
     1
102
RTVSPropertyOp7
 70
     1
102
RTVSPropertyOp8
 70
     1
102
RTVSPropertyOp9
 70
     1
102
RTVSPropertyOp10
 70
     1
102
RTVSPropertyOp11
 70
     1
102
RTVSPropertyOp12
 70
     1
102
RTVSPropertyOp13
 70
     1
102
RTVSPropertyOp14
 70
     1
102
RTVSPropertyOp15
 70
     1
102
RTVSPropertyOp16
 70
     1
102
RTVSPropertyOp17
 70
     1
102
RTVSPropertyOp18
 70
     1
102
RTVSPropertyOp19
 70
     1
102
RTVSPropertyOp20
 70
     1
102
RTVSPropertyOp21
 70
     1
102
RTVSPropertyOp22
 70
     1
102
RTVSPropertyOp23
 70
     1
102
RTVSPropertyOp24
 70
     1
102
RTVSPropertyOp25
 70
     1
102
RTVSPropertyOp26
 70
     1
102
RTVSPropertyOp27
 70
     1
102
RTVSPropertyOp28
 70
     1
102
RTVSPropertyOp29
 70
     1
102
RTVSPropertyOp30
 70
     1
102
RTVSPropertyOp31
 70
     1
102
RTVSPropertyOp32
 70
     1
  0
XRECORD
  5
18967
102
{ACAD_REACTORS
330
18966
102
}
330
18966
100
AcDbXrecord
280
     1
102
RTVSPropertyOp0
 70
     1
102
RTVSPropertyOp1
 70
     1
102
RTVSPropertyOp2
 70
     1
102
RTVSPropertyOp3
 70
     1
102
RTVSPropertyOp4
 70
     1
102
RTVSPropertyOp5
 70
     1
102
RTVSPropertyOp6
 70
     1
102
RTVSPropertyOp7
 70
     1
102
RTVSPropertyOp8
 70
     1
102
RTVSPropertyOp9
 70
     1
102
RTVSPropertyOp10
 70
     1
102
RTVSPropertyOp11
 70
     1
102
RTVSPropertyOp12
 70
     1
102
RTVSPropertyOp13
 70
     1
102
RTVSPropertyOp14
 70
     1
102
RTVSPropertyOp15
 70
     1
102
RTVSPropertyOp16
 70
     1
102
RTVSPropertyOp17
 70
     1
102
RTVSPropertyOp18
 70
     1
102
RTVSPropertyOp19
 70
     1
102
RTVSPropertyOp20
 70
     1
102
RTVSPropertyOp21
 70
     1
102
RTVSPropertyOp22
 70
     1
102
RTVSPropertyOp23
 70
     1
102
RTVSPropertyOp24
 70
     1
102
RTVSPropertyOp25
 70
     1
102
RTVSPropertyOp26
 70
     1
102
RTVSPropertyOp27
 70
     1
102
RTVSPropertyOp28
 70
     1
102
RTVSPropertyOp29
 70
     1
102
RTVSPropertyOp30
 70
     1
102
RTVSPropertyOp31
 70
     1
102
RTVSPropertyOp32
 70
     1
  0
XRECORD
  5
1896F
102
{ACAD_REACTORS
330
1896E
102
}
330
1896E
100
AcDbXrecord
280
     1
102
RTVSPropertyOp0
 70
     1
102
RTVSPropertyOp1
 70
     1
102
RTVSPropertyOp2
 70
     1
102
RTVSPropertyOp3
 70
     1
102
RTVSPropertyOp4
 70
     1
102
RTVSPropertyOp5
 70
     1
102
RTVSPropertyOp6
 70
     1
102
RTVSPropertyOp7
 70
     1
102
RTVSPropertyOp8
 70
     1
102
RTVSPropertyOp9
 70
     1
102
RTVSPropertyOp10
 70
     1
102
RTVSPropertyOp11
 70
     1
102
RTVSPropertyOp12
 70
     1
102
RTVSPropertyOp13
 70
     1
102
RTVSPropertyOp14
 70
     1
102
RTVSPropertyOp15
 70
     1
102
RTVSPropertyOp16
 70
     1
102
RTVSPropertyOp17
 70
     1
102
RTVSPropertyOp18
 70
     1
102
RTVSPropertyOp19
 70
     1
102
RTVSPropertyOp20
 70
     1
102
RTVSPropertyOp21
 70
     1
102
RTVSPropertyOp22
 70
     1
102
RTVSPropertyOp23
 70
     1
102
RTVSPropertyOp24
 70
     1
102
RTVSPropertyOp25
 70
     1
102
RTVSPropertyOp26
 70
     1
102
RTVSPropertyOp27
 70
     1
102
RTVSPropertyOp28
 70
     1
102
RTVSPropertyOp29
 70
     1
102
RTVSPropertyOp30
 70
     1
102
RTVSPropertyOp31
 70
     1
102
RTVSPropertyOp32
 70
     1
  0
XRECORD
  5
18961
102
{ACAD_REACTORS
330
18960
102
}
330
18960
100
AcDbXrecord
280
     1
102
RTVSPropertyOp0
 70
     1
102
RTVSPropertyOp1
 70
     1
102
RTVSPropertyOp2
 70
     1
102
RTVSPropertyOp3
 70
     1
102
RTVSPropertyOp4
 70
     1
102
RTVSPropertyOp5
 70
     1
102
RTVSPropertyOp6
 70
     1
102
RTVSPropertyOp7
 70
     1
102
RTVSPropertyOp8
 70
     1
102
RTVSPropertyOp9
 70
     1
102
RTVSPropertyOp10
 70
     1
102
RTVSPropertyOp11
 70
     1
102
RTVSPropertyOp12
 70
     1
102
RTVSPropertyOp13
 70
     1
102
RTVSPropertyOp14
 70
     1
102
RTVSPropertyOp15
 70
     1
102
RTVSPropertyOp16
 70
     1
102
RTVSPropertyOp17
 70
     1
102
RTVSPropertyOp18
 70
     1
102
RTVSPropertyOp19
 70
     1
102
RTVSPropertyOp20
 70
     1
102
RTVSPropertyOp21
 70
     1
102
RTVSPropertyOp22
 70
     1
102
RTVSPropertyOp23
 70
     1
102
RTVSPropertyOp24
 70
     1
102
RTVSPropertyOp25
 70
     1
102
RTVSPropertyOp26
 70
     1
102
RTVSPropertyOp27
 70
     1
102
RTVSPropertyOp28
 70
     1
102
RTVSPropertyOp29
 70
     1
102
RTVSPropertyOp30
 70
     1
102
RTVSPropertyOp31
 70
     1
102
RTVSPropertyOp32
 70
     1
  0
XRECORD
  5
18965
102
{ACAD_REACTORS
330
18964
102
}
330
18964
100
AcDbXrecord
280
     1
102
RTVSPropertyOp0
 70
     1
102
RTVSPropertyOp1
 70
     1
102
RTVSPropertyOp2
 70
     1
102
RTVSPropertyOp3
 70
     1
102
RTVSPropertyOp4
 70
     1
102
RTVSPropertyOp5
 70
     1
102
RTVSPropertyOp6
 70
     1
102
RTVSPropertyOp7
 70
     1
102
RTVSPropertyOp8
 70
     1
102
RTVSPropertyOp9
 70
     1
102
RTVSPropertyOp10
 70
     1
102
RTVSPropertyOp11
 70
     1
102
RTVSPropertyOp12
 70
     1
102
RTVSPropertyOp13
 70
     1
102
RTVSPropertyOp14
 70
     1
102
RTVSPropertyOp15
 70
     1
102
RTVSPropertyOp16
 70
     1
102
RTVSPropertyOp17
 70
     1
102
RTVSPropertyOp18
 70
     1
102
RTVSPropertyOp19
 70
     1
102
RTVSPropertyOp20
 70
     1
102
RTVSPropertyOp21
 70
     1
102
RTVSPropertyOp22
 70
     1
102
RTVSPropertyOp23
 70
     1
102
RTVSPropertyOp24
 70
     1
102
RTVSPropertyOp25
 70
     1
102
RTVSPropertyOp26
 70
     1
102
RTVSPropertyOp27
 70
     1
102
RTVSPropertyOp28
 70
     1
102
RTVSPropertyOp29
 70
     1
102
RTVSPropertyOp30
 70
     1
102
RTVSPropertyOp31
 70
     1
102
RTVSPropertyOp32
 70
     1
  0
XRECORD
  5
1897F
102
{ACAD_REACTORS
330
1897E
102
}
330
1897E
100
AcDbXrecord
280
     1
102
RTVSPropertyOp0
 70
     0
102
RTVSPropertyOp1
 70
     0
102
RTVSPropertyOp2
 70
     0
102
RTVSPropertyOp3
 70
     0
102
RTVSPropertyOp4
 70
     0
102
RTVSPropertyOp5
 70
     0
102
RTVSPropertyOp6
 70
     0
102
RTVSPropertyOp7
 70
     0
102
RTVSPropertyOp8
 70
     0
102
RTVSPropertyOp9
 70
     0
102
RTVSPropertyOp10
 70
     0
102
RTVSPropertyOp11
 70
     0
102
RTVSPropertyOp12
 70
     0
102
RTVSPropertyOp13
 70
     0
102
RTVSPropertyOp14
 70
     2
102
RTVSPropertyOp15
 70
     0
102
RTVSPropertyOp16
 70
     0
102
RTVSPropertyOp17
 70
     0
102
RTVSPropertyOp18
 70
     0
102
RTVSPropertyOp19
 70
     0
102
RTVSPropertyOp20
 70
     0
102
RTVSPropertyOp21
 70
     0
102
RTVSPropertyOp22
 70
     0
102
RTVSPropertyOp23
 70
     0
102
RTVSPropertyOp24
 70
     0
102
RTVSPropertyOp25
 70
     0
102
RTVSPropertyOp26
 70
     0
102
RTVSPropertyOp27
 70
     0
102
RTVSPropertyOp28
 70
     0
102
RTVSPropertyOp29
 70
     0
102
RTVSPropertyOp30
 70
     0
102
RTVSPropertyOp31
 70
     0
102
RTVSPropertyOp32
 70
     0
  0
XRECORD
  5
1896D
102
{ACAD_REACTORS
330
1896C
102
}
330
1896C
100
AcDbXrecord
280
     1
102
RTVSPropertyOp0
 70
     1
102
RTVSPropertyOp1
 70
     1
102
RTVSPropertyOp2
 70
     1
102
RTVSPropertyOp3
 70
     1
102
RTVSPropertyOp4
 70
     1
102
RTVSPropertyOp5
 70
     1
102
RTVSPropertyOp6
 70
     1
102
RTVSPropertyOp7
 70
     1
102
RTVSPropertyOp8
 70
     1
102
RTVSPropertyOp9
 70
     1
102
RTVSPropertyOp10
 70
     1
102
RTVSPropertyOp11
 70
     1
102
RTVSPropertyOp12
 70
     1
102
RTVSPropertyOp13
 70
     1
102
RTVSPropertyOp14
 70
     1
102
RTVSPropertyOp15
 70
     1
102
RTVSPropertyOp16
 70
     1
102
RTVSPropertyOp17
 70
     1
102
RTVSPropertyOp18
 70
     1
102
RTVSPropertyOp19
 70
     1
102
RTVSPropertyOp20
 70
     1
102
RTVSPropertyOp21
 70
     1
102
RTVSPropertyOp22
 70
     1
102
RTVSPropertyOp23
 70
     1
102
RTVSPropertyOp24
 70
     1
102
RTVSPropertyOp25
 70
     1
102
RTVSPropertyOp26
 70
     1
102
RTVSPropertyOp27
 70
     1
102
RTVSPropertyOp28
 70
     1
102
RTVSPropertyOp29
 70
     1
102
RTVSPropertyOp30
 70
     1
102
RTVSPropertyOp31
 70
     1
102
RTVSPropertyOp32
 70
     1
  0
XRECORD
  5
18951
102
{ACAD_REACTORS
330
18950
102
}
330
18950
100
AcDbXrecord
280
     1
102
RTVSPropertyOp0
 70
     1
102
RTVSPropertyOp1
 70
     1
102
RTVSPropertyOp2
 70
     1
102
RTVSPropertyOp3
 70
     1
102
RTVSPropertyOp4
 70
     1
102
RTVSPropertyOp5
 70
     1
102
RTVSPropertyOp6
 70
     1
102
RTVSPropertyOp7
 70
     1
102
RTVSPropertyOp8
 70
     1
102
RTVSPropertyOp9
 70
     1
102
RTVSPropertyOp10
 70
     1
102
RTVSPropertyOp11
 70
     1
102
RTVSPropertyOp12
 70
     1
102
RTVSPropertyOp13
 70
     1
102
RTVSPropertyOp14
 70
     1
102
RTVSPropertyOp15
 70
     1
102
RTVSPropertyOp16
 70
     1
102
RTVSPropertyOp17
 70
     1
102
RTVSPropertyOp18
 70
     1
102
RTVSPropertyOp19
 70
     1
102
RTVSPropertyOp20
 70
     1
102
RTVSPropertyOp21
 70
     1
102
RTVSPropertyOp22
 70
     1
102
RTVSPropertyOp23
 70
     1
102
RTVSPropertyOp24
 70
     1
102
RTVSPropertyOp25
 70
     1
102
RTVSPropertyOp26
 70
     1
102
RTVSPropertyOp27
 70
     1
102
RTVSPropertyOp28
 70
     1
102
RTVSPropertyOp29
 70
     1
102
RTVSPropertyOp30
 70
     1
102
RTVSPropertyOp31
 70
     1
102
RTVSPropertyOp32
 70
     1
  0
XRECORD
  5
18953
102
{ACAD_REACTORS
330
18952
102
}
330
18952
100
AcDbXrecord
280
     1
102
RTVSPropertyOp0
 70
     1
102
RTVSPropertyOp1
 70
     1
102
RTVSPropertyOp2
 70
     1
102
RTVSPropertyOp3
 70
     1
102
RTVSPropertyOp4
 70
     1
102
RTVSPropertyOp5
 70
     1
102
RTVSPropertyOp6
 70
     1
102
RTVSPropertyOp7
 70
     1
102
RTVSPropertyOp8
 70
     1
102
RTVSPropertyOp9
 70
     1
102
RTVSPropertyOp10
 70
     1
102
RTVSPropertyOp11
 70
     1
102
RTVSPropertyOp12
 70
     1
102
RTVSPropertyOp13
 70
     1
102
RTVSPropertyOp14
 70
     1
102
RTVSPropertyOp15
 70
     1
102
RTVSPropertyOp16
 70
     1
102
RTVSPropertyOp17
 70
     1
102
RTVSPropertyOp18
 70
     1
102
RTVSPropertyOp19
 70
     1
102
RTVSPropertyOp20
 70
     1
102
RTVSPropertyOp21
 70
     1
102
RTVSPropertyOp22
 70
     1
102
RTVSPropertyOp23
 70
     1
102
RTVSPropertyOp24
 70
     1
102
RTVSPropertyOp25
 70
     1
102
RTVSPropertyOp26
 70
     1
102
RTVSPropertyOp27
 70
     1
102
RTVSPropertyOp28
 70
     1
102
RTVSPropertyOp29
 70
     1
102
RTVSPropertyOp30
 70
     1
102
RTVSPropertyOp31
 70
     1
102
RTVSPropertyOp32
 70
     1
  0
XRECORD
  5
18955
102
{ACAD_REACTORS
330
18954
102
}
330
18954
100
AcDbXrecord
280
     1
102
RTVSPropertyOp0
 70
     1
102
RTVSPropertyOp1
 70
     1
102
RTVSPropertyOp2
 70
     1
102
RTVSPropertyOp3
 70
     1
102
RTVSPropertyOp4
 70
     1
102
RTVSPropertyOp5
 70
     1
102
RTVSPropertyOp6
 70
     1
102
RTVSPropertyOp7
 70
     1
102
RTVSPropertyOp8
 70
     1
102
RTVSPropertyOp9
 70
     1
102
RTVSPropertyOp10
 70
     1
102
RTVSPropertyOp11
 70
     1
102
RTVSPropertyOp12
 70
     1
102
RTVSPropertyOp13
 70
     1
102
RTVSPropertyOp14
 70
     1
102
RTVSPropertyOp15
 70
     1
102
RTVSPropertyOp16
 70
     1
102
RTVSPropertyOp17
 70
     1
102
RTVSPropertyOp18
 70
     1
102
RTVSPropertyOp19
 70
     1
102
RTVSPropertyOp20
 70
     1
102
RTVSPropertyOp21
 70
     1
102
RTVSPropertyOp22
 70
     1
102
RTVSPropertyOp23
 70
     1
102
RTVSPropertyOp24
 70
     1
102
RTVSPropertyOp25
 70
     1
102
RTVSPropertyOp26
 70
     1
102
RTVSPropertyOp27
 70
     1
102
RTVSPropertyOp28
 70
     1
102
RTVSPropertyOp29
 70
     1
102
RTVSPropertyOp30
 70
     1
102
RTVSPropertyOp31
 70
     1
102
RTVSPropertyOp32
 70
     1
  0
XRECORD
  5
18957
102
{ACAD_REACTORS
330
18956
102
}
330
18956
100
AcDbXrecord
280
     1
102
RTVSPropertyOp0
 70
     1
102
RTVSPropertyOp1
 70
     1
102
RTVSPropertyOp2
 70
     1
102
RTVSPropertyOp3
 70
     1
102
RTVSPropertyOp4
 70
     1
102
RTVSPropertyOp5
 70
     1
102
RTVSPropertyOp6
 70
     1
102
RTVSPropertyOp7
 70
     1
102
RTVSPropertyOp8
 70
     1
102
RTVSPropertyOp9
 70
     1
102
RTVSPropertyOp10
 70
     1
102
RTVSPropertyOp11
 70
     1
102
RTVSPropertyOp12
 70
     1
102
RTVSPropertyOp13
 70
     1
102
RTVSPropertyOp14
 70
     1
102
RTVSPropertyOp15
 70
     1
102
RTVSPropertyOp16
 70
     1
102
RTVSPropertyOp17
 70
     1
102
RTVSPropertyOp18
 70
     1
102
RTVSPropertyOp19
 70
     1
102
RTVSPropertyOp20
 70
     1
102
RTVSPropertyOp21
 70
     1
102
RTVSPropertyOp22
 70
     1
102
RTVSPropertyOp23
 70
     1
102
RTVSPropertyOp24
 70
     1
102
RTVSPropertyOp25
 70
     1
102
RTVSPropertyOp26
 70
     1
102
RTVSPropertyOp27
 70
     1
102
RTVSPropertyOp28
 70
     1
102
RTVSPropertyOp29
 70
     1
102
RTVSPropertyOp30
 70
     1
102
RTVSPropertyOp31
 70
     1
102
RTVSPropertyOp32
 70
     1
  0
XRECORD
  5
1895F
102
{ACAD_REACTORS
330
1895E
102
}
330
1895E
100
AcDbXrecord
280
     1
102
RTVSPropertyOp0
 70
     1
102
RTVSPropertyOp1
 70
     1
102
RTVSPropertyOp2
 70
     1
102
RTVSPropertyOp3
 70
     1
102
RTVSPropertyOp4
 70
     1
102
RTVSPropertyOp5
 70
     1
102
RTVSPropertyOp6
 70
     1
102
RTVSPropertyOp7
 70
     1
102
RTVSPropertyOp8
 70
     1
102
RTVSPropertyOp9
 70
     1
102
RTVSPropertyOp10
 70
     1
102
RTVSPropertyOp11
 70
     1
102
RTVSPropertyOp12
 70
     1
102
RTVSPropertyOp13
 70
     1
102
RTVSPropertyOp14
 70
     1
102
RTVSPropertyOp15
 70
     1
102
RTVSPropertyOp16
 70
     1
102
RTVSPropertyOp17
 70
     1
102
RTVSPropertyOp18
 70
     1
102
RTVSPropertyOp19
 70
     1
102
RTVSPropertyOp20
 70
     1
102
RTVSPropertyOp21
 70
     1
102
RTVSPropertyOp22
 70
     1
102
RTVSPropertyOp23
 70
     1
102
RTVSPropertyOp24
 70
     1
102
RTVSPropertyOp25
 70
     1
102
RTVSPropertyOp26
 70
     1
102
RTVSPropertyOp27
 70
     1
102
RTVSPropertyOp28
 70
     1
102
RTVSPropertyOp29
 70
     1
102
RTVSPropertyOp30
 70
     1
102
RTVSPropertyOp31
 70
     1
102
RTVSPropertyOp32
 70
     1
  0
XRECORD
  5
1897B
102
{ACAD_REACTORS
330
1897A
102
}
330
1897A
100
AcDbXrecord
280
     1
102
RTVSPropertyOp0
 70
     0
102
RTVSPropertyOp1
 70
     0
102
RTVSPropertyOp2
 70
     0
102
RTVSPropertyOp3
 70
     0
102
RTVSPropertyOp4
 70
     0
102
RTVSPropertyOp5
 70
     0
102
RTVSPropertyOp6
 70
     0
102
RTVSPropertyOp7
 70
     0
102
RTVSPropertyOp8
 70
     0
102
RTVSPropertyOp9
 70
     0
102
RTVSPropertyOp10
 70
     0
102
RTVSPropertyOp11
 70
     0
102
RTVSPropertyOp12
 70
     0
102
RTVSPropertyOp13
 70
     0
102
RTVSPropertyOp14
 70
     2
102
RTVSPropertyOp15
 70
     0
102
RTVSPropertyOp16
 70
     0
102
RTVSPropertyOp17
 70
     0
102
RTVSPropertyOp18
 70
     0
102
RTVSPropertyOp19
 70
     0
102
RTVSPropertyOp20
 70
     0
102
RTVSPropertyOp21
 70
     0
102
RTVSPropertyOp22
 70
     0
102
RTVSPropertyOp23
 70
     0
102
RTVSPropertyOp24
 70
     0
102
RTVSPropertyOp25
 70
     0
102
RTVSPropertyOp26
 70
     0
102
RTVSPropertyOp27
 70
     0
102
RTVSPropertyOp28
 70
     0
102
RTVSPropertyOp29
 70
     0
102
RTVSPropertyOp30
 70
     0
102
RTVSPropertyOp31
 70
     0
102
RTVSPropertyOp32
 70
     0
  0
XRECORD
  5
1896B
102
{ACAD_REACTORS
330
1896A
102
}
330
1896A
100
AcDbXrecord
280
     1
102
RTVSPropertyOp0
 70
     1
102
RTVSPropertyOp1
 70
     1
102
RTVSPropertyOp2
 70
     1
102
RTVSPropertyOp3
 70
     1
102
RTVSPropertyOp4
 70
     1
102
RTVSPropertyOp5
 70
     1
102
RTVSPropertyOp6
 70
     1
102
RTVSPropertyOp7
 70
     1
102
RTVSPropertyOp8
 70
     1
102
RTVSPropertyOp9
 70
     1
102
RTVSPropertyOp10
 70
     1
102
RTVSPropertyOp11
 70
     1
102
RTVSPropertyOp12
 70
     1
102
RTVSPropertyOp13
 70
     1
102
RTVSPropertyOp14
 70
     1
102
RTVSPropertyOp15
 70
     1
102
RTVSPropertyOp16
 70
     1
102
RTVSPropertyOp17
 70
     1
102
RTVSPropertyOp18
 70
     1
102
RTVSPropertyOp19
 70
     1
102
RTVSPropertyOp20
 70
     1
102
RTVSPropertyOp21
 70
     1
102
RTVSPropertyOp22
 70
     1
102
RTVSPropertyOp23
 70
     1
102
RTVSPropertyOp24
 70
     1
102
RTVSPropertyOp25
 70
     1
102
RTVSPropertyOp26
 70
     1
102
RTVSPropertyOp27
 70
     1
102
RTVSPropertyOp28
 70
     1
102
RTVSPropertyOp29
 70
     1
102
RTVSPropertyOp30
 70
     1
102
RTVSPropertyOp31
 70
     1
102
RTVSPropertyOp32
 70
     1
  0
XRECORD
  5
1897D
102
{ACAD_REACTORS
330
1897C
102
}
330
1897C
100
AcDbXrecord
280
     1
102
RTVSPropertyOp0
 70
     0
102
RTVSPropertyOp1
 70
     0
102
RTVSPropertyOp2
 70
     0
102
RTVSPropertyOp3
 70
     0
102
RTVSPropertyOp4
 70
     0
102
RTVSPropertyOp5
 70
     0
102
RTVSPropertyOp6
 70
     0
102
RTVSPropertyOp7
 70
     0
102
RTVSPropertyOp8
 70
     0
102
RTVSPropertyOp9
 70
     0
102
RTVSPropertyOp10
 70
     0
102
RTVSPropertyOp11
 70
     0
102
RTVSPropertyOp12
 70
     0
102
RTVSPropertyOp13
 70
     0
102
RTVSPropertyOp14
 70
     2
102
RTVSPropertyOp15
 70
     0
102
RTVSPropertyOp16
 70
     0
102
RTVSPropertyOp17
 70
     0
102
RTVSPropertyOp18
 70
     0
102
RTVSPropertyOp19
 70
     0
102
RTVSPropertyOp20
 70
     0
102
RTVSPropertyOp21
 70
     0
102
RTVSPropertyOp22
 70
     0
102
RTVSPropertyOp23
 70
     0
102
RTVSPropertyOp24
 70
     0
102
RTVSPropertyOp25
 70
     0
102
RTVSPropertyOp26
 70
     0
102
RTVSPropertyOp27
 70
     0
102
RTVSPropertyOp28
 70
     0
102
RTVSPropertyOp29
 70
     0
102
RTVSPropertyOp30
 70
     0
102
RTVSPropertyOp31
 70
     0
102
RTVSPropertyOp32
 70
     0
  0
XRECORD
  5
18963
102
{ACAD_REACTORS
330
18962
102
}
330
18962
100
AcDbXrecord
280
     1
102
RTVSPropertyOp0
 70
     1
102
RTVSPropertyOp1
 70
     1
102
RTVSPropertyOp2
 70
     1
102
RTVSPropertyOp3
 70
     1
102
RTVSPropertyOp4
 70
     1
102
RTVSPropertyOp5
 70
     1
102
RTVSPropertyOp6
 70
     1
102
RTVSPropertyOp7
 70
     1
102
RTVSPropertyOp8
 70
     1
102
RTVSPropertyOp9
 70
     1
102
RTVSPropertyOp10
 70
     1
102
RTVSPropertyOp11
 70
     1
102
RTVSPropertyOp12
 70
     1
102
RTVSPropertyOp13
 70
     1
102
RTVSPropertyOp14
 70
     1
102
RTVSPropertyOp15
 70
     1
102
RTVSPropertyOp16
 70
     1
102
RTVSPropertyOp17
 70
     1
102
RTVSPropertyOp18
 70
     1
102
RTVSPropertyOp19
 70
     1
102
RTVSPropertyOp20
 70
     1
102
RTVSPropertyOp21
 70
     1
102
RTVSPropertyOp22
 70
     1
102
RTVSPropertyOp23
 70
     1
102
RTVSPropertyOp24
 70
     1
102
RTVSPropertyOp25
 70
     1
102
RTVSPropertyOp26
 70
     1
102
RTVSPropertyOp27
 70
     1
102
RTVSPropertyOp28
 70
     1
102
RTVSPropertyOp29
 70
     1
102
RTVSPropertyOp30
 70
     1
102
RTVSPropertyOp31
 70
     1
102
RTVSPropertyOp32
 70
     1
  0
XRECORD
  5
18979
102
{ACAD_REACTORS
330
18978
102
}
330
18978
100
AcDbXrecord
280
     1
102
RTVSPropertyOp0
 70
     1
102
RTVSPropertyOp1
 70
     1
102
RTVSPropertyOp2
 70
     1
102
RTVSPropertyOp3
 70
     1
102
RTVSPropertyOp4
 70
     1
102
RTVSPropertyOp5
 70
     1
102
RTVSPropertyOp6
 70
     1
102
RTVSPropertyOp7
 70
     1
102
RTVSPropertyOp8
 70
     1
102
RTVSPropertyOp9
 70
     1
102
RTVSPropertyOp10
 70
     1
102
RTVSPropertyOp11
 70
     1
102
RTVSPropertyOp12
 70
     1
102
RTVSPropertyOp13
 70
     1
102
RTVSPropertyOp14
 70
     1
102
RTVSPropertyOp15
 70
     1
102
RTVSPropertyOp16
 70
     1
102
RTVSPropertyOp17
 70
     1
102
RTVSPropertyOp18
 70
     1
102
RTVSPropertyOp19
 70
     1
102
RTVSPropertyOp20
 70
     1
102
RTVSPropertyOp21
 70
     1
102
RTVSPropertyOp22
 70
     1
102
RTVSPropertyOp23
 70
     1
102
RTVSPropertyOp24
 70
     1
102
RTVSPropertyOp25
 70
     1
102
RTVSPropertyOp26
 70
     1
102
RTVSPropertyOp27
 70
     1
102
RTVSPropertyOp28
 70
     1
102
RTVSPropertyOp29
 70
     1
102
RTVSPropertyOp30
 70
     1
102
RTVSPropertyOp31
 70
     1
102
RTVSPropertyOp32
 70
     1
  0
XRECORD
  5
18977
102
{ACAD_REACTORS
330
18976
102
}
330
18976
100
AcDbXrecord
280
     1
102
RTVSPropertyOp0
 70
     1
102
RTVSPropertyOp1
 70
     1
102
RTVSPropertyOp2
 70
     1
102
RTVSPropertyOp3
 70
     1
102
RTVSPropertyOp4
 70
     1
102
RTVSPropertyOp5
 70
     1
102
RTVSPropertyOp6
 70
     1
102
RTVSPropertyOp7
 70
     1
102
RTVSPropertyOp8
 70
     1
102
RTVSPropertyOp9
 70
     1
102
RTVSPropertyOp10
 70
     1
102
RTVSPropertyOp11
 70
     1
102
RTVSPropertyOp12
 70
     1
102
RTVSPropertyOp13
 70
     1
102
RTVSPropertyOp14
 70
     1
102
RTVSPropertyOp15
 70
     1
102
RTVSPropertyOp16
 70
     1
102
RTVSPropertyOp17
 70
     1
102
RTVSPropertyOp18
 70
     1
102
RTVSPropertyOp19
 70
     1
102
RTVSPropertyOp20
 70
     1
102
RTVSPropertyOp21
 70
     1
102
RTVSPropertyOp22
 70
     1
102
RTVSPropertyOp23
 70
     1
102
RTVSPropertyOp24
 70
     1
102
RTVSPropertyOp25
 70
     1
102
RTVSPropertyOp26
 70
     1
102
RTVSPropertyOp27
 70
     1
102
RTVSPropertyOp28
 70
     1
102
RTVSPropertyOp29
 70
     1
102
RTVSPropertyOp30
 70
     1
102
RTVSPropertyOp31
 70
     1
102
RTVSPropertyOp32
 70
     1
  0
XRECORD
  5
18971
102
{ACAD_REACTORS
330
18970
102
}
330
18970
100
AcDbXrecord
280
     1
102
RTVSPropertyOp0
 70
     1
102
RTVSPropertyOp1
 70
     1
102
RTVSPropertyOp2
 70
     1
102
RTVSPropertyOp3
 70
     1
102
RTVSPropertyOp4
 70
     1
102
RTVSPropertyOp5
 70
     1
102
RTVSPropertyOp6
 70
     1
102
RTVSPropertyOp7
 70
     1
102
RTVSPropertyOp8
 70
     1
102
RTVSPropertyOp9
 70
     1
102
RTVSPropertyOp10
 70
     1
102
RTVSPropertyOp11
 70
     1
102
RTVSPropertyOp12
 70
     1
102
RTVSPropertyOp13
 70
     1
102
RTVSPropertyOp14
 70
     1
102
RTVSPropertyOp15
 70
     1
102
RTVSPropertyOp16
 70
     1
102
RTVSPropertyOp17
 70
     1
102
RTVSPropertyOp18
 70
     1
102
RTVSPropertyOp19
 70
     1
102
RTVSPropertyOp20
 70
     1
102
RTVSPropertyOp21
 70
     1
102
RTVSPropertyOp22
 70
     1
102
RTVSPropertyOp23
 70
     1
102
RTVSPropertyOp24
 70
     1
102
RTVSPropertyOp25
 70
     1
102
RTVSPropertyOp26
 70
     1
102
RTVSPropertyOp27
 70
     1
102
RTVSPropertyOp28
 70
     1
102
RTVSPropertyOp29
 70
     1
102
RTVSPropertyOp30
 70
     1
102
RTVSPropertyOp31
 70
     1
102
RTVSPropertyOp32
 70
     1
  0
XRECORD
  5
18973
102
{ACAD_REACTORS
330
18972
102
}
330
18972
100
AcDbXrecord
280
     1
102
RTVSPropertyOp0
 70
     1
102
RTVSPropertyOp1
 70
     1
102
RTVSPropertyOp2
 70
     1
102
RTVSPropertyOp3
 70
     1
102
RTVSPropertyOp4
 70
     1
102
RTVSPropertyOp5
 70
     1
102
RTVSPropertyOp6
 70
     1
102
RTVSPropertyOp7
 70
     1
102
RTVSPropertyOp8
 70
     1
102
RTVSPropertyOp9
 70
     1
102
RTVSPropertyOp10
 70
     1
102
RTVSPropertyOp11
 70
     1
102
RTVSPropertyOp12
 70
     1
102
RTVSPropertyOp13
 70
     1
102
RTVSPropertyOp14
 70
     1
102
RTVSPropertyOp15
 70
     1
102
RTVSPropertyOp16
 70
     1
102
RTVSPropertyOp17
 70
     1
102
RTVSPropertyOp18
 70
     1
102
RTVSPropertyOp19
 70
     1
102
RTVSPropertyOp20
 70
     1
102
RTVSPropertyOp21
 70
     1
102
RTVSPropertyOp22
 70
     1
102
RTVSPropertyOp23
 70
     1
102
RTVSPropertyOp24
 70
     1
102
RTVSPropertyOp25
 70
     1
102
RTVSPropertyOp26
 70
     1
102
RTVSPropertyOp27
 70
     1
102
RTVSPropertyOp28
 70
     1
102
RTVSPropertyOp29
 70
     1
102
RTVSPropertyOp30
 70
     1
102
RTVSPropertyOp31
 70
     1
102
RTVSPropertyOp32
 70
     1
  0
XRECORD
  5
18969
102
{ACAD_REACTORS
330
18968
102
}
330
18968
100
AcDbXrecord
280
     1
102
RTVSPropertyOp0
 70
     1
102
RTVSPropertyOp1
 70
     1
102
RTVSPropertyOp2
 70
     1
102
RTVSPropertyOp3
 70
     1
102
RTVSPropertyOp4
 70
     1
102
RTVSPropertyOp5
 70
     1
102
RTVSPropertyOp6
 70
     1
102
RTVSPropertyOp7
 70
     1
102
RTVSPropertyOp8
 70
     1
102
RTVSPropertyOp9
 70
     1
102
RTVSPropertyOp10
 70
     1
102
RTVSPropertyOp11
 70
     1
102
RTVSPropertyOp12
 70
     1
102
RTVSPropertyOp13
 70
     1
102
RTVSPropertyOp14
 70
     1
102
RTVSPropertyOp15
 70
     1
102
RTVSPropertyOp16
 70
     1
102
RTVSPropertyOp17
 70
     1
102
RTVSPropertyOp18
 70
     1
102
RTVSPropertyOp19
 70
     1
102
RTVSPropertyOp20
 70
     1
102
RTVSPropertyOp21
 70
     1
102
RTVSPropertyOp22
 70
     1
102
RTVSPropertyOp23
 70
     1
102
RTVSPropertyOp24
 70
     1
102
RTVSPropertyOp25
 70
     1
102
RTVSPropertyOp26
 70
     1
102
RTVSPropertyOp27
 70
     1
102
RTVSPropertyOp28
 70
     1
102
RTVSPropertyOp29
 70
     1
102
RTVSPropertyOp30
 70
     1
102
RTVSPropertyOp31
 70
     1
102
RTVSPropertyOp32
 70
     1
  0
XRECORD
  5
1895D
102
{ACAD_REACTORS
330
1895C
102
}
330
1895C
100
AcDbXrecord
280
     1
102
RTVSPropertyOp0
 70
     1
102
RTVSPropertyOp1
 70
     1
102
RTVSPropertyOp2
 70
     1
102
RTVSPropertyOp3
 70
     1
102
RTVSPropertyOp4
 70
     1
102
RTVSPropertyOp5
 70
     1
102
RTVSPropertyOp6
 70
     1
102
RTVSPropertyOp7
 70
     1
102
RTVSPropertyOp8
 70
     1
102
RTVSPropertyOp9
 70
     1
102
RTVSPropertyOp10
 70
     1
102
RTVSPropertyOp11
 70
     1
102
RTVSPropertyOp12
 70
     1
102
RTVSPropertyOp13
 70
     1
102
RTVSPropertyOp14
 70
     1
102
RTVSPropertyOp15
 70
     1
102
RTVSPropertyOp16
 70
     1
102
RTVSPropertyOp17
 70
     1
102
RTVSPropertyOp18
 70
     1
102
RTVSPropertyOp19
 70
     1
102
RTVSPropertyOp20
 70
     1
102
RTVSPropertyOp21
 70
     1
102
RTVSPropertyOp22
 70
     1
102
RTVSPropertyOp23
 70
     1
102
RTVSPropertyOp24
 70
     1
102
RTVSPropertyOp25
 70
     1
102
RTVSPropertyOp26
 70
     1
102
RTVSPropertyOp27
 70
     1
102
RTVSPropertyOp28
 70
     1
102
RTVSPropertyOp29
 70
     1
102
RTVSPropertyOp30
 70
     1
102
RTVSPropertyOp31
 70
     1
102
RTVSPropertyOp32
 70
     1
  0
XRECORD
  5
18975
102
{ACAD_REACTORS
330
18974
102
}
330
18974
100
AcDbXrecord
280
     1
102
RTVSPropertyOp0
 70
     1
102
RTVSPropertyOp1
 70
     1
102
RTVSPropertyOp2
 70
     1
102
RTVSPropertyOp3
 70
     1
102
RTVSPropertyOp4
 70
     1
102
RTVSPropertyOp5
 70
     1
102
RTVSPropertyOp6
 70
     1
102
RTVSPropertyOp7
 70
     1
102
RTVSPropertyOp8
 70
     1
102
RTVSPropertyOp9
 70
     1
102
RTVSPropertyOp10
 70
     1
102
RTVSPropertyOp11
 70
     1
102
RTVSPropertyOp12
 70
     1
102
RTVSPropertyOp13
 70
     1
102
RTVSPropertyOp14
 70
     1
102
RTVSPropertyOp15
 70
     1
102
RTVSPropertyOp16
 70
     1
102
RTVSPropertyOp17
 70
     1
102
RTVSPropertyOp18
 70
     1
102
RTVSPropertyOp19
 70
     1
102
RTVSPropertyOp20
 70
     1
102
RTVSPropertyOp21
 70
     1
102
RTVSPropertyOp22
 70
     1
102
RTVSPropertyOp23
 70
     1
102
RTVSPropertyOp24
 70
     1
102
RTVSPropertyOp25
 70
     1
102
RTVSPropertyOp26
 70
     1
102
RTVSPropertyOp27
 70
     1
102
RTVSPropertyOp28
 70
     1
102
RTVSPropertyOp29
 70
     1
102
RTVSPropertyOp30
 70
     1
102
RTVSPropertyOp31
 70
     1
102
RTVSPropertyOp32
 70
     1
  0
ENDSEC
  0
EOF
