  0
SECTION
  2
HEADER
  9
$ACADVER
  1
AC1009
  9
$INSBASE
 10
0
 20
0
 30
0
  9
$EXTMIN
 10
0
 20
0
  9
$EXTMAX
 10
594
 20
420
  9
$LIMMIN
 10
0
 20
0
  9
$LIMMAX
 10
594
 20
420
  9
$LTSCALE
 40
2
  0
ENDSEC
  0
SECTION
  2
TABLES
  0
TABLE
  2
LTYPE
 70
     9
  0
LTYPE
  2
CONTINUOUS
 70
    64
  3
実線
 72
    65
 73
     0
 40
0.0
  0
LTYPE
  2
DASHED1
 70
    64
  3
--  --  --  --  --  --  --  --  
 72
    65
 73
     2
 40
2.5
 49
1.25
 49
-1.25
  0
LTYPE
  2
DASHED2
 70
    64
  3
----    ----    ----    ----    
 72
    65
 73
     2
 40
5.0
 49
2.5
 49
-2.5
  0
LTYPE
  2
DASHED3
 70
    64
  3
------  ------  ------  ------  
 72
    65
 73
     2
 40
5.0
 49
3.75
 49
-1.25
  0
LTYPE
  2
CENTER1
 70
    64
  3
----- - ----- - ----- - ----- - 
 72
    65
 73
     4
 40
10.0
 49
6.25
 49
-1.25
 49
1.25
 49
-1.25
  0
LTYPE
  2
CENTER2
 70
    64
  3
----------  --  ----------  --  
 72
    65
 73
     4
 40
20.0
 49
12.5
 49
-2.5
 49
2.5
 49
-2.5
  0
LTYPE
  2
PHANTOM1
 70
    64
  3
--- - - --- - - --- - - --- - - 
 72
    65
 73
     6
 40
10.0
 49
3.25
 49
-1.25
 49
1.25
 49
-1.25
 49
1.25
 49
-1.25
  0
LTYPE
  2
PHANTOM2
 70
    64
  3
--------  -  -  --------  -  -  
 72
    65
 73
     6
 40
20.0
 49
10.0
 49
-2.5
 49
1.25
 49
-2.5
 49
1.25
 49
-2.5
  0
LTYPE
  2
DOT
 70
    64
  3
-   -   -   -   -   -   -   -   
 72
    65
 73
     2
 40
2.5
 49
0.625
 49
-1.875
  0
LTYPE
  2
DUMMY
 70
    64
  3
ダミー
 72
    65
 73
     0
 40
0.0
  0
LTYPE
  2
RAND1
 70
    64
  3
ランダム線1
 72
    65
 73
     4
 40
10.0
 49
1.0
 49
-2.0
 49
3.0
 49
-4.0
  0
LTYPE
  2
RAND2
 70
    64
  3
ランダム線2
 72
    65
 73
     4
 40
14.0
 49
2.0
 49
-3.0
 49
4.0
 49
-5.0
  0
LTYPE
  2
RAND3
 70
    64
  3
ランダム線3
 72
    65
 73
     4
 40
18.0
 49
3.0
 49
-4.0
 49
5.0
 49
-6.0
  0
LTYPE
  2
RAND4
 70
    64
  3
ランダム線4
 72
    65
 73
     4
 40
22.0
 49
4.0
 49
-5.0
 49
6.0
 49
-7.0
  0
LTYPE
  2
RAND5
 70
    64
  3
ランダム線5
 72
    65
 73
     4
 40
26.0
 49
5.0
 49
-6.0
 49
7.0
 49
-8.0
  0
LTYPE
  2
LONG1
 70
    64
  3
----------  --  ----------  --  
 72
    65
 73
     4
 40
40.0
 49
32.5
 49
-2.5
 49
2.5
 49
-2.5
  0
LTYPE
  2
LONG2
 70
    64
  3
--------  -  -  --------  -  -  
 72
    65
 73
     6
 40
40.0
 49
30.0
 49
-2.5
 49
1.25
 49
-2.5
 49
1.25
 49
-2.5
  0
LTYPE
  2
LONG3
 70
    64
  3
+++++++++++++++..+++++++++++++++
 72
    65
 73
     2
 40
40.0
 49
37.5
 49
-2.5
  0
LTYPE
  2
LONG4
 70
    64
  3
+++++++++++++++..+++++++++++++++
 72
    65
 73
     2
 40
80.0
 49
75.0
 49
-5.0
  0
LTYPE
  2
LONG5
 70
    64
  3
----------  --  ----------  --  
 72
    65
 73
     4
 40
60.0
 49
37.5
 49
-7.5
 49
7.5
 49
-7.5
  0
LTYPE
  2
dashed
 70
   64
  3
-------   -------------   ------
 72
   65
 73
    2
 40
7.5
 49
6
 49
-1.5
  0
LTYPE
  2
dashed_spaced
 70
   64
  3
----        --------        ----
 72
   65
 73
    2
 40
12
 49
6
 49
-6
  0
LTYPE
  2
long_dashed_dotted
 70
   64
  3
------------- --- --------------
 72
   65
 73
    4
 40
15.25
 49
12
 49
-1.5
 49
0.25
 49
-1.5
  0
LTYPE
  2
long_dashed_double-dotted
 70
   64
  3
----------- --- --- ------------
 72
   65
 73
    6
 40
17
 49
12
 49
-1.5
 49
0.25
 49
-1.5
 49
0.25
 49
-1.5
  0
LTYPE
  2
long_dashed_triplicate-dotted
 70
   64
  3
--------- --- --- --- ----------
 72
   65
 73
    8
 40
18.75
 49
12
 49
-1.5
 49
0.25
 49
-1.5
 49
0.25
 49
-1.5
 49
0.25
 49
-1.5
  0
LTYPE
  2
dotted
 70
   64
  3
   -       -       -       -    
 72
   65
 73
    2
 40
1.75
 49
0.25
 49
-1.5
  0
LTYPE
  2
chain
 70
   64
  3
-------------- -- --------------
 72
   65
 73
    4
 40
18.5
 49
12
 49
-1.5
 49
3.5
 49
-1.5
  0
LTYPE
  2
chain_double_dash
 70
   64
  3
------------ -- -- -------------
 72
   65
 73
    6
 40
23.5
 49
12
 49
-1.5
 49
3.5
 49
-1.5
 49
3.5
 49
-1.5
  0
LTYPE
  2
dashed_dotted
 70
   64
  3
-----------     -     ----------
 72
   65
 73
    4
 40
9.25
 49
6
 49
-1.5
 49
0.25
 49
-1.5
  0
LTYPE
  2
double-dashed_dotted
 70
   64
  3
------   -----------   -   -----
 72
   65
 73
    6
 40
16.75
 49
6
 49
-1.5
 49
6
 49
-1.5
 49
0.25
 49
-1.5
  0
LTYPE
  2
dashed_double-dotted
 70
   64
  3
---------    -    -    ---------
 72
   65
 73
    6
 40
11
 49
6
 49
-1.5
 49
0.25
 49
-1.5
 49
0.25
 49
-1.5
  0
LTYPE
  2
double-dashed_double-dotted
 70
   64
  3
-----   ---------   -   -   ----
 72
   65
 73
    8
 40
18.5
 49
6
 49
-1.5
 49
6
 49
-1.5
 49
0.25
 49
-1.5
 49
0.25
 49
-1.5
  0
LTYPE
  2
dashed_triplicate-dotted
 70
   64
  3
-------    -    -    -    ------
 72
   65
 73
    8
 40
12.75
 49
6
 49
-1.5
 49
0.25
 49
-1.5
 49
0.25
 49
-1.5
 49
0.25
 49
-1.5
  0
LTYPE
  2
double-dashed_triplicate-dotted
 70
   64
  3
-----  ---------  -  -  -  -----
 72
   65
 73
   10
 40
20.25
 49
6
 49
-1.5
 49
6
 49
-1.5
 49
0.25
 49
-1.5
 49
0.25
 49
-1.5
 49
0.25
 49
-1.5
  0
LTYPE
  2
undefined
 70
   64
  3
--------------------------------
 72
   65
 73
    0
 40
0
  0
ENDTAB
  0
TABLE
  2
STYLE
  5
3
100
AcDbSymbolTable
 70
     1
  0
STYLE
  5
10
100
AcDbSymbolTableRecord
100
AcDbTextStyleTableRecord
  2
STANDARD
 70
     0
 40
0.0
 41
1.0
 50
0.0
 71
     0
 42
0.2
  3
txt
  4
bigfont.shx
  0
STYLE
  5
26
100
AcDbSymbolTableRecord
100
AcDbTextStyleTableRecord
  2
TATEGAKI
 70
    68
 40
0.0
 41
1.0
 50
0.0
 71
     0
 42
1.0
  3
txt
  4
bigfont.shx
  0
ENDTAB
  0
TABLE
  2
LAYER
 70
    2
  0
LAYER
  2
_1-0_
 70
   64
 62
    7
  6
CONTINUOUS
  0
LAYER
  2
ADD_LINE
 70
   64
 62
    7
  6
CONTINUOUS
  0
ENDTAB
  0
ENDSEC
  0
SECTION
  2
BLOCKS
  0
ENDSEC
  0
SECTION
  2
ENTITIES
  0
LINE
  8
_1-0_
  6
CONTINUOUS
 62
    7
 10
-30.667269439534266
 20
365.27835639995629
 11
222.4096536373888
 21
365.27835639995629
  0
LINE
  8
_1-0_
  6

 62
    3
 10
118.85803439094084
 20
-212.75737031297899
 11
118.85803439094084
 21
-133.97469431297901
  0
LINE
  8
_1-0_
  6

 62
    3
 10
118.85803439094084
 20
-83.974695312979009
 11
118.85803439094084
 21
-108.97469431297901
  0
LINE
  8
_1-0_
  6
CONTINUOUS
 62
    3
 10
70.358035390940842
 20
-83.974695312979009
 11
199.14071039094077
 21
-83.974694312979011
  0
LINE
  8
_1-0_
  6
CONTINUOUS
 62
    3
 10
70.358031390940852
 20
-213.2573603129789
 11
70.358031390940852
 21
-83.974695312979009
  0
LINE
  8
_1-0_
  6

 62
    3
 10
170.35803439094084
 20
-132.47469431297901
 11
199.14071039094077
 21
-132.47469431297901
  0
LINE
  8
_1-0_
  6
CONTINUOUS
 62
    7
 10
110.30429639094078
 20
-117.22469431297901
 11
105.41177339094079
 21
-117.22469431297901
  0
LINE
  8
_1-0_
  6
CONTINUOUS
 62
    7
 10
105.41177339094079
 20
-117.22469431297901
 11
102.95803439094087
 21
-121.47469431297901
  0
LINE
  8
_1-0_
  6
CONTINUOUS
 62
    7
 10
102.95803439094087
 20
-121.47469431297901
 11
105.41177339094079
 21
-125.72469431297901
  0
LINE
  8
_1-0_
  6
CONTINUOUS
 62
    7
 10
105.41177339094079
 20
-125.72469431297901
 11
110.30429639094078
 21
-125.72469431297901
  0
LINE
  8
_1-0_
  6
CONTINUOUS
 62
    7
 10
110.30429639094078
 20
-125.72469431297901
 11
112.75803439094082
 21
-121.47469431297901
  0
LINE
  8
_1-0_
  6
CONTINUOUS
 62
    7
 10
112.75803439094082
 20
-121.47469431297901
 11
110.30429639094078
 21
-117.22469431297901
  0
CIRCLE
  8
_1-0_
  6
CONTINUOUS
 62
    7
 10
107.85803439094084
 20
-121.470377312979
 40
4.2456829999999997
  0
CIRCLE
  8
_1-0_
  6
CONTINUOUS
 62
    3
 10
107.85803439094084
 20
-121.470377312979
 40
5.25
  0
LINE
  8
_1-0_
  6
CONTINUOUS
 62
    7
 10
155.41177339094079
 20
-117.22469431297901
 11
152.95803439094087
 21
-121.47469431297901
  0
LINE
  8
_1-0_
  6
CONTINUOUS
 62
    7
 10
160.30429639094078
 20
-117.22469431297901
 11
155.41177339094079
 21
-117.22469431297901
  0
LINE
  8
_1-0_
  6
CONTINUOUS
 62
    7
 10
162.75803439094082
 20
-121.47469431297901
 11
160.30429639094078
 21
-117.22469431297901
  0
LINE
  8
_1-0_
  6
CONTINUOUS
 62
    7
 10
160.30429639094078
 20
-125.72469431297901
 11
162.75803439094082
 21
-121.47469431297901
  0
LINE
  8
_1-0_
  6
CONTINUOUS
 62
    7
 10
155.41177339094079
 20
-125.72469431297901
 11
160.30429639094078
 21
-125.72469431297901
  0
LINE
  8
_1-0_
  6
CONTINUOUS
 62
    7
 10
152.95803439094087
 20
-121.47469431297901
 11
155.41177339094079
 21
-125.72469431297901
  0
CIRCLE
  8
_1-0_
  6
CONTINUOUS
 62
    7
 10
157.85803439094084
 20
-121.470377312979
 40
4.2456829999999997
  0
CIRCLE
  8
_1-0_
  6
CONTINUOUS
 62
    3
 10
157.85803439094084
 20
-121.470377312979
 40
5.25
  0
LINE
  8
_1-0_
  6

 62
    3
 10
71.858034390940844
 20
-83.974697312979004
 11
71.858034390940844
 21
-212.75737031297899
  0
LINE
  8
_1-0_
  6
CONTINUOUS
 62
    7
 10
130.41177339094079
 20
-117.22469431297901
 11
127.95803439094087
 21
-121.47469431297901
  0
LINE
  8
_1-0_
  6
CONTINUOUS
 62
    7
 10
135.30429639094078
 20
-117.22469431297901
 11
130.41177339094079
 21
-117.22469431297901
  0
LINE
  8
_1-0_
  6
CONTINUOUS
 62
    7
 10
137.75803439094082
 20
-121.47469431297901
 11
135.30429639094078
 21
-117.22469431297901
  0
LINE
  8
_1-0_
  6
CONTINUOUS
 62
    7
 10
135.30429639094078
 20
-125.72469431297901
 11
137.75803439094082
 21
-121.47469431297901
  0
LINE
  8
_1-0_
  6
CONTINUOUS
 62
    7
 10
130.41177339094079
 20
-125.72469431297901
 11
135.30429639094078
 21
-125.72469431297901
  0
LINE
  8
_1-0_
  6
CONTINUOUS
 62
    7
 10
127.95803439094087
 20
-121.47469431297901
 11
130.41177339094079
 21
-125.72469431297901
  0
CIRCLE
  8
_1-0_
  6
CONTINUOUS
 62
    7
 10
132.85803439094084
 20
-121.470377312979
 40
4.2456829999999997
  0
LINE
  8
_1-0_
  6
CONTINUOUS
 62
    3
 10
170.35803439094084
 20
-108.97469431297901
 11
170.35803439094084
 21
-133.97469431297901
  0
LINE
  8
_1-0_
  6
CONTINUOUS
 62
    3
 10
156.10803439094084
 20
-198.47469431297895
 11
156.10803439094084
 21
-144.47469431297895
  0
ARC
  8
_1-0_
  6
CONTINUOUS
 62
    3
 10
150.60803439094084
 20
-198.47469431297895
 40
5.5
 50
270
 51
0
  0
LINE
  8
_1-0_
  6
CONTINUOUS
 62
    3
 10
150.60803439094084
 20
-203.97469431297895
 11
120.35803439094084
 21
-203.97469431297895
  0
LINE
  8
_1-0_
  6
CONTINUOUS
 62
    3
 10
159.60803439094084
 20
-198.47469431297895
 11
159.60803439094084
 21
-144.47469431297895
  0
ARC
  8
_1-0_
  6
CONTINUOUS
 62
    3
 10
165.10803439094084
 20
-198.47469431297895
 40
5.5
 50
180
 51
270
  0
LINE
  8
_1-0_
  6
CONTINUOUS
 62
    3
 10
165.10803439094084
 20
-203.97469431297895
 11
195.35803439094084
 21
-203.97469431297895
  0
ARC
  8
_1-0_
  6
CONTINUOUS
 62
    3
 10
150.60803439094084
 20
-144.47469431297895
 40
5.5
 50
0
 51
90
  0
LINE
  8
_1-0_
  6
CONTINUOUS
 62
    3
 10
150.60803439094084
 20
-138.97469431297901
 11
120.35803439094084
 21
-138.97469431297901
  0
LINE
  8
_1-0_
  6
CONTINUOUS
 62
    3
 10
165.10803439094084
 20
-138.97469431297901
 11
195.35803439094084
 21
-138.97469431297901
  0
ARC
  8
_1-0_
  6
CONTINUOUS
 62
    3
 10
165.10803439094084
 20
-144.47469431297895
 40
5.5
 50
90
 51
180
  0
LINE
  8
_1-0_
  6
CONTINUOUS
 62
    3
 10
195.35803439094084
 20
-208.97469431297895
 11
120.35803439094084
 21
-208.97469431297895
  0
LINE
  8
_1-0_
  6
CONTINUOUS
 62
    3
 10
195.35803439094084
 20
-133.97469431297901
 11
195.35803439094084
 21
-138.97469431297901
  0
LINE
  8
_1-0_
  6
CONTINUOUS
 62
    3
 10
195.35803439094084
 20
-203.97469431297895
 11
195.35803439094084
 21
-208.97469431297895
  0
LINE
  8
_1-0_
  6
CONTINUOUS
 62
    3
 10
95.358034390940844
 20
-108.97469431297901
 11
170.35803439094084
 21
-108.97469431297901
  0
LINE
  8
_1-0_
  6
CONTINUOUS
 62
    3
 10
95.358034390940844
 20
-133.97469431297901
 11
95.358034390940844
 21
-108.97469431297901
  0
LINE
  8
_1-0_
  6
CONTINUOUS
 62
    3
 10
95.358034390940844
 20
-133.97469431297901
 11
199.14071039094077
 21
-133.97469431297901
  0
LINE
  8
_1-0_
  6
CONTINUOUS
 62
    3
 10
120.35803439094084
 20
-133.97469431297901
 11
120.35803439094084
 21
-212.75737031297899
  0
LINE
  8
_1-0_
  6

 62
    3
 10
120.35803439094084
 20
-85.474694312979011
 11
199.14071039094077
 21
-85.474694312979011
  0
LINE
  8
_1-0_
  6
CONTINUOUS
 62
    3
 10
120.35803439094084
 20
-83.974694312979011
 11
120.35803439094084
 21
-108.97469431297901
  0
LINE
  8
_1-0_
  6
CONTINUOUS
 62
    3
 10
95.358034390940844
 20
-131.97469431297901
 11
170.35803439094084
 21
-131.97469431297901
  0
CIRCLE
  8
_1-0_
  6
CONTINUOUS
 62
    3
 10
132.85803439094084
 20
-121.470377312979
 40
5.25
  0
CIRCLE
  8
_1-0_
  6
CONTINUOUS
 62
    2
 10
70.358035390940842
 20
-237.75737031297888
 40
0.2999999999999999
  0
CIRCLE
  8
_1-0_
  6
CONTINUOUS
 62
    2
 10
120.35803439094084
 20
-237.75737031297888
 40
0.2999999999999999
  0
LINE
  8
_1-0_
  6
CONTINUOUS
 62
    2
 10
120.35803439094084
 20
-214.75737031297899
 11
120.35803439094084
 21
-237.75737031297888
  0
LINE
  8
_1-0_
  6
CONTINUOUS
 62
    2
 10
120.35803439094084
 20
-237.75737031297888
 11
70.358035390940842
 21
-237.75737031297888
  0
CIRCLE
  8
_1-0_
  6
CONTINUOUS
 62
    2
 10
70.358035390940842
 20
-237.75737031297888
 40
0.2999999999999999
  0
LINE
  8
_1-0_
  6
CONTINUOUS
 62
    2
 10
70.358035390940842
 20
-214.75737031297899
 11
70.358035390940842
 21
-237.75737031297888
  0
LINE
  8
_1-0_
  6
CONTINUOUS
 62
    7
 10
77.429099147899393
 20
-83.974695258072018
 11
58.679086867527786
 21
-65.224682977700468
  0
LINE
  8
_1-0_
  6
CONTINUOUS
 62
    7
 10
70.358031390940852
 20
-91.045763124844484
 11
51.608023055665598
 21
-72.29575478956923
  0
LINE
  8
_1-0_
  6
CONTINUOUS
 62
    7
 10
138.61651116375552
 20
-65.224695312973665
 11
143.59518992605538
 21
-65.224697364364658
  0
LINE
  8
_1-0_
  6
CONTINUOUS
 62
    7
 10
141.84553878100192
 20
-65.224695312973665
 11
142.41595008648088
 21
-65.224695312973665
  0
LINE
  8
_1-0_
  6
CONTINUOUS
 62
    7
 10
156.84553878100192
 20
-65.224695312968322
 11
156.27512747543588
 21
-65.224695312968663
  0
LINE
  8
_1-0_
  6
CONTINUOUS
 62
    9
 10
154.82089408156745
 20
-57.474695312973665
 11
149.333038781277
 21
-57.474695312973665
  0
LINE
  8
_1-0_
  6
CONTINUOUS
 62
    9
 10
154.65803878127682
 20
-62.374695312973643
 11
155.80803878127691
 21
-62.374695312973643
  0
ARC
  8
_1-0_
  6
CONTINUOUS
 62
    9
 10
155.80803878127691
 20
-62.124695312973643
 40
0.2499999999999999
 50
270
 51
15.000000000089301
  0
LINE
  8
_1-0_
  6
CONTINUOUS
 62
    9
 10
154.82089408156745
 20
-57.474695312973665
 11
156.04952023784918
 21
-62.059990551697808
  0
ARC
  8
_1-0_
  6
CONTINUOUS
 62
    9
 10
154.65803878127682
 20
-62.624695312973643
 40
0.2499999999999999
 50
90.000000000000014
 51
195.00000000004502
  0
LINE
  8
_1-0_
  6
CONTINUOUS
 62
    9
 10
154.416557324705
 20
-62.689400074249477
 11
155.09588763649791
 21
-65.224695312973779
  0
LINE
  8
_1-0_
  6
CONTINUOUS
 62
    9
 10
149.333038781277
 20
-63.324695312973688
 11
154.58678417087722
 21
-63.324695312973688
  0
LINE
  8
_1-0_
  6
CONTINUOUS
 62
    9
 10
149.333038781277
 20
-62.674695312973711
 11
154.41261719579634
 21
-62.674695312973711
  0
LINE
  8
_1-0_
  6
CONTINUOUS
 62
    9
 10
143.87018348098641
 20
-57.474695312973665
 11
149.333038781277
 21
-57.474695312973665
  0
LINE
  8
_1-0_
  6
CONTINUOUS
 62
    9
 10
144.03303878127704
 20
-62.374695312973643
 11
142.88303878127695
 21
-62.374695312973643
  0
LINE
  8
_1-0_
  6
CONTINUOUS
 62
    9
 10
143.87018348098664
 20
-57.474695312973665
 11
142.64155732470491
 21
-62.059990551697808
  0
ARC
  8
_1-0_
  6
CONTINUOUS
 62
    9
 10
144.03303878127704
 20
-62.624695312973643
 40
0.2499999999999999
 50
344.99999999995498
 51
90
  0
LINE
  8
_1-0_
  6
CONTINUOUS
 62
    9
 10
144.27452023784886
 20
-62.689400074249363
 11
143.59518992605618
 21
-65.224695312973665
  0
LINE
  8
_1-0_
  6
CONTINUOUS
 62
    9
 10
149.333038781277
 20
-63.324695312973688
 11
144.10429339167663
 21
-63.324695312973688
  0
LINE
  8
_1-0_
  6
CONTINUOUS
 62
    9
 10
149.333038781277
 20
-62.674695312973711
 11
144.27846036675751
 21
-62.674695312973711
  0
ARC
  8
_1-0_
  6
CONTINUOUS
 62
    9
 10
142.88303878127695
 20
-62.124695312973643
 40
0.2499999999999999
 50
164.9999999999107
 51
270
  0
LINE
  8
_1-0_
  6
CONTINUOUS
 62
    7
 10
141.85803878100197
 20
-65.224695312973665
 11
142.42845008648092
 21
-65.224695312973665
  0
ARC
  8
_1-0_
  6
CONTINUOUS
 62
    7
 10
143.33303878100529
 20
-62.602572308481911
 40
0.1499999999999999
 50
341.39170198511317
 51
83.500000000001762
  0
LINE
  8
_1-0_
  6
CONTINUOUS
 62
    7
 10
141.858038780984
 20
-40.224695312979009
 11
141.85803878100197
 21
-65.224695312973552
  0
LINE
  8
_1-0_
  6
CONTINUOUS
 62
    7
 10
142.40803878099942
 20
-61.575911700028485
 11
142.65803878100101
 21
-61.825911700029963
  0
LINE
  8
_1-0_
  6
CONTINUOUS
 62
    7
 10
156.85803878100197
 20
-65.224695312968322
 11
156.28762747543593
 21
-65.224695312968777
  0
ARC
  8
_1-0_
  6
CONTINUOUS
 62
    7
 10
155.38303878099683
 20
-62.60257230847759
 40
0.1499999999999999
 50
96.500000000039279
 51
198.61648504280038
  0
LINE
  8
_1-0_
  6
CONTINUOUS
 62
    7
 10
156.858038780984
 20
-40.224695312973552
 11
156.85803878100174
 21
-65.224695312968322
  0
LINE
  8
_1-0_
  6
CONTINUOUS
 62
    7
 10
142.40803878099237
 20
-51.927633949571998
 11
142.40803878099942
 21
-61.575911700028371
  0
LINE
  8
_1-0_
  6
CONTINUOUS
 62
    7
 10
156.30803878099246
 20
-51.927633949564381
 11
156.30803878099928
 21
-61.575911700025983
  0
LINE
  8
_1-0_
  6
CONTINUOUS
 62
    7
 10
155.24088729094288
 20
-62.650457106435113
 11
156.05070832534571
 21
-65.054503309564495
  0
ARC
  8
_1-0_
  6
CONTINUOUS
 62
    7
 10
156.2876274754357
 20
-64.974695312968663
 40
0.2499999999999999
 50
198.61648504279918
 51
270
  0
LINE
  8
_1-0_
  6
CONTINUOUS
 62
    7
 10
143.47519027097624
 20
-62.650457106428519
 11
142.66536923657068
 21
-65.054503309556992
  0
ARC
  8
_1-0_
  6
CONTINUOUS
 62
    7
 10
142.42845008648092
 20
-64.974695312961046
 40
0.2499999999999999
 50
270
 51
341.38351495713721
  0
LINE
  8
_1-0_
  6
CONTINUOUS
 62
    7
 10
156.30803878099928
 20
-61.575911700025983
 11
156.05803878100087
 21
-61.82591170002496
  0
LINE
  8
_1-0_
  6
CONTINUOUS
 62
    7
 10
156.05803878100065
 20
-61.82591170002496
 11
156.05803878100087
 21
-62.374695312968186
  0
LINE
  8
_1-0_
  6
CONTINUOUS
 62
    7
 10
155.36605829893156
 20
-62.4535365301262
 11
156.0580387810011
 21
-62.374695312968299
  0
LINE
  8
_1-0_
  6
CONTINUOUS
 62
    7
 10
143.35001926307055
 20
-62.453536530130521
 11
142.65803878100101
 21
-62.37469531297296
  0
LINE
  8
_1-0_
  6
CONTINUOUS
 62
    7
 10
142.65803878100056
 20
-61.825911700029735
 11
142.65803878100078
 21
-62.374695312973074
  0
LINE
  8
_1-0_
  6
CONTINUOUS
 62
    7
 10
101.11651116375552
 20
-65.224695312973665
 11
106.09518992605538
 21
-65.224697364364658
  0
LINE
  8
_1-0_
  6
CONTINUOUS
 62
    7
 10
104.34553878100192
 20
-65.224695312973665
 11
104.91595008648088
 21
-65.224695312973665
  0
LINE
  8
_1-0_
  6
CONTINUOUS
 62
    7
 10
119.34553878100192
 20
-65.224695312968322
 11
118.77512747543588
 21
-65.224695312968663
  0
LINE
  8
_1-0_
  6
CONTINUOUS
 62
    9
 10
117.32089408156745
 20
-57.474695312973665
 11
111.833038781277
 21
-57.474695312973665
  0
LINE
  8
_1-0_
  6
CONTINUOUS
 62
    9
 10
117.15803878127682
 20
-62.374695312973643
 11
118.30803878127691
 21
-62.374695312973643
  0
ARC
  8
_1-0_
  6
CONTINUOUS
 62
    9
 10
118.30803878127691
 20
-62.124695312973643
 40
0.2499999999999999
 50
270
 51
15.000000000089301
  0
LINE
  8
_1-0_
  6
CONTINUOUS
 62
    9
 10
117.32089408156745
 20
-57.474695312973665
 11
118.54952023784918
 21
-62.059990551697808
  0
ARC
  8
_1-0_
  6
CONTINUOUS
 62
    9
 10
117.15803878127682
 20
-62.624695312973643
 40
0.2499999999999999
 50
90.000000000000014
 51
195.00000000004502
  0
LINE
  8
_1-0_
  6
CONTINUOUS
 62
    9
 10
116.916557324705
 20
-62.689400074249477
 11
117.59588763649791
 21
-65.224695312973779
  0
LINE
  8
_1-0_
  6
CONTINUOUS
 62
    9
 10
111.833038781277
 20
-63.324695312973688
 11
117.08678417087722
 21
-63.324695312973688
  0
LINE
  8
_1-0_
  6
CONTINUOUS
 62
    9
 10
111.833038781277
 20
-62.674695312973711
 11
116.91261719579634
 21
-62.674695312973711
  0
LINE
  8
_1-0_
  6
CONTINUOUS
 62
    9
 10
106.37018348098641
 20
-57.474695312973665
 11
111.833038781277
 21
-57.474695312973665
  0
LINE
  8
_1-0_
  6
CONTINUOUS
 62
    9
 10
106.53303878127704
 20
-62.374695312973643
 11
105.38303878127695
 21
-62.374695312973643
  0
LINE
  8
_1-0_
  6
CONTINUOUS
 62
    9
 10
106.37018348098664
 20
-57.474695312973665
 11
105.14155732470491
 21
-62.059990551697808
  0
ARC
  8
_1-0_
  6
CONTINUOUS
 62
    9
 10
106.53303878127704
 20
-62.624695312973643
 40
0.2499999999999999
 50
344.99999999995498
 51
90
  0
LINE
  8
_1-0_
  6
CONTINUOUS
 62
    9
 10
106.77452023784886
 20
-62.689400074249363
 11
106.09518992605618
 21
-65.224695312973665
  0
LINE
  8
_1-0_
  6
CONTINUOUS
 62
    9
 10
111.833038781277
 20
-63.324695312973688
 11
106.60429339167663
 21
-63.324695312973688
  0
LINE
  8
_1-0_
  6
CONTINUOUS
 62
    9
 10
111.833038781277
 20
-62.674695312973711
 11
106.77846036675751
 21
-62.674695312973711
  0
ARC
  8
_1-0_
  6
CONTINUOUS
 62
    9
 10
105.38303878127695
 20
-62.124695312973643
 40
0.2499999999999999
 50
164.9999999999107
 51
270
  0
LINE
  8
_1-0_
  6
CONTINUOUS
 62
    7
 10
104.35803878100197
 20
-65.224695312973665
 11
104.92845008648092
 21
-65.224695312973665
  0
ARC
  8
_1-0_
  6
CONTINUOUS
 62
    7
 10
105.83303878100529
 20
-62.602572308481911
 40
0.1499999999999999
 50
341.39170198511317
 51
83.500000000001762
  0
LINE
  8
_1-0_
  6
CONTINUOUS
 62
    7
 10
104.358038780984
 20
-40.224695312979009
 11
104.35803878100197
 21
-65.224695312973552
  0
LINE
  8
_1-0_
  6
CONTINUOUS
 62
    7
 10
104.90803878099942
 20
-61.575911700028485
 11
105.15803878100101
 21
-61.825911700029963
  0
LINE
  8
_1-0_
  6
CONTINUOUS
 62
    7
 10
119.35803878100197
 20
-65.224695312968322
 11
118.78762747543593
 21
-65.224695312968777
  0
ARC
  8
_1-0_
  6
CONTINUOUS
 62
    7
 10
117.88303878099683
 20
-62.60257230847759
 40
0.1499999999999999
 50
96.500000000039279
 51
198.61648504280038
  0
LINE
  8
_1-0_
  6
CONTINUOUS
 62
    7
 10
119.358038780984
 20
-40.224695312973552
 11
119.35803878100174
 21
-65.224695312968322
  0
LINE
  8
_1-0_
  6
CONTINUOUS
 62
    7
 10
104.90803878099237
 20
-51.927633949571998
 11
104.90803878099942
 21
-61.575911700028371
  0
LINE
  8
_1-0_
  6
CONTINUOUS
 62
    7
 10
118.80803878099246
 20
-51.927633949564381
 11
118.80803878099928
 21
-61.575911700025983
  0
LINE
  8
_1-0_
  6
CONTINUOUS
 62
    7
 10
117.74088729094288
 20
-62.650457106435113
 11
118.55070832534571
 21
-65.054503309564495
  0
ARC
  8
_1-0_
  6
CONTINUOUS
 62
    7
 10
118.7876274754357
 20
-64.974695312968663
 40
0.2499999999999999
 50
198.61648504279918
 51
270
  0
LINE
  8
_1-0_
  6
CONTINUOUS
 62
    7
 10
105.97519027097624
 20
-62.650457106428519
 11
105.16536923657068
 21
-65.054503309556992
  0
ARC
  8
_1-0_
  6
CONTINUOUS
 62
    7
 10
104.92845008648092
 20
-64.974695312961046
 40
0.2499999999999999
 50
270
 51
341.38351495713721
  0
LINE
  8
_1-0_
  6
CONTINUOUS
 62
    7
 10
118.80803878099928
 20
-61.575911700025983
 11
118.55803878100087
 21
-61.82591170002496
  0
LINE
  8
_1-0_
  6
CONTINUOUS
 62
    7
 10
118.55803878100065
 20
-61.82591170002496
 11
118.55803878100087
 21
-62.374695312968186
  0
LINE
  8
_1-0_
  6
CONTINUOUS
 62
    7
 10
117.86605829893156
 20
-62.4535365301262
 11
118.5580387810011
 21
-62.374695312968299
  0
LINE
  8
_1-0_
  6
CONTINUOUS
 62
    7
 10
105.85001926307055
 20
-62.453536530130521
 11
105.15803878100101
 21
-62.37469531297296
  0
LINE
  8
_1-0_
  6
CONTINUOUS
 62
    7
 10
105.15803878100056
 20
-61.825911700029735
 11
105.15803878100078
 21
-62.374695312973074
  0
LINE
  8
_1-0_
  6
CONTINUOUS
 62
    7
 10
66.84553878100192
 20
-65.224695312973665
 11
67.415950086480876
 21
-65.224695312973665
  0
LINE
  8
_1-0_
  6
CONTINUOUS
 62
    7
 10
81.84553878100192
 20
-65.224695312968322
 11
81.27512747543588
 21
-65.224695312968663
  0
LINE
  8
_1-0_
  6
CONTINUOUS
 62
    9
 10
79.820894081567445
 20
-57.474695312973665
 11
74.333038781276997
 21
-57.474695312973665
  0
LINE
  8
_1-0_
  6
CONTINUOUS
 62
    9
 10
79.658038781276815
 20
-62.374695312973643
 11
80.808038781276906
 21
-62.374695312973643
  0
ARC
  8
_1-0_
  6
CONTINUOUS
 62
    9
 10
80.808038781276906
 20
-62.124695312973643
 40
0.2499999999999999
 50
270
 51
15.000000000089301
  0
LINE
  8
_1-0_
  6
CONTINUOUS
 62
    9
 10
79.820894081567445
 20
-57.474695312973665
 11
81.04952023784918
 21
-62.059990551697808
  0
ARC
  8
_1-0_
  6
CONTINUOUS
 62
    9
 10
79.658038781276815
 20
-62.624695312973643
 40
0.2499999999999999
 50
90.000000000000014
 51
195.00000000004502
  0
LINE
  8
_1-0_
  6
CONTINUOUS
 62
    9
 10
79.416557324704996
 20
-62.689400074249477
 11
80.095887636497906
 21
-65.224695312973779
  0
LINE
  8
_1-0_
  6
CONTINUOUS
 62
    9
 10
74.333038781276997
 20
-63.324695312973688
 11
79.586784170877223
 21
-63.324695312973688
  0
LINE
  8
_1-0_
  6
CONTINUOUS
 62
    9
 10
74.333038781276997
 20
-62.674695312973711
 11
79.412617195796344
 21
-62.674695312973711
  0
LINE
  8
_1-0_
  6
CONTINUOUS
 62
    9
 10
68.870183480986412
 20
-57.474695312973665
 11
74.333038781276997
 21
-57.474695312973665
  0
LINE
  8
_1-0_
  6
CONTINUOUS
 62
    9
 10
69.033038781277043
 20
-62.374695312973643
 11
67.883038781276952
 21
-62.374695312973643
  0
LINE
  8
_1-0_
  6
CONTINUOUS
 62
    9
 10
68.87018348098664
 20
-57.474695312973665
 11
67.641557324704905
 21
-62.059990551697808
  0
ARC
  8
_1-0_
  6
CONTINUOUS
 62
    9
 10
69.033038781277043
 20
-62.624695312973643
 40
0.2499999999999999
 50
344.99999999995498
 51
90
  0
LINE
  8
_1-0_
  6
CONTINUOUS
 62
    9
 10
69.274520237848861
 20
-62.689400074249363
 11
68.595189926056179
 21
-65.224695312973665
  0
LINE
  8
_1-0_
  6
CONTINUOUS
 62
    9
 10
74.333038781276997
 20
-63.324695312973688
 11
69.104293391676634
 21
-63.324695312973688
  0
LINE
  8
_1-0_
  6
CONTINUOUS
 62
    9
 10
74.333038781276997
 20
-62.674695312973711
 11
69.278460366757514
 21
-62.674695312973711
  0
ARC
  8
_1-0_
  6
CONTINUOUS
 62
    9
 10
67.883038781276952
 20
-62.124695312973643
 40
0.2499999999999999
 50
164.9999999999107
 51
270
  0
LINE
  8
_1-0_
  6
CONTINUOUS
 62
    7
 10
66.858038781001966
 20
-65.224695312973665
 11
67.428450086480922
 21
-65.224695312973665
  0
ARC
  8
_1-0_
  6
CONTINUOUS
 62
    7
 10
68.333038781005286
 20
-62.602572308481911
 40
0.1499999999999999
 50
341.39170198511317
 51
83.500000000001762
  0
LINE
  8
_1-0_
  6
CONTINUOUS
 62
    7
 10
66.858038780984003
 20
-40.224695312979009
 11
66.858038781001966
 21
-65.224695312973552
  0
LINE
  8
_1-0_
  6
CONTINUOUS
 62
    7
 10
67.408038780999419
 20
-61.575911700028485
 11
67.658038781001011
 21
-61.825911700029963
  0
LINE
  8
_1-0_
  6
CONTINUOUS
 62
    7
 10
81.858038781001966
 20
-65.224695312968322
 11
81.287627475435926
 21
-65.224695312968777
  0
ARC
  8
_1-0_
  6
CONTINUOUS
 62
    7
 10
80.383038780996827
 20
-62.60257230847759
 40
0.1499999999999999
 50
96.500000000039279
 51
198.61648504280038
  0
LINE
  8
_1-0_
  6
CONTINUOUS
 62
    7
 10
81.858038780984003
 20
-40.224695312973552
 11
81.858038781001738
 21
-65.224695312968322
  0
LINE
  8
_1-0_
  6
CONTINUOUS
 62
    7
 10
67.408038780992371
 20
-51.927633949571998
 11
67.408038780999419
 21
-61.575911700028371
  0
LINE
  8
_1-0_
  6
CONTINUOUS
 62
    7
 10
81.308038780992462
 20
-51.927633949564381
 11
81.308038780999283
 21
-61.575911700025983
  0
LINE
  8
_1-0_
  6
CONTINUOUS
 62
    7
 10
80.240887290942879
 20
-62.650457106435113
 11
81.05070832534571
 21
-65.054503309564495
  0
ARC
  8
_1-0_
  6
CONTINUOUS
 62
    7
 10
81.287627475435698
 20
-64.974695312968663
 40
0.2499999999999999
 50
198.61648504279918
 51
270
  0
LINE
  8
_1-0_
  6
CONTINUOUS
 62
    7
 10
68.475190270976242
 20
-62.650457106428519
 11
67.665369236570683
 21
-65.054503309556992
  0
ARC
  8
_1-0_
  6
CONTINUOUS
 62
    7
 10
67.428450086480922
 20
-64.974695312961046
 40
0.2499999999999999
 50
270
 51
341.38351495713721
  0
LINE
  8
_1-0_
  6
CONTINUOUS
 62
    7
 10
81.308038780999283
 20
-61.575911700025983
 11
81.058038781000874
 21
-61.82591170002496
  0
LINE
  8
_1-0_
  6
CONTINUOUS
 62
    7
 10
81.058038781000647
 20
-61.82591170002496
 11
81.058038781000874
 21
-62.374695312968186
  0
LINE
  8
_1-0_
  6
CONTINUOUS
 62
    7
 10
80.366058298931563
 20
-62.4535365301262
 11
81.058038781001102
 21
-62.374695312968299
  0
LINE
  8
_1-0_
  6
CONTINUOUS
 62
    7
 10
68.35001926307055
 20
-62.453536530130521
 11
67.658038781001011
 21
-62.37469531297296
  0
LINE
  8
_1-0_
  6
CONTINUOUS
 62
    7
 10
67.658038781000556
 20
-61.825911700029735
 11
67.658038781000784
 21
-62.374695312973074
  0
LINE
  8
_1-0_
  6
CONTINUOUS
 62
    7
 10
58.679086867527786
 20
-65.224682977700468
 11
68.595189926059589
 21
-65.224687063484168
  0
LINE
  8
_1-0_
  6
CONTINUOUS
 62
    7
 10
105.09588763649506
 20
-65.224702103057268
 11
106.09518992605328
 21
-65.224702514805017
  0
LINE
  8
_1-0_
  6
CONTINUOUS
 62
    7
 10
142.5958876364887
 20
-65.224717554378287
 11
143.59518992604691
 21
-65.224717966126036
  0
LINE
  8
_1-0_
  6
CONTINUOUS
 62
    7
 10
80.095887636499384
 20
-65.224691802176665
 11
104.35803878100197
 21
-65.224701799037462
  0
LINE
  8
_1-0_
  6
CONTINUOUS
 62
    7
 10
117.59588763649302
 20
-65.22470725349757
 11
141.85803878100197
 21
-65.224717250358538
  0
LINE
  8
_1-0_
  6
CONTINUOUS
 62
    7
 10
176.10401116375547
 20
-65.224695312973665
 11
181.08268992605534
 21
-65.224697364364658
  0
LINE
  8
_1-0_
  6
CONTINUOUS
 62
    7
 10
179.33303878100187
 20
-65.224695312973665
 11
179.90345008648083
 21
-65.224695312973665
  0
LINE
  8
_1-0_
  6
CONTINUOUS
 62
    7
 10
194.33303878100187
 20
-65.224695312968322
 11
193.76262747543583
 21
-65.224695312968663
  0
LINE
  8
_1-0_
  6
CONTINUOUS
 62
    9
 10
192.3083940815674
 20
-57.474695312973665
 11
186.82053878127695
 21
-57.474695312973665
  0
LINE
  8
_1-0_
  6
CONTINUOUS
 62
    9
 10
192.14553878127677
 20
-62.374695312973643
 11
193.29553878127686
 21
-62.374695312973643
  0
ARC
  8
_1-0_
  6
CONTINUOUS
 62
    9
 10
193.29553878127686
 20
-62.124695312973643
 40
0.2499999999999999
 50
270
 51
15.000000000089301
  0
LINE
  8
_1-0_
  6
CONTINUOUS
 62
    9
 10
192.3083940815674
 20
-57.474695312973665
 11
193.53702023784913
 21
-62.059990551697808
  0
ARC
  8
_1-0_
  6
CONTINUOUS
 62
    9
 10
192.14553878127677
 20
-62.624695312973643
 40
0.2499999999999999
 50
90.000000000000014
 51
195.00000000004502
  0
LINE
  8
_1-0_
  6
CONTINUOUS
 62
    9
 10
191.90405732470495
 20
-62.689400074249477
 11
192.58338763649786
 21
-65.224695312973779
  0
LINE
  8
_1-0_
  6
CONTINUOUS
 62
    9
 10
186.82053878127695
 20
-63.324695312973688
 11
192.07428417087718
 21
-63.324695312973688
  0
LINE
  8
_1-0_
  6
CONTINUOUS
 62
    9
 10
186.82053878127695
 20
-62.674695312973711
 11
191.9001171957963
 21
-62.674695312973711
  0
LINE
  8
_1-0_
  6
CONTINUOUS
 62
    9
 10
181.35768348098637
 20
-57.474695312973665
 11
186.82053878127695
 21
-57.474695312973665
  0
LINE
  8
_1-0_
  6
CONTINUOUS
 62
    9
 10
181.520538781277
 20
-62.374695312973643
 11
180.37053878127691
 21
-62.374695312973643
  0
LINE
  8
_1-0_
  6
CONTINUOUS
 62
    9
 10
181.35768348098659
 20
-57.474695312973665
 11
180.12905732470486
 21
-62.059990551697808
  0
ARC
  8
_1-0_
  6
CONTINUOUS
 62
    9
 10
181.520538781277
 20
-62.624695312973643
 40
0.2499999999999999
 50
344.99999999995498
 51
90
  0
LINE
  8
_1-0_
  6
CONTINUOUS
 62
    9
 10
181.76202023784882
 20
-62.689400074249363
 11
181.08268992605613
 21
-65.224695312973665
  0
LINE
  8
_1-0_
  6
CONTINUOUS
 62
    9
 10
186.82053878127695
 20
-63.324695312973688
 11
181.59179339167659
 21
-63.324695312973688
  0
LINE
  8
_1-0_
  6
CONTINUOUS
 62
    9
 10
186.82053878127695
 20
-62.674695312973711
 11
181.76596036675747
 21
-62.674695312973711
  0
ARC
  8
_1-0_
  6
CONTINUOUS
 62
    9
 10
180.37053878127691
 20
-62.124695312973643
 40
0.2499999999999999
 50
164.9999999999107
 51
270
  0
LINE
  8
_1-0_
  6
CONTINUOUS
 62
    7
 10
179.34553878100192
 20
-65.224695312973665
 11
179.91595008648088
 21
-65.224695312973665
  0
ARC
  8
_1-0_
  6
CONTINUOUS
 62
    7
 10
180.82053878100524
 20
-62.602572308481911
 40
0.1499999999999999
 50
341.39170198511317
 51
83.500000000001762
  0
LINE
  8
_1-0_
  6
CONTINUOUS
 62
    7
 10
179.34553878098396
 20
-40.224695312979009
 11
179.34553878100192
 21
-65.224695312973552
  0
LINE
  8
_1-0_
  6
CONTINUOUS
 62
    7
 10
179.89553878099937
 20
-61.575911700028485
 11
180.14553878100097
 21
-61.825911700029963
  0
LINE
  8
_1-0_
  6
CONTINUOUS
 62
    7
 10
194.34553878100192
 20
-65.224695312968322
 11
193.77512747543588
 21
-65.224695312968777
  0
ARC
  8
_1-0_
  6
CONTINUOUS
 62
    7
 10
192.87053878099678
 20
-62.60257230847759
 40
0.1499999999999999
 50
96.500000000039279
 51
198.61648504280038
  0
LINE
  8
_1-0_
  6
CONTINUOUS
 62
    7
 10
194.34553878098396
 20
-40.224695312973552
 11
194.34553878100169
 21
-65.224695312968322
  0
LINE
  8
_1-0_
  6
CONTINUOUS
 62
    7
 10
179.89553878099233
 20
-51.927633949571998
 11
179.89553878099937
 21
-61.575911700028371
  0
LINE
  8
_1-0_
  6
CONTINUOUS
 62
    7
 10
193.79553878099242
 20
-51.927633949564381
 11
193.79553878099924
 21
-61.575911700025983
  0
LINE
  8
_1-0_
  6
CONTINUOUS
 62
    7
 10
192.72838729094283
 20
-62.650457106435113
 11
193.53820832534566
 21
-65.054503309564495
  0
ARC
  8
_1-0_
  6
CONTINUOUS
 62
    7
 10
193.77512747543565
 20
-64.974695312968663
 40
0.2499999999999999
 50
198.61648504279918
 51
270
  0
LINE
  8
_1-0_
  6
CONTINUOUS
 62
    7
 10
180.9626902709762
 20
-62.650457106428519
 11
180.15286923657064
 21
-65.054503309556992
  0
ARC
  8
_1-0_
  6
CONTINUOUS
 62
    7
 10
179.91595008648088
 20
-64.974695312961046
 40
0.2499999999999999
 50
270
 51
341.38351495713721
  0
LINE
  8
_1-0_
  6
CONTINUOUS
 62
    7
 10
193.79553878099924
 20
-61.575911700025983
 11
193.54553878100083
 21
-61.82591170002496
  0
LINE
  8
_1-0_
  6
CONTINUOUS
 62
    7
 10
193.5455387810006
 20
-61.82591170002496
 11
193.54553878100083
 21
-62.374695312968186
  0
LINE
  8
_1-0_
  6
CONTINUOUS
 62
    7
 10
192.85355829893152
 20
-62.4535365301262
 11
193.54553878100106
 21
-62.374695312968299
  0
LINE
  8
_1-0_
  6
CONTINUOUS
 62
    7
 10
180.8375192630705
 20
-62.453536530130521
 11
180.14553878100097
 21
-62.37469531297296
  0
LINE
  8
_1-0_
  6
CONTINUOUS
 62
    7
 10
180.14553878100051
 20
-61.825911700029735
 11
180.14553878100074
 21
-62.374695312973074
  0
LINE
  8
_1-0_
  6
CONTINUOUS
 62
    7
 10
180.08338763648865
 20
-65.224717554378287
 11
181.08268992604687
 21
-65.224717966126036
  0
LINE
  8
_1-0_
  6
CONTINUOUS
 62
    7
 10
155.09588763648665
 20
-65.224722704818703
 11
179.34553878100192
 21
-65.224732696529315
  0
LINE
  8
_1-0_
  6
CONTINUOUS
 62
    7
 10
180.09588763648233
 20
-65.224733005699306
 11
181.0826899260405
 21
-65.224733412296644
  0
LINE
  8
_1-0_
  6
CONTINUOUS
 62
    7
 10
192.58338763648024
 20
-65.224738150989253
 11
199.14071039094077
 21
-65.224740852837215
  0
LINE
  8
_1-0_
  6
CONTINUOUS
 62
    7
 10
51.608042181019101
 20
-93.712547558533231
 11
51.60805289364751
 21
-119.71184984808718
  0
LINE
  8
_1-0_
  6
CONTINUOUS
 62
    7
 10
51.608035390935498
 20
-152.23317108579363
 11
51.608037442326491
 21
-157.21184984809349
  0
LINE
  8
_1-0_
  6
CONTINUOUS
 62
    7
 10
51.608035390935498
 20
-155.46219870304003
 11
51.608035390935498
 21
-156.03261000851899
  0
LINE
  8
_1-0_
  6
CONTINUOUS
 62
    7
 10
51.608035390930155
 20
-170.46219870304003
 11
51.608035390930496
 21
-169.89178739747399
  0
LINE
  8
_1-0_
  6
CONTINUOUS
 62
    9
 10
43.858035390935498
 20
-168.43755400360556
 11
43.858035390935498
 21
-162.94969870331511
  0
LINE
  8
_1-0_
  6
CONTINUOUS
 62
    9
 10
48.758035390935476
 20
-168.27469870331493
 11
48.758035390935476
 21
-169.42469870331502
  0
ARC
  8
_1-0_
  6
CONTINUOUS
 62
    9
 10
48.508035390935476
 20
-169.42469870331502
 40
0.25
 50
254.9999999999107
 51
0
  0
LINE
  8
_1-0_
  6
CONTINUOUS
 62
    9
 10
43.858035390935498
 20
-168.43755400360556
 11
48.443330629659641
 21
-169.66618015988729
  0
ARC
  8
_1-0_
  6
CONTINUOUS
 62
    9
 10
49.008035390935476
 20
-168.27469870331493
 40
0.25
 50
74.99999999995498
 51
180
  0
LINE
  8
_1-0_
  6
CONTINUOUS
 62
    9
 10
49.07274015221131
 20
-168.03321724674311
 11
51.608035390935612
 21
-168.71254755853602
  0
LINE
  8
_1-0_
  6
CONTINUOUS
 62
    9
 10
49.708035390935521
 20
-162.94969870331511
 11
49.708035390935521
 21
-168.20344409291533
  0
LINE
  8
_1-0_
  6
CONTINUOUS
 62
    9
 10
49.058035390935544
 20
-162.94969870331511
 11
49.058035390935544
 21
-168.02927711783445
  0
LINE
  8
_1-0_
  6
CONTINUOUS
 62
    9
 10
43.858035390935498
 20
-157.48684340302452
 11
43.858035390935498
 21
-162.94969870331511
  0
LINE
  8
_1-0_
  6
CONTINUOUS
 62
    9
 10
48.758035390935476
 20
-157.64969870331515
 11
48.758035390935476
 21
-156.49969870331506
  0
LINE
  8
_1-0_
  6
CONTINUOUS
 62
    9
 10
43.858035390935498
 20
-157.48684340302475
 11
48.443330629659641
 21
-156.25821724674302
  0
ARC
  8
_1-0_
  6
CONTINUOUS
 62
    9
 10
49.008035390935476
 20
-157.64969870331515
 40
0.25
 50
180
 51
285.00000000004496
  0
LINE
  8
_1-0_
  6
CONTINUOUS
 62
    9
 10
49.072740152211196
 20
-157.89118015988697
 11
51.608035390935498
 21
-157.21184984809429
  0
LINE
  8
_1-0_
  6
CONTINUOUS
 62
    9
 10
49.708035390935521
 20
-162.94969870331511
 11
49.708035390935521
 21
-157.72095331371474
  0
LINE
  8
_1-0_
  6
CONTINUOUS
 62
    9
 10
49.058035390935544
 20
-162.94969870331511
 11
49.058035390935544
 21
-157.89512028879562
  0
ARC
  8
_1-0_
  6
CONTINUOUS
 62
    9
 10
48.508035390935476
 20
-156.49969870331506
 40
0.25
 50
0
 51
105.00000000008929
  0
LINE
  8
_1-0_
  6
CONTINUOUS
 62
    7
 10
51.608035390935498
 20
-155.47469870304008
 11
51.608035390935498
 21
-156.04511000851903
  0
ARC
  8
_1-0_
  6
CONTINUOUS
 62
    7
 10
48.985912386443744
 20
-156.9496987030434
 40
0.1499999999999999
 50
186.49999999999821
 51
288.60829801488677
  0
LINE
  8
_1-0_
  6
CONTINUOUS
 62
    7
 10
26.608035390940813
 20
-155.47469870302211
 11
51.608035390935385
 21
-155.47469870304008
  0
LINE
  8
_1-0_
  6
CONTINUOUS
 62
    7
 10
47.959251777990318
 20
-156.02469870303753
 11
48.209251777991796
 21
-156.27469870303912
  0
LINE
  8
_1-0_
  6
CONTINUOUS
 62
    7
 10
51.608035390930155
 20
-170.47469870304008
 11
51.60803539093061
 21
-169.90428739747404
  0
ARC
  8
_1-0_
  6
CONTINUOUS
 62
    7
 10
48.985912386439423
 20
-168.99969870303494
 40
0.1499999999999999
 50
71.383514957199623
 51
173.49999999996072
  0
LINE
  8
_1-0_
  6
CONTINUOUS
 62
    7
 10
26.608035390935356
 20
-170.47469870302211
 11
51.608035390930155
 21
-170.47469870303985
  0
LINE
  8
_1-0_
  6
CONTINUOUS
 62
    7
 10
38.310974027533803
 20
-156.02469870303048
 11
47.959251777990204
 21
-156.02469870303753
  0
LINE
  8
_1-0_
  6
CONTINUOUS
 62
    7
 10
38.310974027526186
 20
-169.92469870303057
 11
47.959251777987816
 21
-169.92469870303739
  0
LINE
  8
_1-0_
  6
CONTINUOUS
 62
    7
 10
49.033797184396946
 20
-168.85754721298099
 11
51.437843387526328
 21
-169.66736824738382
  0
ARC
  8
_1-0_
  6
CONTINUOUS
 62
    7
 10
51.358035390930496
 20
-169.90428739747381
 40
0.25
 50
0
 51
71.383514957200816
  0
LINE
  8
_1-0_
  6
CONTINUOUS
 62
    7
 10
49.033797184390352
 20
-157.09185019301435
 11
51.437843387518825
 21
-156.28202915860879
  0
ARC
  8
_1-0_
  6
CONTINUOUS
 62
    7
 10
51.358035390922879
 20
-156.04511000851903
 40
0.25
 50
288.61648504286279
 51
0.0000000000000254
  0
LINE
  8
_1-0_
  6
CONTINUOUS
 62
    7
 10
47.959251777987816
 20
-169.92469870303739
 11
48.209251777986793
 21
-169.67469870303898
  0
LINE
  8
_1-0_
  6
CONTINUOUS
 62
    7
 10
48.209251777986793
 20
-169.67469870303876
 11
48.758035390930019
 21
-169.67469870303898
  0
LINE
  8
_1-0_
  6
CONTINUOUS
 62
    7
 10
48.836876608088033
 20
-168.98271822096967
 11
48.758035390930132
 21
-169.67469870303921
  0
LINE
  8
_1-0_
  6
CONTINUOUS
 62
    7
 10
48.836876608092354
 20
-156.96667918510866
 11
48.758035390934793
 21
-156.27469870303912
  0
LINE
  8
_1-0_
  6
CONTINUOUS
 62
    7
 10
48.209251777991568
 20
-156.27469870303867
 11
48.758035390934907
 21
-156.27469870303889
  0
LINE
  8
_1-0_
  6
CONTINUOUS
 62
    7
 10
51.608035390935498
 20
-114.73317108579369
 11
51.608037442326491
 21
-119.71184984809355
  0
LINE
  8
_1-0_
  6
CONTINUOUS
 62
    7
 10
51.608035390935498
 20
-117.96219870304009
 11
51.608035390935498
 21
-118.53261000851904
  0
LINE
  8
_1-0_
  6
CONTINUOUS
 62
    7
 10
51.608035390930155
 20
-132.96219870304009
 11
51.608035390930496
 21
-132.39178739747405
  0
LINE
  8
_1-0_
  6
CONTINUOUS
 62
    9
 10
43.858035390935498
 20
-130.93755400360561
 11
43.858035390935498
 21
-125.44969870331516
  0
LINE
  8
_1-0_
  6
CONTINUOUS
 62
    9
 10
48.758035390935476
 20
-130.77469870331498
 11
48.758035390935476
 21
-131.92469870331507
  0
ARC
  8
_1-0_
  6
CONTINUOUS
 62
    9
 10
48.508035390935476
 20
-131.92469870331507
 40
0.25
 50
254.9999999999107
 51
0
  0
LINE
  8
_1-0_
  6
CONTINUOUS
 62
    9
 10
43.858035390935498
 20
-130.93755400360561
 11
48.443330629659641
 21
-132.16618015988735
  0
ARC
  8
_1-0_
  6
CONTINUOUS
 62
    9
 10
49.008035390935476
 20
-130.77469870331498
 40
0.25
 50
74.99999999995498
 51
180
  0
LINE
  8
_1-0_
  6
CONTINUOUS
 62
    9
 10
49.07274015221131
 20
-130.53321724674316
 11
51.608035390935612
 21
-131.21254755853607
  0
LINE
  8
_1-0_
  6
CONTINUOUS
 62
    9
 10
49.708035390935521
 20
-125.44969870331516
 11
49.708035390935521
 21
-130.70344409291539
  0
LINE
  8
_1-0_
  6
CONTINUOUS
 62
    9
 10
49.058035390935544
 20
-125.44969870331516
 11
49.058035390935544
 21
-130.52927711783451
  0
LINE
  8
_1-0_
  6
CONTINUOUS
 62
    9
 10
43.858035390935498
 20
-119.98684340302458
 11
43.858035390935498
 21
-125.44969870331516
  0
LINE
  8
_1-0_
  6
CONTINUOUS
 62
    9
 10
48.758035390935476
 20
-120.14969870331521
 11
48.758035390935476
 21
-118.99969870331512
  0
LINE
  8
_1-0_
  6
CONTINUOUS
 62
    9
 10
43.858035390935498
 20
-119.98684340302481
 11
48.443330629659641
 21
-118.75821724674307
  0
ARC
  8
_1-0_
  6
CONTINUOUS
 62
    9
 10
49.008035390935476
 20
-120.14969870331521
 40
0.25
 50
180
 51
285.00000000004496
  0
LINE
  8
_1-0_
  6
CONTINUOUS
 62
    9
 10
49.072740152211196
 20
-120.39118015988703
 11
51.608035390935498
 21
-119.71184984809435
  0
LINE
  8
_1-0_
  6
CONTINUOUS
 62
    9
 10
49.708035390935521
 20
-125.44969870331516
 11
49.708035390935521
 21
-120.2209533137148
  0
LINE
  8
_1-0_
  6
CONTINUOUS
 62
    9
 10
49.058035390935544
 20
-125.44969870331516
 11
49.058035390935544
 21
-120.39512028879568
  0
ARC
  8
_1-0_
  6
CONTINUOUS
 62
    9
 10
48.508035390935476
 20
-118.99969870331512
 40
0.25
 50
0
 51
105.00000000008929
  0
LINE
  8
_1-0_
  6
CONTINUOUS
 62
    7
 10
51.608035390935498
 20
-117.97469870304013
 11
51.608035390935498
 21
-118.54511000851909
  0
ARC
  8
_1-0_
  6
CONTINUOUS
 62
    7
 10
48.985912386443744
 20
-119.44969870304345
 40
0.1499999999999999
 50
186.49999999999821
 51
288.60829801488677
  0
LINE
  8
_1-0_
  6
CONTINUOUS
 62
    7
 10
26.608035390940813
 20
-117.97469870302217
 11
51.608035390935385
 21
-117.97469870304013
  0
LINE
  8
_1-0_
  6
CONTINUOUS
 62
    7
 10
47.959251777990318
 20
-118.52469870303759
 11
48.209251777991796
 21
-118.77469870303918
  0
LINE
  8
_1-0_
  6
CONTINUOUS
 62
    7
 10
51.608035390930155
 20
-132.97469870304013
 11
51.60803539093061
 21
-132.40428739747409
  0
ARC
  8
_1-0_
  6
CONTINUOUS
 62
    7
 10
48.985912386439423
 20
-131.49969870303499
 40
0.1499999999999999
 50
71.383514957199623
 51
173.49999999996072
  0
LINE
  8
_1-0_
  6
CONTINUOUS
 62
    7
 10
26.608035390935356
 20
-132.97469870302217
 11
51.608035390930155
 21
-132.97469870303991
  0
LINE
  8
_1-0_
  6
CONTINUOUS
 62
    7
 10
38.310974027533803
 20
-118.52469870303054
 11
47.959251777990204
 21
-118.52469870303759
  0
LINE
  8
_1-0_
  6
CONTINUOUS
 62
    7
 10
38.310974027526186
 20
-132.42469870303063
 11
47.959251777987816
 21
-132.42469870303745
  0
LINE
  8
_1-0_
  6
CONTINUOUS
 62
    7
 10
49.033797184396946
 20
-131.35754721298105
 11
51.437843387526328
 21
-132.16736824738388
  0
ARC
  8
_1-0_
  6
CONTINUOUS
 62
    7
 10
51.358035390930496
 20
-132.40428739747387
 40
0.25
 50
0
 51
71.383514957200816
  0
LINE
  8
_1-0_
  6
CONTINUOUS
 62
    7
 10
49.033797184390352
 20
-119.59185019301441
 11
51.437843387518825
 21
-118.78202915860885
  0
ARC
  8
_1-0_
  6
CONTINUOUS
 62
    7
 10
51.358035390922879
 20
-118.54511000851909
 40
0.25
 50
288.61648504286279
 51
0.0000000000000254
  0
LINE
  8
_1-0_
  6
CONTINUOUS
 62
    7
 10
47.959251777987816
 20
-132.42469870303745
 11
48.209251777986793
 21
-132.17469870303904
  0
LINE
  8
_1-0_
  6
CONTINUOUS
 62
    7
 10
48.209251777986793
 20
-132.17469870303881
 11
48.758035390930019
 21
-132.17469870303904
  0
LINE
  8
_1-0_
  6
CONTINUOUS
 62
    7
 10
48.836876608088033
 20
-131.48271822096973
 11
48.758035390930132
 21
-132.17469870303927
  0
LINE
  8
_1-0_
  6
CONTINUOUS
 62
    7
 10
48.836876608092354
 20
-119.46667918510872
 11
48.758035390934793
 21
-118.77469870303918
  0
LINE
  8
_1-0_
  6
CONTINUOUS
 62
    7
 10
48.209251777991568
 20
-118.77469870303872
 11
48.758035390934907
 21
-118.77469870303895
  0
LINE
  8
_1-0_
  6
CONTINUOUS
 62
    7
 10
51.608035390935498
 20
-80.462198703040087
 11
51.608035390935498
 21
-81.032610008519043
  0
LINE
  8
_1-0_
  6
CONTINUOUS
 62
    7
 10
51.608035390930155
 20
-95.462198703040087
 11
51.608035390930496
 21
-94.891787397474047
  0
LINE
  8
_1-0_
  6
CONTINUOUS
 62
    9
 10
43.858035390935498
 20
-93.437554003605612
 11
43.858035390935498
 21
-87.949698703315164
  0
LINE
  8
_1-0_
  6
CONTINUOUS
 62
    9
 10
48.758035390935476
 20
-93.274698703314982
 11
48.758035390935476
 21
-94.424698703315073
  0
ARC
  8
_1-0_
  6
CONTINUOUS
 62
    9
 10
48.508035390935476
 20
-94.424698703315073
 40
0.25
 50
254.9999999999107
 51
0
  0
LINE
  8
_1-0_
  6
CONTINUOUS
 62
    9
 10
43.858035390935498
 20
-93.437554003605612
 11
48.443330629659641
 21
-94.666180159887347
  0
ARC
  8
_1-0_
  6
CONTINUOUS
 62
    9
 10
49.008035390935476
 20
-93.274698703314982
 40
0.25
 50
74.99999999995498
 51
180
  0
LINE
  8
_1-0_
  6
CONTINUOUS
 62
    9
 10
49.07274015221131
 20
-93.033217246743163
 11
51.608035390935612
 21
-93.712547558536073
  0
LINE
  8
_1-0_
  6
CONTINUOUS
 62
    9
 10
49.708035390935521
 20
-87.949698703315164
 11
49.708035390935521
 21
-93.20344409291539
  0
LINE
  8
_1-0_
  6
CONTINUOUS
 62
    9
 10
49.058035390935544
 20
-87.949698703315164
 11
49.058035390935544
 21
-93.029277117834511
  0
LINE
  8
_1-0_
  6
CONTINUOUS
 62
    9
 10
43.858035390935498
 20
-82.486843403024579
 11
43.858035390935498
 21
-87.949698703315164
  0
LINE
  8
_1-0_
  6
CONTINUOUS
 62
    9
 10
48.758035390935476
 20
-82.64969870331521
 11
48.758035390935476
 21
-81.499698703315119
  0
LINE
  8
_1-0_
  6
CONTINUOUS
 62
    9
 10
43.858035390935498
 20
-82.486843403024807
 11
48.443330629659641
 21
-81.258217246743072
  0
ARC
  8
_1-0_
  6
CONTINUOUS
 62
    9
 10
49.008035390935476
 20
-82.64969870331521
 40
0.25
 50
180
 51
285.00000000004496
  0
LINE
  8
_1-0_
  6
CONTINUOUS
 62
    9
 10
49.072740152211196
 20
-82.891180159887028
 11
51.608035390935498
 21
-82.211849848094346
  0
LINE
  8
_1-0_
  6
CONTINUOUS
 62
    9
 10
49.708035390935521
 20
-87.949698703315164
 11
49.708035390935521
 21
-82.720953313714801
  0
LINE
  8
_1-0_
  6
CONTINUOUS
 62
    9
 10
49.058035390935544
 20
-87.949698703315164
 11
49.058035390935544
 21
-82.895120288795681
  0
ARC
  8
_1-0_
  6
CONTINUOUS
 62
    9
 10
48.508035390935476
 20
-81.499698703315119
 40
0.25
 50
0
 51
105.00000000008929
  0
LINE
  8
_1-0_
  6
CONTINUOUS
 62
    7
 10
51.608035390935498
 20
-80.474698703040133
 11
51.608035390935498
 21
-81.045110008519089
  0
ARC
  8
_1-0_
  6
CONTINUOUS
 62
    7
 10
48.985912386443744
 20
-81.949698703043452
 40
0.1499999999999999
 50
186.49999999999821
 51
288.60829801488677
  0
LINE
  8
_1-0_
  6
CONTINUOUS
 62
    7
 10
26.608035390940813
 20
-80.47469870302217
 11
51.608035390935385
 21
-80.474698703040133
  0
LINE
  8
_1-0_
  6
CONTINUOUS
 62
    7
 10
47.959251777990318
 20
-81.024698703037586
 11
48.209251777991796
 21
-81.274698703039178
  0
LINE
  8
_1-0_
  6
CONTINUOUS
 62
    7
 10
51.608035390930155
 20
-95.474698703040133
 11
51.60803539093061
 21
-94.904287397474093
  0
ARC
  8
_1-0_
  6
CONTINUOUS
 62
    7
 10
48.985912386439423
 20
-93.999698703034994
 40
0.1499999999999999
 50
71.383514957199623
 51
173.49999999996072
  0
LINE
  8
_1-0_
  6
CONTINUOUS
 62
    7
 10
26.608035390935356
 20
-95.47469870302217
 11
51.608035390930155
 21
-95.474698703039905
  0
LINE
  8
_1-0_
  6
CONTINUOUS
 62
    7
 10
38.310974027533803
 20
-81.024698703030538
 11
47.959251777990204
 21
-81.024698703037586
  0
LINE
  8
_1-0_
  6
CONTINUOUS
 62
    7
 10
38.310974027526186
 20
-94.924698703030629
 11
47.959251777987816
 21
-94.92469870303745
  0
LINE
  8
_1-0_
  6
CONTINUOUS
 62
    7
 10
49.033797184396946
 20
-93.857547212981046
 11
51.437843387526328
 21
-94.667368247383877
  0
ARC
  8
_1-0_
  6
CONTINUOUS
 62
    7
 10
51.358035390930496
 20
-94.904287397473865
 40
0.25
 50
0
 51
71.383514957200816
  0
LINE
  8
_1-0_
  6
CONTINUOUS
 62
    7
 10
49.033797184390352
 20
-82.091850193014409
 11
51.437843387518825
 21
-81.28202915860885
  0
ARC
  8
_1-0_
  6
CONTINUOUS
 62
    7
 10
51.358035390922879
 20
-81.045110008519089
 40
0.25
 50
288.61648504286279
 51
0.0000000000000254
  0
LINE
  8
_1-0_
  6
CONTINUOUS
 62
    7
 10
47.959251777987816
 20
-94.92469870303745
 11
48.209251777986793
 21
-94.674698703039041
  0
LINE
  8
_1-0_
  6
CONTINUOUS
 62
    7
 10
48.209251777986793
 20
-94.674698703038814
 11
48.758035390930019
 21
-94.674698703039041
  0
LINE
  8
_1-0_
  6
CONTINUOUS
 62
    7
 10
48.836876608088033
 20
-93.98271822096973
 11
48.758035390930132
 21
-94.674698703039269
  0
LINE
  8
_1-0_
  6
CONTINUOUS
 62
    7
 10
48.836876608092354
 20
-81.966679185108717
 11
48.758035390934793
 21
-81.274698703039178
  0
LINE
  8
_1-0_
  6
CONTINUOUS
 62
    7
 10
48.209251777991568
 20
-81.274698703038723
 11
48.758035390934907
 21
-81.27469870303895
  0
LINE
  8
_1-0_
  6
CONTINUOUS
 62
    7
 10
51.608023055665598
 20
-72.29575478956923
 11
51.608027141446001
 21
-82.211849848097756
  0
LINE
  8
_1-0_
  6
CONTINUOUS
 62
    7
 10
51.6080318801381
 20
-93.712546617820692
 11
51.608037442326491
 21
-107.21184984809355
  0
LINE
  8
_1-0_
  6
CONTINUOUS
 62
    7
 10
51.608035390935498
 20
-189.73317108579363
 11
51.608037442326491
 21
-194.71184984809349
  0
LINE
  8
_1-0_
  6
CONTINUOUS
 62
    7
 10
51.608035390935498
 20
-192.96219870304003
 11
51.608035390935498
 21
-193.53261000851899
  0
LINE
  8
_1-0_
  6
CONTINUOUS
 62
    7
 10
51.608035390930155
 20
-207.96219870304003
 11
51.608035390930496
 21
-207.39178739747399
  0
LINE
  8
_1-0_
  6
CONTINUOUS
 62
    9
 10
43.858035390935498
 20
-205.93755400360556
 11
43.858035390935498
 21
-200.44969870331511
  0
LINE
  8
_1-0_
  6
CONTINUOUS
 62
    9
 10
48.758035390935476
 20
-205.77469870331493
 11
48.758035390935476
 21
-206.92469870331502
  0
ARC
  8
_1-0_
  6
CONTINUOUS
 62
    9
 10
48.508035390935476
 20
-206.92469870331502
 40
0.25
 50
254.9999999999107
 51
0
  0
LINE
  8
_1-0_
  6
CONTINUOUS
 62
    9
 10
43.858035390935498
 20
-205.93755400360556
 11
48.443330629659641
 21
-207.16618015988729
  0
ARC
  8
_1-0_
  6
CONTINUOUS
 62
    9
 10
49.008035390935476
 20
-205.77469870331493
 40
0.25
 50
74.99999999995498
 51
180
  0
LINE
  8
_1-0_
  6
CONTINUOUS
 62
    9
 10
49.07274015221131
 20
-205.53321724674311
 11
51.608035390935612
 21
-206.21254755853602
  0
LINE
  8
_1-0_
  6
CONTINUOUS
 62
    9
 10
49.708035390935521
 20
-200.44969870331511
 11
49.708035390935521
 21
-205.70344409291533
  0
LINE
  8
_1-0_
  6
CONTINUOUS
 62
    9
 10
49.058035390935544
 20
-200.44969870331511
 11
49.058035390935544
 21
-205.52927711783445
  0
LINE
  8
_1-0_
  6
CONTINUOUS
 62
    9
 10
43.858035390935498
 20
-194.98684340302452
 11
43.858035390935498
 21
-200.44969870331511
  0
LINE
  8
_1-0_
  6
CONTINUOUS
 62
    9
 10
48.758035390935476
 20
-195.14969870331515
 11
48.758035390935476
 21
-193.99969870331506
  0
LINE
  8
_1-0_
  6
CONTINUOUS
 62
    9
 10
43.858035390935498
 20
-194.98684340302475
 11
48.443330629659641
 21
-193.75821724674302
  0
ARC
  8
_1-0_
  6
CONTINUOUS
 62
    9
 10
49.008035390935476
 20
-195.14969870331515
 40
0.25
 50
180
 51
285.00000000004496
  0
LINE
  8
_1-0_
  6
CONTINUOUS
 62
    9
 10
49.072740152211196
 20
-195.39118015988697
 11
51.608035390935498
 21
-194.71184984809429
  0
LINE
  8
_1-0_
  6
CONTINUOUS
 62
    9
 10
49.708035390935521
 20
-200.44969870331511
 11
49.708035390935521
 21
-195.22095331371474
  0
LINE
  8
_1-0_
  6
CONTINUOUS
 62
    9
 10
49.058035390935544
 20
-200.44969870331511
 11
49.058035390935544
 21
-195.39512028879562
  0
ARC
  8
_1-0_
  6
CONTINUOUS
 62
    9
 10
48.508035390935476
 20
-193.99969870331506
 40
0.25
 50
0
 51
105.00000000008929
  0
LINE
  8
_1-0_
  6
CONTINUOUS
 62
    7
 10
51.608035390935498
 20
-192.97469870304008
 11
51.608035390935498
 21
-193.54511000851903
  0
ARC
  8
_1-0_
  6
CONTINUOUS
 62
    7
 10
48.985912386443744
 20
-194.4496987030434
 40
0.1499999999999999
 50
186.49999999999821
 51
288.60829801488677
  0
LINE
  8
_1-0_
  6
CONTINUOUS
 62
    7
 10
26.608035390940813
 20
-192.97469870302211
 11
51.608035390935385
 21
-192.97469870304008
  0
LINE
  8
_1-0_
  6
CONTINUOUS
 62
    7
 10
47.959251777990318
 20
-193.52469870303753
 11
48.209251777991796
 21
-193.77469870303912
  0
LINE
  8
_1-0_
  6
CONTINUOUS
 62
    7
 10
51.608035390930155
 20
-207.97469870304008
 11
51.60803539093061
 21
-207.40428739747404
  0
ARC
  8
_1-0_
  6
CONTINUOUS
 62
    7
 10
48.985912386439423
 20
-206.49969870303494
 40
0.1499999999999999
 50
71.383514957199623
 51
173.49999999996072
  0
LINE
  8
_1-0_
  6
CONTINUOUS
 62
    7
 10
26.608035390935356
 20
-207.97469870302211
 11
51.608035390930155
 21
-207.97469870303985
  0
LINE
  8
_1-0_
  6
CONTINUOUS
 62
    7
 10
38.310974027533803
 20
-193.52469870303048
 11
47.959251777990204
 21
-193.52469870303753
  0
LINE
  8
_1-0_
  6
CONTINUOUS
 62
    7
 10
38.310974027526186
 20
-207.42469870303057
 11
47.959251777987816
 21
-207.42469870303739
  0
LINE
  8
_1-0_
  6
CONTINUOUS
 62
    7
 10
49.033797184396946
 20
-206.35754721298099
 11
51.437843387526328
 21
-207.16736824738382
  0
ARC
  8
_1-0_
  6
CONTINUOUS
 62
    7
 10
51.358035390930496
 20
-207.40428739747381
 40
0.25
 50
0
 51
71.383514957200816
  0
LINE
  8
_1-0_
  6
CONTINUOUS
 62
    7
 10
49.033797184390352
 20
-194.59185019301435
 11
51.437843387518825
 21
-193.78202915860879
  0
ARC
  8
_1-0_
  6
CONTINUOUS
 62
    7
 10
51.358035390922879
 20
-193.54511000851903
 40
0.25
 50
288.61648504286279
 51
0.0000000000000254
  0
LINE
  8
_1-0_
  6
CONTINUOUS
 62
    7
 10
47.959251777987816
 20
-207.42469870303739
 11
48.209251777986793
 21
-207.17469870303898
  0
LINE
  8
_1-0_
  6
CONTINUOUS
 62
    7
 10
48.209251777986793
 20
-207.17469870303876
 11
48.758035390930019
 21
-207.17469870303898
  0
LINE
  8
_1-0_
  6
CONTINUOUS
 62
    7
 10
48.836876608088033
 20
-206.48271822096967
 11
48.758035390930132
 21
-207.17469870303921
  0
LINE
  8
_1-0_
  6
CONTINUOUS
 62
    7
 10
48.836876608092354
 20
-194.46667918510866
 11
48.758035390934793
 21
-193.77469870303912
  0
LINE
  8
_1-0_
  6
CONTINUOUS
 62
    7
 10
48.209251777991568
 20
-193.77469870303867
 11
48.758035390934907
 21
-193.77469870303889
  0
LINE
  8
_1-0_
  6
CONTINUOUS
 62
    7
 10
51.608073083661139
 20
-193.71254755852044
 11
51.608073495408888
 21
-194.7118498480786
  0
LINE
  8
_1-0_
  6
CONTINUOUS
 62
    7
 10
51.608078234101441
 20
-206.21254755851839
 11
51.608081136812444
 21
-213.2573603129789
  0
LINE
  8
_1-0_
  6
CONTINUOUS
 62
    7
 10
51.60805763234012
 20
-131.21254755852686
 11
51.608068344968643
 21
-157.21184984808076
  0
LINE
  8
_1-0_
  6
CONTINUOUS
 62
    7
 10
51.608073083661253
 20
-168.71254755852044
 11
51.608083080522334
 21
-192.97469870304008
  0
CIRCLE
  8
_1-0_
  6
CONTINUOUS
 62
    3
 10
290.58109041622015
 20
-237.75737031297899
 40
0.2999999999999999
  0
CIRCLE
  8
_1-0_
  6
CONTINUOUS
 62
    3
 10
290.58109041622015
 20
-237.75737031297899
 40
0.2999999999999999
  0
LINE
  8
_1-0_
  6
CONTINUOUS
 62
    3
 10
330.74358541622018
 20
-160.22469731297895
 11
330.42614841622014
 21
-159.91219731297895
  0
LINE
  8
_1-0_
  6
CONTINUOUS
 62
    3
 10
330.42614841622014
 20
-159.91219731297895
 11
330.33108641622016
 21
-159.91219731297895
  0
LINE
  8
_1-0_
  6
CONTINUOUS
 62
    3
 10
330.42614841622014
 20
-159.91219731297895
 11
330.33108641622016
 21
-159.65869864631236
  0
LINE
  8
_1-0_
  6
CONTINUOUS
 62
    3
 10
330.33108641622016
 20
-158.59069864631215
 11
330.82664841622022
 21
-159.91219731297895
  0
LINE
  8
_1-0_
  6
CONTINUOUS
 62
    3
 10
330.33108641622016
 20
-158.03719731297895
 11
330.66052341622014
 21
-158.03719731297895
  0
LINE
  8
_1-0_
  6
CONTINUOUS
 62
    3
 10
331.36364841622014
 20
-159.91219731297895
 11
330.82664841622022
 21
-159.91219731297895
  0
LINE
  8
_1-0_
  6
CONTINUOUS
 62
    3
 10
330.82664841622022
 20
-159.91219731297895
 11
330.74358541622018
 21
-160.22469731297895
  0
LINE
  8
_1-0_
  6
CONTINUOUS
 62
    3
 10
331.68108541622018
 20
-160.22469731297895
 11
331.36364841622014
 21
-159.91219731297895
  0
LINE
  8
_1-0_
  6
CONTINUOUS
 62
    3
 10
331.76414841622022
 20
-159.91219731297895
 11
331.68108541622018
 21
-160.22469731297895
  0
LINE
  8
_1-0_
  6
CONTINUOUS
 62
    3
 10
331.06102341622022
 20
-158.03719731297895
 11
331.76414841622022
 21
-159.91219731297895
  0
LINE
  8
_1-0_
  6
CONTINUOUS
 62
    3
 10
330.74358541622018
 20
-157.72469731297895
 11
331.06102341622022
 21
-158.03719731297895
  0
LINE
  8
_1-0_
  6
CONTINUOUS
 62
    3
 10
330.66052341622014
 20
-158.03719731297895
 11
330.74358541622018
 21
-157.72469731297895
  0
LINE
  8
_1-0_
  6
CONTINUOUS
 62
    3
 10
331.36364841622014
 20
-159.91219731297895
 11
330.66052341622014
 21
-158.03719731297895
  0
LINE
  8
_1-0_
  6
CONTINUOUS
 62
    3
 10
331.59802341622014
 20
-158.03719731297895
 11
331.68108541622018
 21
-157.72469731297895
  0
LINE
  8
_1-0_
  6
CONTINUOUS
 62
    3
 10
331.06102341622022
 20
-158.03719731297895
 11
331.59802341622014
 21
-158.03719731297895
  0
ARC
  8
_1-0_
  6
CONTINUOUS
 62
    3
 10
332.64239241622022
 20
-158.97469731297895
 40
4.9113049999999996
 50
153.95941400000001
 51
206.04058600000002
  0
LINE
  8
_1-0_
  6
CONTINUOUS
 62
    3
 10
329.33108641622016
 20
-161.06102231297893
 11
328.83108641622016
 21
-161.34969731297895
  0
LINE
  8
_1-0_
  6
CONTINUOUS
 62
    3
 10
328.83108641622016
 20
-156.59969731297895
 11
329.33108641622016
 21
-156.88837231297896
  0
LINE
  8
_1-0_
  6
CONTINUOUS
 62
    3
 10
328.83108641622016
 20
-161.34969731297895
 11
328.83108641622016
 21
-156.59969731297895
  0
LINE
  8
_1-0_
  6
CONTINUOUS
 62
    3
 10
328.2296664162202
 20
-161.13079831297898
 11
328.83108641622016
 21
-161.34969731297895
  0
LINE
  8
_1-0_
  6
CONTINUOUS
 62
    3
 10
328.2296664162202
 20
-156.81859631297891
 11
328.83108641622016
 21
-156.59969731297895
  0
LINE
  8
_1-0_
  6
CONTINUOUS
 62
    7
 10
329.33108641622016
 20
-157.59969731297895
 11
330.33108641622016
 21
-157.59969731297895
  0
LINE
  8
_1-0_
  6
CONTINUOUS
 62
    7
 10
329.33108641622005
 20
-160.34969731297895
 11
330.33108641622016
 21
-160.34969731297895
  0
LINE
  8
_1-0_
  6
CONTINUOUS
 62
    3
 10
332.30114841622014
 20
-159.91219731297895
 11
331.76414841622022
 21
-159.91219731297895
  0
LINE
  8
_1-0_
  6
CONTINUOUS
 62
    3
 10
330.74358541622018
 20
-157.72469731297895
 11
330.68108541622018
 21
-157.95983631297895
  0
LINE
  8
_1-0_
  6
CONTINUOUS
 62
    3
 10
331.36364841622014
 20
-159.91219731297895
 11
330.68108541622018
 21
-158.09203131297897
  0
LINE
  8
_1-0_
  6
CONTINUOUS
 62
    3
 10
331.68108541622018
 20
-160.22469731297895
 11
331.36364841622014
 21
-159.91219731297895
  0
LINE
  8
_1-0_
  6
CONTINUOUS
 62
    3
 10
331.76414841622022
 20
-159.91219731297895
 11
331.68108541622018
 21
-160.22469731297895
  0
LINE
  8
_1-0_
  6
CONTINUOUS
 62
    3
 10
331.06102341622022
 20
-158.03719731297895
 11
331.76414841622022
 21
-159.91219731297895
  0
LINE
  8
_1-0_
  6
CONTINUOUS
 62
    3
 10
330.74358541622018
 20
-157.72469731297895
 11
331.06102341622022
 21
-158.03719731297895
  0
LINE
  8
_1-0_
  6
CONTINUOUS
 62
    3
 10
333.23864841622014
 20
-159.91219731297895
 11
332.70164841622022
 21
-159.91219731297895
  0
LINE
  8
_1-0_
  6
CONTINUOUS
 62
    3
 10
332.61858541622018
 20
-160.22469731297895
 11
332.30114841622014
 21
-159.91219731297895
  0
LINE
  8
_1-0_
  6
CONTINUOUS
 62
    3
 10
332.70164841622022
 20
-159.91219731297895
 11
332.61858541622018
 21
-160.22469731297895
  0
LINE
  8
_1-0_
  6
CONTINUOUS
 62
    3
 10
331.99852341622022
 20
-158.03719731297895
 11
332.70164841622022
 21
-159.91219731297895
  0
LINE
  8
_1-0_
  6
CONTINUOUS
 62
    3
 10
331.68108541622018
 20
-157.72469731297895
 11
331.99852341622022
 21
-158.03719731297895
  0
LINE
  8
_1-0_
  6
CONTINUOUS
 62
    3
 10
331.59802341622014
 20
-158.03719731297895
 11
331.68108541622018
 21
-157.72469731297895
  0
LINE
  8
_1-0_
  6
CONTINUOUS
 62
    3
 10
332.30114841622014
 20
-159.91219731297895
 11
331.59802341622014
 21
-158.03719731297895
  0
LINE
  8
_1-0_
  6
CONTINUOUS
 62
    3
 10
334.17614841622014
 20
-159.91219731297895
 11
333.63914841622022
 21
-159.91219731297895
  0
LINE
  8
_1-0_
  6
CONTINUOUS
 62
    3
 10
333.55608541622018
 20
-160.22469731297895
 11
333.23864841622014
 21
-159.91219731297895
  0
LINE
  8
_1-0_
  6
CONTINUOUS
 62
    3
 10
333.63914841622022
 20
-159.91219731297895
 11
333.55608541622018
 21
-160.22469731297895
  0
LINE
  8
_1-0_
  6
CONTINUOUS
 62
    3
 10
332.93602341622022
 20
-158.03719731297895
 11
333.63914841622022
 21
-159.91219731297895
  0
LINE
  8
_1-0_
  6
CONTINUOUS
 62
    3
 10
332.61858541622018
 20
-157.72469731297895
 11
332.93602341622022
 21
-158.03719731297895
  0
LINE
  8
_1-0_
  6
CONTINUOUS
 62
    3
 10
332.53552341622014
 20
-158.03719731297895
 11
332.61858541622018
 21
-157.72469731297895
  0
LINE
  8
_1-0_
  6
CONTINUOUS
 62
    3
 10
333.23864841622014
 20
-159.91219731297895
 11
332.53552341622014
 21
-158.03719731297895
  0
LINE
  8
_1-0_
  6
CONTINUOUS
 62
    3
 10
333.87352341622022
 20
-158.03719731297895
 11
334.33108541622016
 21
-159.25736431297889
  0
LINE
  8
_1-0_
  6
CONTINUOUS
 62
    3
 10
334.17614841622014
 20
-159.91219731297895
 11
334.33108541622016
 21
-160.06472531297891
  0
LINE
  8
_1-0_
  6
CONTINUOUS
 62
    3
 10
333.55608541622018
 20
-157.72469731297895
 11
333.87352341622022
 21
-158.03719731297895
  0
LINE
  8
_1-0_
  6
CONTINUOUS
 62
    3
 10
333.47302341622014
 20
-158.03719731297895
 11
333.55608541622018
 21
-157.72469731297895
  0
LINE
  8
_1-0_
  6
CONTINUOUS
 62
    3
 10
334.17614841622014
 20
-159.91219731297895
 11
333.47302341622014
 21
-158.03719731297895
  0
LINE
  8
_1-0_
  6
CONTINUOUS
 62
    3
 10
333.87352341622022
 20
-158.03719731297895
 11
334.33108541622016
 21
-158.03719731297895
  0
LINE
  8
_1-0_
  6
CONTINUOUS
 62
    3
 10
332.93602341622022
 20
-158.03719731297895
 11
333.47302341622014
 21
-158.03719731297895
  0
LINE
  8
_1-0_
  6
CONTINUOUS
 62
    3
 10
331.99852341622022
 20
-158.03719731297895
 11
332.53552341622014
 21
-158.03719731297895
  0
LINE
  8
_1-0_
  6
CONTINUOUS
 62
    3
 10
331.06102341622022
 20
-158.03719731297895
 11
331.59802341622014
 21
-158.03719731297895
  0
LINE
  8
_1-0_
  6
CONTINUOUS
 62
    3
 10
408.08108941622015
 20
-80.387194312979034
 11
408.39358941622015
 21
-80.069757312978993
  0
LINE
  8
_1-0_
  6
CONTINUOUS
 62
    3
 10
408.39358941622015
 20
-80.069757312978993
 11
408.39358941622015
 21
-79.974695312979009
  0
LINE
  8
_1-0_
  6
CONTINUOUS
 62
    3
 10
408.39358941622015
 20
-80.069757312978993
 11
408.64708808288685
 21
-79.974695312979009
  0
LINE
  8
_1-0_
  6
CONTINUOUS
 62
    3
 10
409.71508808288706
 20
-79.974695312979009
 11
408.39358941622015
 21
-80.470257312979072
  0
LINE
  8
_1-0_
  6
CONTINUOUS
 62
    3
 10
410.26858941622015
 20
-79.974695312979009
 11
410.26858941622015
 21
-80.304132312978993
  0
LINE
  8
_1-0_
  6
CONTINUOUS
 62
    3
 10
408.39358941622015
 20
-81.007257312978993
 11
408.39358941622015
 21
-80.470257312979072
  0
LINE
  8
_1-0_
  6
CONTINUOUS
 62
    3
 10
408.39358941622015
 20
-80.470257312979072
 11
408.08108941622015
 21
-80.387194312979034
  0
LINE
  8
_1-0_
  6
CONTINUOUS
 62
    3
 10
408.08108941622015
 20
-81.324694312979034
 11
408.39358941622015
 21
-81.007257312978993
  0
LINE
  8
_1-0_
  6
CONTINUOUS
 62
    3
 10
408.39358941622015
 20
-81.407757312979072
 11
408.08108941622015
 21
-81.324694312979034
  0
LINE
  8
_1-0_
  6
CONTINUOUS
 62
    3
 10
410.26858941622015
 20
-80.704632312979072
 11
408.39358941622015
 21
-81.407757312979072
  0
LINE
  8
_1-0_
  6
CONTINUOUS
 62
    3
 10
410.58108941622015
 20
-80.387194312979034
 11
410.26858941622015
 21
-80.704632312979072
  0
LINE
  8
_1-0_
  6
CONTINUOUS
 62
    3
 10
410.26858941622015
 20
-80.304132312978993
 11
410.58108941622015
 21
-80.387194312979034
  0
LINE
  8
_1-0_
  6
CONTINUOUS
 62
    3
 10
408.39358941622015
 20
-81.007257312978993
 11
410.26858941622015
 21
-80.304132312978993
  0
LINE
  8
_1-0_
  6
CONTINUOUS
 62
    3
 10
410.26858941622015
 20
-81.241632312978993
 11
410.58108941622015
 21
-81.324694312979034
  0
LINE
  8
_1-0_
  6
CONTINUOUS
 62
    3
 10
410.26858941622015
 20
-80.704632312979072
 11
410.26858941622015
 21
-81.241632312978993
  0
ARC
  8
_1-0_
  6
CONTINUOUS
 62
    3
 10
409.33108941622015
 20
-82.286001312979067
 40
4.9113049999999996
 50
63.959414000000002
 51
116.040586
  0
LINE
  8
_1-0_
  6
CONTINUOUS
 62
    3
 10
407.24476441622016
 20
-78.974695312979009
 11
406.95608941622015
 21
-78.474695312979009
  0
LINE
  8
_1-0_
  6
CONTINUOUS
 62
    3
 10
411.70608941622015
 20
-78.474695312979009
 11
411.41741441622014
 21
-78.974695312979009
  0
LINE
  8
_1-0_
  6
CONTINUOUS
 62
    3
 10
406.95608941622015
 20
-78.474695312979009
 11
411.70608941622015
 21
-78.474695312979009
  0
LINE
  8
_1-0_
  6
CONTINUOUS
 62
    3
 10
407.17498841622012
 20
-77.873275312979047
 11
406.95608941622015
 21
-78.474695312979009
  0
LINE
  8
_1-0_
  6
CONTINUOUS
 62
    3
 10
411.48719041622019
 20
-77.873275312979047
 11
411.70608941622015
 21
-78.474695312979009
  0
ARC
  8
_1-0_
  6
CONTINUOUS
 62
    7
 10
413.15608941621997
 20
-83.649695312978963
 40
0.325
 50
180
 51
270
  0
ARC
  8
_1-0_
  6
CONTINUOUS
 62
    7
 10
413.15608941621997
 20
-83.649695312978963
 40
0.325
 50
90
 51
180
  0
LINE
  8
_1-0_
  6
CONTINUOUS
 62
    7
 10
419.33108941622015
 20
-61.574695312978918
 11
419.33108941622015
 21
-57.474695312979009
  0
LINE
  8
_1-0_
  6
CONTINUOUS
 62
    7
 10
419.33108941622015
 20
-69.624695312978986
 11
419.33108941622015
 21
-62.224695312979009
  0
LINE
  8
_1-0_
  6
CONTINUOUS
 62
    7
 10
420.08108941622015
 20
-62.224695312979009
 11
419.33108941622015
 21
-62.224695312979009
  0
LINE
  8
_1-0_
  6
CONTINUOUS
 62
    7
 10
420.08108941622015
 20
-61.574695312978918
 11
419.33108941622015
 21
-61.574695312978918
  0
LINE
  8
_1-0_
  6
CONTINUOUS
 62
    7
 10
416.18108941622006
 20
-78.974695312979009
 11
416.18108941622006
 21
-68.974695312979009
  0
LINE
  8
_1-0_
  6
CONTINUOUS
 62
    7
 10
416.18108941622006
 20
-83.324695312978918
 11
416.18108941622006
 21
-79.974695312979009
  0
LINE
  8
_1-0_
  6
CONTINUOUS
 62
    7
 10
418.68108941622006
 20
-68.974695312979009
 11
418.68108941622006
 21
-57.474695312979009
  0
LINE
  8
_1-0_
  6
CONTINUOUS
 62
    7
 10
409.33108941622015
 20
-79.974695312979009
 11
416.18108941622006
 21
-79.974695312979009
  0
LINE
  8
_1-0_
  6
CONTINUOUS
 62
    7
 10
409.33108941622015
 20
-78.974695312979009
 11
416.18108941622006
 21
-78.974695312979009
  0
LINE
  8
_1-0_
  6
CONTINUOUS
 62
    7
 10
419.33108941622015
 20
-69.624695312978986
 11
416.83108941622015
 21
-69.624695312978986
  0
LINE
  8
_1-0_
  6
CONTINUOUS
 62
    7
 10
416.18108941622006
 20
-68.974695312979009
 11
418.68108941622006
 21
-68.974695312979009
  0
LINE
  8
_1-0_
  6
CONTINUOUS
 62
    7
 10
416.83108941622015
 20
-83.974695312979009
 11
416.83108941622015
 21
-69.624695312978986
  0
LINE
  8
_1-0_
  6
CONTINUOUS
 62
    7
 10
416.18108941622006
 20
-83.324695312978918
 11
413.15608941621997
 21
-83.324695312978918
  0
LINE
  8
_1-0_
  6
CONTINUOUS
 62
    7
 10
420.08108941622015
 20
-61.574695312978918
 11
420.08108941622015
 21
-62.224695312979009
  0
LINE
  8
_1-0_
  6
CONTINUOUS
 62
    7
 10
419.33108941622015
 20
-57.474695312979009
 11
418.68108941622006
 21
-57.474695312979009
  0
LINE
  8
_1-0_
  6
CONTINUOUS
 62
    7
 10
416.83108941622015
 20
-83.974695312979009
 11
413.15608941621997
 21
-83.974695312979009
  0
ARC
  8
_1-0_
  6
CONTINUOUS
 62
    7
 10
405.50608941622011
 20
-83.649695312978963
 40
0.325
 50
270
 51
0
  0
ARC
  8
_1-0_
  6
CONTINUOUS
 62
    7
 10
405.50608941622011
 20
-83.649695312978963
 40
0.325
 50
0
 51
90
  0
LINE
  8
_1-0_
  6
CONTINUOUS
 62
    7
 10
399.33108941622015
 20
-61.574695312978918
 11
399.33108941622015
 21
-57.474695312979009
  0
LINE
  8
_1-0_
  6
CONTINUOUS
 62
    7
 10
399.33108941622015
 20
-69.624695312978986
 11
399.33108941622015
 21
-62.224695312979009
  0
LINE
  8
_1-0_
  6
CONTINUOUS
 62
    7
 10
398.58108941622015
 20
-62.224695312979009
 11
399.33108941622015
 21
-62.224695312979009
  0
LINE
  8
_1-0_
  6
CONTINUOUS
 62
    7
 10
398.58108941622015
 20
-61.574695312978918
 11
399.33108941622015
 21
-61.574695312978918
  0
LINE
  8
_1-0_
  6
CONTINUOUS
 62
    7
 10
402.48108941622002
 20
-78.974695312979009
 11
402.48108941622002
 21
-68.974695312979009
  0
LINE
  8
_1-0_
  6
CONTINUOUS
 62
    7
 10
402.48108941622002
 20
-83.324695312978918
 11
402.48108941622002
 21
-79.974695312979009
  0
LINE
  8
_1-0_
  6
CONTINUOUS
 62
    7
 10
399.98108941622002
 20
-68.974695312979009
 11
399.98108941622002
 21
-57.474695312979009
  0
LINE
  8
_1-0_
  6
CONTINUOUS
 62
    7
 10
409.33108941622015
 20
-79.974695312979009
 11
402.48108941622002
 21
-79.974695312979009
  0
LINE
  8
_1-0_
  6
CONTINUOUS
 62
    7
 10
409.33108941622015
 20
-78.974695312979009
 11
402.48108941622002
 21
-78.974695312979009
  0
LINE
  8
_1-0_
  6
CONTINUOUS
 62
    7
 10
399.33108941622015
 20
-69.624695312978986
 11
401.83108941622015
 21
-69.624695312978986
  0
LINE
  8
_1-0_
  6
CONTINUOUS
 62
    7
 10
402.48108941622002
 20
-68.974695312979009
 11
399.98108941622002
 21
-68.974695312979009
  0
LINE
  8
_1-0_
  6
CONTINUOUS
 62
    7
 10
401.83108941622015
 20
-83.974695312979009
 11
401.83108941622015
 21
-69.624695312978986
  0
LINE
  8
_1-0_
  6
CONTINUOUS
 62
    7
 10
402.48108941622002
 20
-83.324695312978918
 11
405.50608941622011
 21
-83.324695312978918
  0
LINE
  8
_1-0_
  6
CONTINUOUS
 62
    7
 10
398.58108941622015
 20
-61.574695312978918
 11
398.58108941622015
 21
-62.224695312979009
  0
LINE
  8
_1-0_
  6
CONTINUOUS
 62
    7
 10
399.33108941622015
 20
-57.474695312979009
 11
399.98108941622002
 21
-57.474695312979009
  0
LINE
  8
_1-0_
  6
CONTINUOUS
 62
    7
 10
401.83108941622015
 20
-83.974695312979009
 11
405.50608941622011
 21
-83.974695312979009
  0
LINE
  8
_1-0_
  6
CONTINUOUS
 62
    7
 10
418.68108941622006
 20
-65.224695313020277
 11
419.33108941622015
 21
-65.2246953130213
  0
LINE
  8
_1-0_
  6
CONTINUOUS
 62
    7
 10
399.33108941622015
 20
-65.224695312990036
 11
399.98108941622002
 21
-65.224695312991059
  0
LINE
  8
_1-0_
  6
CONTINUOUS
 62
    7
 10
418.68108941622006
 20
-62.374695312976257
 11
419.33108941622015
 21
-62.374695312976257
  0
LINE
  8
_1-0_
  6
CONTINUOUS
 62
    7
 10
399.33108941622015
 20
-62.374695312976257
 11
399.98108941622002
 21
-62.374695312976257
  0
LINE
  8
_1-0_
  6
CONTINUOUS
 62
    7
 10
410.70608941622015
 20
-78.974695312979009
 11
410.70608941622015
 21
-79.974695312979009
  0
LINE
  8
_1-0_
  6
CONTINUOUS
 62
    7
 10
407.95608941622015
 20
-78.974695312978895
 11
407.95608941622015
 21
-79.974695312979009
  0
ARC
  8
_1-0_
  6
CONTINUOUS
 62
    7
 10
334.00608641622011
 20
-155.14969731297913
 40
0.325
 50
270
 51
0
  0
ARC
  8
_1-0_
  6
CONTINUOUS
 62
    7
 10
334.00608641622011
 20
-155.14969731297913
 40
0.325
 50
180
 51
270
  0
LINE
  8
_1-0_
  6
CONTINUOUS
 62
    7
 10
311.93108641622007
 20
-148.97469731297895
 11
307.83108641622016
 21
-148.97469731297895
  0
LINE
  8
_1-0_
  6
CONTINUOUS
 62
    7
 10
319.98108641622014
 20
-148.97469731297895
 11
312.58108641622016
 21
-148.97469731297895
  0
LINE
  8
_1-0_
  6
CONTINUOUS
 62
    7
 10
312.58108641622016
 20
-148.22469731297895
 11
312.58108641622016
 21
-148.97469731297895
  0
LINE
  8
_1-0_
  6
CONTINUOUS
 62
    7
 10
311.93108641622007
 20
-148.22469731297895
 11
311.93108641622007
 21
-148.97469731297895
  0
LINE
  8
_1-0_
  6
CONTINUOUS
 62
    7
 10
329.33108641622016
 20
-152.12469731297904
 11
319.33108641622016
 21
-152.12469731297904
  0
LINE
  8
_1-0_
  6
CONTINUOUS
 62
    7
 10
333.68108641622007
 20
-152.12469731297904
 11
330.33108641622016
 21
-152.12469731297904
  0
LINE
  8
_1-0_
  6
CONTINUOUS
 62
    7
 10
319.33108641622016
 20
-149.62469731297904
 11
307.83108641622016
 21
-149.62469731297904
  0
LINE
  8
_1-0_
  6
CONTINUOUS
 62
    7
 10
330.33108641622016
 20
-158.97469731297895
 11
330.33108641622016
 21
-152.12469731297904
  0
LINE
  8
_1-0_
  6
CONTINUOUS
 62
    7
 10
329.33108641622016
 20
-158.97469731297895
 11
329.33108641622016
 21
-152.12469731297904
  0
LINE
  8
_1-0_
  6
CONTINUOUS
 62
    7
 10
319.98108641622014
 20
-148.97469731297895
 11
319.98108641622014
 21
-151.47469731297895
  0
LINE
  8
_1-0_
  6
CONTINUOUS
 62
    7
 10
319.33108641622016
 20
-152.12469731297904
 11
319.33108641622016
 21
-149.62469731297904
  0
LINE
  8
_1-0_
  6
CONTINUOUS
 62
    7
 10
334.33108641622016
 20
-151.47469731297895
 11
319.98108641622014
 21
-151.47469731297895
  0
LINE
  8
_1-0_
  6
CONTINUOUS
 62
    7
 10
333.68108641622007
 20
-152.12469731297904
 11
333.68108641622007
 21
-155.14969731297913
  0
LINE
  8
_1-0_
  6
CONTINUOUS
 62
    7
 10
311.93108641622007
 20
-148.22469731297895
 11
312.58108641622016
 21
-148.22469731297895
  0
LINE
  8
_1-0_
  6
CONTINUOUS
 62
    7
 10
307.83108641622016
 20
-148.97469731297895
 11
307.83108641622016
 21
-149.62469731297904
  0
LINE
  8
_1-0_
  6
CONTINUOUS
 62
    7
 10
334.33108641622016
 20
-151.47469731297895
 11
334.33108641622016
 21
-155.14969731297913
  0
ARC
  8
_1-0_
  6
CONTINUOUS
 62
    7
 10
334.00608641622011
 20
-162.79969731297899
 40
0.325
 50
0
 51
90
  0
ARC
  8
_1-0_
  6
CONTINUOUS
 62
    7
 10
334.00608641622011
 20
-162.79969731297899
 40
0.325
 50
90
 51
180
  0
LINE
  8
_1-0_
  6
CONTINUOUS
 62
    7
 10
311.93108641622007
 20
-168.97469731297895
 11
307.83108641622016
 21
-168.97469731297895
  0
LINE
  8
_1-0_
  6
CONTINUOUS
 62
    7
 10
319.98108641622014
 20
-168.97469731297895
 11
312.58108641622016
 21
-168.97469731297895
  0
LINE
  8
_1-0_
  6
CONTINUOUS
 62
    7
 10
312.58108641622016
 20
-169.72469731297895
 11
312.58108641622016
 21
-168.97469731297895
  0
LINE
  8
_1-0_
  6
CONTINUOUS
 62
    7
 10
311.93108641622007
 20
-169.72469731297895
 11
311.93108641622007
 21
-168.97469731297895
  0
LINE
  8
_1-0_
  6
CONTINUOUS
 62
    7
 10
329.33108641622016
 20
-165.82469731297908
 11
319.33108641622016
 21
-165.82469731297908
  0
LINE
  8
_1-0_
  6
CONTINUOUS
 62
    7
 10
333.68108641622007
 20
-165.82469731297908
 11
330.33108641622016
 21
-165.82469731297908
  0
LINE
  8
_1-0_
  6
CONTINUOUS
 62
    7
 10
319.33108641622016
 20
-168.32469731297908
 11
307.83108641622016
 21
-168.32469731297908
  0
LINE
  8
_1-0_
  6
CONTINUOUS
 62
    7
 10
330.33108641622016
 20
-158.97469731297895
 11
330.33108641622016
 21
-165.82469731297908
  0
LINE
  8
_1-0_
  6
CONTINUOUS
 62
    7
 10
329.33108641622016
 20
-158.97469731297895
 11
329.33108641622016
 21
-165.82469731297908
  0
LINE
  8
_1-0_
  6
CONTINUOUS
 62
    7
 10
319.98108641622014
 20
-168.97469731297895
 11
319.98108641622014
 21
-166.47469731297895
  0
LINE
  8
_1-0_
  6
CONTINUOUS
 62
    7
 10
319.33108641622016
 20
-165.82469731297908
 11
319.33108641622016
 21
-168.32469731297908
  0
LINE
  8
_1-0_
  6
CONTINUOUS
 62
    7
 10
334.33108641622016
 20
-166.47469731297895
 11
319.98108641622014
 21
-166.47469731297895
  0
LINE
  8
_1-0_
  6
CONTINUOUS
 62
    7
 10
333.68108641622007
 20
-165.82469731297908
 11
333.68108641622007
 21
-162.79969731297899
  0
LINE
  8
_1-0_
  6
CONTINUOUS
 62
    7
 10
311.93108641622007
 20
-169.72469731297895
 11
312.58108641622016
 21
-169.72469731297895
  0
LINE
  8
_1-0_
  6
CONTINUOUS
 62
    7
 10
307.83108641622016
 20
-168.97469731297895
 11
307.83108641622016
 21
-168.32469731297908
  0
LINE
  8
_1-0_
  6
CONTINUOUS
 62
    7
 10
334.33108641622016
 20
-166.47469731297895
 11
334.33108641622016
 21
-162.79969731297899
  0
LINE
  8
_1-0_
  6
CONTINUOUS
 62
    7
 10
315.58108641626154
 20
-149.62469731297904
 11
315.58108641626256
 21
-148.97469731297895
  0
LINE
  8
_1-0_
  6
CONTINUOUS
 62
    7
 10
315.58108641623119
 20
-168.97469731297895
 11
315.58108641623221
 21
-168.32469731297908
  0
LINE
  8
_1-0_
  6
CONTINUOUS
 62
    7
 10
312.73108641621741
 20
-149.62469731297904
 11
312.73108641621741
 21
-148.97469731297895
  0
LINE
  8
_1-0_
  6
CONTINUOUS
 62
    7
 10
312.73108641621741
 20
-168.97469731297895
 11
312.73108641621741
 21
-168.32469731297908
  0
LINE
  8
_1-0_
  6
CONTINUOUS
 62
    7
 10
329.33108641622016
 20
-157.59969731297895
 11
330.33108641622016
 21
-157.59969731297895
  0
LINE
  8
_1-0_
  6
CONTINUOUS
 62
    7
 10
329.33108641622016
 20
-160.34969731297895
 11
330.33108641622016
 21
-160.34969731297895
  0
LINE
  8
_1-0_
  6
CONTINUOUS
 62
    3
 10
408.39358941622015
 20
-81.944757312978993
 11
408.39358941622015
 21
-81.407757312979072
  0
LINE
  8
_1-0_
  6
CONTINUOUS
 62
    3
 10
410.58108941622015
 20
-80.387194312979034
 11
410.34595041622015
 21
-80.324694312979034
  0
LINE
  8
_1-0_
  6
CONTINUOUS
 62
    3
 10
408.39358941622015
 20
-81.007257312978993
 11
410.21375541622012
 21
-80.324694312979034
  0
LINE
  8
_1-0_
  6
CONTINUOUS
 62
    3
 10
408.08108941622015
 20
-81.324694312979034
 11
408.39358941622015
 21
-81.007257312978993
  0
LINE
  8
_1-0_
  6
CONTINUOUS
 62
    3
 10
408.39358941622015
 20
-81.407757312979072
 11
408.08108941622015
 21
-81.324694312979034
  0
LINE
  8
_1-0_
  6
CONTINUOUS
 62
    3
 10
410.26858941622015
 20
-80.704632312979072
 11
408.39358941622015
 21
-81.407757312979072
  0
LINE
  8
_1-0_
  6
CONTINUOUS
 62
    3
 10
410.58108941622015
 20
-80.387194312979034
 11
410.26858941622015
 21
-80.704632312979072
  0
LINE
  8
_1-0_
  6
CONTINUOUS
 62
    3
 10
408.39358941622015
 20
-82.882257312978993
 11
408.39358941622015
 21
-82.345257312979072
  0
LINE
  8
_1-0_
  6
CONTINUOUS
 62
    3
 10
408.08108941622015
 20
-82.262194312979034
 11
408.39358941622015
 21
-81.944757312978993
  0
LINE
  8
_1-0_
  6
CONTINUOUS
 62
    3
 10
408.39358941622015
 20
-82.345257312979072
 11
408.08108941622015
 21
-82.262194312979034
  0
LINE
  8
_1-0_
  6
CONTINUOUS
 62
    3
 10
410.26858941622015
 20
-81.642132312979072
 11
408.39358941622015
 21
-82.345257312979072
  0
LINE
  8
_1-0_
  6
CONTINUOUS
 62
    3
 10
410.58108941622015
 20
-81.324694312979034
 11
410.26858941622015
 21
-81.642132312979072
  0
LINE
  8
_1-0_
  6
CONTINUOUS
 62
    3
 10
410.26858941622015
 20
-81.241632312978993
 11
410.58108941622015
 21
-81.324694312979034
  0
LINE
  8
_1-0_
  6
CONTINUOUS
 62
    3
 10
408.39358941622015
 20
-81.944757312978993
 11
410.26858941622015
 21
-81.241632312978993
  0
LINE
  8
_1-0_
  6
CONTINUOUS
 62
    3
 10
408.39358941622015
 20
-83.819757312978993
 11
408.39358941622015
 21
-83.282757312979072
  0
LINE
  8
_1-0_
  6
CONTINUOUS
 62
    3
 10
408.08108941622015
 20
-83.199694312979034
 11
408.39358941622015
 21
-82.882257312978993
  0
LINE
  8
_1-0_
  6
CONTINUOUS
 62
    3
 10
408.39358941622015
 20
-83.282757312979072
 11
408.08108941622015
 21
-83.199694312979034
  0
LINE
  8
_1-0_
  6
CONTINUOUS
 62
    3
 10
410.26858941622015
 20
-82.579632312979072
 11
408.39358941622015
 21
-83.282757312979072
  0
LINE
  8
_1-0_
  6
CONTINUOUS
 62
    3
 10
410.58108941622015
 20
-82.262194312979034
 11
410.26858941622015
 21
-82.579632312979072
  0
LINE
  8
_1-0_
  6
CONTINUOUS
 62
    3
 10
410.26858941622015
 20
-82.179132312978993
 11
410.58108941622015
 21
-82.262194312979034
  0
LINE
  8
_1-0_
  6
CONTINUOUS
 62
    3
 10
408.39358941622015
 20
-82.882257312978993
 11
410.26858941622015
 21
-82.179132312978993
  0
LINE
  8
_1-0_
  6
CONTINUOUS
 62
    3
 10
410.26858941622015
 20
-83.517132312979072
 11
409.04842241622021
 21
-83.974694312979011
  0
LINE
  8
_1-0_
  6
CONTINUOUS
 62
    3
 10
408.39358941622015
 20
-83.819757312978993
 11
408.24106141622019
 21
-83.974694312979011
  0
LINE
  8
_1-0_
  6
CONTINUOUS
 62
    3
 10
410.58108941622015
 20
-83.199694312979034
 11
410.26858941622015
 21
-83.517132312979072
  0
LINE
  8
_1-0_
  6
CONTINUOUS
 62
    3
 10
410.26858941622015
 20
-83.116632312978993
 11
410.58108941622015
 21
-83.199694312979034
  0
LINE
  8
_1-0_
  6
CONTINUOUS
 62
    3
 10
408.39358941622015
 20
-83.819757312978993
 11
410.26858941622015
 21
-83.116632312978993
  0
LINE
  8
_1-0_
  6
CONTINUOUS
 62
    3
 10
410.26858941622015
 20
-83.517132312979072
 11
410.26858941622015
 21
-83.974694312979011
  0
LINE
  8
_1-0_
  6
CONTINUOUS
 62
    3
 10
410.26858941622015
 20
-82.579632312979072
 11
410.26858941622015
 21
-83.116632312978993
  0
LINE
  8
_1-0_
  6
CONTINUOUS
 62
    3
 10
410.26858941622015
 20
-81.642132312979072
 11
410.26858941622015
 21
-82.179132312978993
  0
LINE
  8
_1-0_
  6
CONTINUOUS
 62
    3
 10
410.26858941622015
 20
-80.704632312979072
 11
410.26858941622015
 21
-81.241632312978993
  0
LINE
  8
_1-0_
  6

 62
    3
 10
409.33108941622015
 20
-86.474694312979011
 11
409.33108941622015
 21
-53.974694312979011
  0
LINE
  8
_1-0_
  6

 62
    3
 10
336.83108641622016
 20
-158.97469731297895
 11
304.33108641622016
 21
-158.97469731297895
  0
LINE
  8
_1-0_
  6

 62
    3
 10
382.83108941622015
 20
-212.75737031297899
 11
382.83108941622015
 21
-133.97469431297901
  0
LINE
  8
_1-0_
  6

 62
    3
 10
382.83108941622015
 20
-83.974696312979006
 11
382.83108941622015
 21
-108.97469431297901
  0
LINE
  8
_1-0_
  6
CONTINUOUS
 62
    3
 10
334.33109041622015
 20
-83.974695312979009
 11
463.11376541622019
 21
-83.974695312979009
  0
LINE
  8
_1-0_
  6
CONTINUOUS
 62
    3
 10
334.33108641622016
 20
-213.25736031297902
 11
334.33108641622016
 21
-83.974696312979006
  0
LINE
  8
_1-0_
  6

 62
    3
 10
434.33108941622015
 20
-132.47469431297901
 11
463.11376541622019
 21
-132.47469431297901
  0
LINE
  8
_1-0_
  6
CONTINUOUS
 62
    3
 10
374.2773504162202
 20
-117.22469431297901
 11
369.38482741622011
 21
-117.22469431297901
  0
LINE
  8
_1-0_
  6
CONTINUOUS
 62
    3
 10
369.38482741622011
 20
-117.22469431297901
 11
366.93108941622017
 21
-121.47469431297901
  0
LINE
  8
_1-0_
  6
CONTINUOUS
 62
    3
 10
366.93108941622017
 20
-121.47469431297901
 11
369.38482741622011
 21
-125.72469431297901
  0
LINE
  8
_1-0_
  6
CONTINUOUS
 62
    3
 10
369.38482741622011
 20
-125.72469431297901
 11
374.2773504162202
 21
-125.72469431297901
  0
LINE
  8
_1-0_
  6
CONTINUOUS
 62
    3
 10
374.2773504162202
 20
-125.72469431297901
 11
376.73108941622013
 21
-121.47469431297901
  0
LINE
  8
_1-0_
  6
CONTINUOUS
 62
    3
 10
376.73108941622013
 20
-121.47469431297901
 11
374.2773504162202
 21
-117.22469431297901
  0
CIRCLE
  8
_1-0_
  6
CONTINUOUS
 62
    3
 10
371.83108941622015
 20
-121.470377312979
 40
4.2456829999999997
  0
CIRCLE
  8
_1-0_
  6
CONTINUOUS
 62
    3
 10
371.83108941622015
 20
-121.470377312979
 40
5.25
  0
LINE
  8
_1-0_
  6
CONTINUOUS
 62
    3
 10
419.38482741622011
 20
-117.22469431297901
 11
416.93108941622017
 21
-121.47469431297901
  0
LINE
  8
_1-0_
  6
CONTINUOUS
 62
    3
 10
424.2773504162202
 20
-117.22469431297901
 11
419.38482741622011
 21
-117.22469431297901
  0
LINE
  8
_1-0_
  6
CONTINUOUS
 62
    3
 10
426.73108941622013
 20
-121.47469431297901
 11
424.2773504162202
 21
-117.22469431297901
  0
LINE
  8
_1-0_
  6
CONTINUOUS
 62
    3
 10
424.2773504162202
 20
-125.72469431297901
 11
426.73108941622013
 21
-121.47469431297901
  0
LINE
  8
_1-0_
  6
CONTINUOUS
 62
    3
 10
419.38482741622011
 20
-125.72469431297901
 11
424.2773504162202
 21
-125.72469431297901
  0
LINE
  8
_1-0_
  6
CONTINUOUS
 62
    3
 10
416.93108941622017
 20
-121.47469431297901
 11
419.38482741622011
 21
-125.72469431297901
  0
CIRCLE
  8
_1-0_
  6
CONTINUOUS
 62
    3
 10
421.83108941622015
 20
-121.470377312979
 40
4.2456829999999997
  0
CIRCLE
  8
_1-0_
  6
CONTINUOUS
 62
    3
 10
421.83108941622015
 20
-121.470377312979
 40
5.25
  0
LINE
  8
_1-0_
  6

 62
    3
 10
335.83108941622015
 20
-83.974698312979001
 11
335.83108941622015
 21
-212.75737031297899
  0
LINE
  8
_1-0_
  6
CONTINUOUS
 62
    3
 10
394.38482741622011
 20
-117.22469431297901
 11
391.93108941622017
 21
-121.47469431297901
  0
LINE
  8
_1-0_
  6
CONTINUOUS
 62
    3
 10
399.2773504162202
 20
-117.22469431297901
 11
394.38482741622011
 21
-117.22469431297901
  0
LINE
  8
_1-0_
  6
CONTINUOUS
 62
    3
 10
401.73108941622013
 20
-121.47469431297901
 11
399.2773504162202
 21
-117.22469431297901
  0
LINE
  8
_1-0_
  6
CONTINUOUS
 62
    3
 10
399.2773504162202
 20
-125.72469431297901
 11
401.73108941622013
 21
-121.47469431297901
  0
LINE
  8
_1-0_
  6
CONTINUOUS
 62
    3
 10
394.38482741622011
 20
-125.72469431297901
 11
399.2773504162202
 21
-125.72469431297901
  0
LINE
  8
_1-0_
  6
CONTINUOUS
 62
    3
 10
391.93108941622017
 20
-121.47469431297901
 11
394.38482741622011
 21
-125.72469431297901
  0
CIRCLE
  8
_1-0_
  6
CONTINUOUS
 62
    3
 10
396.83108941622015
 20
-121.470377312979
 40
4.2456829999999997
  0
LINE
  8
_1-0_
  6
CONTINUOUS
 62
    3
 10
434.33108941622015
 20
-108.97469431297901
 11
434.33108941622015
 21
-133.97469431297901
  0
LINE
  8
_1-0_
  6
CONTINUOUS
 62
    3
 10
420.08108941622015
 20
-198.47469431297895
 11
420.08108941622015
 21
-144.47469431297895
  0
ARC
  8
_1-0_
  6
CONTINUOUS
 62
    3
 10
414.58108941622015
 20
-198.47469431297895
 40
5.5
 50
270
 51
0
  0
LINE
  8
_1-0_
  6
CONTINUOUS
 62
    3
 10
414.58108941622015
 20
-203.97469431297895
 11
384.33108941622015
 21
-203.97469431297895
  0
LINE
  8
_1-0_
  6
CONTINUOUS
 62
    3
 10
423.58108941622015
 20
-198.47469431297895
 11
423.58108941622015
 21
-144.47469431297895
  0
ARC
  8
_1-0_
  6
CONTINUOUS
 62
    3
 10
429.08108941622015
 20
-198.47469431297895
 40
5.5
 50
180
 51
270
  0
LINE
  8
_1-0_
  6
CONTINUOUS
 62
    3
 10
429.08108941622015
 20
-203.97469431297895
 11
459.33108941622015
 21
-203.97469431297895
  0
ARC
  8
_1-0_
  6
CONTINUOUS
 62
    3
 10
414.58108941622015
 20
-144.47469431297895
 40
5.5
 50
0
 51
90
  0
LINE
  8
_1-0_
  6
CONTINUOUS
 62
    3
 10
414.58108941622015
 20
-138.97469431297901
 11
384.33108941622015
 21
-138.97469431297901
  0
LINE
  8
_1-0_
  6
CONTINUOUS
 62
    3
 10
429.08108941622015
 20
-138.97469431297901
 11
459.33108941622015
 21
-138.97469431297901
  0
ARC
  8
_1-0_
  6
CONTINUOUS
 62
    3
 10
429.08108941622015
 20
-144.47469431297895
 40
5.5
 50
90
 51
180
  0
LINE
  8
_1-0_
  6
CONTINUOUS
 62
    3
 10
459.33108941622015
 20
-208.97469431297895
 11
384.33108941622015
 21
-208.97469431297895
  0
LINE
  8
_1-0_
  6
CONTINUOUS
 62
    3
 10
459.33108941622015
 20
-133.97469431297901
 11
459.33108941622015
 21
-138.97469431297901
  0
LINE
  8
_1-0_
  6
CONTINUOUS
 62
    3
 10
459.33108941622015
 20
-203.97469431297895
 11
459.33108941622015
 21
-208.97469431297895
  0
LINE
  8
_1-0_
  6
CONTINUOUS
 62
    3
 10
359.33108941622015
 20
-108.97469431297901
 11
434.33108941622015
 21
-108.97469431297901
  0
LINE
  8
_1-0_
  6
CONTINUOUS
 62
    3
 10
359.33108941622015
 20
-133.97469431297901
 11
359.33108941622015
 21
-108.97469431297901
  0
LINE
  8
_1-0_
  6
CONTINUOUS
 62
    3
 10
359.33108941622015
 20
-133.97469431297901
 11
463.11376541622019
 21
-133.97469431297901
  0
LINE
  8
_1-0_
  6
CONTINUOUS
 62
    3
 10
384.33108941622015
 20
-133.97469431297901
 11
384.33108941622015
 21
-212.75737031297899
  0
LINE
  8
_1-0_
  6

 62
    3
 10
384.33108941622015
 20
-85.474694312979011
 11
463.11376541622019
 21
-85.474694312979011
  0
LINE
  8
_1-0_
  6
CONTINUOUS
 62
    3
 10
384.33108941622015
 20
-83.974694312979011
 11
384.33108941622015
 21
-108.97469431297901
  0
LINE
  8
_1-0_
  6
CONTINUOUS
 62
    3
 10
359.33108941622015
 20
-131.97469431297901
 11
434.33108941622015
 21
-131.97469431297901
  0
CIRCLE
  8
_1-0_
  6
CONTINUOUS
 62
    3
 10
396.83108941622015
 20
-121.470377312979
 40
5.25
  0
CIRCLE
  8
_1-0_
  6
CONTINUOUS
 62
    3
 10
334.33109041622015
 20
-237.75737031297899
 40
0.2999999999999999
  0
CIRCLE
  8
_1-0_
  6
CONTINUOUS
 62
    3
 10
384.33108941622015
 20
-237.75737031297899
 40
0.2999999999999999
  0
LINE
  8
_1-0_
  6
CONTINUOUS
 62
    3
 10
384.33108941622015
 20
-214.75737031297899
 11
384.33108941622015
 21
-237.75737031297899
  0
CIRCLE
  8
_1-0_
  6
CONTINUOUS
 62
    3
 10
334.33109041622015
 20
-237.75737031297899
 40
0.2999999999999999
  0
LINE
  8
_1-0_
  6
CONTINUOUS
 62
    3
 10
334.33109041622015
 20
-214.75737031297899
 11
334.33109041622015
 21
-237.75737031297899
  0
LINE
  8
_1-0_
  6
CONTINUOUS
 62
    3
 10
322.65215722808568
 20
-65.224699312978998
 11
478.83108941622015
 21
-65.224699312978998
  0
LINE
  8
_1-0_
  6
CONTINUOUS
 62
    3
 10
315.58109041622015
 20
-213.25736031297902
 11
315.58109041622015
 21
-72.295768124844528
  0
LINE
  8
_1-0_
  6
CONTINUOUS
 62
    7
 10
342.09803342682255
 20
-18.082231285340299
 11
364.75870570143491
 21
-18.082231285340299
  0
LINE
  8
_1-0_
  6
CONTINUOUS
 62
    7
 10
320.4951855892167
 20
-39.685079122946036
 11
342.09803342682255
 21
-18.082231285340299
  0
TEXT
  8
_1-0_
 62
    4
 10
0.0050103734387221
 20
368.00144844221586
 40
17
 41
1
 50
0
  1
ＬＫＰ３０７５
  0
TEXT
  8
_1-0_
 62
    7
 10
205.20419243294944
 20
321.05417329401365
 40
5.3999999999999986
 41
1.0000000000000002
 50
90
  1
30
  0
TEXT
  8
_1-0_
 62
    7
 10
205.63566693814283
 20
263.89130144058953
 40
5.4000000000000057
 41
0.999999999999999
 50
0
  1
ﾊﾟﾈﾙﾋﾟｯﾁ
  0
LINE
  8
_1-0_
  6
CONTINUOUS
 62
    7
 10
-30.667269439534266
 20
365.27835639995629
 11
475.48657671431181
 21
365.27835639995629
  0
TEXT
  8
_1-0_
 62
    2
 10
239.91332213748535
 20
263.49130144058955
 40
6.1999999999999886
 41
1.0000000000000018
 50
0
  1
75
  0
TEXT
  8
_1-0_
 62
    2
 10
256.91332213748535
 20
263.49130144058955
 40
6.1999999999999886
 41
1.0000000000000018
 50
0
  1
80
  0
LINE
  8
_1-0_
  6
CONTINUOUS
 62
    7
 10
51.608035390935498
 20
-80.462198703039633
 11
51.608035390935498
 21
-81.032610008518589
  0
LINE
  8
_1-0_
  6
CONTINUOUS
 62
    7
 10
51.608035390930155
 20
-95.462198703039633
 11
51.608035390930496
 21
-94.891787397473593
  0
LINE
  8
_1-0_
  6
CONTINUOUS
 62
    9
 10
49.07274015221131
 20
-93.033217246742709
 11
51.608035390935612
 21
-93.712547558535618
  0
LINE
  8
_1-0_
  6
CONTINUOUS
 62
    9
 10
49.708035390935521
 20
-87.949698703314709
 11
49.708035390935521
 21
-93.203444092914935
  0
LINE
  8
_1-0_
  6
CONTINUOUS
 62
    9
 10
49.072740152211196
 20
-82.891180159886574
 11
51.608035390935498
 21
-82.211849848093891
  0
LINE
  8
_1-0_
  6
CONTINUOUS
 62
    9
 10
49.708035390935521
 20
-87.949698703314709
 11
49.708035390935521
 21
-82.720953313714347
  0
LINE
  8
_1-0_
  6
CONTINUOUS
 62
    7
 10
51.608035390935498
 20
-80.474698703039678
 11
51.608035390935498
 21
-81.045110008518634
  0
LINE
  8
_1-0_
  6
CONTINUOUS
 62
    7
 10
26.608035390940813
 20
-80.474698703021716
 11
51.608035390935385
 21
-80.474698703039678
  0
LINE
  8
_1-0_
  6
CONTINUOUS
 62
    7
 10
51.608035390930155
 20
-95.474698703039678
 11
51.60803539093061
 21
-94.904287397473638
  0
LINE
  8
_1-0_
  6
CONTINUOUS
 62
    7
 10
26.608035390935356
 20
-95.474698703021716
 11
51.608035390930155
 21
-95.474698703039451
  0
LINE
  8
_1-0_
  6
CONTINUOUS
 62
    7
 10
49.033797184396946
 20
-93.857547212980592
 11
51.437843387526328
 21
-94.667368247383422
  0
ARC
  8
_1-0_
  6
CONTINUOUS
 62
    7
 10
51.358035390930496
 20
-94.904287397473411
 40
0.25
 50
0
 51
71.383514957200816
  0
LINE
  8
_1-0_
  6
CONTINUOUS
 62
    7
 10
49.033797184390352
 20
-82.091850193013954
 11
51.437843387518825
 21
-81.282029158608395
  0
ARC
  8
_1-0_
  6
CONTINUOUS
 62
    7
 10
51.358035390922879
 20
-81.045110008518634
 40
0.25
 50
288.61648504286279
 51
0.0000000000000254
  0
LINE
  8
_1-0_
  6
CONTINUOUS
 62
    7
 10
51.608035390935385
 20
-77.233171085793231
 11
51.608037442326378
 21
-82.211849848092982
  0
LINE
  8
_1-0_
  6
CONTINUOUS
 62
    7
 10
51.608035390935385
 20
-80.462198703039633
 11
51.608035390935385
 21
-81.032610008518589
  0
LINE
  8
_1-0_
  6
CONTINUOUS
 62
    7
 10
51.608035390930041
 20
-95.462198703039633
 11
51.608035390930382
 21
-94.891787397473593
  0
LINE
  8
_1-0_
  6
CONTINUOUS
 62
    9
 10
49.072740152211196
 20
-93.033217246742709
 11
51.608035390935498
 21
-93.712547558535618
  0
LINE
  8
_1-0_
  6
CONTINUOUS
 62
    9
 10
49.072740152211082
 20
-82.891180159886574
 11
51.608035390935385
 21
-82.211849848093891
  0
LINE
  8
_1-0_
  6
CONTINUOUS
 62
    7
 10
51.608035390935385
 20
-80.474698703039678
 11
51.608035390935385
 21
-81.045110008518634
  0
LINE
  8
_1-0_
  6
CONTINUOUS
 62
    7
 10
26.608035390940699
 20
-80.474698703021716
 11
51.608035390935271
 21
-80.474698703039678
  0
LINE
  8
_1-0_
  6
CONTINUOUS
 62
    7
 10
51.608035390930041
 20
-95.474698703039678
 11
51.608035390930496
 21
-94.904287397473638
  0
LINE
  8
_1-0_
  6
CONTINUOUS
 62
    7
 10
26.608035390935243
 20
-95.474698703021716
 11
51.608035390930041
 21
-95.474698703039451
  0
LINE
  8
_1-0_
  6
CONTINUOUS
 62
    7
 10
49.033797184396832
 20
-93.857547212980592
 11
51.437843387526215
 21
-94.667368247383422
  0
ARC
  8
_1-0_
  6
CONTINUOUS
 62
    7
 10
51.358035390930382
 20
-94.904287397473411
 40
0.25
 50
0
 51
71.383514957200816
  0
LINE
  8
_1-0_
  6
CONTINUOUS
 62
    7
 10
49.033797184390238
 20
-82.091850193013954
 11
51.437843387518711
 21
-81.282029158608395
  0
ARC
  8
_1-0_
  6
CONTINUOUS
 62
    7
 10
51.358035390922765
 20
-81.045110008518634
 40
0.25
 50
288.61648504286279
 51
0.0000000000000254
  0
LINE
  8
_1-0_
  6
CONTINUOUS
 62
    7
 10
14.708035390940722
 20
-81.062198703304546
 11
31.008035390935447
 21
-81.062198703315119
  0
ARC
  8
_1-0_
  6
CONTINUOUS
 62
    7
 10
51.358035390930496
 20
-94.891814477514856
 40
0.25
 50
0
 51
71.391701985071677
  0
ARC
  8
_1-0_
  6
CONTINUOUS
 62
    7
 10
51.358035390935498
 20
-81.032582929130115
 40
0.25
 50
288.60829801488717
 51
0.0000000000000254
  0
ARC
  8
_1-0_
  6
CONTINUOUS
 62
    7
 10
30.75803539093431
 20
-89.692083092516043
 40
0.25
 50
359.99999999995896
 51
117.48642625033941
  0
ARC
  8
_1-0_
  6
CONTINUOUS
 62
    7
 10
15.190435884948897
 20
-89.794358876354693
 40
0.25
 50
69.97935458678981
 51
177.37733279537682
  0
LINE
  8
_1-0_
  6
CONTINUOUS
 62
    7
 10
14.708035390935606
 20
-94.862198703304728
 11
14.940697748641242
 21
-89.782919327689058
  0
ARC
  8
_1-0_
  6
CONTINUOUS
 62
    7
 10
15.858035390833379
 20
-87.962198703295996
 40
1.7
 50
249.97935458678847
 51
312.21529054450031
  0
ARC
  8
_1-0_
  6
CONTINUOUS
 62
    7
 10
16.733035390832356
 20
-88.926671882102767
 40
0.3977582741150607
 50
312.2152905445007
 51
120.00000000002743
  0
LINE
  8
_1-0_
  6
CONTINUOUS
 62
    7
 10
15.858035390833834
 20
-88.972561674377914
 11
14.98303539083372
 21
-88.467380188837581
  0
LINE
  8
_1-0_
  6
CONTINUOUS
 62
    7
 10
14.983035390833834
 20
-88.467380188837126
 11
14.983035390833606
 21
-87.962198703304864
  0
LINE
  8
_1-0_
  6
CONTINUOUS
 62
    7
 10
16.534156253774654
 20
-88.582203112153763
 11
15.858035390833834
 21
-88.972561674377914
  0
ARC
  8
_1-0_
  6
CONTINUOUS
 62
    7
 10
29.85803539093547
 20
-87.962198703314868
 40
1.7
 50
227.78470945541761
 51
297.48642625034063
  0
ARC
  8
_1-0_
  6
CONTINUOUS
 62
    7
 10
28.983035390935129
 20
-88.926671882120502
 40
0.3977582741150607
 50
59.99999999989042
 51
227.78470945541724
  0
LINE
  8
_1-0_
  6
CONTINUOUS
 62
    7
 10
29.858035390933651
 20
-88.972561674396786
 11
30.73303539093456
 21
-88.467380188857589
  0
LINE
  8
_1-0_
  6
CONTINUOUS
 62
    7
 10
30.733035390934447
 20
-88.467380188857589
 11
30.73303539093547
 21
-87.96219870331521
  0
LINE
  8
_1-0_
  6
CONTINUOUS
 62
    7
 10
29.181914527993285
 20
-88.58220311217184
 11
29.858035390933424
 21
-88.972561674396673
  0
LINE
  8
_1-0_
  6
CONTINUOUS
 62
    7
 10
14.708035390935834
 20
-94.862198703304841
 11
31.008035390930445
 21
-94.8621987033153
  0
LINE
  8
_1-0_
  6
CONTINUOUS
 62
    7
 10
31.608035390930468
 20
-94.862198703315414
 11
48.008035390930473
 21
-94.862198703321212
  0
LINE
  8
_1-0_
  6
CONTINUOUS
 62
    7
 10
31.00803539093431
 20
-89.69208309251627
 11
31.008035390930559
 21
-94.862198703315073
  0
LINE
  8
_1-0_
  6
CONTINUOUS
 62
    7
 10
31.60803539093547
 20
-87.962198703315323
 11
31.608035390930581
 21
-94.862198703315414
  0
LINE
  8
_1-0_
  6
CONTINUOUS
 62
    7
 10
48.008035390930587
 20
-94.862198703321326
 11
48.20803539093086
 21
-94.662198703321394
  0
LINE
  8
_1-0_
  6
CONTINUOUS
 62
    7
 10
48.208035390930746
 20
-94.662198703321394
 11
48.756819003874085
 21
-94.662198703321621
  0
LINE
  8
_1-0_
  6
CONTINUOUS
 62
    7
 10
14.10803539093547
 20
-95.462198703304637
 11
51.608035390930155
 21
-95.462198703322485
  0
LINE
  8
_1-0_
  6
CONTINUOUS
 62
    7
 10
49.032560484741708
 20
-93.845040372427604
 11
51.437809533194269
 21
-94.654883926031914
  0
LINE
  8
_1-0_
  6
CONTINUOUS
 62
    7
 10
48.8356602210321
 20
-93.97021822125231
 11
48.756819003874199
 21
-94.662198703321621
  0
ARC
  8
_1-0_
  6
CONTINUOUS
 62
    7
 10
48.98469599938349
 20
-93.987198703317347
 40
0.1499999999999999
 50
71.391701985072046
 51
173.49999999996072
  0
LINE
  8
_1-0_
  6
CONTINUOUS
 62
    7
 10
14.108035390940813
 20
-87.962198703304523
 11
14.10803539093547
 21
-95.462198703304523
  0
LINE
  8
_1-0_
  6
CONTINUOUS
 62
    7
 10
51.608035390930155
 20
-95.462198703322599
 11
51.60803539093061
 21
-94.891814477515197
  0
ARC
  8
_1-0_
  6
CONTINUOUS
 62
    7
 10
30.758035390935447
 20
-86.232314314114149
 40
0.25
 50
242.51357374961941
 51
0
  0
ARC
  8
_1-0_
  6
CONTINUOUS
 62
    7
 10
15.190435884950148
 20
-86.13003853025549
 40
0.25
 50
182.62266720458211
 51
290.02064541316906
  0
LINE
  8
_1-0_
  6
CONTINUOUS
 62
    7
 10
14.708035390940722
 20
-81.062198703304546
 11
14.940697748642606
 21
-86.141478078920557
  0
ARC
  8
_1-0_
  6
CONTINUOUS
 62
    7
 10
15.858035390833379
 20
-87.962198703314755
 40
1.7
 50
47.784709455458739
 51
110.02064541317044
  0
ARC
  8
_1-0_
  6
CONTINUOUS
 62
    7
 10
16.733035390833038
 20
-86.997725524508553
 40
0.3977582741150607
 50
239.99999999993153
 51
47.784709455458312
  0
LINE
  8
_1-0_
  6
CONTINUOUS
 62
    7
 10
15.858035390834743
 20
-86.951835732232951
 11
14.983035390834175
 21
-87.457017217772716
  0
LINE
  8
_1-0_
  6
CONTINUOUS
 62
    7
 10
14.983035390833948
 20
-87.457017217772375
 11
14.983035390833379
 21
-87.962198703304637
  0
LINE
  8
_1-0_
  6
CONTINUOUS
 62
    7
 10
16.534156253774995
 20
-87.342194294457443
 11
15.858035390834402
 21
-86.951835732232951
  0
ARC
  8
_1-0_
  6
CONTINUOUS
 62
    7
 10
29.85803539093547
 20
-87.962198703314755
 40
1.7
 50
62.513573749618303
 51
132.21529054454132
  0
ARC
  8
_1-0_
  6
CONTINUOUS
 62
    7
 10
28.983035390935811
 20
-86.997725524508553
 40
0.3977582741150607
 50
132.21529054454177
 51
300.0000000000685
  0
LINE
  8
_1-0_
  6
CONTINUOUS
 62
    7
 10
29.858035390934219
 20
-86.951835732232951
 11
30.733035390934788
 21
-87.457017217772716
  0
LINE
  8
_1-0_
  6
CONTINUOUS
 62
    7
 10
30.733035390934788
 20
-87.45701721777283
 11
30.733035390935356
 21
-87.96219870331521
  0
LINE
  8
_1-0_
  6
CONTINUOUS
 62
    7
 10
29.181914527993854
 20
-87.342194294457329
 11
29.858035390934333
 21
-86.951835732232837
  0
LINE
  8
_1-0_
  6
CONTINUOUS
 62
    7
 10
31.60803539093547
 20
-81.062198703315573
 11
48.008035390935476
 21
-81.062198703321371
  0
LINE
  8
_1-0_
  6
CONTINUOUS
 62
    7
 10
31.008035390935447
 20
-86.232314314114149
 11
31.008035390935447
 21
-81.062198703315119
  0
LINE
  8
_1-0_
  6
CONTINUOUS
 62
    7
 10
31.60803539093547
 20
-87.962198703315437
 11
31.60803539093547
 21
-81.062198703315346
  0
LINE
  8
_1-0_
  6
CONTINUOUS
 62
    7
 10
48.008035390935589
 20
-81.062198703321371
 11
48.208035390935635
 21
-81.262198703321417
  0
LINE
  8
_1-0_
  6
CONTINUOUS
 62
    7
 10
48.208035390935635
 20
-81.262198703321303
 11
48.75681900387886
 21
-81.262198703321417
  0
LINE
  8
_1-0_
  6
CONTINUOUS
 62
    7
 10
14.108035390940927
 20
-80.462198703304523
 11
51.608035390935498
 21
-80.462198703322372
  0
LINE
  8
_1-0_
  6
CONTINUOUS
 62
    7
 10
49.032560484745915
 20
-82.079357034216002
 11
51.43780953319893
 21
-81.269513480613398
  0
LINE
  8
_1-0_
  6
CONTINUOUS
 62
    7
 10
48.83566022103642
 20
-81.954179185391297
 11
48.756819003878974
 21
-81.262198703321758
  0
ARC
  8
_1-0_
  6
CONTINUOUS
 62
    7
 10
48.98469599938781
 20
-81.937198703325805
 40
0.1499999999999999
 50
186.49999999999821
 51
288.60829801488677
  0
LINE
  8
_1-0_
  6
CONTINUOUS
 62
    7
 10
14.108035390940813
 20
-87.962198703304523
 11
14.108035390940813
 21
-80.462198703304523
  0
LINE
  8
_1-0_
  6
CONTINUOUS
 62
    7
 10
51.608035390935498
 20
-80.462198703322485
 11
51.608035390935498
 21
-81.032582929130115
  0
LINE
  8
_1-0_
  6
CONTINUOUS
 62
    9
 10
49.05803539093543
 20
-87.949698703314823
 11
49.05803539093543
 21
-82.895120288795454
  0
LINE
  8
_1-0_
  6
CONTINUOUS
 62
    9
 10
49.708035390935521
 20
-87.949698703314823
 11
49.708035390935521
 21
-82.720953313714574
  0
LINE
  8
_1-0_
  6
CONTINUOUS
 62
    9
 10
49.072740152211196
 20
-82.891180159886574
 11
51.608035390935385
 21
-82.211849848093891
  0
ARC
  8
_1-0_
  6
CONTINUOUS
 62
    9
 10
49.008035390935476
 20
-82.649698703314868
 40
0.25
 50
180
 51
285.00000000004496
  0
LINE
  8
_1-0_
  6
CONTINUOUS
 62
    9
 10
43.858035390935498
 20
-82.486843403024579
 11
48.443330629659528
 21
-81.258217246742845
  0
ARC
  8
_1-0_
  6
CONTINUOUS
 62
    9
 10
48.508035390935476
 20
-81.499698703314891
 40
0.25
 50
0
 51
105.00000000008929
  0
LINE
  8
_1-0_
  6
CONTINUOUS
 62
    9
 10
48.758035390935476
 20
-82.649698703314868
 11
48.758035390935476
 21
-81.499698703314891
  0
LINE
  8
_1-0_
  6
CONTINUOUS
 62
    9
 10
43.858035390935498
 20
-82.486843403024352
 11
43.858035390935498
 21
-87.949698703314823
  0
LINE
  8
_1-0_
  6
CONTINUOUS
 62
    9
 10
49.05803539093543
 20
-87.949698703314823
 11
49.05803539093543
 21
-93.029277117834397
  0
LINE
  8
_1-0_
  6
CONTINUOUS
 62
    9
 10
49.708035390935521
 20
-87.949698703314823
 11
49.708035390935521
 21
-93.203444092915163
  0
LINE
  8
_1-0_
  6
CONTINUOUS
 62
    9
 10
49.072740152211196
 20
-93.033217246742936
 11
51.608035390935612
 21
-93.712547558535732
  0
ARC
  8
_1-0_
  6
CONTINUOUS
 62
    9
 10
49.008035390935476
 20
-93.274698703314755
 40
0.25
 50
74.99999999995498
 51
180
  0
LINE
  8
_1-0_
  6
CONTINUOUS
 62
    9
 10
43.858035390935612
 20
-93.437554003605499
 11
48.443330629659528
 21
-94.666180159887233
  0
ARC
  8
_1-0_
  6
CONTINUOUS
 62
    9
 10
48.508035390935476
 20
-94.424698703314846
 40
0.25
 50
254.9999999999107
 51
0
  0
LINE
  8
_1-0_
  6
CONTINUOUS
 62
    9
 10
48.758035390935476
 20
-93.274698703314755
 11
48.758035390935476
 21
-94.424698703314846
  0
LINE
  8
_1-0_
  6
CONTINUOUS
 62
    9
 10
43.858035390935498
 20
-93.437554003605271
 11
43.858035390935498
 21
-87.949698703314823
  0
POINT
  8
_1-0_
 62
    4
 10
6.4466966648329844
 20
-95.474698703021716
  0
LINE
  8
_1-0_
  6
CONTINUOUS
 62
    4
 10
6.4466966648329844
 20
-95.474698703021716
 11
11.613329459555985
 21
-95.474698703021716
  0
LINE
  8
_1-0_
  6
CONTINUOUS
 62
    4
 10
6.4466966648329844
 20
-95.474698703021716
 11
6.4466966648329844
 21
-80.474698703021716
  0
POINT
  8
_1-0_
 62
    4
 10
6.4466966648329844
 20
-80.474698703021716
  0
LINE
  8
_1-0_
  6
CONTINUOUS
 62
    4
 10
6.4466966648329844
 20
-80.474698703021716
 11
11.613329459555985
 21
-80.474698703021716
  0
TEXT
  8
_1-0_
 62
    2
 10
273.91332213748535
 20
263.49130144058955
 40
6.1999999999999886
 41
1.0000000000000018
 50
0
  1
90
  0
LINE
  8
_1-0_
  6
CONTINUOUS
 62
    7
 10
14.708035390940722
 20
-118.56219870330455
 11
31.008035390935447
 21
-118.56219870331512
  0
ARC
  8
_1-0_
  6
CONTINUOUS
 62
    7
 10
30.75803539093431
 20
-127.19208309251604
 40
0.25
 50
359.99999999995896
 51
117.48642625033941
  0
ARC
  8
_1-0_
  6
CONTINUOUS
 62
    7
 10
15.190435884948897
 20
-127.29435887635469
 40
0.25
 50
69.97935458678981
 51
177.37733279537682
  0
LINE
  8
_1-0_
  6
CONTINUOUS
 62
    7
 10
14.708035390935606
 20
-132.36219870330473
 11
14.940697748641242
 21
-127.28291932768906
  0
ARC
  8
_1-0_
  6
CONTINUOUS
 62
    7
 10
15.858035390833379
 20
-125.462198703296
 40
1.7
 50
249.97935458678847
 51
312.21529054450031
  0
ARC
  8
_1-0_
  6
CONTINUOUS
 62
    7
 10
16.733035390832356
 20
-126.42667188210277
 40
0.3977582741150607
 50
312.2152905445007
 51
120.00000000002743
  0
LINE
  8
_1-0_
  6
CONTINUOUS
 62
    7
 10
15.858035390833834
 20
-126.47256167437791
 11
14.98303539083372
 21
-125.96738018883758
  0
LINE
  8
_1-0_
  6
CONTINUOUS
 62
    7
 10
14.983035390833834
 20
-125.96738018883713
 11
14.983035390833606
 21
-125.46219870330486
  0
LINE
  8
_1-0_
  6
CONTINUOUS
 62
    7
 10
16.534156253774654
 20
-126.08220311215376
 11
15.858035390833834
 21
-126.47256167437791
  0
ARC
  8
_1-0_
  6
CONTINUOUS
 62
    7
 10
29.85803539093547
 20
-125.46219870331487
 40
1.7
 50
227.78470945541761
 51
297.48642625034063
  0
ARC
  8
_1-0_
  6
CONTINUOUS
 62
    7
 10
28.983035390935129
 20
-126.4266718821205
 40
0.3977582741150607
 50
59.99999999989042
 51
227.78470945541724
  0
LINE
  8
_1-0_
  6
CONTINUOUS
 62
    7
 10
29.858035390933651
 20
-126.47256167439679
 11
30.73303539093456
 21
-125.96738018885759
  0
LINE
  8
_1-0_
  6
CONTINUOUS
 62
    7
 10
30.733035390934447
 20
-125.96738018885759
 11
30.73303539093547
 21
-125.46219870331521
  0
LINE
  8
_1-0_
  6
CONTINUOUS
 62
    7
 10
29.181914527993285
 20
-126.08220311217184
 11
29.858035390933424
 21
-126.47256167439667
  0
LINE
  8
_1-0_
  6
CONTINUOUS
 62
    7
 10
14.708035390935834
 20
-132.36219870330484
 11
31.008035390930445
 21
-132.3621987033153
  0
LINE
  8
_1-0_
  6
CONTINUOUS
 62
    7
 10
31.00803539093431
 20
-127.19208309251627
 11
31.008035390930559
 21
-132.36219870331507
  0
LINE
  8
_1-0_
  6
CONTINUOUS
 62
    7
 10
31.60803539093547
 20
-125.46219870331532
 11
31.608035390930581
 21
-132.36219870331541
  0
LINE
  8
_1-0_
  6
CONTINUOUS
 62
    7
 10
14.108035390940813
 20
-125.46219870330452
 11
14.10803539093547
 21
-132.96219870330452
  0
ARC
  8
_1-0_
  6
CONTINUOUS
 62
    7
 10
30.758035390935447
 20
-123.73231431411415
 40
0.25
 50
242.51357374961941
 51
0
  0
ARC
  8
_1-0_
  6
CONTINUOUS
 62
    7
 10
15.190435884950148
 20
-123.63003853025549
 40
0.25
 50
182.62266720458211
 51
290.02064541316906
  0
LINE
  8
_1-0_
  6
CONTINUOUS
 62
    7
 10
14.708035390940722
 20
-118.56219870330455
 11
14.940697748642606
 21
-123.64147807892056
  0
ARC
  8
_1-0_
  6
CONTINUOUS
 62
    7
 10
15.858035390833379
 20
-125.46219870331475
 40
1.7
 50
47.784709455458739
 51
110.02064541317044
  0
ARC
  8
_1-0_
  6
CONTINUOUS
 62
    7
 10
16.733035390833038
 20
-124.49772552450855
 40
0.3977582741150607
 50
239.99999999993153
 51
47.784709455458312
  0
LINE
  8
_1-0_
  6
CONTINUOUS
 62
    7
 10
15.858035390834743
 20
-124.45183573223295
 11
14.983035390834175
 21
-124.95701721777272
  0
LINE
  8
_1-0_
  6
CONTINUOUS
 62
    7
 10
14.983035390833948
 20
-124.95701721777237
 11
14.983035390833379
 21
-125.46219870330464
  0
LINE
  8
_1-0_
  6
CONTINUOUS
 62
    7
 10
16.534156253774995
 20
-124.84219429445744
 11
15.858035390834402
 21
-124.45183573223295
  0
ARC
  8
_1-0_
  6
CONTINUOUS
 62
    7
 10
29.85803539093547
 20
-125.46219870331475
 40
1.7
 50
62.513573749618303
 51
132.21529054454132
  0
ARC
  8
_1-0_
  6
CONTINUOUS
 62
    7
 10
28.983035390935811
 20
-124.49772552450855
 40
0.3977582741150607
 50
132.21529054454177
 51
300.0000000000685
  0
LINE
  8
_1-0_
  6
CONTINUOUS
 62
    7
 10
29.858035390934219
 20
-124.45183573223295
 11
30.733035390934788
 21
-124.95701721777272
  0
LINE
  8
_1-0_
  6
CONTINUOUS
 62
    7
 10
30.733035390934788
 20
-124.95701721777283
 11
30.733035390935356
 21
-125.46219870331521
  0
LINE
  8
_1-0_
  6
CONTINUOUS
 62
    7
 10
29.181914527993854
 20
-124.84219429445733
 11
29.858035390934333
 21
-124.45183573223284
  0
LINE
  8
_1-0_
  6
CONTINUOUS
 62
    7
 10
31.008035390935447
 20
-123.73231431411415
 11
31.008035390935447
 21
-118.56219870331512
  0
LINE
  8
_1-0_
  6
CONTINUOUS
 62
    7
 10
31.60803539093547
 20
-125.46219870331544
 11
31.60803539093547
 21
-118.56219870331535
  0
LINE
  8
_1-0_
  6
CONTINUOUS
 62
    7
 10
14.108035390940813
 20
-125.46219870330452
 11
14.108035390940813
 21
-117.96219870330452
  0
POINT
  8
_1-0_
 62
    4
 10
6.4466966648329844
 20
-132.97469870302172
  0
LINE
  8
_1-0_
  6
CONTINUOUS
 62
    4
 10
6.4466966648329844
 20
-132.97469870302172
 11
11.613329459555985
 21
-132.97469870302172
  0
LINE
  8
_1-0_
  6
CONTINUOUS
 62
    4
 10
6.4466966648329844
 20
-132.97469870302172
 11
6.4466966648329844
 21
-117.97469870302172
  0
POINT
  8
_1-0_
 62
    4
 10
6.4466966648329844
 20
-117.97469870302172
  0
LINE
  8
_1-0_
  6
CONTINUOUS
 62
    4
 10
6.4466966648329844
 20
-117.97469870302172
 11
11.613329459555985
 21
-117.97469870302172
  0
LINE
  8
_1-0_
  6
CONTINUOUS
 62
    7
 10
14.108035390940927
 20
-117.96219870330452
 11
51.608035390935498
 21
-117.96219870332237
  0
LINE
  8
_1-0_
  6
CONTINUOUS
 62
    7
 10
26.608035390935243
 20
-132.97469870302172
 11
51.608035390930041
 21
-132.97469870303945
  0
LINE
  8
_1-0_
  6
CONTINUOUS
 62
    7
 10
14.10803539093547
 20
-132.96219870330464
 11
51.608035390930155
 21
-132.96219870332249
  0
LINE
  8
_1-0_
  6
CONTINUOUS
 62
    7
 10
31.60803539093547
 20
-118.56219870331557
 11
48.008035390935476
 21
-118.56219870332137
  0
LINE
  8
_1-0_
  6
CONTINUOUS
 62
    7
 10
31.608035390930468
 20
-132.36219870331541
 11
48.008035390930473
 21
-132.36219870332121
  0
TEXT
  8
_1-0_
 62
    2
 10
289.13832213748532
 20
263.49130144058955
 40
6.1999999999999886
 41
1.0000000000000018
 50
0
  1
100
  0
LINE
  8
_1-0_
  6
CONTINUOUS
 62
    7
 10
14.708035390940722
 20
-156.06219870330449
 11
31.008035390935447
 21
-156.06219870331506
  0
ARC
  8
_1-0_
  6
CONTINUOUS
 62
    7
 10
30.75803539093431
 20
-164.69208309251599
 40
0.25
 50
359.99999999995896
 51
117.48642625033941
  0
ARC
  8
_1-0_
  6
CONTINUOUS
 62
    7
 10
15.190435884948897
 20
-164.79435887635464
 40
0.25
 50
69.97935458678981
 51
177.37733279537682
  0
LINE
  8
_1-0_
  6
CONTINUOUS
 62
    7
 10
14.708035390935606
 20
-169.86219870330467
 11
14.940697748641242
 21
-164.782919327689
  0
ARC
  8
_1-0_
  6
CONTINUOUS
 62
    7
 10
15.858035390833379
 20
-162.96219870329594
 40
1.7
 50
249.97935458678847
 51
312.21529054450031
  0
ARC
  8
_1-0_
  6
CONTINUOUS
 62
    7
 10
16.733035390832356
 20
-163.92667188210271
 40
0.3977582741150607
 50
312.2152905445007
 51
120.00000000002743
  0
LINE
  8
_1-0_
  6
CONTINUOUS
 62
    7
 10
15.858035390833834
 20
-163.97256167437786
 11
14.98303539083372
 21
-163.46738018883752
  0
LINE
  8
_1-0_
  6
CONTINUOUS
 62
    7
 10
14.983035390833834
 20
-163.46738018883707
 11
14.983035390833606
 21
-162.96219870330481
  0
LINE
  8
_1-0_
  6
CONTINUOUS
 62
    7
 10
16.534156253774654
 20
-163.58220311215371
 11
15.858035390833834
 21
-163.97256167437786
  0
ARC
  8
_1-0_
  6
CONTINUOUS
 62
    7
 10
29.85803539093547
 20
-162.96219870331481
 40
1.7
 50
227.78470945541761
 51
297.48642625034063
  0
ARC
  8
_1-0_
  6
CONTINUOUS
 62
    7
 10
28.983035390935129
 20
-163.92667188212044
 40
0.3977582741150607
 50
59.99999999989042
 51
227.78470945541724
  0
LINE
  8
_1-0_
  6
CONTINUOUS
 62
    7
 10
29.858035390933651
 20
-163.97256167439673
 11
30.73303539093456
 21
-163.46738018885753
  0
LINE
  8
_1-0_
  6
CONTINUOUS
 62
    7
 10
30.733035390934447
 20
-163.46738018885753
 11
30.73303539093547
 21
-162.96219870331515
  0
LINE
  8
_1-0_
  6
CONTINUOUS
 62
    7
 10
29.181914527993285
 20
-163.58220311217178
 11
29.858035390933424
 21
-163.97256167439662
  0
LINE
  8
_1-0_
  6
CONTINUOUS
 62
    7
 10
14.708035390935834
 20
-169.86219870330478
 11
31.008035390930445
 21
-169.86219870331524
  0
LINE
  8
_1-0_
  6
CONTINUOUS
 62
    7
 10
31.00803539093431
 20
-164.69208309251621
 11
31.008035390930559
 21
-169.86219870331502
  0
LINE
  8
_1-0_
  6
CONTINUOUS
 62
    7
 10
31.60803539093547
 20
-162.96219870331527
 11
31.608035390930581
 21
-169.86219870331536
  0
LINE
  8
_1-0_
  6
CONTINUOUS
 62
    7
 10
14.108035390940813
 20
-162.96219870330447
 11
14.10803539093547
 21
-170.46219870330447
  0
ARC
  8
_1-0_
  6
CONTINUOUS
 62
    7
 10
30.758035390935447
 20
-161.23231431411409
 40
0.25
 50
242.51357374961941
 51
0
  0
ARC
  8
_1-0_
  6
CONTINUOUS
 62
    7
 10
15.190435884950148
 20
-161.13003853025543
 40
0.25
 50
182.62266720458211
 51
290.02064541316906
  0
LINE
  8
_1-0_
  6
CONTINUOUS
 62
    7
 10
14.708035390940722
 20
-156.06219870330449
 11
14.940697748642606
 21
-161.1414780789205
  0
ARC
  8
_1-0_
  6
CONTINUOUS
 62
    7
 10
15.858035390833379
 20
-162.9621987033147
 40
1.7
 50
47.784709455458739
 51
110.02064541317044
  0
ARC
  8
_1-0_
  6
CONTINUOUS
 62
    7
 10
16.733035390833038
 20
-161.9977255245085
 40
0.3977582741150607
 50
239.99999999993153
 51
47.784709455458312
  0
LINE
  8
_1-0_
  6
CONTINUOUS
 62
    7
 10
15.858035390834743
 20
-161.95183573223289
 11
14.983035390834175
 21
-162.45701721777266
  0
LINE
  8
_1-0_
  6
CONTINUOUS
 62
    7
 10
14.983035390833948
 20
-162.45701721777232
 11
14.983035390833379
 21
-162.96219870330458
  0
LINE
  8
_1-0_
  6
CONTINUOUS
 62
    7
 10
16.534156253774995
 20
-162.34219429445739
 11
15.858035390834402
 21
-161.95183573223289
  0
ARC
  8
_1-0_
  6
CONTINUOUS
 62
    7
 10
29.85803539093547
 20
-162.9621987033147
 40
1.7
 50
62.513573749618303
 51
132.21529054454132
  0
ARC
  8
_1-0_
  6
CONTINUOUS
 62
    7
 10
28.983035390935811
 20
-161.9977255245085
 40
0.3977582741150607
 50
132.21529054454177
 51
300.0000000000685
  0
LINE
  8
_1-0_
  6
CONTINUOUS
 62
    7
 10
29.858035390934219
 20
-161.95183573223289
 11
30.733035390934788
 21
-162.45701721777266
  0
LINE
  8
_1-0_
  6
CONTINUOUS
 62
    7
 10
30.733035390934788
 20
-162.45701721777277
 11
30.733035390935356
 21
-162.96219870331515
  0
LINE
  8
_1-0_
  6
CONTINUOUS
 62
    7
 10
29.181914527993854
 20
-162.34219429445727
 11
29.858035390934333
 21
-161.95183573223278
  0
LINE
  8
_1-0_
  6
CONTINUOUS
 62
    7
 10
31.008035390935447
 20
-161.23231431411409
 11
31.008035390935447
 21
-156.06219870331506
  0
LINE
  8
_1-0_
  6
CONTINUOUS
 62
    7
 10
31.60803539093547
 20
-162.96219870331538
 11
31.60803539093547
 21
-156.06219870331529
  0
LINE
  8
_1-0_
  6
CONTINUOUS
 62
    7
 10
14.108035390940813
 20
-162.96219870330447
 11
14.108035390940813
 21
-155.46219870330447
  0
POINT
  8
_1-0_
 62
    4
 10
6.4466966648329844
 20
-170.47469870302166
  0
LINE
  8
_1-0_
  6
CONTINUOUS
 62
    4
 10
6.4466966648329844
 20
-170.47469870302166
 11
11.613329459555985
 21
-170.47469870302166
  0
LINE
  8
_1-0_
  6
CONTINUOUS
 62
    4
 10
6.4466966648329844
 20
-170.47469870302166
 11
6.4466966648329844
 21
-155.47469870302166
  0
POINT
  8
_1-0_
 62
    4
 10
6.4466966648329844
 20
-155.47469870302166
  0
LINE
  8
_1-0_
  6
CONTINUOUS
 62
    4
 10
6.4466966648329844
 20
-155.47469870302166
 11
11.613329459555985
 21
-155.47469870302166
  0
LINE
  8
_1-0_
  6
CONTINUOUS
 62
    7
 10
14.108035390940927
 20
-155.46219870330447
 11
51.608035390935498
 21
-155.46219870332231
  0
LINE
  8
_1-0_
  6
CONTINUOUS
 62
    7
 10
26.608035390935243
 20
-170.47469870302166
 11
51.608035390930041
 21
-170.47469870303939
  0
LINE
  8
_1-0_
  6
CONTINUOUS
 62
    7
 10
14.10803539093547
 20
-170.46219870330458
 11
51.608035390930155
 21
-170.46219870332243
  0
LINE
  8
_1-0_
  6
CONTINUOUS
 62
    7
 10
31.60803539093547
 20
-156.06219870331552
 11
48.008035390935476
 21
-156.06219870332131
  0
LINE
  8
_1-0_
  6
CONTINUOUS
 62
    7
 10
31.608035390930468
 20
-169.86219870331536
 11
48.008035390930473
 21
-169.86219870332116
  0
TEXT
  8
_1-0_
 62
    2
 10
306.13832213748532
 20
263.49130144058955
 40
6.1999999999999886
 41
1.0000000000000018
 50
0
  1
120
  0
LINE
  8
_1-0_
  6
CONTINUOUS
 62
    7
 10
14.708035390940722
 20
-193.56219870330449
 11
31.008035390935447
 21
-193.56219870331506
  0
ARC
  8
_1-0_
  6
CONTINUOUS
 62
    7
 10
30.75803539093431
 20
-202.19208309251599
 40
0.25
 50
359.99999999995896
 51
117.48642625033941
  0
ARC
  8
_1-0_
  6
CONTINUOUS
 62
    7
 10
15.190435884948897
 20
-202.29435887635464
 40
0.25
 50
69.97935458678981
 51
177.37733279537682
  0
LINE
  8
_1-0_
  6
CONTINUOUS
 62
    7
 10
14.708035390935606
 20
-207.36219870330467
 11
14.940697748641242
 21
-202.282919327689
  0
ARC
  8
_1-0_
  6
CONTINUOUS
 62
    7
 10
15.858035390833379
 20
-200.46219870329594
 40
1.7
 50
249.97935458678847
 51
312.21529054450031
  0
ARC
  8
_1-0_
  6
CONTINUOUS
 62
    7
 10
16.733035390832356
 20
-201.42667188210271
 40
0.3977582741150607
 50
312.2152905445007
 51
120.00000000002743
  0
LINE
  8
_1-0_
  6
CONTINUOUS
 62
    7
 10
15.858035390833834
 20
-201.47256167437786
 11
14.98303539083372
 21
-200.96738018883752
  0
LINE
  8
_1-0_
  6
CONTINUOUS
 62
    7
 10
14.983035390833834
 20
-200.96738018883707
 11
14.983035390833606
 21
-200.46219870330481
  0
LINE
  8
_1-0_
  6
CONTINUOUS
 62
    7
 10
16.534156253774654
 20
-201.08220311215371
 11
15.858035390833834
 21
-201.47256167437786
  0
ARC
  8
_1-0_
  6
CONTINUOUS
 62
    7
 10
29.85803539093547
 20
-200.46219870331481
 40
1.7
 50
227.78470945541761
 51
297.48642625034063
  0
ARC
  8
_1-0_
  6
CONTINUOUS
 62
    7
 10
28.983035390935129
 20
-201.42667188212044
 40
0.3977582741150607
 50
59.99999999989042
 51
227.78470945541724
  0
LINE
  8
_1-0_
  6
CONTINUOUS
 62
    7
 10
29.858035390933651
 20
-201.47256167439673
 11
30.73303539093456
 21
-200.96738018885753
  0
LINE
  8
_1-0_
  6
CONTINUOUS
 62
    7
 10
30.733035390934447
 20
-200.96738018885753
 11
30.73303539093547
 21
-200.46219870331515
  0
LINE
  8
_1-0_
  6
CONTINUOUS
 62
    7
 10
29.181914527993285
 20
-201.08220311217178
 11
29.858035390933424
 21
-201.47256167439662
  0
LINE
  8
_1-0_
  6
CONTINUOUS
 62
    7
 10
14.708035390935834
 20
-207.36219870330478
 11
31.008035390930445
 21
-207.36219870331524
  0
LINE
  8
_1-0_
  6
CONTINUOUS
 62
    7
 10
31.00803539093431
 20
-202.19208309251621
 11
31.008035390930559
 21
-207.36219870331502
  0
LINE
  8
_1-0_
  6
CONTINUOUS
 62
    7
 10
31.60803539093547
 20
-200.46219870331527
 11
31.608035390930581
 21
-207.36219870331536
  0
LINE
  8
_1-0_
  6
CONTINUOUS
 62
    7
 10
14.108035390940813
 20
-200.46219870330447
 11
14.10803539093547
 21
-207.96219870330447
  0
ARC
  8
_1-0_
  6
CONTINUOUS
 62
    7
 10
30.758035390935447
 20
-198.73231431411409
 40
0.25
 50
242.51357374961941
 51
0
  0
ARC
  8
_1-0_
  6
CONTINUOUS
 62
    7
 10
15.190435884950148
 20
-198.63003853025543
 40
0.25
 50
182.62266720458211
 51
290.02064541316906
  0
LINE
  8
_1-0_
  6
CONTINUOUS
 62
    7
 10
14.708035390940722
 20
-193.56219870330449
 11
14.940697748642606
 21
-198.6414780789205
  0
ARC
  8
_1-0_
  6
CONTINUOUS
 62
    7
 10
15.858035390833379
 20
-200.4621987033147
 40
1.7
 50
47.784709455458739
 51
110.02064541317044
  0
ARC
  8
_1-0_
  6
CONTINUOUS
 62
    7
 10
16.733035390833038
 20
-199.4977255245085
 40
0.3977582741150607
 50
239.99999999993153
 51
47.784709455458312
  0
LINE
  8
_1-0_
  6
CONTINUOUS
 62
    7
 10
15.858035390834743
 20
-199.45183573223289
 11
14.983035390834175
 21
-199.95701721777266
  0
LINE
  8
_1-0_
  6
CONTINUOUS
 62
    7
 10
14.983035390833948
 20
-199.95701721777232
 11
14.983035390833379
 21
-200.46219870330458
  0
LINE
  8
_1-0_
  6
CONTINUOUS
 62
    7
 10
16.534156253774995
 20
-199.84219429445739
 11
15.858035390834402
 21
-199.45183573223289
  0
ARC
  8
_1-0_
  6
CONTINUOUS
 62
    7
 10
29.85803539093547
 20
-200.4621987033147
 40
1.7
 50
62.513573749618303
 51
132.21529054454132
  0
ARC
  8
_1-0_
  6
CONTINUOUS
 62
    7
 10
28.983035390935811
 20
-199.4977255245085
 40
0.3977582741150607
 50
132.21529054454177
 51
300.0000000000685
  0
LINE
  8
_1-0_
  6
CONTINUOUS
 62
    7
 10
29.858035390934219
 20
-199.45183573223289
 11
30.733035390934788
 21
-199.95701721777266
  0
LINE
  8
_1-0_
  6
CONTINUOUS
 62
    7
 10
30.733035390934788
 20
-199.95701721777277
 11
30.733035390935356
 21
-200.46219870331515
  0
LINE
  8
_1-0_
  6
CONTINUOUS
 62
    7
 10
29.181914527993854
 20
-199.84219429445727
 11
29.858035390934333
 21
-199.45183573223278
  0
LINE
  8
_1-0_
  6
CONTINUOUS
 62
    7
 10
31.008035390935447
 20
-198.73231431411409
 11
31.008035390935447
 21
-193.56219870331506
  0
LINE
  8
_1-0_
  6
CONTINUOUS
 62
    7
 10
31.60803539093547
 20
-200.46219870331538
 11
31.60803539093547
 21
-193.56219870331529
  0
LINE
  8
_1-0_
  6
CONTINUOUS
 62
    7
 10
14.108035390940813
 20
-200.46219870330447
 11
14.108035390940813
 21
-192.96219870330447
  0
POINT
  8
_1-0_
 62
    4
 10
6.4466966648329844
 20
-207.97469870302166
  0
LINE
  8
_1-0_
  6
CONTINUOUS
 62
    4
 10
6.4466966648329844
 20
-207.97469870302166
 11
11.613329459555985
 21
-207.97469870302166
  0
LINE
  8
_1-0_
  6
CONTINUOUS
 62
    4
 10
6.4466966648329844
 20
-207.97469870302166
 11
6.4466966648329844
 21
-192.97469870302166
  0
POINT
  8
_1-0_
 62
    4
 10
6.4466966648329844
 20
-192.97469870302166
  0
LINE
  8
_1-0_
  6
CONTINUOUS
 62
    4
 10
6.4466966648329844
 20
-192.97469870302166
 11
11.613329459555985
 21
-192.97469870302166
  0
LINE
  8
_1-0_
  6
CONTINUOUS
 62
    7
 10
14.108035390940927
 20
-192.96219870330447
 11
51.608035390935498
 21
-192.96219870332231
  0
LINE
  8
_1-0_
  6
CONTINUOUS
 62
    7
 10
26.608035390935243
 20
-207.97469870302166
 11
51.608035390930041
 21
-207.97469870303939
  0
LINE
  8
_1-0_
  6
CONTINUOUS
 62
    7
 10
14.10803539093547
 20
-207.96219870330458
 11
51.608035390930155
 21
-207.96219870332243
  0
LINE
  8
_1-0_
  6
CONTINUOUS
 62
    7
 10
31.60803539093547
 20
-193.56219870331552
 11
48.008035390935476
 21
-193.56219870332131
  0
LINE
  8
_1-0_
  6
CONTINUOUS
 62
    7
 10
31.608035390930468
 20
-207.36219870331536
 11
48.008035390930473
 21
-207.36219870332116
  0
LINE
  8
_1-0_
  6
CONTINUOUS
 62
    7
 10
81.845538781551824
 20
-65.224695312973665
 11
81.275127476072868
 21
-65.224695312973665
  0
LINE
  8
_1-0_
  6
CONTINUOUS
 62
    7
 10
66.845538781551824
 20
-65.224695312968322
 11
67.415950087117864
 21
-65.224695312968663
  0
LINE
  8
_1-0_
  6
CONTINUOUS
 62
    9
 10
68.870183480986299
 20
-57.474695312973665
 11
74.358038781276747
 21
-57.474695312973665
  0
LINE
  8
_1-0_
  6
CONTINUOUS
 62
    9
 10
69.033038781276929
 20
-62.374695312973643
 11
67.883038781276838
 21
-62.374695312973643
  0
ARC
  8
_1-0_
  6
CONTINUOUS
 62
    9
 10
67.883038781276838
 20
-62.124695312973643
 40
0.25
 50
164.9999999999107
 51
270
  0
LINE
  8
_1-0_
  6
CONTINUOUS
 62
    9
 10
68.870183480986299
 20
-57.474695312973665
 11
67.641557324704564
 21
-62.059990551697808
  0
ARC
  8
_1-0_
  6
CONTINUOUS
 62
    9
 10
69.033038781276929
 20
-62.624695312973643
 40
0.25
 50
344.99999999995498
 51
89.999999999999986
  0
LINE
  8
_1-0_
  6
CONTINUOUS
 62
    9
 10
69.274520237848748
 20
-62.689400074249477
 11
68.595189926055838
 21
-65.224695312973779
  0
LINE
  8
_1-0_
  6
CONTINUOUS
 62
    9
 10
74.358038781276747
 20
-63.324695312973688
 11
69.104293391676521
 21
-63.324695312973688
  0
LINE
  8
_1-0_
  6
CONTINUOUS
 62
    9
 10
74.358038781276747
 20
-62.674695312973711
 11
69.2784603667574
 21
-62.674695312973711
  0
LINE
  8
_1-0_
  6
CONTINUOUS
 62
    9
 10
79.820894081567332
 20
-57.474695312973665
 11
74.358038781276747
 21
-57.474695312973665
  0
LINE
  8
_1-0_
  6
CONTINUOUS
 62
    9
 10
79.658038781276701
 20
-62.374695312973643
 11
80.808038781276792
 21
-62.374695312973643
  0
LINE
  8
_1-0_
  6
CONTINUOUS
 62
    9
 10
79.820894081567104
 20
-57.474695312973665
 11
81.049520237848839
 21
-62.059990551697808
  0
ARC
  8
_1-0_
  6
CONTINUOUS
 62
    9
 10
79.658038781276701
 20
-62.624695312973643
 40
0.25
 50
90
 51
195.00000000004499
  0
LINE
  8
_1-0_
  6
CONTINUOUS
 62
    9
 10
79.416557324704883
 20
-62.689400074249363
 11
80.095887636497565
 21
-65.224695312973665
  0
LINE
  8
_1-0_
  6
CONTINUOUS
 62
    9
 10
74.358038781276747
 20
-63.324695312973688
 11
79.58678417087711
 21
-63.324695312973688
  0
LINE
  8
_1-0_
  6
CONTINUOUS
 62
    9
 10
74.358038781276747
 20
-62.674695312973711
 11
79.41261719579623
 21
-62.674695312973711
  0
ARC
  8
_1-0_
  6
CONTINUOUS
 62
    9
 10
80.808038781276792
 20
-62.124695312973643
 40
0.25
 50
270
 51
15.000000000089292
  0
LINE
  8
_1-0_
  6
CONTINUOUS
 62
    7
 10
81.833038781551778
 20
-65.224695312973665
 11
81.262627476072822
 21
-65.224695312973665
  0
ARC
  8
_1-0_
  6
CONTINUOUS
 62
    7
 10
80.358038781548458
 20
-62.602572308481911
 40
0.1499999999999999
 50
96.499999999998224
 51
198.60829801488677
  0
LINE
  8
_1-0_
  6
CONTINUOUS
 62
    7
 10
81.833038781569741
 20
-40.224695312979009
 11
81.833038781551778
 21
-65.224695312973552
  0
LINE
  8
_1-0_
  6
CONTINUOUS
 62
    7
 10
81.283038781554325
 20
-61.575911700028485
 11
81.033038781552733
 21
-61.825911700029963
  0
LINE
  8
_1-0_
  6
CONTINUOUS
 62
    7
 10
66.833038781551778
 20
-65.224695312968322
 11
67.403450087117818
 21
-65.224695312968777
  0
ARC
  8
_1-0_
  6
CONTINUOUS
 62
    7
 10
68.308038781556917
 20
-62.60257230847759
 40
0.1499999999999999
 50
341.38351495719962
 51
83.499999999960721
  0
LINE
  8
_1-0_
  6
CONTINUOUS
 62
    7
 10
66.833038781569741
 20
-40.224695312973552
 11
66.833038781552006
 21
-65.224695312968322
  0
LINE
  8
_1-0_
  6
CONTINUOUS
 62
    7
 10
81.283038781561373
 20
-51.927633949571998
 11
81.283038781554325
 21
-61.575911700028371
  0
LINE
  8
_1-0_
  6
CONTINUOUS
 62
    7
 10
67.383038781561282
 20
-51.927633949564381
 11
67.383038781554461
 21
-61.575911700025983
  0
LINE
  8
_1-0_
  6
CONTINUOUS
 62
    7
 10
68.450190271610865
 20
-62.650457106435113
 11
67.640369237208034
 21
-65.054503309564495
  0
ARC
  8
_1-0_
  6
CONTINUOUS
 62
    7
 10
67.403450087118046
 20
-64.974695312968663
 40
0.25
 50
270
 51
341.38351495720082
  0
LINE
  8
_1-0_
  6
CONTINUOUS
 62
    7
 10
80.215887291577502
 20
-62.650457106428519
 11
81.025708325983061
 21
-65.054503309556992
  0
ARC
  8
_1-0_
  6
CONTINUOUS
 62
    7
 10
81.262627476072822
 20
-64.974695312961046
 40
0.25
 50
198.61648504286282
 51
270
  0
LINE
  8
_1-0_
  6
CONTINUOUS
 62
    7
 10
67.383038781554461
 20
-61.575911700025983
 11
67.63303878155287
 21
-61.82591170002496
  0
LINE
  8
_1-0_
  6
CONTINUOUS
 62
    7
 10
67.633038781553097
 20
-61.82591170002496
 11
67.63303878155287
 21
-62.374695312968186
  0
LINE
  8
_1-0_
  6
CONTINUOUS
 62
    7
 10
68.325019263622181
 20
-62.4535365301262
 11
67.633038781552642
 21
-62.374695312968299
  0
LINE
  8
_1-0_
  6
CONTINUOUS
 62
    7
 10
80.341058299483194
 20
-62.453536530130521
 11
81.033038781552733
 21
-62.37469531297296
  0
LINE
  8
_1-0_
  6
CONTINUOUS
 62
    7
 10
81.033038781553188
 20
-61.825911700029735
 11
81.03303878155296
 21
-62.374695312973074
  0
TEXT
  8
_1-0_
 62
    2
 10
323.13832213748532
 20
263.49130144058955
 40
6.1999999999999886
 41
1.0000000000000018
 50
0
  1
125
  0
LINE
  8
_1-0_
  6
CONTINUOUS
 62
    7
 10
81.845538781552278
 20
-65.224695312973665
 11
81.275127476073322
 21
-65.224695312973665
  0
LINE
  8
_1-0_
  6
CONTINUOUS
 62
    7
 10
66.845538781552278
 20
-65.224695312968322
 11
67.415950087118318
 21
-65.224695312968663
  0
LINE
  8
_1-0_
  6
CONTINUOUS
 62
    9
 10
69.274520237849202
 20
-62.689400074249477
 11
68.595189926056293
 21
-65.224695312973779
  0
LINE
  8
_1-0_
  6
CONTINUOUS
 62
    9
 10
74.358038781277202
 20
-63.324695312973688
 11
69.104293391676975
 21
-63.324695312973688
  0
LINE
  8
_1-0_
  6
CONTINUOUS
 62
    9
 10
79.416557324705337
 20
-62.689400074249363
 11
80.09588763649802
 21
-65.224695312973665
  0
LINE
  8
_1-0_
  6
CONTINUOUS
 62
    9
 10
74.358038781277202
 20
-63.324695312973688
 11
79.586784170877564
 21
-63.324695312973688
  0
LINE
  8
_1-0_
  6
CONTINUOUS
 62
    7
 10
81.833038781552233
 20
-65.224695312973665
 11
81.262627476073277
 21
-65.224695312973665
  0
LINE
  8
_1-0_
  6
CONTINUOUS
 62
    7
 10
81.833038781570195
 20
-40.224695312979009
 11
81.833038781552233
 21
-65.224695312973552
  0
LINE
  8
_1-0_
  6
CONTINUOUS
 62
    7
 10
66.833038781552233
 20
-65.224695312968322
 11
67.403450087118273
 21
-65.224695312968777
  0
LINE
  8
_1-0_
  6
CONTINUOUS
 62
    7
 10
66.833038781570195
 20
-40.224695312973552
 11
66.83303878155246
 21
-65.224695312968322
  0
LINE
  8
_1-0_
  6
CONTINUOUS
 62
    7
 10
68.450190271611319
 20
-62.650457106435113
 11
67.640369237208489
 21
-65.054503309564495
  0
ARC
  8
_1-0_
  6
CONTINUOUS
 62
    7
 10
67.4034500871185
 20
-64.974695312968663
 40
0.25
 50
270
 51
341.38351495720082
  0
LINE
  8
_1-0_
  6
CONTINUOUS
 62
    7
 10
80.215887291577957
 20
-62.650457106428519
 11
81.025708325983516
 21
-65.054503309556992
  0
ARC
  8
_1-0_
  6
CONTINUOUS
 62
    7
 10
81.262627476073277
 20
-64.974695312961046
 40
0.25
 50
198.61648504286282
 51
270
  0
LINE
  8
_1-0_
  6
CONTINUOUS
 62
    7
 10
85.07456639879868
 20
-65.224695312973552
 11
80.095887636498929
 21
-65.224697364364545
  0
LINE
  8
_1-0_
  6
CONTINUOUS
 62
    7
 10
81.845538781552278
 20
-65.224695312973552
 11
81.275127476073322
 21
-65.224695312973552
  0
LINE
  8
_1-0_
  6
CONTINUOUS
 62
    7
 10
66.845538781552278
 20
-65.224695312968208
 11
67.415950087118318
 21
-65.224695312968549
  0
LINE
  8
_1-0_
  6
CONTINUOUS
 62
    9
 10
69.274520237849202
 20
-62.689400074249363
 11
68.595189926056293
 21
-65.224695312973665
  0
LINE
  8
_1-0_
  6
CONTINUOUS
 62
    9
 10
79.416557324705337
 20
-62.689400074249249
 11
80.09588763649802
 21
-65.224695312973552
  0
LINE
  8
_1-0_
  6
CONTINUOUS
 62
    7
 10
81.833038781552233
 20
-65.224695312973552
 11
81.262627476073277
 21
-65.224695312973552
  0
LINE
  8
_1-0_
  6
CONTINUOUS
 62
    7
 10
81.833038781570195
 20
-40.224695312978895
 11
81.833038781552233
 21
-65.224695312973438
  0
LINE
  8
_1-0_
  6
CONTINUOUS
 62
    7
 10
66.833038781552233
 20
-65.224695312968208
 11
67.403450087118273
 21
-65.224695312968663
  0
LINE
  8
_1-0_
  6
CONTINUOUS
 62
    7
 10
66.833038781570195
 20
-40.224695312973438
 11
66.83303878155246
 21
-65.224695312968208
  0
LINE
  8
_1-0_
  6
CONTINUOUS
 62
    7
 10
68.450190271611319
 20
-62.650457106434999
 11
67.640369237208489
 21
-65.054503309564382
  0
ARC
  8
_1-0_
  6
CONTINUOUS
 62
    7
 10
67.4034500871185
 20
-64.974695312968549
 40
0.25
 50
270
 51
341.38351495720082
  0
LINE
  8
_1-0_
  6
CONTINUOUS
 62
    7
 10
80.215887291577957
 20
-62.650457106428405
 11
81.025708325983516
 21
-65.054503309556878
  0
ARC
  8
_1-0_
  6
CONTINUOUS
 62
    7
 10
81.262627476073277
 20
-64.974695312960932
 40
0.25
 50
198.61648504286282
 51
270
  0
LINE
  8
_1-0_
  6
CONTINUOUS
 62
    7
 10
81.245538781287365
 20
-28.324695312978918
 11
81.245538781276792
 21
-44.624695312973643
  0
ARC
  8
_1-0_
  6
CONTINUOUS
 62
    7
 10
67.415923007077055
 20
-64.974695312968663
 40
0.25
 50
270
 51
341.39170198507168
  0
ARC
  8
_1-0_
  6
CONTINUOUS
 62
    7
 10
81.275154555461796
 20
-64.974695312973665
 40
0.25
 50
198.60829801488714
 51
270
  0
ARC
  8
_1-0_
  6
CONTINUOUS
 62
    7
 10
72.615654392075868
 20
-44.374695312972506
 40
0.25
 50
269.99999999995896
 51
27.486426250339409
  0
ARC
  8
_1-0_
  6
CONTINUOUS
 62
    7
 10
72.513378608237218
 20
-28.807095806987093
 40
0.25
 50
339.97935458678978
 51
87.37733279537683
  0
LINE
  8
_1-0_
  6
CONTINUOUS
 62
    7
 10
67.445538781287183
 20
-28.324695312973802
 11
72.524818156902853
 21
-28.557357670679437
  0
ARC
  8
_1-0_
  6
CONTINUOUS
 62
    7
 10
74.345538781295915
 20
-29.474695312871575
 40
1.7
 50
159.9793545867885
 51
222.21529054450031
  0
ARC
  8
_1-0_
  6
CONTINUOUS
 62
    7
 10
73.381065602489144
 20
-30.349695312870551
 40
0.3977582741150607
 50
222.21529054450073
 51
30.00000000002742
  0
LINE
  8
_1-0_
  6
CONTINUOUS
 62
    7
 10
73.335175810213997
 20
-29.474695312872029
 11
73.84035729575433
 21
-28.599695312871916
  0
LINE
  8
_1-0_
  6
CONTINUOUS
 62
    7
 10
73.840357295754785
 20
-28.599695312872029
 11
74.345538781287047
 21
-28.599695312871802
  0
LINE
  8
_1-0_
  6
CONTINUOUS
 62
    7
 10
73.725534372438148
 20
-30.150816175812849
 11
73.335175810213997
 21
-29.474695312872029
  0
ARC
  8
_1-0_
  6
CONTINUOUS
 62
    7
 10
74.345538781277043
 20
-43.474695312973665
 40
1.7
 50
137.78470945541761
 51
207.4864262503406
  0
ARC
  8
_1-0_
  6
CONTINUOUS
 62
    7
 10
73.381065602471409
 20
-42.599695312973324
 40
0.3977582741150607
 50
329.99999999989041
 51
137.78470945541724
  0
LINE
  8
_1-0_
  6
CONTINUOUS
 62
    7
 10
73.335175810195125
 20
-43.474695312971846
 11
73.840357295734321
 21
-44.349695312972756
  0
LINE
  8
_1-0_
  6
CONTINUOUS
 62
    7
 10
73.840357295734321
 20
-44.349695312972642
 11
74.345538781276701
 21
-44.349695312973665
  0
LINE
  8
_1-0_
  6
CONTINUOUS
 62
    7
 10
73.725534372420071
 20
-42.798574450031481
 11
73.335175810195238
 21
-43.474695312971619
  0
LINE
  8
_1-0_
  6
CONTINUOUS
 62
    7
 10
67.44553878128707
 20
-28.324695312974029
 11
67.445538781276611
 21
-44.62469531296864
  0
LINE
  8
_1-0_
  6
CONTINUOUS
 62
    7
 10
67.445538781276497
 20
-45.224695312968663
 11
67.445538781270699
 21
-61.62469531296864
  0
LINE
  8
_1-0_
  6
CONTINUOUS
 62
    7
 10
72.615654392075641
 20
-44.624695312972506
 11
67.445538781276838
 21
-44.624695312968754
  0
LINE
  8
_1-0_
  6
CONTINUOUS
 62
    7
 10
74.345538781276588
 20
-45.224695312973665
 11
67.445538781276497
 21
-45.224695312968777
  0
LINE
  8
_1-0_
  6
CONTINUOUS
 62
    7
 10
67.445538781270585
 20
-61.624695312968754
 11
67.645538781270517
 21
-61.824695312969027
  0
LINE
  8
_1-0_
  6
CONTINUOUS
 62
    7
 10
67.645538781270517
 20
-61.824695312968913
 11
67.64553878127029
 21
-62.373478925912252
  0
LINE
  8
_1-0_
  6
CONTINUOUS
 62
    7
 10
66.845538781287274
 20
-27.724695312973665
 11
66.845538781269425
 21
-65.224695312968322
  0
LINE
  8
_1-0_
  6
CONTINUOUS
 62
    7
 10
68.462697112164307
 20
-62.649220406779875
 11
67.652853558559997
 21
-65.054469455232436
  0
LINE
  8
_1-0_
  6
CONTINUOUS
 62
    7
 10
68.337519263339601
 20
-62.452320143070267
 11
67.64553878127029
 21
-62.373478925912366
  0
ARC
  8
_1-0_
  6
CONTINUOUS
 62
    7
 10
68.320538781274564
 20
-62.601355921421657
 40
0.1499999999999999
 50
341.39170198507207
 51
83.499999999960707
  0
LINE
  8
_1-0_
  6
CONTINUOUS
 62
    7
 10
74.345538781287388
 20
-27.724695312979009
 11
66.845538781287388
 21
-27.724695312973665
  0
LINE
  8
_1-0_
  6
CONTINUOUS
 62
    7
 10
66.845538781269312
 20
-65.224695312968322
 11
67.415923007076714
 21
-65.224695312968777
  0
ARC
  8
_1-0_
  6
CONTINUOUS
 62
    7
 10
76.075423170477762
 20
-44.374695312973643
 40
0.25
 50
152.51357374961941
 51
270
  0
ARC
  8
_1-0_
  6
CONTINUOUS
 62
    7
 10
76.177698954336421
 20
-28.807095806988343
 40
0.25
 50
92.6226672045821
 51
200.02064541316906
  0
LINE
  8
_1-0_
  6
CONTINUOUS
 62
    7
 10
81.245538781287365
 20
-28.324695312978918
 11
76.166259405671354
 21
-28.557357670680801
  0
ARC
  8
_1-0_
  6
CONTINUOUS
 62
    7
 10
74.345538781277156
 20
-29.474695312871575
 40
1.7
 50
317.78470945545871
 51
20.020645413170445
  0
ARC
  8
_1-0_
  6
CONTINUOUS
 62
    7
 10
75.310011960083358
 20
-30.349695312871233
 40
0.3977582741150607
 50
149.9999999999315
 51
317.78470945545831
  0
LINE
  8
_1-0_
  6
CONTINUOUS
 62
    7
 10
75.35590175235896
 20
-29.474695312872939
 11
74.850720266819195
 21
-28.59969531287237
  0
LINE
  8
_1-0_
  6
CONTINUOUS
 62
    7
 10
74.850720266819536
 20
-28.599695312872143
 11
74.345538781287274
 21
-28.599695312871575
  0
LINE
  8
_1-0_
  6
CONTINUOUS
 62
    7
 10
74.965543190134468
 20
-30.150816175813191
 11
75.35590175235896
 21
-29.474695312872598
  0
ARC
  8
_1-0_
  6
CONTINUOUS
 62
    7
 10
74.345538781277156
 20
-43.474695312973665
 40
1.7
 50
332.51357374961833
 51
42.215290544541325
  0
ARC
  8
_1-0_
  6
CONTINUOUS
 62
    7
 10
75.310011960083358
 20
-42.599695312974006
 40
0.3977582741150607
 50
42.215290544541773
 51
210.00000000006852
  0
LINE
  8
_1-0_
  6
CONTINUOUS
 62
    7
 10
75.35590175235896
 20
-43.474695312972415
 11
74.850720266819195
 21
-44.349695312972983
  0
LINE
  8
_1-0_
  6
CONTINUOUS
 62
    7
 10
74.850720266819081
 20
-44.349695312972983
 11
74.345538781276701
 21
-44.349695312973552
  0
LINE
  8
_1-0_
  6
CONTINUOUS
 62
    7
 10
74.965543190134582
 20
-42.798574450032049
 11
75.355901752359074
 21
-43.474695312972528
  0
LINE
  8
_1-0_
  6
CONTINUOUS
 62
    7
 10
81.245538781276338
 20
-45.224695312973665
 11
81.24553878127054
 21
-61.624695312973643
  0
LINE
  8
_1-0_
  6
CONTINUOUS
 62
    7
 10
76.075423170477762
 20
-44.624695312973643
 11
81.245538781276792
 21
-44.624695312973643
  0
LINE
  8
_1-0_
  6
CONTINUOUS
 62
    7
 10
74.345538781276474
 20
-45.224695312973665
 11
81.245538781276565
 21
-45.224695312973665
  0
LINE
  8
_1-0_
  6
CONTINUOUS
 62
    7
 10
81.24553878127054
 20
-61.624695312973756
 11
81.045538781270494
 21
-61.824695312973802
  0
LINE
  8
_1-0_
  6
CONTINUOUS
 62
    7
 10
81.045538781270608
 20
-61.824695312973802
 11
81.045538781270494
 21
-62.373478925917027
  0
LINE
  8
_1-0_
  6
CONTINUOUS
 62
    7
 10
81.845538781287388
 20
-27.724695312979122
 11
81.845538781269539
 21
-65.224695312973665
  0
LINE
  8
_1-0_
  6
CONTINUOUS
 62
    7
 10
80.228380450375909
 20
-62.649220406784082
 11
81.038224003978513
 21
-65.054469455237097
  0
LINE
  8
_1-0_
  6
CONTINUOUS
 62
    7
 10
80.353558299200614
 20
-62.452320143074587
 11
81.045538781270153
 21
-62.373478925917141
  0
ARC
  8
_1-0_
  6
CONTINUOUS
 62
    7
 10
80.370538781266106
 20
-62.601355921425977
 40
0.1499999999999999
 50
96.499999999998224
 51
198.60829801488677
  0
LINE
  8
_1-0_
  6
CONTINUOUS
 62
    7
 10
74.345538781287388
 20
-27.724695312979009
 11
81.845538781287388
 21
-27.724695312979009
  0
LINE
  8
_1-0_
  6
CONTINUOUS
 62
    7
 10
81.845538781269425
 20
-65.224695312973665
 11
81.275154555461796
 21
-65.224695312973665
  0
LINE
  8
_1-0_
  6
CONTINUOUS
 62
    9
 10
74.358038781277088
 20
-62.674695312973597
 11
79.412617195796457
 21
-62.674695312973597
  0
LINE
  8
_1-0_
  6
CONTINUOUS
 62
    9
 10
74.358038781277088
 20
-63.324695312973688
 11
79.586784170877337
 21
-63.324695312973688
  0
LINE
  8
_1-0_
  6
CONTINUOUS
 62
    9
 10
79.416557324705337
 20
-62.689400074249363
 11
80.09588763649802
 21
-65.224695312973552
  0
ARC
  8
_1-0_
  6
CONTINUOUS
 62
    9
 10
79.658038781277043
 20
-62.624695312973643
 40
0.25
 50
90
 51
195.00000000004499
  0
LINE
  8
_1-0_
  6
CONTINUOUS
 62
    9
 10
79.820894081567332
 20
-57.474695312973665
 11
81.049520237849066
 21
-62.059990551697695
  0
ARC
  8
_1-0_
  6
CONTINUOUS
 62
    9
 10
80.80803878127702
 20
-62.124695312973643
 40
0.25
 50
270
 51
15.000000000089292
  0
LINE
  8
_1-0_
  6
CONTINUOUS
 62
    9
 10
79.658038781277043
 20
-62.374695312973643
 11
80.80803878127702
 21
-62.374695312973643
  0
LINE
  8
_1-0_
  6
CONTINUOUS
 62
    9
 10
79.820894081567559
 20
-57.474695312973665
 11
74.358038781277088
 21
-57.474695312973665
  0
LINE
  8
_1-0_
  6
CONTINUOUS
 62
    9
 10
74.358038781277088
 20
-62.674695312973597
 11
69.278460366757514
 21
-62.674695312973597
  0
LINE
  8
_1-0_
  6
CONTINUOUS
 62
    9
 10
74.358038781277088
 20
-63.324695312973688
 11
69.104293391676748
 21
-63.324695312973688
  0
LINE
  8
_1-0_
  6
CONTINUOUS
 62
    9
 10
69.274520237848975
 20
-62.689400074249363
 11
68.595189926056179
 21
-65.224695312973779
  0
ARC
  8
_1-0_
  6
CONTINUOUS
 62
    9
 10
69.033038781277156
 20
-62.624695312973643
 40
0.25
 50
344.99999999995498
 51
89.999999999999986
  0
LINE
  8
_1-0_
  6
CONTINUOUS
 62
    9
 10
68.870183480986412
 20
-57.474695312973779
 11
67.641557324704678
 21
-62.059990551697695
  0
ARC
  8
_1-0_
  6
CONTINUOUS
 62
    9
 10
67.883038781277065
 20
-62.124695312973643
 40
0.25
 50
164.9999999999107
 51
270
  0
LINE
  8
_1-0_
  6
CONTINUOUS
 62
    9
 10
69.033038781277156
 20
-62.374695312973643
 11
67.883038781277065
 21
-62.374695312973643
  0
LINE
  8
_1-0_
  6
CONTINUOUS
 62
    9
 10
68.87018348098664
 20
-57.474695312973665
 11
74.358038781277088
 21
-57.474695312973665
  0
POINT
  8
_1-0_
 62
    4
 10
66.833038781570195
 20
-20.06335658687118
  0
LINE
  8
_1-0_
  6
CONTINUOUS
 62
    4
 10
66.833038781570195
 20
-20.06335658687118
 11
66.833038781570195
 21
-25.22998938159418
  0
LINE
  8
_1-0_
  6
CONTINUOUS
 62
    4
 10
66.833038781570195
 20
-20.06335658687118
 11
81.833038781570195
 21
-20.06335658687118
  0
POINT
  8
_1-0_
 62
    4
 10
81.833038781570195
 20
-20.06335658687118
  0
LINE
  8
_1-0_
  6
CONTINUOUS
 62
    4
 10
81.833038781570195
 20
-20.06335658687118
 11
81.833038781570195
 21
-25.22998938159418
  0
LINE
  8
_1-0_
  6
CONTINUOUS
 62
    7
 10
119.34553878155182
 20
-65.224695312973665
 11
118.77512747607287
 21
-65.224695312973665
  0
LINE
  8
_1-0_
  6
CONTINUOUS
 62
    7
 10
104.34553878155182
 20
-65.224695312968322
 11
104.91595008711786
 21
-65.224695312968663
  0
LINE
  8
_1-0_
  6
CONTINUOUS
 62
    9
 10
106.3701834809863
 20
-57.474695312973665
 11
111.85803878127675
 21
-57.474695312973665
  0
LINE
  8
_1-0_
  6
CONTINUOUS
 62
    9
 10
106.53303878127693
 20
-62.374695312973643
 11
105.38303878127684
 21
-62.374695312973643
  0
ARC
  8
_1-0_
  6
CONTINUOUS
 62
    9
 10
105.38303878127684
 20
-62.124695312973643
 40
0.25
 50
164.9999999999107
 51
270
  0
LINE
  8
_1-0_
  6
CONTINUOUS
 62
    9
 10
106.3701834809863
 20
-57.474695312973665
 11
105.14155732470456
 21
-62.059990551697808
  0
ARC
  8
_1-0_
  6
CONTINUOUS
 62
    9
 10
106.53303878127693
 20
-62.624695312973643
 40
0.25
 50
344.99999999995498
 51
89.999999999999986
  0
LINE
  8
_1-0_
  6
CONTINUOUS
 62
    9
 10
106.77452023784875
 20
-62.689400074249477
 11
106.09518992605584
 21
-65.224695312973779
  0
LINE
  8
_1-0_
  6
CONTINUOUS
 62
    9
 10
111.85803878127675
 20
-63.324695312973688
 11
106.60429339167652
 21
-63.324695312973688
  0
LINE
  8
_1-0_
  6
CONTINUOUS
 62
    9
 10
111.85803878127675
 20
-62.674695312973711
 11
106.7784603667574
 21
-62.674695312973711
  0
LINE
  8
_1-0_
  6
CONTINUOUS
 62
    9
 10
117.32089408156733
 20
-57.474695312973665
 11
111.85803878127675
 21
-57.474695312973665
  0
LINE
  8
_1-0_
  6
CONTINUOUS
 62
    9
 10
117.1580387812767
 20
-62.374695312973643
 11
118.30803878127679
 21
-62.374695312973643
  0
LINE
  8
_1-0_
  6
CONTINUOUS
 62
    9
 10
117.3208940815671
 20
-57.474695312973665
 11
118.54952023784884
 21
-62.059990551697808
  0
ARC
  8
_1-0_
  6
CONTINUOUS
 62
    9
 10
117.1580387812767
 20
-62.624695312973643
 40
0.25
 50
90
 51
195.00000000004499
  0
LINE
  8
_1-0_
  6
CONTINUOUS
 62
    9
 10
116.91655732470488
 20
-62.689400074249363
 11
117.59588763649757
 21
-65.224695312973665
  0
LINE
  8
_1-0_
  6
CONTINUOUS
 62
    9
 10
111.85803878127675
 20
-63.324695312973688
 11
117.08678417087711
 21
-63.324695312973688
  0
LINE
  8
_1-0_
  6
CONTINUOUS
 62
    9
 10
111.85803878127675
 20
-62.674695312973711
 11
116.91261719579623
 21
-62.674695312973711
  0
ARC
  8
_1-0_
  6
CONTINUOUS
 62
    9
 10
118.30803878127679
 20
-62.124695312973643
 40
0.25
 50
270
 51
15.000000000089292
  0
LINE
  8
_1-0_
  6
CONTINUOUS
 62
    7
 10
119.33303878155178
 20
-65.224695312973665
 11
118.76262747607282
 21
-65.224695312973665
  0
ARC
  8
_1-0_
  6
CONTINUOUS
 62
    7
 10
117.85803878154846
 20
-62.602572308481911
 40
0.1499999999999999
 50
96.499999999998224
 51
198.60829801488677
  0
LINE
  8
_1-0_
  6
CONTINUOUS
 62
    7
 10
119.33303878156974
 20
-40.224695312979009
 11
119.33303878155178
 21
-65.224695312973552
  0
LINE
  8
_1-0_
  6
CONTINUOUS
 62
    7
 10
118.78303878155432
 20
-61.575911700028485
 11
118.53303878155273
 21
-61.825911700029963
  0
LINE
  8
_1-0_
  6
CONTINUOUS
 62
    7
 10
104.33303878155178
 20
-65.224695312968322
 11
104.90345008711782
 21
-65.224695312968777
  0
ARC
  8
_1-0_
  6
CONTINUOUS
 62
    7
 10
105.80803878155692
 20
-62.60257230847759
 40
0.1499999999999999
 50
341.38351495719962
 51
83.499999999960721
  0
LINE
  8
_1-0_
  6
CONTINUOUS
 62
    7
 10
104.33303878156974
 20
-40.224695312973552
 11
104.33303878155201
 21
-65.224695312968322
  0
LINE
  8
_1-0_
  6
CONTINUOUS
 62
    7
 10
118.78303878156137
 20
-51.927633949571998
 11
118.78303878155432
 21
-61.575911700028371
  0
LINE
  8
_1-0_
  6
CONTINUOUS
 62
    7
 10
104.88303878156128
 20
-51.927633949564381
 11
104.88303878155446
 21
-61.575911700025983
  0
LINE
  8
_1-0_
  6
CONTINUOUS
 62
    7
 10
105.95019027161086
 20
-62.650457106435113
 11
105.14036923720803
 21
-65.054503309564495
  0
ARC
  8
_1-0_
  6
CONTINUOUS
 62
    7
 10
104.90345008711805
 20
-64.974695312968663
 40
0.25
 50
270
 51
341.38351495720082
  0
LINE
  8
_1-0_
  6
CONTINUOUS
 62
    7
 10
117.7158872915775
 20
-62.650457106428519
 11
118.52570832598306
 21
-65.054503309556992
  0
ARC
  8
_1-0_
  6
CONTINUOUS
 62
    7
 10
118.76262747607282
 20
-64.974695312961046
 40
0.25
 50
198.61648504286282
 51
270
  0
LINE
  8
_1-0_
  6
CONTINUOUS
 62
    7
 10
104.88303878155446
 20
-61.575911700025983
 11
105.13303878155287
 21
-61.82591170002496
  0
LINE
  8
_1-0_
  6
CONTINUOUS
 62
    7
 10
105.1330387815531
 20
-61.82591170002496
 11
105.13303878155287
 21
-62.374695312968186
  0
LINE
  8
_1-0_
  6
CONTINUOUS
 62
    7
 10
105.82501926362218
 20
-62.4535365301262
 11
105.13303878155264
 21
-62.374695312968299
  0
LINE
  8
_1-0_
  6
CONTINUOUS
 62
    7
 10
117.84105829948319
 20
-62.453536530130521
 11
118.53303878155273
 21
-62.37469531297296
  0
LINE
  8
_1-0_
  6
CONTINUOUS
 62
    7
 10
118.53303878155319
 20
-61.825911700029735
 11
118.53303878155296
 21
-62.374695312973074
  0
TEXT
  8
_1-0_
 62
    2
 10
340.13832213748532
 20
263.49130144058955
 40
6.1999999999999886
 41
1.0000000000000018
 50
0
  1
150
  0
LINE
  8
_1-0_
  6
CONTINUOUS
 62
    7
 10
119.34553878155228
 20
-65.224695312973665
 11
118.77512747607332
 21
-65.224695312973665
  0
LINE
  8
_1-0_
  6
CONTINUOUS
 62
    7
 10
104.34553878155228
 20
-65.224695312968322
 11
104.91595008711832
 21
-65.224695312968663
  0
LINE
  8
_1-0_
  6
CONTINUOUS
 62
    9
 10
106.7745202378492
 20
-62.689400074249477
 11
106.09518992605629
 21
-65.224695312973779
  0
LINE
  8
_1-0_
  6
CONTINUOUS
 62
    9
 10
111.8580387812772
 20
-63.324695312973688
 11
106.60429339167698
 21
-63.324695312973688
  0
LINE
  8
_1-0_
  6
CONTINUOUS
 62
    9
 10
116.91655732470534
 20
-62.689400074249363
 11
117.59588763649802
 21
-65.224695312973665
  0
LINE
  8
_1-0_
  6
CONTINUOUS
 62
    9
 10
111.8580387812772
 20
-63.324695312973688
 11
117.08678417087756
 21
-63.324695312973688
  0
LINE
  8
_1-0_
  6
CONTINUOUS
 62
    7
 10
119.33303878155223
 20
-65.224695312973665
 11
118.76262747607328
 21
-65.224695312973665
  0
LINE
  8
_1-0_
  6
CONTINUOUS
 62
    7
 10
119.3330387815702
 20
-40.224695312979009
 11
119.33303878155223
 21
-65.224695312973552
  0
LINE
  8
_1-0_
  6
CONTINUOUS
 62
    7
 10
104.33303878155223
 20
-65.224695312968322
 11
104.90345008711827
 21
-65.224695312968777
  0
LINE
  8
_1-0_
  6
CONTINUOUS
 62
    7
 10
104.3330387815702
 20
-40.224695312973552
 11
104.33303878155246
 21
-65.224695312968322
  0
LINE
  8
_1-0_
  6
CONTINUOUS
 62
    7
 10
105.95019027161132
 20
-62.650457106435113
 11
105.14036923720849
 21
-65.054503309564495
  0
ARC
  8
_1-0_
  6
CONTINUOUS
 62
    7
 10
104.9034500871185
 20
-64.974695312968663
 40
0.25
 50
270
 51
341.38351495720082
  0
LINE
  8
_1-0_
  6
CONTINUOUS
 62
    7
 10
117.71588729157796
 20
-62.650457106428519
 11
118.52570832598352
 21
-65.054503309556992
  0
ARC
  8
_1-0_
  6
CONTINUOUS
 62
    7
 10
118.76262747607328
 20
-64.974695312961046
 40
0.25
 50
198.61648504286282
 51
270
  0
LINE
  8
_1-0_
  6
CONTINUOUS
 62
    7
 10
122.57456639879868
 20
-65.224695312973552
 11
117.59588763649893
 21
-65.224697364364545
  0
LINE
  8
_1-0_
  6
CONTINUOUS
 62
    7
 10
119.34553878155228
 20
-65.224695312973552
 11
118.77512747607332
 21
-65.224695312973552
  0
LINE
  8
_1-0_
  6
CONTINUOUS
 62
    7
 10
104.34553878155228
 20
-65.224695312968208
 11
104.91595008711832
 21
-65.224695312968549
  0
LINE
  8
_1-0_
  6
CONTINUOUS
 62
    9
 10
106.7745202378492
 20
-62.689400074249363
 11
106.09518992605629
 21
-65.224695312973665
  0
LINE
  8
_1-0_
  6
CONTINUOUS
 62
    9
 10
116.91655732470534
 20
-62.689400074249249
 11
117.59588763649802
 21
-65.224695312973552
  0
LINE
  8
_1-0_
  6
CONTINUOUS
 62
    7
 10
119.33303878155223
 20
-65.224695312973552
 11
118.76262747607328
 21
-65.224695312973552
  0
LINE
  8
_1-0_
  6
CONTINUOUS
 62
    7
 10
119.3330387815702
 20
-40.224695312978895
 11
119.33303878155223
 21
-65.224695312973438
  0
LINE
  8
_1-0_
  6
CONTINUOUS
 62
    7
 10
104.33303878155223
 20
-65.224695312968208
 11
104.90345008711827
 21
-65.224695312968663
  0
LINE
  8
_1-0_
  6
CONTINUOUS
 62
    7
 10
104.3330387815702
 20
-40.224695312973438
 11
104.33303878155246
 21
-65.224695312968208
  0
LINE
  8
_1-0_
  6
CONTINUOUS
 62
    7
 10
105.95019027161132
 20
-62.650457106434999
 11
105.14036923720849
 21
-65.054503309564382
  0
ARC
  8
_1-0_
  6
CONTINUOUS
 62
    7
 10
104.9034500871185
 20
-64.974695312968549
 40
0.25
 50
270
 51
341.38351495720082
  0
LINE
  8
_1-0_
  6
CONTINUOUS
 62
    7
 10
117.71588729157796
 20
-62.650457106428405
 11
118.52570832598352
 21
-65.054503309556878
  0
ARC
  8
_1-0_
  6
CONTINUOUS
 62
    7
 10
118.76262747607328
 20
-64.974695312960932
 40
0.25
 50
198.61648504286282
 51
270
  0
LINE
  8
_1-0_
  6
CONTINUOUS
 62
    7
 10
118.74553878128737
 20
-28.324695312978918
 11
118.74553878127679
 21
-44.624695312973643
  0
ARC
  8
_1-0_
  6
CONTINUOUS
 62
    7
 10
104.91592300707705
 20
-64.974695312968663
 40
0.25
 50
270
 51
341.39170198507168
  0
ARC
  8
_1-0_
  6
CONTINUOUS
 62
    7
 10
118.7751545554618
 20
-64.974695312973665
 40
0.25
 50
198.60829801488714
 51
270
  0
ARC
  8
_1-0_
  6
CONTINUOUS
 62
    7
 10
110.11565439207587
 20
-44.374695312972506
 40
0.25
 50
269.99999999995896
 51
27.486426250339409
  0
ARC
  8
_1-0_
  6
CONTINUOUS
 62
    7
 10
110.01337860823722
 20
-28.807095806987093
 40
0.25
 50
339.97935458678978
 51
87.37733279537683
  0
LINE
  8
_1-0_
  6
CONTINUOUS
 62
    7
 10
104.94553878128718
 20
-28.324695312973802
 11
110.02481815690285
 21
-28.557357670679437
  0
ARC
  8
_1-0_
  6
CONTINUOUS
 62
    7
 10
111.84553878129591
 20
-29.474695312871575
 40
1.7
 50
159.9793545867885
 51
222.21529054450031
  0
ARC
  8
_1-0_
  6
CONTINUOUS
 62
    7
 10
110.88106560248914
 20
-30.349695312870551
 40
0.3977582741150607
 50
222.21529054450073
 51
30.00000000002742
  0
LINE
  8
_1-0_
  6
CONTINUOUS
 62
    7
 10
110.835175810214
 20
-29.474695312872029
 11
111.34035729575433
 21
-28.599695312871916
  0
LINE
  8
_1-0_
  6
CONTINUOUS
 62
    7
 10
111.34035729575479
 20
-28.599695312872029
 11
111.84553878128705
 21
-28.599695312871802
  0
LINE
  8
_1-0_
  6
CONTINUOUS
 62
    7
 10
111.22553437243815
 20
-30.150816175812849
 11
110.835175810214
 21
-29.474695312872029
  0
ARC
  8
_1-0_
  6
CONTINUOUS
 62
    7
 10
111.84553878127704
 20
-43.474695312973665
 40
1.7
 50
137.78470945541761
 51
207.4864262503406
  0
ARC
  8
_1-0_
  6
CONTINUOUS
 62
    7
 10
110.88106560247141
 20
-42.599695312973324
 40
0.3977582741150607
 50
329.99999999989041
 51
137.78470945541724
  0
LINE
  8
_1-0_
  6
CONTINUOUS
 62
    7
 10
110.83517581019512
 20
-43.474695312971846
 11
111.34035729573432
 21
-44.349695312972756
  0
LINE
  8
_1-0_
  6
CONTINUOUS
 62
    7
 10
111.34035729573432
 20
-44.349695312972642
 11
111.8455387812767
 21
-44.349695312973665
  0
LINE
  8
_1-0_
  6
CONTINUOUS
 62
    7
 10
111.22553437242007
 20
-42.798574450031481
 11
110.83517581019524
 21
-43.474695312971619
  0
LINE
  8
_1-0_
  6
CONTINUOUS
 62
    7
 10
104.94553878128707
 20
-28.324695312974029
 11
104.94553878127661
 21
-44.62469531296864
  0
LINE
  8
_1-0_
  6
CONTINUOUS
 62
    7
 10
104.9455387812765
 20
-45.224695312968663
 11
104.9455387812707
 21
-61.62469531296864
  0
LINE
  8
_1-0_
  6
CONTINUOUS
 62
    7
 10
110.11565439207564
 20
-44.624695312972506
 11
104.94553878127684
 21
-44.624695312968754
  0
LINE
  8
_1-0_
  6
CONTINUOUS
 62
    7
 10
111.84553878127659
 20
-45.224695312973665
 11
104.9455387812765
 21
-45.224695312968777
  0
LINE
  8
_1-0_
  6
CONTINUOUS
 62
    7
 10
104.94553878127059
 20
-61.624695312968754
 11
105.14553878127052
 21
-61.824695312969027
  0
LINE
  8
_1-0_
  6
CONTINUOUS
 62
    7
 10
105.14553878127052
 20
-61.824695312968913
 11
105.14553878127029
 21
-62.373478925912252
  0
LINE
  8
_1-0_
  6
CONTINUOUS
 62
    7
 10
104.34553878128727
 20
-27.724695312973665
 11
104.34553878126943
 21
-65.224695312968322
  0
LINE
  8
_1-0_
  6
CONTINUOUS
 62
    7
 10
105.96269711216431
 20
-62.649220406779875
 11
105.15285355856
 21
-65.054469455232436
  0
LINE
  8
_1-0_
  6
CONTINUOUS
 62
    7
 10
105.8375192633396
 20
-62.452320143070267
 11
105.14553878127029
 21
-62.373478925912366
  0
ARC
  8
_1-0_
  6
CONTINUOUS
 62
    7
 10
105.82053878127456
 20
-62.601355921421657
 40
0.1499999999999999
 50
341.39170198507207
 51
83.499999999960707
  0
LINE
  8
_1-0_
  6
CONTINUOUS
 62
    7
 10
111.84553878128739
 20
-27.724695312979009
 11
104.34553878128739
 21
-27.724695312973665
  0
LINE
  8
_1-0_
  6
CONTINUOUS
 62
    7
 10
104.34553878126931
 20
-65.224695312968322
 11
104.91592300707671
 21
-65.224695312968777
  0
ARC
  8
_1-0_
  6
CONTINUOUS
 62
    7
 10
113.57542317047776
 20
-44.374695312973643
 40
0.25
 50
152.51357374961941
 51
270
  0
ARC
  8
_1-0_
  6
CONTINUOUS
 62
    7
 10
113.67769895433642
 20
-28.807095806988343
 40
0.25
 50
92.6226672045821
 51
200.02064541316906
  0
LINE
  8
_1-0_
  6
CONTINUOUS
 62
    7
 10
118.74553878128737
 20
-28.324695312978918
 11
113.66625940567135
 21
-28.557357670680801
  0
ARC
  8
_1-0_
  6
CONTINUOUS
 62
    7
 10
111.84553878127716
 20
-29.474695312871575
 40
1.7
 50
317.78470945545871
 51
20.020645413170445
  0
ARC
  8
_1-0_
  6
CONTINUOUS
 62
    7
 10
112.81001196008336
 20
-30.349695312871233
 40
0.3977582741150607
 50
149.9999999999315
 51
317.78470945545831
  0
LINE
  8
_1-0_
  6
CONTINUOUS
 62
    7
 10
112.85590175235896
 20
-29.474695312872939
 11
112.3507202668192
 21
-28.59969531287237
  0
LINE
  8
_1-0_
  6
CONTINUOUS
 62
    7
 10
112.35072026681954
 20
-28.599695312872143
 11
111.84553878128727
 21
-28.599695312871575
  0
LINE
  8
_1-0_
  6
CONTINUOUS
 62
    7
 10
112.46554319013447
 20
-30.150816175813191
 11
112.85590175235896
 21
-29.474695312872598
  0
ARC
  8
_1-0_
  6
CONTINUOUS
 62
    7
 10
111.84553878127716
 20
-43.474695312973665
 40
1.7
 50
332.51357374961833
 51
42.215290544541325
  0
ARC
  8
_1-0_
  6
CONTINUOUS
 62
    7
 10
112.81001196008336
 20
-42.599695312974006
 40
0.3977582741150607
 50
42.215290544541773
 51
210.00000000006852
  0
LINE
  8
_1-0_
  6
CONTINUOUS
 62
    7
 10
112.85590175235896
 20
-43.474695312972415
 11
112.3507202668192
 21
-44.349695312972983
  0
LINE
  8
_1-0_
  6
CONTINUOUS
 62
    7
 10
112.35072026681908
 20
-44.349695312972983
 11
111.8455387812767
 21
-44.349695312973552
  0
LINE
  8
_1-0_
  6
CONTINUOUS
 62
    7
 10
112.46554319013458
 20
-42.798574450032049
 11
112.85590175235907
 21
-43.474695312972528
  0
LINE
  8
_1-0_
  6
CONTINUOUS
 62
    7
 10
118.74553878127634
 20
-45.224695312973665
 11
118.74553878127054
 21
-61.624695312973643
  0
LINE
  8
_1-0_
  6
CONTINUOUS
 62
    7
 10
113.57542317047776
 20
-44.624695312973643
 11
118.74553878127679
 21
-44.624695312973643
  0
LINE
  8
_1-0_
  6
CONTINUOUS
 62
    7
 10
111.84553878127647
 20
-45.224695312973665
 11
118.74553878127657
 21
-45.224695312973665
  0
LINE
  8
_1-0_
  6
CONTINUOUS
 62
    7
 10
118.74553878127054
 20
-61.624695312973756
 11
118.54553878127049
 21
-61.824695312973802
  0
LINE
  8
_1-0_
  6
CONTINUOUS
 62
    7
 10
118.54553878127061
 20
-61.824695312973802
 11
118.54553878127049
 21
-62.373478925917027
  0
LINE
  8
_1-0_
  6
CONTINUOUS
 62
    7
 10
119.34553878128739
 20
-27.724695312979122
 11
119.34553878126954
 21
-65.224695312973665
  0
LINE
  8
_1-0_
  6
CONTINUOUS
 62
    7
 10
117.72838045037591
 20
-62.649220406784082
 11
118.53822400397851
 21
-65.054469455237097
  0
LINE
  8
_1-0_
  6
CONTINUOUS
 62
    7
 10
117.85355829920061
 20
-62.452320143074587
 11
118.54553878127015
 21
-62.373478925917141
  0
ARC
  8
_1-0_
  6
CONTINUOUS
 62
    7
 10
117.87053878126611
 20
-62.601355921425977
 40
0.1499999999999999
 50
96.499999999998224
 51
198.60829801488677
  0
LINE
  8
_1-0_
  6
CONTINUOUS
 62
    7
 10
111.84553878128739
 20
-27.724695312979009
 11
119.34553878128739
 21
-27.724695312979009
  0
LINE
  8
_1-0_
  6
CONTINUOUS
 62
    7
 10
119.34553878126943
 20
-65.224695312973665
 11
118.7751545554618
 21
-65.224695312973665
  0
LINE
  8
_1-0_
  6
CONTINUOUS
 62
    9
 10
111.85803878127709
 20
-62.674695312973597
 11
116.91261719579646
 21
-62.674695312973597
  0
LINE
  8
_1-0_
  6
CONTINUOUS
 62
    9
 10
111.85803878127709
 20
-63.324695312973688
 11
117.08678417087734
 21
-63.324695312973688
  0
LINE
  8
_1-0_
  6
CONTINUOUS
 62
    9
 10
116.91655732470534
 20
-62.689400074249363
 11
117.59588763649802
 21
-65.224695312973552
  0
ARC
  8
_1-0_
  6
CONTINUOUS
 62
    9
 10
117.15803878127704
 20
-62.624695312973643
 40
0.25
 50
90
 51
195.00000000004499
  0
LINE
  8
_1-0_
  6
CONTINUOUS
 62
    9
 10
117.32089408156733
 20
-57.474695312973665
 11
118.54952023784907
 21
-62.059990551697695
  0
ARC
  8
_1-0_
  6
CONTINUOUS
 62
    9
 10
118.30803878127702
 20
-62.124695312973643
 40
0.25
 50
270
 51
15.000000000089292
  0
LINE
  8
_1-0_
  6
CONTINUOUS
 62
    9
 10
117.15803878127704
 20
-62.374695312973643
 11
118.30803878127702
 21
-62.374695312973643
  0
LINE
  8
_1-0_
  6
CONTINUOUS
 62
    9
 10
117.32089408156756
 20
-57.474695312973665
 11
111.85803878127709
 21
-57.474695312973665
  0
LINE
  8
_1-0_
  6
CONTINUOUS
 62
    9
 10
111.85803878127709
 20
-62.674695312973597
 11
106.77846036675751
 21
-62.674695312973597
  0
LINE
  8
_1-0_
  6
CONTINUOUS
 62
    9
 10
111.85803878127709
 20
-63.324695312973688
 11
106.60429339167675
 21
-63.324695312973688
  0
LINE
  8
_1-0_
  6
CONTINUOUS
 62
    9
 10
106.77452023784898
 20
-62.689400074249363
 11
106.09518992605618
 21
-65.224695312973779
  0
ARC
  8
_1-0_
  6
CONTINUOUS
 62
    9
 10
106.53303878127716
 20
-62.624695312973643
 40
0.25
 50
344.99999999995498
 51
89.999999999999986
  0
LINE
  8
_1-0_
  6
CONTINUOUS
 62
    9
 10
106.37018348098641
 20
-57.474695312973779
 11
105.14155732470468
 21
-62.059990551697695
  0
ARC
  8
_1-0_
  6
CONTINUOUS
 62
    9
 10
105.38303878127707
 20
-62.124695312973643
 40
0.25
 50
164.9999999999107
 51
270
  0
LINE
  8
_1-0_
  6
CONTINUOUS
 62
    9
 10
106.53303878127716
 20
-62.374695312973643
 11
105.38303878127707
 21
-62.374695312973643
  0
LINE
  8
_1-0_
  6
CONTINUOUS
 62
    9
 10
106.37018348098664
 20
-57.474695312973665
 11
111.85803878127709
 21
-57.474695312973665
  0
POINT
  8
_1-0_
 62
    4
 10
104.3330387815702
 20
-20.06335658687118
  0
LINE
  8
_1-0_
  6
CONTINUOUS
 62
    4
 10
104.3330387815702
 20
-20.06335658687118
 11
104.3330387815702
 21
-25.22998938159418
  0
LINE
  8
_1-0_
  6
CONTINUOUS
 62
    4
 10
104.3330387815702
 20
-20.06335658687118
 11
119.3330387815702
 21
-20.06335658687118
  0
POINT
  8
_1-0_
 62
    4
 10
119.3330387815702
 20
-20.06335658687118
  0
LINE
  8
_1-0_
  6
CONTINUOUS
 62
    4
 10
119.3330387815702
 20
-20.06335658687118
 11
119.3330387815702
 21
-25.22998938159418
  0
LINE
  8
_1-0_
  6
CONTINUOUS
 62
    7
 10
156.84553878155182
 20
-65.224695312973665
 11
156.27512747607287
 21
-65.224695312973665
  0
LINE
  8
_1-0_
  6
CONTINUOUS
 62
    7
 10
141.84553878155182
 20
-65.224695312968322
 11
142.41595008711786
 21
-65.224695312968663
  0
LINE
  8
_1-0_
  6
CONTINUOUS
 62
    9
 10
143.8701834809863
 20
-57.474695312973665
 11
149.35803878127675
 21
-57.474695312973665
  0
LINE
  8
_1-0_
  6
CONTINUOUS
 62
    9
 10
144.03303878127693
 20
-62.374695312973643
 11
142.88303878127684
 21
-62.374695312973643
  0
ARC
  8
_1-0_
  6
CONTINUOUS
 62
    9
 10
142.88303878127684
 20
-62.124695312973643
 40
0.25
 50
164.9999999999107
 51
270
  0
LINE
  8
_1-0_
  6
CONTINUOUS
 62
    9
 10
143.8701834809863
 20
-57.474695312973665
 11
142.64155732470456
 21
-62.059990551697808
  0
ARC
  8
_1-0_
  6
CONTINUOUS
 62
    9
 10
144.03303878127693
 20
-62.624695312973643
 40
0.25
 50
344.99999999995498
 51
89.999999999999986
  0
LINE
  8
_1-0_
  6
CONTINUOUS
 62
    9
 10
144.27452023784875
 20
-62.689400074249477
 11
143.59518992605584
 21
-65.224695312973779
  0
LINE
  8
_1-0_
  6
CONTINUOUS
 62
    9
 10
149.35803878127675
 20
-63.324695312973688
 11
144.10429339167652
 21
-63.324695312973688
  0
LINE
  8
_1-0_
  6
CONTINUOUS
 62
    9
 10
149.35803878127675
 20
-62.674695312973711
 11
144.2784603667574
 21
-62.674695312973711
  0
LINE
  8
_1-0_
  6
CONTINUOUS
 62
    9
 10
154.82089408156733
 20
-57.474695312973665
 11
149.35803878127675
 21
-57.474695312973665
  0
LINE
  8
_1-0_
  6
CONTINUOUS
 62
    9
 10
154.6580387812767
 20
-62.374695312973643
 11
155.80803878127679
 21
-62.374695312973643
  0
LINE
  8
_1-0_
  6
CONTINUOUS
 62
    9
 10
154.8208940815671
 20
-57.474695312973665
 11
156.04952023784884
 21
-62.059990551697808
  0
ARC
  8
_1-0_
  6
CONTINUOUS
 62
    9
 10
154.6580387812767
 20
-62.624695312973643
 40
0.25
 50
90
 51
195.00000000004499
  0
LINE
  8
_1-0_
  6
CONTINUOUS
 62
    9
 10
154.41655732470488
 20
-62.689400074249363
 11
155.09588763649757
 21
-65.224695312973665
  0
LINE
  8
_1-0_
  6
CONTINUOUS
 62
    9
 10
149.35803878127675
 20
-63.324695312973688
 11
154.58678417087711
 21
-63.324695312973688
  0
LINE
  8
_1-0_
  6
CONTINUOUS
 62
    9
 10
149.35803878127675
 20
-62.674695312973711
 11
154.41261719579623
 21
-62.674695312973711
  0
ARC
  8
_1-0_
  6
CONTINUOUS
 62
    9
 10
155.80803878127679
 20
-62.124695312973643
 40
0.25
 50
270
 51
15.000000000089292
  0
LINE
  8
_1-0_
  6
CONTINUOUS
 62
    7
 10
156.83303878155178
 20
-65.224695312973665
 11
156.26262747607282
 21
-65.224695312973665
  0
ARC
  8
_1-0_
  6
CONTINUOUS
 62
    7
 10
155.35803878154846
 20
-62.602572308481911
 40
0.1499999999999999
 50
96.499999999998224
 51
198.60829801488677
  0
LINE
  8
_1-0_
  6
CONTINUOUS
 62
    7
 10
156.83303878156974
 20
-40.224695312979009
 11
156.83303878155178
 21
-65.224695312973552
  0
LINE
  8
_1-0_
  6
CONTINUOUS
 62
    7
 10
156.28303878155432
 20
-61.575911700028485
 11
156.03303878155273
 21
-61.825911700029963
  0
LINE
  8
_1-0_
  6
CONTINUOUS
 62
    7
 10
141.83303878155178
 20
-65.224695312968322
 11
142.40345008711782
 21
-65.224695312968777
  0
ARC
  8
_1-0_
  6
CONTINUOUS
 62
    7
 10
143.30803878155692
 20
-62.60257230847759
 40
0.1499999999999999
 50
341.38351495719962
 51
83.499999999960721
  0
LINE
  8
_1-0_
  6
CONTINUOUS
 62
    7
 10
141.83303878156974
 20
-40.224695312973552
 11
141.83303878155201
 21
-65.224695312968322
  0
LINE
  8
_1-0_
  6
CONTINUOUS
 62
    7
 10
156.28303878156137
 20
-51.927633949571998
 11
156.28303878155432
 21
-61.575911700028371
  0
LINE
  8
_1-0_
  6
CONTINUOUS
 62
    7
 10
142.38303878156128
 20
-51.927633949564381
 11
142.38303878155446
 21
-61.575911700025983
  0
LINE
  8
_1-0_
  6
CONTINUOUS
 62
    7
 10
143.45019027161086
 20
-62.650457106435113
 11
142.64036923720803
 21
-65.054503309564495
  0
ARC
  8
_1-0_
  6
CONTINUOUS
 62
    7
 10
142.40345008711805
 20
-64.974695312968663
 40
0.25
 50
270
 51
341.38351495720082
  0
LINE
  8
_1-0_
  6
CONTINUOUS
 62
    7
 10
155.2158872915775
 20
-62.650457106428519
 11
156.02570832598306
 21
-65.054503309556992
  0
ARC
  8
_1-0_
  6
CONTINUOUS
 62
    7
 10
156.26262747607282
 20
-64.974695312961046
 40
0.25
 50
198.61648504286282
 51
270
  0
LINE
  8
_1-0_
  6
CONTINUOUS
 62
    7
 10
142.38303878155446
 20
-61.575911700025983
 11
142.63303878155287
 21
-61.82591170002496
  0
LINE
  8
_1-0_
  6
CONTINUOUS
 62
    7
 10
142.6330387815531
 20
-61.82591170002496
 11
142.63303878155287
 21
-62.374695312968186
  0
LINE
  8
_1-0_
  6
CONTINUOUS
 62
    7
 10
143.32501926362218
 20
-62.4535365301262
 11
142.63303878155264
 21
-62.374695312968299
  0
LINE
  8
_1-0_
  6
CONTINUOUS
 62
    7
 10
155.34105829948319
 20
-62.453536530130521
 11
156.03303878155273
 21
-62.37469531297296
  0
LINE
  8
_1-0_
  6
CONTINUOUS
 62
    7
 10
156.03303878155319
 20
-61.825911700029735
 11
156.03303878155296
 21
-62.374695312973074
  0
TEXT
  8
_1-0_
 62
    7
 10
212.03566693814287
 20
254.96630144058958
 40
5.4000000000000057
 41
0.999999999999999
 50
0
  1
開口
  0
LINE
  8
_1-0_
  6
CONTINUOUS
 62
    7
 10
156.84553878155228
 20
-65.224695312973665
 11
156.27512747607332
 21
-65.224695312973665
  0
LINE
  8
_1-0_
  6
CONTINUOUS
 62
    7
 10
141.84553878155228
 20
-65.224695312968322
 11
142.41595008711832
 21
-65.224695312968663
  0
LINE
  8
_1-0_
  6
CONTINUOUS
 62
    9
 10
144.2745202378492
 20
-62.689400074249477
 11
143.59518992605629
 21
-65.224695312973779
  0
LINE
  8
_1-0_
  6
CONTINUOUS
 62
    9
 10
149.3580387812772
 20
-63.324695312973688
 11
144.10429339167698
 21
-63.324695312973688
  0
LINE
  8
_1-0_
  6
CONTINUOUS
 62
    9
 10
154.41655732470534
 20
-62.689400074249363
 11
155.09588763649802
 21
-65.224695312973665
  0
LINE
  8
_1-0_
  6
CONTINUOUS
 62
    9
 10
149.3580387812772
 20
-63.324695312973688
 11
154.58678417087756
 21
-63.324695312973688
  0
LINE
  8
_1-0_
  6
CONTINUOUS
 62
    7
 10
156.83303878155223
 20
-65.224695312973665
 11
156.26262747607328
 21
-65.224695312973665
  0
LINE
  8
_1-0_
  6
CONTINUOUS
 62
    7
 10
156.8330387815702
 20
-40.224695312979009
 11
156.83303878155223
 21
-65.224695312973552
  0
LINE
  8
_1-0_
  6
CONTINUOUS
 62
    7
 10
141.83303878155223
 20
-65.224695312968322
 11
142.40345008711827
 21
-65.224695312968777
  0
LINE
  8
_1-0_
  6
CONTINUOUS
 62
    7
 10
141.8330387815702
 20
-40.224695312973552
 11
141.83303878155246
 21
-65.224695312968322
  0
LINE
  8
_1-0_
  6
CONTINUOUS
 62
    7
 10
143.45019027161132
 20
-62.650457106435113
 11
142.64036923720849
 21
-65.054503309564495
  0
ARC
  8
_1-0_
  6
CONTINUOUS
 62
    7
 10
142.4034500871185
 20
-64.974695312968663
 40
0.25
 50
270
 51
341.38351495720082
  0
LINE
  8
_1-0_
  6
CONTINUOUS
 62
    7
 10
155.21588729157796
 20
-62.650457106428519
 11
156.02570832598352
 21
-65.054503309556992
  0
ARC
  8
_1-0_
  6
CONTINUOUS
 62
    7
 10
156.26262747607328
 20
-64.974695312961046
 40
0.25
 50
198.61648504286282
 51
270
  0
LINE
  8
_1-0_
  6
CONTINUOUS
 62
    7
 10
160.07456639879868
 20
-65.224695312973552
 11
155.09588763649893
 21
-65.224697364364545
  0
LINE
  8
_1-0_
  6
CONTINUOUS
 62
    7
 10
156.84553878155228
 20
-65.224695312973552
 11
156.27512747607332
 21
-65.224695312973552
  0
LINE
  8
_1-0_
  6
CONTINUOUS
 62
    7
 10
141.84553878155228
 20
-65.224695312968208
 11
142.41595008711832
 21
-65.224695312968549
  0
LINE
  8
_1-0_
  6
CONTINUOUS
 62
    9
 10
144.2745202378492
 20
-62.689400074249363
 11
143.59518992605629
 21
-65.224695312973665
  0
LINE
  8
_1-0_
  6
CONTINUOUS
 62
    9
 10
154.41655732470534
 20
-62.689400074249249
 11
155.09588763649802
 21
-65.224695312973552
  0
LINE
  8
_1-0_
  6
CONTINUOUS
 62
    7
 10
156.83303878155223
 20
-65.224695312973552
 11
156.26262747607328
 21
-65.224695312973552
  0
LINE
  8
_1-0_
  6
CONTINUOUS
 62
    7
 10
156.8330387815702
 20
-40.224695312978895
 11
156.83303878155223
 21
-65.224695312973438
  0
LINE
  8
_1-0_
  6
CONTINUOUS
 62
    7
 10
141.83303878155223
 20
-65.224695312968208
 11
142.40345008711827
 21
-65.224695312968663
  0
LINE
  8
_1-0_
  6
CONTINUOUS
 62
    7
 10
141.8330387815702
 20
-40.224695312973438
 11
141.83303878155246
 21
-65.224695312968208
  0
LINE
  8
_1-0_
  6
CONTINUOUS
 62
    7
 10
143.45019027161132
 20
-62.650457106434999
 11
142.64036923720849
 21
-65.054503309564382
  0
ARC
  8
_1-0_
  6
CONTINUOUS
 62
    7
 10
142.4034500871185
 20
-64.974695312968549
 40
0.25
 50
270
 51
341.38351495720082
  0
LINE
  8
_1-0_
  6
CONTINUOUS
 62
    7
 10
155.21588729157796
 20
-62.650457106428405
 11
156.02570832598352
 21
-65.054503309556878
  0
ARC
  8
_1-0_
  6
CONTINUOUS
 62
    7
 10
156.26262747607328
 20
-64.974695312960932
 40
0.25
 50
198.61648504286282
 51
270
  0
LINE
  8
_1-0_
  6
CONTINUOUS
 62
    7
 10
156.24553878128737
 20
-28.324695312978918
 11
156.24553878127679
 21
-44.624695312973643
  0
ARC
  8
_1-0_
  6
CONTINUOUS
 62
    7
 10
142.41592300707705
 20
-64.974695312968663
 40
0.25
 50
270
 51
341.39170198507168
  0
ARC
  8
_1-0_
  6
CONTINUOUS
 62
    7
 10
156.2751545554618
 20
-64.974695312973665
 40
0.25
 50
198.60829801488714
 51
270
  0
ARC
  8
_1-0_
  6
CONTINUOUS
 62
    7
 10
147.61565439207587
 20
-44.374695312972506
 40
0.25
 50
269.99999999995896
 51
27.486426250339409
  0
ARC
  8
_1-0_
  6
CONTINUOUS
 62
    7
 10
147.51337860823722
 20
-28.807095806987093
 40
0.25
 50
339.97935458678978
 51
87.37733279537683
  0
LINE
  8
_1-0_
  6
CONTINUOUS
 62
    7
 10
142.44553878128718
 20
-28.324695312973802
 11
147.52481815690285
 21
-28.557357670679437
  0
ARC
  8
_1-0_
  6
CONTINUOUS
 62
    7
 10
149.34553878129591
 20
-29.474695312871575
 40
1.7
 50
159.9793545867885
 51
222.21529054450031
  0
ARC
  8
_1-0_
  6
CONTINUOUS
 62
    7
 10
148.38106560248914
 20
-30.349695312870551
 40
0.3977582741150607
 50
222.21529054450073
 51
30.00000000002742
  0
LINE
  8
_1-0_
  6
CONTINUOUS
 62
    7
 10
148.335175810214
 20
-29.474695312872029
 11
148.84035729575433
 21
-28.599695312871916
  0
LINE
  8
_1-0_
  6
CONTINUOUS
 62
    7
 10
148.84035729575479
 20
-28.599695312872029
 11
149.34553878128705
 21
-28.599695312871802
  0
LINE
  8
_1-0_
  6
CONTINUOUS
 62
    7
 10
148.72553437243815
 20
-30.150816175812849
 11
148.335175810214
 21
-29.474695312872029
  0
ARC
  8
_1-0_
  6
CONTINUOUS
 62
    7
 10
149.34553878127704
 20
-43.474695312973665
 40
1.7
 50
137.78470945541761
 51
207.4864262503406
  0
ARC
  8
_1-0_
  6
CONTINUOUS
 62
    7
 10
148.38106560247141
 20
-42.599695312973324
 40
0.3977582741150607
 50
329.99999999989041
 51
137.78470945541724
  0
LINE
  8
_1-0_
  6
CONTINUOUS
 62
    7
 10
148.33517581019512
 20
-43.474695312971846
 11
148.84035729573432
 21
-44.349695312972756
  0
LINE
  8
_1-0_
  6
CONTINUOUS
 62
    7
 10
148.84035729573432
 20
-44.349695312972642
 11
149.3455387812767
 21
-44.349695312973665
  0
LINE
  8
_1-0_
  6
CONTINUOUS
 62
    7
 10
148.72553437242007
 20
-42.798574450031481
 11
148.33517581019524
 21
-43.474695312971619
  0
LINE
  8
_1-0_
  6
CONTINUOUS
 62
    7
 10
142.44553878128707
 20
-28.324695312974029
 11
142.44553878127661
 21
-44.62469531296864
  0
LINE
  8
_1-0_
  6
CONTINUOUS
 62
    7
 10
142.4455387812765
 20
-45.224695312968663
 11
142.4455387812707
 21
-61.62469531296864
  0
LINE
  8
_1-0_
  6
CONTINUOUS
 62
    7
 10
147.61565439207564
 20
-44.624695312972506
 11
142.44553878127684
 21
-44.624695312968754
  0
LINE
  8
_1-0_
  6
CONTINUOUS
 62
    7
 10
149.34553878127659
 20
-45.224695312973665
 11
142.4455387812765
 21
-45.224695312968777
  0
LINE
  8
_1-0_
  6
CONTINUOUS
 62
    7
 10
142.44553878127059
 20
-61.624695312968754
 11
142.64553878127052
 21
-61.824695312969027
  0
LINE
  8
_1-0_
  6
CONTINUOUS
 62
    7
 10
142.64553878127052
 20
-61.824695312968913
 11
142.64553878127029
 21
-62.373478925912252
  0
LINE
  8
_1-0_
  6
CONTINUOUS
 62
    7
 10
141.84553878128727
 20
-27.724695312973665
 11
141.84553878126943
 21
-65.224695312968322
  0
LINE
  8
_1-0_
  6
CONTINUOUS
 62
    7
 10
143.46269711216431
 20
-62.649220406779875
 11
142.65285355856
 21
-65.054469455232436
  0
LINE
  8
_1-0_
  6
CONTINUOUS
 62
    7
 10
143.3375192633396
 20
-62.452320143070267
 11
142.64553878127029
 21
-62.373478925912366
  0
ARC
  8
_1-0_
  6
CONTINUOUS
 62
    7
 10
143.32053878127456
 20
-62.601355921421657
 40
0.1499999999999999
 50
341.39170198507207
 51
83.499999999960707
  0
LINE
  8
_1-0_
  6
CONTINUOUS
 62
    7
 10
149.34553878128739
 20
-27.724695312979009
 11
141.84553878128739
 21
-27.724695312973665
  0
LINE
  8
_1-0_
  6
CONTINUOUS
 62
    7
 10
141.84553878126931
 20
-65.224695312968322
 11
142.41592300707671
 21
-65.224695312968777
  0
ARC
  8
_1-0_
  6
CONTINUOUS
 62
    7
 10
151.07542317047776
 20
-44.374695312973643
 40
0.25
 50
152.51357374961941
 51
270
  0
ARC
  8
_1-0_
  6
CONTINUOUS
 62
    7
 10
151.17769895433642
 20
-28.807095806988343
 40
0.25
 50
92.6226672045821
 51
200.02064541316906
  0
LINE
  8
_1-0_
  6
CONTINUOUS
 62
    7
 10
156.24553878128737
 20
-28.324695312978918
 11
151.16625940567135
 21
-28.557357670680801
  0
ARC
  8
_1-0_
  6
CONTINUOUS
 62
    7
 10
149.34553878127716
 20
-29.474695312871575
 40
1.7
 50
317.78470945545871
 51
20.020645413170445
  0
ARC
  8
_1-0_
  6
CONTINUOUS
 62
    7
 10
150.31001196008336
 20
-30.349695312871233
 40
0.3977582741150607
 50
149.9999999999315
 51
317.78470945545831
  0
LINE
  8
_1-0_
  6
CONTINUOUS
 62
    7
 10
150.35590175235896
 20
-29.474695312872939
 11
149.8507202668192
 21
-28.59969531287237
  0
LINE
  8
_1-0_
  6
CONTINUOUS
 62
    7
 10
149.85072026681954
 20
-28.599695312872143
 11
149.34553878128727
 21
-28.599695312871575
  0
LINE
  8
_1-0_
  6
CONTINUOUS
 62
    7
 10
149.96554319013447
 20
-30.150816175813191
 11
150.35590175235896
 21
-29.474695312872598
  0
ARC
  8
_1-0_
  6
CONTINUOUS
 62
    7
 10
149.34553878127716
 20
-43.474695312973665
 40
1.7
 50
332.51357374961833
 51
42.215290544541325
  0
ARC
  8
_1-0_
  6
CONTINUOUS
 62
    7
 10
150.31001196008336
 20
-42.599695312974006
 40
0.3977582741150607
 50
42.215290544541773
 51
210.00000000006852
  0
LINE
  8
_1-0_
  6
CONTINUOUS
 62
    7
 10
150.35590175235896
 20
-43.474695312972415
 11
149.8507202668192
 21
-44.349695312972983
  0
LINE
  8
_1-0_
  6
CONTINUOUS
 62
    7
 10
149.85072026681908
 20
-44.349695312972983
 11
149.3455387812767
 21
-44.349695312973552
  0
LINE
  8
_1-0_
  6
CONTINUOUS
 62
    7
 10
149.96554319013458
 20
-42.798574450032049
 11
150.35590175235907
 21
-43.474695312972528
  0
LINE
  8
_1-0_
  6
CONTINUOUS
 62
    7
 10
156.24553878127634
 20
-45.224695312973665
 11
156.24553878127054
 21
-61.624695312973643
  0
LINE
  8
_1-0_
  6
CONTINUOUS
 62
    7
 10
151.07542317047776
 20
-44.624695312973643
 11
156.24553878127679
 21
-44.624695312973643
  0
LINE
  8
_1-0_
  6
CONTINUOUS
 62
    7
 10
149.34553878127647
 20
-45.224695312973665
 11
156.24553878127657
 21
-45.224695312973665
  0
LINE
  8
_1-0_
  6
CONTINUOUS
 62
    7
 10
156.24553878127054
 20
-61.624695312973756
 11
156.04553878127049
 21
-61.824695312973802
  0
LINE
  8
_1-0_
  6
CONTINUOUS
 62
    7
 10
156.04553878127061
 20
-61.824695312973802
 11
156.04553878127049
 21
-62.373478925917027
  0
LINE
  8
_1-0_
  6
CONTINUOUS
 62
    7
 10
156.84553878128739
 20
-27.724695312979122
 11
156.84553878126954
 21
-65.224695312973665
  0
LINE
  8
_1-0_
  6
CONTINUOUS
 62
    7
 10
155.22838045037591
 20
-62.649220406784082
 11
156.03822400397851
 21
-65.054469455237097
  0
LINE
  8
_1-0_
  6
CONTINUOUS
 62
    7
 10
155.35355829920061
 20
-62.452320143074587
 11
156.04553878127015
 21
-62.373478925917141
  0
ARC
  8
_1-0_
  6
CONTINUOUS
 62
    7
 10
155.37053878126611
 20
-62.601355921425977
 40
0.1499999999999999
 50
96.499999999998224
 51
198.60829801488677
  0
LINE
  8
_1-0_
  6
CONTINUOUS
 62
    7
 10
149.34553878128739
 20
-27.724695312979009
 11
156.84553878128739
 21
-27.724695312979009
  0
LINE
  8
_1-0_
  6
CONTINUOUS
 62
    7
 10
156.84553878126943
 20
-65.224695312973665
 11
156.2751545554618
 21
-65.224695312973665
  0
LINE
  8
_1-0_
  6
CONTINUOUS
 62
    9
 10
149.35803878127709
 20
-62.674695312973597
 11
154.41261719579646
 21
-62.674695312973597
  0
LINE
  8
_1-0_
  6
CONTINUOUS
 62
    9
 10
149.35803878127709
 20
-63.324695312973688
 11
154.58678417087734
 21
-63.324695312973688
  0
LINE
  8
_1-0_
  6
CONTINUOUS
 62
    9
 10
154.41655732470534
 20
-62.689400074249363
 11
155.09588763649802
 21
-65.224695312973552
  0
ARC
  8
_1-0_
  6
CONTINUOUS
 62
    9
 10
154.65803878127704
 20
-62.624695312973643
 40
0.25
 50
90
 51
195.00000000004499
  0
LINE
  8
_1-0_
  6
CONTINUOUS
 62
    9
 10
154.82089408156733
 20
-57.474695312973665
 11
156.04952023784907
 21
-62.059990551697695
  0
ARC
  8
_1-0_
  6
CONTINUOUS
 62
    9
 10
155.80803878127702
 20
-62.124695312973643
 40
0.25
 50
270
 51
15.000000000089292
  0
LINE
  8
_1-0_
  6
CONTINUOUS
 62
    9
 10
154.65803878127704
 20
-62.374695312973643
 11
155.80803878127702
 21
-62.374695312973643
  0
LINE
  8
_1-0_
  6
CONTINUOUS
 62
    9
 10
154.82089408156756
 20
-57.474695312973665
 11
149.35803878127709
 21
-57.474695312973665
  0
LINE
  8
_1-0_
  6
CONTINUOUS
 62
    9
 10
149.35803878127709
 20
-62.674695312973597
 11
144.27846036675751
 21
-62.674695312973597
  0
LINE
  8
_1-0_
  6
CONTINUOUS
 62
    9
 10
149.35803878127709
 20
-63.324695312973688
 11
144.10429339167675
 21
-63.324695312973688
  0
LINE
  8
_1-0_
  6
CONTINUOUS
 62
    9
 10
144.27452023784898
 20
-62.689400074249363
 11
143.59518992605618
 21
-65.224695312973779
  0
ARC
  8
_1-0_
  6
CONTINUOUS
 62
    9
 10
144.03303878127716
 20
-62.624695312973643
 40
0.25
 50
344.99999999995498
 51
89.999999999999986
  0
LINE
  8
_1-0_
  6
CONTINUOUS
 62
    9
 10
143.87018348098641
 20
-57.474695312973779
 11
142.64155732470468
 21
-62.059990551697695
  0
ARC
  8
_1-0_
  6
CONTINUOUS
 62
    9
 10
142.88303878127707
 20
-62.124695312973643
 40
0.25
 50
164.9999999999107
 51
270
  0
LINE
  8
_1-0_
  6
CONTINUOUS
 62
    9
 10
144.03303878127716
 20
-62.374695312973643
 11
142.88303878127707
 21
-62.374695312973643
  0
LINE
  8
_1-0_
  6
CONTINUOUS
 62
    9
 10
143.87018348098664
 20
-57.474695312973665
 11
149.35803878127709
 21
-57.474695312973665
  0
POINT
  8
_1-0_
 62
    4
 10
141.8330387815702
 20
-20.06335658687118
  0
LINE
  8
_1-0_
  6
CONTINUOUS
 62
    4
 10
141.8330387815702
 20
-20.06335658687118
 11
141.8330387815702
 21
-25.22998938159418
  0
LINE
  8
_1-0_
  6
CONTINUOUS
 62
    4
 10
141.8330387815702
 20
-20.06335658687118
 11
156.8330387815702
 21
-20.06335658687118
  0
POINT
  8
_1-0_
 62
    4
 10
156.8330387815702
 20
-20.06335658687118
  0
LINE
  8
_1-0_
  6
CONTINUOUS
 62
    4
 10
156.8330387815702
 20
-20.06335658687118
 11
156.8330387815702
 21
-25.22998938159418
  0
LINE
  8
_1-0_
  6
CONTINUOUS
 62
    7
 10
194.34553878155182
 20
-65.224695312973665
 11
193.77512747607287
 21
-65.224695312973665
  0
LINE
  8
_1-0_
  6
CONTINUOUS
 62
    7
 10
179.34553878155182
 20
-65.224695312968322
 11
179.91595008711786
 21
-65.224695312968663
  0
LINE
  8
_1-0_
  6
CONTINUOUS
 62
    9
 10
181.3701834809863
 20
-57.474695312973665
 11
186.85803878127675
 21
-57.474695312973665
  0
LINE
  8
_1-0_
  6
CONTINUOUS
 62
    9
 10
181.53303878127693
 20
-62.374695312973643
 11
180.38303878127684
 21
-62.374695312973643
  0
ARC
  8
_1-0_
  6
CONTINUOUS
 62
    9
 10
180.38303878127684
 20
-62.124695312973643
 40
0.25
 50
164.9999999999107
 51
270
  0
LINE
  8
_1-0_
  6
CONTINUOUS
 62
    9
 10
181.3701834809863
 20
-57.474695312973665
 11
180.14155732470456
 21
-62.059990551697808
  0
ARC
  8
_1-0_
  6
CONTINUOUS
 62
    9
 10
181.53303878127693
 20
-62.624695312973643
 40
0.25
 50
344.99999999995498
 51
89.999999999999986
  0
LINE
  8
_1-0_
  6
CONTINUOUS
 62
    9
 10
181.77452023784875
 20
-62.689400074249477
 11
181.09518992605584
 21
-65.224695312973779
  0
LINE
  8
_1-0_
  6
CONTINUOUS
 62
    9
 10
186.85803878127675
 20
-63.324695312973688
 11
181.60429339167652
 21
-63.324695312973688
  0
LINE
  8
_1-0_
  6
CONTINUOUS
 62
    9
 10
186.85803878127675
 20
-62.674695312973711
 11
181.7784603667574
 21
-62.674695312973711
  0
LINE
  8
_1-0_
  6
CONTINUOUS
 62
    9
 10
192.32089408156733
 20
-57.474695312973665
 11
186.85803878127675
 21
-57.474695312973665
  0
LINE
  8
_1-0_
  6
CONTINUOUS
 62
    9
 10
192.1580387812767
 20
-62.374695312973643
 11
193.30803878127679
 21
-62.374695312973643
  0
LINE
  8
_1-0_
  6
CONTINUOUS
 62
    9
 10
192.3208940815671
 20
-57.474695312973665
 11
193.54952023784884
 21
-62.059990551697808
  0
ARC
  8
_1-0_
  6
CONTINUOUS
 62
    9
 10
192.1580387812767
 20
-62.624695312973643
 40
0.25
 50
90
 51
195.00000000004499
  0
LINE
  8
_1-0_
  6
CONTINUOUS
 62
    9
 10
191.91655732470488
 20
-62.689400074249363
 11
192.59588763649757
 21
-65.224695312973665
  0
LINE
  8
_1-0_
  6
CONTINUOUS
 62
    9
 10
186.85803878127675
 20
-63.324695312973688
 11
192.08678417087711
 21
-63.324695312973688
  0
LINE
  8
_1-0_
  6
CONTINUOUS
 62
    9
 10
186.85803878127675
 20
-62.674695312973711
 11
191.91261719579623
 21
-62.674695312973711
  0
ARC
  8
_1-0_
  6
CONTINUOUS
 62
    9
 10
193.30803878127679
 20
-62.124695312973643
 40
0.25
 50
270
 51
15.000000000089292
  0
LINE
  8
_1-0_
  6
CONTINUOUS
 62
    7
 10
194.33303878155178
 20
-65.224695312973665
 11
193.76262747607282
 21
-65.224695312973665
  0
ARC
  8
_1-0_
  6
CONTINUOUS
 62
    7
 10
192.85803878154846
 20
-62.602572308481911
 40
0.1499999999999999
 50
96.499999999998224
 51
198.60829801488677
  0
LINE
  8
_1-0_
  6
CONTINUOUS
 62
    7
 10
194.33303878156974
 20
-40.224695312979009
 11
194.33303878155178
 21
-65.224695312973552
  0
LINE
  8
_1-0_
  6
CONTINUOUS
 62
    7
 10
193.78303878155432
 20
-61.575911700028485
 11
193.53303878155273
 21
-61.825911700029963
  0
LINE
  8
_1-0_
  6
CONTINUOUS
 62
    7
 10
179.33303878155178
 20
-65.224695312968322
 11
179.90345008711782
 21
-65.224695312968777
  0
ARC
  8
_1-0_
  6
CONTINUOUS
 62
    7
 10
180.80803878155692
 20
-62.60257230847759
 40
0.1499999999999999
 50
341.38351495719962
 51
83.499999999960721
  0
LINE
  8
_1-0_
  6
CONTINUOUS
 62
    7
 10
179.33303878156974
 20
-40.224695312973552
 11
179.33303878155201
 21
-65.224695312968322
  0
LINE
  8
_1-0_
  6
CONTINUOUS
 62
    7
 10
193.78303878156137
 20
-51.927633949571998
 11
193.78303878155432
 21
-61.575911700028371
  0
LINE
  8
_1-0_
  6
CONTINUOUS
 62
    7
 10
179.88303878156128
 20
-51.927633949564381
 11
179.88303878155446
 21
-61.575911700025983
  0
LINE
  8
_1-0_
  6
CONTINUOUS
 62
    7
 10
180.95019027161086
 20
-62.650457106435113
 11
180.14036923720803
 21
-65.054503309564495
  0
ARC
  8
_1-0_
  6
CONTINUOUS
 62
    7
 10
179.90345008711805
 20
-64.974695312968663
 40
0.25
 50
270
 51
341.38351495720082
  0
LINE
  8
_1-0_
  6
CONTINUOUS
 62
    7
 10
192.7158872915775
 20
-62.650457106428519
 11
193.52570832598306
 21
-65.054503309556992
  0
ARC
  8
_1-0_
  6
CONTINUOUS
 62
    7
 10
193.76262747607282
 20
-64.974695312961046
 40
0.25
 50
198.61648504286282
 51
270
  0
LINE
  8
_1-0_
  6
CONTINUOUS
 62
    7
 10
179.88303878155446
 20
-61.575911700025983
 11
180.13303878155287
 21
-61.82591170002496
  0
LINE
  8
_1-0_
  6
CONTINUOUS
 62
    7
 10
180.1330387815531
 20
-61.82591170002496
 11
180.13303878155287
 21
-62.374695312968186
  0
LINE
  8
_1-0_
  6
CONTINUOUS
 62
    7
 10
180.82501926362218
 20
-62.4535365301262
 11
180.13303878155264
 21
-62.374695312968299
  0
LINE
  8
_1-0_
  6
CONTINUOUS
 62
    7
 10
192.84105829948319
 20
-62.453536530130521
 11
193.53303878155273
 21
-62.37469531297296
  0
LINE
  8
_1-0_
  6
CONTINUOUS
 62
    7
 10
193.53303878155319
 20
-61.825911700029735
 11
193.53303878155296
 21
-62.374695312973074
  0
TEXT
  8
_1-0_
 62
    2
 10
239.9133221374853
 20
254.5663014405896
 40
6.1999999999999886
 41
1.0000000000000018
 50
0
  1
45
  0
LINE
  8
_1-0_
  6
CONTINUOUS
 62
    7
 10
194.34553878155228
 20
-65.224695312973665
 11
193.77512747607332
 21
-65.224695312973665
  0
LINE
  8
_1-0_
  6
CONTINUOUS
 62
    7
 10
179.34553878155228
 20
-65.224695312968322
 11
179.91595008711832
 21
-65.224695312968663
  0
LINE
  8
_1-0_
  6
CONTINUOUS
 62
    9
 10
181.7745202378492
 20
-62.689400074249477
 11
181.09518992605629
 21
-65.224695312973779
  0
LINE
  8
_1-0_
  6
CONTINUOUS
 62
    9
 10
186.8580387812772
 20
-63.324695312973688
 11
181.60429339167698
 21
-63.324695312973688
  0
LINE
  8
_1-0_
  6
CONTINUOUS
 62
    9
 10
191.91655732470534
 20
-62.689400074249363
 11
192.59588763649802
 21
-65.224695312973665
  0
LINE
  8
_1-0_
  6
CONTINUOUS
 62
    9
 10
186.8580387812772
 20
-63.324695312973688
 11
192.08678417087756
 21
-63.324695312973688
  0
LINE
  8
_1-0_
  6
CONTINUOUS
 62
    7
 10
194.33303878155223
 20
-65.224695312973665
 11
193.76262747607328
 21
-65.224695312973665
  0
LINE
  8
_1-0_
  6
CONTINUOUS
 62
    7
 10
194.3330387815702
 20
-40.224695312979009
 11
194.33303878155223
 21
-65.224695312973552
  0
LINE
  8
_1-0_
  6
CONTINUOUS
 62
    7
 10
179.33303878155223
 20
-65.224695312968322
 11
179.90345008711827
 21
-65.224695312968777
  0
LINE
  8
_1-0_
  6
CONTINUOUS
 62
    7
 10
179.3330387815702
 20
-40.224695312973552
 11
179.33303878155246
 21
-65.224695312968322
  0
LINE
  8
_1-0_
  6
CONTINUOUS
 62
    7
 10
180.95019027161132
 20
-62.650457106435113
 11
180.14036923720849
 21
-65.054503309564495
  0
ARC
  8
_1-0_
  6
CONTINUOUS
 62
    7
 10
179.9034500871185
 20
-64.974695312968663
 40
0.25
 50
270
 51
341.38351495720082
  0
LINE
  8
_1-0_
  6
CONTINUOUS
 62
    7
 10
192.71588729157796
 20
-62.650457106428519
 11
193.52570832598352
 21
-65.054503309556992
  0
ARC
  8
_1-0_
  6
CONTINUOUS
 62
    7
 10
193.76262747607328
 20
-64.974695312961046
 40
0.25
 50
198.61648504286282
 51
270
  0
LINE
  8
_1-0_
  6
CONTINUOUS
 62
    7
 10
197.57456639879868
 20
-65.224695312973552
 11
192.59588763649893
 21
-65.224697364364545
  0
LINE
  8
_1-0_
  6
CONTINUOUS
 62
    7
 10
194.34553878155228
 20
-65.224695312973552
 11
193.77512747607332
 21
-65.224695312973552
  0
LINE
  8
_1-0_
  6
CONTINUOUS
 62
    7
 10
179.34553878155228
 20
-65.224695312968208
 11
179.91595008711832
 21
-65.224695312968549
  0
LINE
  8
_1-0_
  6
CONTINUOUS
 62
    9
 10
181.7745202378492
 20
-62.689400074249363
 11
181.09518992605629
 21
-65.224695312973665
  0
LINE
  8
_1-0_
  6
CONTINUOUS
 62
    9
 10
191.91655732470534
 20
-62.689400074249249
 11
192.59588763649802
 21
-65.224695312973552
  0
LINE
  8
_1-0_
  6
CONTINUOUS
 62
    7
 10
194.33303878155223
 20
-65.224695312973552
 11
193.76262747607328
 21
-65.224695312973552
  0
LINE
  8
_1-0_
  6
CONTINUOUS
 62
    7
 10
194.3330387815702
 20
-40.224695312978895
 11
194.33303878155223
 21
-65.224695312973438
  0
LINE
  8
_1-0_
  6
CONTINUOUS
 62
    7
 10
179.33303878155223
 20
-65.224695312968208
 11
179.90345008711827
 21
-65.224695312968663
  0
LINE
  8
_1-0_
  6
CONTINUOUS
 62
    7
 10
179.3330387815702
 20
-40.224695312973438
 11
179.33303878155246
 21
-65.224695312968208
  0
LINE
  8
_1-0_
  6
CONTINUOUS
 62
    7
 10
180.95019027161132
 20
-62.650457106434999
 11
180.14036923720849
 21
-65.054503309564382
  0
ARC
  8
_1-0_
  6
CONTINUOUS
 62
    7
 10
179.9034500871185
 20
-64.974695312968549
 40
0.25
 50
270
 51
341.38351495720082
  0
LINE
  8
_1-0_
  6
CONTINUOUS
 62
    7
 10
192.71588729157796
 20
-62.650457106428405
 11
193.52570832598352
 21
-65.054503309556878
  0
ARC
  8
_1-0_
  6
CONTINUOUS
 62
    7
 10
193.76262747607328
 20
-64.974695312960932
 40
0.25
 50
198.61648504286282
 51
270
  0
LINE
  8
_1-0_
  6
CONTINUOUS
 62
    7
 10
193.74553878128737
 20
-28.324695312978918
 11
193.74553878127679
 21
-44.624695312973643
  0
ARC
  8
_1-0_
  6
CONTINUOUS
 62
    7
 10
179.91592300707705
 20
-64.974695312968663
 40
0.25
 50
270
 51
341.39170198507168
  0
ARC
  8
_1-0_
  6
CONTINUOUS
 62
    7
 10
193.7751545554618
 20
-64.974695312973665
 40
0.25
 50
198.60829801488714
 51
270
  0
ARC
  8
_1-0_
  6
CONTINUOUS
 62
    7
 10
185.11565439207587
 20
-44.374695312972506
 40
0.25
 50
269.99999999995896
 51
27.486426250339409
  0
ARC
  8
_1-0_
  6
CONTINUOUS
 62
    7
 10
185.01337860823722
 20
-28.807095806987093
 40
0.25
 50
339.97935458678978
 51
87.37733279537683
  0
LINE
  8
_1-0_
  6
CONTINUOUS
 62
    7
 10
179.94553878128718
 20
-28.324695312973802
 11
185.02481815690285
 21
-28.557357670679437
  0
ARC
  8
_1-0_
  6
CONTINUOUS
 62
    7
 10
186.84553878129591
 20
-29.474695312871575
 40
1.7
 50
159.9793545867885
 51
222.21529054450031
  0
ARC
  8
_1-0_
  6
CONTINUOUS
 62
    7
 10
185.88106560248914
 20
-30.349695312870551
 40
0.3977582741150607
 50
222.21529054450073
 51
30.00000000002742
  0
LINE
  8
_1-0_
  6
CONTINUOUS
 62
    7
 10
185.835175810214
 20
-29.474695312872029
 11
186.34035729575433
 21
-28.599695312871916
  0
LINE
  8
_1-0_
  6
CONTINUOUS
 62
    7
 10
186.34035729575479
 20
-28.599695312872029
 11
186.84553878128705
 21
-28.599695312871802
  0
LINE
  8
_1-0_
  6
CONTINUOUS
 62
    7
 10
186.22553437243815
 20
-30.150816175812849
 11
185.835175810214
 21
-29.474695312872029
  0
ARC
  8
_1-0_
  6
CONTINUOUS
 62
    7
 10
186.84553878127704
 20
-43.474695312973665
 40
1.7
 50
137.78470945541761
 51
207.4864262503406
  0
ARC
  8
_1-0_
  6
CONTINUOUS
 62
    7
 10
185.88106560247141
 20
-42.599695312973324
 40
0.3977582741150607
 50
329.99999999989041
 51
137.78470945541724
  0
LINE
  8
_1-0_
  6
CONTINUOUS
 62
    7
 10
185.83517581019512
 20
-43.474695312971846
 11
186.34035729573432
 21
-44.349695312972756
  0
LINE
  8
_1-0_
  6
CONTINUOUS
 62
    7
 10
186.34035729573432
 20
-44.349695312972642
 11
186.8455387812767
 21
-44.349695312973665
  0
LINE
  8
_1-0_
  6
CONTINUOUS
 62
    7
 10
186.22553437242007
 20
-42.798574450031481
 11
185.83517581019524
 21
-43.474695312971619
  0
LINE
  8
_1-0_
  6
CONTINUOUS
 62
    7
 10
179.94553878128707
 20
-28.324695312974029
 11
179.94553878127661
 21
-44.62469531296864
  0
LINE
  8
_1-0_
  6
CONTINUOUS
 62
    7
 10
179.9455387812765
 20
-45.224695312968663
 11
179.9455387812707
 21
-61.62469531296864
  0
LINE
  8
_1-0_
  6
CONTINUOUS
 62
    7
 10
185.11565439207564
 20
-44.624695312972506
 11
179.94553878127684
 21
-44.624695312968754
  0
LINE
  8
_1-0_
  6
CONTINUOUS
 62
    7
 10
186.84553878127659
 20
-45.224695312973665
 11
179.9455387812765
 21
-45.224695312968777
  0
LINE
  8
_1-0_
  6
CONTINUOUS
 62
    7
 10
179.94553878127059
 20
-61.624695312968754
 11
180.14553878127052
 21
-61.824695312969027
  0
LINE
  8
_1-0_
  6
CONTINUOUS
 62
    7
 10
180.14553878127052
 20
-61.824695312968913
 11
180.14553878127029
 21
-62.373478925912252
  0
LINE
  8
_1-0_
  6
CONTINUOUS
 62
    7
 10
179.34553878128727
 20
-27.724695312973665
 11
179.34553878126943
 21
-65.224695312968322
  0
LINE
  8
_1-0_
  6
CONTINUOUS
 62
    7
 10
180.96269711216431
 20
-62.649220406779875
 11
180.15285355856
 21
-65.054469455232436
  0
LINE
  8
_1-0_
  6
CONTINUOUS
 62
    7
 10
180.8375192633396
 20
-62.452320143070267
 11
180.14553878127029
 21
-62.373478925912366
  0
ARC
  8
_1-0_
  6
CONTINUOUS
 62
    7
 10
180.82053878127456
 20
-62.601355921421657
 40
0.1499999999999999
 50
341.39170198507207
 51
83.499999999960707
  0
LINE
  8
_1-0_
  6
CONTINUOUS
 62
    7
 10
186.84553878128739
 20
-27.724695312979009
 11
179.34553878128739
 21
-27.724695312973665
  0
LINE
  8
_1-0_
  6
CONTINUOUS
 62
    7
 10
179.34553878126931
 20
-65.224695312968322
 11
179.91592300707671
 21
-65.224695312968777
  0
ARC
  8
_1-0_
  6
CONTINUOUS
 62
    7
 10
188.57542317047776
 20
-44.374695312973643
 40
0.25
 50
152.51357374961941
 51
270
  0
ARC
  8
_1-0_
  6
CONTINUOUS
 62
    7
 10
188.67769895433642
 20
-28.807095806988343
 40
0.25
 50
92.6226672045821
 51
200.02064541316906
  0
LINE
  8
_1-0_
  6
CONTINUOUS
 62
    7
 10
193.74553878128737
 20
-28.324695312978918
 11
188.66625940567135
 21
-28.557357670680801
  0
ARC
  8
_1-0_
  6
CONTINUOUS
 62
    7
 10
186.84553878127716
 20
-29.474695312871575
 40
1.7
 50
317.78470945545871
 51
20.020645413170445
  0
ARC
  8
_1-0_
  6
CONTINUOUS
 62
    7
 10
187.81001196008336
 20
-30.349695312871233
 40
0.3977582741150607
 50
149.9999999999315
 51
317.78470945545831
  0
LINE
  8
_1-0_
  6
CONTINUOUS
 62
    7
 10
187.85590175235896
 20
-29.474695312872939
 11
187.3507202668192
 21
-28.59969531287237
  0
LINE
  8
_1-0_
  6
CONTINUOUS
 62
    7
 10
187.35072026681954
 20
-28.599695312872143
 11
186.84553878128727
 21
-28.599695312871575
  0
LINE
  8
_1-0_
  6
CONTINUOUS
 62
    7
 10
187.46554319013447
 20
-30.150816175813191
 11
187.85590175235896
 21
-29.474695312872598
  0
ARC
  8
_1-0_
  6
CONTINUOUS
 62
    7
 10
186.84553878127716
 20
-43.474695312973665
 40
1.7
 50
332.51357374961833
 51
42.215290544541325
  0
ARC
  8
_1-0_
  6
CONTINUOUS
 62
    7
 10
187.81001196008336
 20
-42.599695312974006
 40
0.3977582741150607
 50
42.215290544541773
 51
210.00000000006852
  0
LINE
  8
_1-0_
  6
CONTINUOUS
 62
    7
 10
187.85590175235896
 20
-43.474695312972415
 11
187.3507202668192
 21
-44.349695312972983
  0
LINE
  8
_1-0_
  6
CONTINUOUS
 62
    7
 10
187.35072026681908
 20
-44.349695312972983
 11
186.8455387812767
 21
-44.349695312973552
  0
LINE
  8
_1-0_
  6
CONTINUOUS
 62
    7
 10
187.46554319013458
 20
-42.798574450032049
 11
187.85590175235907
 21
-43.474695312972528
  0
LINE
  8
_1-0_
  6
CONTINUOUS
 62
    7
 10
193.74553878127634
 20
-45.224695312973665
 11
193.74553878127054
 21
-61.624695312973643
  0
LINE
  8
_1-0_
  6
CONTINUOUS
 62
    7
 10
188.57542317047776
 20
-44.624695312973643
 11
193.74553878127679
 21
-44.624695312973643
  0
LINE
  8
_1-0_
  6
CONTINUOUS
 62
    7
 10
186.84553878127647
 20
-45.224695312973665
 11
193.74553878127657
 21
-45.224695312973665
  0
LINE
  8
_1-0_
  6
CONTINUOUS
 62
    7
 10
193.74553878127054
 20
-61.624695312973756
 11
193.54553878127049
 21
-61.824695312973802
  0
LINE
  8
_1-0_
  6
CONTINUOUS
 62
    7
 10
193.54553878127061
 20
-61.824695312973802
 11
193.54553878127049
 21
-62.373478925917027
  0
LINE
  8
_1-0_
  6
CONTINUOUS
 62
    7
 10
194.34553878128739
 20
-27.724695312979122
 11
194.34553878126954
 21
-65.224695312973665
  0
LINE
  8
_1-0_
  6
CONTINUOUS
 62
    7
 10
192.72838045037591
 20
-62.649220406784082
 11
193.53822400397851
 21
-65.054469455237097
  0
LINE
  8
_1-0_
  6
CONTINUOUS
 62
    7
 10
192.85355829920061
 20
-62.452320143074587
 11
193.54553878127015
 21
-62.373478925917141
  0
ARC
  8
_1-0_
  6
CONTINUOUS
 62
    7
 10
192.87053878126611
 20
-62.601355921425977
 40
0.1499999999999999
 50
96.499999999998224
 51
198.60829801488677
  0
LINE
  8
_1-0_
  6
CONTINUOUS
 62
    7
 10
186.84553878128739
 20
-27.724695312979009
 11
194.34553878128739
 21
-27.724695312979009
  0
LINE
  8
_1-0_
  6
CONTINUOUS
 62
    7
 10
194.34553878126943
 20
-65.224695312973665
 11
193.7751545554618
 21
-65.224695312973665
  0
LINE
  8
_1-0_
  6
CONTINUOUS
 62
    9
 10
186.85803878127709
 20
-62.674695312973597
 11
191.91261719579646
 21
-62.674695312973597
  0
LINE
  8
_1-0_
  6
CONTINUOUS
 62
    9
 10
186.85803878127709
 20
-63.324695312973688
 11
192.08678417087734
 21
-63.324695312973688
  0
LINE
  8
_1-0_
  6
CONTINUOUS
 62
    9
 10
191.91655732470534
 20
-62.689400074249363
 11
192.59588763649802
 21
-65.224695312973552
  0
ARC
  8
_1-0_
  6
CONTINUOUS
 62
    9
 10
192.15803878127704
 20
-62.624695312973643
 40
0.25
 50
90
 51
195.00000000004499
  0
LINE
  8
_1-0_
  6
CONTINUOUS
 62
    9
 10
192.32089408156733
 20
-57.474695312973665
 11
193.54952023784907
 21
-62.059990551697695
  0
ARC
  8
_1-0_
  6
CONTINUOUS
 62
    9
 10
193.30803878127702
 20
-62.124695312973643
 40
0.25
 50
270
 51
15.000000000089292
  0
LINE
  8
_1-0_
  6
CONTINUOUS
 62
    9
 10
192.15803878127704
 20
-62.374695312973643
 11
193.30803878127702
 21
-62.374695312973643
  0
LINE
  8
_1-0_
  6
CONTINUOUS
 62
    9
 10
192.32089408156756
 20
-57.474695312973665
 11
186.85803878127709
 21
-57.474695312973665
  0
LINE
  8
_1-0_
  6
CONTINUOUS
 62
    9
 10
186.85803878127709
 20
-62.674695312973597
 11
181.77846036675751
 21
-62.674695312973597
  0
LINE
  8
_1-0_
  6
CONTINUOUS
 62
    9
 10
186.85803878127709
 20
-63.324695312973688
 11
181.60429339167675
 21
-63.324695312973688
  0
LINE
  8
_1-0_
  6
CONTINUOUS
 62
    9
 10
181.77452023784898
 20
-62.689400074249363
 11
181.09518992605618
 21
-65.224695312973779
  0
ARC
  8
_1-0_
  6
CONTINUOUS
 62
    9
 10
181.53303878127716
 20
-62.624695312973643
 40
0.25
 50
344.99999999995498
 51
89.999999999999986
  0
LINE
  8
_1-0_
  6
CONTINUOUS
 62
    9
 10
181.37018348098641
 20
-57.474695312973779
 11
180.14155732470468
 21
-62.059990551697695
  0
ARC
  8
_1-0_
  6
CONTINUOUS
 62
    9
 10
180.38303878127707
 20
-62.124695312973643
 40
0.25
 50
164.9999999999107
 51
270
  0
LINE
  8
_1-0_
  6
CONTINUOUS
 62
    9
 10
181.53303878127716
 20
-62.374695312973643
 11
180.38303878127707
 21
-62.374695312973643
  0
LINE
  8
_1-0_
  6
CONTINUOUS
 62
    9
 10
181.37018348098664
 20
-57.474695312973665
 11
186.85803878127709
 21
-57.474695312973665
  0
POINT
  8
_1-0_
 62
    4
 10
179.3330387815702
 20
-20.06335658687118
  0
LINE
  8
_1-0_
  6
CONTINUOUS
 62
    4
 10
179.3330387815702
 20
-20.06335658687118
 11
179.3330387815702
 21
-25.22998938159418
  0
LINE
  8
_1-0_
  6
CONTINUOUS
 62
    4
 10
179.3330387815702
 20
-20.06335658687118
 11
194.3330387815702
 21
-20.06335658687118
  0
POINT
  8
_1-0_
 62
    4
 10
194.3330387815702
 20
-20.06335658687118
  0
LINE
  8
_1-0_
  6
CONTINUOUS
 62
    4
 10
194.3330387815702
 20
-20.06335658687118
 11
194.3330387815702
 21
-25.22998938159418
  0
LINE
  8
_1-0_
  6
CONTINUOUS
 62
    7
 10
111.0284239009776
 20
-3.3259523356033469
 11
133.68909617558998
 21
-3.3259523356033469
  0
TEXT
  8
_1-0_
 62
    2
 10
256.9133221374853
 20
254.5663014405896
 40
6.1999999999999886
 41
1.0000000000000018
 50
0
  1
50
  0
LINE
  8
_1-0_
  6
CONTINUOUS
 62
    7
 10
81.845538781285114
 20
-32.508837455295691
 11
111.0284239009776
 21
-3.3259523356033469
  0
CIRCLE
  8
_1-0_
  6
CONTINUOUS
 62
    2
 10
13.808035390935515
 20
-237.75737031297888
 40
0.2999999999999999
  0
LINE
  8
_1-0_
  6
CONTINUOUS
 62
    2
 10
13.808035390935515
 20
-214.75737031297899
 11
13.808035390935515
 21
-237.75737031297888
  0
LINE
  8
_1-0_
  6
CONTINUOUS
 62
    2
 10
13.808035390935515
 20
-237.75737031297888
 11
70.358035390940842
 21
-237.75737031297888
  0
TEXT
  8
_1-0_
 62
    2
 10
273.91332213748535
 20
254.5663014405896
 40
6.1999999999999886
 41
1.0000000000000018
 50
0
  1
60
  0
TEXT
  8
_1-0_
 62
    2
 10
290.91332213748535
 20
254.5663014405896
 40
6.1999999999999886
 41
1.0000000000000018
 50
0
  1
70
  0
LINE
  8
_1-0_
  6
CONTINUOUS
 62
    7
 10
165.09523480448584
 20
185.75068282409717
 11
165.09523480448584
 21
200.75068282409717
  0
LINE
  8
_1-0_
  6
CONTINUOUS
 62
    4
 10
165.09523480448584
 20
200.75068282409717
 11
170.26186759920884
 21
200.75068282409717
  0
POINT
  8
_1-0_
 62
    4
 10
165.09523480448584
 20
200.75068282409717
  0
LINE
  8
_1-0_
  6
CONTINUOUS
 62
    4
 10
165.09523480448584
 20
185.75068282409717
 11
170.26186759920884
 21
185.75068282409717
  0
POINT
  8
_1-0_
 62
    4
 10
165.09523480448584
 20
185.75068282409717
  0
LINE
  8
_1-0_
  6
CONTINUOUS
 62
    7
 10
234.73832213748531
 20
271.05380144058955
 11
234.73832213748531
 21
244.27880144058969
  0
LINE
  8
_1-0_
  6
CONTINUOUS
 62
    3
 10
251.73832213748531
 20
271.05380144058955
 11
251.73832213748531
 21
244.27880144058969
  0
LINE
  8
_1-0_
  6
CONTINUOUS
 62
    3
 10
268.73832213748528
 20
271.05380144058955
 11
268.73832213748528
 21
244.27880144058969
  0
LINE
  8
_1-0_
  6
CONTINUOUS
 62
    3
 10
285.73832213748528
 20
271.05380144058955
 11
285.73832213748528
 21
244.27880144058969
  0
LINE
  8
_1-0_
  6
CONTINUOUS
 62
    7
 10
200.93301173880039
 20
271.05380144058955
 11
200.93301173880039
 21
244.27880144058969
  0
LINE
  8
_1-0_
  6
CONTINUOUS
 62
    3
 10
285.73832213748528
 20
271.05380144058955
 11
285.73832213748528
 21
244.27880144058969
  0
LINE
  8
_1-0_
  6
CONTINUOUS
 62
    7
 10
188.72688870201048
 20
201.24185375621693
 11
210.32973653961633
 21
222.84470159382278
  0
LINE
  8
_1-0_
  6
CONTINUOUS
 62
    7
 10
209.16424704913746
 20
112.51283396859897
 11
209.16425776176587
 21
86.513531679045016
  0
LINE
  8
_1-0_
  6
CONTINUOUS
 62
    7
 10
209.16423159781644
 20
150.01283396859259
 11
209.16424231044496
 21
124.01353167903865
  0
LINE
  8
_1-0_
  6
CONTINUOUS
 62
    7
 10
209.16421614649542
 20
187.51283396858622
 11
209.16422685912383
 21
161.51353167903227
  0
LINE
  8
_1-0_
  6
CONTINUOUS
 62
    7
 10
209.16420935641182
 20
91.492210441325668
 11
209.16421140780281
 21
86.513531679025917
  0
LINE
  8
_1-0_
  6
CONTINUOUS
 62
    7
 10
209.16420935641182
 20
88.263182824079266
 11
209.16420935641182
 21
87.69277151860031
  0
LINE
  8
_1-0_
  6
CONTINUOUS
 62
    7
 10
209.16420935640647
 20
73.263182824079308
 11
209.16420935640681
 21
73.833594129645348
  0
ARC
  8
_1-0_
  6
CONTINUOUS
 62
    9
 10
206.56420935641179
 20
75.450682823804414
 40
0.25
 50
74.99999999995498
 51
180
  0
LINE
  8
_1-0_
  6
CONTINUOUS
 62
    9
 10
206.62891411768763
 20
75.692164280376232
 11
209.16420935641193
 21
75.012833968583323
  0
LINE
  8
_1-0_
  6
CONTINUOUS
 62
    9
 10
207.26420935641184
 20
80.775682823804232
 11
207.26420935641184
 21
75.521937434204006
  0
LINE
  8
_1-0_
  6
CONTINUOUS
 62
    9
 10
206.61420935641186
 20
80.775682823804232
 11
206.61420935641186
 21
75.696104409284885
  0
ARC
  8
_1-0_
  6
CONTINUOUS
 62
    9
 10
206.56420935641179
 20
86.075682823804144
 40
0.25
 50
180
 51
285.00000000004496
  0
LINE
  8
_1-0_
  6
CONTINUOUS
 62
    9
 10
206.62891411768751
 20
85.834201367232325
 11
209.16420935641182
 21
86.513531679025007
  0
LINE
  8
_1-0_
  6
CONTINUOUS
 62
    9
 10
207.26420935641184
 20
80.775682823804232
 11
207.26420935641184
 21
86.004428213404552
  0
LINE
  8
_1-0_
  6
CONTINUOUS
 62
    9
 10
206.61420935641186
 20
80.775682823804232
 11
206.61420935641186
 21
85.830261238323672
  0
LINE
  8
_1-0_
  6
CONTINUOUS
 62
    7
 10
209.16420935641182
 20
88.25068282407922
 11
209.16420935641182
 21
87.680271518600264
  0
ARC
  8
_1-0_
  6
CONTINUOUS
 62
    7
 10
206.54208635192006
 20
86.775682824075901
 40
0.1499999999999999
 50
186.49999999999821
 51
288.60829801488677
  0
LINE
  8
_1-0_
  6
CONTINUOUS
 62
    7
 10
184.16420935641716
 20
88.250682824097183
 11
209.1642093564117
 21
88.25068282407922
  0
LINE
  8
_1-0_
  6
CONTINUOUS
 62
    7
 10
209.16420935640647
 20
73.250682824079263
 11
209.16420935640693
 21
73.821094129645303
  0
ARC
  8
_1-0_
  6
CONTINUOUS
 62
    7
 10
206.54208635191574
 20
74.725682824084402
 40
0.1499999999999999
 50
71.383514957199623
 51
173.49999999996072
  0
LINE
  8
_1-0_
  6
CONTINUOUS
 62
    7
 10
184.1642093564117
 20
73.250682824097225
 11
209.16420935640647
 21
73.25068282407949
  0
LINE
  8
_1-0_
  6
CONTINUOUS
 62
    7
 10
206.58997114987326
 20
74.867834314138349
 11
208.99401735300265
 21
74.058013279735519
  0
ARC
  8
_1-0_
  6
CONTINUOUS
 62
    7
 10
208.91420935640681
 20
73.82109412964553
 40
0.25
 50
0
 51
71.383514957200816
  0
LINE
  8
_1-0_
  6
CONTINUOUS
 62
    7
 10
206.58997114986667
 20
86.633531334104944
 11
208.99401735299514
 21
87.443352368510503
  0
ARC
  8
_1-0_
  6
CONTINUOUS
 62
    7
 10
208.9142093563992
 20
87.680271518600264
 40
0.25
 50
288.61648504286279
 51
0.0000000000000254
  0
LINE
  8
_1-0_
  6
CONTINUOUS
 62
    7
 10
209.16420935641182
 20
128.99221044132565
 11
209.16421140780281
 21
124.01353167902592
  0
LINE
  8
_1-0_
  6
CONTINUOUS
 62
    7
 10
209.16420935641182
 20
125.76318282407927
 11
209.16420935641182
 21
125.19277151860031
  0
LINE
  8
_1-0_
  6
CONTINUOUS
 62
    7
 10
209.16420935640647
 20
110.76318282407927
 11
209.16420935640681
 21
111.33359412964531
  0
ARC
  8
_1-0_
  6
CONTINUOUS
 62
    9
 10
206.56420935641179
 20
112.95068282380437
 40
0.25
 50
74.99999999995498
 51
180
  0
LINE
  8
_1-0_
  6
CONTINUOUS
 62
    9
 10
206.62891411768763
 20
113.19216428037619
 11
209.16420935641193
 21
112.51283396858328
  0
LINE
  8
_1-0_
  6
CONTINUOUS
 62
    9
 10
207.26420935641184
 20
118.27568282380419
 11
207.26420935641184
 21
113.02193743420396
  0
LINE
  8
_1-0_
  6
CONTINUOUS
 62
    9
 10
206.61420935641186
 20
118.27568282380419
 11
206.61420935641186
 21
113.19610440928484
  0
ARC
  8
_1-0_
  6
CONTINUOUS
 62
    9
 10
206.56420935641179
 20
123.57568282380414
 40
0.25
 50
180
 51
285.00000000004496
  0
LINE
  8
_1-0_
  6
CONTINUOUS
 62
    9
 10
206.62891411768751
 20
123.33420136723232
 11
209.16420935641182
 21
124.01353167902501
  0
LINE
  8
_1-0_
  6
CONTINUOUS
 62
    9
 10
207.26420935641184
 20
118.27568282380419
 11
207.26420935641184
 21
123.50442821340455
  0
LINE
  8
_1-0_
  6
CONTINUOUS
 62
    9
 10
206.61420935641186
 20
118.27568282380419
 11
206.61420935641186
 21
123.33026123832367
  0
LINE
  8
_1-0_
  6
CONTINUOUS
 62
    7
 10
209.16420935641182
 20
125.75068282407922
 11
209.16420935641182
 21
125.18027151860026
  0
ARC
  8
_1-0_
  6
CONTINUOUS
 62
    7
 10
206.54208635192006
 20
124.2756828240759
 40
0.1499999999999999
 50
186.49999999999821
 51
288.60829801488677
  0
LINE
  8
_1-0_
  6
CONTINUOUS
 62
    7
 10
184.16420935641716
 20
125.75068282409718
 11
209.1642093564117
 21
125.75068282407922
  0
LINE
  8
_1-0_
  6
CONTINUOUS
 62
    7
 10
209.16420935640647
 20
110.75068282407922
 11
209.16420935640693
 21
111.32109412964526
  0
ARC
  8
_1-0_
  6
CONTINUOUS
 62
    7
 10
206.54208635191574
 20
112.22568282408436
 40
0.1499999999999999
 50
71.383514957199623
 51
173.49999999996072
  0
LINE
  8
_1-0_
  6
CONTINUOUS
 62
    7
 10
184.1642093564117
 20
110.75068282409718
 11
209.16420935640647
 21
110.75068282407945
  0
LINE
  8
_1-0_
  6
CONTINUOUS
 62
    7
 10
206.58997114987326
 20
112.36783431413831
 11
208.99401735300265
 21
111.55801327973548
  0
ARC
  8
_1-0_
  6
CONTINUOUS
 62
    7
 10
208.91420935640681
 20
111.32109412964549
 40
0.25
 50
0
 51
71.383514957200816
  0
LINE
  8
_1-0_
  6
CONTINUOUS
 62
    7
 10
206.58997114986667
 20
124.13353133410494
 11
208.99401735299514
 21
124.9433523685105
  0
ARC
  8
_1-0_
  6
CONTINUOUS
 62
    7
 10
208.9142093563992
 20
125.18027151860026
 40
0.25
 50
288.61648504286279
 51
0.0000000000000254
  0
LINE
  8
_1-0_
  6
CONTINUOUS
 62
    7
 10
209.16420935641182
 20
166.49221044132565
 11
209.16421140780281
 21
161.5135316790259
  0
LINE
  8
_1-0_
  6
CONTINUOUS
 62
    7
 10
209.16420935641182
 20
163.26318282407925
 11
209.16420935641182
 21
162.6927715186003
  0
LINE
  8
_1-0_
  6
CONTINUOUS
 62
    7
 10
209.16420935640647
 20
148.26318282407925
 11
209.16420935640681
 21
148.83359412964529
  0
ARC
  8
_1-0_
  6
CONTINUOUS
 62
    9
 10
206.56420935641179
 20
150.45068282380436
 40
0.25
 50
74.99999999995498
 51
180
  0
LINE
  8
_1-0_
  6
CONTINUOUS
 62
    9
 10
206.62891411768763
 20
150.69216428037618
 11
209.16420935641193
 21
150.01283396858327
  0
LINE
  8
_1-0_
  6
CONTINUOUS
 62
    9
 10
207.26420935641184
 20
155.77568282380417
 11
207.26420935641184
 21
150.52193743420395
  0
LINE
  8
_1-0_
  6
CONTINUOUS
 62
    9
 10
206.61420935641186
 20
155.77568282380417
 11
206.61420935641186
 21
150.69610440928483
  0
ARC
  8
_1-0_
  6
CONTINUOUS
 62
    9
 10
206.56420935641179
 20
161.07568282380413
 40
0.25
 50
180
 51
285.00000000004496
  0
LINE
  8
_1-0_
  6
CONTINUOUS
 62
    9
 10
206.62891411768751
 20
160.83420136723231
 11
209.16420935641182
 21
161.51353167902499
  0
LINE
  8
_1-0_
  6
CONTINUOUS
 62
    9
 10
207.26420935641184
 20
155.77568282380417
 11
207.26420935641184
 21
161.00442821340454
  0
LINE
  8
_1-0_
  6
CONTINUOUS
 62
    9
 10
206.61420935641186
 20
155.77568282380417
 11
206.61420935641186
 21
160.83026123832366
  0
LINE
  8
_1-0_
  6
CONTINUOUS
 62
    7
 10
209.16420935641182
 20
163.25068282407921
 11
209.16420935641182
 21
162.68027151860025
  0
ARC
  8
_1-0_
  6
CONTINUOUS
 62
    7
 10
206.54208635192006
 20
161.77568282407589
 40
0.1499999999999999
 50
186.49999999999821
 51
288.60829801488677
  0
LINE
  8
_1-0_
  6
CONTINUOUS
 62
    7
 10
184.16420935641716
 20
163.25068282409717
 11
209.1642093564117
 21
163.25068282407921
  0
LINE
  8
_1-0_
  6
CONTINUOUS
 62
    7
 10
209.16420935640647
 20
148.25068282407921
 11
209.16420935640693
 21
148.82109412964525
  0
ARC
  8
_1-0_
  6
CONTINUOUS
 62
    7
 10
206.54208635191574
 20
149.72568282408434
 40
0.1499999999999999
 50
71.383514957199623
 51
173.49999999996072
  0
LINE
  8
_1-0_
  6
CONTINUOUS
 62
    7
 10
184.1642093564117
 20
148.25068282409717
 11
209.16420935640647
 21
148.25068282407943
  0
LINE
  8
_1-0_
  6
CONTINUOUS
 62
    7
 10
206.58997114987326
 20
149.86783431413829
 11
208.99401735300265
 21
149.05801327973546
  0
ARC
  8
_1-0_
  6
CONTINUOUS
 62
    7
 10
208.91420935640681
 20
148.82109412964547
 40
0.25
 50
0
 51
71.383514957200816
  0
LINE
  8
_1-0_
  6
CONTINUOUS
 62
    7
 10
206.58997114986667
 20
161.63353133410493
 11
208.99401735299514
 21
162.44335236851049
  0
ARC
  8
_1-0_
  6
CONTINUOUS
 62
    7
 10
208.9142093563992
 20
162.68027151860025
 40
0.25
 50
288.61648504286279
 51
0.0000000000000254
  0
LINE
  8
_1-0_
  6
CONTINUOUS
 62
    7
 10
209.16420935641182
 20
203.99221044132565
 11
209.16421140780281
 21
199.0135316790259
  0
LINE
  8
_1-0_
  6
CONTINUOUS
 62
    7
 10
209.16420935641182
 20
200.76318282407925
 11
209.16420935641182
 21
200.1927715186003
  0
LINE
  8
_1-0_
  6
CONTINUOUS
 62
    7
 10
209.16420935640647
 20
185.76318282407925
 11
209.16420935640681
 21
186.33359412964529
  0
ARC
  8
_1-0_
  6
CONTINUOUS
 62
    9
 10
206.56420935641179
 20
187.95068282380436
 40
0.25
 50
74.99999999995498
 51
180
  0
LINE
  8
_1-0_
  6
CONTINUOUS
 62
    9
 10
206.62891411768763
 20
188.19216428037618
 11
209.16420935641193
 21
187.51283396858327
  0
LINE
  8
_1-0_
  6
CONTINUOUS
 62
    9
 10
207.26420935641184
 20
193.27568282380417
 11
207.26420935641184
 21
188.02193743420395
  0
LINE
  8
_1-0_
  6
CONTINUOUS
 62
    9
 10
206.61420935641186
 20
193.27568282380417
 11
206.61420935641186
 21
188.19610440928483
  0
ARC
  8
_1-0_
  6
CONTINUOUS
 62
    9
 10
206.56420935641179
 20
198.57568282380413
 40
0.25
 50
180
 51
285.00000000004496
  0
LINE
  8
_1-0_
  6
CONTINUOUS
 62
    9
 10
206.62891411768751
 20
198.33420136723231
 11
209.16420935641182
 21
199.01353167902499
  0
LINE
  8
_1-0_
  6
CONTINUOUS
 62
    9
 10
207.26420935641184
 20
193.27568282380417
 11
207.26420935641184
 21
198.50442821340454
  0
LINE
  8
_1-0_
  6
CONTINUOUS
 62
    9
 10
206.61420935641186
 20
193.27568282380417
 11
206.61420935641186
 21
198.33026123832366
  0
LINE
  8
_1-0_
  6
CONTINUOUS
 62
    7
 10
209.16420935641182
 20
200.75068282407921
 11
209.16420935641182
 21
200.18027151860025
  0
ARC
  8
_1-0_
  6
CONTINUOUS
 62
    7
 10
206.54208635192006
 20
199.27568282407589
 40
0.1499999999999999
 50
186.49999999999821
 51
288.60829801488677
  0
LINE
  8
_1-0_
  6
CONTINUOUS
 62
    7
 10
184.16420935641716
 20
200.75068282409717
 11
209.1642093564117
 21
200.75068282407921
  0
LINE
  8
_1-0_
  6
CONTINUOUS
 62
    7
 10
209.16420935640647
 20
185.75068282407921
 11
209.16420935640693
 21
186.32109412964525
  0
ARC
  8
_1-0_
  6
CONTINUOUS
 62
    7
 10
206.54208635191574
 20
187.22568282408434
 40
0.1499999999999999
 50
71.383514957199623
 51
173.49999999996072
  0
LINE
  8
_1-0_
  6
CONTINUOUS
 62
    7
 10
184.1642093564117
 20
185.75068282409717
 11
209.16420935640647
 21
185.75068282407943
  0
LINE
  8
_1-0_
  6
CONTINUOUS
 62
    7
 10
206.58997114987326
 20
187.36783431413829
 11
208.99401735300265
 21
186.55801327973546
  0
ARC
  8
_1-0_
  6
CONTINUOUS
 62
    7
 10
208.91420935640681
 20
186.32109412964547
 40
0.25
 50
0
 51
71.383514957200816
  0
LINE
  8
_1-0_
  6
CONTINUOUS
 62
    7
 10
206.58997114986667
 20
199.13353133410493
 11
208.99401735299514
 21
199.94335236851049
  0
ARC
  8
_1-0_
  6
CONTINUOUS
 62
    7
 10
208.9142093563992
 20
200.18027151860025
 40
0.25
 50
288.61648504286279
 51
0.0000000000000254
  0
LINE
  8
_1-0_
  6
CONTINUOUS
 62
    7
 10
210.32973653961633
 20
222.84470159382278
 11
232.99040881422869
 21
222.84470159382278
  0
LINE
  8
_1-0_
  6
CONTINUOUS
 62
    3
 10
231.41432535641027
 20
176.11506515063326
 11
274.41432535641025
 21
176.11506515063326
  0
ARC
  8
_1-0_
  6
CONTINUOUS
 62
    3
 10
274.41432535641025
 20
173.61506515063326
 40
2.5
 50
0
 51
90
  0
ARC
  8
_1-0_
  6
CONTINUOUS
 62
    3
 10
231.41432535641027
 20
173.61506515063326
 40
2.5
 50
90
 51
180
  0
LINE
  8
_1-0_
  6
CONTINUOUS
 62
    3
 10
237.91432535641027
 20
152.11506515063326
 11
237.91432535641027
 21
153.11506515063326
  0
LINE
  8
_1-0_
  6
CONTINUOUS
 62
    3
 10
237.91432535641027
 20
152.11506515063326
 11
231.41432535641027
 21
152.11506515063326
  0
LINE
  8
_1-0_
  6
CONTINUOUS
 62
    3
 10
227.91432535641027
 20
173.61506515063326
 11
227.91432535641027
 21
155.61506515063326
  0
ARC
  8
_1-0_
  6
CONTINUOUS
 62
    3
 10
231.41432535641027
 20
155.61506515063326
 40
3.5
 50
180
 51
270
  0
ARC
  8
_1-0_
  6
CONTINUOUS
 62
    3
 10
274.41432535641025
 20
173.61506515063326
 40
3.5
 50
0
 51
90
  0
LINE
  8
_1-0_
  6
CONTINUOUS
 62
    3
 10
277.91432535641025
 20
173.61506515063326
 11
277.91432535641025
 21
155.61506515063326
  0
ARC
  8
_1-0_
  6
CONTINUOUS
 62
    3
 10
274.41432535641025
 20
155.61506515063326
 40
3.5
 50
270
 51
0
  0
LINE
  8
_1-0_
  6
CONTINUOUS
 62
    3
 10
267.91432535641025
 20
152.11506515063326
 11
274.41432535641025
 21
152.11506515063326
  0
LINE
  8
_1-0_
  6
CONTINUOUS
 62
    3
 10
267.91432535641025
 20
153.11506515063326
 11
267.91432535641025
 21
152.11506515063326
  0
LINE
  8
_1-0_
  6
CONTINUOUS
 62
    3
 10
267.91432535641025
 20
153.11506515063326
 11
274.41432535641025
 21
153.11506515063326
  0
ARC
  8
_1-0_
  6
CONTINUOUS
 62
    3
 10
274.41432535641025
 20
155.61506515063326
 40
2.5
 50
270
 51
0
  0
LINE
  8
_1-0_
  6
CONTINUOUS
 62
    3
 10
276.91432535641025
 20
155.61506515063326
 11
276.91432535641025
 21
173.61506515063326
  0
LINE
  8
_1-0_
  6
CONTINUOUS
 62
    3
 10
228.91432535641027
 20
173.61506515063326
 11
228.91432535641027
 21
155.61506515063326
  0
ARC
  8
_1-0_
  6
CONTINUOUS
 62
    3
 10
231.41432535641027
 20
155.61506515063326
 40
2.5
 50
180
 51
270
  0
LINE
  8
_1-0_
  6
CONTINUOUS
 62
    3
 10
237.91432535641027
 20
153.11506515063326
 11
231.41432535641027
 21
153.11506515063326
  0
ARC
  8
_1-0_
  6
CONTINUOUS
 62
    3
 10
231.41432535641027
 20
173.61506515063326
 40
3.5
 50
90
 51
180
  0
LINE
  8
_1-0_
  6
CONTINUOUS
 62
    3
 10
231.41432535641027
 20
177.11506515063326
 11
274.41432535641025
 21
177.11506515063326
  0
LINE
  8
_1-0_
  6
CONTINUOUS
 62
    3
 10
282.91432535641025
 20
177.11506515063326
 11
274.41432535641025
 21
177.11506515063326
  0
ARC
  8
_1-0_
  6
CONTINUOUS
 62
    3
 10
259.41432535641025
 20
177.61506515063326
 40
1.5
 50
90
 51
180
  0
LINE
  8
_1-0_
  6
CONTINUOUS
 62
    3
 10
257.91432535641025
 20
177.11506515063326
 11
257.91432535641025
 21
177.61506515063326
  0
ARC
  8
_1-0_
  6
CONTINUOUS
 62
    3
 10
282.41432535641025
 20
200.61506515063326
 40
1.5
 50
90
 51
180
  0
LINE
  8
_1-0_
  6
CONTINUOUS
 62
    3
 10
280.91432535641025
 20
182.36506515063326
 11
280.91432535641025
 21
200.61506515063326
  0
LINE
  8
_1-0_
  6
CONTINUOUS
 62
    3
 10
277.66432535641025
 20
179.11506515063326
 11
259.41432535641025
 21
179.11506515063326
  0
ARC
  8
_1-0_
  6
CONTINUOUS
 62
    3
 10
277.66432535641025
 20
182.36506515063326
 40
3.25
 50
270
 51
0
  0
LINE
  8
_1-0_
  6
CONTINUOUS
 62
    3
 10
282.91432535641025
 20
202.11506515063326
 11
282.41432535641025
 21
202.11506515063326
  0
LINE
  8
_1-0_
  6
CONTINUOUS
 62
    3
 10
232.14399235641022
 20
165.55256515063326
 11
232.84711735641022
 21
163.67756515063326
  0
LINE
  8
_1-0_
  6
CONTINUOUS
 62
    3
 10
231.8265543564103
 20
165.86506515063326
 11
232.14399235641022
 21
165.55256515063326
  0
LINE
  8
_1-0_
  6
CONTINUOUS
 62
    3
 10
231.74349235641026
 20
165.55256515063326
 11
231.8265543564103
 21
165.86506515063326
  0
LINE
  8
_1-0_
  6
CONTINUOUS
 62
    3
 10
232.44661735641026
 20
163.67756515063326
 11
231.74349235641026
 21
165.55256515063326
  0
LINE
  8
_1-0_
  6

 62
    3
 10
223.2640543564103
 20
162.52874015063327
 11
222.7640543564103
 21
162.24006515063326
  0
LINE
  8
_1-0_
  6

 62
    3
 10
222.7640543564103
 20
166.99006515063326
 11
223.2640543564103
 21
166.70139015063324
  0
LINE
  8
_1-0_
  6
CONTINUOUS
 62
    3
 10
235.76405435641018
 20
164.61506515063326
 11
232.7640543564103
 21
165.55256515063326
  0
LINE
  8
_1-0_
  6
CONTINUOUS
 62
    3
 10
234.82655435641018
 20
165.55256515063326
 11
232.7640543564103
 21
165.55256515063326
  0
LINE
  8
_1-0_
  6
CONTINUOUS
 62
    3
 10
234.82655435641018
 20
163.67756515063326
 11
232.84711735641022
 21
163.67756515063326
  0
LINE
  8
_1-0_
  6
CONTINUOUS
 62
    3
 10
235.76405435641018
 20
164.61506515063326
 11
234.82655435641018
 21
165.55256515063326
  0
LINE
  8
_1-0_
  6
CONTINUOUS
 62
    3
 10
234.82655435641018
 20
163.67756515063326
 11
235.76405435641018
 21
164.61506515063326
  0
LINE
  8
_1-0_
  6
CONTINUOUS
 62
    3
 10
234.82655435641018
 20
163.67756515063326
 11
234.82655435641018
 21
164.90803315063323
  0
LINE
  8
_1-0_
  6
CONTINUOUS
 62
    3
 10
232.7640543564103
 20
165.86506515063326
 11
232.44661735641026
 21
165.55256515063326
  0
LINE
  8
_1-0_
  6
CONTINUOUS
 62
    3
 10
232.84711735641022
 20
165.55256515063326
 11
232.7640543564103
 21
165.86506515063326
  0
LINE
  8
_1-0_
  6
CONTINUOUS
 62
    3
 10
231.8265543564103
 20
163.36506515063326
 11
231.50911735641026
 21
163.67756515063326
  0
LINE
  8
_1-0_
  6
CONTINUOUS
 62
    3
 10
231.90961735641022
 20
163.67756515063326
 11
231.8265543564103
 21
163.36506515063326
  0
LINE
  8
_1-0_
  6
CONTINUOUS
 62
    3
 10
232.44661735641026
 20
163.67756515063326
 11
231.90961735641022
 21
163.67756515063326
  0
LINE
  8
_1-0_
  6
CONTINUOUS
 62
    3
 10
232.14399235641022
 20
165.55256515063326
 11
232.7640543564103
 21
165.55256515063326
  0
LINE
  8
_1-0_
  6
CONTINUOUS
 62
    3
 10
231.20649235641022
 20
165.55256515063326
 11
231.74349235641026
 21
165.55256515063326
  0
LINE
  8
_1-0_
  6
CONTINUOUS
 62
    3
 10
229.33149235641022
 20
165.55256515063326
 11
229.86849235641026
 21
165.55256515063326
  0
LINE
  8
_1-0_
  6
CONTINUOUS
 62
    3
 10
230.57161735641026
 20
163.67756515063326
 11
230.03461735641022
 21
163.67756515063326
  0
LINE
  8
_1-0_
  6
CONTINUOUS
 62
    3
 10
230.26899235641022
 20
165.55256515063326
 11
230.80599235641026
 21
165.55256515063326
  0
LINE
  8
_1-0_
  6
CONTINUOUS
 62
    3
 10
230.97211735641022
 20
163.67756515063326
 11
231.50911735641026
 21
163.67756515063326
  0
LINE
  8
_1-0_
  6

 62
    3
 10
222.7640543564103
 20
162.24006515063326
 11
222.7640543564103
 21
166.99006515063326
  0
LINE
  8
_1-0_
  6
CONTINUOUS
 62
    3
 10
230.8890543564103
 20
163.36506515063326
 11
230.57161735641026
 21
163.67756515063326
  0
LINE
  8
_1-0_
  6
CONTINUOUS
 62
    3
 10
230.97211735641022
 20
163.67756515063326
 11
230.8890543564103
 21
163.36506515063326
  0
LINE
  8
_1-0_
  6
CONTINUOUS
 62
    3
 10
232.7640543564103
 20
163.36506515063326
 11
232.44661735641026
 21
163.67756515063326
  0
LINE
  8
_1-0_
  6
CONTINUOUS
 62
    3
 10
232.84711735641022
 20
163.67756515063326
 11
232.7640543564103
 21
163.36506515063326
  0
LINE
  8
_1-0_
  6

 62
    3
 10
222.16263435641022
 20
162.45896415063322
 11
222.7640543564103
 21
162.24006515063326
  0
LINE
  8
_1-0_
  6

 62
    3
 10
222.16263435641022
 20
166.77116615063306
 11
222.7640543564103
 21
166.99006515063326
  0
LINE
  8
_1-0_
  6
CONTINUOUS
 62
    3
 10
229.09711735641022
 20
163.67756515063326
 11
228.91432535641027
 21
164.16500815063324
  0
LINE
  8
_1-0_
  6
CONTINUOUS
 62
    3
 10
229.0140543564103
 20
163.36506515063326
 11
228.91432535641027
 21
163.46324215063311
  0
LINE
  8
_1-0_
  6

 62
    3
 10
226.2015543564103
 20
163.36506515063326
 11
225.88411735641026
 21
163.67756515063326
  0
LINE
  8
_1-0_
  6

 62
    3
 10
226.28461735641022
 20
163.67756515063326
 11
226.2015543564103
 21
163.36506515063326
  0
LINE
  8
_1-0_
  6

 62
    3
 10
225.58149235641022
 20
165.55256515063326
 11
226.28461735641022
 21
163.67756515063326
  0
LINE
  8
_1-0_
  6

 62
    3
 10
225.2640543564103
 20
165.86506515063326
 11
225.58149235641022
 21
165.55256515063326
  0
LINE
  8
_1-0_
  6

 62
    3
 10
225.18099235641026
 20
165.55256515063326
 11
225.2640543564103
 21
165.86506515063326
  0
LINE
  8
_1-0_
  6

 62
    3
 10
225.88411735641026
 20
163.67756515063326
 11
225.18099235641026
 21
165.55256515063326
  0
LINE
  8
_1-0_
  6

 62
    3
 10
227.75911735641026
 20
163.67756515063326
 11
227.22211735641022
 21
163.67756515063326
  0
LINE
  8
_1-0_
  6

 62
    3
 10
227.1390543564103
 20
163.36506515063326
 11
226.82161735641026
 21
163.67756515063326
  0
LINE
  8
_1-0_
  6

 62
    3
 10
227.22211735641022
 20
163.67756515063326
 11
227.1390543564103
 21
163.36506515063326
  0
LINE
  8
_1-0_
  6

 62
    3
 10
226.51899235641022
 20
165.55256515063326
 11
227.22211735641022
 21
163.67756515063326
  0
LINE
  8
_1-0_
  6

 62
    3
 10
226.2015543564103
 20
165.86506515063326
 11
226.51899235641022
 21
165.55256515063326
  0
LINE
  8
_1-0_
  6

 62
    3
 10
226.11849235641026
 20
165.55256515063326
 11
226.2015543564103
 21
165.86506515063326
  0
LINE
  8
_1-0_
  6

 62
    3
 10
226.82161735641026
 20
163.67756515063326
 11
226.11849235641026
 21
165.55256515063326
  0
LINE
  8
_1-0_
  6

 62
    3
 10
228.69661735641026
 20
163.67756515063326
 11
228.15961735641022
 21
163.67756515063326
  0
LINE
  8
_1-0_
  6

 62
    3
 10
228.0765543564103
 20
163.36506515063326
 11
227.75911735641026
 21
163.67756515063326
  0
LINE
  8
_1-0_
  6

 62
    3
 10
228.15961735641022
 20
163.67756515063326
 11
228.0765543564103
 21
163.36506515063326
  0
LINE
  8
_1-0_
  6

 62
    3
 10
227.45649235641022
 20
165.55256515063326
 11
228.15961735641022
 21
163.67756515063326
  0
LINE
  8
_1-0_
  6

 62
    3
 10
227.1390543564103
 20
165.86506515063326
 11
227.45649235641022
 21
165.55256515063326
  0
LINE
  8
_1-0_
  6

 62
    3
 10
227.05599235641026
 20
165.55256515063326
 11
227.1390543564103
 21
165.86506515063326
  0
LINE
  8
_1-0_
  6

 62
    3
 10
227.75911735641026
 20
163.67756515063326
 11
227.05599235641026
 21
165.55256515063326
  0
LINE
  8
_1-0_
  6
CONTINUOUS
 62
    3
 10
229.09711735641022
 20
163.67756515063326
 11
229.0140543564103
 21
163.36506515063326
  0
LINE
  8
_1-0_
  6

 62
    3
 10
228.69661735641026
 20
163.67756515063326
 11
228.91432535641027
 21
163.46324215063311
  0
LINE
  8
_1-0_
  6

 62
    3
 10
228.39399235641022
 20
165.55256515063326
 11
228.91432535641027
 21
164.16500815063324
  0
LINE
  8
_1-0_
  6

 62
    3
 10
228.0765543564103
 20
165.86506515063326
 11
228.39399235641022
 21
165.55256515063326
  0
LINE
  8
_1-0_
  6

 62
    3
 10
227.99349235641026
 20
165.55256515063326
 11
228.0765543564103
 21
165.86506515063326
  0
LINE
  8
_1-0_
  6

 62
    3
 10
228.69661735641026
 20
163.67756515063326
 11
227.99349235641026
 21
165.55256515063326
  0
LINE
  8
_1-0_
  6
CONTINUOUS
 62
    3
 10
230.03461735641022
 20
163.67756515063326
 11
229.9515543564103
 21
163.36506515063326
  0
LINE
  8
_1-0_
  6
CONTINUOUS
 62
    3
 10
229.33149235641022
 20
165.55256515063326
 11
230.03461735641022
 21
163.67756515063326
  0
LINE
  8
_1-0_
  6
CONTINUOUS
 62
    3
 10
229.0140543564103
 20
165.86506515063326
 11
229.33149235641022
 21
165.55256515063326
  0
LINE
  8
_1-0_
  6
CONTINUOUS
 62
    3
 10
228.93099235641026
 20
165.55256515063326
 11
229.0140543564103
 21
165.86506515063326
  0
LINE
  8
_1-0_
  6
CONTINUOUS
 62
    3
 10
229.63411735641026
 20
163.67756515063326
 11
229.09711735641022
 21
163.67756515063326
  0
LINE
  8
_1-0_
  6

 62
    3
 10
228.39399235641022
 20
165.55256515063326
 11
228.93099235641026
 21
165.55256515063326
  0
LINE
  8
_1-0_
  6
CONTINUOUS
 62
    3
 10
229.9515543564103
 20
163.36506515063326
 11
229.63411735641026
 21
163.67756515063326
  0
LINE
  8
_1-0_
  6
CONTINUOUS
 62
    3
 10
229.63411735641026
 20
163.67756515063326
 11
228.93099235641026
 21
165.55256515063326
  0
LINE
  8
_1-0_
  6

 62
    3
 10
224.64399235641022
 20
163.67756515063326
 11
224.94661735641026
 21
163.67756515063326
  0
LINE
  8
_1-0_
  6

 62
    3
 10
227.45649235641022
 20
165.55256515063326
 11
227.99349235641026
 21
165.55256515063326
  0
LINE
  8
_1-0_
  6

 62
    3
 10
226.51899235641022
 20
165.55256515063326
 11
227.05599235641026
 21
165.55256515063326
  0
LINE
  8
_1-0_
  6

 62
    3
 10
225.58149235641022
 20
165.55256515063326
 11
226.11849235641026
 21
165.55256515063326
  0
LINE
  8
_1-0_
  6

 62
    3
 10
224.64399235641022
 20
165.55256515063326
 11
225.18099235641026
 21
165.55256515063326
  0
LINE
  8
_1-0_
  6

 62
    3
 10
223.2640543564103
 20
165.55256515063326
 11
224.24349235641026
 21
165.55256515063326
  0
LINE
  8
_1-0_
  6

 62
    3
 10
223.2640543564103
 20
163.67756515063326
 11
224.24349235641026
 21
163.67756515063326
  0
ARC
  8
_1-0_
  6

 62
    3
 10
226.57536035641024
 20
164.61506515063326
 40
4.9113059999999997
 50
153.95941400000001
 51
206.04058599999999
  0
LINE
  8
_1-0_
  6
CONTINUOUS
 62
    3
 10
232.7640543564103
 20
165.55256515063326
 11
232.7640543564103
 21
163.89906515063313
  0
LINE
  8
_1-0_
  6
CONTINUOUS
 62
    3
 10
231.20649235641022
 20
165.55256515063326
 11
231.90961735641022
 21
163.67756515063326
  0
LINE
  8
_1-0_
  6
CONTINUOUS
 62
    3
 10
230.8890543564103
 20
165.86506515063326
 11
231.20649235641022
 21
165.55256515063326
  0
LINE
  8
_1-0_
  6
CONTINUOUS
 62
    3
 10
230.80599235641026
 20
165.55256515063326
 11
230.8890543564103
 21
165.86506515063326
  0
LINE
  8
_1-0_
  6
CONTINUOUS
 62
    3
 10
231.50911735641026
 20
163.67756515063326
 11
230.80599235641026
 21
165.55256515063326
  0
LINE
  8
_1-0_
  6
CONTINUOUS
 62
    3
 10
230.26899235641022
 20
165.55256515063326
 11
230.97211735641022
 21
163.67756515063326
  0
LINE
  8
_1-0_
  6
CONTINUOUS
 62
    3
 10
229.9515543564103
 20
165.86506515063326
 11
230.26899235641022
 21
165.55256515063326
  0
LINE
  8
_1-0_
  6
CONTINUOUS
 62
    3
 10
229.86849235641026
 20
165.55256515063326
 11
229.9515543564103
 21
165.86506515063326
  0
LINE
  8
_1-0_
  6
CONTINUOUS
 62
    3
 10
230.57161735641026
 20
163.67756515063326
 11
229.86849235641026
 21
165.55256515063326
  0
LINE
  8
_1-0_
  6

 62
    3
 10
224.5609293564103
 20
163.36506515063326
 11
224.24349235641026
 21
163.67756515063326
  0
LINE
  8
_1-0_
  6

 62
    3
 10
224.64399235641022
 20
163.67756515063326
 11
224.5609293564103
 21
163.36506515063326
  0
LINE
  8
_1-0_
  6

 62
    3
 10
224.24349235641026
 20
163.67756515063326
 11
224.24349235641026
 21
165.55256515063326
  0
LINE
  8
_1-0_
  6

 62
    3
 10
225.88411735641026
 20
163.67756515063326
 11
225.34711735641022
 21
163.67756515063326
  0
LINE
  8
_1-0_
  6

 62
    3
 10
225.2640543564103
 20
163.36506515063326
 11
224.94661735641026
 21
163.67756515063326
  0
LINE
  8
_1-0_
  6

 62
    3
 10
225.34711735641022
 20
163.67756515063326
 11
225.2640543564103
 21
163.36506515063326
  0
LINE
  8
_1-0_
  6

 62
    3
 10
224.64399235641022
 20
165.55256515063326
 11
225.34711735641022
 21
163.67756515063326
  0
LINE
  8
_1-0_
  6

 62
    3
 10
224.3265543564103
 20
165.86506515063326
 11
224.64399235641022
 21
165.55256515063326
  0
LINE
  8
_1-0_
  6

 62
    3
 10
224.24349235641026
 20
165.55256515063326
 11
224.3265543564103
 21
165.86506515063326
  0
LINE
  8
_1-0_
  6

 62
    3
 10
224.94661735641026
 20
163.67756515063326
 11
224.24349235641026
 21
165.55256515063326
  0
LINE
  8
_1-0_
  6

 62
    3
 10
226.82161735641026
 20
163.67756515063326
 11
226.28461735641022
 21
163.67756515063326
  0
LINE
  8
_1-0_
  6
CONTINUOUS
 62
    7
 10
225.3340435227299
 20
166.98232646495859
 11
236.39230334515869
 21
208.25231396556075
  0
LINE
  8
_1-0_
  6
CONTINUOUS
 62
    3
 10
282.91432535641025
 20
109.11894317538902
 11
274.41432535641025
 21
109.11894317538902
  0
LINE
  8
_1-0_
  6
CONTINUOUS
 62
    3
 10
237.91432535641027
 20
84.11894317538902
 11
231.41432535641027
 21
84.11894317538902
  0
LINE
  8
_1-0_
  6
CONTINUOUS
 62
    3
 10
227.91432535641027
 20
105.61894317538902
 11
227.91432535641027
 21
87.61894317538902
  0
ARC
  8
_1-0_
  6
CONTINUOUS
 62
    3
 10
231.41432535641027
 20
87.61894317538902
 40
3.5
 50
180
 51
270
  0
ARC
  8
_1-0_
  6
CONTINUOUS
 62
    3
 10
274.41432535641025
 20
105.61894317538902
 40
3.5
 50
0
 51
90
  0
LINE
  8
_1-0_
  6
CONTINUOUS
 62
    3
 10
277.91432535641025
 20
105.61894317538902
 11
277.91432535641025
 21
87.61894317538902
  0
ARC
  8
_1-0_
  6
CONTINUOUS
 62
    3
 10
274.41432535641025
 20
87.61894317538902
 40
3.5
 50
270
 51
0
  0
LINE
  8
_1-0_
  6
CONTINUOUS
 62
    3
 10
267.91432535641025
 20
84.11894317538902
 11
274.41432535641025
 21
84.11894317538902
  0
LINE
  8
_1-0_
  6
CONTINUOUS
 62
    3
 10
267.91432535641025
 20
85.11894317538902
 11
267.91432535641025
 21
84.11894317538902
  0
LINE
  8
_1-0_
  6
CONTINUOUS
 62
    3
 10
267.91432535641025
 20
85.11894317538902
 11
274.41432535641025
 21
85.11894317538902
  0
ARC
  8
_1-0_
  6
CONTINUOUS
 62
    3
 10
274.41432535641025
 20
87.61894317538902
 40
2.5
 50
270
 51
0
  0
LINE
  8
_1-0_
  6
CONTINUOUS
 62
    3
 10
276.91432535641025
 20
87.61894317538902
 11
276.91432535641025
 21
105.61894317538902
  0
LINE
  8
_1-0_
  6
CONTINUOUS
 62
    3
 10
228.91432535641027
 20
105.61894317538902
 11
228.91432535641027
 21
87.61894317538902
  0
ARC
  8
_1-0_
  6
CONTINUOUS
 62
    3
 10
231.41432535641027
 20
87.61894317538902
 40
2.5
 50
180
 51
270
  0
LINE
  8
_1-0_
  6
CONTINUOUS
 62
    3
 10
237.91432535641027
 20
85.11894317538902
 11
231.41432535641027
 21
85.11894317538902
  0
ARC
  8
_1-0_
  6
CONTINUOUS
 62
    3
 10
231.41432535641027
 20
105.61894317538902
 40
3.5
 50
90
 51
180
  0
LINE
  8
_1-0_
  6
CONTINUOUS
 62
    3
 10
231.41432535641027
 20
109.11894317538902
 11
274.41432535641025
 21
109.11894317538902
  0
ARC
  8
_1-0_
  6
CONTINUOUS
 62
    3
 10
259.41432535641025
 20
109.61894317538902
 40
1.5
 50
90
 51
180
  0
LINE
  8
_1-0_
  6
CONTINUOUS
 62
    3
 10
257.91432535641025
 20
109.11894317538902
 11
257.91432535641025
 21
109.61894317538902
  0
ARC
  8
_1-0_
  6
CONTINUOUS
 62
    3
 10
282.41432535641025
 20
132.61894317538901
 40
1.5
 50
90
 51
180
  0
LINE
  8
_1-0_
  6
CONTINUOUS
 62
    3
 10
280.91432535641025
 20
114.36894317538902
 11
280.91432535641025
 21
132.61894317538901
  0
LINE
  8
_1-0_
  6
CONTINUOUS
 62
    3
 10
277.66432535641025
 20
111.11894317538902
 11
259.41432535641025
 21
111.11894317538902
  0
ARC
  8
_1-0_
  6
CONTINUOUS
 62
    3
 10
277.66432535641025
 20
114.36894317538902
 40
3.25
 50
270
 51
0
  0
LINE
  8
_1-0_
  6
CONTINUOUS
 62
    3
 10
282.91432535641025
 20
134.11894317538901
 11
282.41432535641025
 21
134.11894317538901
  0
LINE
  8
_1-0_
  6
CONTINUOUS
 62
    3
 10
231.41432535641027
 20
108.11894317538902
 11
274.41432535641025
 21
108.11894317538902
  0
ARC
  8
_1-0_
  6
CONTINUOUS
 62
    3
 10
274.41432535641025
 20
105.61894317538902
 40
2.5
 50
0
 51
90
  0
ARC
  8
_1-0_
  6
CONTINUOUS
 62
    3
 10
231.41432535641027
 20
105.61894317538902
 40
2.5
 50
90
 51
180
  0
LINE
  8
_1-0_
  6
CONTINUOUS
 62
    3
 10
237.91432535641027
 20
84.11894317538902
 11
237.91432535641027
 21
85.11894317538902
  0
LINE
  8
_1-0_
  6
CONTINUOUS
 62
    3
 10
231.8265543564103
 20
97.86894317538902
 11
232.14399235641022
 21
97.55644317538902
  0
LINE
  8
_1-0_
  6
CONTINUOUS
 62
    3
 10
231.74349235641026
 20
97.55644317538902
 11
231.8265543564103
 21
97.86894317538902
  0
LINE
  8
_1-0_
  6
CONTINUOUS
 62
    3
 10
232.44661735641026
 20
95.68144317538902
 11
231.74349235641026
 21
97.55644317538902
  0
LINE
  8
_1-0_
  6

 62
    3
 10
223.2640543564103
 20
94.532618175389032
 11
222.7640543564103
 21
94.24394317538902
  0
LINE
  8
_1-0_
  6

 62
    3
 10
222.7640543564103
 20
98.99394317538902
 11
223.2640543564103
 21
98.705268175389008
  0
LINE
  8
_1-0_
  6
CONTINUOUS
 62
    3
 10
235.76405435641018
 20
96.61894317538902
 11
232.7640543564103
 21
97.55644317538902
  0
LINE
  8
_1-0_
  6
CONTINUOUS
 62
    3
 10
234.82655435641018
 20
97.55644317538902
 11
232.7640543564103
 21
97.55644317538902
  0
LINE
  8
_1-0_
  6
CONTINUOUS
 62
    3
 10
234.82655435641018
 20
95.68144317538902
 11
232.84711735641022
 21
95.68144317538902
  0
LINE
  8
_1-0_
  6
CONTINUOUS
 62
    3
 10
235.76405435641018
 20
96.61894317538902
 11
234.82655435641018
 21
97.55644317538902
  0
LINE
  8
_1-0_
  6
CONTINUOUS
 62
    3
 10
234.82655435641018
 20
95.68144317538902
 11
235.76405435641018
 21
96.61894317538902
  0
LINE
  8
_1-0_
  6
CONTINUOUS
 62
    3
 10
234.82655435641018
 20
95.68144317538902
 11
234.82655435641018
 21
96.911911175388994
  0
LINE
  8
_1-0_
  6
CONTINUOUS
 62
    3
 10
232.7640543564103
 20
97.86894317538902
 11
232.44661735641026
 21
97.55644317538902
  0
LINE
  8
_1-0_
  6
CONTINUOUS
 62
    3
 10
232.84711735641022
 20
97.55644317538902
 11
232.7640543564103
 21
97.86894317538902
  0
LINE
  8
_1-0_
  6
CONTINUOUS
 62
    3
 10
231.8265543564103
 20
95.36894317538902
 11
231.50911735641026
 21
95.68144317538902
  0
LINE
  8
_1-0_
  6
CONTINUOUS
 62
    3
 10
231.90961735641022
 20
95.68144317538902
 11
231.8265543564103
 21
95.36894317538902
  0
LINE
  8
_1-0_
  6
CONTINUOUS
 62
    3
 10
232.44661735641026
 20
95.68144317538902
 11
231.90961735641022
 21
95.68144317538902
  0
LINE
  8
_1-0_
  6
CONTINUOUS
 62
    3
 10
232.14399235641022
 20
97.55644317538902
 11
232.7640543564103
 21
97.55644317538902
  0
LINE
  8
_1-0_
  6
CONTINUOUS
 62
    3
 10
231.20649235641022
 20
97.55644317538902
 11
231.74349235641026
 21
97.55644317538902
  0
LINE
  8
_1-0_
  6
CONTINUOUS
 62
    3
 10
229.33149235641022
 20
97.55644317538902
 11
229.86849235641026
 21
97.55644317538902
  0
LINE
  8
_1-0_
  6
CONTINUOUS
 62
    3
 10
230.57161735641026
 20
95.68144317538902
 11
230.03461735641022
 21
95.68144317538902
  0
LINE
  8
_1-0_
  6
CONTINUOUS
 62
    3
 10
230.26899235641022
 20
97.55644317538902
 11
230.80599235641026
 21
97.55644317538902
  0
LINE
  8
_1-0_
  6
CONTINUOUS
 62
    3
 10
230.97211735641022
 20
95.68144317538902
 11
231.50911735641026
 21
95.68144317538902
  0
LINE
  8
_1-0_
  6

 62
    3
 10
222.7640543564103
 20
94.24394317538902
 11
222.7640543564103
 21
98.99394317538902
  0
LINE
  8
_1-0_
  6
CONTINUOUS
 62
    3
 10
230.8890543564103
 20
95.36894317538902
 11
230.57161735641026
 21
95.68144317538902
  0
LINE
  8
_1-0_
  6
CONTINUOUS
 62
    3
 10
230.97211735641022
 20
95.68144317538902
 11
230.8890543564103
 21
95.36894317538902
  0
LINE
  8
_1-0_
  6
CONTINUOUS
 62
    3
 10
232.7640543564103
 20
95.36894317538902
 11
232.44661735641026
 21
95.68144317538902
  0
LINE
  8
_1-0_
  6
CONTINUOUS
 62
    3
 10
232.84711735641022
 20
95.68144317538902
 11
232.7640543564103
 21
95.36894317538902
  0
LINE
  8
_1-0_
  6

 62
    3
 10
222.16263435641022
 20
94.462842175388985
 11
222.7640543564103
 21
94.24394317538902
  0
LINE
  8
_1-0_
  6

 62
    3
 10
222.16263435641022
 20
98.775044175389056
 11
222.7640543564103
 21
98.99394317538902
  0
LINE
  8
_1-0_
  6
CONTINUOUS
 62
    3
 10
229.09711735641022
 20
95.68144317538902
 11
228.91432535641027
 21
96.168886175389005
  0
LINE
  8
_1-0_
  6
CONTINUOUS
 62
    3
 10
229.0140543564103
 20
95.36894317538902
 11
228.91432535641027
 21
95.467120175389098
  0
LINE
  8
_1-0_
  6

 62
    3
 10
226.28461735641022
 20
95.68144317538902
 11
226.2015543564103
 21
95.36894317538902
  0
LINE
  8
_1-0_
  6

 62
    3
 10
225.58149235641022
 20
97.55644317538902
 11
226.28461735641022
 21
95.68144317538902
  0
LINE
  8
_1-0_
  6

 62
    3
 10
225.2640543564103
 20
97.86894317538902
 11
225.58149235641022
 21
97.55644317538902
  0
LINE
  8
_1-0_
  6

 62
    3
 10
225.18099235641026
 20
97.55644317538902
 11
225.2640543564103
 21
97.86894317538902
  0
LINE
  8
_1-0_
  6

 62
    3
 10
225.88411735641026
 20
95.68144317538902
 11
225.18099235641026
 21
97.55644317538902
  0
LINE
  8
_1-0_
  6

 62
    3
 10
227.75911735641026
 20
95.68144317538902
 11
227.22211735641022
 21
95.68144317538902
  0
LINE
  8
_1-0_
  6

 62
    3
 10
227.1390543564103
 20
95.36894317538902
 11
226.82161735641026
 21
95.68144317538902
  0
LINE
  8
_1-0_
  6

 62
    3
 10
227.22211735641022
 20
95.68144317538902
 11
227.1390543564103
 21
95.36894317538902
  0
LINE
  8
_1-0_
  6

 62
    3
 10
226.51899235641022
 20
97.55644317538902
 11
227.22211735641022
 21
95.68144317538902
  0
LINE
  8
_1-0_
  6

 62
    3
 10
226.2015543564103
 20
97.86894317538902
 11
226.51899235641022
 21
97.55644317538902
  0
LINE
  8
_1-0_
  6

 62
    3
 10
226.11849235641026
 20
97.55644317538902
 11
226.2015543564103
 21
97.86894317538902
  0
LINE
  8
_1-0_
  6

 62
    3
 10
226.82161735641026
 20
95.68144317538902
 11
226.11849235641026
 21
97.55644317538902
  0
LINE
  8
_1-0_
  6

 62
    3
 10
228.69661735641026
 20
95.68144317538902
 11
228.15961735641022
 21
95.68144317538902
  0
LINE
  8
_1-0_
  6

 62
    3
 10
228.0765543564103
 20
95.36894317538902
 11
227.75911735641026
 21
95.68144317538902
  0
LINE
  8
_1-0_
  6

 62
    3
 10
228.15961735641022
 20
95.68144317538902
 11
228.0765543564103
 21
95.36894317538902
  0
LINE
  8
_1-0_
  6

 62
    3
 10
227.45649235641022
 20
97.55644317538902
 11
228.15961735641022
 21
95.68144317538902
  0
LINE
  8
_1-0_
  6

 62
    3
 10
227.1390543564103
 20
97.86894317538902
 11
227.45649235641022
 21
97.55644317538902
  0
LINE
  8
_1-0_
  6

 62
    3
 10
227.05599235641026
 20
97.55644317538902
 11
227.1390543564103
 21
97.86894317538902
  0
LINE
  8
_1-0_
  6

 62
    3
 10
227.75911735641026
 20
95.68144317538902
 11
227.05599235641026
 21
97.55644317538902
  0
LINE
  8
_1-0_
  6
CONTINUOUS
 62
    3
 10
229.09711735641022
 20
95.68144317538902
 11
229.0140543564103
 21
95.36894317538902
  0
LINE
  8
_1-0_
  6

 62
    3
 10
228.69661735641026
 20
95.68144317538902
 11
228.91432535641027
 21
95.467120175389098
  0
LINE
  8
_1-0_
  6

 62
    3
 10
228.39399235641022
 20
97.55644317538902
 11
228.91432535641027
 21
96.168886175389005
  0
LINE
  8
_1-0_
  6

 62
    3
 10
228.0765543564103
 20
97.86894317538902
 11
228.39399235641022
 21
97.55644317538902
  0
LINE
  8
_1-0_
  6

 62
    3
 10
227.99349235641026
 20
97.55644317538902
 11
228.0765543564103
 21
97.86894317538902
  0
LINE
  8
_1-0_
  6

 62
    3
 10
228.69661735641026
 20
95.68144317538902
 11
227.99349235641026
 21
97.55644317538902
  0
LINE
  8
_1-0_
  6
CONTINUOUS
 62
    3
 10
230.03461735641022
 20
95.68144317538902
 11
229.9515543564103
 21
95.36894317538902
  0
LINE
  8
_1-0_
  6
CONTINUOUS
 62
    3
 10
229.33149235641022
 20
97.55644317538902
 11
230.03461735641022
 21
95.68144317538902
  0
LINE
  8
_1-0_
  6
CONTINUOUS
 62
    3
 10
229.0140543564103
 20
97.86894317538902
 11
229.33149235641022
 21
97.55644317538902
  0
LINE
  8
_1-0_
  6
CONTINUOUS
 62
    3
 10
228.93099235641026
 20
97.55644317538902
 11
229.0140543564103
 21
97.86894317538902
  0
LINE
  8
_1-0_
  6
CONTINUOUS
 62
    3
 10
229.63411735641026
 20
95.68144317538902
 11
229.09711735641022
 21
95.68144317538902
  0
LINE
  8
_1-0_
  6

 62
    3
 10
228.39399235641022
 20
97.55644317538902
 11
228.93099235641026
 21
97.55644317538902
  0
LINE
  8
_1-0_
  6
CONTINUOUS
 62
    3
 10
229.9515543564103
 20
95.36894317538902
 11
229.63411735641026
 21
95.68144317538902
  0
LINE
  8
_1-0_
  6
CONTINUOUS
 62
    3
 10
229.63411735641026
 20
95.68144317538902
 11
228.93099235641026
 21
97.55644317538902
  0
LINE
  8
_1-0_
  6

 62
    3
 10
224.64399235641022
 20
95.68144317538902
 11
224.94661735641026
 21
95.68144317538902
  0
LINE
  8
_1-0_
  6

 62
    3
 10
227.45649235641022
 20
97.55644317538902
 11
227.99349235641026
 21
97.55644317538902
  0
LINE
  8
_1-0_
  6

 62
    3
 10
226.51899235641022
 20
97.55644317538902
 11
227.05599235641026
 21
97.55644317538902
  0
LINE
  8
_1-0_
  6

 62
    3
 10
225.58149235641022
 20
97.55644317538902
 11
226.11849235641026
 21
97.55644317538902
  0
LINE
  8
_1-0_
  6

 62
    3
 10
224.64399235641022
 20
97.55644317538902
 11
225.18099235641026
 21
97.55644317538902
  0
LINE
  8
_1-0_
  6

 62
    3
 10
223.2640543564103
 20
97.55644317538902
 11
224.24349235641026
 21
97.55644317538902
  0
LINE
  8
_1-0_
  6

 62
    3
 10
223.2640543564103
 20
95.68144317538902
 11
224.24349235641026
 21
95.68144317538902
  0
ARC
  8
_1-0_
  6

 62
    3
 10
226.57536035641024
 20
96.61894317538902
 40
4.9113059999999997
 50
153.95941400000001
 51
206.04058599999999
  0
LINE
  8
_1-0_
  6
CONTINUOUS
 62
    3
 10
232.7640543564103
 20
97.55644317538902
 11
232.7640543564103
 21
95.902943175388899
  0
LINE
  8
_1-0_
  6
CONTINUOUS
 62
    3
 10
231.20649235641022
 20
97.55644317538902
 11
231.90961735641022
 21
95.68144317538902
  0
LINE
  8
_1-0_
  6
CONTINUOUS
 62
    3
 10
230.8890543564103
 20
97.86894317538902
 11
231.20649235641022
 21
97.55644317538902
  0
LINE
  8
_1-0_
  6
CONTINUOUS
 62
    3
 10
230.80599235641026
 20
97.55644317538902
 11
230.8890543564103
 21
97.86894317538902
  0
LINE
  8
_1-0_
  6
CONTINUOUS
 62
    3
 10
231.50911735641026
 20
95.68144317538902
 11
230.80599235641026
 21
97.55644317538902
  0
LINE
  8
_1-0_
  6
CONTINUOUS
 62
    3
 10
230.26899235641022
 20
97.55644317538902
 11
230.97211735641022
 21
95.68144317538902
  0
LINE
  8
_1-0_
  6
CONTINUOUS
 62
    3
 10
229.9515543564103
 20
97.86894317538902
 11
230.26899235641022
 21
97.55644317538902
  0
LINE
  8
_1-0_
  6
CONTINUOUS
 62
    3
 10
229.86849235641026
 20
97.55644317538902
 11
229.9515543564103
 21
97.86894317538902
  0
LINE
  8
_1-0_
  6
CONTINUOUS
 62
    3
 10
230.57161735641026
 20
95.68144317538902
 11
229.86849235641026
 21
97.55644317538902
  0
LINE
  8
_1-0_
  6
CONTINUOUS
 62
    3
 10
232.14399235641022
 20
97.55644317538902
 11
232.84711735641022
 21
95.68144317538902
  0
LINE
  8
_1-0_
  6

 62
    3
 10
224.5609293564103
 20
95.36894317538902
 11
224.24349235641026
 21
95.68144317538902
  0
LINE
  8
_1-0_
  6

 62
    3
 10
224.64399235641022
 20
95.68144317538902
 11
224.5609293564103
 21
95.36894317538902
  0
LINE
  8
_1-0_
  6

 62
    3
 10
224.24349235641026
 20
95.68144317538902
 11
224.24349235641026
 21
97.55644317538902
  0
LINE
  8
_1-0_
  6

 62
    3
 10
225.88411735641026
 20
95.68144317538902
 11
225.34711735641022
 21
95.68144317538902
  0
LINE
  8
_1-0_
  6

 62
    3
 10
225.2640543564103
 20
95.36894317538902
 11
224.94661735641026
 21
95.68144317538902
  0
LINE
  8
_1-0_
  6

 62
    3
 10
225.34711735641022
 20
95.68144317538902
 11
225.2640543564103
 21
95.36894317538902
  0
LINE
  8
_1-0_
  6

 62
    3
 10
224.64399235641022
 20
97.55644317538902
 11
225.34711735641022
 21
95.68144317538902
  0
LINE
  8
_1-0_
  6

 62
    3
 10
224.3265543564103
 20
97.86894317538902
 11
224.64399235641022
 21
97.55644317538902
  0
LINE
  8
_1-0_
  6

 62
    3
 10
224.24349235641026
 20
97.55644317538902
 11
224.3265543564103
 21
97.86894317538902
  0
LINE
  8
_1-0_
  6

 62
    3
 10
224.94661735641026
 20
95.68144317538902
 11
224.24349235641026
 21
97.55644317538902
  0
LINE
  8
_1-0_
  6

 62
    3
 10
226.82161735641026
 20
95.68144317538902
 11
226.28461735641022
 21
95.68144317538902
  0
LINE
  8
_1-0_
  6

 62
    3
 10
226.2015543564103
 20
95.36894317538902
 11
225.88411735641026
 21
95.68144317538902
  0
LINE
  8
_1-0_
  6
CONTINUOUS
 62
    7
 10
227.91421532781501
 20
123.40220210327716
 11
237.30727112992477
 21
132.79525790538702
  0
LINE
  8
_1-0_
  6
CONTINUOUS
 62
    3
 10
287.91432535641025
 20
204.01359216698626
 11
287.91432535641025
 21
57.187035692500388
  0
LINE
  8
_1-0_
  6
CONTINUOUS
 62
    3
 10
282.91432535641025
 20
204.01359216698626
 11
282.91432535641025
 21
57.187035692500388
  0
LINE
  8
_1-0_
  6

 62
    3
 10
223.2640543564103
 20
204.01359216698626
 11
223.2640543564103
 21
57.187035692500388
  0
LINE
  8
_1-0_
  6
CONTINUOUS
 62
    3
 10
227.91420935641023
 20
203.99221816698633
 11
227.91426984531697
 21
57.187035692500388
  0
LINE
  8
_1-0_
  6
CONTINUOUS
 62
    7
 10
209.16426250045848
 20
75.012833968605264
 11
209.16426984531537
 21
57.187035692500388
  0
CIRCLE
  8
_1-0_
  6
CONTINUOUS
 62
    3
 10
312.91432535641025
 20
151.82623419533417
 40
0.5999999999999999
  0
LINE
  8
_1-0_
  6
CONTINUOUS
 62
    3
 10
279.91432535641025
 20
151.82623419533417
 11
316.91432535641025
 21
151.82623419533417
  0
CIRCLE
  8
_1-0_
  6
CONTINUOUS
 62
    3
 10
312.91432535641025
 20
84.11894317538902
 40
0.5999999999999999
  0
LINE
  8
_1-0_
  6
CONTINUOUS
 62
    3
 10
279.91432535641025
 20
84.11894317538902
 11
316.91432535641025
 21
84.11894317538902
  0
LINE
  8
_1-0_
  6
CONTINUOUS
 62
    3
 10
312.91432535641025
 20
151.82623419533417
 11
312.91432535641025
 21
84.11894317538902
  0
CIRCLE
  8
_1-0_
  6
CONTINUOUS
 62
    3
 10
277.91432535641025
 20
40.060127528946452
 40
0.5999999999999999
  0
CIRCLE
  8
_1-0_
  6
CONTINUOUS
 62
    3
 10
227.91431235641019
 20
40.060127528946452
 40
0.5999999999999999
  0
LINE
  8
_1-0_
  6
CONTINUOUS
 62
    3
 10
227.91431235641019
 20
40.060127528946452
 11
277.91432535641025
 21
40.060127528946452
  0
LINE
  8
_1-0_
  6
CONTINUOUS
 62
    3
 10
282.91432535641025
 20
40.060127528946452
 11
299.21353835641025
 21
40.060127528946452
  0
CIRCLE
  8
_1-0_
  6
CONTINUOUS
 62
    3
 10
282.91432535641025
 20
40.060127528946452
 40
0.5999999999999999
  0
CIRCLE
  8
_1-0_
  6
CONTINUOUS
 62
    3
 10
277.91432535641025
 20
40.060127528946452
 40
0.5999999999999999
  0
LINE
  8
_1-0_
  6
CONTINUOUS
 62
    3
 10
282.91432535641025
 20
53.060127528946452
 11
282.91432535641025
 21
40.060127528946452
  0
LINE
  8
_1-0_
  6
CONTINUOUS
 62
    3
 10
277.91432535641025
 20
65.360186528946372
 11
277.91432535641025
 21
40.060127528946452
  0
LINE
  8
_1-0_
  6
CONTINUOUS
 62
    3
 10
277.91432535641025
 20
40.060127528946452
 11
282.91432535641025
 21
40.060127528946452
  0
CIRCLE
  8
_1-0_
  6
CONTINUOUS
 62
    3
 10
227.91429035641025
 20
40.060127528946452
 40
0.5999999999999999
  0
LINE
  8
_1-0_
  6
CONTINUOUS
 62
    3
 10
227.91429035641025
 20
53.060127528946452
 11
227.91429035641025
 21
40.060127528946452
  0
TEXT
  8
_1-0_
 62
    2
 10
307.91332213748535
 20
254.5663014405896
 40
6.1999999999999886
 41
1.0000000000000018
 50
0
  1
90
  0
TEXT
  8
_1-0_
 62
    2
 10
324.91332213748535
 20
254.5663014405896
 40
6.1999999999999886
 41
1.0000000000000018
 50
0
  1
95
  0
TEXT
  8
_1-0_
 62
    2
 10
340.13832213748532
 20
254.5663014405896
 40
6.1999999999999886
 41
1.0000000000000018
 50
0
  1
120
  0
TEXT
  8
_1-0_
 62
    7
 10
202.53566693814287
 20
246.04130144058962
 40
5.4000000000000057
 41
0.999999999999999
 50
0
  1
開口率(％)
  0
TEXT
  8
_1-0_
 62
    2
 10
236.36332213748531
 20
245.64130144058964
 40
6.1999999999999886
 41
1.0000000000000018
 50
0
  1
60.0
  0
TEXT
  8
_1-0_
 62
    2
 10
253.36332213748531
 20
245.64130144058964
 40
6.1999999999999886
 41
1.0000000000000018
 50
0
  1
62.5
  0
TEXT
  8
_1-0_
 62
    2
 10
270.36332213748528
 20
245.64130144058964
 40
6.1999999999999886
 41
1.0000000000000018
 50
0
  1
66.7
  0
TEXT
  8
_1-0_
 62
    2
 10
287.36332213748528
 20
245.64130144058964
 40
6.1999999999999886
 41
1.0000000000000018
 50
0
  1
70.0
  0
LINE
  8
_1-0_
  6
CONTINUOUS
 62
    3
 10
302.73832213748528
 20
271.05380144058955
 11
302.73832213748528
 21
244.27880144058969
  0
LINE
  8
_1-0_
  6
CONTINUOUS
 62
    3
 10
285.73832213748528
 20
271.05380144058955
 11
285.73832213748528
 21
244.27880144058969
  0
LINE
  8
_1-0_
  6
CONTINUOUS
 62
    7
 10
319.73832213748528
 20
271.05380144058955
 11
319.73832213748528
 21
244.27880144058969
  0
LINE
  8
_1-0_
  6
CONTINUOUS
 62
    3
 10
336.73832213748528
 20
271.05380144058955
 11
336.73832213748528
 21
244.27880144058969
  0
LINE
  8
_1-0_
  6
CONTINUOUS
 62
    3
 10
319.73832213748528
 20
271.05380144058955
 11
319.73832213748528
 21
244.27880144058969
  0
LINE
  8
_1-0_
  6
CONTINUOUS
 62
    7
 10
353.73832213748528
 20
271.05380144058955
 11
353.73832213748528
 21
244.27880144058969
  0
LINE
  8
_1-0_
  6
CONTINUOUS
 62
    7
 10
200.93301173880039
 20
271.05380144058955
 11
353.73832213748528
 21
271.05380144058955
  0
LINE
  8
_1-0_
  6
CONTINUOUS
 62
    7
 10
200.93301173880039
 20
262.1288014405896
 11
353.73832213748528
 21
262.1288014405896
  0
LINE
  8
_1-0_
  6
CONTINUOUS
 62
    7
 10
200.93301173880039
 20
253.20380144058964
 11
353.73832213748528
 21
253.20380144058964
  0
LINE
  8
_1-0_
  6
CONTINUOUS
 62
    7
 10
200.93301173880039
 20
244.27880144058969
 11
353.73832213748528
 21
244.27880144058969
  0
TEXT
  8
_1-0_
 62
    2
 10
304.36332213748528
 20
245.64130144058964
 40
6.1999999999999886
 41
1.0000000000000018
 50
0
  1
75.0
  0
TEXT
  8
_1-0_
 62
    2
 10
321.36332213748528
 20
245.64130144058964
 40
6.1999999999999886
 41
1.0000000000000018
 50
0
  1
76.0
  0
TEXT
  8
_1-0_
 62
    2
 10
338.36332213748528
 20
245.64130144058964
 40
6.1999999999999886
 41
1.0000000000000018
 50
0
  1
80.0
  0
TEXT
  8
_1-0_
 62
    7
 10
210.92004599032308
 20
223.92136588655632
 40
5.4000000000000057
 41
0.999999999999999
 50
0
  1
角パネル
  0
TEXT
  8
_1-0_
 62
    7
 10
211.32106980392552
 20
216.17201515176617
 40
5.4000000000000057
 41
0.999999999999999
 50
0
  1
LKP3075
  0
TEXT
  8
_1-0_
 62
    7
 10
235.63530791965712
 20
208.75231396556075
 40
5.4000000000000057
 41
0.999999999999999
 50
0
  1
SUSトップタップ6×35
  0
TEXT
  8
_1-0_
 62
    7
 10
164.59523480448584
 20
190.35068282409719
 40
5.4000000000000021
 41
0.9999999999999996
 50
90
  1
30
  0
TEXT
  8
_1-0_
 62
    7
 10
164.59523070170385
 20
152.85068282409537
 40
5.4000000000000021
 41
0.9999999999999996
 50
90
  1
30
  0
TEXT
  8
_1-0_
 62
    7
 10
232.93956223821706
 20
133.34952980522991
 40
5.4000000000000021
 41
0.9999999999999996
 50
0
  1
ストリンガー LST
  0
TEXT
  8
_1-0_
 62
    7
 10
164.59522659892187
 20
115.35068282409354
 40
5.4000000000000021
 41
0.9999999999999996
 50
90
  1
30
  0
TEXT
  8
_1-0_
 62
    7
 10
311.97498826016977
 20
83.854422186389968
 40
5.4000000000000146
 41
0.9999999999999972
 50
90.000002999999992
  1
ストリンガー固定ピッチ
  0
TEXT
  8
_1-0_
 62
    7
 10
164.59522249613988
 20
77.850682824091734
 40
5.4000000000000021
 41
0.9999999999999996
 50
90
  1
30
  0
TEXT
  8
_1-0_
 62
    7
 10
244.01430785641026
 20
40.860127528946464
 40
5.4000000000000057
 41
0.999999999999999
 50
0
  1
１００
  0
TEXT
  8
_1-0_
 62
    7
 10
285.26393185641018
 20
40.860127528946464
 40
5.4000000000000057
 41
0.999999999999999
 50
0
  1
１０
  0
TEXT
  8
_1-0_
 62
    7
 10
185.36518435830138
 20
40.560649574253205
 40
5.4000000000000057
 41
0.999999999999999
 50
0
  1
１１２．５
  0
LINE
  8
_1-0_
  6
CONTINUOUS
 62
    7
 10
237.30727112992477
 20
132.79525790538702
 11
280.91432535641025
 21
132.79525790538702
  0
LINE
  8
_1-0_
  6
CONTINUOUS
 62
    7
 10
236.39230334515869
 20
208.25231396556075
 11
296.4783124941556
 21
208.25231396556075
  0
TEXT
  8
_1-0_
 62
    7
 10
111.61873335168434
 20
-2.2492880428696935
 40
5.4000000000000057
 41
0.999999999999999
 50
0
  1
角パネル
  0
TEXT
  8
_1-0_
 62
    7
 10
110.84024407137611
 20
-11.040824390651892
 40
5.4000000000000057
 41
0.999999999999999
 50
0
  1
LKP3075
  0
TEXT
  8
_1-0_
 62
    7
 10
342.51785131719384
 20
-15.947328870898787
 40
5.4000000000000057
 41
0.999999999999999
 50
0
  1
角パネル
  0
LINE
  8
_1-0_
  6
CONTINUOUS
 62
    7
 10
209.16421140780292
 20
200.76318282408016
 11
209.16421140780292
 21
200.19277151860121
  0
LINE
  8
_1-0_
  6
CONTINUOUS
 62
    7
 10
209.16421140779758
 20
185.76318282408016
 11
209.16421140779792
 21
186.3335941296462
  0
LINE
  8
_1-0_
  6
CONTINUOUS
 62
    9
 10
206.62891616907874
 20
188.19216428037709
 11
209.16421140780304
 21
187.51283396858418
  0
LINE
  8
_1-0_
  6
CONTINUOUS
 62
    9
 10
207.26421140780295
 20
193.27568282380508
 11
207.26421140780295
 21
188.02193743420486
  0
LINE
  8
_1-0_
  6
CONTINUOUS
 62
    9
 10
206.62891616907862
 20
198.33420136723322
 11
209.16421140780292
 21
199.0135316790259
  0
LINE
  8
_1-0_
  6
CONTINUOUS
 62
    9
 10
207.26421140780295
 20
193.27568282380508
 11
207.26421140780295
 21
198.50442821340545
  0
LINE
  8
_1-0_
  6
CONTINUOUS
 62
    7
 10
209.16421140780292
 20
200.75068282408012
 11
209.16421140780292
 21
200.18027151860116
  0
LINE
  8
_1-0_
  6
CONTINUOUS
 62
    7
 10
184.16421140780827
 20
200.75068282409808
 11
209.16421140780281
 21
200.75068282408012
  0
LINE
  8
_1-0_
  6
CONTINUOUS
 62
    7
 10
209.16421140779758
 20
185.75068282408012
 11
209.16421140779804
 21
186.32109412964616
  0
LINE
  8
_1-0_
  6
CONTINUOUS
 62
    7
 10
184.16421140780281
 20
185.75068282409808
 11
209.16421140779758
 21
185.75068282408034
  0
LINE
  8
_1-0_
  6
CONTINUOUS
 62
    7
 10
206.58997320126437
 20
187.3678343141392
 11
208.99401940439375
 21
186.55801327973637
  0
ARC
  8
_1-0_
  6
CONTINUOUS
 62
    7
 10
208.91421140779792
 20
186.32109412964638
 40
0.25
 50
0
 51
71.383514957200816
  0
LINE
  8
_1-0_
  6
CONTINUOUS
 62
    7
 10
206.58997320125778
 20
199.13353133410584
 11
208.99401940438625
 21
199.9433523685114
  0
ARC
  8
_1-0_
  6
CONTINUOUS
 62
    7
 10
208.9142114077903
 20
200.18027151860116
 40
0.25
 50
288.61648504286279
 51
0.0000000000000254
  0
LINE
  8
_1-0_
  6
CONTINUOUS
 62
    7
 10
209.16421140780281
 20
203.99221044132656
 11
209.1642134591938
 21
199.01353167902681
  0
LINE
  8
_1-0_
  6
CONTINUOUS
 62
    7
 10
209.16421140780281
 20
200.76318282408016
 11
209.16421140780281
 21
200.19277151860121
  0
LINE
  8
_1-0_
  6
CONTINUOUS
 62
    7
 10
209.16421140779747
 20
185.76318282408016
 11
209.16421140779781
 21
186.3335941296462
  0
LINE
  8
_1-0_
  6
CONTINUOUS
 62
    9
 10
206.62891616907862
 20
188.19216428037709
 11
209.16421140780292
 21
187.51283396858418
  0
LINE
  8
_1-0_
  6
CONTINUOUS
 62
    9
 10
206.62891616907851
 20
198.33420136723322
 11
209.16421140780281
 21
199.0135316790259
  0
LINE
  8
_1-0_
  6
CONTINUOUS
 62
    7
 10
209.16421140780281
 20
200.75068282408012
 11
209.16421140780281
 21
200.18027151860116
  0
LINE
  8
_1-0_
  6
CONTINUOUS
 62
    7
 10
184.16421140780815
 20
200.75068282409808
 11
209.1642114078027
 21
200.75068282408012
  0
LINE
  8
_1-0_
  6
CONTINUOUS
 62
    7
 10
209.16421140779747
 20
185.75068282408012
 11
209.16421140779792
 21
186.32109412964616
  0
LINE
  8
_1-0_
  6
CONTINUOUS
 62
    7
 10
184.1642114078027
 20
185.75068282409808
 11
209.16421140779747
 21
185.75068282408034
  0
LINE
  8
_1-0_
  6
CONTINUOUS
 62
    7
 10
206.58997320126426
 20
187.3678343141392
 11
208.99401940439364
 21
186.55801327973637
  0
ARC
  8
_1-0_
  6
CONTINUOUS
 62
    7
 10
208.91421140779781
 20
186.32109412964638
 40
0.25
 50
0
 51
71.383514957200816
  0
LINE
  8
_1-0_
  6
CONTINUOUS
 62
    7
 10
206.58997320125766
 20
199.13353133410584
 11
208.99401940438614
 21
199.9433523685114
  0
ARC
  8
_1-0_
  6
CONTINUOUS
 62
    7
 10
208.91421140779019
 20
200.18027151860116
 40
0.25
 50
288.61648504286279
 51
0.0000000000000254
  0
LINE
  8
_1-0_
  6
CONTINUOUS
 62
    7
 10
172.26421140780818
 20
200.16318282381525
 11
188.5642114078029
 21
200.16318282380468
  0
ARC
  8
_1-0_
  6
CONTINUOUS
 62
    7
 10
208.91421140779792
 20
186.33356704960494
 40
0.25
 50
0
 51
71.391701985071677
  0
ARC
  8
_1-0_
  6
CONTINUOUS
 62
    7
 10
208.91421140780292
 20
200.19279859798968
 40
0.25
 50
288.60829801488717
 51
0.0000000000000254
  0
ARC
  8
_1-0_
  6
CONTINUOUS
 62
    7
 10
188.31421140780176
 20
191.53329843460375
 40
0.25
 50
359.99999999995896
 51
117.48642625033941
  0
ARC
  8
_1-0_
  6
CONTINUOUS
 62
    7
 10
172.74661190181635
 20
191.4310226507651
 40
0.25
 50
69.97935458678981
 51
177.37733279537682
  0
LINE
  8
_1-0_
  6
CONTINUOUS
 62
    7
 10
172.26421140780306
 20
186.36318282381507
 11
172.4968737655087
 21
191.44246219943074
  0
ARC
  8
_1-0_
  6
CONTINUOUS
 62
    7
 10
173.41421140770083
 20
193.2631828238238
 40
1.7
 50
249.97935458678847
 51
312.21529054450031
  0
ARC
  8
_1-0_
  6
CONTINUOUS
 62
    7
 10
174.28921140769981
 20
192.29870964501703
 40
0.3977582741150607
 50
312.2152905445007
 51
120.00000000002743
  0
LINE
  8
_1-0_
  6
CONTINUOUS
 62
    7
 10
173.41421140770129
 20
192.25281985274188
 11
172.53921140770117
 21
192.75800133828221
  0
LINE
  8
_1-0_
  6
CONTINUOUS
 62
    7
 10
172.53921140770129
 20
192.75800133828267
 11
172.53921140770106
 21
193.26318282381493
  0
LINE
  8
_1-0_
  6
CONTINUOUS
 62
    7
 10
174.09033227064211
 20
192.64317841496603
 11
173.41421140770129
 21
192.25281985274188
  0
ARC
  8
_1-0_
  6
CONTINUOUS
 62
    7
 10
187.41421140780292
 20
193.26318282380493
 40
1.7
 50
227.78470945541761
 51
297.48642625034063
  0
ARC
  8
_1-0_
  6
CONTINUOUS
 62
    7
 10
186.53921140780258
 20
192.29870964499929
 40
0.3977582741150607
 50
59.99999999989042
 51
227.78470945541724
  0
LINE
  8
_1-0_
  6
CONTINUOUS
 62
    7
 10
187.4142114078011
 20
192.25281985272301
 11
188.28921140780201
 21
192.7580013382622
  0
LINE
  8
_1-0_
  6
CONTINUOUS
 62
    7
 10
188.2892114078019
 20
192.7580013382622
 11
188.28921140780292
 21
193.26318282380458
  0
LINE
  8
_1-0_
  6
CONTINUOUS
 62
    7
 10
186.73809054486074
 20
192.64317841494795
 11
187.41421140780088
 21
192.25281985272312
  0
LINE
  8
_1-0_
  6
CONTINUOUS
 62
    7
 10
172.26421140780329
 20
186.36318282381495
 11
188.5642114077979
 21
186.36318282380449
  0
LINE
  8
_1-0_
  6
CONTINUOUS
 62
    7
 10
189.16421140779792
 20
186.36318282380438
 11
205.5642114077979
 21
186.36318282379858
  0
LINE
  8
_1-0_
  6
CONTINUOUS
 62
    7
 10
188.56421140780176
 20
191.53329843460352
 11
188.56421140779801
 21
186.36318282380472
  0
LINE
  8
_1-0_
  6
CONTINUOUS
 62
    7
 10
189.16421140780292
 20
193.26318282380447
 11
189.16421140779804
 21
186.36318282380438
  0
LINE
  8
_1-0_
  6
CONTINUOUS
 62
    7
 10
205.56421140779801
 20
186.36318282379847
 11
205.76421140779829
 21
186.5631828237984
  0
LINE
  8
_1-0_
  6
CONTINUOUS
 62
    7
 10
205.76421140779817
 20
186.5631828237984
 11
206.31299502074151
 21
186.56318282379817
  0
LINE
  8
_1-0_
  6
CONTINUOUS
 62
    7
 10
171.66421140780292
 20
185.76318282381516
 11
209.16421140779758
 21
185.76318282379731
  0
LINE
  8
_1-0_
  6
CONTINUOUS
 62
    7
 10
206.58873650160913
 20
187.38034115469219
 11
208.99398555006169
 21
186.57049760108788
  0
LINE
  8
_1-0_
  6
CONTINUOUS
 62
    7
 10
206.39183623789953
 20
187.25516330586748
 11
206.31299502074162
 21
186.56318282379817
  0
ARC
  8
_1-0_
  6
CONTINUOUS
 62
    7
 10
206.54087201625092
 20
187.23818282380245
 40
0.1499999999999999
 50
71.391701985072046
 51
173.49999999996072
  0
LINE
  8
_1-0_
  6
CONTINUOUS
 62
    7
 10
171.66421140780827
 20
193.26318282381527
 11
171.66421140780292
 21
185.76318282381527
  0
LINE
  8
_1-0_
  6
CONTINUOUS
 62
    7
 10
209.16421140779758
 20
185.76318282379719
 11
209.16421140779804
 21
186.3335670496046
  0
ARC
  8
_1-0_
  6
CONTINUOUS
 62
    7
 10
188.3142114078029
 20
194.99306721300565
 40
0.25
 50
242.51357374961941
 51
0
  0
ARC
  8
_1-0_
  6
CONTINUOUS
 62
    7
 10
172.7466119018176
 20
195.0953429968643
 40
0.25
 50
182.62266720458211
 51
290.02064541316906
  0
LINE
  8
_1-0_
  6
CONTINUOUS
 62
    7
 10
172.26421140780818
 20
200.16318282381525
 11
172.49687376551006
 21
195.08390344819924
  0
ARC
  8
_1-0_
  6
CONTINUOUS
 62
    7
 10
173.41421140770083
 20
193.26318282380504
 40
1.7
 50
47.784709455458739
 51
110.02064541317044
  0
ARC
  8
_1-0_
  6
CONTINUOUS
 62
    7
 10
174.28921140770049
 20
194.22765600261124
 40
0.3977582741150607
 50
239.99999999993153
 51
47.784709455458312
  0
LINE
  8
_1-0_
  6
CONTINUOUS
 62
    7
 10
173.4142114077022
 20
194.27354579488684
 11
172.53921140770163
 21
193.76836430934708
  0
LINE
  8
_1-0_
  6
CONTINUOUS
 62
    7
 10
172.5392114077014
 20
193.76836430934742
 11
172.53921140770083
 21
193.26318282381516
  0
LINE
  8
_1-0_
  6
CONTINUOUS
 62
    7
 10
174.09033227064245
 20
193.88318723266235
 11
173.41421140770186
 21
194.27354579488684
  0
ARC
  8
_1-0_
  6
CONTINUOUS
 62
    7
 10
187.41421140780292
 20
193.26318282380504
 40
1.7
 50
62.513573749618303
 51
132.21529054454132
  0
ARC
  8
_1-0_
  6
CONTINUOUS
 62
    7
 10
186.53921140780326
 20
194.22765600261124
 40
0.3977582741150607
 50
132.21529054454177
 51
300.0000000000685
  0
LINE
  8
_1-0_
  6
CONTINUOUS
 62
    7
 10
187.41421140780167
 20
194.27354579488684
 11
188.28921140780224
 21
193.76836430934708
  0
LINE
  8
_1-0_
  6
CONTINUOUS
 62
    7
 10
188.28921140780224
 20
193.76836430934696
 11
188.28921140780281
 21
193.26318282380458
  0
LINE
  8
_1-0_
  6
CONTINUOUS
 62
    7
 10
186.73809054486131
 20
193.88318723266246
 11
187.41421140780179
 21
194.27354579488696
  0
LINE
  8
_1-0_
  6
CONTINUOUS
 62
    7
 10
189.16421140780292
 20
200.16318282380422
 11
205.5642114078029
 21
200.16318282379842
  0
LINE
  8
_1-0_
  6
CONTINUOUS
 62
    7
 10
188.5642114078029
 20
194.99306721300565
 11
188.5642114078029
 21
200.16318282380468
  0
LINE
  8
_1-0_
  6
CONTINUOUS
 62
    7
 10
189.16421140780292
 20
193.26318282380436
 11
189.16421140780292
 21
200.16318282380445
  0
LINE
  8
_1-0_
  6
CONTINUOUS
 62
    7
 10
205.56421140780301
 20
200.16318282379842
 11
205.76421140780306
 21
199.96318282379838
  0
LINE
  8
_1-0_
  6
CONTINUOUS
 62
    7
 10
205.76421140780306
 20
199.96318282379849
 11
206.31299502074629
 21
199.96318282379838
  0
LINE
  8
_1-0_
  6
CONTINUOUS
 62
    7
 10
171.66421140780838
 20
200.76318282381527
 11
209.16421140780292
 21
200.76318282379742
  0
LINE
  8
_1-0_
  6
CONTINUOUS
 62
    7
 10
206.58873650161334
 20
199.14602449290379
 11
208.99398555006636
 21
199.9558680465064
  0
LINE
  8
_1-0_
  6
CONTINUOUS
 62
    7
 10
206.39183623790385
 20
199.2712023417285
 11
206.3129950207464
 21
199.96318282379804
  0
ARC
  8
_1-0_
  6
CONTINUOUS
 62
    7
 10
206.54087201625524
 20
199.28818282379399
 40
0.1499999999999999
 50
186.49999999999821
 51
288.60829801488677
  0
LINE
  8
_1-0_
  6
CONTINUOUS
 62
    7
 10
171.66421140780827
 20
193.26318282381527
 11
171.66421140780827
 21
200.76318282381527
  0
LINE
  8
_1-0_
  6
CONTINUOUS
 62
    7
 10
209.16421140780292
 20
200.76318282379731
 11
209.16421140780292
 21
200.19279859798968
  0
LINE
  8
_1-0_
  6
CONTINUOUS
 62
    9
 10
206.61421140780286
 20
193.27568282380497
 11
206.61421140780286
 21
198.33026123832434
  0
LINE
  8
_1-0_
  6
CONTINUOUS
 62
    9
 10
207.26421140780295
 20
193.27568282380497
 11
207.26421140780295
 21
198.50442821340522
  0
LINE
  8
_1-0_
  6
CONTINUOUS
 62
    9
 10
206.62891616907862
 20
198.33420136723322
 11
209.16421140780281
 21
199.0135316790259
  0
ARC
  8
_1-0_
  6
CONTINUOUS
 62
    9
 10
206.5642114078029
 20
198.57568282380493
 40
0.25
 50
180
 51
285.00000000004496
  0
LINE
  8
_1-0_
  6
CONTINUOUS
 62
    9
 10
201.41421140780292
 20
198.73853812409521
 11
205.99950664652695
 21
199.96716428037695
  0
ARC
  8
_1-0_
  6
CONTINUOUS
 62
    9
 10
206.0642114078029
 20
199.7256828238049
 40
0.25
 50
0
 51
105.00000000008929
  0
LINE
  8
_1-0_
  6
CONTINUOUS
 62
    9
 10
206.3142114078029
 20
198.57568282380493
 11
206.3142114078029
 21
199.7256828238049
  0
LINE
  8
_1-0_
  6
CONTINUOUS
 62
    9
 10
201.41421140780292
 20
198.73853812409544
 11
201.41421140780292
 21
193.27568282380497
  0
LINE
  8
_1-0_
  6
CONTINUOUS
 62
    9
 10
206.61421140780286
 20
193.27568282380497
 11
206.61421140780286
 21
188.1961044092854
  0
LINE
  8
_1-0_
  6
CONTINUOUS
 62
    9
 10
207.26421140780295
 20
193.27568282380497
 11
207.26421140780295
 21
188.02193743420463
  0
LINE
  8
_1-0_
  6
CONTINUOUS
 62
    9
 10
206.62891616907862
 20
188.19216428037686
 11
209.16421140780304
 21
187.51283396858406
  0
ARC
  8
_1-0_
  6
CONTINUOUS
 62
    9
 10
206.5642114078029
 20
187.95068282380504
 40
0.25
 50
74.99999999995498
 51
180
  0
LINE
  8
_1-0_
  6
CONTINUOUS
 62
    9
 10
201.41421140780304
 20
187.7878275235143
 11
205.99950664652695
 21
186.55920136723256
  0
ARC
  8
_1-0_
  6
CONTINUOUS
 62
    9
 10
206.0642114078029
 20
186.80068282380495
 40
0.25
 50
254.9999999999107
 51
0
  0
LINE
  8
_1-0_
  6
CONTINUOUS
 62
    9
 10
206.3142114078029
 20
187.95068282380504
 11
206.3142114078029
 21
186.80068282380495
  0
LINE
  8
_1-0_
  6
CONTINUOUS
 62
    9
 10
201.41421140780292
 20
187.78782752351452
 11
201.41421140780292
 21
193.27568282380497
  0
TEXT
  8
_1-0_
 62
    7
 10
71.433038781570218
 20
-19.56335658687118
 40
5.4000000000000057
 41
0.999999999999999
 50
0
  1
30
  0
LINE
  8
_1-0_
  6
CONTINUOUS
 62
    7
 10
165.09523070170385
 20
148.25068282409535
 11
165.09523070170385
 21
163.25068282409535
  0
LINE
  8
_1-0_
  6
CONTINUOUS
 62
    4
 10
165.09523070170385
 20
163.25068282409535
 11
170.26186349642686
 21
163.25068282409535
  0
POINT
  8
_1-0_
 62
    4
 10
165.09523070170385
 20
163.25068282409535
  0
LINE
  8
_1-0_
  6
CONTINUOUS
 62
    4
 10
165.09523070170385
 20
148.25068282409535
 11
170.26186349642686
 21
148.25068282409535
  0
POINT
  8
_1-0_
 62
    4
 10
165.09523070170385
 20
148.25068282409535
  0
LINE
  8
_1-0_
  6
CONTINUOUS
 62
    7
 10
209.16420525362983
 20
166.49221044132383
 11
209.16420730502082
 21
161.51353167902408
  0
LINE
  8
_1-0_
  6
CONTINUOUS
 62
    7
 10
209.16420525362983
 20
163.26318282407743
 11
209.16420525362983
 21
162.69277151859848
  0
LINE
  8
_1-0_
  6
CONTINUOUS
 62
    7
 10
209.16420525362449
 20
148.26318282407743
 11
209.16420525362483
 21
148.83359412964347
  0
ARC
  8
_1-0_
  6
CONTINUOUS
 62
    9
 10
206.56420525362981
 20
150.45068282380254
 40
0.25
 50
74.99999999995498
 51
180
  0
LINE
  8
_1-0_
  6
CONTINUOUS
 62
    9
 10
206.62891001490564
 20
150.69216428037436
 11
209.16420525362994
 21
150.01283396858145
  0
LINE
  8
_1-0_
  6
CONTINUOUS
 62
    9
 10
207.26420525362985
 20
155.77568282380236
 11
207.26420525362985
 21
150.52193743420213
  0
LINE
  8
_1-0_
  6
CONTINUOUS
 62
    9
 10
206.61420525362988
 20
155.77568282380236
 11
206.61420525362988
 21
150.69610440928301
  0
ARC
  8
_1-0_
  6
CONTINUOUS
 62
    9
 10
206.56420525362981
 20
161.07568282380231
 40
0.25
 50
180
 51
285.00000000004496
  0
LINE
  8
_1-0_
  6
CONTINUOUS
 62
    9
 10
206.62891001490553
 20
160.83420136723049
 11
209.16420525362983
 21
161.51353167902317
  0
LINE
  8
_1-0_
  6
CONTINUOUS
 62
    9
 10
207.26420525362985
 20
155.77568282380236
 11
207.26420525362985
 21
161.00442821340272
  0
LINE
  8
_1-0_
  6
CONTINUOUS
 62
    9
 10
206.61420525362988
 20
155.77568282380236
 11
206.61420525362988
 21
160.83026123832184
  0
LINE
  8
_1-0_
  6
CONTINUOUS
 62
    7
 10
209.16420525362983
 20
163.25068282407739
 11
209.16420525362983
 21
162.68027151859843
  0
ARC
  8
_1-0_
  6
CONTINUOUS
 62
    7
 10
206.54208224913808
 20
161.77568282407407
 40
0.1499999999999999
 50
186.49999999999821
 51
288.60829801488677
  0
LINE
  8
_1-0_
  6
CONTINUOUS
 62
    7
 10
184.16420525363517
 20
163.25068282409535
 11
209.16420525362972
 21
163.25068282407739
  0
LINE
  8
_1-0_
  6
CONTINUOUS
 62
    7
 10
209.16420525362449
 20
148.25068282407739
 11
209.16420525362494
 21
148.82109412964343
  0
ARC
  8
_1-0_
  6
CONTINUOUS
 62
    7
 10
206.54208224913376
 20
149.72568282408253
 40
0.1499999999999999
 50
71.383514957199623
 51
173.49999999996072
  0
LINE
  8
_1-0_
  6
CONTINUOUS
 62
    7
 10
184.16420525362972
 20
148.25068282409535
 11
209.16420525362449
 21
148.25068282407761
  0
LINE
  8
_1-0_
  6
CONTINUOUS
 62
    7
 10
206.58996704709128
 20
149.86783431413647
 11
208.99401325022066
 21
149.05801327973364
  0
ARC
  8
_1-0_
  6
CONTINUOUS
 62
    7
 10
208.91420525362483
 20
148.82109412964365
 40
0.25
 50
0
 51
71.383514957200816
  0
LINE
  8
_1-0_
  6
CONTINUOUS
 62
    7
 10
206.58996704708468
 20
161.63353133410311
 11
208.99401325021316
 21
162.44335236850867
  0
ARC
  8
_1-0_
  6
CONTINUOUS
 62
    7
 10
208.91420525361721
 20
162.68027151859843
 40
0.25
 50
288.61648504286279
 51
0.0000000000000254
  0
LINE
  8
_1-0_
  6
CONTINUOUS
 62
    7
 10
209.16420730502094
 20
163.26318282407834
 11
209.16420730502094
 21
162.69277151859939
  0
LINE
  8
_1-0_
  6
CONTINUOUS
 62
    7
 10
209.16420730501559
 20
148.26318282407834
 11
209.16420730501594
 21
148.83359412964438
  0
LINE
  8
_1-0_
  6
CONTINUOUS
 62
    9
 10
206.62891206629675
 20
150.69216428037527
 11
209.16420730502105
 21
150.01283396858236
  0
LINE
  8
_1-0_
  6
CONTINUOUS
 62
    9
 10
207.26420730502096
 20
155.77568282380327
 11
207.26420730502096
 21
150.52193743420304
  0
LINE
  8
_1-0_
  6
CONTINUOUS
 62
    9
 10
206.62891206629664
 20
160.8342013672314
 11
209.16420730502094
 21
161.51353167902408
  0
LINE
  8
_1-0_
  6
CONTINUOUS
 62
    9
 10
207.26420730502096
 20
155.77568282380327
 11
207.26420730502096
 21
161.00442821340363
  0
LINE
  8
_1-0_
  6
CONTINUOUS
 62
    7
 10
209.16420730502094
 20
163.2506828240783
 11
209.16420730502094
 21
162.68027151859934
  0
LINE
  8
_1-0_
  6
CONTINUOUS
 62
    7
 10
184.16420730502628
 20
163.25068282409626
 11
209.16420730502082
 21
163.2506828240783
  0
LINE
  8
_1-0_
  6
CONTINUOUS
 62
    7
 10
209.16420730501559
 20
148.2506828240783
 11
209.16420730501605
 21
148.82109412964434
  0
LINE
  8
_1-0_
  6
CONTINUOUS
 62
    7
 10
184.16420730502082
 20
148.25068282409626
 11
209.16420730501559
 21
148.25068282407852
  0
LINE
  8
_1-0_
  6
CONTINUOUS
 62
    7
 10
206.58996909848238
 20
149.86783431413738
 11
208.99401530161177
 21
149.05801327973455
  0
ARC
  8
_1-0_
  6
CONTINUOUS
 62
    7
 10
208.91420730501594
 20
148.82109412964456
 40
0.25
 50
0
 51
71.383514957200816
  0
LINE
  8
_1-0_
  6
CONTINUOUS
 62
    7
 10
206.58996909847579
 20
161.63353133410402
 11
208.99401530160426
 21
162.44335236850958
  0
ARC
  8
_1-0_
  6
CONTINUOUS
 62
    7
 10
208.91420730500832
 20
162.68027151859934
 40
0.25
 50
288.61648504286279
 51
0.0000000000000254
  0
LINE
  8
_1-0_
  6
CONTINUOUS
 62
    7
 10
209.16420730502082
 20
163.26318282407834
 11
209.16420730502082
 21
162.69277151859939
  0
LINE
  8
_1-0_
  6
CONTINUOUS
 62
    7
 10
209.16420730501548
 20
148.26318282407834
 11
209.16420730501582
 21
148.83359412964438
  0
LINE
  8
_1-0_
  6
CONTINUOUS
 62
    9
 10
206.62891206629664
 20
150.69216428037527
 11
209.16420730502094
 21
150.01283396858236
  0
LINE
  8
_1-0_
  6
CONTINUOUS
 62
    9
 10
206.62891206629652
 20
160.8342013672314
 11
209.16420730502082
 21
161.51353167902408
  0
LINE
  8
_1-0_
  6
CONTINUOUS
 62
    7
 10
209.16420730502082
 20
163.2506828240783
 11
209.16420730502082
 21
162.68027151859934
  0
LINE
  8
_1-0_
  6
CONTINUOUS
 62
    7
 10
184.16420730502617
 20
163.25068282409626
 11
209.16420730502071
 21
163.2506828240783
  0
LINE
  8
_1-0_
  6
CONTINUOUS
 62
    7
 10
209.16420730501548
 20
148.2506828240783
 11
209.16420730501594
 21
148.82109412964434
  0
LINE
  8
_1-0_
  6
CONTINUOUS
 62
    7
 10
184.16420730502071
 20
148.25068282409626
 11
209.16420730501548
 21
148.25068282407852
  0
LINE
  8
_1-0_
  6
CONTINUOUS
 62
    7
 10
206.58996909848227
 20
149.86783431413738
 11
208.99401530161165
 21
149.05801327973455
  0
ARC
  8
_1-0_
  6
CONTINUOUS
 62
    7
 10
208.91420730501582
 20
148.82109412964456
 40
0.25
 50
0
 51
71.383514957200816
  0
LINE
  8
_1-0_
  6
CONTINUOUS
 62
    7
 10
206.58996909847568
 20
161.63353133410402
 11
208.99401530160415
 21
162.44335236850958
  0
ARC
  8
_1-0_
  6
CONTINUOUS
 62
    7
 10
208.9142073050082
 20
162.68027151859934
 40
0.25
 50
288.61648504286279
 51
0.0000000000000254
  0
LINE
  8
_1-0_
  6
CONTINUOUS
 62
    7
 10
172.26420730502619
 20
162.66318282381343
 11
188.56420730502091
 21
162.66318282380286
  0
ARC
  8
_1-0_
  6
CONTINUOUS
 62
    7
 10
208.91420730501594
 20
148.83356704960312
 40
0.25
 50
0
 51
71.391701985071677
  0
ARC
  8
_1-0_
  6
CONTINUOUS
 62
    7
 10
208.91420730502094
 20
162.69279859798786
 40
0.25
 50
288.60829801488717
 51
0.0000000000000254
  0
ARC
  8
_1-0_
  6
CONTINUOUS
 62
    7
 10
188.31420730501978
 20
154.03329843460193
 40
0.25
 50
359.99999999995896
 51
117.48642625033941
  0
ARC
  8
_1-0_
  6
CONTINUOUS
 62
    7
 10
172.74660779903436
 20
153.93102265076328
 40
0.25
 50
69.97935458678981
 51
177.37733279537682
  0
LINE
  8
_1-0_
  6
CONTINUOUS
 62
    7
 10
172.26420730502107
 20
148.86318282381325
 11
172.49686966272671
 21
153.94246219942892
  0
ARC
  8
_1-0_
  6
CONTINUOUS
 62
    7
 10
173.41420730491885
 20
155.76318282382198
 40
1.7
 50
249.97935458678847
 51
312.21529054450031
  0
ARC
  8
_1-0_
  6
CONTINUOUS
 62
    7
 10
174.28920730491782
 20
154.79870964501521
 40
0.3977582741150607
 50
312.2152905445007
 51
120.00000000002743
  0
LINE
  8
_1-0_
  6
CONTINUOUS
 62
    7
 10
173.4142073049193
 20
154.75281985274006
 11
172.53920730491919
 21
155.25800133828039
  0
LINE
  8
_1-0_
  6
CONTINUOUS
 62
    7
 10
172.5392073049193
 20
155.25800133828085
 11
172.53920730491907
 21
155.76318282381311
  0
LINE
  8
_1-0_
  6
CONTINUOUS
 62
    7
 10
174.09032816786012
 20
155.14317841496421
 11
173.4142073049193
 21
154.75281985274006
  0
ARC
  8
_1-0_
  6
CONTINUOUS
 62
    7
 10
187.41420730502094
 20
155.76318282380311
 40
1.7
 50
227.78470945541761
 51
297.48642625034063
  0
ARC
  8
_1-0_
  6
CONTINUOUS
 62
    7
 10
186.5392073050206
 20
154.79870964499747
 40
0.3977582741150607
 50
59.99999999989042
 51
227.78470945541724
  0
LINE
  8
_1-0_
  6
CONTINUOUS
 62
    7
 10
187.41420730501912
 20
154.75281985272119
 11
188.28920730502003
 21
155.25800133826039
  0
LINE
  8
_1-0_
  6
CONTINUOUS
 62
    7
 10
188.28920730501991
 20
155.25800133826039
 11
188.28920730502094
 21
155.76318282380277
  0
LINE
  8
_1-0_
  6
CONTINUOUS
 62
    7
 10
186.73808644207875
 20
155.14317841494614
 11
187.41420730501889
 21
154.7528198527213
  0
LINE
  8
_1-0_
  6
CONTINUOUS
 62
    7
 10
172.2642073050213
 20
148.86318282381313
 11
188.56420730501591
 21
148.86318282380267
  0
LINE
  8
_1-0_
  6
CONTINUOUS
 62
    7
 10
189.16420730501594
 20
148.86318282380256
 11
205.56420730501591
 21
148.86318282379676
  0
LINE
  8
_1-0_
  6
CONTINUOUS
 62
    7
 10
188.56420730501978
 20
154.0332984346017
 11
188.56420730501603
 21
148.8631828238029
  0
LINE
  8
_1-0_
  6
CONTINUOUS
 62
    7
 10
189.16420730502094
 20
155.76318282380265
 11
189.16420730501605
 21
148.86318282380256
  0
LINE
  8
_1-0_
  6
CONTINUOUS
 62
    7
 10
205.56420730501603
 20
148.86318282379665
 11
205.7642073050163
 21
149.06318282379658
  0
LINE
  8
_1-0_
  6
CONTINUOUS
 62
    7
 10
205.76420730501619
 20
149.06318282379658
 11
206.31299091795952
 21
149.06318282379635
  0
LINE
  8
_1-0_
  6
CONTINUOUS
 62
    7
 10
171.66420730502094
 20
148.26318282381334
 11
209.16420730501559
 21
148.26318282379549
  0
LINE
  8
_1-0_
  6
CONTINUOUS
 62
    7
 10
206.58873239882715
 20
149.88034115469037
 11
208.99398144727971
 21
149.07049760108606
  0
LINE
  8
_1-0_
  6
CONTINUOUS
 62
    7
 10
206.39183213511754
 20
149.75516330586566
 11
206.31299091795964
 21
149.06318282379635
  0
ARC
  8
_1-0_
  6
CONTINUOUS
 62
    7
 10
206.54086791346893
 20
149.73818282380063
 40
0.1499999999999999
 50
71.391701985072046
 51
173.49999999996072
  0
LINE
  8
_1-0_
  6
CONTINUOUS
 62
    7
 10
171.66420730502628
 20
155.76318282381345
 11
171.66420730502094
 21
148.26318282381345
  0
LINE
  8
_1-0_
  6
CONTINUOUS
 62
    7
 10
209.16420730501559
 20
148.26318282379538
 11
209.16420730501605
 21
148.83356704960278
  0
ARC
  8
_1-0_
  6
CONTINUOUS
 62
    7
 10
188.31420730502091
 20
157.49306721300383
 40
0.25
 50
242.51357374961941
 51
0
  0
ARC
  8
_1-0_
  6
CONTINUOUS
 62
    7
 10
172.74660779903562
 20
157.59534299686248
 40
0.25
 50
182.62266720458211
 51
290.02064541316906
  0
LINE
  8
_1-0_
  6
CONTINUOUS
 62
    7
 10
172.26420730502619
 20
162.66318282381343
 11
172.49686966272807
 21
157.58390344819742
  0
ARC
  8
_1-0_
  6
CONTINUOUS
 62
    7
 10
173.41420730491885
 20
155.76318282380322
 40
1.7
 50
47.784709455458739
 51
110.02064541317044
  0
ARC
  8
_1-0_
  6
CONTINUOUS
 62
    7
 10
174.28920730491851
 20
156.72765600260942
 40
0.3977582741150607
 50
239.99999999993153
 51
47.784709455458312
  0
LINE
  8
_1-0_
  6
CONTINUOUS
 62
    7
 10
173.41420730492021
 20
156.77354579488502
 11
172.53920730491964
 21
156.26836430934526
  0
LINE
  8
_1-0_
  6
CONTINUOUS
 62
    7
 10
172.53920730491942
 20
156.2683643093456
 11
172.53920730491885
 21
155.76318282381334
  0
LINE
  8
_1-0_
  6
CONTINUOUS
 62
    7
 10
174.09032816786046
 20
156.38318723266053
 11
173.41420730491987
 21
156.77354579488502
  0
ARC
  8
_1-0_
  6
CONTINUOUS
 62
    7
 10
187.41420730502094
 20
155.76318282380322
 40
1.7
 50
62.513573749618303
 51
132.21529054454132
  0
ARC
  8
_1-0_
  6
CONTINUOUS
 62
    7
 10
186.53920730502128
 20
156.72765600260942
 40
0.3977582741150607
 50
132.21529054454177
 51
300.0000000000685
  0
LINE
  8
_1-0_
  6
CONTINUOUS
 62
    7
 10
187.41420730501969
 20
156.77354579488502
 11
188.28920730502026
 21
156.26836430934526
  0
LINE
  8
_1-0_
  6
CONTINUOUS
 62
    7
 10
188.28920730502026
 20
156.26836430934515
 11
188.28920730502082
 21
155.76318282380277
  0
LINE
  8
_1-0_
  6
CONTINUOUS
 62
    7
 10
186.73808644207932
 20
156.38318723266065
 11
187.4142073050198
 21
156.77354579488514
  0
LINE
  8
_1-0_
  6
CONTINUOUS
 62
    7
 10
189.16420730502094
 20
162.6631828238024
 11
205.56420730502091
 21
162.6631828237966
  0
LINE
  8
_1-0_
  6
CONTINUOUS
 62
    7
 10
188.56420730502091
 20
157.49306721300383
 11
188.56420730502091
 21
162.66318282380286
  0
LINE
  8
_1-0_
  6
CONTINUOUS
 62
    7
 10
189.16420730502094
 20
155.76318282380254
 11
189.16420730502094
 21
162.66318282380263
  0
LINE
  8
_1-0_
  6
CONTINUOUS
 62
    7
 10
205.56420730502103
 20
162.6631828237966
 11
205.76420730502107
 21
162.46318282379656
  0
LINE
  8
_1-0_
  6
CONTINUOUS
 62
    7
 10
205.76420730502107
 20
162.46318282379667
 11
206.3129909179643
 21
162.46318282379656
  0
LINE
  8
_1-0_
  6
CONTINUOUS
 62
    7
 10
171.66420730502639
 20
163.26318282381345
 11
209.16420730502094
 21
163.2631828237956
  0
LINE
  8
_1-0_
  6
CONTINUOUS
 62
    7
 10
206.58873239883135
 20
161.64602449290197
 11
208.99398144728437
 21
162.45586804650458
  0
LINE
  8
_1-0_
  6
CONTINUOUS
 62
    7
 10
206.39183213512186
 20
161.77120234172668
 11
206.31299091796441
 21
162.46318282379622
  0
ARC
  8
_1-0_
  6
CONTINUOUS
 62
    7
 10
206.54086791347325
 20
161.78818282379217
 40
0.1499999999999999
 50
186.49999999999821
 51
288.60829801488677
  0
LINE
  8
_1-0_
  6
CONTINUOUS
 62
    7
 10
171.66420730502628
 20
155.76318282381345
 11
171.66420730502628
 21
163.26318282381345
  0
LINE
  8
_1-0_
  6
CONTINUOUS
 62
    7
 10
209.16420730502094
 20
163.26318282379549
 11
209.16420730502094
 21
162.69279859798786
  0
LINE
  8
_1-0_
  6
CONTINUOUS
 62
    9
 10
206.61420730502087
 20
155.77568282380315
 11
206.61420730502087
 21
160.83026123832252
  0
LINE
  8
_1-0_
  6
CONTINUOUS
 62
    9
 10
207.26420730502096
 20
155.77568282380315
 11
207.26420730502096
 21
161.0044282134034
  0
LINE
  8
_1-0_
  6
CONTINUOUS
 62
    9
 10
206.62891206629664
 20
160.8342013672314
 11
209.16420730502082
 21
161.51353167902408
  0
ARC
  8
_1-0_
  6
CONTINUOUS
 62
    9
 10
206.56420730502091
 20
161.07568282380311
 40
0.25
 50
180
 51
285.00000000004496
  0
LINE
  8
_1-0_
  6
CONTINUOUS
 62
    9
 10
201.41420730502094
 20
161.2385381240934
 11
205.99950254374497
 21
162.46716428037513
  0
ARC
  8
_1-0_
  6
CONTINUOUS
 62
    9
 10
206.06420730502091
 20
162.22568282380308
 40
0.25
 50
0
 51
105.00000000008929
  0
LINE
  8
_1-0_
  6
CONTINUOUS
 62
    9
 10
206.31420730502091
 20
161.07568282380311
 11
206.31420730502091
 21
162.22568282380308
  0
LINE
  8
_1-0_
  6
CONTINUOUS
 62
    9
 10
201.41420730502094
 20
161.23853812409362
 11
201.41420730502094
 21
155.77568282380315
  0
LINE
  8
_1-0_
  6
CONTINUOUS
 62
    9
 10
206.61420730502087
 20
155.77568282380315
 11
206.61420730502087
 21
150.69610440928358
  0
LINE
  8
_1-0_
  6
CONTINUOUS
 62
    9
 10
207.26420730502096
 20
155.77568282380315
 11
207.26420730502096
 21
150.52193743420281
  0
LINE
  8
_1-0_
  6
CONTINUOUS
 62
    9
 10
206.62891206629664
 20
150.69216428037504
 11
209.16420730502105
 21
150.01283396858224
  0
ARC
  8
_1-0_
  6
CONTINUOUS
 62
    9
 10
206.56420730502091
 20
150.45068282380322
 40
0.25
 50
74.99999999995498
 51
180
  0
LINE
  8
_1-0_
  6
CONTINUOUS
 62
    9
 10
201.41420730502105
 20
150.28782752351248
 11
205.99950254374497
 21
149.05920136723074
  0
ARC
  8
_1-0_
  6
CONTINUOUS
 62
    9
 10
206.06420730502091
 20
149.30068282380313
 40
0.25
 50
254.9999999999107
 51
0
  0
LINE
  8
_1-0_
  6
CONTINUOUS
 62
    9
 10
206.31420730502091
 20
150.45068282380322
 11
206.31420730502091
 21
149.30068282380313
  0
LINE
  8
_1-0_
  6
CONTINUOUS
 62
    9
 10
201.41420730502094
 20
150.2878275235127
 11
201.41420730502094
 21
155.77568282380315
  0
TEXT
  8
_1-0_
 62
    7
 10
108.93303878157022
 20
-19.56335658687118
 40
5.4000000000000057
 41
0.999999999999999
 50
0
  1
30
  0
LINE
  8
_1-0_
  6
CONTINUOUS
 62
    7
 10
165.09522659892187
 20
110.75068282409354
 11
165.09522659892187
 21
125.75068282409354
  0
LINE
  8
_1-0_
  6
CONTINUOUS
 62
    4
 10
165.09522659892187
 20
125.75068282409354
 11
170.26185939364487
 21
125.75068282409354
  0
POINT
  8
_1-0_
 62
    4
 10
165.09522659892187
 20
125.75068282409354
  0
LINE
  8
_1-0_
  6
CONTINUOUS
 62
    4
 10
165.09522659892187
 20
110.75068282409354
 11
170.26185939364487
 21
110.75068282409354
  0
POINT
  8
_1-0_
 62
    4
 10
165.09522659892187
 20
110.75068282409354
  0
LINE
  8
_1-0_
  6
CONTINUOUS
 62
    7
 10
209.16420115084784
 20
128.99221044132202
 11
209.16420320223884
 21
124.01353167902228
  0
LINE
  8
_1-0_
  6
CONTINUOUS
 62
    7
 10
209.16420115084784
 20
125.76318282407563
 11
209.16420115084784
 21
125.19277151859667
  0
LINE
  8
_1-0_
  6
CONTINUOUS
 62
    7
 10
209.1642011508425
 20
110.76318282407563
 11
209.16420115084284
 21
111.33359412964167
  0
ARC
  8
_1-0_
  6
CONTINUOUS
 62
    9
 10
206.56420115084782
 20
112.95068282380073
 40
0.25
 50
74.99999999995498
 51
180
  0
LINE
  8
_1-0_
  6
CONTINUOUS
 62
    9
 10
206.62890591212366
 20
113.19216428037255
 11
209.16420115084796
 21
112.51283396857964
  0
LINE
  8
_1-0_
  6
CONTINUOUS
 62
    9
 10
207.26420115084787
 20
118.27568282380055
 11
207.26420115084787
 21
113.02193743420032
  0
LINE
  8
_1-0_
  6
CONTINUOUS
 62
    9
 10
206.61420115084789
 20
118.27568282380055
 11
206.61420115084789
 21
113.1961044092812
  0
ARC
  8
_1-0_
  6
CONTINUOUS
 62
    9
 10
206.56420115084782
 20
123.57568282380051
 40
0.25
 50
180
 51
285.00000000004496
  0
LINE
  8
_1-0_
  6
CONTINUOUS
 62
    9
 10
206.62890591212354
 20
123.33420136722869
 11
209.16420115084784
 21
124.01353167902137
  0
LINE
  8
_1-0_
  6
CONTINUOUS
 62
    9
 10
207.26420115084787
 20
118.27568282380055
 11
207.26420115084787
 21
123.50442821340091
  0
LINE
  8
_1-0_
  6
CONTINUOUS
 62
    9
 10
206.61420115084789
 20
118.27568282380055
 11
206.61420115084789
 21
123.33026123832003
  0
LINE
  8
_1-0_
  6
CONTINUOUS
 62
    7
 10
209.16420115084784
 20
125.75068282407558
 11
209.16420115084784
 21
125.18027151859663
  0
ARC
  8
_1-0_
  6
CONTINUOUS
 62
    7
 10
206.54207814635609
 20
124.27568282407226
 40
0.1499999999999999
 50
186.49999999999821
 51
288.60829801488677
  0
LINE
  8
_1-0_
  6
CONTINUOUS
 62
    7
 10
184.16420115085319
 20
125.75068282409354
 11
209.16420115084773
 21
125.75068282407558
  0
LINE
  8
_1-0_
  6
CONTINUOUS
 62
    7
 10
209.1642011508425
 20
110.75068282407558
 11
209.16420115084296
 21
111.32109412964162
  0
ARC
  8
_1-0_
  6
CONTINUOUS
 62
    7
 10
206.54207814635177
 20
112.22568282408072
 40
0.1499999999999999
 50
71.383514957199623
 51
173.49999999996072
  0
LINE
  8
_1-0_
  6
CONTINUOUS
 62
    7
 10
184.16420115084773
 20
110.75068282409354
 11
209.1642011508425
 21
110.75068282407581
  0
LINE
  8
_1-0_
  6
CONTINUOUS
 62
    7
 10
206.58996294430929
 20
112.36783431413467
 11
208.99400914743867
 21
111.55801327973184
  0
ARC
  8
_1-0_
  6
CONTINUOUS
 62
    7
 10
208.91420115084284
 20
111.32109412964185
 40
0.25
 50
0
 51
71.383514957200816
  0
LINE
  8
_1-0_
  6
CONTINUOUS
 62
    7
 10
206.5899629443027
 20
124.13353133410131
 11
208.99400914743117
 21
124.94335236850686
  0
ARC
  8
_1-0_
  6
CONTINUOUS
 62
    7
 10
208.91420115083523
 20
125.18027151859663
 40
0.25
 50
288.61648504286279
 51
0.0000000000000254
  0
LINE
  8
_1-0_
  6
CONTINUOUS
 62
    7
 10
209.16420320223895
 20
125.76318282407654
 11
209.16420320223895
 21
125.19277151859758
  0
LINE
  8
_1-0_
  6
CONTINUOUS
 62
    7
 10
209.16420320223361
 20
110.76318282407654
 11
209.16420320223395
 21
111.33359412964258
  0
LINE
  8
_1-0_
  6
CONTINUOUS
 62
    9
 10
206.62890796351476
 20
113.19216428037346
 11
209.16420320223907
 21
112.51283396858055
  0
LINE
  8
_1-0_
  6
CONTINUOUS
 62
    9
 10
207.26420320223897
 20
118.27568282380146
 11
207.26420320223897
 21
113.02193743420123
  0
LINE
  8
_1-0_
  6
CONTINUOUS
 62
    9
 10
206.62890796351465
 20
123.3342013672296
 11
209.16420320223895
 21
124.01353167902228
  0
LINE
  8
_1-0_
  6
CONTINUOUS
 62
    9
 10
207.26420320223897
 20
118.27568282380146
 11
207.26420320223897
 21
123.50442821340182
  0
LINE
  8
_1-0_
  6
CONTINUOUS
 62
    7
 10
209.16420320223895
 20
125.75068282407649
 11
209.16420320223895
 21
125.18027151859754
  0
LINE
  8
_1-0_
  6
CONTINUOUS
 62
    7
 10
184.16420320224429
 20
125.75068282409445
 11
209.16420320223884
 21
125.75068282407649
  0
LINE
  8
_1-0_
  6
CONTINUOUS
 62
    7
 10
209.16420320223361
 20
110.75068282407649
 11
209.16420320223406
 21
111.32109412964253
  0
LINE
  8
_1-0_
  6
CONTINUOUS
 62
    7
 10
184.16420320223884
 20
110.75068282409445
 11
209.16420320223361
 21
110.75068282407672
  0
LINE
  8
_1-0_
  6
CONTINUOUS
 62
    7
 10
206.5899649957004
 20
112.36783431413558
 11
208.99401119882978
 21
111.55801327973275
  0
ARC
  8
_1-0_
  6
CONTINUOUS
 62
    7
 10
208.91420320223395
 20
111.32109412964276
 40
0.25
 50
0
 51
71.383514957200816
  0
LINE
  8
_1-0_
  6
CONTINUOUS
 62
    7
 10
206.5899649956938
 20
124.13353133410222
 11
208.99401119882228
 21
124.94335236850777
  0
ARC
  8
_1-0_
  6
CONTINUOUS
 62
    7
 10
208.91420320222633
 20
125.18027151859754
 40
0.25
 50
288.61648504286279
 51
0.0000000000000254
  0
LINE
  8
_1-0_
  6
CONTINUOUS
 62
    7
 10
209.16420320223884
 20
125.76318282407654
 11
209.16420320223884
 21
125.19277151859758
  0
LINE
  8
_1-0_
  6
CONTINUOUS
 62
    7
 10
209.16420320223349
 20
110.76318282407654
 11
209.16420320223384
 21
111.33359412964258
  0
LINE
  8
_1-0_
  6
CONTINUOUS
 62
    9
 10
206.62890796351465
 20
113.19216428037346
 11
209.16420320223895
 21
112.51283396858055
  0
LINE
  8
_1-0_
  6
CONTINUOUS
 62
    9
 10
206.62890796351454
 20
123.3342013672296
 11
209.16420320223884
 21
124.01353167902228
  0
LINE
  8
_1-0_
  6
CONTINUOUS
 62
    7
 10
209.16420320223884
 20
125.75068282407649
 11
209.16420320223884
 21
125.18027151859754
  0
LINE
  8
_1-0_
  6
CONTINUOUS
 62
    7
 10
184.16420320224418
 20
125.75068282409445
 11
209.16420320223872
 21
125.75068282407649
  0
LINE
  8
_1-0_
  6
CONTINUOUS
 62
    7
 10
209.16420320223349
 20
110.75068282407649
 11
209.16420320223395
 21
111.32109412964253
  0
LINE
  8
_1-0_
  6
CONTINUOUS
 62
    7
 10
184.16420320223872
 20
110.75068282409445
 11
209.16420320223349
 21
110.75068282407672
  0
LINE
  8
_1-0_
  6
CONTINUOUS
 62
    7
 10
206.58996499570029
 20
112.36783431413558
 11
208.99401119882967
 21
111.55801327973275
  0
ARC
  8
_1-0_
  6
CONTINUOUS
 62
    7
 10
208.91420320223384
 20
111.32109412964276
 40
0.25
 50
0
 51
71.383514957200816
  0
LINE
  8
_1-0_
  6
CONTINUOUS
 62
    7
 10
206.58996499569369
 20
124.13353133410222
 11
208.99401119882216
 21
124.94335236850777
  0
ARC
  8
_1-0_
  6
CONTINUOUS
 62
    7
 10
208.91420320222622
 20
125.18027151859754
 40
0.25
 50
288.61648504286279
 51
0.0000000000000254
  0
LINE
  8
_1-0_
  6
CONTINUOUS
 62
    7
 10
172.2642032022442
 20
125.16318282381162
 11
188.56420320223893
 21
125.16318282380105
  0
ARC
  8
_1-0_
  6
CONTINUOUS
 62
    7
 10
208.91420320223395
 20
111.33356704960131
 40
0.25
 50
0
 51
71.391701985071677
  0
ARC
  8
_1-0_
  6
CONTINUOUS
 62
    7
 10
208.91420320223895
 20
125.19279859798606
 40
0.25
 50
288.60829801488717
 51
0.0000000000000254
  0
ARC
  8
_1-0_
  6
CONTINUOUS
 62
    7
 10
188.31420320223779
 20
116.53329843460013
 40
0.25
 50
359.99999999995896
 51
117.48642625033941
  0
ARC
  8
_1-0_
  6
CONTINUOUS
 62
    7
 10
172.74660369625238
 20
116.43102265076148
 40
0.25
 50
69.97935458678981
 51
177.37733279537682
  0
LINE
  8
_1-0_
  6
CONTINUOUS
 62
    7
 10
172.26420320223909
 20
111.36318282381144
 11
172.49686555994472
 21
116.44246219942711
  0
ARC
  8
_1-0_
  6
CONTINUOUS
 62
    7
 10
173.41420320213686
 20
118.26318282382017
 40
1.7
 50
249.97935458678847
 51
312.21529054450031
  0
ARC
  8
_1-0_
  6
CONTINUOUS
 62
    7
 10
174.28920320213584
 20
117.2987096450134
 40
0.3977582741150607
 50
312.2152905445007
 51
120.00000000002743
  0
LINE
  8
_1-0_
  6
CONTINUOUS
 62
    7
 10
173.41420320213732
 20
117.25281985273826
 11
172.5392032021372
 21
117.75800133827859
  0
LINE
  8
_1-0_
  6
CONTINUOUS
 62
    7
 10
172.53920320213732
 20
117.75800133827904
 11
172.53920320213709
 21
118.26318282381131
  0
LINE
  8
_1-0_
  6
CONTINUOUS
 62
    7
 10
174.09032406507814
 20
117.64317841496241
 11
173.41420320213732
 21
117.25281985273826
  0
ARC
  8
_1-0_
  6
CONTINUOUS
 62
    7
 10
187.41420320223895
 20
118.2631828238013
 40
1.7
 50
227.78470945541761
 51
297.48642625034063
  0
ARC
  8
_1-0_
  6
CONTINUOUS
 62
    7
 10
186.53920320223861
 20
117.29870964499567
 40
0.3977582741150607
 50
59.99999999989042
 51
227.78470945541724
  0
LINE
  8
_1-0_
  6
CONTINUOUS
 62
    7
 10
187.41420320223713
 20
117.25281985271938
 11
188.28920320223804
 21
117.75800133825858
  0
LINE
  8
_1-0_
  6
CONTINUOUS
 62
    7
 10
188.28920320223793
 20
117.75800133825858
 11
188.28920320223895
 21
118.26318282380096
  0
LINE
  8
_1-0_
  6
CONTINUOUS
 62
    7
 10
186.73808233929677
 20
117.64317841494433
 11
187.41420320223691
 21
117.2528198527195
  0
LINE
  8
_1-0_
  6
CONTINUOUS
 62
    7
 10
172.26420320223932
 20
111.36318282381133
 11
188.56420320223393
 21
111.36318282380087
  0
LINE
  8
_1-0_
  6
CONTINUOUS
 62
    7
 10
189.16420320223395
 20
111.36318282380076
 11
205.56420320223393
 21
111.36318282379496
  0
LINE
  8
_1-0_
  6
CONTINUOUS
 62
    7
 10
188.56420320223779
 20
116.5332984345999
 11
188.56420320223404
 21
111.3631828238011
  0
LINE
  8
_1-0_
  6
CONTINUOUS
 62
    7
 10
189.16420320223895
 20
118.26318282380085
 11
189.16420320223406
 21
111.36318282380076
  0
LINE
  8
_1-0_
  6
CONTINUOUS
 62
    7
 10
205.56420320223404
 20
111.36318282379484
 11
205.76420320223431
 21
111.56318282379478
  0
LINE
  8
_1-0_
  6
CONTINUOUS
 62
    7
 10
205.7642032022342
 20
111.56318282379478
 11
206.31298681517754
 21
111.56318282379455
  0
LINE
  8
_1-0_
  6
CONTINUOUS
 62
    7
 10
171.66420320223895
 20
110.76318282381153
 11
209.16420320223361
 21
110.76318282379368
  0
LINE
  8
_1-0_
  6
CONTINUOUS
 62
    7
 10
206.58872829604516
 20
112.38034115468857
 11
208.99397734449772
 21
111.57049760108426
  0
LINE
  8
_1-0_
  6
CONTINUOUS
 62
    7
 10
206.39182803233555
 20
112.25516330586386
 11
206.31298681517765
 21
111.56318282379455
  0
ARC
  8
_1-0_
  6
CONTINUOUS
 62
    7
 10
206.54086381068694
 20
112.23818282379882
 40
0.1499999999999999
 50
71.391701985072046
 51
173.49999999996072
  0
LINE
  8
_1-0_
  6
CONTINUOUS
 62
    7
 10
171.66420320224429
 20
118.26318282381165
 11
171.66420320223895
 21
110.76318282381165
  0
LINE
  8
_1-0_
  6
CONTINUOUS
 62
    7
 10
209.16420320223361
 20
110.76318282379357
 11
209.16420320223406
 21
111.33356704960097
  0
ARC
  8
_1-0_
  6
CONTINUOUS
 62
    7
 10
188.31420320223893
 20
119.99306721300202
 40
0.25
 50
242.51357374961941
 51
0
  0
ARC
  8
_1-0_
  6
CONTINUOUS
 62
    7
 10
172.74660369625363
 20
120.09534299686068
 40
0.25
 50
182.62266720458211
 51
290.02064541316906
  0
LINE
  8
_1-0_
  6
CONTINUOUS
 62
    7
 10
172.2642032022442
 20
125.16318282381162
 11
172.49686555994609
 21
120.08390344819561
  0
ARC
  8
_1-0_
  6
CONTINUOUS
 62
    7
 10
173.41420320213686
 20
118.26318282380142
 40
1.7
 50
47.784709455458739
 51
110.02064541317044
  0
ARC
  8
_1-0_
  6
CONTINUOUS
 62
    7
 10
174.28920320213652
 20
119.22765600260762
 40
0.3977582741150607
 50
239.99999999993153
 51
47.784709455458312
  0
LINE
  8
_1-0_
  6
CONTINUOUS
 62
    7
 10
173.41420320213822
 20
119.27354579488322
 11
172.53920320213766
 21
118.76836430934345
  0
LINE
  8
_1-0_
  6
CONTINUOUS
 62
    7
 10
172.53920320213743
 20
118.7683643093438
 11
172.53920320213686
 21
118.26318282381153
  0
LINE
  8
_1-0_
  6
CONTINUOUS
 62
    7
 10
174.09032406507848
 20
118.88318723265873
 11
173.41420320213788
 21
119.27354579488322
  0
ARC
  8
_1-0_
  6
CONTINUOUS
 62
    7
 10
187.41420320223895
 20
118.26318282380142
 40
1.7
 50
62.513573749618303
 51
132.21529054454132
  0
ARC
  8
_1-0_
  6
CONTINUOUS
 62
    7
 10
186.53920320223929
 20
119.22765600260762
 40
0.3977582741150607
 50
132.21529054454177
 51
300.0000000000685
  0
LINE
  8
_1-0_
  6
CONTINUOUS
 62
    7
 10
187.4142032022377
 20
119.27354579488322
 11
188.28920320223827
 21
118.76836430934345
  0
LINE
  8
_1-0_
  6
CONTINUOUS
 62
    7
 10
188.28920320223827
 20
118.76836430934334
 11
188.28920320223884
 21
118.26318282380096
  0
LINE
  8
_1-0_
  6
CONTINUOUS
 62
    7
 10
186.73808233929734
 20
118.88318723265884
 11
187.41420320223781
 21
119.27354579488333
  0
LINE
  8
_1-0_
  6
CONTINUOUS
 62
    7
 10
189.16420320223895
 20
125.1631828238006
 11
205.56420320223893
 21
125.1631828237948
  0
LINE
  8
_1-0_
  6
CONTINUOUS
 62
    7
 10
188.56420320223893
 20
119.99306721300202
 11
188.56420320223893
 21
125.16318282380105
  0
LINE
  8
_1-0_
  6
CONTINUOUS
 62
    7
 10
189.16420320223895
 20
118.26318282380073
 11
189.16420320223895
 21
125.16318282380082
  0
LINE
  8
_1-0_
  6
CONTINUOUS
 62
    7
 10
205.56420320223904
 20
125.1631828237948
 11
205.76420320223909
 21
124.96318282379475
  0
LINE
  8
_1-0_
  6
CONTINUOUS
 62
    7
 10
205.76420320223909
 20
124.96318282379487
 11
206.31298681518231
 21
124.96318282379475
  0
LINE
  8
_1-0_
  6
CONTINUOUS
 62
    7
 10
171.66420320224441
 20
125.76318282381165
 11
209.16420320223895
 21
125.7631828237938
  0
LINE
  8
_1-0_
  6
CONTINUOUS
 62
    7
 10
206.58872829604937
 20
124.14602449290017
 11
208.99397734450238
 21
124.95586804650277
  0
LINE
  8
_1-0_
  6
CONTINUOUS
 62
    7
 10
206.39182803233987
 20
124.27120234172487
 11
206.31298681518243
 21
124.96318282379441
  0
ARC
  8
_1-0_
  6
CONTINUOUS
 62
    7
 10
206.54086381069126
 20
124.28818282379036
 40
0.1499999999999999
 50
186.49999999999821
 51
288.60829801488677
  0
LINE
  8
_1-0_
  6
CONTINUOUS
 62
    7
 10
171.66420320224429
 20
118.26318282381165
 11
171.66420320224429
 21
125.76318282381165
  0
LINE
  8
_1-0_
  6
CONTINUOUS
 62
    7
 10
209.16420320223895
 20
125.76318282379368
 11
209.16420320223895
 21
125.19279859798606
  0
LINE
  8
_1-0_
  6
CONTINUOUS
 62
    9
 10
206.61420320223888
 20
118.27568282380135
 11
206.61420320223888
 21
123.33026123832072
  0
LINE
  8
_1-0_
  6
CONTINUOUS
 62
    9
 10
207.26420320223897
 20
118.27568282380135
 11
207.26420320223897
 21
123.5044282134016
  0
LINE
  8
_1-0_
  6
CONTINUOUS
 62
    9
 10
206.62890796351465
 20
123.3342013672296
 11
209.16420320223884
 21
124.01353167902228
  0
ARC
  8
_1-0_
  6
CONTINUOUS
 62
    9
 10
206.56420320223893
 20
123.5756828238013
 40
0.25
 50
180
 51
285.00000000004496
  0
LINE
  8
_1-0_
  6
CONTINUOUS
 62
    9
 10
201.41420320223895
 20
123.73853812409159
 11
205.99949844096298
 21
124.96716428037332
  0
ARC
  8
_1-0_
  6
CONTINUOUS
 62
    9
 10
206.06420320223893
 20
124.72568282380128
 40
0.25
 50
0
 51
105.00000000008929
  0
LINE
  8
_1-0_
  6
CONTINUOUS
 62
    9
 10
206.31420320223893
 20
123.5756828238013
 11
206.31420320223893
 21
124.72568282380128
  0
LINE
  8
_1-0_
  6
CONTINUOUS
 62
    9
 10
201.41420320223895
 20
123.73853812409182
 11
201.41420320223895
 21
118.27568282380135
  0
LINE
  8
_1-0_
  6
CONTINUOUS
 62
    9
 10
206.61420320223888
 20
118.27568282380135
 11
206.61420320223888
 21
113.19610440928177
  0
LINE
  8
_1-0_
  6
CONTINUOUS
 62
    9
 10
207.26420320223897
 20
118.27568282380135
 11
207.26420320223897
 21
113.02193743420101
  0
LINE
  8
_1-0_
  6
CONTINUOUS
 62
    9
 10
206.62890796351465
 20
113.19216428037323
 11
209.16420320223907
 21
112.51283396858044
  0
ARC
  8
_1-0_
  6
CONTINUOUS
 62
    9
 10
206.56420320223893
 20
112.95068282380142
 40
0.25
 50
74.99999999995498
 51
180
  0
LINE
  8
_1-0_
  6
CONTINUOUS
 62
    9
 10
201.41420320223907
 20
112.78782752351067
 11
205.99949844096298
 21
111.55920136722894
  0
ARC
  8
_1-0_
  6
CONTINUOUS
 62
    9
 10
206.06420320223893
 20
111.80068282380132
 40
0.25
 50
254.9999999999107
 51
0
  0
LINE
  8
_1-0_
  6
CONTINUOUS
 62
    9
 10
206.31420320223893
 20
112.95068282380142
 11
206.31420320223893
 21
111.80068282380132
  0
LINE
  8
_1-0_
  6
CONTINUOUS
 62
    9
 10
201.41420320223895
 20
112.7878275235109
 11
201.41420320223895
 21
118.27568282380135
  0
TEXT
  8
_1-0_
 62
    7
 10
146.43303878157022
 20
-19.56335658687118
 40
5.4000000000000057
 41
0.999999999999999
 50
0
  1
30
  0
LINE
  8
_1-0_
  6
CONTINUOUS
 62
    7
 10
165.09522249613988
 20
73.250682824091712
 11
165.09522249613988
 21
88.250682824091726
  0
LINE
  8
_1-0_
  6
CONTINUOUS
 62
    4
 10
165.09522249613988
 20
88.250682824091726
 11
170.26185529086288
 21
88.250682824091726
  0
POINT
  8
_1-0_
 62
    4
 10
165.09522249613988
 20
88.250682824091726
  0
LINE
  8
_1-0_
  6
CONTINUOUS
 62
    4
 10
165.09522249613988
 20
73.250682824091712
 11
170.26185529086288
 21
73.250682824091712
  0
POINT
  8
_1-0_
 62
    4
 10
165.09522249613988
 20
73.250682824091712
  0
LINE
  8
_1-0_
  6
CONTINUOUS
 62
    7
 10
209.16419704806586
 20
91.492210441320211
 11
209.16419909945685
 21
86.51353167902046
  0
LINE
  8
_1-0_
  6
CONTINUOUS
 62
    7
 10
209.16419704806586
 20
88.263182824073809
 11
209.16419704806586
 21
87.692771518594853
  0
LINE
  8
_1-0_
  6
CONTINUOUS
 62
    7
 10
209.16419704806052
 20
73.263182824073795
 11
209.16419704806086
 21
73.833594129639835
  0
ARC
  8
_1-0_
  6
CONTINUOUS
 62
    9
 10
206.56419704806584
 20
75.4506828237989
 40
0.25
 50
74.99999999995498
 51
180
  0
LINE
  8
_1-0_
  6
CONTINUOUS
 62
    9
 10
206.62890180934167
 20
75.692164280370719
 11
209.16419704806597
 21
75.012833968577809
  0
LINE
  8
_1-0_
  6
CONTINUOUS
 62
    9
 10
207.26419704806588
 20
80.775682823798718
 11
207.26419704806588
 21
75.521937434198492
  0
LINE
  8
_1-0_
  6
CONTINUOUS
 62
    9
 10
206.6141970480659
 20
80.775682823798718
 11
206.6141970480659
 21
75.696104409279371
  0
ARC
  8
_1-0_
  6
CONTINUOUS
 62
    9
 10
206.56419704806584
 20
86.075682823798687
 40
0.25
 50
180
 51
285.00000000004496
  0
LINE
  8
_1-0_
  6
CONTINUOUS
 62
    9
 10
206.62890180934156
 20
85.834201367226868
 11
209.16419704806586
 21
86.51353167901955
  0
LINE
  8
_1-0_
  6
CONTINUOUS
 62
    9
 10
207.26419704806588
 20
80.775682823798718
 11
207.26419704806588
 21
86.004428213399095
  0
LINE
  8
_1-0_
  6
CONTINUOUS
 62
    9
 10
206.6141970480659
 20
80.775682823798718
 11
206.6141970480659
 21
85.830261238318215
  0
LINE
  8
_1-0_
  6
CONTINUOUS
 62
    7
 10
209.16419704806586
 20
88.250682824073763
 11
209.16419704806586
 21
87.680271518594807
  0
ARC
  8
_1-0_
  6
CONTINUOUS
 62
    7
 10
206.5420740435741
 20
86.775682824070444
 40
0.1499999999999999
 50
186.49999999999821
 51
288.60829801488677
  0
LINE
  8
_1-0_
  6
CONTINUOUS
 62
    7
 10
184.1641970480712
 20
88.250682824091726
 11
209.16419704806574
 21
88.250682824073763
  0
LINE
  8
_1-0_
  6
CONTINUOUS
 62
    7
 10
209.16419704806052
 20
73.250682824073749
 11
209.16419704806097
 21
73.821094129639789
  0
ARC
  8
_1-0_
  6
CONTINUOUS
 62
    7
 10
206.54207404356978
 20
74.725682824078888
 40
0.1499999999999999
 50
71.383514957199623
 51
173.49999999996072
  0
LINE
  8
_1-0_
  6
CONTINUOUS
 62
    7
 10
184.16419704806574
 20
73.250682824091712
 11
209.16419704806052
 21
73.250682824073976
  0
LINE
  8
_1-0_
  6
CONTINUOUS
 62
    7
 10
206.58995884152731
 20
74.867834314132836
 11
208.99400504465669
 21
74.058013279730005
  0
ARC
  8
_1-0_
  6
CONTINUOUS
 62
    7
 10
208.91419704806086
 20
73.821094129640016
 40
0.25
 50
0
 51
71.383514957200816
  0
LINE
  8
_1-0_
  6
CONTINUOUS
 62
    7
 10
206.58995884152071
 20
86.633531334099487
 11
208.99400504464919
 21
87.443352368505046
  0
ARC
  8
_1-0_
  6
CONTINUOUS
 62
    7
 10
208.91419704805324
 20
87.680271518594807
 40
0.25
 50
288.61648504286279
 51
0.0000000000000254
  0
LINE
  8
_1-0_
  6
CONTINUOUS
 62
    7
 10
209.16419909945697
 20
88.263182824074718
 11
209.16419909945697
 21
87.692771518595762
  0
LINE
  8
_1-0_
  6
CONTINUOUS
 62
    7
 10
209.16419909945162
 20
73.263182824074704
 11
209.16419909945196
 21
73.833594129640744
  0
LINE
  8
_1-0_
  6
CONTINUOUS
 62
    9
 10
206.62890386073278
 20
75.692164280371628
 11
209.16419909945708
 21
75.012833968578718
  0
LINE
  8
_1-0_
  6
CONTINUOUS
 62
    9
 10
207.26419909945699
 20
80.775682823799627
 11
207.26419909945699
 21
75.521937434199401
  0
LINE
  8
_1-0_
  6
CONTINUOUS
 62
    9
 10
206.62890386073266
 20
85.834201367227777
 11
209.16419909945697
 21
86.51353167902046
  0
LINE
  8
_1-0_
  6
CONTINUOUS
 62
    9
 10
207.26419909945699
 20
80.775682823799627
 11
207.26419909945699
 21
86.004428213400004
  0
LINE
  8
_1-0_
  6
CONTINUOUS
 62
    7
 10
209.16419909945697
 20
88.250682824074673
 11
209.16419909945697
 21
87.680271518595717
  0
LINE
  8
_1-0_
  6
CONTINUOUS
 62
    7
 10
184.16419909946231
 20
88.250682824092635
 11
209.16419909945685
 21
88.250682824074673
  0
LINE
  8
_1-0_
  6
CONTINUOUS
 62
    7
 10
209.16419909945162
 20
73.250682824074659
 11
209.16419909945208
 21
73.821094129640699
  0
LINE
  8
_1-0_
  6
CONTINUOUS
 62
    7
 10
184.16419909945685
 20
73.250682824092621
 11
209.16419909945162
 21
73.250682824074886
  0
LINE
  8
_1-0_
  6
CONTINUOUS
 62
    7
 10
206.58996089291841
 20
74.867834314133745
 11
208.9940070960478
 21
74.058013279730915
  0
ARC
  8
_1-0_
  6
CONTINUOUS
 62
    7
 10
208.91419909945196
 20
73.821094129640926
 40
0.25
 50
0
 51
71.383514957200816
  0
LINE
  8
_1-0_
  6
CONTINUOUS
 62
    7
 10
206.58996089291182
 20
86.633531334100397
 11
208.99400709604029
 21
87.443352368505955
  0
ARC
  8
_1-0_
  6
CONTINUOUS
 62
    7
 10
208.91419909944435
 20
87.680271518595717
 40
0.25
 50
288.61648504286279
 51
0.0000000000000254
  0
LINE
  8
_1-0_
  6
CONTINUOUS
 62
    7
 10
209.16419909945685
 20
88.263182824074718
 11
209.16419909945685
 21
87.692771518595762
  0
LINE
  8
_1-0_
  6
CONTINUOUS
 62
    7
 10
209.16419909945151
 20
73.263182824074704
 11
209.16419909945185
 21
73.833594129640744
  0
LINE
  8
_1-0_
  6
CONTINUOUS
 62
    9
 10
206.62890386073266
 20
75.692164280371628
 11
209.16419909945697
 21
75.012833968578718
  0
LINE
  8
_1-0_
  6
CONTINUOUS
 62
    9
 10
206.62890386073255
 20
85.834201367227777
 11
209.16419909945685
 21
86.51353167902046
  0
LINE
  8
_1-0_
  6
CONTINUOUS
 62
    7
 10
209.16419909945685
 20
88.250682824074673
 11
209.16419909945685
 21
87.680271518595717
  0
LINE
  8
_1-0_
  6
CONTINUOUS
 62
    7
 10
184.16419909946219
 20
88.250682824092635
 11
209.16419909945674
 21
88.250682824074673
  0
LINE
  8
_1-0_
  6
CONTINUOUS
 62
    7
 10
209.16419909945151
 20
73.250682824074659
 11
209.16419909945196
 21
73.821094129640699
  0
LINE
  8
_1-0_
  6
CONTINUOUS
 62
    7
 10
184.16419909945674
 20
73.250682824092621
 11
209.16419909945151
 21
73.250682824074886
  0
LINE
  8
_1-0_
  6
CONTINUOUS
 62
    7
 10
206.5899608929183
 20
74.867834314133745
 11
208.99400709604768
 21
74.058013279730915
  0
ARC
  8
_1-0_
  6
CONTINUOUS
 62
    7
 10
208.91419909945185
 20
73.821094129640926
 40
0.25
 50
0
 51
71.383514957200816
  0
LINE
  8
_1-0_
  6
CONTINUOUS
 62
    7
 10
206.58996089291171
 20
86.633531334100397
 11
208.99400709604018
 21
87.443352368505955
  0
ARC
  8
_1-0_
  6
CONTINUOUS
 62
    7
 10
208.91419909944423
 20
87.680271518595717
 40
0.25
 50
288.61648504286279
 51
0.0000000000000254
  0
LINE
  8
_1-0_
  6
CONTINUOUS
 62
    7
 10
172.26419909946222
 20
87.663182823809805
 11
188.56419909945694
 21
87.663182823799232
  0
ARC
  8
_1-0_
  6
CONTINUOUS
 62
    7
 10
208.91419909945196
 20
73.83356704959948
 40
0.25
 50
0
 51
71.391701985071677
  0
ARC
  8
_1-0_
  6
CONTINUOUS
 62
    7
 10
208.91419909945697
 20
87.692798597984236
 40
0.25
 50
288.60829801488717
 51
0.0000000000000254
  0
ARC
  8
_1-0_
  6
CONTINUOUS
 62
    7
 10
188.31419909945581
 20
79.033298434598294
 40
0.25
 50
359.99999999995896
 51
117.48642625033941
  0
ARC
  8
_1-0_
  6
CONTINUOUS
 62
    7
 10
172.74659959347039
 20
78.931022650759644
 40
0.25
 50
69.97935458678981
 51
177.37733279537682
  0
LINE
  8
_1-0_
  6
CONTINUOUS
 62
    7
 10
172.2641990994571
 20
73.863182823809609
 11
172.49686145716274
 21
78.942462199425279
  0
ARC
  8
_1-0_
  6
CONTINUOUS
 62
    7
 10
173.41419909935487
 20
80.76318282381834
 40
1.7
 50
249.97935458678847
 51
312.21529054450031
  0
ARC
  8
_1-0_
  6
CONTINUOUS
 62
    7
 10
174.28919909935385
 20
79.79870964501157
 40
0.3977582741150607
 50
312.2152905445007
 51
120.00000000002743
  0
LINE
  8
_1-0_
  6
CONTINUOUS
 62
    7
 10
173.41419909935533
 20
79.752819852736422
 11
172.53919909935522
 21
80.258001338276756
  0
LINE
  8
_1-0_
  6
CONTINUOUS
 62
    7
 10
172.53919909935533
 20
80.258001338277211
 11
172.5391990993551
 21
80.763182823809473
  0
LINE
  8
_1-0_
  6
CONTINUOUS
 62
    7
 10
174.09031996229615
 20
80.143178414960573
 11
173.41419909935533
 21
79.752819852736422
  0
ARC
  8
_1-0_
  6
CONTINUOUS
 62
    7
 10
187.41419909945697
 20
80.763182823799468
 40
1.7
 50
227.78470945541761
 51
297.48642625034063
  0
ARC
  8
_1-0_
  6
CONTINUOUS
 62
    7
 10
186.53919909945662
 20
79.798709644993835
 40
0.3977582741150607
 50
59.99999999989042
 51
227.78470945541724
  0
LINE
  8
_1-0_
  6
CONTINUOUS
 62
    7
 10
187.41419909945515
 20
79.75281985271755
 11
188.28919909945606
 21
80.258001338256747
  0
LINE
  8
_1-0_
  6
CONTINUOUS
 62
    7
 10
188.28919909945594
 20
80.258001338256747
 11
188.28919909945697
 21
80.763182823799127
  0
LINE
  8
_1-0_
  6
CONTINUOUS
 62
    7
 10
186.73807823651478
 20
80.143178414942497
 11
187.41419909945492
 21
79.752819852717664
  0
LINE
  8
_1-0_
  6
CONTINUOUS
 62
    7
 10
172.26419909945733
 20
73.863182823809495
 11
188.56419909945194
 21
73.863182823799036
  0
LINE
  8
_1-0_
  6
CONTINUOUS
 62
    7
 10
189.16419909945196
 20
73.863182823798923
 11
205.56419909945194
 21
73.863182823793124
  0
LINE
  8
_1-0_
  6
CONTINUOUS
 62
    7
 10
188.56419909945581
 20
79.033298434598066
 11
188.56419909945205
 21
73.863182823799264
  0
LINE
  8
_1-0_
  6
CONTINUOUS
 62
    7
 10
189.16419909945697
 20
80.763182823799013
 11
189.16419909945208
 21
73.863182823798923
  0
LINE
  8
_1-0_
  6
CONTINUOUS
 62
    7
 10
205.56419909945205
 20
73.863182823793011
 11
205.76419909945233
 21
74.063182823792943
  0
LINE
  8
_1-0_
  6
CONTINUOUS
 62
    7
 10
205.76419909945221
 20
74.063182823792943
 11
206.31298271239555
 21
74.063182823792715
  0
LINE
  8
_1-0_
  6
CONTINUOUS
 62
    7
 10
171.66419909945697
 20
73.2631828238097
 11
209.16419909945162
 21
73.263182823791851
  0
LINE
  8
_1-0_
  6
CONTINUOUS
 62
    7
 10
206.58872419326318
 20
74.880341154686732
 11
208.99397324171574
 21
74.070497601082423
  0
LINE
  8
_1-0_
  6
CONTINUOUS
 62
    7
 10
206.39182392955357
 20
74.755163305862027
 11
206.31298271239567
 21
74.063182823792715
  0
ARC
  8
_1-0_
  6
CONTINUOUS
 62
    7
 10
206.54085970790496
 20
74.73818282379699
 40
0.1499999999999999
 50
71.391701985072046
 51
173.49999999996072
  0
LINE
  8
_1-0_
  6
CONTINUOUS
 62
    7
 10
171.66419909946231
 20
80.763182823809814
 11
171.66419909945697
 21
73.263182823809814
  0
LINE
  8
_1-0_
  6
CONTINUOUS
 62
    7
 10
209.16419909945162
 20
73.263182823791738
 11
209.16419909945208
 21
73.833567049599139
  0
ARC
  8
_1-0_
  6
CONTINUOUS
 62
    7
 10
188.31419909945694
 20
82.493067213000202
 40
0.25
 50
242.51357374961941
 51
0
  0
ARC
  8
_1-0_
  6
CONTINUOUS
 62
    7
 10
172.74659959347164
 20
82.595342996858861
 40
0.25
 50
182.62266720458211
 51
290.02064541316906
  0
LINE
  8
_1-0_
  6
CONTINUOUS
 62
    7
 10
172.26419909946222
 20
87.663182823809805
 11
172.4968614571641
 21
82.583903448193794
  0
ARC
  8
_1-0_
  6
CONTINUOUS
 62
    7
 10
173.41419909935487
 20
80.763182823799582
 40
1.7
 50
47.784709455458739
 51
110.02064541317044
  0
ARC
  8
_1-0_
  6
CONTINUOUS
 62
    7
 10
174.28919909935453
 20
81.727656002605784
 40
0.3977582741150607
 50
239.99999999993153
 51
47.784709455458312
  0
LINE
  8
_1-0_
  6
CONTINUOUS
 62
    7
 10
173.41419909935624
 20
81.773545794881386
 11
172.53919909935567
 21
81.268364309341621
  0
LINE
  8
_1-0_
  6
CONTINUOUS
 62
    7
 10
172.53919909935544
 20
81.268364309341962
 11
172.53919909935487
 21
80.7631828238097
  0
LINE
  8
_1-0_
  6
CONTINUOUS
 62
    7
 10
174.09031996229649
 20
81.383187232656894
 11
173.4141990993559
 21
81.773545794881386
  0
ARC
  8
_1-0_
  6
CONTINUOUS
 62
    7
 10
187.41419909945697
 20
80.763182823799582
 40
1.7
 50
62.513573749618303
 51
132.21529054454132
  0
ARC
  8
_1-0_
  6
CONTINUOUS
 62
    7
 10
186.53919909945731
 20
81.727656002605784
 40
0.3977582741150607
 50
132.21529054454177
 51
300.0000000000685
  0
LINE
  8
_1-0_
  6
CONTINUOUS
 62
    7
 10
187.41419909945571
 20
81.773545794881386
 11
188.28919909945628
 21
81.268364309341621
  0
LINE
  8
_1-0_
  6
CONTINUOUS
 62
    7
 10
188.28919909945628
 20
81.268364309341507
 11
188.28919909945685
 21
80.763182823799127
  0
LINE
  8
_1-0_
  6
CONTINUOUS
 62
    7
 10
186.73807823651535
 20
81.383187232657008
 11
187.41419909945583
 21
81.7735457948815
  0
LINE
  8
_1-0_
  6
CONTINUOUS
 62
    7
 10
189.16419909945697
 20
87.663182823798778
 11
205.56419909945694
 21
87.66318282379298
  0
LINE
  8
_1-0_
  6
CONTINUOUS
 62
    7
 10
188.56419909945694
 20
82.493067213000202
 11
188.56419909945694
 21
87.663182823799232
  0
LINE
  8
_1-0_
  6
CONTINUOUS
 62
    7
 10
189.16419909945697
 20
80.7631828237989
 11
189.16419909945697
 21
87.663182823799005
  0
LINE
  8
_1-0_
  6
CONTINUOUS
 62
    7
 10
205.56419909945706
 20
87.66318282379298
 11
205.7641990994571
 21
87.463182823792934
  0
LINE
  8
_1-0_
  6
CONTINUOUS
 62
    7
 10
205.7641990994571
 20
87.463182823793048
 11
206.31298271240033
 21
87.463182823792934
  0
LINE
  8
_1-0_
  6
CONTINUOUS
 62
    7
 10
171.66419909946242
 20
88.263182823809828
 11
209.16419909945697
 21
88.263182823791979
  0
LINE
  8
_1-0_
  6
CONTINUOUS
 62
    7
 10
206.58872419326738
 20
86.646024492898349
 11
208.9939732417204
 21
87.455868046500953
  0
LINE
  8
_1-0_
  6
CONTINUOUS
 62
    7
 10
206.39182392955789
 20
86.771202341723054
 11
206.31298271240044
 21
87.463182823792593
  0
ARC
  8
_1-0_
  6
CONTINUOUS
 62
    7
 10
206.54085970790928
 20
86.788182823788546
 40
0.1499999999999999
 50
186.49999999999821
 51
288.60829801488677
  0
LINE
  8
_1-0_
  6
CONTINUOUS
 62
    7
 10
171.66419909946231
 20
80.763182823809814
 11
171.66419909946231
 21
88.263182823809828
  0
LINE
  8
_1-0_
  6
CONTINUOUS
 62
    7
 10
209.16419909945697
 20
88.263182823791865
 11
209.16419909945697
 21
87.692798597984236
  0
LINE
  8
_1-0_
  6
CONTINUOUS
 62
    9
 10
206.6141990994569
 20
80.775682823799514
 11
206.6141990994569
 21
85.830261238318897
  0
LINE
  8
_1-0_
  6
CONTINUOUS
 62
    9
 10
207.26419909945699
 20
80.775682823799514
 11
207.26419909945699
 21
86.004428213399777
  0
LINE
  8
_1-0_
  6
CONTINUOUS
 62
    9
 10
206.62890386073266
 20
85.834201367227777
 11
209.16419909945685
 21
86.51353167902046
  0
ARC
  8
_1-0_
  6
CONTINUOUS
 62
    9
 10
206.56419909945694
 20
86.075682823799482
 40
0.25
 50
180
 51
285.00000000004496
  0
LINE
  8
_1-0_
  6
CONTINUOUS
 62
    9
 10
201.41419909945697
 20
86.238538124089771
 11
205.99949433818099
 21
87.467164280371506
  0
ARC
  8
_1-0_
  6
CONTINUOUS
 62
    9
 10
206.06419909945694
 20
87.22568282379946
 40
0.25
 50
0
 51
105.00000000008929
  0
LINE
  8
_1-0_
  6
CONTINUOUS
 62
    9
 10
206.31419909945694
 20
86.075682823799482
 11
206.31419909945694
 21
87.22568282379946
  0
LINE
  8
_1-0_
  6
CONTINUOUS
 62
    9
 10
201.41419909945697
 20
86.238538124089999
 11
201.41419909945697
 21
80.775682823799514
  0
LINE
  8
_1-0_
  6
CONTINUOUS
 62
    9
 10
206.6141990994569
 20
80.775682823799514
 11
206.6141990994569
 21
75.69610440927994
  0
LINE
  8
_1-0_
  6
CONTINUOUS
 62
    9
 10
207.26419909945699
 20
80.775682823799514
 11
207.26419909945699
 21
75.521937434199174
  0
LINE
  8
_1-0_
  6
CONTINUOUS
 62
    9
 10
206.62890386073266
 20
75.692164280371401
 11
209.16419909945708
 21
75.012833968578605
  0
ARC
  8
_1-0_
  6
CONTINUOUS
 62
    9
 10
206.56419909945694
 20
75.450682823799582
 40
0.25
 50
74.99999999995498
 51
180
  0
LINE
  8
_1-0_
  6
CONTINUOUS
 62
    9
 10
201.41419909945708
 20
75.287827523508838
 11
205.99949433818099
 21
74.059201367227104
  0
ARC
  8
_1-0_
  6
CONTINUOUS
 62
    9
 10
206.06419909945694
 20
74.300682823799491
 40
0.25
 50
254.9999999999107
 51
0
  0
LINE
  8
_1-0_
  6
CONTINUOUS
 62
    9
 10
206.31419909945694
 20
75.450682823799582
 11
206.31419909945694
 21
74.300682823799491
  0
LINE
  8
_1-0_
  6
CONTINUOUS
 62
    9
 10
201.41419909945697
 20
75.287827523509065
 11
201.41419909945697
 21
80.775682823799514
  0
LINE
  8
_1-0_
  6
CONTINUOUS
 62
    7
 10
205.70419243294944
 20
301.45417329401363
 11
205.70419243294944
 21
346.45417329401363
  0
LINE
  8
_1-0_
  6
CONTINUOUS
 62
    4
 10
205.70419243294944
 20
346.45417329401363
 11
221.20409081711844
 21
346.45417329401363
  0
POINT
  8
_1-0_
 62
    4
 10
205.70419243294944
 20
346.45417329401363
  0
LINE
  8
_1-0_
  6
CONTINUOUS
 62
    4
 10
205.70419243294944
 20
301.45417329401363
 11
221.20409081711844
 21
301.45417329401363
  0
POINT
  8
_1-0_
 62
    4
 10
205.70419243294944
 20
301.45417329401363
  0
LINE
  8
_1-0_
  6
CONTINUOUS
 62
    7
 10
337.91111608872734
 20
346.49167329395988
 11
337.91111608872734
 21
344.78043937752301
  0
LINE
  8
_1-0_
  6
CONTINUOUS
 62
    7
 10
337.91111608871131
 20
301.49167329395988
 11
337.91111608871233
 21
303.202907210658
  0
LINE
  8
_1-0_
  6
CONTINUOUS
 62
    7
 10
337.91111608872734
 20
346.45417329395974
 11
337.91111608872734
 21
344.74293937752287
  0
ARC
  8
_1-0_
  6
CONTINUOUS
 62
    7
 10
330.04474707525208
 20
342.02917329394978
 40
0.4499999999999999
 50
186.49999999999821
 51
288.60829801488677
  0
LINE
  8
_1-0_
  6
CONTINUOUS
 62
    7
 10
262.91111608874337
 20
346.45417329401363
 11
337.911116088727
 21
346.45417329395974
  0
LINE
  8
_1-0_
  6
CONTINUOUS
 62
    7
 10
337.91111608871131
 20
301.45417329395974
 11
337.91111608871267
 21
303.16540721065786
  0
ARC
  8
_1-0_
  6
CONTINUOUS
 62
    7
 10
330.04474707523912
 20
305.87917329397516
 40
0.4499999999999999
 50
71.383514957199623
 51
173.49999999996072
  0
LINE
  8
_1-0_
  6
CONTINUOUS
 62
    7
 10
262.911116088727
 20
301.45417329401363
 11
337.91111608871131
 21
301.45417329396042
  0
LINE
  8
_1-0_
  6
CONTINUOUS
 62
    7
 10
330.18840146911168
 20
306.305627764137
 11
337.40054007849983
 21
303.87616466092851
  0
ARC
  8
_1-0_
  6
CONTINUOUS
 62
    7
 10
337.16111608871233
 20
303.16540721065854
 40
0.75
 50
0
 51
71.383514957200816
  0
LINE
  8
_1-0_
  6
CONTINUOUS
 62
    7
 10
330.1884014690919
 20
341.60271882403691
 11
337.40054007847732
 21
344.03218192725359
  0
ARC
  8
_1-0_
  6
CONTINUOUS
 62
    7
 10
337.16111608868948
 20
344.74293937752287
 40
0.75
 50
288.61648504286279
 51
0.0000000000000254
  0
LINE
  8
_1-0_
  6
CONTINUOUS
 62
    7
 10
337.91112224290066
 20
346.49167329396261
 11
337.91112224290066
 21
344.78043937752574
  0
LINE
  8
_1-0_
  6
CONTINUOUS
 62
    7
 10
337.91112224288463
 20
301.49167329396261
 11
337.91112224288565
 21
303.20290721066073
  0
LINE
  8
_1-0_
  6
CONTINUOUS
 62
    9
 10
330.30523652672809
 20
308.77861766285338
 11
337.911122242901
 21
306.74062672747465
  0
LINE
  8
_1-0_
  6
CONTINUOUS
 62
    7
 10
337.91112224290066
 20
346.45417329396247
 11
337.91112224290066
 21
344.7429393775256
  0
LINE
  8
_1-0_
  6
CONTINUOUS
 62
    7
 10
262.91112224291669
 20
346.45417329401636
 11
337.91112224290032
 21
346.45417329396247
  0
LINE
  8
_1-0_
  6
CONTINUOUS
 62
    7
 10
337.91112224288463
 20
301.45417329396247
 11
337.91112224288599
 21
303.16540721066059
  0
LINE
  8
_1-0_
  6
CONTINUOUS
 62
    7
 10
262.91112224290032
 20
301.45417329401636
 11
337.91112224288463
 21
301.45417329396315
  0
LINE
  8
_1-0_
  6
CONTINUOUS
 62
    7
 10
330.188407623285
 20
306.30562776413973
 11
337.40054623267315
 21
303.87616466093124
  0
ARC
  8
_1-0_
  6
CONTINUOUS
 62
    7
 10
337.16112224288565
 20
303.16540721066127
 40
0.75
 50
0
 51
71.383514957200816
  0
LINE
  8
_1-0_
  6
CONTINUOUS
 62
    7
 10
330.18840762326522
 20
341.60271882403964
 11
337.40054623265064
 21
344.03218192725632
  0
ARC
  8
_1-0_
  6
CONTINUOUS
 62
    7
 10
337.1611222428628
 20
344.7429393775256
 40
0.75
 50
288.61648504286279
 51
0.0000000000000254
  0
LINE
  8
_1-0_
  6
CONTINUOUS
 62
    7
 10
337.91112224290032
 20
346.49167329396261
 11
337.91112224290032
 21
344.78043937752574
  0
LINE
  8
_1-0_
  6
CONTINUOUS
 62
    7
 10
337.91112224288429
 20
301.49167329396261
 11
337.91112224288531
 21
303.20290721066073
  0
LINE
  8
_1-0_
  6
CONTINUOUS
 62
    7
 10
337.91112224290032
 20
346.45417329396247
 11
337.91112224290032
 21
344.7429393775256
  0
LINE
  8
_1-0_
  6
CONTINUOUS
 62
    7
 10
262.91112224291635
 20
346.45417329401636
 11
337.91112224289998
 21
346.45417329396247
  0
LINE
  8
_1-0_
  6
CONTINUOUS
 62
    7
 10
337.91112224288429
 20
301.45417329396247
 11
337.91112224288565
 21
303.16540721066059
  0
LINE
  8
_1-0_
  6
CONTINUOUS
 62
    7
 10
262.91112224289998
 20
301.45417329401636
 11
337.91112224288429
 21
301.45417329396315
  0
LINE
  8
_1-0_
  6
CONTINUOUS
 62
    7
 10
330.18840762328466
 20
306.30562776413973
 11
337.40054623267281
 21
303.87616466093124
  0
ARC
  8
_1-0_
  6
CONTINUOUS
 62
    7
 10
337.16112224288531
 20
303.16540721066127
 40
0.75
 50
0
 51
71.383514957200816
  0
LINE
  8
_1-0_
  6
CONTINUOUS
 62
    7
 10
330.18840762326488
 20
341.60271882403964
 11
337.4005462326503
 21
344.03218192725632
  0
ARC
  8
_1-0_
  6
CONTINUOUS
 62
    7
 10
337.16112224286246
 20
344.7429393775256
 40
0.75
 50
288.61648504286279
 51
0.0000000000000254
  0
LINE
  8
_1-0_
  6
CONTINUOUS
 62
    7
 10
227.21112224291645
 20
344.69167329316787
 11
276.11112224290059
 21
344.69167329313615
  0
ARC
  8
_1-0_
  6
CONTINUOUS
 62
    7
 10
337.16112224288565
 20
303.20282597053694
 40
0.75
 50
0
 51
71.391701985071677
  0
ARC
  8
_1-0_
  6
CONTINUOUS
 62
    7
 10
337.16112224290066
 20
344.78052061569116
 40
0.75
 50
288.60829801488717
 51
0.0000000000000254
  0
ARC
  8
_1-0_
  6
CONTINUOUS
 62
    7
 10
275.36112224289718
 20
318.80202012553337
 40
0.75
 50
359.99999999995896
 51
117.48642625033941
  0
ARC
  8
_1-0_
  6
CONTINUOUS
 62
    7
 10
228.65832372494097
 20
318.49519277401743
 40
0.75
 50
69.97935458678981
 51
177.37733279537682
  0
LINE
  8
_1-0_
  6
CONTINUOUS
 62
    7
 10
227.2111222429011
 20
303.29167329316732
 11
227.909109316018
 21
318.52951142001433
  0
ARC
  8
_1-0_
  6
CONTINUOUS
 62
    7
 10
230.66112224259442
 20
323.99167329319351
 40
5.0999999999999996
 50
249.97935458678847
 51
312.21529054450031
  0
ARC
  8
_1-0_
  6
CONTINUOUS
 62
    7
 10
233.28612224259135
 20
321.0982537567732
 40
1.1932748223451823
 50
312.2152905445007
 51
120.00000000002743
  0
LINE
  8
_1-0_
  6
CONTINUOUS
 62
    7
 10
230.66112224259578
 20
320.96058437994776
 11
228.03612224259544
 21
322.47612883656876
  0
LINE
  8
_1-0_
  6
CONTINUOUS
 62
    7
 10
228.03612224259578
 20
322.47612883657013
 11
228.0361222425951
 21
323.99167329316691
  0
LINE
  8
_1-0_
  6
CONTINUOUS
 62
    7
 10
232.68948483141824
 20
322.13166006662021
 11
230.66112224259578
 21
320.96058437994776
  0
ARC
  8
_1-0_
  6
CONTINUOUS
 62
    7
 10
272.66112224290066
 20
323.9916732931369
 40
5.0999999999999996
 50
227.78470945541761
 51
297.48642625034063
  0
ARC
  8
_1-0_
  6
CONTINUOUS
 62
    7
 10
270.03612224289964
 20
321.09825375672
 40
1.1932748223451823
 50
59.99999999989042
 51
227.78470945541724
  0
LINE
  8
_1-0_
  6
CONTINUOUS
 62
    7
 10
272.6611222428952
 20
320.96058437989115
 11
275.28612224289793
 21
322.47612883650874
  0
LINE
  8
_1-0_
  6
CONTINUOUS
 62
    7
 10
275.28612224289759
 20
322.47612883650874
 11
275.28612224290066
 21
323.99167329313588
  0
LINE
  8
_1-0_
  6
CONTINUOUS
 62
    7
 10
270.63275965407411
 20
322.13166006656598
 11
272.66112224289452
 21
320.96058437989149
  0
LINE
  8
_1-0_
  6
CONTINUOUS
 62
    7
 10
227.21112224290178
 20
303.29167329316698
 11
276.11112224288559
 21
303.2916732931356
  0
LINE
  8
_1-0_
  6
CONTINUOUS
 62
    7
 10
277.91112224288565
 20
303.29167329313526
 11
327.11112224288559
 21
303.29167329311787
  0
LINE
  8
_1-0_
  6
CONTINUOUS
 62
    7
 10
276.11112224289718
 20
318.80202012553269
 11
276.11112224288593
 21
303.29167329313628
  0
LINE
  8
_1-0_
  6
CONTINUOUS
 62
    7
 10
277.91112224290066
 20
323.99167329313553
 11
277.91112224288599
 21
303.29167329313526
  0
LINE
  8
_1-0_
  6
CONTINUOUS
 62
    7
 10
327.11112224288593
 20
303.29167329311753
 11
327.71112224288674
 21
303.89167329311732
  0
LINE
  8
_1-0_
  6
CONTINUOUS
 62
    7
 10
327.7111222428864
 20
303.89167329311732
 11
329.35747308171642
 21
303.89167329311664
  0
LINE
  8
_1-0_
  6
CONTINUOUS
 62
    7
 10
225.41112224290069
 20
301.49167329316759
 11
337.91112224288463
 21
301.49167329311405
  0
LINE
  8
_1-0_
  6
CONTINUOUS
 62
    7
 10
330.18469752431929
 20
306.34314828579869
 11
337.40044466967697
 21
303.91361762498576
  0
LINE
  8
_1-0_
  6
CONTINUOUS
 62
    7
 10
329.59399673319047
 20
305.96761473932457
 11
329.35747308171676
 21
303.89167329311664
  0
ARC
  8
_1-0_
  6
CONTINUOUS
 62
    7
 10
330.04110406824464
 20
305.91667329312946
 40
0.4499999999999999
 50
71.391701985072046
 51
173.49999999996072
  0
LINE
  8
_1-0_
  6
CONTINUOUS
 62
    7
 10
225.41112224291672
 20
323.99167329316793
 11
225.41112224290069
 21
301.49167329316793
  0
LINE
  8
_1-0_
  6
CONTINUOUS
 62
    7
 10
337.91112224288463
 20
301.49167329311371
 11
337.91112224288599
 21
303.20282597053591
  0
ARC
  8
_1-0_
  6
CONTINUOUS
 62
    7
 10
275.36112224290059
 20
329.18132646073906
 40
0.75
 50
242.51357374961941
 51
0
  0
ARC
  8
_1-0_
  6
CONTINUOUS
 62
    7
 10
228.65832372494472
 20
329.48815381231503
 40
0.75
 50
182.62266720458211
 51
290.02064541316906
  0
LINE
  8
_1-0_
  6
CONTINUOUS
 62
    7
 10
227.21112224291645
 20
344.69167329316787
 11
227.9091093160221
 21
329.45383516631983
  0
ARC
  8
_1-0_
  6
CONTINUOUS
 62
    7
 10
230.66112224259442
 20
323.99167329313724
 40
5.0999999999999996
 50
47.784709455458739
 51
110.02064541317044
  0
ARC
  8
_1-0_
  6
CONTINUOUS
 62
    7
 10
233.28612224259339
 20
326.88509282955584
 40
1.1932748223451823
 50
239.99999999993153
 51
47.784709455458312
  0
LINE
  8
_1-0_
  6
CONTINUOUS
 62
    7
 10
230.66112224259851
 20
327.02276220638265
 11
228.0361222425968
 21
325.50721774976336
  0
LINE
  8
_1-0_
  6
CONTINUOUS
 62
    7
 10
228.03612224259612
 20
325.50721774976438
 11
228.03612224259442
 21
323.99167329316759
  0
LINE
  8
_1-0_
  6
CONTINUOUS
 62
    7
 10
232.68948483141926
 20
325.85168651970918
 11
230.66112224259749
 21
327.02276220638265
  0
ARC
  8
_1-0_
  6
CONTINUOUS
 62
    7
 10
272.66112224290066
 20
323.99167329313724
 40
5.0999999999999996
 50
62.513573749618303
 51
132.21529054454132
  0
ARC
  8
_1-0_
  6
CONTINUOUS
 62
    7
 10
270.03612224290168
 20
326.88509282955584
 40
1.1932748223451823
 50
132.21529054454177
 51
300.0000000000685
  0
LINE
  8
_1-0_
  6
CONTINUOUS
 62
    7
 10
272.66112224289691
 20
327.02276220638265
 11
275.28612224289861
 21
325.50721774976336
  0
LINE
  8
_1-0_
  6
CONTINUOUS
 62
    7
 10
275.28612224289861
 20
325.50721774976302
 11
275.28612224290032
 21
323.99167329313588
  0
LINE
  8
_1-0_
  6
CONTINUOUS
 62
    7
 10
270.63275965407581
 20
325.85168651970952
 11
272.66112224289725
 21
327.02276220638299
  0
LINE
  8
_1-0_
  6
CONTINUOUS
 62
    7
 10
277.91112224290066
 20
344.69167329313478
 11
327.11112224290059
 21
344.69167329311739
  0
LINE
  8
_1-0_
  6
CONTINUOUS
 62
    7
 10
276.11112224290059
 20
329.18132646073906
 11
276.11112224290059
 21
344.69167329313615
  0
LINE
  8
_1-0_
  6
CONTINUOUS
 62
    7
 10
277.91112224290066
 20
323.99167329313519
 11
277.91112224290066
 21
344.69167329313547
  0
LINE
  8
_1-0_
  6
CONTINUOUS
 62
    7
 10
327.11112224290093
 20
344.69167329311739
 11
327.71112224290107
 21
344.09167329311725
  0
LINE
  8
_1-0_
  6
CONTINUOUS
 62
    7
 10
327.71112224290107
 20
344.09167329311759
 11
329.35747308173075
 21
344.09167329311725
  0
LINE
  8
_1-0_
  6
CONTINUOUS
 62
    7
 10
225.41112224291706
 20
346.49167329316793
 11
337.91112224290066
 21
346.49167329311439
  0
LINE
  8
_1-0_
  6
CONTINUOUS
 62
    7
 10
330.18469752433191
 20
341.6401983004335
 11
337.40044466969096
 21
344.06972896124131
  0
LINE
  8
_1-0_
  6
CONTINUOUS
 62
    7
 10
329.59399673320343
 20
342.01573184690761
 11
329.35747308173109
 21
344.09167329311623
  0
ARC
  8
_1-0_
  6
CONTINUOUS
 62
    7
 10
330.0411040682576
 20
342.06667329310409
 40
0.4499999999999999
 50
186.49999999999821
 51
288.60829801488677
  0
LINE
  8
_1-0_
  6
CONTINUOUS
 62
    7
 10
225.41112224291672
 20
323.99167329316793
 11
225.41112224291672
 21
346.49167329316793
  0
LINE
  8
_1-0_
  6
CONTINUOUS
 62
    7
 10
337.91112224290066
 20
346.49167329311405
 11
337.91112224290066
 21
344.78052061569116
  0
ARC
  8
_1-0_
  6
CONTINUOUS
 62
    9
 10
328.61112224290059
 20
304.60417329313697
 40
0.75
 50
254.9999999999107
 51
0
  0
TEXT
  8
_1-0_
 62
    7
 10
183.93303878157022
 20
-19.56335658687118
 40
5.4000000000000057
 41
0.999999999999999
 50
0
  1
30
  0
TEXT
  8
_1-0_
 62
    7
 10
343.22915308326753
 20
-25.527802379793968
 40
5.4000000000000057
 41
0.999999999999999
 50
0
  1
LKP3075
  0
LINE
  8
_1-0_
  6
CONTINUOUS
 62
    3
 10
171.66419909945697
 20
56.810127528946452
 11
171.66419909945697
 21
40.060127528946452
  0
CIRCLE
  8
_1-0_
  6
CONTINUOUS
 62
    3
 10
171.66419909945697
 20
40.060127528946452
 40
0.5999999999999999
  0
LINE
  8
_1-0_
  6
CONTINUOUS
 62
    7
 10
171.66419909945697
 20
40.060127528946452
 11
227.91429035641025
 21
40.060127528946452
  0
TEXT
  8
_1-0_
 62
    7
 10
5.9466966648330413
 20
-90.874698703021693
 40
5.4000000000000057
 41
0.999999999999999
 50
90
  1
30
  0
LINE
  8
_1-0_
  6
CONTINUOUS
 62
    7
 10
278.08109041622015
 20
-214.75737031297899
 11
278.08109041622015
 21
-237.75737031297899
  0
CIRCLE
  8
_1-0_
  6
CONTINUOUS
 62
    3
 10
271.18705032237358
 20
-158.97469431297895
 40
0.2999999999999999
  0
LINE
  8
_1-0_
  6
CONTINUOUS
 62
    3
 10
271.18705032237358
 20
-158.97469431297895
 11
271.18705032237358
 21
-212.75737031297899
  0
CIRCLE
  8
_1-0_
  6
CONTINUOUS
 62
    3
 10
271.18705032237358
 20
-158.97469431297895
 40
0.2999999999999999
  0
LINE
  8
_1-0_
  6
CONTINUOUS
 62
    3
 10
277.43703532237362
 20
-47.295768124844528
 11
271.18705032237358
 21
-47.295768124844528
  0
CIRCLE
  8
_1-0_
  6
CONTINUOUS
 62
    3
 10
271.18705032237358
 20
-47.295768124844528
 40
0.2999999999999999
  0
CIRCLE
  8
_1-0_
  6
CONTINUOUS
 62
    3
 10
271.18705032237358
 20
-47.295768124844528
 40
0.2999999999999999
  0
LINE
  8
_1-0_
  6
CONTINUOUS
 62
    3
 10
271.18705032237358
 20
-47.295768124844528
 11
271.18705032237358
 21
-158.97469431297895
  0
TEXT
  8
_1-0_
 62
    7
 10
270.83705111300776
 20
-118.23523124509165
 40
5.4000000000000128
 41
0.9999999999999975
 50
90.000002999999992
  1
２５０以内
  0
TEXT
  8
_1-0_
 62
    7
 10
5.9466966648330413
 20
-128.37469870302169
 40
5.4000000000000057
 41
0.999999999999999
 50
90
  1
30
  0
LINE
  8
_1-0_
  6
CONTINUOUS
 62
    7
 10
315.58109041622015
 20
-72.295768124844528
 11
278.08109041622015
 21
-34.795768124844415
  0
LINE
  8
_1-0_
  6
CONTINUOUS
 62
    3
 10
278.08109041622015
 20
-213.25736031297902
 11
278.08109041622015
 21
-34.795768124844415
  0
LINE
  8
_1-0_
  6
CONTINUOUS
 62
    7
 10
315.58109041622015
 20
-213.25736031297902
 11
278.08109041622015
 21
-213.25736031297902
  0
LINE
  8
_1-0_
  6
CONTINUOUS
 62
    3
 10
384.33108941622015
 20
-237.75737031297899
 11
278.08109041622015
 21
-237.75737031297899
  0
TEXT
  8
_1-0_
 62
    7
 10
5.9466966648330413
 20
-165.87469870302164
 40
5.4000000000000057
 41
0.999999999999999
 50
90
  1
30
  0
LINE
  8
_1-0_
  6
CONTINUOUS
 62
    7
 10
322.65215722808568
 20
-65.224699312978998
 11
285.15215722808568
 21
-27.724699312978998
  0
LINE
  8
_1-0_
  6
CONTINUOUS
 62
    7
 10
285.15215722808568
 20
-27.724699312978998
 11
478.83108941622015
 21
-27.724699312978998
  0
LINE
  8
_1-0_
  6
CONTINUOUS
 62
    3
 10
306.58114941622011
 20
-158.97469431297895
 11
271.18705032237358
 21
-158.97469431297895
  0
TEXT
  8
_1-0_
 62
    7
 10
5.9466966648330413
 20
-203.37469870302164
 40
5.4000000000000057
 41
0.999999999999999
 50
90
  1
30
  0
TEXT
  8
_1-0_
 62
    7
 10
270.6870517622703
 20
-213.21603233915886
 40
5.4000000000000137
 41
0.9999999999999976
 50
90.000003000000063
  1
ストリンガーピッチ
  0
TEXT
  8
_1-0_
 62
    7
 10
87.980281509468711
 20
-236.72460823755193
 40
5.3999999999999773
 41
1.0000000000000042
 50
0
  1
１００
  0
TEXT
  8
_1-0_
 62
    7
 10
27.133035390938176
 20
-237.1073703129789
 40
5.3999999999999773
 41
1.0000000000000042
 50
0
  1
１１２．５
  0
TEXT
  8
_1-0_
 62
    7
 10
350.28108991622014
 20
-237.10737031297901
 40
5.3999999999999773
 41
1.0000000000000042
 50
0
  1
１００
  0
TEXT
  8
_1-0_
 62
    7
 10
289.86506614574955
 20
-237.2960355562991
 40
5.3999999999999773
 41
1.0000000000000042
 50
0
  1
１１２．５
  0
ENDSEC
  0
EOF
