  0
SECTION
  2
HEADER
  9
$ACADVER
  1
AC1009
  9
$INSBASE
 10
0
 20
0
 30
0
  9
$EXTMIN
 10
0
 20
0
  9
$EXTMAX
 10
594
 20
420
  9
$LIMMIN
 10
0
 20
0
  9
$LIMMAX
 10
594
 20
420
  9
$LTSCALE
 40
2
  0
ENDSEC
  0
SECTION
  2
TABLES
  0
TABLE
  2
LTYPE
 70
     9
  0
LTYPE
  2
CONTINUOUS
 70
    64
  3
実線
 72
    65
 73
     0
 40
0.0
  0
LTYPE
  2
DASHED1
 70
    64
  3
--  --  --  --  --  --  --  --  
 72
    65
 73
     2
 40
2.5
 49
1.25
 49
-1.25
  0
LTYPE
  2
DASHED2
 70
    64
  3
----    ----    ----    ----    
 72
    65
 73
     2
 40
5.0
 49
2.5
 49
-2.5
  0
LTYPE
  2
DASHED3
 70
    64
  3
------  ------  ------  ------  
 72
    65
 73
     2
 40
5.0
 49
3.75
 49
-1.25
  0
LTYPE
  2
CENTER1
 70
    64
  3
----- - ----- - ----- - ----- - 
 72
    65
 73
     4
 40
10.0
 49
6.25
 49
-1.25
 49
1.25
 49
-1.25
  0
LTYPE
  2
CENTER2
 70
    64
  3
----------  --  ----------  --  
 72
    65
 73
     4
 40
20.0
 49
12.5
 49
-2.5
 49
2.5
 49
-2.5
  0
LTYPE
  2
PHANTOM1
 70
    64
  3
--- - - --- - - --- - - --- - - 
 72
    65
 73
     6
 40
10.0
 49
3.25
 49
-1.25
 49
1.25
 49
-1.25
 49
1.25
 49
-1.25
  0
LTYPE
  2
PHANTOM2
 70
    64
  3
--------  -  -  --------  -  -  
 72
    65
 73
     6
 40
20.0
 49
10.0
 49
-2.5
 49
1.25
 49
-2.5
 49
1.25
 49
-2.5
  0
LTYPE
  2
DOT
 70
    64
  3
-   -   -   -   -   -   -   -   
 72
    65
 73
     2
 40
2.5
 49
0.625
 49
-1.875
  0
LTYPE
  2
DUMMY
 70
    64
  3
ダミー
 72
    65
 73
     0
 40
0.0
  0
LTYPE
  2
RAND1
 70
    64
  3
ランダム線1
 72
    65
 73
     4
 40
10.0
 49
1.0
 49
-2.0
 49
3.0
 49
-4.0
  0
LTYPE
  2
RAND2
 70
    64
  3
ランダム線2
 72
    65
 73
     4
 40
14.0
 49
2.0
 49
-3.0
 49
4.0
 49
-5.0
  0
LTYPE
  2
RAND3
 70
    64
  3
ランダム線3
 72
    65
 73
     4
 40
18.0
 49
3.0
 49
-4.0
 49
5.0
 49
-6.0
  0
LTYPE
  2
RAND4
 70
    64
  3
ランダム線4
 72
    65
 73
     4
 40
22.0
 49
4.0
 49
-5.0
 49
6.0
 49
-7.0
  0
LTYPE
  2
RAND5
 70
    64
  3
ランダム線5
 72
    65
 73
     4
 40
26.0
 49
5.0
 49
-6.0
 49
7.0
 49
-8.0
  0
LTYPE
  2
LONG1
 70
    64
  3
----------  --  ----------  --  
 72
    65
 73
     4
 40
40.0
 49
32.5
 49
-2.5
 49
2.5
 49
-2.5
  0
LTYPE
  2
LONG2
 70
    64
  3
--------  -  -  --------  -  -  
 72
    65
 73
     6
 40
40.0
 49
30.0
 49
-2.5
 49
1.25
 49
-2.5
 49
1.25
 49
-2.5
  0
LTYPE
  2
LONG3
 70
    64
  3
+++++++++++++++..+++++++++++++++
 72
    65
 73
     2
 40
40.0
 49
37.5
 49
-2.5
  0
LTYPE
  2
LONG4
 70
    64
  3
+++++++++++++++..+++++++++++++++
 72
    65
 73
     2
 40
80.0
 49
75.0
 49
-5.0
  0
LTYPE
  2
LONG5
 70
    64
  3
----------  --  ----------  --  
 72
    65
 73
     4
 40
60.0
 49
37.5
 49
-7.5
 49
7.5
 49
-7.5
  0
LTYPE
  2
dashed
 70
   64
  3
-------   -------------   ------
 72
   65
 73
    2
 40
7.5
 49
6
 49
-1.5
  0
LTYPE
  2
dashed_spaced
 70
   64
  3
----        --------        ----
 72
   65
 73
    2
 40
12
 49
6
 49
-6
  0
LTYPE
  2
long_dashed_dotted
 70
   64
  3
------------- --- --------------
 72
   65
 73
    4
 40
15.25
 49
12
 49
-1.5
 49
0.25
 49
-1.5
  0
LTYPE
  2
long_dashed_double-dotted
 70
   64
  3
----------- --- --- ------------
 72
   65
 73
    6
 40
17
 49
12
 49
-1.5
 49
0.25
 49
-1.5
 49
0.25
 49
-1.5
  0
LTYPE
  2
long_dashed_triplicate-dotted
 70
   64
  3
--------- --- --- --- ----------
 72
   65
 73
    8
 40
18.75
 49
12
 49
-1.5
 49
0.25
 49
-1.5
 49
0.25
 49
-1.5
 49
0.25
 49
-1.5
  0
LTYPE
  2
dotted
 70
   64
  3
   -       -       -       -    
 72
   65
 73
    2
 40
1.75
 49
0.25
 49
-1.5
  0
LTYPE
  2
chain
 70
   64
  3
-------------- -- --------------
 72
   65
 73
    4
 40
18.5
 49
12
 49
-1.5
 49
3.5
 49
-1.5
  0
LTYPE
  2
chain_double_dash
 70
   64
  3
------------ -- -- -------------
 72
   65
 73
    6
 40
23.5
 49
12
 49
-1.5
 49
3.5
 49
-1.5
 49
3.5
 49
-1.5
  0
LTYPE
  2
dashed_dotted
 70
   64
  3
-----------     -     ----------
 72
   65
 73
    4
 40
9.25
 49
6
 49
-1.5
 49
0.25
 49
-1.5
  0
LTYPE
  2
double-dashed_dotted
 70
   64
  3
------   -----------   -   -----
 72
   65
 73
    6
 40
16.75
 49
6
 49
-1.5
 49
6
 49
-1.5
 49
0.25
 49
-1.5
  0
LTYPE
  2
dashed_double-dotted
 70
   64
  3
---------    -    -    ---------
 72
   65
 73
    6
 40
11
 49
6
 49
-1.5
 49
0.25
 49
-1.5
 49
0.25
 49
-1.5
  0
LTYPE
  2
double-dashed_double-dotted
 70
   64
  3
-----   ---------   -   -   ----
 72
   65
 73
    8
 40
18.5
 49
6
 49
-1.5
 49
6
 49
-1.5
 49
0.25
 49
-1.5
 49
0.25
 49
-1.5
  0
LTYPE
  2
dashed_triplicate-dotted
 70
   64
  3
-------    -    -    -    ------
 72
   65
 73
    8
 40
12.75
 49
6
 49
-1.5
 49
0.25
 49
-1.5
 49
0.25
 49
-1.5
 49
0.25
 49
-1.5
  0
LTYPE
  2
double-dashed_triplicate-dotted
 70
   64
  3
-----  ---------  -  -  -  -----
 72
   65
 73
   10
 40
20.25
 49
6
 49
-1.5
 49
6
 49
-1.5
 49
0.25
 49
-1.5
 49
0.25
 49
-1.5
 49
0.25
 49
-1.5
  0
LTYPE
  2
undefined
 70
   64
  3
--------------------------------
 72
   65
 73
    0
 40
0
  0
ENDTAB
  0
TABLE
  2
STYLE
  5
3
100
AcDbSymbolTable
 70
     1
  0
STYLE
  5
10
100
AcDbSymbolTableRecord
100
AcDbTextStyleTableRecord
  2
STANDARD
 70
     0
 40
0.0
 41
1.0
 50
0.0
 71
     0
 42
0.2
  3
txt
  4
bigfont.shx
  0
STYLE
  5
26
100
AcDbSymbolTableRecord
100
AcDbTextStyleTableRecord
  2
TATEGAKI
 70
    68
 40
0.0
 41
1.0
 50
0.0
 71
     0
 42
1.0
  3
txt
  4
bigfont.shx
  0
ENDTAB
  0
TABLE
  2
LAYER
 70
    2
  0
LAYER
  2
_1-0_
 70
   64
 62
    7
  6
CONTINUOUS
  0
LAYER
  2
ADD_LINE
 70
   64
 62
    7
  6
CONTINUOUS
  0
ENDTAB
  0
ENDSEC
  0
SECTION
  2
BLOCKS
  0
ENDSEC
  0
SECTION
  2
ENTITIES
  0
LINE
  8
_1-0_
  6
CONTINUOUS
 62
    7
 10
355.43438749938207
 20
215.72521608044212
 11
355.43438749938207
 21
188.95021608044226
  0
LINE
  8
_1-0_
  6
CONTINUOUS
 62
    3
 10
372.43438749938207
 20
215.72521608044212
 11
372.43438749938207
 21
188.95021608044226
  0
LINE
  8
_1-0_
  6
CONTINUOUS
 62
    3
 10
389.43438749938207
 20
215.72521608044212
 11
389.43438749938207
 21
188.95021608044226
  0
LINE
  8
_1-0_
  6
CONTINUOUS
 62
    3
 10
406.43438749938207
 20
215.72521608044212
 11
406.43438749938207
 21
188.95021608044226
  0
LINE
  8
_1-0_
  6
CONTINUOUS
 62
    7
 10
321.62907710069715
 20
215.72521608044212
 11
321.62907710069715
 21
188.95021608044226
  0
LINE
  8
_1-0_
  6
CONTINUOUS
 62
    3
 10
406.43438749938207
 20
215.72521608044212
 11
406.43438749938207
 21
188.95021608044226
  0
LINE
  8
_1-0_
  6
CONTINUOUS
 62
    2
 10
124.7431978781234
 20
-293.08595567312636
 11
168.4931978781234
 21
-293.08595567312636
  0
CIRCLE
  8
_1-0_
  6
CONTINUOUS
 62
    2
 10
124.7431978781234
 20
-293.08595567312636
 40
0.2999999999999999
  0
LINE
  8
_1-0_
  6

 62
    3
 10
216.99319687812351
 20
-268.08595567312636
 11
216.99319687812351
 21
-189.30327967312655
  0
LINE
  8
_1-0_
  6

 62
    3
 10
216.99319687812351
 20
-139.30328067312644
 11
216.99319687812351
 21
-164.30327967312655
  0
LINE
  8
_1-0_
  6
CONTINUOUS
 62
    3
 10
168.4931978781234
 20
-139.30328067312644
 11
297.27587287812332
 21
-139.30327967312655
  0
LINE
  8
_1-0_
  6
CONTINUOUS
 62
    3
 10
168.49319387812341
 20
-268.58594567312639
 11
168.49319387812341
 21
-139.30328067312644
  0
LINE
  8
_1-0_
  6

 62
    3
 10
268.49319687812351
 20
-187.80327967312655
 11
297.27587287812332
 21
-187.80327967312655
  0
LINE
  8
_1-0_
  6
CONTINUOUS
 62
    7
 10
208.43945887812345
 20
-172.55327967312655
 11
203.54693587812346
 21
-172.55327967312655
  0
LINE
  8
_1-0_
  6
CONTINUOUS
 62
    7
 10
203.54693587812346
 20
-172.55327967312655
 11
201.09319687812342
 21
-176.80327967312655
  0
LINE
  8
_1-0_
  6
CONTINUOUS
 62
    7
 10
201.09319687812342
 20
-176.80327967312655
 11
203.54693587812346
 21
-181.05327967312655
  0
LINE
  8
_1-0_
  6
CONTINUOUS
 62
    7
 10
203.54693587812346
 20
-181.05327967312655
 11
208.43945887812345
 21
-181.05327967312655
  0
LINE
  8
_1-0_
  6
CONTINUOUS
 62
    7
 10
208.43945887812345
 20
-181.05327967312655
 11
210.89319687812338
 21
-176.80327967312655
  0
LINE
  8
_1-0_
  6
CONTINUOUS
 62
    7
 10
210.89319687812338
 20
-176.80327967312655
 11
208.43945887812345
 21
-172.55327967312655
  0
CIRCLE
  8
_1-0_
  6
CONTINUOUS
 62
    7
 10
205.99319687812351
 20
-176.79896267312643
 40
4.2456829999999997
  0
CIRCLE
  8
_1-0_
  6
CONTINUOUS
 62
    3
 10
205.99319687812351
 20
-176.79896267312643
 40
5.25
  0
LINE
  8
_1-0_
  6
CONTINUOUS
 62
    7
 10
253.54693587812346
 20
-172.55327967312655
 11
251.09319687812342
 21
-176.80327967312655
  0
LINE
  8
_1-0_
  6
CONTINUOUS
 62
    7
 10
258.43945887812345
 20
-172.55327967312655
 11
253.54693587812346
 21
-172.55327967312655
  0
LINE
  8
_1-0_
  6
CONTINUOUS
 62
    7
 10
260.89319687812338
 20
-176.80327967312655
 11
258.43945887812345
 21
-172.55327967312655
  0
LINE
  8
_1-0_
  6
CONTINUOUS
 62
    7
 10
258.43945887812345
 20
-181.05327967312655
 11
260.89319687812338
 21
-176.80327967312655
  0
LINE
  8
_1-0_
  6
CONTINUOUS
 62
    7
 10
253.54693587812346
 20
-181.05327967312655
 11
258.43945887812345
 21
-181.05327967312655
  0
LINE
  8
_1-0_
  6
CONTINUOUS
 62
    7
 10
251.09319687812342
 20
-176.80327967312655
 11
253.54693587812346
 21
-181.05327967312655
  0
CIRCLE
  8
_1-0_
  6
CONTINUOUS
 62
    7
 10
255.99319687812351
 20
-176.79896267312643
 40
4.2456829999999997
  0
CIRCLE
  8
_1-0_
  6
CONTINUOUS
 62
    3
 10
255.99319687812351
 20
-176.79896267312643
 40
5.25
  0
LINE
  8
_1-0_
  6

 62
    3
 10
169.99319687812351
 20
-139.30328267312643
 11
169.99319687812351
 21
-268.08595567312636
  0
LINE
  8
_1-0_
  6
CONTINUOUS
 62
    7
 10
228.54693587812346
 20
-172.55327967312655
 11
226.09319687812342
 21
-176.80327967312655
  0
LINE
  8
_1-0_
  6
CONTINUOUS
 62
    7
 10
233.43945887812345
 20
-172.55327967312655
 11
228.54693587812346
 21
-172.55327967312655
  0
LINE
  8
_1-0_
  6
CONTINUOUS
 62
    7
 10
235.89319687812338
 20
-176.80327967312655
 11
233.43945887812345
 21
-172.55327967312655
  0
LINE
  8
_1-0_
  6
CONTINUOUS
 62
    7
 10
233.43945887812345
 20
-181.05327967312655
 11
235.89319687812338
 21
-176.80327967312655
  0
LINE
  8
_1-0_
  6
CONTINUOUS
 62
    7
 10
228.54693587812346
 20
-181.05327967312655
 11
233.43945887812345
 21
-181.05327967312655
  0
LINE
  8
_1-0_
  6
CONTINUOUS
 62
    7
 10
226.09319687812342
 20
-176.80327967312655
 11
228.54693587812346
 21
-181.05327967312655
  0
CIRCLE
  8
_1-0_
  6
CONTINUOUS
 62
    7
 10
230.99319687812351
 20
-176.79896267312643
 40
4.2456829999999997
  0
LINE
  8
_1-0_
  6
CONTINUOUS
 62
    3
 10
268.49319687812351
 20
-164.30327967312655
 11
268.49319687812351
 21
-189.30327967312655
  0
LINE
  8
_1-0_
  6
CONTINUOUS
 62
    3
 10
254.24319687812351
 20
-253.80327967312655
 11
254.24319687812351
 21
-199.80327967312655
  0
ARC
  8
_1-0_
  6
CONTINUOUS
 62
    3
 10
248.74319687812351
 20
-253.80327967312655
 40
5.5
 50
270
 51
0
  0
LINE
  8
_1-0_
  6
CONTINUOUS
 62
    3
 10
248.74319687812351
 20
-259.30327967312655
 11
218.49319687812351
 21
-259.30327967312655
  0
LINE
  8
_1-0_
  6
CONTINUOUS
 62
    3
 10
257.74319687812351
 20
-253.80327967312655
 11
257.74319687812351
 21
-199.80327967312655
  0
ARC
  8
_1-0_
  6
CONTINUOUS
 62
    3
 10
263.24319687812351
 20
-253.80327967312655
 40
5.5
 50
180
 51
270
  0
LINE
  8
_1-0_
  6
CONTINUOUS
 62
    3
 10
263.24319687812351
 20
-259.30327967312655
 11
293.49319687812351
 21
-259.30327967312655
  0
ARC
  8
_1-0_
  6
CONTINUOUS
 62
    3
 10
248.74319687812351
 20
-199.80327967312655
 40
5.5
 50
0
 51
90
  0
LINE
  8
_1-0_
  6
CONTINUOUS
 62
    3
 10
248.74319687812351
 20
-194.30327967312655
 11
218.49319687812351
 21
-194.30327967312655
  0
LINE
  8
_1-0_
  6
CONTINUOUS
 62
    3
 10
263.24319687812351
 20
-194.30327967312655
 11
293.49319687812351
 21
-194.30327967312655
  0
ARC
  8
_1-0_
  6
CONTINUOUS
 62
    3
 10
263.24319687812351
 20
-199.80327967312655
 40
5.5
 50
90
 51
180
  0
LINE
  8
_1-0_
  6
CONTINUOUS
 62
    3
 10
293.49319687812351
 20
-264.30327967312655
 11
218.49319687812351
 21
-264.30327967312655
  0
LINE
  8
_1-0_
  6
CONTINUOUS
 62
    3
 10
293.49319687812351
 20
-189.30327967312655
 11
293.49319687812351
 21
-194.30327967312655
  0
LINE
  8
_1-0_
  6
CONTINUOUS
 62
    3
 10
293.49319687812351
 20
-259.30327967312655
 11
293.49319687812351
 21
-264.30327967312655
  0
LINE
  8
_1-0_
  6
CONTINUOUS
 62
    3
 10
193.49319687812351
 20
-164.30327967312655
 11
268.49319687812351
 21
-164.30327967312655
  0
LINE
  8
_1-0_
  6
CONTINUOUS
 62
    3
 10
193.49319687812351
 20
-189.30327967312655
 11
193.49319687812351
 21
-164.30327967312655
  0
LINE
  8
_1-0_
  6
CONTINUOUS
 62
    3
 10
193.49319687812351
 20
-189.30327967312655
 11
297.27587287812332
 21
-189.30327967312655
  0
LINE
  8
_1-0_
  6
CONTINUOUS
 62
    3
 10
218.49319687812351
 20
-189.30327967312655
 11
218.49319687812351
 21
-268.08595567312636
  0
LINE
  8
_1-0_
  6

 62
    3
 10
218.49319687812351
 20
-140.80327967312655
 11
297.27587287812332
 21
-140.80327967312655
  0
LINE
  8
_1-0_
  6
CONTINUOUS
 62
    3
 10
218.49319687812351
 20
-139.30327967312655
 11
218.49319687812351
 21
-164.30327967312655
  0
LINE
  8
_1-0_
  6
CONTINUOUS
 62
    3
 10
193.49319687812351
 20
-187.30327967312655
 11
268.49319687812351
 21
-187.30327967312655
  0
CIRCLE
  8
_1-0_
  6
CONTINUOUS
 62
    3
 10
230.99319687812351
 20
-176.79896267312643
 40
5.25
  0
CIRCLE
  8
_1-0_
  6
CONTINUOUS
 62
    2
 10
168.4931978781234
 20
-293.08595567312636
 40
0.2999999999999999
  0
CIRCLE
  8
_1-0_
  6
CONTINUOUS
 62
    2
 10
218.49319687812351
 20
-293.08595567312636
 40
0.2999999999999999
  0
LINE
  8
_1-0_
  6
CONTINUOUS
 62
    2
 10
218.49319687812351
 20
-270.08595567312636
 11
218.49319687812351
 21
-293.08595567312636
  0
LINE
  8
_1-0_
  6
CONTINUOUS
 62
    2
 10
218.49319687812351
 20
-293.08595567312636
 11
168.4931978781234
 21
-293.08595567312636
  0
CIRCLE
  8
_1-0_
  6
CONTINUOUS
 62
    2
 10
168.4931978781234
 20
-293.08595567312636
 40
0.2999999999999999
  0
LINE
  8
_1-0_
  6
CONTINUOUS
 62
    2
 10
168.4931978781234
 20
-270.08595567312636
 11
168.4931978781234
 21
-293.08595567312636
  0
LINE
  8
_1-0_
  6
CONTINUOUS
 62
    2
 10
124.7431978781234
 20
-270.08595567312636
 11
124.7431978781234
 21
-293.08595567312636
  0
LINE
  8
_1-0_
  6
CONTINUOUS
 62
    7
 10
175.56426163508206
 20
-139.30328061821933
 11
156.81424935471034
 21
-120.55326833784784
  0
LINE
  8
_1-0_
  6
CONTINUOUS
 62
    7
 10
168.49319387812341
 20
-146.37434848499197
 11
149.74318554284821
 21
-127.62434014971655
  0
LINE
  8
_1-0_
  6
CONTINUOUS
 62
    7
 10
236.75167365093796
 20
-120.55328067312098
 11
241.73035241323794
 21
-120.5532827245122
  0
ARC
  8
_1-0_
  6
CONTINUOUS
 62
    7
 10
240.79320126817504
 20
-107.25621930971943
 40
0.2499999999999999
 50
60.84463457375729
 51
180
  0
LINE
  8
_1-0_
  6
CONTINUOUS
 62
    7
 10
239.98070126818459
 20
-120.55328067312098
 11
240.55111257366354
 21
-120.55328067312098
  0
LINE
  8
_1-0_
  6
CONTINUOUS
 62
    7
 10
254.98070126818459
 20
-120.55328067311575
 11
254.41028996261832
 21
-120.55328067311598
  0
LINE
  8
_1-0_
  6
CONTINUOUS
 62
    9
 10
252.95605656874989
 20
-112.80328067312098
 11
247.46820126845944
 21
-112.80328067312098
  0
LINE
  8
_1-0_
  6
CONTINUOUS
 62
    9
 10
252.79320126845926
 20
-117.70328067312107
 11
253.94320126845935
 21
-117.70328067312107
  0
ARC
  8
_1-0_
  6
CONTINUOUS
 62
    9
 10
253.94320126845935
 20
-117.45328067312107
 40
0.2499999999999999
 50
270
 51
15.000000000089301
  0
LINE
  8
_1-0_
  6
CONTINUOUS
 62
    9
 10
252.95605656874989
 20
-112.80328067312098
 11
254.18468272503162
 21
-117.38857591184524
  0
ARC
  8
_1-0_
  6
CONTINUOUS
 62
    9
 10
252.79320126845926
 20
-117.95328067312107
 40
0.2499999999999999
 50
90.000000000000014
 51
195.00000000004502
  0
LINE
  8
_1-0_
  6
CONTINUOUS
 62
    9
 10
252.55171981188744
 20
-118.01798543439691
 11
253.23105012368035
 21
-120.55328067312121
  0
LINE
  8
_1-0_
  6
CONTINUOUS
 62
    9
 10
247.46820126845944
 20
-118.65328067312112
 11
252.72194665805966
 21
-118.65328067312112
  0
LINE
  8
_1-0_
  6
CONTINUOUS
 62
    9
 10
247.46820126845944
 20
-118.00328067312125
 11
252.54777968297878
 21
-118.00328067312125
  0
LINE
  8
_1-0_
  6
CONTINUOUS
 62
    9
 10
242.00534596816908
 20
-112.80328067312098
 11
247.46820126845944
 21
-112.80328067312098
  0
LINE
  8
_1-0_
  6
CONTINUOUS
 62
    9
 10
242.16820126845971
 20
-117.70328067312107
 11
241.01820126845962
 21
-117.70328067312107
  0
LINE
  8
_1-0_
  6
CONTINUOUS
 62
    9
 10
242.00534596816908
 20
-112.80328067312098
 11
240.77671981188735
 21
-117.38857591184524
  0
ARC
  8
_1-0_
  6
CONTINUOUS
 62
    9
 10
242.16820126845971
 20
-117.95328067312107
 40
0.2499999999999999
 50
344.99999999995498
 51
90
  0
LINE
  8
_1-0_
  6
CONTINUOUS
 62
    9
 10
242.40968272503153
 20
-118.01798543439668
 11
241.73035241323862
 21
-120.55328067312098
  0
LINE
  8
_1-0_
  6
CONTINUOUS
 62
    9
 10
247.46820126845944
 20
-118.65328067312112
 11
242.2394558788593
 21
-118.65328067312112
  0
LINE
  8
_1-0_
  6
CONTINUOUS
 62
    9
 10
247.46820126845944
 20
-118.00328067312125
 11
242.41362285394018
 21
-118.00328067312125
  0
ARC
  8
_1-0_
  6
CONTINUOUS
 62
    9
 10
241.01820126845962
 20
-117.45328067312107
 40
0.2499999999999999
 50
164.9999999999107
 51
270
  0
LINE
  8
_1-0_
  6
CONTINUOUS
 62
    7
 10
239.99320126818441
 20
-120.55328067312098
 11
240.56361257366336
 21
-120.55328067312098
  0
ARC
  8
_1-0_
  6
CONTINUOUS
 62
    7
 10
241.46820126818795
 20
-117.93115766862934
 40
0.1499999999999999
 50
341.39170198511317
 51
83.500000000001762
  0
LINE
  8
_1-0_
  6
CONTINUOUS
 62
    7
 10
239.99320126816667
 20
-95.553280673126437
 11
239.99320126818441
 21
-120.55328067312098
  0
LINE
  8
_1-0_
  6
CONTINUOUS
 62
    7
 10
240.54320126818186
 20
-116.90449706017603
 11
240.79320126818368
 21
-117.15449706017739
  0
LINE
  8
_1-0_
  6
CONTINUOUS
 62
    7
 10
254.99320126818441
 20
-120.55328067311575
 11
254.42278996261859
 21
-120.55328067311621
  0
LINE
  8
_1-0_
  6
CONTINUOUS
 62
    7
 10
239.99320126816667
 20
-95.553280673131894
 11
254.99320126816667
 21
-95.55328067312098
  0
ARC
  8
_1-0_
  6
CONTINUOUS
 62
    7
 10
253.5182012681795
 20
-117.93115766862502
 40
0.1499999999999999
 50
96.500000000039279
 51
198.61648504280038
  0
LINE
  8
_1-0_
  6
CONTINUOUS
 62
    7
 10
254.99320126816667
 20
-95.55328067312098
 11
254.99320126818441
 21
-120.55328067311575
  0
LINE
  8
_1-0_
  6
CONTINUOUS
 62
    7
 10
242.41932213111534
 20
-104.93327626426822
 11
241.74320126817486
 21
-104.54291770204395
  0
LINE
  8
_1-0_
  6
CONTINUOUS
 62
    7
 10
240.8682012681744
 20
-105.0480991875836
 11
240.86820126817395
 21
-105.55328067312598
  0
LINE
  8
_1-0_
  6
CONTINUOUS
 62
    7
 10
241.74320126817486
 20
-104.54291770204395
 11
240.8682012681744
 21
-105.0480991875836
  0
ARC
  8
_1-0_
  6
CONTINUOUS
 62
    7
 10
242.61820126817349
 20
-104.58880749431955
 40
0.3977582741150606
 50
239.99999999993153
 51
47.784709455458199
  0
ARC
  8
_1-0_
  6
CONTINUOUS
 62
    7
 10
241.74320126817395
 20
-105.55328067312576
 40
1.6999999999999997
 50
47.784709455458596
 51
119.15536542632444
  0
LINE
  8
_1-0_
  6
CONTINUOUS
 62
    7
 10
242.41932213111579
 20
-106.17328508198284
 11
241.74320126817577
 21
-106.56364364420779
  0
LINE
  8
_1-0_
  6
CONTINUOUS
 62
    7
 10
240.86820126817486
 20
-106.05846215866859
 11
240.86820126817395
 21
-105.55328067312621
  0
LINE
  8
_1-0_
  6
CONTINUOUS
 62
    7
 10
241.74320126817577
 20
-106.56364364420801
 11
240.86820126817486
 21
-106.05846215866882
  0
ARC
  8
_1-0_
  6
CONTINUOUS
 62
    7
 10
242.61820126817395
 20
-106.5177538519315
 40
0.3977582741150606
 50
312.2152905445829
 51
120.00000000010958
  0
ARC
  8
_1-0_
  6
CONTINUOUS
 62
    7
 10
241.74320126817395
 20
-105.55328067312598
 40
1.6999999999999997
 50
240.84463457375733
 51
312.21529054458233
  0
LINE
  8
_1-0_
  6
CONTINUOUS
 62
    7
 10
240.54320126817504
 20
-107.25621930971943
 11
240.54320126818186
 21
-116.9044970601758
  0
LINE
  8
_1-0_
  6
CONTINUOUS
 62
    7
 10
240.54320126816731
 20
-96.603280673131394
 11
240.54320126817254
 21
-103.8503420365339
  0
ARC
  8
_1-0_
  6
CONTINUOUS
 62
    7
 10
240.79320126817231
 20
-103.8503420365339
 40
0.2499999999999999
 50
180.00000000000006
 51
299.15536542632435
  0
LINE
  8
_1-0_
  6
CONTINUOUS
 62
    7
 10
252.56708040522892
 20
-104.93327626426299
 11
253.24320126816895
 21
-104.54291770203781
  0
LINE
  8
_1-0_
  6
CONTINUOUS
 62
    7
 10
254.11820126816986
 20
-105.04809918757678
 11
254.11820126817122
 21
-105.55328067311916
  0
LINE
  8
_1-0_
  6
CONTINUOUS
 62
    7
 10
253.24320126816895
 20
-104.54291770203781
 11
254.11820126816986
 21
-105.04809918757678
  0
ARC
  8
_1-0_
  6
CONTINUOUS
 62
    7
 10
252.36820126817031
 20
-104.58880749431432
 40
0.3977582741150606
 50
132.21529054460302
 51
300.00000000012966
  0
ARC
  8
_1-0_
  6
CONTINUOUS
 62
    7
 10
253.24320126817122
 20
-105.55328067311962
 40
1.6999999999999997
 50
60.844634573736684
 51
132.21529054460254
  0
LINE
  8
_1-0_
  6
CONTINUOUS
 62
    7
 10
252.56708040522938
 20
-106.17328508197738
 11
253.24320126817031
 21
-106.56364364420165
  0
LINE
  8
_1-0_
  6
CONTINUOUS
 62
    7
 10
254.11820126817076
 20
-106.05846215866154
 11
254.11820126817076
 21
-105.55328067311916
  0
LINE
  8
_1-0_
  6
CONTINUOUS
 62
    7
 10
253.24320126817031
 20
-106.56364364420165
 11
254.11820126817076
 21
-106.05846215866154
  0
ARC
  8
_1-0_
  6
CONTINUOUS
 62
    7
 10
252.36820126817167
 20
-106.51775385192627
 40
0.3977582741150606
 50
59.99999999995164
 51
227.78470945547832
  0
ARC
  8
_1-0_
  6
CONTINUOUS
 62
    7
 10
253.24320126817122
 20
-105.55328067311984
 40
1.6999999999999997
 50
227.78470945547875
 51
299.15536542630366
  0
ARC
  8
_1-0_
  6
CONTINUOUS
 62
    7
 10
254.19320126817195
 20
-107.25621930971215
 40
0.2499999999999999
 50
0.0000000000612065
 51
119.15536542630383
  0
ARC
  8
_1-0_
  6
CONTINUOUS
 62
    7
 10
254.19320126817058
 20
-103.85034203652663
 40
0.2499999999999999
 50
240.8446345737369
 51
0.0000000000611635
  0
LINE
  8
_1-0_
  6
CONTINUOUS
 62
    7
 10
254.44320126817513
 20
-107.2562193097117
 11
254.44320126818195
 21
-116.9044970601733
  0
LINE
  8
_1-0_
  6
CONTINUOUS
 62
    7
 10
254.4432012681674
 20
-96.60328067312139
 11
254.4432012681724
 21
-103.8503420365264
  0
LINE
  8
_1-0_
  6
CONTINUOUS
 62
    7
 10
241.04320126816685
 20
-96.103280673131167
 11
253.94320126816694
 21
-96.103280673121617
  0
ARC
  8
_1-0_
  6
CONTINUOUS
 62
    7
 10
241.04320126816731
 20
-96.603280673131167
 40
0.4999999999999999
 50
90
 51
180
  0
ARC
  8
_1-0_
  6
CONTINUOUS
 62
    7
 10
253.9432012681674
 20
-96.603280673121844
 40
0.4999999999999999
 50
0
 51
90
  0
LINE
  8
_1-0_
  6
CONTINUOUS
 62
    7
 10
253.37604977812555
 20
-117.97904246658254
 11
254.18587081252838
 21
-120.38308866971192
  0
ARC
  8
_1-0_
  6
CONTINUOUS
 62
    7
 10
254.42278996261814
 20
-120.30328067311598
 40
0.2499999999999999
 50
198.61648504279918
 51
270
  0
LINE
  8
_1-0_
  6
CONTINUOUS
 62
    7
 10
241.61035275815868
 20
-117.97904246657595
 11
240.80053172375312
 21
-120.38308866970442
  0
ARC
  8
_1-0_
  6
CONTINUOUS
 62
    7
 10
240.56361257366336
 20
-120.30328067310847
 40
0.2499999999999999
 50
270
 51
341.38351495713721
  0
LINE
  8
_1-0_
  6
CONTINUOUS
 62
    7
 10
254.44320126818195
 20
-116.9044970601733
 11
254.19320126818332
 21
-117.15449706017239
  0
LINE
  8
_1-0_
  6
CONTINUOUS
 62
    7
 10
254.19320126818332
 20
-117.15449706017239
 11
254.19320126818332
 21
-117.70328067311561
  0
LINE
  8
_1-0_
  6
CONTINUOUS
 62
    7
 10
253.50122078611423
 20
-117.78212189027363
 11
254.19320126818377
 21
-117.70328067311561
  0
LINE
  8
_1-0_
  6
CONTINUOUS
 62
    7
 10
241.48518175025322
 20
-117.78212189027795
 11
240.79320126818368
 21
-117.70328067312039
  0
LINE
  8
_1-0_
  6
CONTINUOUS
 62
    7
 10
240.79320126818322
 20
-117.15449706017716
 11
240.79320126818322
 21
-117.70328067312062
  0
POINT
  8
_1-0_
 62
    4
 10
254.99320126816667
 20
-88.835727681543403
  0
LINE
  8
_1-0_
  6
CONTINUOUS
 62
    4
 10
254.99320126816667
 20
-88.835727681543403
 11
254.99320126816667
 21
-94.002360476266404
  0
LINE
  8
_1-0_
  6
CONTINUOUS
 62
    4
 10
254.99320126816667
 20
-88.835727681543403
 11
239.99320126816667
 21
-88.835727681543403
  0
POINT
  8
_1-0_
 62
    4
 10
239.99320126816667
 20
-88.835727681543403
  0
LINE
  8
_1-0_
  6
CONTINUOUS
 62
    4
 10
239.99320126816667
 20
-88.835727681543403
 11
239.99320126816667
 21
-94.002360476266404
  0
LINE
  8
_1-0_
  6
CONTINUOUS
 62
    7
 10
199.25167365093796
 20
-120.55328067312098
 11
204.23035241323794
 21
-120.5532827245122
  0
ARC
  8
_1-0_
  6
CONTINUOUS
 62
    7
 10
203.29320126817504
 20
-107.25621930971943
 40
0.2499999999999999
 50
60.84463457375729
 51
180
  0
LINE
  8
_1-0_
  6
CONTINUOUS
 62
    7
 10
202.48070126818459
 20
-120.55328067312098
 11
203.05111257366354
 21
-120.55328067312098
  0
LINE
  8
_1-0_
  6
CONTINUOUS
 62
    7
 10
217.48070126818459
 20
-120.55328067311575
 11
216.91028996261832
 21
-120.55328067311598
  0
LINE
  8
_1-0_
  6
CONTINUOUS
 62
    9
 10
215.45605656874989
 20
-112.80328067312098
 11
209.96820126845944
 21
-112.80328067312098
  0
LINE
  8
_1-0_
  6
CONTINUOUS
 62
    9
 10
215.29320126845926
 20
-117.70328067312107
 11
216.44320126845935
 21
-117.70328067312107
  0
ARC
  8
_1-0_
  6
CONTINUOUS
 62
    9
 10
216.44320126845935
 20
-117.45328067312107
 40
0.2499999999999999
 50
270
 51
15.000000000089301
  0
LINE
  8
_1-0_
  6
CONTINUOUS
 62
    9
 10
215.45605656874989
 20
-112.80328067312098
 11
216.68468272503162
 21
-117.38857591184524
  0
ARC
  8
_1-0_
  6
CONTINUOUS
 62
    9
 10
215.29320126845926
 20
-117.95328067312107
 40
0.2499999999999999
 50
90.000000000000014
 51
195.00000000004502
  0
LINE
  8
_1-0_
  6
CONTINUOUS
 62
    9
 10
215.05171981188744
 20
-118.01798543439691
 11
215.73105012368035
 21
-120.55328067312121
  0
LINE
  8
_1-0_
  6
CONTINUOUS
 62
    9
 10
209.96820126845944
 20
-118.65328067312112
 11
215.22194665805966
 21
-118.65328067312112
  0
LINE
  8
_1-0_
  6
CONTINUOUS
 62
    9
 10
209.96820126845944
 20
-118.00328067312125
 11
215.04777968297878
 21
-118.00328067312125
  0
LINE
  8
_1-0_
  6
CONTINUOUS
 62
    9
 10
204.50534596816908
 20
-112.80328067312098
 11
209.96820126845944
 21
-112.80328067312098
  0
LINE
  8
_1-0_
  6
CONTINUOUS
 62
    9
 10
204.66820126845971
 20
-117.70328067312107
 11
203.51820126845962
 21
-117.70328067312107
  0
LINE
  8
_1-0_
  6
CONTINUOUS
 62
    9
 10
204.50534596816908
 20
-112.80328067312098
 11
203.27671981188735
 21
-117.38857591184524
  0
ARC
  8
_1-0_
  6
CONTINUOUS
 62
    9
 10
204.66820126845971
 20
-117.95328067312107
 40
0.2499999999999999
 50
344.99999999995498
 51
90
  0
LINE
  8
_1-0_
  6
CONTINUOUS
 62
    9
 10
204.90968272503153
 20
-118.01798543439668
 11
204.23035241323862
 21
-120.55328067312098
  0
LINE
  8
_1-0_
  6
CONTINUOUS
 62
    9
 10
209.96820126845944
 20
-118.65328067312112
 11
204.7394558788593
 21
-118.65328067312112
  0
LINE
  8
_1-0_
  6
CONTINUOUS
 62
    9
 10
209.96820126845944
 20
-118.00328067312125
 11
204.91362285394018
 21
-118.00328067312125
  0
ARC
  8
_1-0_
  6
CONTINUOUS
 62
    9
 10
203.51820126845962
 20
-117.45328067312107
 40
0.2499999999999999
 50
164.9999999999107
 51
270
  0
LINE
  8
_1-0_
  6
CONTINUOUS
 62
    7
 10
202.49320126818441
 20
-120.55328067312098
 11
203.06361257366336
 21
-120.55328067312098
  0
ARC
  8
_1-0_
  6
CONTINUOUS
 62
    7
 10
203.96820126818795
 20
-117.93115766862934
 40
0.1499999999999999
 50
341.39170198511317
 51
83.500000000001762
  0
LINE
  8
_1-0_
  6
CONTINUOUS
 62
    7
 10
202.49320126816667
 20
-95.553280673126437
 11
202.49320126818441
 21
-120.55328067312098
  0
LINE
  8
_1-0_
  6
CONTINUOUS
 62
    7
 10
203.04320126818186
 20
-116.90449706017603
 11
203.29320126818368
 21
-117.15449706017739
  0
LINE
  8
_1-0_
  6
CONTINUOUS
 62
    7
 10
217.49320126818441
 20
-120.55328067311575
 11
216.92278996261859
 21
-120.55328067311621
  0
LINE
  8
_1-0_
  6
CONTINUOUS
 62
    7
 10
202.49320126816667
 20
-95.553280673131894
 11
217.49320126816667
 21
-95.55328067312098
  0
ARC
  8
_1-0_
  6
CONTINUOUS
 62
    7
 10
216.0182012681795
 20
-117.93115766862502
 40
0.1499999999999999
 50
96.500000000039279
 51
198.61648504280038
  0
LINE
  8
_1-0_
  6
CONTINUOUS
 62
    7
 10
217.49320126816667
 20
-95.55328067312098
 11
217.49320126818441
 21
-120.55328067311575
  0
LINE
  8
_1-0_
  6
CONTINUOUS
 62
    7
 10
204.91932213111534
 20
-104.93327626426822
 11
204.24320126817486
 21
-104.54291770204395
  0
LINE
  8
_1-0_
  6
CONTINUOUS
 62
    7
 10
203.3682012681744
 20
-105.0480991875836
 11
203.36820126817395
 21
-105.55328067312598
  0
LINE
  8
_1-0_
  6
CONTINUOUS
 62
    7
 10
204.24320126817486
 20
-104.54291770204395
 11
203.3682012681744
 21
-105.0480991875836
  0
ARC
  8
_1-0_
  6
CONTINUOUS
 62
    7
 10
205.11820126817349
 20
-104.58880749431955
 40
0.3977582741150606
 50
239.99999999993153
 51
47.784709455458199
  0
ARC
  8
_1-0_
  6
CONTINUOUS
 62
    7
 10
204.24320126817395
 20
-105.55328067312576
 40
1.6999999999999997
 50
47.784709455458596
 51
119.15536542632444
  0
LINE
  8
_1-0_
  6
CONTINUOUS
 62
    7
 10
204.91932213111579
 20
-106.17328508198284
 11
204.24320126817577
 21
-106.56364364420779
  0
LINE
  8
_1-0_
  6
CONTINUOUS
 62
    7
 10
203.36820126817486
 20
-106.05846215866859
 11
203.36820126817395
 21
-105.55328067312621
  0
LINE
  8
_1-0_
  6
CONTINUOUS
 62
    7
 10
204.24320126817577
 20
-106.56364364420801
 11
203.36820126817486
 21
-106.05846215866882
  0
ARC
  8
_1-0_
  6
CONTINUOUS
 62
    7
 10
205.11820126817395
 20
-106.5177538519315
 40
0.3977582741150606
 50
312.2152905445829
 51
120.00000000010958
  0
ARC
  8
_1-0_
  6
CONTINUOUS
 62
    7
 10
204.24320126817395
 20
-105.55328067312598
 40
1.6999999999999997
 50
240.84463457375733
 51
312.21529054458233
  0
LINE
  8
_1-0_
  6
CONTINUOUS
 62
    7
 10
203.04320126817504
 20
-107.25621930971943
 11
203.04320126818186
 21
-116.9044970601758
  0
LINE
  8
_1-0_
  6
CONTINUOUS
 62
    7
 10
203.04320126816731
 20
-96.603280673131394
 11
203.04320126817254
 21
-103.8503420365339
  0
ARC
  8
_1-0_
  6
CONTINUOUS
 62
    7
 10
203.29320126817231
 20
-103.8503420365339
 40
0.2499999999999999
 50
180.00000000000006
 51
299.15536542632435
  0
LINE
  8
_1-0_
  6
CONTINUOUS
 62
    7
 10
215.06708040522892
 20
-104.93327626426299
 11
215.74320126816895
 21
-104.54291770203781
  0
LINE
  8
_1-0_
  6
CONTINUOUS
 62
    7
 10
216.61820126816986
 20
-105.04809918757678
 11
216.61820126817122
 21
-105.55328067311916
  0
LINE
  8
_1-0_
  6
CONTINUOUS
 62
    7
 10
215.74320126816895
 20
-104.54291770203781
 11
216.61820126816986
 21
-105.04809918757678
  0
ARC
  8
_1-0_
  6
CONTINUOUS
 62
    7
 10
214.86820126817031
 20
-104.58880749431432
 40
0.3977582741150606
 50
132.21529054460302
 51
300.00000000012966
  0
ARC
  8
_1-0_
  6
CONTINUOUS
 62
    7
 10
215.74320126817122
 20
-105.55328067311962
 40
1.6999999999999997
 50
60.844634573736684
 51
132.21529054460254
  0
LINE
  8
_1-0_
  6
CONTINUOUS
 62
    7
 10
215.06708040522938
 20
-106.17328508197738
 11
215.74320126817031
 21
-106.56364364420165
  0
LINE
  8
_1-0_
  6
CONTINUOUS
 62
    7
 10
216.61820126817076
 20
-106.05846215866154
 11
216.61820126817076
 21
-105.55328067311916
  0
LINE
  8
_1-0_
  6
CONTINUOUS
 62
    7
 10
215.74320126817031
 20
-106.56364364420165
 11
216.61820126817076
 21
-106.05846215866154
  0
ARC
  8
_1-0_
  6
CONTINUOUS
 62
    7
 10
214.86820126817167
 20
-106.51775385192627
 40
0.3977582741150606
 50
59.99999999995164
 51
227.78470945547832
  0
ARC
  8
_1-0_
  6
CONTINUOUS
 62
    7
 10
215.74320126817122
 20
-105.55328067311984
 40
1.6999999999999997
 50
227.78470945547875
 51
299.15536542630366
  0
ARC
  8
_1-0_
  6
CONTINUOUS
 62
    7
 10
216.69320126817195
 20
-107.25621930971215
 40
0.2499999999999999
 50
0.0000000000612065
 51
119.15536542630383
  0
ARC
  8
_1-0_
  6
CONTINUOUS
 62
    7
 10
216.69320126817058
 20
-103.85034203652663
 40
0.2499999999999999
 50
240.8446345737369
 51
0.0000000000611635
  0
LINE
  8
_1-0_
  6
CONTINUOUS
 62
    7
 10
216.94320126817513
 20
-107.2562193097117
 11
216.94320126818195
 21
-116.9044970601733
  0
LINE
  8
_1-0_
  6
CONTINUOUS
 62
    7
 10
216.9432012681674
 20
-96.60328067312139
 11
216.9432012681724
 21
-103.8503420365264
  0
LINE
  8
_1-0_
  6
CONTINUOUS
 62
    7
 10
203.54320126816685
 20
-96.103280673131167
 11
216.44320126816694
 21
-96.103280673121617
  0
ARC
  8
_1-0_
  6
CONTINUOUS
 62
    7
 10
203.54320126816731
 20
-96.603280673131167
 40
0.4999999999999999
 50
90
 51
180
  0
ARC
  8
_1-0_
  6
CONTINUOUS
 62
    7
 10
216.4432012681674
 20
-96.603280673121844
 40
0.4999999999999999
 50
0
 51
90
  0
LINE
  8
_1-0_
  6
CONTINUOUS
 62
    7
 10
215.87604977812555
 20
-117.97904246658254
 11
216.68587081252838
 21
-120.38308866971192
  0
ARC
  8
_1-0_
  6
CONTINUOUS
 62
    7
 10
216.92278996261814
 20
-120.30328067311598
 40
0.2499999999999999
 50
198.61648504279918
 51
270
  0
LINE
  8
_1-0_
  6
CONTINUOUS
 62
    7
 10
204.11035275815868
 20
-117.97904246657595
 11
203.30053172375312
 21
-120.38308866970442
  0
ARC
  8
_1-0_
  6
CONTINUOUS
 62
    7
 10
203.06361257366336
 20
-120.30328067310847
 40
0.2499999999999999
 50
270
 51
341.38351495713721
  0
LINE
  8
_1-0_
  6
CONTINUOUS
 62
    7
 10
216.94320126818195
 20
-116.9044970601733
 11
216.69320126818332
 21
-117.15449706017239
  0
LINE
  8
_1-0_
  6
CONTINUOUS
 62
    7
 10
216.69320126818332
 20
-117.15449706017239
 11
216.69320126818332
 21
-117.70328067311561
  0
LINE
  8
_1-0_
  6
CONTINUOUS
 62
    7
 10
216.00122078611423
 20
-117.78212189027363
 11
216.69320126818377
 21
-117.70328067311561
  0
LINE
  8
_1-0_
  6
CONTINUOUS
 62
    7
 10
203.98518175025322
 20
-117.78212189027795
 11
203.29320126818368
 21
-117.70328067312039
  0
LINE
  8
_1-0_
  6
CONTINUOUS
 62
    7
 10
203.29320126818322
 20
-117.15449706017716
 11
203.29320126818322
 21
-117.70328067312062
  0
POINT
  8
_1-0_
 62
    4
 10
217.49320126816667
 20
-88.835727681543403
  0
LINE
  8
_1-0_
  6
CONTINUOUS
 62
    4
 10
217.49320126816667
 20
-88.835727681543403
 11
217.49320126816667
 21
-94.002360476266404
  0
LINE
  8
_1-0_
  6
CONTINUOUS
 62
    4
 10
217.49320126816667
 20
-88.835727681543403
 11
202.49320126816667
 21
-88.835727681543403
  0
POINT
  8
_1-0_
 62
    4
 10
202.49320126816667
 20
-88.835727681543403
  0
LINE
  8
_1-0_
  6
CONTINUOUS
 62
    4
 10
202.49320126816667
 20
-88.835727681543403
 11
202.49320126816667
 21
-94.002360476266404
  0
ARC
  8
_1-0_
  6
CONTINUOUS
 62
    7
 10
165.79320126817504
 20
-107.25621930971943
 40
0.2499999999999999
 50
60.84463457375729
 51
180
  0
LINE
  8
_1-0_
  6
CONTINUOUS
 62
    7
 10
164.98070126818459
 20
-120.55328067312098
 11
165.55111257366354
 21
-120.55328067312098
  0
LINE
  8
_1-0_
  6
CONTINUOUS
 62
    7
 10
179.98070126818459
 20
-120.55328067311575
 11
179.41028996261832
 21
-120.55328067311598
  0
LINE
  8
_1-0_
  6
CONTINUOUS
 62
    9
 10
177.95605656874989
 20
-112.80328067312098
 11
172.46820126845944
 21
-112.80328067312098
  0
LINE
  8
_1-0_
  6
CONTINUOUS
 62
    9
 10
177.79320126845926
 20
-117.70328067312107
 11
178.94320126845935
 21
-117.70328067312107
  0
ARC
  8
_1-0_
  6
CONTINUOUS
 62
    9
 10
178.94320126845935
 20
-117.45328067312107
 40
0.2499999999999999
 50
270
 51
15.000000000089301
  0
LINE
  8
_1-0_
  6
CONTINUOUS
 62
    9
 10
177.95605656874989
 20
-112.80328067312098
 11
179.18468272503162
 21
-117.38857591184524
  0
ARC
  8
_1-0_
  6
CONTINUOUS
 62
    9
 10
177.79320126845926
 20
-117.95328067312107
 40
0.2499999999999999
 50
90.000000000000014
 51
195.00000000004502
  0
LINE
  8
_1-0_
  6
CONTINUOUS
 62
    9
 10
177.55171981188744
 20
-118.01798543439691
 11
178.23105012368035
 21
-120.55328067312121
  0
LINE
  8
_1-0_
  6
CONTINUOUS
 62
    9
 10
172.46820126845944
 20
-118.65328067312112
 11
177.72194665805966
 21
-118.65328067312112
  0
LINE
  8
_1-0_
  6
CONTINUOUS
 62
    9
 10
172.46820126845944
 20
-118.00328067312125
 11
177.54777968297878
 21
-118.00328067312125
  0
LINE
  8
_1-0_
  6
CONTINUOUS
 62
    9
 10
167.00534596816908
 20
-112.80328067312098
 11
172.46820126845944
 21
-112.80328067312098
  0
LINE
  8
_1-0_
  6
CONTINUOUS
 62
    9
 10
167.16820126845971
 20
-117.70328067312107
 11
166.01820126845962
 21
-117.70328067312107
  0
LINE
  8
_1-0_
  6
CONTINUOUS
 62
    9
 10
167.00534596816908
 20
-112.80328067312098
 11
165.77671981188735
 21
-117.38857591184524
  0
ARC
  8
_1-0_
  6
CONTINUOUS
 62
    9
 10
167.16820126845971
 20
-117.95328067312107
 40
0.2499999999999999
 50
344.99999999995498
 51
90
  0
LINE
  8
_1-0_
  6
CONTINUOUS
 62
    9
 10
167.40968272503153
 20
-118.01798543439668
 11
166.73035241323862
 21
-120.55328067312098
  0
LINE
  8
_1-0_
  6
CONTINUOUS
 62
    9
 10
172.46820126845944
 20
-118.65328067312112
 11
167.2394558788593
 21
-118.65328067312112
  0
LINE
  8
_1-0_
  6
CONTINUOUS
 62
    9
 10
172.46820126845944
 20
-118.00328067312125
 11
167.41362285394018
 21
-118.00328067312125
  0
ARC
  8
_1-0_
  6
CONTINUOUS
 62
    9
 10
166.01820126845962
 20
-117.45328067312107
 40
0.2499999999999999
 50
164.9999999999107
 51
270
  0
LINE
  8
_1-0_
  6
CONTINUOUS
 62
    7
 10
164.99320126818441
 20
-120.55328067312098
 11
165.56361257366336
 21
-120.55328067312098
  0
ARC
  8
_1-0_
  6
CONTINUOUS
 62
    7
 10
166.46820126818795
 20
-117.93115766862934
 40
0.1499999999999999
 50
341.39170198511317
 51
83.500000000001762
  0
LINE
  8
_1-0_
  6
CONTINUOUS
 62
    7
 10
164.99320126816667
 20
-95.553280673126437
 11
164.99320126818441
 21
-120.55328067312098
  0
LINE
  8
_1-0_
  6
CONTINUOUS
 62
    7
 10
165.54320126818186
 20
-116.90449706017603
 11
165.79320126818368
 21
-117.15449706017739
  0
LINE
  8
_1-0_
  6
CONTINUOUS
 62
    7
 10
179.99320126818441
 20
-120.55328067311575
 11
179.42278996261859
 21
-120.55328067311621
  0
LINE
  8
_1-0_
  6
CONTINUOUS
 62
    7
 10
164.99320126816667
 20
-95.553280673131894
 11
179.99320126816667
 21
-95.55328067312098
  0
ARC
  8
_1-0_
  6
CONTINUOUS
 62
    7
 10
178.5182012681795
 20
-117.93115766862502
 40
0.1499999999999999
 50
96.500000000039279
 51
198.61648504280038
  0
LINE
  8
_1-0_
  6
CONTINUOUS
 62
    7
 10
179.99320126816667
 20
-95.55328067312098
 11
179.99320126818441
 21
-120.55328067311575
  0
LINE
  8
_1-0_
  6
CONTINUOUS
 62
    7
 10
167.41932213111534
 20
-104.93327626426822
 11
166.74320126817486
 21
-104.54291770204395
  0
LINE
  8
_1-0_
  6
CONTINUOUS
 62
    7
 10
165.8682012681744
 20
-105.0480991875836
 11
165.86820126817395
 21
-105.55328067312598
  0
LINE
  8
_1-0_
  6
CONTINUOUS
 62
    7
 10
166.74320126817486
 20
-104.54291770204395
 11
165.8682012681744
 21
-105.0480991875836
  0
ARC
  8
_1-0_
  6
CONTINUOUS
 62
    7
 10
167.61820126817349
 20
-104.58880749431955
 40
0.3977582741150606
 50
239.99999999993153
 51
47.784709455458199
  0
ARC
  8
_1-0_
  6
CONTINUOUS
 62
    7
 10
166.74320126817395
 20
-105.55328067312576
 40
1.6999999999999997
 50
47.784709455458596
 51
119.15536542632444
  0
LINE
  8
_1-0_
  6
CONTINUOUS
 62
    7
 10
167.41932213111579
 20
-106.17328508198284
 11
166.74320126817577
 21
-106.56364364420779
  0
LINE
  8
_1-0_
  6
CONTINUOUS
 62
    7
 10
165.86820126817486
 20
-106.05846215866859
 11
165.86820126817395
 21
-105.55328067312621
  0
LINE
  8
_1-0_
  6
CONTINUOUS
 62
    7
 10
166.74320126817577
 20
-106.56364364420801
 11
165.86820126817486
 21
-106.05846215866882
  0
ARC
  8
_1-0_
  6
CONTINUOUS
 62
    7
 10
167.61820126817395
 20
-106.5177538519315
 40
0.3977582741150606
 50
312.2152905445829
 51
120.00000000010958
  0
ARC
  8
_1-0_
  6
CONTINUOUS
 62
    7
 10
166.74320126817395
 20
-105.55328067312598
 40
1.6999999999999997
 50
240.84463457375733
 51
312.21529054458233
  0
LINE
  8
_1-0_
  6
CONTINUOUS
 62
    7
 10
165.54320126817504
 20
-107.25621930971943
 11
165.54320126818186
 21
-116.9044970601758
  0
LINE
  8
_1-0_
  6
CONTINUOUS
 62
    7
 10
165.54320126816731
 20
-96.603280673131394
 11
165.54320126817254
 21
-103.8503420365339
  0
ARC
  8
_1-0_
  6
CONTINUOUS
 62
    7
 10
165.79320126817231
 20
-103.8503420365339
 40
0.2499999999999999
 50
180.00000000000006
 51
299.15536542632435
  0
LINE
  8
_1-0_
  6
CONTINUOUS
 62
    7
 10
177.56708040522892
 20
-104.93327626426299
 11
178.24320126816895
 21
-104.54291770203781
  0
LINE
  8
_1-0_
  6
CONTINUOUS
 62
    7
 10
179.11820126816986
 20
-105.04809918757678
 11
179.11820126817122
 21
-105.55328067311916
  0
LINE
  8
_1-0_
  6
CONTINUOUS
 62
    7
 10
178.24320126816895
 20
-104.54291770203781
 11
179.11820126816986
 21
-105.04809918757678
  0
ARC
  8
_1-0_
  6
CONTINUOUS
 62
    7
 10
177.36820126817031
 20
-104.58880749431432
 40
0.3977582741150606
 50
132.21529054460302
 51
300.00000000012966
  0
ARC
  8
_1-0_
  6
CONTINUOUS
 62
    7
 10
178.24320126817122
 20
-105.55328067311962
 40
1.6999999999999997
 50
60.844634573736684
 51
132.21529054460254
  0
LINE
  8
_1-0_
  6
CONTINUOUS
 62
    7
 10
177.56708040522938
 20
-106.17328508197738
 11
178.24320126817031
 21
-106.56364364420165
  0
LINE
  8
_1-0_
  6
CONTINUOUS
 62
    7
 10
179.11820126817076
 20
-106.05846215866154
 11
179.11820126817076
 21
-105.55328067311916
  0
LINE
  8
_1-0_
  6
CONTINUOUS
 62
    7
 10
178.24320126817031
 20
-106.56364364420165
 11
179.11820126817076
 21
-106.05846215866154
  0
ARC
  8
_1-0_
  6
CONTINUOUS
 62
    7
 10
177.36820126817167
 20
-106.51775385192627
 40
0.3977582741150606
 50
59.99999999995164
 51
227.78470945547832
  0
ARC
  8
_1-0_
  6
CONTINUOUS
 62
    7
 10
178.24320126817122
 20
-105.55328067311984
 40
1.6999999999999997
 50
227.78470945547875
 51
299.15536542630366
  0
ARC
  8
_1-0_
  6
CONTINUOUS
 62
    7
 10
179.19320126817195
 20
-107.25621930971215
 40
0.2499999999999999
 50
0.0000000000612065
 51
119.15536542630383
  0
ARC
  8
_1-0_
  6
CONTINUOUS
 62
    7
 10
179.19320126817058
 20
-103.85034203652663
 40
0.2499999999999999
 50
240.8446345737369
 51
0.0000000000611635
  0
LINE
  8
_1-0_
  6
CONTINUOUS
 62
    7
 10
179.44320126817513
 20
-107.2562193097117
 11
179.44320126818195
 21
-116.9044970601733
  0
LINE
  8
_1-0_
  6
CONTINUOUS
 62
    7
 10
179.4432012681674
 20
-96.60328067312139
 11
179.4432012681724
 21
-103.8503420365264
  0
LINE
  8
_1-0_
  6
CONTINUOUS
 62
    7
 10
166.04320126816685
 20
-96.103280673131167
 11
178.94320126816694
 21
-96.103280673121617
  0
ARC
  8
_1-0_
  6
CONTINUOUS
 62
    7
 10
166.04320126816731
 20
-96.603280673131167
 40
0.4999999999999999
 50
90
 51
180
  0
ARC
  8
_1-0_
  6
CONTINUOUS
 62
    7
 10
178.9432012681674
 20
-96.603280673121844
 40
0.4999999999999999
 50
0
 51
90
  0
LINE
  8
_1-0_
  6
CONTINUOUS
 62
    7
 10
178.37604977812555
 20
-117.97904246658254
 11
179.18587081252838
 21
-120.38308866971192
  0
ARC
  8
_1-0_
  6
CONTINUOUS
 62
    7
 10
179.42278996261814
 20
-120.30328067311598
 40
0.2499999999999999
 50
198.61648504279918
 51
270
  0
LINE
  8
_1-0_
  6
CONTINUOUS
 62
    7
 10
166.61035275815868
 20
-117.97904246657595
 11
165.80053172375312
 21
-120.38308866970442
  0
ARC
  8
_1-0_
  6
CONTINUOUS
 62
    7
 10
165.56361257366336
 20
-120.30328067310847
 40
0.2499999999999999
 50
270
 51
341.38351495713721
  0
LINE
  8
_1-0_
  6
CONTINUOUS
 62
    7
 10
179.44320126818195
 20
-116.9044970601733
 11
179.19320126818332
 21
-117.15449706017239
  0
LINE
  8
_1-0_
  6
CONTINUOUS
 62
    7
 10
179.19320126818332
 20
-117.15449706017239
 11
179.19320126818332
 21
-117.70328067311561
  0
LINE
  8
_1-0_
  6
CONTINUOUS
 62
    7
 10
178.50122078611423
 20
-117.78212189027363
 11
179.19320126818377
 21
-117.70328067311561
  0
LINE
  8
_1-0_
  6
CONTINUOUS
 62
    7
 10
166.48518175025322
 20
-117.78212189027795
 11
165.79320126818368
 21
-117.70328067312039
  0
LINE
  8
_1-0_
  6
CONTINUOUS
 62
    7
 10
165.79320126818322
 20
-117.15449706017716
 11
165.79320126818322
 21
-117.70328067312062
  0
POINT
  8
_1-0_
 62
    4
 10
179.99320126816667
 20
-88.835727681543403
  0
LINE
  8
_1-0_
  6
CONTINUOUS
 62
    4
 10
179.99320126816667
 20
-88.835727681543403
 11
179.99320126816667
 21
-94.002360476266404
  0
LINE
  8
_1-0_
  6
CONTINUOUS
 62
    4
 10
179.99320126816667
 20
-88.835727681543403
 11
164.99320126816667
 21
-88.835727681543403
  0
POINT
  8
_1-0_
 62
    4
 10
164.99320126816667
 20
-88.835727681543403
  0
LINE
  8
_1-0_
  6
CONTINUOUS
 62
    4
 10
164.99320126816667
 20
-88.835727681543403
 11
164.99320126816667
 21
-94.002360476266404
  0
LINE
  8
_1-0_
  6
CONTINUOUS
 62
    7
 10
156.81424935471034
 20
-120.55326833784784
 11
166.73035241324226
 21
-120.5532724236316
  0
LINE
  8
_1-0_
  6
CONTINUOUS
 62
    7
 10
203.23105012367762
 20
-120.5532874632047
 11
204.23035241323589
 21
-120.5532878749525
  0
LINE
  8
_1-0_
  6
CONTINUOUS
 62
    7
 10
240.73105012367125
 20
-120.5533029145256
 11
241.73035241322953
 21
-120.55330332627341
  0
LINE
  8
_1-0_
  6
CONTINUOUS
 62
    7
 10
178.23105012368194
 20
-120.55327716232409
 11
202.49320126818441
 21
-120.55328715918495
  0
LINE
  8
_1-0_
  6
CONTINUOUS
 62
    7
 10
215.73105012367557
 20
-120.553292613645
 11
239.99320126818441
 21
-120.55330261050608
  0
LINE
  8
_1-0_
  6
CONTINUOUS
 62
    7
 10
274.23917365093814
 20
-120.55328067312098
 11
279.21785241323789
 21
-120.5532827245122
  0
ARC
  8
_1-0_
  6
CONTINUOUS
 62
    7
 10
278.28070126817477
 20
-107.25621930971943
 40
0.2499999999999999
 50
60.84463457375729
 51
180
  0
LINE
  8
_1-0_
  6
CONTINUOUS
 62
    7
 10
277.46820126818432
 20
-120.55328067312098
 11
278.03861257366327
 21
-120.55328067312098
  0
LINE
  8
_1-0_
  6
CONTINUOUS
 62
    7
 10
292.46820126818432
 20
-120.55328067311575
 11
291.8977899626185
 21
-120.55328067311598
  0
LINE
  8
_1-0_
  6
CONTINUOUS
 62
    9
 10
290.44355656875007
 20
-112.80328067312098
 11
284.95570126845962
 21
-112.80328067312098
  0
LINE
  8
_1-0_
  6
CONTINUOUS
 62
    9
 10
290.28070126845944
 20
-117.70328067312107
 11
291.43070126845953
 21
-117.70328067312107
  0
ARC
  8
_1-0_
  6
CONTINUOUS
 62
    9
 10
291.43070126845953
 20
-117.45328067312107
 40
0.2499999999999999
 50
270
 51
15.000000000089301
  0
LINE
  8
_1-0_
  6
CONTINUOUS
 62
    9
 10
290.44355656875007
 20
-112.80328067312098
 11
291.6721827250318
 21
-117.38857591184524
  0
ARC
  8
_1-0_
  6
CONTINUOUS
 62
    9
 10
290.28070126845944
 20
-117.95328067312107
 40
0.2499999999999999
 50
90.000000000000014
 51
195.00000000004502
  0
LINE
  8
_1-0_
  6
CONTINUOUS
 62
    9
 10
290.03921981188762
 20
-118.01798543439691
 11
290.71855012368053
 21
-120.55328067312121
  0
LINE
  8
_1-0_
  6
CONTINUOUS
 62
    9
 10
284.95570126845962
 20
-118.65328067312112
 11
290.20944665805985
 21
-118.65328067312112
  0
LINE
  8
_1-0_
  6
CONTINUOUS
 62
    9
 10
284.95570126845962
 20
-118.00328067312125
 11
290.03527968297897
 21
-118.00328067312125
  0
LINE
  8
_1-0_
  6
CONTINUOUS
 62
    9
 10
279.49284596816881
 20
-112.80328067312098
 11
284.95570126845962
 21
-112.80328067312098
  0
LINE
  8
_1-0_
  6
CONTINUOUS
 62
    9
 10
279.65570126845944
 20
-117.70328067312107
 11
278.50570126845935
 21
-117.70328067312107
  0
LINE
  8
_1-0_
  6
CONTINUOUS
 62
    9
 10
279.49284596816926
 20
-112.80328067312098
 11
278.26421981188753
 21
-117.38857591184524
  0
ARC
  8
_1-0_
  6
CONTINUOUS
 62
    9
 10
279.65570126845944
 20
-117.95328067312107
 40
0.2499999999999999
 50
344.99999999995498
 51
90
  0
LINE
  8
_1-0_
  6
CONTINUOUS
 62
    9
 10
279.89718272503126
 20
-118.01798543439668
 11
279.2178524132388
 21
-120.55328067312098
  0
LINE
  8
_1-0_
  6
CONTINUOUS
 62
    9
 10
284.95570126845962
 20
-118.65328067312112
 11
279.72695587885903
 21
-118.65328067312112
  0
LINE
  8
_1-0_
  6
CONTINUOUS
 62
    9
 10
284.95570126845962
 20
-118.00328067312125
 11
279.90112285393991
 21
-118.00328067312125
  0
ARC
  8
_1-0_
  6
CONTINUOUS
 62
    9
 10
278.50570126845935
 20
-117.45328067312107
 40
0.2499999999999999
 50
164.9999999999107
 51
270
  0
LINE
  8
_1-0_
  6
CONTINUOUS
 62
    7
 10
277.48070126818459
 20
-120.55328067312098
 11
278.05111257366354
 21
-120.55328067312098
  0
ARC
  8
_1-0_
  6
CONTINUOUS
 62
    7
 10
278.95570126818768
 20
-117.93115766862934
 40
0.1499999999999999
 50
341.39170198511317
 51
83.500000000001762
  0
LINE
  8
_1-0_
  6
CONTINUOUS
 62
    7
 10
277.4807012681664
 20
-95.553280673126437
 11
277.48070126818459
 21
-120.55328067312098
  0
LINE
  8
_1-0_
  6
CONTINUOUS
 62
    7
 10
278.03070126818204
 20
-116.90449706017603
 11
278.28070126818341
 21
-117.15449706017739
  0
LINE
  8
_1-0_
  6
CONTINUOUS
 62
    7
 10
292.48070126818459
 20
-120.55328067311575
 11
291.91028996261832
 21
-120.55328067311621
  0
LINE
  8
_1-0_
  6
CONTINUOUS
 62
    7
 10
277.4807012681664
 20
-95.553280673131894
 11
292.4807012681664
 21
-95.55328067312098
  0
ARC
  8
_1-0_
  6
CONTINUOUS
 62
    7
 10
291.00570126817922
 20
-117.93115766862502
 40
0.1499999999999999
 50
96.500000000039279
 51
198.61648504280038
  0
LINE
  8
_1-0_
  6
CONTINUOUS
 62
    7
 10
292.4807012681664
 20
-95.55328067312098
 11
292.48070126818413
 21
-120.55328067311575
  0
LINE
  8
_1-0_
  6
CONTINUOUS
 62
    7
 10
279.90682213111529
 20
-104.93327626426822
 11
279.23070126817458
 21
-104.54291770204395
  0
LINE
  8
_1-0_
  6
CONTINUOUS
 62
    7
 10
278.35570126817413
 20
-105.0480991875836
 11
278.35570126817368
 21
-105.55328067312598
  0
LINE
  8
_1-0_
  6
CONTINUOUS
 62
    7
 10
279.23070126817504
 20
-104.54291770204395
 11
278.35570126817413
 21
-105.0480991875836
  0
ARC
  8
_1-0_
  6
CONTINUOUS
 62
    7
 10
280.10570126817322
 20
-104.58880749431955
 40
0.3977582741150606
 50
239.99999999993153
 51
47.784709455458199
  0
ARC
  8
_1-0_
  6
CONTINUOUS
 62
    7
 10
279.23070126817368
 20
-105.55328067312576
 40
1.6999999999999997
 50
47.784709455458596
 51
119.15536542632444
  0
LINE
  8
_1-0_
  6
CONTINUOUS
 62
    7
 10
279.90682213111597
 20
-106.17328508198284
 11
279.23070126817549
 21
-106.56364364420779
  0
LINE
  8
_1-0_
  6
CONTINUOUS
 62
    7
 10
278.35570126817458
 20
-106.05846215866859
 11
278.35570126817368
 21
-105.55328067312621
  0
LINE
  8
_1-0_
  6
CONTINUOUS
 62
    7
 10
279.23070126817549
 20
-106.56364364420801
 11
278.35570126817458
 21
-106.05846215866882
  0
ARC
  8
_1-0_
  6
CONTINUOUS
 62
    7
 10
280.10570126817413
 20
-106.5177538519315
 40
0.3977582741150606
 50
312.2152905445829
 51
120.00000000010958
  0
ARC
  8
_1-0_
  6
CONTINUOUS
 62
    7
 10
279.23070126817368
 20
-105.55328067312598
 40
1.6999999999999997
 50
240.84463457375733
 51
312.21529054458233
  0
LINE
  8
_1-0_
  6
CONTINUOUS
 62
    7
 10
278.03070126817477
 20
-107.25621930971943
 11
278.03070126818204
 21
-116.9044970601758
  0
LINE
  8
_1-0_
  6
CONTINUOUS
 62
    7
 10
278.03070126816749
 20
-96.603280673131394
 11
278.03070126817249
 21
-103.8503420365339
  0
ARC
  8
_1-0_
  6
CONTINUOUS
 62
    7
 10
278.28070126817249
 20
-103.8503420365339
 40
0.2499999999999999
 50
180.00000000000006
 51
299.15536542632435
  0
LINE
  8
_1-0_
  6
CONTINUOUS
 62
    7
 10
290.05458040522865
 20
-104.93327626426299
 11
290.73070126816913
 21
-104.54291770203781
  0
LINE
  8
_1-0_
  6
CONTINUOUS
 62
    7
 10
291.60570126816958
 20
-105.04809918757678
 11
291.60570126817095
 21
-105.55328067311916
  0
LINE
  8
_1-0_
  6
CONTINUOUS
 62
    7
 10
290.73070126816913
 20
-104.54291770203781
 11
291.60570126817004
 21
-105.04809918757678
  0
ARC
  8
_1-0_
  6
CONTINUOUS
 62
    7
 10
289.85570126817049
 20
-104.58880749431432
 40
0.3977582741150606
 50
132.21529054460302
 51
300.00000000012966
  0
ARC
  8
_1-0_
  6
CONTINUOUS
 62
    7
 10
290.73070126817095
 20
-105.55328067311962
 40
1.6999999999999997
 50
60.844634573736684
 51
132.21529054460254
  0
LINE
  8
_1-0_
  6
CONTINUOUS
 62
    7
 10
290.05458040522956
 20
-106.17328508197738
 11
290.73070126817004
 21
-106.56364364420165
  0
LINE
  8
_1-0_
  6
CONTINUOUS
 62
    7
 10
291.60570126817049
 20
-106.05846215866154
 11
291.60570126817095
 21
-105.55328067311916
  0
LINE
  8
_1-0_
  6
CONTINUOUS
 62
    7
 10
290.73070126817004
 20
-106.56364364420165
 11
291.60570126817049
 21
-106.05846215866154
  0
ARC
  8
_1-0_
  6
CONTINUOUS
 62
    7
 10
289.85570126817186
 20
-106.51775385192627
 40
0.3977582741150606
 50
59.99999999995164
 51
227.78470945547832
  0
ARC
  8
_1-0_
  6
CONTINUOUS
 62
    7
 10
290.73070126817095
 20
-105.55328067311984
 40
1.6999999999999997
 50
227.78470945547875
 51
299.15536542630366
  0
ARC
  8
_1-0_
  6
CONTINUOUS
 62
    7
 10
291.68070126817167
 20
-107.25621930971215
 40
0.2499999999999999
 50
0.0000000000612065
 51
119.15536542630383
  0
ARC
  8
_1-0_
  6
CONTINUOUS
 62
    7
 10
291.68070126817031
 20
-103.85034203652663
 40
0.2499999999999999
 50
240.8446345737369
 51
0.0000000000611635
  0
LINE
  8
_1-0_
  6
CONTINUOUS
 62
    7
 10
291.93070126817486
 20
-107.2562193097117
 11
291.93070126818168
 21
-116.9044970601733
  0
LINE
  8
_1-0_
  6
CONTINUOUS
 62
    7
 10
291.93070126816713
 20
-96.60328067312139
 11
291.93070126817258
 21
-103.8503420365264
  0
LINE
  8
_1-0_
  6
CONTINUOUS
 62
    7
 10
278.53070126816704
 20
-96.103280673131167
 11
291.43070126816713
 21
-96.103280673121617
  0
ARC
  8
_1-0_
  6
CONTINUOUS
 62
    7
 10
278.53070126816749
 20
-96.603280673131167
 40
0.4999999999999999
 50
90
 51
180
  0
ARC
  8
_1-0_
  6
CONTINUOUS
 62
    7
 10
291.43070126816713
 20
-96.603280673121844
 40
0.4999999999999999
 50
0
 51
90
  0
LINE
  8
_1-0_
  6
CONTINUOUS
 62
    7
 10
290.86354977812528
 20
-117.97904246658254
 11
291.67337081252811
 21
-120.38308866971192
  0
ARC
  8
_1-0_
  6
CONTINUOUS
 62
    7
 10
291.91028996261832
 20
-120.30328067311598
 40
0.2499999999999999
 50
198.61648504279918
 51
270
  0
LINE
  8
_1-0_
  6
CONTINUOUS
 62
    7
 10
279.09785275815887
 20
-117.97904246657595
 11
278.28803172375331
 21
-120.38308866970442
  0
ARC
  8
_1-0_
  6
CONTINUOUS
 62
    7
 10
278.05111257366354
 20
-120.30328067310847
 40
0.2499999999999999
 50
270
 51
341.38351495713721
  0
LINE
  8
_1-0_
  6
CONTINUOUS
 62
    7
 10
291.93070126818168
 20
-116.9044970601733
 11
291.6807012681835
 21
-117.15449706017239
  0
LINE
  8
_1-0_
  6
CONTINUOUS
 62
    7
 10
291.68070126818304
 20
-117.15449706017239
 11
291.6807012681835
 21
-117.70328067311561
  0
LINE
  8
_1-0_
  6
CONTINUOUS
 62
    7
 10
290.98872078611396
 20
-117.78212189027363
 11
291.6807012681835
 21
-117.70328067311561
  0
LINE
  8
_1-0_
  6
CONTINUOUS
 62
    7
 10
278.97268175025295
 20
-117.78212189027795
 11
278.28070126818341
 21
-117.70328067312039
  0
LINE
  8
_1-0_
  6
CONTINUOUS
 62
    7
 10
278.28070126818295
 20
-117.15449706017716
 11
278.28070126818341
 21
-117.70328067312062
  0
POINT
  8
_1-0_
 62
    4
 10
292.4807012681664
 20
-88.835727681543403
  0
LINE
  8
_1-0_
  6
CONTINUOUS
 62
    4
 10
292.4807012681664
 20
-88.835727681543403
 11
292.4807012681664
 21
-94.002360476266404
  0
LINE
  8
_1-0_
  6
CONTINUOUS
 62
    4
 10
292.4807012681664
 20
-88.835727681543403
 11
277.4807012681664
 21
-88.835727681543403
  0
POINT
  8
_1-0_
 62
    4
 10
277.4807012681664
 20
-88.835727681543403
  0
LINE
  8
_1-0_
  6
CONTINUOUS
 62
    4
 10
277.4807012681664
 20
-88.835727681543403
 11
277.4807012681664
 21
-94.002360476266404
  0
LINE
  8
_1-0_
  6
CONTINUOUS
 62
    7
 10
278.21855012367121
 20
-120.5533029145256
 11
279.21785241322948
 21
-120.55330332627341
  0
LINE
  8
_1-0_
  6
CONTINUOUS
 62
    7
 10
253.23105012366921
 20
-120.55330806496613
 11
277.48070126818459
 21
-120.55331805667674
  0
LINE
  8
_1-0_
  6
CONTINUOUS
 62
    7
 10
278.23105012366489
 20
-120.55331836584674
 11
279.21785241322311
 21
-120.55331877244407
  0
LINE
  8
_1-0_
  6
CONTINUOUS
 62
    7
 10
290.71855012366279
 20
-120.5533235111368
 11
297.27587287812332
 21
-120.55332621298453
  0
LINE
  8
_1-0_
  6
CONTINUOUS
 62
    7
 10
149.74320466820166
 20
-149.04113291868066
 11
149.74321538083007
 21
-175.04043520823461
  0
LINE
  8
_1-0_
  6
CONTINUOUS
 62
    7
 10
149.74319787811794
 20
-207.561756445941
 11
149.74319992950916
 21
-212.54043520824098
  0
ARC
  8
_1-0_
  6
CONTINUOUS
 62
    7
 10
136.44613651471639
 20
-211.60328406317808
 40
0.25
 50
90
 51
209.1553654262427
  0
LINE
  8
_1-0_
  6
CONTINUOUS
 62
    7
 10
149.74319787811794
 20
-210.79078406318763
 11
149.74319787811794
 21
-211.36119536866659
  0
LINE
  8
_1-0_
  6
CONTINUOUS
 62
    7
 10
149.74319787811271
 20
-225.79078406318763
 11
149.74319787811294
 21
-225.22037275762136
  0
LINE
  8
_1-0_
  6
CONTINUOUS
 62
    9
 10
141.99319787811794
 20
-223.76613936375293
 11
141.99319787811794
 21
-218.27828406346248
  0
LINE
  8
_1-0_
  6
CONTINUOUS
 62
    9
 10
146.89319787811803
 20
-223.6032840634623
 11
146.89319787811803
 21
-224.75328406346239
  0
ARC
  8
_1-0_
  6
CONTINUOUS
 62
    9
 10
146.64319787811803
 20
-224.75328406346239
 40
0.25
 50
254.9999999999107
 51
0
  0
LINE
  8
_1-0_
  6
CONTINUOUS
 62
    9
 10
141.99319787811794
 20
-223.76613936375293
 11
146.5784931168422
 21
-224.99476552003466
  0
ARC
  8
_1-0_
  6
CONTINUOUS
 62
    9
 10
147.14319787811803
 20
-223.6032840634623
 40
0.25
 50
74.99999999995498
 51
180
  0
LINE
  8
_1-0_
  6
CONTINUOUS
 62
    9
 10
147.20790263939386
 20
-223.36180260689048
 11
149.74319787811817
 21
-224.04113291868339
  0
LINE
  8
_1-0_
  6
CONTINUOUS
 62
    9
 10
147.84319787811808
 20
-218.27828406346248
 11
147.84319787811808
 21
-223.53202945306271
  0
LINE
  8
_1-0_
  6
CONTINUOUS
 62
    9
 10
147.19319787811821
 20
-218.27828406346248
 11
147.19319787811821
 21
-223.35786247798183
  0
LINE
  8
_1-0_
  6
CONTINUOUS
 62
    9
 10
141.99319787811794
 20
-212.81542876317212
 11
141.99319787811794
 21
-218.27828406346248
  0
LINE
  8
_1-0_
  6
CONTINUOUS
 62
    9
 10
146.89319787811803
 20
-212.97828406346275
 11
146.89319787811803
 21
-211.82828406346266
  0
LINE
  8
_1-0_
  6
CONTINUOUS
 62
    9
 10
141.99319787811794
 20
-212.81542876317212
 11
146.5784931168422
 21
-211.58680260689039
  0
ARC
  8
_1-0_
  6
CONTINUOUS
 62
    9
 10
147.14319787811803
 20
-212.97828406346275
 40
0.25
 50
180
 51
285.00000000004496
  0
LINE
  8
_1-0_
  6
CONTINUOUS
 62
    9
 10
147.20790263939364
 20
-213.21976552003457
 11
149.74319787811794
 21
-212.54043520824166
  0
LINE
  8
_1-0_
  6
CONTINUOUS
 62
    9
 10
147.84319787811808
 20
-218.27828406346248
 11
147.84319787811808
 21
-213.04953867386234
  0
LINE
  8
_1-0_
  6
CONTINUOUS
 62
    9
 10
147.19319787811821
 20
-218.27828406346248
 11
147.19319787811821
 21
-213.22370564894322
  0
ARC
  8
_1-0_
  6
CONTINUOUS
 62
    9
 10
146.64319787811803
 20
-211.82828406346266
 40
0.25
 50
0
 51
105.00000000008929
  0
LINE
  8
_1-0_
  6
CONTINUOUS
 62
    7
 10
149.74319787811794
 20
-210.80328406318745
 11
149.74319787811794
 21
-211.3736953686664
  0
ARC
  8
_1-0_
  6
CONTINUOUS
 62
    7
 10
147.1210748736263
 20
-212.27828406319099
 40
0.1499999999999999
 50
186.49999999999821
 51
288.60829801488677
  0
LINE
  8
_1-0_
  6
CONTINUOUS
 62
    7
 10
124.7431978781234
 20
-210.80328406316971
 11
149.74319787811794
 21
-210.80328406318745
  0
LINE
  8
_1-0_
  6
CONTINUOUS
 62
    7
 10
146.09441426517299
 20
-211.3532840631849
 11
146.34441426517435
 21
-211.60328406318672
  0
LINE
  8
_1-0_
  6
CONTINUOUS
 62
    7
 10
149.74319787811271
 20
-225.80328406318745
 11
149.74319787811316
 21
-225.23287275762164
  0
LINE
  8
_1-0_
  6
CONTINUOUS
 62
    7
 10
124.74319787812885
 20
-210.80328406316971
 11
124.74319787811794
 21
-225.80328406316971
  0
ARC
  8
_1-0_
  6
CONTINUOUS
 62
    7
 10
147.12107487362198
 20
-224.32828406318254
 40
0.1499999999999999
 50
71.383514957199623
 51
173.49999999996072
  0
LINE
  8
_1-0_
  6
CONTINUOUS
 62
    7
 10
124.74319787811794
 20
-225.80328406316971
 11
149.74319787811271
 21
-225.80328406318745
  0
LINE
  8
_1-0_
  6
CONTINUOUS
 62
    7
 10
134.12319346926517
 20
-213.22940492611838
 11
133.73283490704091
 21
-212.5532840631779
  0
LINE
  8
_1-0_
  6
CONTINUOUS
 62
    7
 10
134.23801639258056
 20
-211.67828406317744
 11
134.74319787812294
 21
-211.67828406317699
  0
LINE
  8
_1-0_
  6
CONTINUOUS
 62
    7
 10
133.73283490704091
 20
-212.5532840631779
 11
134.23801639258056
 21
-211.67828406317744
  0
ARC
  8
_1-0_
  6
CONTINUOUS
 62
    7
 10
133.77872469931651
 20
-213.42828406317653
 40
0.3977582741150607
 50
222.2152905445418
 51
30.000000000068439
  0
ARC
  8
_1-0_
  6
CONTINUOUS
 62
    7
 10
134.74319787812271
 20
-212.55328406317699
 40
1.7
 50
150.84463457367556
 51
222.2152905445414
  0
LINE
  8
_1-0_
  6
CONTINUOUS
 62
    7
 10
135.3632022869798
 20
-213.22940492611883
 11
135.75356084920475
 21
-212.55328406317881
  0
LINE
  8
_1-0_
  6
CONTINUOUS
 62
    7
 10
135.24837936366555
 20
-211.6782840631779
 11
134.74319787812317
 21
-211.67828406317699
  0
LINE
  8
_1-0_
  6
CONTINUOUS
 62
    7
 10
135.75356084920497
 20
-212.55328406317881
 11
135.24837936366578
 21
-211.6782840631779
  0
ARC
  8
_1-0_
  6
CONTINUOUS
 62
    7
 10
135.70767105692846
 20
-213.42828406317699
 40
0.3977582741150607
 50
149.99999999989041
 51
317.7847094554171
  0
ARC
  8
_1-0_
  6
CONTINUOUS
 62
    7
 10
134.74319787812294
 20
-212.55328406317699
 40
1.7
 50
317.78470945541761
 51
29.155365426242618
  0
LINE
  8
_1-0_
  6
CONTINUOUS
 62
    7
 10
136.44613651471639
 20
-211.35328406317808
 11
146.09441426517276
 21
-211.3532840631849
  0
LINE
  8
_1-0_
  6
CONTINUOUS
 62
    7
 10
125.79319787812835
 20
-211.35328406317035
 11
133.04025924153086
 21
-211.35328406317558
  0
ARC
  8
_1-0_
  6
CONTINUOUS
 62
    7
 10
133.04025924153086
 20
-211.60328406317535
 40
0.25
 50
330.84463457367565
 51
89.999999999999943
  0
LINE
  8
_1-0_
  6
CONTINUOUS
 62
    7
 10
134.12319346925995
 20
-223.37716320023196
 11
133.73283490703477
 21
-224.05328406317199
  0
LINE
  8
_1-0_
  6
CONTINUOUS
 62
    7
 10
134.23801639257374
 20
-224.9282840631729
 11
134.74319787811612
 21
-224.92828406317426
  0
LINE
  8
_1-0_
  6
CONTINUOUS
 62
    7
 10
133.73283490703477
 20
-224.05328406317199
 11
134.23801639257374
 21
-224.9282840631729
  0
ARC
  8
_1-0_
  6
CONTINUOUS
 62
    7
 10
133.77872469931128
 20
-223.17828406317335
 40
0.3977582741150607
 50
329.99999999987034
 51
137.78470945539698
  0
ARC
  8
_1-0_
  6
CONTINUOUS
 62
    7
 10
134.74319787811658
 20
-224.05328406317426
 40
1.7
 50
137.78470945539746
 51
209.15536542626333
  0
LINE
  8
_1-0_
  6
CONTINUOUS
 62
    7
 10
135.36320228697434
 20
-223.37716320023242
 11
135.75356084919861
 21
-224.05328406317335
  0
LINE
  8
_1-0_
  6
CONTINUOUS
 62
    7
 10
135.2483793636585
 20
-224.92828406317381
 11
134.74319787811612
 21
-224.92828406317381
  0
LINE
  8
_1-0_
  6
CONTINUOUS
 62
    7
 10
135.75356084919861
 20
-224.05328406317335
 11
135.2483793636585
 21
-224.92828406317381
  0
ARC
  8
_1-0_
  6
CONTINUOUS
 62
    7
 10
135.70767105692323
 20
-223.17828406317471
 40
0.3977582741150607
 50
42.215290544521672
 51
210.00000000004837
  0
ARC
  8
_1-0_
  6
CONTINUOUS
 62
    7
 10
134.7431978781168
 20
-224.05328406317426
 40
1.7
 50
330.84463457369634
 51
42.215290544521238
  0
ARC
  8
_1-0_
  6
CONTINUOUS
 62
    7
 10
136.44613651470911
 20
-225.00328406317499
 40
0.25
 50
150.84463457369617
 51
269.99999999993878
  0
ARC
  8
_1-0_
  6
CONTINUOUS
 62
    7
 10
133.04025924152359
 20
-225.00328406317362
 40
0.25
 50
269.99999999993884
 51
29.155365426263131
  0
LINE
  8
_1-0_
  6
CONTINUOUS
 62
    7
 10
136.44613651470866
 20
-225.25328406317817
 11
146.09441426517026
 21
-225.25328406318499
  0
LINE
  8
_1-0_
  6
CONTINUOUS
 62
    7
 10
125.79319787811835
 20
-225.25328406317044
 11
133.04025924152336
 21
-225.25328406317544
  0
LINE
  8
_1-0_
  6
CONTINUOUS
 62
    7
 10
125.29319787812813
 20
-211.85328406316989
 11
125.29319787811858
 21
-224.75328406316999
  0
ARC
  8
_1-0_
  6
CONTINUOUS
 62
    7
 10
125.79319787812813
 20
-211.85328406317035
 40
0.5
 50
90
 51
180
  0
ARC
  8
_1-0_
  6
CONTINUOUS
 62
    7
 10
125.7931978781188
 20
-224.75328406317044
 40
0.5
 50
180
 51
270
  0
LINE
  8
_1-0_
  6
CONTINUOUS
 62
    7
 10
147.1689596715795
 20
-224.18613257312859
 11
149.57300587470888
 21
-224.99595360753142
  0
ARC
  8
_1-0_
  6
CONTINUOUS
 62
    7
 10
149.49319787811294
 20
-225.23287275762118
 40
0.25
 50
0
 51
71.383514957200816
  0
LINE
  8
_1-0_
  6
CONTINUOUS
 62
    7
 10
147.16895967157291
 20
-212.42043555316172
 11
149.57300587470138
 21
-211.61061451875617
  0
ARC
  8
_1-0_
  6
CONTINUOUS
 62
    7
 10
149.49319787810543
 20
-211.3736953686664
 40
0.25
 50
288.61648504286279
 51
0.0000000000000254
  0
LINE
  8
_1-0_
  6
CONTINUOUS
 62
    7
 10
146.09441426517026
 20
-225.25328406318499
 11
146.34441426516935
 21
-225.00328406318636
  0
LINE
  8
_1-0_
  6
CONTINUOUS
 62
    7
 10
146.34441426516935
 20
-225.00328406318636
 11
146.89319787811257
 21
-225.00328406318636
  0
LINE
  8
_1-0_
  6
CONTINUOUS
 62
    7
 10
146.97203909527059
 20
-224.31130358111727
 11
146.89319787811257
 21
-225.00328406318681
  0
LINE
  8
_1-0_
  6
CONTINUOUS
 62
    7
 10
146.97203909527491
 20
-212.29526454525626
 11
146.89319787811735
 21
-211.60328406318672
  0
LINE
  8
_1-0_
  6
CONTINUOUS
 62
    7
 10
146.34441426517412
 20
-211.60328406318627
 11
146.89319787811758
 21
-211.60328406318627
  0
POINT
  8
_1-0_
 62
    4
 10
118.02564488654036
 20
-225.80328406316971
  0
LINE
  8
_1-0_
  6
CONTINUOUS
 62
    4
 10
118.02564488654036
 20
-225.80328406316971
 11
123.19227768126336
 21
-225.80328406316971
  0
LINE
  8
_1-0_
  6
CONTINUOUS
 62
    4
 10
118.02564488654036
 20
-225.80328406316971
 11
118.02564488654036
 21
-210.80328406316971
  0
POINT
  8
_1-0_
 62
    4
 10
118.02564488654036
 20
-210.80328406316971
  0
LINE
  8
_1-0_
  6
CONTINUOUS
 62
    4
 10
118.02564488654036
 20
-210.80328406316971
 11
123.19227768126336
 21
-210.80328406316971
  0
LINE
  8
_1-0_
  6
CONTINUOUS
 62
    7
 10
149.74319787811794
 20
-170.061756445941
 11
149.74319992950916
 21
-175.04043520824098
  0
ARC
  8
_1-0_
  6
CONTINUOUS
 62
    7
 10
136.44613651471639
 20
-174.10328406317808
 40
0.25
 50
90
 51
209.1553654262427
  0
LINE
  8
_1-0_
  6
CONTINUOUS
 62
    7
 10
149.74319787811794
 20
-173.29078406318763
 11
149.74319787811794
 21
-173.86119536866659
  0
LINE
  8
_1-0_
  6
CONTINUOUS
 62
    7
 10
149.74319787811271
 20
-188.29078406318763
 11
149.74319787811294
 21
-187.72037275762136
  0
LINE
  8
_1-0_
  6
CONTINUOUS
 62
    9
 10
141.99319787811794
 20
-186.26613936375293
 11
141.99319787811794
 21
-180.77828406346248
  0
LINE
  8
_1-0_
  6
CONTINUOUS
 62
    9
 10
146.89319787811803
 20
-186.1032840634623
 11
146.89319787811803
 21
-187.25328406346239
  0
ARC
  8
_1-0_
  6
CONTINUOUS
 62
    9
 10
146.64319787811803
 20
-187.25328406346239
 40
0.25
 50
254.9999999999107
 51
0
  0
LINE
  8
_1-0_
  6
CONTINUOUS
 62
    9
 10
141.99319787811794
 20
-186.26613936375293
 11
146.5784931168422
 21
-187.49476552003466
  0
ARC
  8
_1-0_
  6
CONTINUOUS
 62
    9
 10
147.14319787811803
 20
-186.1032840634623
 40
0.25
 50
74.99999999995498
 51
180
  0
LINE
  8
_1-0_
  6
CONTINUOUS
 62
    9
 10
147.20790263939386
 20
-185.86180260689048
 11
149.74319787811817
 21
-186.54113291868339
  0
LINE
  8
_1-0_
  6
CONTINUOUS
 62
    9
 10
147.84319787811808
 20
-180.77828406346248
 11
147.84319787811808
 21
-186.03202945306271
  0
LINE
  8
_1-0_
  6
CONTINUOUS
 62
    9
 10
147.19319787811821
 20
-180.77828406346248
 11
147.19319787811821
 21
-185.85786247798183
  0
LINE
  8
_1-0_
  6
CONTINUOUS
 62
    9
 10
141.99319787811794
 20
-175.31542876317212
 11
141.99319787811794
 21
-180.77828406346248
  0
LINE
  8
_1-0_
  6
CONTINUOUS
 62
    9
 10
146.89319787811803
 20
-175.47828406346275
 11
146.89319787811803
 21
-174.32828406346266
  0
LINE
  8
_1-0_
  6
CONTINUOUS
 62
    9
 10
141.99319787811794
 20
-175.31542876317212
 11
146.5784931168422
 21
-174.08680260689039
  0
ARC
  8
_1-0_
  6
CONTINUOUS
 62
    9
 10
147.14319787811803
 20
-175.47828406346275
 40
0.25
 50
180
 51
285.00000000004496
  0
LINE
  8
_1-0_
  6
CONTINUOUS
 62
    9
 10
147.20790263939364
 20
-175.71976552003457
 11
149.74319787811794
 21
-175.04043520824166
  0
LINE
  8
_1-0_
  6
CONTINUOUS
 62
    9
 10
147.84319787811808
 20
-180.77828406346248
 11
147.84319787811808
 21
-175.54953867386234
  0
LINE
  8
_1-0_
  6
CONTINUOUS
 62
    9
 10
147.19319787811821
 20
-180.77828406346248
 11
147.19319787811821
 21
-175.72370564894322
  0
ARC
  8
_1-0_
  6
CONTINUOUS
 62
    9
 10
146.64319787811803
 20
-174.32828406346266
 40
0.25
 50
0
 51
105.00000000008929
  0
LINE
  8
_1-0_
  6
CONTINUOUS
 62
    7
 10
149.74319787811794
 20
-173.30328406318745
 11
149.74319787811794
 21
-173.8736953686664
  0
ARC
  8
_1-0_
  6
CONTINUOUS
 62
    7
 10
147.1210748736263
 20
-174.77828406319099
 40
0.1499999999999999
 50
186.49999999999821
 51
288.60829801488677
  0
LINE
  8
_1-0_
  6
CONTINUOUS
 62
    7
 10
124.7431978781234
 20
-173.30328406316971
 11
149.74319787811794
 21
-173.30328406318745
  0
LINE
  8
_1-0_
  6
CONTINUOUS
 62
    7
 10
146.09441426517299
 20
-173.8532840631849
 11
146.34441426517435
 21
-174.10328406318672
  0
LINE
  8
_1-0_
  6
CONTINUOUS
 62
    7
 10
149.74319787811271
 20
-188.30328406318745
 11
149.74319787811316
 21
-187.73287275762164
  0
LINE
  8
_1-0_
  6
CONTINUOUS
 62
    7
 10
124.74319787812885
 20
-173.30328406316971
 11
124.74319787811794
 21
-188.30328406316971
  0
ARC
  8
_1-0_
  6
CONTINUOUS
 62
    7
 10
147.12107487362198
 20
-186.82828406318254
 40
0.1499999999999999
 50
71.383514957199623
 51
173.49999999996072
  0
LINE
  8
_1-0_
  6
CONTINUOUS
 62
    7
 10
124.74319787811794
 20
-188.30328406316971
 11
149.74319787811271
 21
-188.30328406318745
  0
LINE
  8
_1-0_
  6
CONTINUOUS
 62
    7
 10
134.12319346926517
 20
-175.72940492611838
 11
133.73283490704091
 21
-175.0532840631779
  0
LINE
  8
_1-0_
  6
CONTINUOUS
 62
    7
 10
134.23801639258056
 20
-174.17828406317744
 11
134.74319787812294
 21
-174.17828406317699
  0
LINE
  8
_1-0_
  6
CONTINUOUS
 62
    7
 10
133.73283490704091
 20
-175.0532840631779
 11
134.23801639258056
 21
-174.17828406317744
  0
ARC
  8
_1-0_
  6
CONTINUOUS
 62
    7
 10
133.77872469931651
 20
-175.92828406317653
 40
0.3977582741150607
 50
222.2152905445418
 51
30.000000000068439
  0
ARC
  8
_1-0_
  6
CONTINUOUS
 62
    7
 10
134.74319787812271
 20
-175.05328406317699
 40
1.7
 50
150.84463457367556
 51
222.2152905445414
  0
LINE
  8
_1-0_
  6
CONTINUOUS
 62
    7
 10
135.3632022869798
 20
-175.72940492611883
 11
135.75356084920475
 21
-175.05328406317881
  0
LINE
  8
_1-0_
  6
CONTINUOUS
 62
    7
 10
135.24837936366555
 20
-174.1782840631779
 11
134.74319787812317
 21
-174.17828406317699
  0
LINE
  8
_1-0_
  6
CONTINUOUS
 62
    7
 10
135.75356084920497
 20
-175.05328406317881
 11
135.24837936366578
 21
-174.1782840631779
  0
ARC
  8
_1-0_
  6
CONTINUOUS
 62
    7
 10
135.70767105692846
 20
-175.92828406317699
 40
0.3977582741150607
 50
149.99999999989041
 51
317.7847094554171
  0
ARC
  8
_1-0_
  6
CONTINUOUS
 62
    7
 10
134.74319787812294
 20
-175.05328406317699
 40
1.7
 50
317.78470945541761
 51
29.155365426242618
  0
LINE
  8
_1-0_
  6
CONTINUOUS
 62
    7
 10
136.44613651471639
 20
-173.85328406317808
 11
146.09441426517276
 21
-173.8532840631849
  0
LINE
  8
_1-0_
  6
CONTINUOUS
 62
    7
 10
125.79319787812835
 20
-173.85328406317035
 11
133.04025924153086
 21
-173.85328406317558
  0
ARC
  8
_1-0_
  6
CONTINUOUS
 62
    7
 10
133.04025924153086
 20
-174.10328406317535
 40
0.25
 50
330.84463457367565
 51
89.999999999999943
  0
LINE
  8
_1-0_
  6
CONTINUOUS
 62
    7
 10
134.12319346925995
 20
-185.87716320023196
 11
133.73283490703477
 21
-186.55328406317199
  0
LINE
  8
_1-0_
  6
CONTINUOUS
 62
    7
 10
134.23801639257374
 20
-187.4282840631729
 11
134.74319787811612
 21
-187.42828406317426
  0
LINE
  8
_1-0_
  6
CONTINUOUS
 62
    7
 10
133.73283490703477
 20
-186.55328406317199
 11
134.23801639257374
 21
-187.4282840631729
  0
ARC
  8
_1-0_
  6
CONTINUOUS
 62
    7
 10
133.77872469931128
 20
-185.67828406317335
 40
0.3977582741150607
 50
329.99999999987034
 51
137.78470945539698
  0
ARC
  8
_1-0_
  6
CONTINUOUS
 62
    7
 10
134.74319787811658
 20
-186.55328406317426
 40
1.7
 50
137.78470945539746
 51
209.15536542626333
  0
LINE
  8
_1-0_
  6
CONTINUOUS
 62
    7
 10
135.36320228697434
 20
-185.87716320023242
 11
135.75356084919861
 21
-186.55328406317335
  0
LINE
  8
_1-0_
  6
CONTINUOUS
 62
    7
 10
135.2483793636585
 20
-187.42828406317381
 11
134.74319787811612
 21
-187.42828406317381
  0
LINE
  8
_1-0_
  6
CONTINUOUS
 62
    7
 10
135.75356084919861
 20
-186.55328406317335
 11
135.2483793636585
 21
-187.42828406317381
  0
ARC
  8
_1-0_
  6
CONTINUOUS
 62
    7
 10
135.70767105692323
 20
-185.67828406317471
 40
0.3977582741150607
 50
42.215290544521672
 51
210.00000000004837
  0
ARC
  8
_1-0_
  6
CONTINUOUS
 62
    7
 10
134.7431978781168
 20
-186.55328406317426
 40
1.7
 50
330.84463457369634
 51
42.215290544521238
  0
ARC
  8
_1-0_
  6
CONTINUOUS
 62
    7
 10
136.44613651470911
 20
-187.50328406317499
 40
0.25
 50
150.84463457369617
 51
269.99999999993878
  0
ARC
  8
_1-0_
  6
CONTINUOUS
 62
    7
 10
133.04025924152359
 20
-187.50328406317362
 40
0.25
 50
269.99999999993884
 51
29.155365426263131
  0
LINE
  8
_1-0_
  6
CONTINUOUS
 62
    7
 10
136.44613651470866
 20
-187.75328406317817
 11
146.09441426517026
 21
-187.75328406318499
  0
LINE
  8
_1-0_
  6
CONTINUOUS
 62
    7
 10
125.79319787811835
 20
-187.75328406317044
 11
133.04025924152336
 21
-187.75328406317544
  0
LINE
  8
_1-0_
  6
CONTINUOUS
 62
    7
 10
125.29319787812813
 20
-174.35328406316989
 11
125.29319787811858
 21
-187.25328406316999
  0
ARC
  8
_1-0_
  6
CONTINUOUS
 62
    7
 10
125.79319787812813
 20
-174.35328406317035
 40
0.5
 50
90
 51
180
  0
ARC
  8
_1-0_
  6
CONTINUOUS
 62
    7
 10
125.7931978781188
 20
-187.25328406317044
 40
0.5
 50
180
 51
270
  0
LINE
  8
_1-0_
  6
CONTINUOUS
 62
    7
 10
147.1689596715795
 20
-186.68613257312859
 11
149.57300587470888
 21
-187.49595360753142
  0
ARC
  8
_1-0_
  6
CONTINUOUS
 62
    7
 10
149.49319787811294
 20
-187.73287275762118
 40
0.25
 50
0
 51
71.383514957200816
  0
LINE
  8
_1-0_
  6
CONTINUOUS
 62
    7
 10
147.16895967157291
 20
-174.92043555316172
 11
149.57300587470138
 21
-174.11061451875617
  0
ARC
  8
_1-0_
  6
CONTINUOUS
 62
    7
 10
149.49319787810543
 20
-173.8736953686664
 40
0.25
 50
288.61648504286279
 51
0.0000000000000254
  0
LINE
  8
_1-0_
  6
CONTINUOUS
 62
    7
 10
146.09441426517026
 20
-187.75328406318499
 11
146.34441426516935
 21
-187.50328406318636
  0
LINE
  8
_1-0_
  6
CONTINUOUS
 62
    7
 10
146.34441426516935
 20
-187.50328406318636
 11
146.89319787811257
 21
-187.50328406318636
  0
LINE
  8
_1-0_
  6
CONTINUOUS
 62
    7
 10
146.97203909527059
 20
-186.81130358111727
 11
146.89319787811257
 21
-187.50328406318681
  0
LINE
  8
_1-0_
  6
CONTINUOUS
 62
    7
 10
146.97203909527491
 20
-174.79526454525626
 11
146.89319787811735
 21
-174.10328406318672
  0
LINE
  8
_1-0_
  6
CONTINUOUS
 62
    7
 10
146.34441426517412
 20
-174.10328406318627
 11
146.89319787811758
 21
-174.10328406318627
  0
POINT
  8
_1-0_
 62
    4
 10
118.02564488654036
 20
-188.30328406316971
  0
LINE
  8
_1-0_
  6
CONTINUOUS
 62
    4
 10
118.02564488654036
 20
-188.30328406316971
 11
123.19227768126336
 21
-188.30328406316971
  0
LINE
  8
_1-0_
  6
CONTINUOUS
 62
    4
 10
118.02564488654036
 20
-188.30328406316971
 11
118.02564488654036
 21
-173.30328406316971
  0
POINT
  8
_1-0_
 62
    4
 10
118.02564488654036
 20
-173.30328406316971
  0
LINE
  8
_1-0_
  6
CONTINUOUS
 62
    4
 10
118.02564488654036
 20
-173.30328406316971
 11
123.19227768126336
 21
-173.30328406316971
  0
ARC
  8
_1-0_
  6
CONTINUOUS
 62
    7
 10
136.44613651471639
 20
-136.60328406317808
 40
0.25
 50
90
 51
209.1553654262427
  0
LINE
  8
_1-0_
  6
CONTINUOUS
 62
    7
 10
149.74319787811794
 20
-135.79078406318763
 11
149.74319787811794
 21
-136.36119536866659
  0
LINE
  8
_1-0_
  6
CONTINUOUS
 62
    7
 10
149.74319787811271
 20
-150.79078406318763
 11
149.74319787811294
 21
-150.22037275762136
  0
LINE
  8
_1-0_
  6
CONTINUOUS
 62
    9
 10
141.99319787811794
 20
-148.76613936375293
 11
141.99319787811794
 21
-143.27828406346248
  0
LINE
  8
_1-0_
  6
CONTINUOUS
 62
    9
 10
146.89319787811803
 20
-148.6032840634623
 11
146.89319787811803
 21
-149.75328406346239
  0
ARC
  8
_1-0_
  6
CONTINUOUS
 62
    9
 10
146.64319787811803
 20
-149.75328406346239
 40
0.25
 50
254.9999999999107
 51
0
  0
LINE
  8
_1-0_
  6
CONTINUOUS
 62
    9
 10
141.99319787811794
 20
-148.76613936375293
 11
146.5784931168422
 21
-149.99476552003466
  0
ARC
  8
_1-0_
  6
CONTINUOUS
 62
    9
 10
147.14319787811803
 20
-148.6032840634623
 40
0.25
 50
74.99999999995498
 51
180
  0
LINE
  8
_1-0_
  6
CONTINUOUS
 62
    9
 10
147.20790263939386
 20
-148.36180260689048
 11
149.74319787811817
 21
-149.04113291868339
  0
LINE
  8
_1-0_
  6
CONTINUOUS
 62
    9
 10
147.84319787811808
 20
-143.27828406346248
 11
147.84319787811808
 21
-148.53202945306271
  0
LINE
  8
_1-0_
  6
CONTINUOUS
 62
    9
 10
147.19319787811821
 20
-143.27828406346248
 11
147.19319787811821
 21
-148.35786247798183
  0
LINE
  8
_1-0_
  6
CONTINUOUS
 62
    9
 10
141.99319787811794
 20
-137.81542876317212
 11
141.99319787811794
 21
-143.27828406346248
  0
LINE
  8
_1-0_
  6
CONTINUOUS
 62
    9
 10
146.89319787811803
 20
-137.97828406346275
 11
146.89319787811803
 21
-136.82828406346266
  0
LINE
  8
_1-0_
  6
CONTINUOUS
 62
    9
 10
141.99319787811794
 20
-137.81542876317212
 11
146.5784931168422
 21
-136.58680260689039
  0
ARC
  8
_1-0_
  6
CONTINUOUS
 62
    9
 10
147.14319787811803
 20
-137.97828406346275
 40
0.25
 50
180
 51
285.00000000004496
  0
LINE
  8
_1-0_
  6
CONTINUOUS
 62
    9
 10
147.20790263939364
 20
-138.21976552003457
 11
149.74319787811794
 21
-137.54043520824166
  0
LINE
  8
_1-0_
  6
CONTINUOUS
 62
    9
 10
147.84319787811808
 20
-143.27828406346248
 11
147.84319787811808
 21
-138.04953867386234
  0
LINE
  8
_1-0_
  6
CONTINUOUS
 62
    9
 10
147.19319787811821
 20
-143.27828406346248
 11
147.19319787811821
 21
-138.22370564894322
  0
ARC
  8
_1-0_
  6
CONTINUOUS
 62
    9
 10
146.64319787811803
 20
-136.82828406346266
 40
0.25
 50
0
 51
105.00000000008929
  0
LINE
  8
_1-0_
  6
CONTINUOUS
 62
    7
 10
149.74319787811794
 20
-135.80328406318745
 11
149.74319787811794
 21
-136.3736953686664
  0
ARC
  8
_1-0_
  6
CONTINUOUS
 62
    7
 10
147.1210748736263
 20
-137.27828406319099
 40
0.1499999999999999
 50
186.49999999999821
 51
288.60829801488677
  0
LINE
  8
_1-0_
  6
CONTINUOUS
 62
    7
 10
124.7431978781234
 20
-135.80328406316971
 11
149.74319787811794
 21
-135.80328406318745
  0
LINE
  8
_1-0_
  6
CONTINUOUS
 62
    7
 10
146.09441426517299
 20
-136.3532840631849
 11
146.34441426517435
 21
-136.60328406318672
  0
LINE
  8
_1-0_
  6
CONTINUOUS
 62
    7
 10
149.74319787811271
 20
-150.80328406318745
 11
149.74319787811316
 21
-150.23287275762164
  0
LINE
  8
_1-0_
  6
CONTINUOUS
 62
    7
 10
124.74319787812885
 20
-135.80328406316971
 11
124.74319787811794
 21
-150.80328406316971
  0
ARC
  8
_1-0_
  6
CONTINUOUS
 62
    7
 10
147.12107487362198
 20
-149.32828406318254
 40
0.1499999999999999
 50
71.383514957199623
 51
173.49999999996072
  0
LINE
  8
_1-0_
  6
CONTINUOUS
 62
    7
 10
124.74319787811794
 20
-150.80328406316971
 11
149.74319787811271
 21
-150.80328406318745
  0
LINE
  8
_1-0_
  6
CONTINUOUS
 62
    7
 10
134.12319346926517
 20
-138.22940492611838
 11
133.73283490704091
 21
-137.5532840631779
  0
LINE
  8
_1-0_
  6
CONTINUOUS
 62
    7
 10
134.23801639258056
 20
-136.67828406317744
 11
134.74319787812294
 21
-136.67828406317699
  0
LINE
  8
_1-0_
  6
CONTINUOUS
 62
    7
 10
133.73283490704091
 20
-137.5532840631779
 11
134.23801639258056
 21
-136.67828406317744
  0
ARC
  8
_1-0_
  6
CONTINUOUS
 62
    7
 10
133.77872469931651
 20
-138.42828406317653
 40
0.3977582741150607
 50
222.2152905445418
 51
30.000000000068439
  0
ARC
  8
_1-0_
  6
CONTINUOUS
 62
    7
 10
134.74319787812271
 20
-137.55328406317699
 40
1.7
 50
150.84463457367556
 51
222.2152905445414
  0
LINE
  8
_1-0_
  6
CONTINUOUS
 62
    7
 10
135.3632022869798
 20
-138.22940492611883
 11
135.75356084920475
 21
-137.55328406317881
  0
LINE
  8
_1-0_
  6
CONTINUOUS
 62
    7
 10
135.24837936366555
 20
-136.6782840631779
 11
134.74319787812317
 21
-136.67828406317699
  0
LINE
  8
_1-0_
  6
CONTINUOUS
 62
    7
 10
135.75356084920497
 20
-137.55328406317881
 11
135.24837936366578
 21
-136.6782840631779
  0
ARC
  8
_1-0_
  6
CONTINUOUS
 62
    7
 10
135.70767105692846
 20
-138.42828406317699
 40
0.3977582741150607
 50
149.99999999989041
 51
317.7847094554171
  0
ARC
  8
_1-0_
  6
CONTINUOUS
 62
    7
 10
134.74319787812294
 20
-137.55328406317699
 40
1.7
 50
317.78470945541761
 51
29.155365426242618
  0
LINE
  8
_1-0_
  6
CONTINUOUS
 62
    7
 10
136.44613651471639
 20
-136.35328406317808
 11
146.09441426517276
 21
-136.3532840631849
  0
LINE
  8
_1-0_
  6
CONTINUOUS
 62
    7
 10
125.79319787812835
 20
-136.35328406317035
 11
133.04025924153086
 21
-136.35328406317558
  0
ARC
  8
_1-0_
  6
CONTINUOUS
 62
    7
 10
133.04025924153086
 20
-136.60328406317535
 40
0.25
 50
330.84463457367565
 51
89.999999999999943
  0
LINE
  8
_1-0_
  6
CONTINUOUS
 62
    7
 10
134.12319346925995
 20
-148.37716320023196
 11
133.73283490703477
 21
-149.05328406317199
  0
LINE
  8
_1-0_
  6
CONTINUOUS
 62
    7
 10
134.23801639257374
 20
-149.9282840631729
 11
134.74319787811612
 21
-149.92828406317426
  0
LINE
  8
_1-0_
  6
CONTINUOUS
 62
    7
 10
133.73283490703477
 20
-149.05328406317199
 11
134.23801639257374
 21
-149.9282840631729
  0
ARC
  8
_1-0_
  6
CONTINUOUS
 62
    7
 10
133.77872469931128
 20
-148.17828406317335
 40
0.3977582741150607
 50
329.99999999987034
 51
137.78470945539698
  0
ARC
  8
_1-0_
  6
CONTINUOUS
 62
    7
 10
134.74319787811658
 20
-149.05328406317426
 40
1.7
 50
137.78470945539746
 51
209.15536542626333
  0
LINE
  8
_1-0_
  6
CONTINUOUS
 62
    7
 10
135.36320228697434
 20
-148.37716320023242
 11
135.75356084919861
 21
-149.05328406317335
  0
LINE
  8
_1-0_
  6
CONTINUOUS
 62
    7
 10
135.2483793636585
 20
-149.92828406317381
 11
134.74319787811612
 21
-149.92828406317381
  0
LINE
  8
_1-0_
  6
CONTINUOUS
 62
    7
 10
135.75356084919861
 20
-149.05328406317335
 11
135.2483793636585
 21
-149.92828406317381
  0
ARC
  8
_1-0_
  6
CONTINUOUS
 62
    7
 10
135.70767105692323
 20
-148.17828406317471
 40
0.3977582741150607
 50
42.215290544521672
 51
210.00000000004837
  0
ARC
  8
_1-0_
  6
CONTINUOUS
 62
    7
 10
134.7431978781168
 20
-149.05328406317426
 40
1.7
 50
330.84463457369634
 51
42.215290544521238
  0
ARC
  8
_1-0_
  6
CONTINUOUS
 62
    7
 10
136.44613651470911
 20
-150.00328406317499
 40
0.25
 50
150.84463457369617
 51
269.99999999993878
  0
ARC
  8
_1-0_
  6
CONTINUOUS
 62
    7
 10
133.04025924152359
 20
-150.00328406317362
 40
0.25
 50
269.99999999993884
 51
29.155365426263131
  0
LINE
  8
_1-0_
  6
CONTINUOUS
 62
    7
 10
136.44613651470866
 20
-150.25328406317817
 11
146.09441426517026
 21
-150.25328406318499
  0
LINE
  8
_1-0_
  6
CONTINUOUS
 62
    7
 10
125.79319787811835
 20
-150.25328406317044
 11
133.04025924152336
 21
-150.25328406317544
  0
LINE
  8
_1-0_
  6
CONTINUOUS
 62
    7
 10
125.29319787812813
 20
-136.85328406316989
 11
125.29319787811858
 21
-149.75328406316999
  0
ARC
  8
_1-0_
  6
CONTINUOUS
 62
    7
 10
125.79319787812813
 20
-136.85328406317035
 40
0.5
 50
90
 51
180
  0
ARC
  8
_1-0_
  6
CONTINUOUS
 62
    7
 10
125.7931978781188
 20
-149.75328406317044
 40
0.5
 50
180
 51
270
  0
LINE
  8
_1-0_
  6
CONTINUOUS
 62
    7
 10
147.1689596715795
 20
-149.18613257312859
 11
149.57300587470888
 21
-149.99595360753142
  0
ARC
  8
_1-0_
  6
CONTINUOUS
 62
    7
 10
149.49319787811294
 20
-150.23287275762118
 40
0.25
 50
0
 51
71.383514957200816
  0
LINE
  8
_1-0_
  6
CONTINUOUS
 62
    7
 10
147.16895967157291
 20
-137.42043555316172
 11
149.57300587470138
 21
-136.61061451875617
  0
ARC
  8
_1-0_
  6
CONTINUOUS
 62
    7
 10
149.49319787810543
 20
-136.3736953686664
 40
0.25
 50
288.61648504286279
 51
0.0000000000000254
  0
LINE
  8
_1-0_
  6
CONTINUOUS
 62
    7
 10
146.09441426517026
 20
-150.25328406318499
 11
146.34441426516935
 21
-150.00328406318636
  0
LINE
  8
_1-0_
  6
CONTINUOUS
 62
    7
 10
146.34441426516935
 20
-150.00328406318636
 11
146.89319787811257
 21
-150.00328406318636
  0
LINE
  8
_1-0_
  6
CONTINUOUS
 62
    7
 10
146.97203909527059
 20
-149.31130358111727
 11
146.89319787811257
 21
-150.00328406318681
  0
LINE
  8
_1-0_
  6
CONTINUOUS
 62
    7
 10
146.97203909527491
 20
-137.29526454525626
 11
146.89319787811735
 21
-136.60328406318672
  0
LINE
  8
_1-0_
  6
CONTINUOUS
 62
    7
 10
146.34441426517412
 20
-136.60328406318627
 11
146.89319787811758
 21
-136.60328406318627
  0
POINT
  8
_1-0_
 62
    4
 10
118.02564488654036
 20
-150.80328406316971
  0
LINE
  8
_1-0_
  6
CONTINUOUS
 62
    4
 10
118.02564488654036
 20
-150.80328406316971
 11
123.19227768126336
 21
-150.80328406316971
  0
LINE
  8
_1-0_
  6
CONTINUOUS
 62
    4
 10
118.02564488654036
 20
-150.80328406316971
 11
118.02564488654036
 21
-135.80328406316971
  0
POINT
  8
_1-0_
 62
    4
 10
118.02564488654036
 20
-135.80328406316971
  0
LINE
  8
_1-0_
  6
CONTINUOUS
 62
    4
 10
118.02564488654036
 20
-135.80328406316971
 11
123.19227768126336
 21
-135.80328406316971
  0
LINE
  8
_1-0_
  6
CONTINUOUS
 62
    7
 10
149.74318554284821
 20
-127.62434014971655
 11
149.74318962862856
 21
-137.5404352082453
  0
LINE
  8
_1-0_
  6
CONTINUOUS
 62
    7
 10
149.7431943673206
 20
-149.04113197796801
 11
149.74319992950916
 21
-162.54043520824098
  0
LINE
  8
_1-0_
  6
CONTINUOUS
 62
    7
 10
149.74319787811794
 20
-245.061756445941
 11
149.74319992950916
 21
-250.04043520824098
  0
ARC
  8
_1-0_
  6
CONTINUOUS
 62
    7
 10
136.44613651471639
 20
-249.10328406317808
 40
0.25
 50
90
 51
209.1553654262427
  0
LINE
  8
_1-0_
  6
CONTINUOUS
 62
    7
 10
149.74319787811794
 20
-248.29078406318763
 11
149.74319787811794
 21
-248.86119536866659
  0
LINE
  8
_1-0_
  6
CONTINUOUS
 62
    7
 10
149.74319787811271
 20
-263.29078406318763
 11
149.74319787811294
 21
-262.72037275762136
  0
LINE
  8
_1-0_
  6
CONTINUOUS
 62
    9
 10
141.99319787811794
 20
-261.26613936375293
 11
141.99319787811794
 21
-255.77828406346248
  0
LINE
  8
_1-0_
  6
CONTINUOUS
 62
    9
 10
146.89319787811803
 20
-261.1032840634623
 11
146.89319787811803
 21
-262.25328406346239
  0
ARC
  8
_1-0_
  6
CONTINUOUS
 62
    9
 10
146.64319787811803
 20
-262.25328406346239
 40
0.25
 50
254.9999999999107
 51
0
  0
LINE
  8
_1-0_
  6
CONTINUOUS
 62
    9
 10
141.99319787811794
 20
-261.26613936375293
 11
146.5784931168422
 21
-262.49476552003466
  0
ARC
  8
_1-0_
  6
CONTINUOUS
 62
    9
 10
147.14319787811803
 20
-261.1032840634623
 40
0.25
 50
74.99999999995498
 51
180
  0
LINE
  8
_1-0_
  6
CONTINUOUS
 62
    9
 10
147.20790263939386
 20
-260.86180260689048
 11
149.74319787811817
 21
-261.54113291868339
  0
LINE
  8
_1-0_
  6
CONTINUOUS
 62
    9
 10
147.84319787811808
 20
-255.77828406346248
 11
147.84319787811808
 21
-261.03202945306271
  0
LINE
  8
_1-0_
  6
CONTINUOUS
 62
    9
 10
147.19319787811821
 20
-255.77828406346248
 11
147.19319787811821
 21
-260.85786247798183
  0
LINE
  8
_1-0_
  6
CONTINUOUS
 62
    9
 10
141.99319787811794
 20
-250.31542876317212
 11
141.99319787811794
 21
-255.77828406346248
  0
LINE
  8
_1-0_
  6
CONTINUOUS
 62
    9
 10
146.89319787811803
 20
-250.47828406346275
 11
146.89319787811803
 21
-249.32828406346266
  0
LINE
  8
_1-0_
  6
CONTINUOUS
 62
    9
 10
141.99319787811794
 20
-250.31542876317212
 11
146.5784931168422
 21
-249.08680260689039
  0
ARC
  8
_1-0_
  6
CONTINUOUS
 62
    9
 10
147.14319787811803
 20
-250.47828406346275
 40
0.25
 50
180
 51
285.00000000004496
  0
LINE
  8
_1-0_
  6
CONTINUOUS
 62
    9
 10
147.20790263939364
 20
-250.71976552003457
 11
149.74319787811794
 21
-250.04043520824166
  0
LINE
  8
_1-0_
  6
CONTINUOUS
 62
    9
 10
147.84319787811808
 20
-255.77828406346248
 11
147.84319787811808
 21
-250.54953867386234
  0
LINE
  8
_1-0_
  6
CONTINUOUS
 62
    9
 10
147.19319787811821
 20
-255.77828406346248
 11
147.19319787811821
 21
-250.72370564894322
  0
ARC
  8
_1-0_
  6
CONTINUOUS
 62
    9
 10
146.64319787811803
 20
-249.32828406346266
 40
0.25
 50
0
 51
105.00000000008929
  0
LINE
  8
_1-0_
  6
CONTINUOUS
 62
    7
 10
149.74319787811794
 20
-248.30328406318745
 11
149.74319787811794
 21
-248.8736953686664
  0
ARC
  8
_1-0_
  6
CONTINUOUS
 62
    7
 10
147.1210748736263
 20
-249.77828406319099
 40
0.1499999999999999
 50
186.49999999999821
 51
288.60829801488677
  0
LINE
  8
_1-0_
  6
CONTINUOUS
 62
    7
 10
124.7431978781234
 20
-248.30328406316971
 11
149.74319787811794
 21
-248.30328406318745
  0
LINE
  8
_1-0_
  6
CONTINUOUS
 62
    7
 10
146.09441426517299
 20
-248.8532840631849
 11
146.34441426517435
 21
-249.10328406318672
  0
LINE
  8
_1-0_
  6
CONTINUOUS
 62
    7
 10
149.74319787811271
 20
-263.30328406318745
 11
149.74319787811316
 21
-262.73287275762164
  0
LINE
  8
_1-0_
  6
CONTINUOUS
 62
    7
 10
124.74319787812885
 20
-248.30328406316971
 11
124.74319787811794
 21
-263.30328406316971
  0
ARC
  8
_1-0_
  6
CONTINUOUS
 62
    7
 10
147.12107487362198
 20
-261.82828406318254
 40
0.1499999999999999
 50
71.383514957199623
 51
173.49999999996072
  0
LINE
  8
_1-0_
  6
CONTINUOUS
 62
    7
 10
124.74319787811794
 20
-263.30328406316971
 11
149.74319787811271
 21
-263.30328406318745
  0
LINE
  8
_1-0_
  6
CONTINUOUS
 62
    7
 10
134.12319346926517
 20
-250.72940492611838
 11
133.73283490704091
 21
-250.0532840631779
  0
LINE
  8
_1-0_
  6
CONTINUOUS
 62
    7
 10
134.23801639258056
 20
-249.17828406317744
 11
134.74319787812294
 21
-249.17828406317699
  0
LINE
  8
_1-0_
  6
CONTINUOUS
 62
    7
 10
133.73283490704091
 20
-250.0532840631779
 11
134.23801639258056
 21
-249.17828406317744
  0
ARC
  8
_1-0_
  6
CONTINUOUS
 62
    7
 10
133.77872469931651
 20
-250.92828406317653
 40
0.3977582741150607
 50
222.2152905445418
 51
30.000000000068439
  0
ARC
  8
_1-0_
  6
CONTINUOUS
 62
    7
 10
134.74319787812271
 20
-250.05328406317699
 40
1.7
 50
150.84463457367556
 51
222.2152905445414
  0
LINE
  8
_1-0_
  6
CONTINUOUS
 62
    7
 10
135.3632022869798
 20
-250.72940492611883
 11
135.75356084920475
 21
-250.05328406317881
  0
LINE
  8
_1-0_
  6
CONTINUOUS
 62
    7
 10
135.24837936366555
 20
-249.1782840631779
 11
134.74319787812317
 21
-249.17828406317699
  0
LINE
  8
_1-0_
  6
CONTINUOUS
 62
    7
 10
135.75356084920497
 20
-250.05328406317881
 11
135.24837936366578
 21
-249.1782840631779
  0
ARC
  8
_1-0_
  6
CONTINUOUS
 62
    7
 10
135.70767105692846
 20
-250.92828406317699
 40
0.3977582741150607
 50
149.99999999989041
 51
317.7847094554171
  0
ARC
  8
_1-0_
  6
CONTINUOUS
 62
    7
 10
134.74319787812294
 20
-250.05328406317699
 40
1.7
 50
317.78470945541761
 51
29.155365426242618
  0
LINE
  8
_1-0_
  6
CONTINUOUS
 62
    7
 10
136.44613651471639
 20
-248.85328406317808
 11
146.09441426517276
 21
-248.8532840631849
  0
LINE
  8
_1-0_
  6
CONTINUOUS
 62
    7
 10
125.79319787812835
 20
-248.85328406317035
 11
133.04025924153086
 21
-248.85328406317558
  0
ARC
  8
_1-0_
  6
CONTINUOUS
 62
    7
 10
133.04025924153086
 20
-249.10328406317535
 40
0.25
 50
330.84463457367565
 51
89.999999999999943
  0
LINE
  8
_1-0_
  6
CONTINUOUS
 62
    7
 10
134.12319346925995
 20
-260.87716320023196
 11
133.73283490703477
 21
-261.55328406317199
  0
LINE
  8
_1-0_
  6
CONTINUOUS
 62
    7
 10
134.23801639257374
 20
-262.4282840631729
 11
134.74319787811612
 21
-262.42828406317426
  0
LINE
  8
_1-0_
  6
CONTINUOUS
 62
    7
 10
133.73283490703477
 20
-261.55328406317199
 11
134.23801639257374
 21
-262.4282840631729
  0
ARC
  8
_1-0_
  6
CONTINUOUS
 62
    7
 10
133.77872469931128
 20
-260.67828406317335
 40
0.3977582741150607
 50
329.99999999987034
 51
137.78470945539698
  0
ARC
  8
_1-0_
  6
CONTINUOUS
 62
    7
 10
134.74319787811658
 20
-261.55328406317426
 40
1.7
 50
137.78470945539746
 51
209.15536542626333
  0
LINE
  8
_1-0_
  6
CONTINUOUS
 62
    7
 10
135.36320228697434
 20
-260.87716320023242
 11
135.75356084919861
 21
-261.55328406317335
  0
LINE
  8
_1-0_
  6
CONTINUOUS
 62
    7
 10
135.2483793636585
 20
-262.42828406317381
 11
134.74319787811612
 21
-262.42828406317381
  0
LINE
  8
_1-0_
  6
CONTINUOUS
 62
    7
 10
135.75356084919861
 20
-261.55328406317335
 11
135.2483793636585
 21
-262.42828406317381
  0
ARC
  8
_1-0_
  6
CONTINUOUS
 62
    7
 10
135.70767105692323
 20
-260.67828406317471
 40
0.3977582741150607
 50
42.215290544521672
 51
210.00000000004837
  0
ARC
  8
_1-0_
  6
CONTINUOUS
 62
    7
 10
134.7431978781168
 20
-261.55328406317426
 40
1.7
 50
330.84463457369634
 51
42.215290544521238
  0
ARC
  8
_1-0_
  6
CONTINUOUS
 62
    7
 10
136.44613651470911
 20
-262.50328406317499
 40
0.25
 50
150.84463457369617
 51
269.99999999993878
  0
ARC
  8
_1-0_
  6
CONTINUOUS
 62
    7
 10
133.04025924152359
 20
-262.50328406317362
 40
0.25
 50
269.99999999993884
 51
29.155365426263131
  0
LINE
  8
_1-0_
  6
CONTINUOUS
 62
    7
 10
136.44613651470866
 20
-262.75328406317817
 11
146.09441426517026
 21
-262.75328406318499
  0
LINE
  8
_1-0_
  6
CONTINUOUS
 62
    7
 10
125.79319787811835
 20
-262.75328406317044
 11
133.04025924152336
 21
-262.75328406317544
  0
LINE
  8
_1-0_
  6
CONTINUOUS
 62
    7
 10
125.29319787812813
 20
-249.35328406316989
 11
125.29319787811858
 21
-262.25328406316999
  0
ARC
  8
_1-0_
  6
CONTINUOUS
 62
    7
 10
125.79319787812813
 20
-249.35328406317035
 40
0.5
 50
90
 51
180
  0
ARC
  8
_1-0_
  6
CONTINUOUS
 62
    7
 10
125.7931978781188
 20
-262.25328406317044
 40
0.5
 50
180
 51
270
  0
LINE
  8
_1-0_
  6
CONTINUOUS
 62
    7
 10
147.1689596715795
 20
-261.68613257312859
 11
149.57300587470888
 21
-262.49595360753142
  0
ARC
  8
_1-0_
  6
CONTINUOUS
 62
    7
 10
149.49319787811294
 20
-262.73287275762118
 40
0.25
 50
0
 51
71.383514957200816
  0
LINE
  8
_1-0_
  6
CONTINUOUS
 62
    7
 10
147.16895967157291
 20
-249.92043555316172
 11
149.57300587470138
 21
-249.11061451875617
  0
ARC
  8
_1-0_
  6
CONTINUOUS
 62
    7
 10
149.49319787810543
 20
-248.8736953686664
 40
0.25
 50
288.61648504286279
 51
0.0000000000000254
  0
LINE
  8
_1-0_
  6
CONTINUOUS
 62
    7
 10
146.09441426517026
 20
-262.75328406318499
 11
146.34441426516935
 21
-262.50328406318636
  0
LINE
  8
_1-0_
  6
CONTINUOUS
 62
    7
 10
146.34441426516935
 20
-262.50328406318636
 11
146.89319787811257
 21
-262.50328406318636
  0
LINE
  8
_1-0_
  6
CONTINUOUS
 62
    7
 10
146.97203909527059
 20
-261.81130358111727
 11
146.89319787811257
 21
-262.50328406318681
  0
LINE
  8
_1-0_
  6
CONTINUOUS
 62
    7
 10
146.97203909527491
 20
-249.79526454525626
 11
146.89319787811735
 21
-249.10328406318672
  0
LINE
  8
_1-0_
  6
CONTINUOUS
 62
    7
 10
146.34441426517412
 20
-249.10328406318627
 11
146.89319787811758
 21
-249.10328406318627
  0
POINT
  8
_1-0_
 62
    4
 10
118.02564488654036
 20
-263.30328406316971
  0
LINE
  8
_1-0_
  6
CONTINUOUS
 62
    4
 10
118.02564488654036
 20
-263.30328406316971
 11
123.19227768126336
 21
-263.30328406316971
  0
LINE
  8
_1-0_
  6
CONTINUOUS
 62
    4
 10
118.02564488654036
 20
-263.30328406316971
 11
118.02564488654036
 21
-248.30328406316971
  0
POINT
  8
_1-0_
 62
    4
 10
118.02564488654036
 20
-248.30328406316971
  0
LINE
  8
_1-0_
  6
CONTINUOUS
 62
    4
 10
118.02564488654036
 20
-248.30328406316971
 11
123.19227768126336
 21
-248.30328406316971
  0
LINE
  8
_1-0_
  6
CONTINUOUS
 62
    7
 10
149.74323557084369
 20
-249.04113291866793
 11
149.7432359825915
 21
-250.0404352082262
  0
LINE
  8
_1-0_
  6
CONTINUOUS
 62
    7
 10
149.743240721284
 20
-261.54113291866588
 11
149.743243623995
 21
-268.58594567312639
  0
LINE
  8
_1-0_
  6
CONTINUOUS
 62
    7
 10
149.74322011952256
 20
-186.54113291867429
 11
149.7432308321512
 21
-212.54043520822825
  0
LINE
  8
_1-0_
  6
CONTINUOUS
 62
    7
 10
149.74323557084392
 20
-224.04113291866793
 11
149.743245567705
 21
-248.30328406318745
  0
LINE
  8
_1-0_
  6
CONTINUOUS
 62
    3
 10
482.46625190340285
 20
-293.08595567312636
 11
388.71625290340273
 21
-293.08595567312636
  0
CIRCLE
  8
_1-0_
  6
CONTINUOUS
 62
    3
 10
388.71625290340273
 20
-293.08595567312636
 40
0.2999999999999999
  0
CIRCLE
  8
_1-0_
  6
CONTINUOUS
 62
    3
 10
388.71625290340273
 20
-293.08595567312636
 40
0.2999999999999999
  0
LINE
  8
_1-0_
  6
CONTINUOUS
 62
    7
 10
413.71625290340273
 20
-268.58594567312662
 11
388.71625290340273
 21
-268.58594567312662
  0
CIRCLE
  8
_1-0_
  6
CONTINUOUS
 62
    3
 10
381.82221280955616
 20
-214.30327967312655
 40
0.2999999999999999
  0
LINE
  8
_1-0_
  6
CONTINUOUS
 62
    3
 10
381.82221280955616
 20
-214.30327967312655
 11
381.82221280955616
 21
-268.08595567312636
  0
CIRCLE
  8
_1-0_
  6
CONTINUOUS
 62
    3
 10
381.82221280955616
 20
-214.30327967312655
 40
0.2999999999999999
  0
LINE
  8
_1-0_
  6
CONTINUOUS
 62
    7
 10
388.71625290340273
 20
-270.08595567312636
 11
388.71625290340273
 21
-293.08595567312636
  0
LINE
  8
_1-0_
  6
CONTINUOUS
 62
    3
 10
428.87874790340277
 20
-215.55328267312643
 11
428.56131090340261
 21
-215.24078267312643
  0
LINE
  8
_1-0_
  6
CONTINUOUS
 62
    3
 10
428.56131090340261
 20
-215.24078267312643
 11
428.46624890340274
 21
-215.24078267312643
  0
LINE
  8
_1-0_
  6
CONTINUOUS
 62
    3
 10
428.56131090340261
 20
-215.24078267312643
 11
428.46624890340274
 21
-214.98728400645973
  0
LINE
  8
_1-0_
  6
CONTINUOUS
 62
    3
 10
428.46624890340274
 20
-213.91928400645952
 11
428.96181090340281
 21
-215.24078267312643
  0
LINE
  8
_1-0_
  6
CONTINUOUS
 62
    3
 10
428.46624890340274
 20
-213.36578267312643
 11
428.79568590340261
 21
-213.36578267312643
  0
LINE
  8
_1-0_
  6
CONTINUOUS
 62
    3
 10
429.49881090340261
 20
-215.24078267312643
 11
428.96181090340281
 21
-215.24078267312643
  0
LINE
  8
_1-0_
  6
CONTINUOUS
 62
    3
 10
428.96181090340281
 20
-215.24078267312643
 11
428.87874790340277
 21
-215.55328267312643
  0
LINE
  8
_1-0_
  6
CONTINUOUS
 62
    3
 10
429.81624790340277
 20
-215.55328267312643
 11
429.49881090340261
 21
-215.24078267312643
  0
LINE
  8
_1-0_
  6
CONTINUOUS
 62
    3
 10
429.89931090340281
 20
-215.24078267312643
 11
429.81624790340277
 21
-215.55328267312643
  0
LINE
  8
_1-0_
  6
CONTINUOUS
 62
    3
 10
429.19618590340281
 20
-213.36578267312643
 11
429.89931090340281
 21
-215.24078267312643
  0
LINE
  8
_1-0_
  6
CONTINUOUS
 62
    3
 10
428.87874790340277
 20
-213.05328267312643
 11
429.19618590340281
 21
-213.36578267312643
  0
LINE
  8
_1-0_
  6
CONTINUOUS
 62
    3
 10
428.79568590340261
 20
-213.36578267312643
 11
428.87874790340277
 21
-213.05328267312643
  0
LINE
  8
_1-0_
  6
CONTINUOUS
 62
    3
 10
429.49881090340261
 20
-215.24078267312643
 11
428.79568590340261
 21
-213.36578267312643
  0
LINE
  8
_1-0_
  6
CONTINUOUS
 62
    3
 10
429.73318590340261
 20
-213.36578267312643
 11
429.81624790340277
 21
-213.05328267312643
  0
LINE
  8
_1-0_
  6
CONTINUOUS
 62
    3
 10
429.19618590340281
 20
-213.36578267312643
 11
429.73318590340261
 21
-213.36578267312643
  0
ARC
  8
_1-0_
  6
CONTINUOUS
 62
    3
 10
430.7775549034028
 20
-214.30328267312643
 40
4.9113049999999996
 50
153.95941400000001
 51
206.04058600000002
  0
LINE
  8
_1-0_
  6
CONTINUOUS
 62
    3
 10
427.46624890340274
 20
-216.38960767312642
 11
426.96624890340274
 21
-216.67828267312643
  0
LINE
  8
_1-0_
  6
CONTINUOUS
 62
    3
 10
426.96624890340274
 20
-211.92828267312643
 11
427.46624890340274
 21
-212.21695767312644
  0
LINE
  8
_1-0_
  6
CONTINUOUS
 62
    3
 10
426.96624890340274
 20
-216.67828267312643
 11
426.96624890340274
 21
-211.92828267312643
  0
LINE
  8
_1-0_
  6
CONTINUOUS
 62
    3
 10
426.36482890340278
 20
-216.45938367312647
 11
426.96624890340274
 21
-216.67828267312643
  0
LINE
  8
_1-0_
  6
CONTINUOUS
 62
    3
 10
426.36482890340278
 20
-212.1471816731264
 11
426.96624890340274
 21
-211.92828267312643
  0
LINE
  8
_1-0_
  6
CONTINUOUS
 62
    7
 10
427.46624890340274
 20
-212.92828267312643
 11
428.46624890340274
 21
-212.92828267312643
  0
LINE
  8
_1-0_
  6
CONTINUOUS
 62
    7
 10
427.46624890340274
 20
-215.67828267312643
 11
428.46624890340274
 21
-215.67828267312643
  0
LINE
  8
_1-0_
  6
CONTINUOUS
 62
    3
 10
430.43631090340261
 20
-215.24078267312643
 11
429.89931090340281
 21
-215.24078267312643
  0
LINE
  8
_1-0_
  6
CONTINUOUS
 62
    3
 10
428.87874790340277
 20
-213.05328267312643
 11
428.81624790340277
 21
-213.28842167312655
  0
LINE
  8
_1-0_
  6
CONTINUOUS
 62
    3
 10
429.49881090340261
 20
-215.24078267312643
 11
428.81624790340277
 21
-213.42061667312646
  0
LINE
  8
_1-0_
  6
CONTINUOUS
 62
    3
 10
429.81624790340277
 20
-215.55328267312643
 11
429.49881090340261
 21
-215.24078267312643
  0
LINE
  8
_1-0_
  6
CONTINUOUS
 62
    3
 10
429.89931090340281
 20
-215.24078267312643
 11
429.81624790340277
 21
-215.55328267312643
  0
LINE
  8
_1-0_
  6
CONTINUOUS
 62
    3
 10
429.19618590340281
 20
-213.36578267312643
 11
429.89931090340281
 21
-215.24078267312643
  0
LINE
  8
_1-0_
  6
CONTINUOUS
 62
    3
 10
428.87874790340277
 20
-213.05328267312643
 11
429.19618590340281
 21
-213.36578267312643
  0
LINE
  8
_1-0_
  6
CONTINUOUS
 62
    3
 10
431.37381090340261
 20
-215.24078267312643
 11
430.83681090340281
 21
-215.24078267312643
  0
LINE
  8
_1-0_
  6
CONTINUOUS
 62
    3
 10
430.75374790340277
 20
-215.55328267312643
 11
430.43631090340261
 21
-215.24078267312643
  0
LINE
  8
_1-0_
  6
CONTINUOUS
 62
    3
 10
430.83681090340281
 20
-215.24078267312643
 11
430.75374790340277
 21
-215.55328267312643
  0
LINE
  8
_1-0_
  6
CONTINUOUS
 62
    3
 10
430.13368590340281
 20
-213.36578267312643
 11
430.83681090340281
 21
-215.24078267312643
  0
LINE
  8
_1-0_
  6
CONTINUOUS
 62
    3
 10
429.81624790340277
 20
-213.05328267312643
 11
430.13368590340281
 21
-213.36578267312643
  0
LINE
  8
_1-0_
  6
CONTINUOUS
 62
    3
 10
429.73318590340261
 20
-213.36578267312643
 11
429.81624790340277
 21
-213.05328267312643
  0
LINE
  8
_1-0_
  6
CONTINUOUS
 62
    3
 10
430.43631090340261
 20
-215.24078267312643
 11
429.73318590340261
 21
-213.36578267312643
  0
LINE
  8
_1-0_
  6
CONTINUOUS
 62
    3
 10
432.31131090340261
 20
-215.24078267312643
 11
431.77431090340281
 21
-215.24078267312643
  0
LINE
  8
_1-0_
  6
CONTINUOUS
 62
    3
 10
431.69124790340277
 20
-215.55328267312643
 11
431.37381090340261
 21
-215.24078267312643
  0
LINE
  8
_1-0_
  6
CONTINUOUS
 62
    3
 10
431.77431090340281
 20
-215.24078267312643
 11
431.69124790340277
 21
-215.55328267312643
  0
LINE
  8
_1-0_
  6
CONTINUOUS
 62
    3
 10
431.07118590340281
 20
-213.36578267312643
 11
431.77431090340281
 21
-215.24078267312643
  0
LINE
  8
_1-0_
  6
CONTINUOUS
 62
    3
 10
430.75374790340277
 20
-213.05328267312643
 11
431.07118590340281
 21
-213.36578267312643
  0
LINE
  8
_1-0_
  6
CONTINUOUS
 62
    3
 10
430.67068590340261
 20
-213.36578267312643
 11
430.75374790340277
 21
-213.05328267312643
  0
LINE
  8
_1-0_
  6
CONTINUOUS
 62
    3
 10
431.37381090340261
 20
-215.24078267312643
 11
430.67068590340261
 21
-213.36578267312643
  0
LINE
  8
_1-0_
  6
CONTINUOUS
 62
    3
 10
432.00868590340281
 20
-213.36578267312643
 11
432.46624790340286
 21
-214.58594967312638
  0
LINE
  8
_1-0_
  6
CONTINUOUS
 62
    3
 10
432.31131090340261
 20
-215.24078267312643
 11
432.46624790340286
 21
-215.39331067312628
  0
LINE
  8
_1-0_
  6
CONTINUOUS
 62
    3
 10
431.69124790340277
 20
-213.05328267312643
 11
432.00868590340281
 21
-213.36578267312643
  0
LINE
  8
_1-0_
  6
CONTINUOUS
 62
    3
 10
431.60818590340261
 20
-213.36578267312643
 11
431.69124790340277
 21
-213.05328267312643
  0
LINE
  8
_1-0_
  6
CONTINUOUS
 62
    3
 10
432.31131090340261
 20
-215.24078267312643
 11
431.60818590340261
 21
-213.36578267312643
  0
LINE
  8
_1-0_
  6
CONTINUOUS
 62
    3
 10
432.00868590340281
 20
-213.36578267312643
 11
432.46624790340286
 21
-213.36578267312643
  0
LINE
  8
_1-0_
  6
CONTINUOUS
 62
    3
 10
431.07118590340281
 20
-213.36578267312643
 11
431.60818590340261
 21
-213.36578267312643
  0
LINE
  8
_1-0_
  6
CONTINUOUS
 62
    3
 10
430.13368590340281
 20
-213.36578267312643
 11
430.67068590340261
 21
-213.36578267312643
  0
LINE
  8
_1-0_
  6
CONTINUOUS
 62
    3
 10
429.19618590340281
 20
-213.36578267312643
 11
429.73318590340261
 21
-213.36578267312643
  0
LINE
  8
_1-0_
  6
CONTINUOUS
 62
    3
 10
506.21625190340285
 20
-135.71577967312646
 11
506.52875190340285
 21
-135.39834267312631
  0
LINE
  8
_1-0_
  6
CONTINUOUS
 62
    3
 10
506.52875190340285
 20
-135.39834267312631
 11
506.52875190340285
 21
-135.30328067312644
  0
LINE
  8
_1-0_
  6
CONTINUOUS
 62
    3
 10
506.52875190340285
 20
-135.39834267312631
 11
506.78225057006932
 21
-135.30328067312644
  0
LINE
  8
_1-0_
  6
CONTINUOUS
 62
    3
 10
507.85025057006953
 20
-135.30328067312644
 11
506.52875190340285
 21
-135.7988426731265
  0
LINE
  8
_1-0_
  6
CONTINUOUS
 62
    3
 10
508.40375190340285
 20
-135.30328067312644
 11
508.40375190340285
 21
-135.63271767312631
  0
LINE
  8
_1-0_
  6
CONTINUOUS
 62
    3
 10
506.52875190340285
 20
-136.33584267312631
 11
506.52875190340285
 21
-135.7988426731265
  0
LINE
  8
_1-0_
  6
CONTINUOUS
 62
    3
 10
506.52875190340285
 20
-135.7988426731265
 11
506.21625190340285
 21
-135.71577967312646
  0
LINE
  8
_1-0_
  6
CONTINUOUS
 62
    3
 10
506.21625190340285
 20
-136.65327967312646
 11
506.52875190340285
 21
-136.33584267312631
  0
LINE
  8
_1-0_
  6
CONTINUOUS
 62
    3
 10
506.52875190340285
 20
-136.7363426731265
 11
506.21625190340285
 21
-136.65327967312646
  0
LINE
  8
_1-0_
  6
CONTINUOUS
 62
    3
 10
508.40375190340285
 20
-136.0332176731265
 11
506.52875190340285
 21
-136.7363426731265
  0
LINE
  8
_1-0_
  6
CONTINUOUS
 62
    3
 10
508.71625190340285
 20
-135.71577967312646
 11
508.40375190340285
 21
-136.0332176731265
  0
LINE
  8
_1-0_
  6
CONTINUOUS
 62
    3
 10
508.40375190340285
 20
-135.63271767312631
 11
508.71625190340285
 21
-135.71577967312646
  0
LINE
  8
_1-0_
  6
CONTINUOUS
 62
    3
 10
506.52875190340285
 20
-136.33584267312631
 11
508.40375190340285
 21
-135.63271767312631
  0
LINE
  8
_1-0_
  6
CONTINUOUS
 62
    3
 10
508.40375190340285
 20
-136.57021767312631
 11
508.71625190340285
 21
-136.65327967312646
  0
LINE
  8
_1-0_
  6
CONTINUOUS
 62
    3
 10
508.40375190340285
 20
-136.0332176731265
 11
508.40375190340285
 21
-136.57021767312631
  0
ARC
  8
_1-0_
  6
CONTINUOUS
 62
    3
 10
507.46625190340285
 20
-137.6145866731265
 40
4.9113049999999996
 50
63.959414000000002
 51
116.040586
  0
LINE
  8
_1-0_
  6
CONTINUOUS
 62
    3
 10
505.37992690340263
 20
-134.30328067312644
 11
505.09125190340285
 21
-133.80328067312644
  0
LINE
  8
_1-0_
  6
CONTINUOUS
 62
    3
 10
509.84125190340285
 20
-133.80328067312644
 11
509.55257690340261
 21
-134.30328067312644
  0
LINE
  8
_1-0_
  6
CONTINUOUS
 62
    3
 10
505.09125190340285
 20
-133.80328067312644
 11
509.84125190340285
 21
-133.80328067312644
  0
LINE
  8
_1-0_
  6
CONTINUOUS
 62
    3
 10
505.31015090340281
 20
-133.20186067312648
 11
505.09125190340285
 21
-133.80328067312644
  0
LINE
  8
_1-0_
  6
CONTINUOUS
 62
    3
 10
509.62235290340288
 20
-133.20186067312648
 11
509.84125190340285
 21
-133.80328067312644
  0
ARC
  8
_1-0_
  6
CONTINUOUS
 62
    7
 10
511.29125190340267
 20
-138.97828067312639
 40
0.325
 50
180
 51
270
  0
ARC
  8
_1-0_
  6
CONTINUOUS
 62
    7
 10
511.29125190340267
 20
-138.97828067312639
 40
0.325
 50
90
 51
180
  0
LINE
  8
_1-0_
  6
CONTINUOUS
 62
    7
 10
517.46625190340285
 20
-116.90328067312635
 11
517.46625190340285
 21
-112.80328067312644
  0
LINE
  8
_1-0_
  6
CONTINUOUS
 62
    7
 10
517.46625190340285
 20
-124.95328067312653
 11
517.46625190340285
 21
-117.55328067312644
  0
LINE
  8
_1-0_
  6
CONTINUOUS
 62
    7
 10
518.21625190340285
 20
-117.55328067312644
 11
517.46625190340285
 21
-117.55328067312644
  0
LINE
  8
_1-0_
  6
CONTINUOUS
 62
    7
 10
518.21625190340285
 20
-116.90328067312635
 11
517.46625190340285
 21
-116.90328067312635
  0
LINE
  8
_1-0_
  6
CONTINUOUS
 62
    7
 10
514.31625190340276
 20
-134.30328067312644
 11
514.31625190340276
 21
-124.30328067312644
  0
LINE
  8
_1-0_
  6
CONTINUOUS
 62
    7
 10
514.31625190340276
 20
-138.65328067312635
 11
514.31625190340276
 21
-135.30328067312644
  0
LINE
  8
_1-0_
  6
CONTINUOUS
 62
    7
 10
516.81625190340276
 20
-124.30328067312644
 11
516.81625190340276
 21
-112.80328067312644
  0
LINE
  8
_1-0_
  6
CONTINUOUS
 62
    7
 10
507.46625190340285
 20
-135.30328067312644
 11
514.31625190340276
 21
-135.30328067312644
  0
LINE
  8
_1-0_
  6
CONTINUOUS
 62
    7
 10
507.46625190340285
 20
-134.30328067312644
 11
514.31625190340276
 21
-134.30328067312644
  0
LINE
  8
_1-0_
  6
CONTINUOUS
 62
    7
 10
517.46625190340285
 20
-124.95328067312653
 11
514.96625190340285
 21
-124.95328067312653
  0
LINE
  8
_1-0_
  6
CONTINUOUS
 62
    7
 10
514.31625190340276
 20
-124.30328067312644
 11
516.81625190340276
 21
-124.30328067312644
  0
LINE
  8
_1-0_
  6
CONTINUOUS
 62
    7
 10
514.96625190340285
 20
-139.30328067312644
 11
514.96625190340285
 21
-124.95328067312653
  0
LINE
  8
_1-0_
  6
CONTINUOUS
 62
    7
 10
514.31625190340276
 20
-138.65328067312635
 11
511.29125190340267
 21
-138.65328067312635
  0
LINE
  8
_1-0_
  6
CONTINUOUS
 62
    7
 10
518.21625190340285
 20
-116.90328067312635
 11
518.21625190340285
 21
-117.55328067312644
  0
LINE
  8
_1-0_
  6
CONTINUOUS
 62
    7
 10
517.46625190340285
 20
-112.80328067312644
 11
516.81625190340276
 21
-112.80328067312644
  0
LINE
  8
_1-0_
  6
CONTINUOUS
 62
    7
 10
514.96625190340285
 20
-139.30328067312644
 11
511.29125190340267
 21
-139.30328067312644
  0
ARC
  8
_1-0_
  6
CONTINUOUS
 62
    7
 10
503.64125190340258
 20
-138.97828067312639
 40
0.325
 50
270
 51
0
  0
ARC
  8
_1-0_
  6
CONTINUOUS
 62
    7
 10
503.64125190340258
 20
-138.97828067312639
 40
0.325
 50
0
 51
90
  0
LINE
  8
_1-0_
  6
CONTINUOUS
 62
    7
 10
497.46625190340285
 20
-116.90328067312635
 11
497.46625190340285
 21
-112.80328067312644
  0
LINE
  8
_1-0_
  6
CONTINUOUS
 62
    7
 10
497.46625190340285
 20
-124.95328067312653
 11
497.46625190340285
 21
-117.55328067312644
  0
LINE
  8
_1-0_
  6
CONTINUOUS
 62
    7
 10
496.71625190340285
 20
-117.55328067312644
 11
497.46625190340285
 21
-117.55328067312644
  0
LINE
  8
_1-0_
  6
CONTINUOUS
 62
    7
 10
496.71625190340285
 20
-116.90328067312635
 11
497.46625190340285
 21
-116.90328067312635
  0
LINE
  8
_1-0_
  6
CONTINUOUS
 62
    7
 10
500.61625190340249
 20
-134.30328067312644
 11
500.61625190340249
 21
-124.30328067312644
  0
LINE
  8
_1-0_
  6
CONTINUOUS
 62
    7
 10
500.61625190340249
 20
-138.65328067312635
 11
500.61625190340249
 21
-135.30328067312644
  0
LINE
  8
_1-0_
  6
CONTINUOUS
 62
    7
 10
498.11625190340249
 20
-124.30328067312644
 11
498.11625190340249
 21
-112.80328067312644
  0
LINE
  8
_1-0_
  6
CONTINUOUS
 62
    7
 10
507.46625190340285
 20
-135.30328067312644
 11
500.61625190340249
 21
-135.30328067312644
  0
LINE
  8
_1-0_
  6
CONTINUOUS
 62
    7
 10
507.46625190340285
 20
-134.30328067312644
 11
500.61625190340249
 21
-134.30328067312644
  0
LINE
  8
_1-0_
  6
CONTINUOUS
 62
    7
 10
497.46625190340285
 20
-124.95328067312653
 11
499.96625190340285
 21
-124.95328067312653
  0
LINE
  8
_1-0_
  6
CONTINUOUS
 62
    7
 10
500.61625190340249
 20
-124.30328067312644
 11
498.11625190340249
 21
-124.30328067312644
  0
LINE
  8
_1-0_
  6
CONTINUOUS
 62
    7
 10
499.96625190340285
 20
-139.30328067312644
 11
499.96625190340285
 21
-124.95328067312653
  0
LINE
  8
_1-0_
  6
CONTINUOUS
 62
    7
 10
500.61625190340249
 20
-138.65328067312635
 11
503.64125190340258
 21
-138.65328067312635
  0
LINE
  8
_1-0_
  6
CONTINUOUS
 62
    7
 10
496.71625190340285
 20
-116.90328067312635
 11
496.71625190340285
 21
-117.55328067312644
  0
LINE
  8
_1-0_
  6
CONTINUOUS
 62
    7
 10
497.46625190340285
 20
-112.80328067312644
 11
498.11625190340249
 21
-112.80328067312644
  0
LINE
  8
_1-0_
  6
CONTINUOUS
 62
    7
 10
499.96625190340285
 20
-139.30328067312644
 11
503.64125190340258
 21
-139.30328067312644
  0
LINE
  8
_1-0_
  6
CONTINUOUS
 62
    7
 10
516.81625190340276
 20
-120.55328067316782
 11
517.46625190340285
 21
-120.55328067316873
  0
LINE
  8
_1-0_
  6
CONTINUOUS
 62
    7
 10
497.46625190340285
 20
-120.55328067313735
 11
498.11625190340249
 21
-120.55328067313849
  0
LINE
  8
_1-0_
  6
CONTINUOUS
 62
    7
 10
516.81625190340276
 20
-117.7032806731238
 11
517.46625190340285
 21
-117.7032806731238
  0
LINE
  8
_1-0_
  6
CONTINUOUS
 62
    7
 10
497.46625190340285
 20
-117.7032806731238
 11
498.11625190340249
 21
-117.7032806731238
  0
LINE
  8
_1-0_
  6
CONTINUOUS
 62
    7
 10
508.84125190340285
 20
-134.30328067312644
 11
508.84125190340285
 21
-135.30328067312644
  0
LINE
  8
_1-0_
  6
CONTINUOUS
 62
    7
 10
506.09125190340285
 20
-134.30328067312644
 11
506.09125190340285
 21
-135.30328067312644
  0
ARC
  8
_1-0_
  6
CONTINUOUS
 62
    7
 10
432.1412489034027
 20
-210.47828267312661
 40
0.325
 50
270
 51
0
  0
ARC
  8
_1-0_
  6
CONTINUOUS
 62
    7
 10
432.1412489034027
 20
-210.47828267312661
 40
0.325
 50
180
 51
270
  0
LINE
  8
_1-0_
  6
CONTINUOUS
 62
    7
 10
410.06624890340265
 20
-204.30328267312643
 11
405.96624890340274
 21
-204.30328267312643
  0
LINE
  8
_1-0_
  6
CONTINUOUS
 62
    7
 10
418.11624890340283
 20
-204.30328267312643
 11
410.71624890340274
 21
-204.30328267312643
  0
LINE
  8
_1-0_
  6
CONTINUOUS
 62
    7
 10
410.71624890340274
 20
-203.55328267312643
 11
410.71624890340274
 21
-204.30328267312643
  0
LINE
  8
_1-0_
  6
CONTINUOUS
 62
    7
 10
410.06624890340265
 20
-203.55328267312643
 11
410.06624890340265
 21
-204.30328267312643
  0
LINE
  8
_1-0_
  6
CONTINUOUS
 62
    7
 10
427.46624890340274
 20
-207.45328267312652
 11
417.46624890340274
 21
-207.45328267312652
  0
LINE
  8
_1-0_
  6
CONTINUOUS
 62
    7
 10
431.81624890340265
 20
-207.45328267312652
 11
428.46624890340274
 21
-207.45328267312652
  0
LINE
  8
_1-0_
  6
CONTINUOUS
 62
    7
 10
417.46624890340274
 20
-204.95328267312652
 11
405.96624890340274
 21
-204.95328267312652
  0
LINE
  8
_1-0_
  6
CONTINUOUS
 62
    7
 10
428.46624890340274
 20
-214.30328267312643
 11
428.46624890340274
 21
-207.45328267312652
  0
LINE
  8
_1-0_
  6
CONTINUOUS
 62
    7
 10
427.46624890340274
 20
-214.30328267312643
 11
427.46624890340274
 21
-207.45328267312652
  0
LINE
  8
_1-0_
  6
CONTINUOUS
 62
    7
 10
418.11624890340283
 20
-204.30328267312643
 11
418.11624890340283
 21
-206.80328267312643
  0
LINE
  8
_1-0_
  6
CONTINUOUS
 62
    7
 10
417.46624890340274
 20
-207.45328267312652
 11
417.46624890340274
 21
-204.95328267312652
  0
LINE
  8
_1-0_
  6
CONTINUOUS
 62
    7
 10
432.46624890340274
 20
-206.80328267312643
 11
418.11624890340283
 21
-206.80328267312643
  0
LINE
  8
_1-0_
  6
CONTINUOUS
 62
    7
 10
431.81624890340265
 20
-207.45328267312652
 11
431.81624890340265
 21
-210.47828267312661
  0
LINE
  8
_1-0_
  6
CONTINUOUS
 62
    7
 10
410.06624890340265
 20
-203.55328267312643
 11
410.71624890340274
 21
-203.55328267312643
  0
LINE
  8
_1-0_
  6
CONTINUOUS
 62
    7
 10
405.96624890340274
 20
-204.30328267312643
 11
405.96624890340274
 21
-204.95328267312652
  0
LINE
  8
_1-0_
  6
CONTINUOUS
 62
    7
 10
432.46624890340274
 20
-206.80328267312643
 11
432.46624890340274
 21
-210.47828267312661
  0
ARC
  8
_1-0_
  6
CONTINUOUS
 62
    7
 10
432.1412489034027
 20
-218.12828267312648
 40
0.325
 50
0
 51
90
  0
ARC
  8
_1-0_
  6
CONTINUOUS
 62
    7
 10
432.1412489034027
 20
-218.12828267312648
 40
0.325
 50
90
 51
180
  0
LINE
  8
_1-0_
  6
CONTINUOUS
 62
    7
 10
410.06624890340265
 20
-224.30328267312643
 11
405.96624890340274
 21
-224.30328267312643
  0
LINE
  8
_1-0_
  6
CONTINUOUS
 62
    7
 10
418.11624890340261
 20
-224.30328267312643
 11
410.71624890340274
 21
-224.30328267312643
  0
LINE
  8
_1-0_
  6
CONTINUOUS
 62
    7
 10
410.71624890340274
 20
-225.05328267312643
 11
410.71624890340274
 21
-224.30328267312643
  0
LINE
  8
_1-0_
  6
CONTINUOUS
 62
    7
 10
410.06624890340265
 20
-225.05328267312643
 11
410.06624890340265
 21
-224.30328267312643
  0
LINE
  8
_1-0_
  6
CONTINUOUS
 62
    7
 10
427.46624890340274
 20
-221.15328267312657
 11
417.46624890340274
 21
-221.15328267312657
  0
LINE
  8
_1-0_
  6
CONTINUOUS
 62
    7
 10
431.81624890340265
 20
-221.15328267312657
 11
428.46624890340274
 21
-221.15328267312657
  0
LINE
  8
_1-0_
  6
CONTINUOUS
 62
    7
 10
417.46624890340274
 20
-223.65328267312657
 11
405.96624890340274
 21
-223.65328267312657
  0
LINE
  8
_1-0_
  6
CONTINUOUS
 62
    7
 10
428.46624890340274
 20
-214.30328267312643
 11
428.46624890340274
 21
-221.15328267312657
  0
LINE
  8
_1-0_
  6
CONTINUOUS
 62
    7
 10
427.46624890340274
 20
-214.30328267312643
 11
427.46624890340274
 21
-221.15328267312657
  0
LINE
  8
_1-0_
  6
CONTINUOUS
 62
    7
 10
418.11624890340261
 20
-224.30328267312643
 11
418.11624890340261
 21
-221.80328267312643
  0
LINE
  8
_1-0_
  6
CONTINUOUS
 62
    7
 10
417.46624890340274
 20
-221.15328267312657
 11
417.46624890340274
 21
-223.65328267312657
  0
LINE
  8
_1-0_
  6
CONTINUOUS
 62
    7
 10
432.46624890340274
 20
-221.80328267312643
 11
418.11624890340261
 21
-221.80328267312643
  0
LINE
  8
_1-0_
  6
CONTINUOUS
 62
    7
 10
431.81624890340265
 20
-221.15328267312657
 11
431.81624890340265
 21
-218.12828267312648
  0
LINE
  8
_1-0_
  6
CONTINUOUS
 62
    7
 10
410.06624890340265
 20
-225.05328267312643
 11
410.71624890340274
 21
-225.05328267312643
  0
LINE
  8
_1-0_
  6
CONTINUOUS
 62
    7
 10
405.96624890340274
 20
-224.30328267312643
 11
405.96624890340274
 21
-223.65328267312657
  0
LINE
  8
_1-0_
  6
CONTINUOUS
 62
    7
 10
432.46624890340274
 20
-221.80328267312643
 11
432.46624890340274
 21
-218.12828267312648
  0
LINE
  8
_1-0_
  6
CONTINUOUS
 62
    7
 10
413.71624890344413
 20
-204.95328267312652
 11
413.71624890344503
 21
-204.30328267312643
  0
LINE
  8
_1-0_
  6
CONTINUOUS
 62
    7
 10
413.71624890341366
 20
-224.30328267312643
 11
413.71624890341479
 21
-223.65328267312657
  0
LINE
  8
_1-0_
  6
CONTINUOUS
 62
    7
 10
410.86624890340011
 20
-204.95328267312652
 11
410.86624890340011
 21
-204.30328267312643
  0
LINE
  8
_1-0_
  6
CONTINUOUS
 62
    7
 10
410.86624890340011
 20
-224.30328267312643
 11
410.86624890340011
 21
-223.65328267312657
  0
LINE
  8
_1-0_
  6
CONTINUOUS
 62
    7
 10
427.46624890340274
 20
-212.92828267312643
 11
428.46624890340274
 21
-212.92828267312643
  0
LINE
  8
_1-0_
  6
CONTINUOUS
 62
    7
 10
427.46624890340274
 20
-215.67828267312643
 11
428.46624890340274
 21
-215.67828267312643
  0
LINE
  8
_1-0_
  6
CONTINUOUS
 62
    3
 10
506.52875190340285
 20
-137.27334267312631
 11
506.52875190340285
 21
-136.7363426731265
  0
LINE
  8
_1-0_
  6
CONTINUOUS
 62
    3
 10
508.71625190340285
 20
-135.71577967312646
 11
508.48111290340273
 21
-135.65327967312646
  0
LINE
  8
_1-0_
  6
CONTINUOUS
 62
    3
 10
506.52875190340285
 20
-136.33584267312631
 11
508.34891790340282
 21
-135.65327967312646
  0
LINE
  8
_1-0_
  6
CONTINUOUS
 62
    3
 10
506.21625190340285
 20
-136.65327967312646
 11
506.52875190340285
 21
-136.33584267312631
  0
LINE
  8
_1-0_
  6
CONTINUOUS
 62
    3
 10
506.52875190340285
 20
-136.7363426731265
 11
506.21625190340285
 21
-136.65327967312646
  0
LINE
  8
_1-0_
  6
CONTINUOUS
 62
    3
 10
508.40375190340285
 20
-136.0332176731265
 11
506.52875190340285
 21
-136.7363426731265
  0
LINE
  8
_1-0_
  6
CONTINUOUS
 62
    3
 10
508.71625190340285
 20
-135.71577967312646
 11
508.40375190340285
 21
-136.0332176731265
  0
LINE
  8
_1-0_
  6
CONTINUOUS
 62
    3
 10
506.52875190340285
 20
-138.21084267312631
 11
506.52875190340285
 21
-137.6738426731265
  0
LINE
  8
_1-0_
  6
CONTINUOUS
 62
    3
 10
506.21625190340285
 20
-137.59077967312646
 11
506.52875190340285
 21
-137.27334267312631
  0
LINE
  8
_1-0_
  6
CONTINUOUS
 62
    3
 10
506.52875190340285
 20
-137.6738426731265
 11
506.21625190340285
 21
-137.59077967312646
  0
LINE
  8
_1-0_
  6
CONTINUOUS
 62
    3
 10
508.40375190340285
 20
-136.9707176731265
 11
506.52875190340285
 21
-137.6738426731265
  0
LINE
  8
_1-0_
  6
CONTINUOUS
 62
    3
 10
508.71625190340285
 20
-136.65327967312646
 11
508.40375190340285
 21
-136.9707176731265
  0
LINE
  8
_1-0_
  6
CONTINUOUS
 62
    3
 10
508.40375190340285
 20
-136.57021767312631
 11
508.71625190340285
 21
-136.65327967312646
  0
LINE
  8
_1-0_
  6
CONTINUOUS
 62
    3
 10
506.52875190340285
 20
-137.27334267312631
 11
508.40375190340285
 21
-136.57021767312631
  0
LINE
  8
_1-0_
  6
CONTINUOUS
 62
    3
 10
506.52875190340285
 20
-139.14834267312631
 11
506.52875190340285
 21
-138.6113426731265
  0
LINE
  8
_1-0_
  6
CONTINUOUS
 62
    3
 10
506.21625190340285
 20
-138.52827967312646
 11
506.52875190340285
 21
-138.21084267312631
  0
LINE
  8
_1-0_
  6
CONTINUOUS
 62
    3
 10
506.52875190340285
 20
-138.6113426731265
 11
506.21625190340285
 21
-138.52827967312646
  0
LINE
  8
_1-0_
  6
CONTINUOUS
 62
    3
 10
508.40375190340285
 20
-137.9082176731265
 11
506.52875190340285
 21
-138.6113426731265
  0
LINE
  8
_1-0_
  6
CONTINUOUS
 62
    3
 10
508.71625190340285
 20
-137.59077967312646
 11
508.40375190340285
 21
-137.9082176731265
  0
LINE
  8
_1-0_
  6
CONTINUOUS
 62
    3
 10
508.40375190340285
 20
-137.50771767312631
 11
508.71625190340285
 21
-137.59077967312646
  0
LINE
  8
_1-0_
  6
CONTINUOUS
 62
    3
 10
506.52875190340285
 20
-138.21084267312631
 11
508.40375190340285
 21
-137.50771767312631
  0
LINE
  8
_1-0_
  6
CONTINUOUS
 62
    3
 10
508.40375190340285
 20
-138.8457176731265
 11
507.1835849034029
 21
-139.30327967312655
  0
LINE
  8
_1-0_
  6
CONTINUOUS
 62
    3
 10
506.52875190340285
 20
-139.14834267312631
 11
506.37622390340277
 21
-139.30327967312655
  0
LINE
  8
_1-0_
  6
CONTINUOUS
 62
    3
 10
508.71625190340285
 20
-138.52827967312646
 11
508.40375190340285
 21
-138.8457176731265
  0
LINE
  8
_1-0_
  6
CONTINUOUS
 62
    3
 10
508.40375190340285
 20
-138.44521767312631
 11
508.71625190340285
 21
-138.52827967312646
  0
LINE
  8
_1-0_
  6
CONTINUOUS
 62
    3
 10
506.52875190340285
 20
-139.14834267312631
 11
508.40375190340285
 21
-138.44521767312631
  0
LINE
  8
_1-0_
  6
CONTINUOUS
 62
    3
 10
508.40375190340285
 20
-138.8457176731265
 11
508.40375190340285
 21
-139.30327967312655
  0
LINE
  8
_1-0_
  6
CONTINUOUS
 62
    3
 10
508.40375190340285
 20
-137.9082176731265
 11
508.40375190340285
 21
-138.44521767312631
  0
LINE
  8
_1-0_
  6
CONTINUOUS
 62
    3
 10
508.40375190340285
 20
-136.9707176731265
 11
508.40375190340285
 21
-137.50771767312631
  0
LINE
  8
_1-0_
  6
CONTINUOUS
 62
    3
 10
508.40375190340285
 20
-136.0332176731265
 11
508.40375190340285
 21
-136.57021767312631
  0
LINE
  8
_1-0_
  6

 62
    3
 10
507.46625190340285
 20
-141.80327967312655
 11
507.46625190340285
 21
-109.30327967312655
  0
LINE
  8
_1-0_
  6

 62
    3
 10
434.96624890340274
 20
-214.30328267312643
 11
402.46624890340274
 21
-214.30328267312643
  0
LINE
  8
_1-0_
  6

 62
    3
 10
480.96625190340285
 20
-268.08595567312636
 11
480.96625190340285
 21
-189.30327967312655
  0
LINE
  8
_1-0_
  6

 62
    3
 10
480.96625190340285
 20
-139.30328167312632
 11
480.96625190340285
 21
-164.30327967312655
  0
LINE
  8
_1-0_
  6
CONTINUOUS
 62
    3
 10
432.46625290340273
 20
-139.30328067312644
 11
561.24892790340266
 21
-139.30328067312644
  0
LINE
  8
_1-0_
  6
CONTINUOUS
 62
    3
 10
432.46624890340274
 20
-268.58594567312662
 11
432.46624890340274
 21
-139.30328167312632
  0
LINE
  8
_1-0_
  6

 62
    3
 10
532.46625190340285
 20
-187.80327967312655
 11
561.24892790340266
 21
-187.80327967312655
  0
LINE
  8
_1-0_
  6
CONTINUOUS
 62
    3
 10
472.4125129034029
 20
-172.55327967312655
 11
467.51998990340269
 21
-172.55327967312655
  0
LINE
  8
_1-0_
  6
CONTINUOUS
 62
    3
 10
467.51998990340269
 20
-172.55327967312655
 11
465.06625190340276
 21
-176.80327967312655
  0
LINE
  8
_1-0_
  6
CONTINUOUS
 62
    3
 10
465.06625190340276
 20
-176.80327967312655
 11
467.51998990340269
 21
-181.05327967312655
  0
LINE
  8
_1-0_
  6
CONTINUOUS
 62
    3
 10
467.51998990340269
 20
-181.05327967312655
 11
472.4125129034029
 21
-181.05327967312655
  0
LINE
  8
_1-0_
  6
CONTINUOUS
 62
    3
 10
472.4125129034029
 20
-181.05327967312655
 11
474.86625190340271
 21
-176.80327967312655
  0
LINE
  8
_1-0_
  6
CONTINUOUS
 62
    3
 10
474.86625190340271
 20
-176.80327967312655
 11
472.4125129034029
 21
-172.55327967312655
  0
CIRCLE
  8
_1-0_
  6
CONTINUOUS
 62
    3
 10
469.96625190340285
 20
-176.79896267312643
 40
4.2456829999999997
  0
CIRCLE
  8
_1-0_
  6
CONTINUOUS
 62
    3
 10
469.96625190340285
 20
-176.79896267312643
 40
5.25
  0
LINE
  8
_1-0_
  6
CONTINUOUS
 62
    3
 10
517.51998990340269
 20
-172.55327967312655
 11
515.06625190340276
 21
-176.80327967312655
  0
LINE
  8
_1-0_
  6
CONTINUOUS
 62
    3
 10
522.4125129034029
 20
-172.55327967312655
 11
517.51998990340269
 21
-172.55327967312655
  0
LINE
  8
_1-0_
  6
CONTINUOUS
 62
    3
 10
524.86625190340271
 20
-176.80327967312655
 11
522.4125129034029
 21
-172.55327967312655
  0
LINE
  8
_1-0_
  6
CONTINUOUS
 62
    3
 10
522.4125129034029
 20
-181.05327967312655
 11
524.86625190340271
 21
-176.80327967312655
  0
LINE
  8
_1-0_
  6
CONTINUOUS
 62
    3
 10
517.51998990340269
 20
-181.05327967312655
 11
522.4125129034029
 21
-181.05327967312655
  0
LINE
  8
_1-0_
  6
CONTINUOUS
 62
    3
 10
515.06625190340276
 20
-176.80327967312655
 11
517.51998990340269
 21
-181.05327967312655
  0
CIRCLE
  8
_1-0_
  6
CONTINUOUS
 62
    3
 10
519.96625190340285
 20
-176.79896267312643
 40
4.2456829999999997
  0
CIRCLE
  8
_1-0_
  6
CONTINUOUS
 62
    3
 10
519.96625190340285
 20
-176.79896267312643
 40
5.25
  0
LINE
  8
_1-0_
  6

 62
    3
 10
433.96625190340285
 20
-139.30328367312654
 11
433.96625190340285
 21
-268.08595567312636
  0
LINE
  8
_1-0_
  6
CONTINUOUS
 62
    3
 10
492.51998990340269
 20
-172.55327967312655
 11
490.06625190340276
 21
-176.80327967312655
  0
LINE
  8
_1-0_
  6
CONTINUOUS
 62
    3
 10
497.4125129034029
 20
-172.55327967312655
 11
492.51998990340269
 21
-172.55327967312655
  0
LINE
  8
_1-0_
  6
CONTINUOUS
 62
    3
 10
499.86625190340271
 20
-176.80327967312655
 11
497.4125129034029
 21
-172.55327967312655
  0
LINE
  8
_1-0_
  6
CONTINUOUS
 62
    3
 10
497.4125129034029
 20
-181.05327967312655
 11
499.86625190340271
 21
-176.80327967312655
  0
LINE
  8
_1-0_
  6
CONTINUOUS
 62
    3
 10
492.51998990340269
 20
-181.05327967312655
 11
497.4125129034029
 21
-181.05327967312655
  0
LINE
  8
_1-0_
  6
CONTINUOUS
 62
    3
 10
490.06625190340276
 20
-176.80327967312655
 11
492.51998990340269
 21
-181.05327967312655
  0
CIRCLE
  8
_1-0_
  6
CONTINUOUS
 62
    3
 10
494.96625190340285
 20
-176.79896267312643
 40
4.2456829999999997
  0
LINE
  8
_1-0_
  6
CONTINUOUS
 62
    3
 10
532.46625190340285
 20
-164.30327967312655
 11
532.46625190340285
 21
-189.30327967312655
  0
LINE
  8
_1-0_
  6
CONTINUOUS
 62
    3
 10
518.21625190340285
 20
-253.80327967312655
 11
518.21625190340285
 21
-199.80327967312655
  0
ARC
  8
_1-0_
  6
CONTINUOUS
 62
    3
 10
512.71625190340285
 20
-253.80327967312655
 40
5.5
 50
270
 51
0
  0
LINE
  8
_1-0_
  6
CONTINUOUS
 62
    3
 10
512.71625190340285
 20
-259.30327967312655
 11
482.46625190340285
 21
-259.30327967312655
  0
LINE
  8
_1-0_
  6
CONTINUOUS
 62
    3
 10
521.71625190340285
 20
-253.80327967312655
 11
521.71625190340285
 21
-199.80327967312655
  0
ARC
  8
_1-0_
  6
CONTINUOUS
 62
    3
 10
527.21625190340285
 20
-253.80327967312655
 40
5.5
 50
180
 51
270
  0
LINE
  8
_1-0_
  6
CONTINUOUS
 62
    3
 10
527.21625190340285
 20
-259.30327967312655
 11
557.46625190340285
 21
-259.30327967312655
  0
ARC
  8
_1-0_
  6
CONTINUOUS
 62
    3
 10
512.71625190340285
 20
-199.80327967312655
 40
5.5
 50
0
 51
90
  0
LINE
  8
_1-0_
  6
CONTINUOUS
 62
    3
 10
512.71625190340285
 20
-194.30327967312655
 11
482.46625190340285
 21
-194.30327967312655
  0
LINE
  8
_1-0_
  6
CONTINUOUS
 62
    3
 10
527.21625190340285
 20
-194.30327967312655
 11
557.46625190340285
 21
-194.30327967312655
  0
ARC
  8
_1-0_
  6
CONTINUOUS
 62
    3
 10
527.21625190340285
 20
-199.80327967312655
 40
5.5
 50
90
 51
180
  0
LINE
  8
_1-0_
  6
CONTINUOUS
 62
    3
 10
557.46625190340285
 20
-264.30327967312655
 11
482.46625190340285
 21
-264.30327967312655
  0
LINE
  8
_1-0_
  6
CONTINUOUS
 62
    3
 10
557.46625190340285
 20
-189.30327967312655
 11
557.46625190340285
 21
-194.30327967312655
  0
LINE
  8
_1-0_
  6
CONTINUOUS
 62
    3
 10
557.46625190340285
 20
-259.30327967312655
 11
557.46625190340285
 21
-264.30327967312655
  0
LINE
  8
_1-0_
  6
CONTINUOUS
 62
    3
 10
457.46625190340285
 20
-164.30327967312655
 11
532.46625190340285
 21
-164.30327967312655
  0
LINE
  8
_1-0_
  6
CONTINUOUS
 62
    3
 10
457.46625190340285
 20
-189.30327967312655
 11
457.46625190340285
 21
-164.30327967312655
  0
LINE
  8
_1-0_
  6
CONTINUOUS
 62
    3
 10
457.46625190340285
 20
-189.30327967312655
 11
561.24892790340266
 21
-189.30327967312655
  0
LINE
  8
_1-0_
  6
CONTINUOUS
 62
    3
 10
482.46625190340285
 20
-189.30327967312655
 11
482.46625190340285
 21
-268.08595567312636
  0
LINE
  8
_1-0_
  6

 62
    3
 10
482.46625190340285
 20
-140.80327967312655
 11
561.24892790340266
 21
-140.80327967312655
  0
LINE
  8
_1-0_
  6
CONTINUOUS
 62
    3
 10
482.46625190340285
 20
-139.30327967312655
 11
482.46625190340285
 21
-164.30327967312655
  0
LINE
  8
_1-0_
  6
CONTINUOUS
 62
    3
 10
457.46625190340285
 20
-187.30327967312655
 11
532.46625190340285
 21
-187.30327967312655
  0
CIRCLE
  8
_1-0_
  6
CONTINUOUS
 62
    3
 10
494.96625190340285
 20
-176.79896267312643
 40
5.25
  0
CIRCLE
  8
_1-0_
  6
CONTINUOUS
 62
    3
 10
432.46625290340273
 20
-293.08595567312636
 40
0.2999999999999999
  0
CIRCLE
  8
_1-0_
  6
CONTINUOUS
 62
    3
 10
482.46625190340285
 20
-293.08595567312636
 40
0.2999999999999999
  0
LINE
  8
_1-0_
  6
CONTINUOUS
 62
    3
 10
482.46625190340285
 20
-270.08595567312636
 11
482.46625190340285
 21
-293.08595567312636
  0
CIRCLE
  8
_1-0_
  6
CONTINUOUS
 62
    3
 10
432.46625290340273
 20
-293.08595567312636
 40
0.2999999999999999
  0
LINE
  8
_1-0_
  6
CONTINUOUS
 62
    3
 10
432.46625290340273
 20
-270.08595567312636
 11
432.46625290340273
 21
-293.08595567312636
  0
LINE
  8
_1-0_
  6
CONTINUOUS
 62
    3
 10
404.7163119034027
 20
-214.30327967312655
 11
381.82221280955616
 21
-214.30327967312655
  0
LINE
  8
_1-0_
  6
CONTINUOUS
 62
    7
 10
450.43359090340266
 20
-95.553284673126427
 11
453.18358890340266
 21
-95.553284673126427
  0
LINE
  8
_1-0_
  6
CONTINUOUS
 62
    3
 10
395.78731971526815
 20
-95.553284673126427
 11
576.96625190340285
 21
-95.553284673126427
  0
LINE
  8
_1-0_
  6
CONTINUOUS
 62
    3
 10
420.78731971526815
 20
-120.55328467312643
 11
576.96625190340285
 21
-120.55328467312643
  0
LINE
  8
_1-0_
  6
CONTINUOUS
 62
    3
 10
388.71625290340273
 20
-268.58594567312662
 11
388.71625290340273
 21
-102.62435348499207
  0
LINE
  8
_1-0_
  6
CONTINUOUS
 62
    3
 10
413.71625290340273
 20
-268.58594567312662
 11
413.71625290340273
 21
-127.62435348499207
  0
LINE
  8
_1-0_
  6
CONTINUOUS
 62
    7
 10
413.71625290340273
 20
-127.62435348499207
 11
388.71625290340273
 21
-102.62435348499184
  0
LINE
  8
_1-0_
  6
CONTINUOUS
 62
    7
 10
420.78731971526815
 20
-120.55328467312643
 11
395.78731971526815
 21
-95.553284673126427
  0
LINE
  8
_1-0_
  6
CONTINUOUS
 62
    3
 10
388.07219780955631
 20
-102.62435348499207
 11
381.82221280955616
 21
-102.62435348499207
  0
CIRCLE
  8
_1-0_
  6
CONTINUOUS
 62
    3
 10
381.82221280955616
 20
-102.62435348499207
 40
0.2999999999999999
  0
CIRCLE
  8
_1-0_
  6
CONTINUOUS
 62
    3
 10
381.82221280955616
 20
-102.62435348499207
 40
0.2999999999999999
  0
LINE
  8
_1-0_
  6
CONTINUOUS
 62
    3
 10
381.82221280955616
 20
-102.62435348499207
 11
381.82221280955616
 21
-214.30327967312655
  0
LINE
  8
_1-0_
  6
CONTINUOUS
 62
    7
 10
440.23319591400502
 20
-73.410816645487785
 11
462.89386818861738
 21
-73.410816645487785
  0
LINE
  8
_1-0_
  6
CONTINUOUS
 62
    7
 10
418.63034807639917
 20
-95.013664483093407
 11
440.23319591400502
 21
-73.410816645487785
  0
LINE
  8
_1-0_
  6
CONTINUOUS
 62
    7
 10
309.42295406390724
 20
145.9132683960695
 11
331.02580190151286
 21
167.51611623367535
  0
LINE
  8
_1-0_
  6
CONTINUOUS
 62
    7
 10
329.86031241103422
 20
57.184248608451526
 11
329.86032312366262
 21
31.184946318897573
  0
LINE
  8
_1-0_
  6
CONTINUOUS
 62
    7
 10
329.86029695971308
 20
94.684248608445159
 11
329.86030767234172
 21
68.684946318891207
  0
LINE
  8
_1-0_
  6
CONTINUOUS
 62
    7
 10
329.86028150839195
 20
132.18424860843879
 11
329.86029222102036
 21
106.18494631888484
  0
LINE
  8
_1-0_
  6
CONTINUOUS
 62
    7
 10
329.86027471830846
 20
36.163625081178225
 11
329.86027676969945
 21
31.184946318878474
  0
ARC
  8
_1-0_
  6
CONTINUOUS
 62
    7
 10
316.56321335490668
 20
32.122097463941373
 40
0.25
 50
90
 51
209.1553654262427
  0
LINE
  8
_1-0_
  6
CONTINUOUS
 62
    7
 10
329.86027471830846
 20
32.934597463931823
 11
329.86027471830846
 21
32.364186158452867
  0
LINE
  8
_1-0_
  6
CONTINUOUS
 62
    7
 10
329.86027471830323
 20
17.934597463931823
 11
329.86027471830346
 21
18.505008769497863
  0
LINE
  8
_1-0_
  6
CONTINUOUS
 62
    9
 10
322.11027471830846
 20
19.959242163366298
 11
322.11027471830846
 21
25.447097463656746
  0
LINE
  8
_1-0_
  6
CONTINUOUS
 62
    9
 10
327.01027471830832
 20
20.122097463656928
 11
327.01027471830832
 21
18.972097463656837
  0
ARC
  8
_1-0_
  6
CONTINUOUS
 62
    9
 10
326.76027471830832
 20
18.972097463656837
 40
0.25
 50
254.9999999999107
 51
0
  0
LINE
  8
_1-0_
  6
CONTINUOUS
 62
    9
 10
322.11027471830846
 20
19.959242163366298
 11
326.69556995703272
 21
18.730616007084564
  0
ARC
  8
_1-0_
  6
CONTINUOUS
 62
    9
 10
327.26027471830832
 20
20.122097463656928
 40
0.25
 50
74.99999999995498
 51
180
  0
LINE
  8
_1-0_
  6
CONTINUOUS
 62
    9
 10
327.32497947958439
 20
20.363578920228747
 11
329.86027471830869
 21
19.684248608435837
  0
LINE
  8
_1-0_
  6
CONTINUOUS
 62
    9
 10
327.9602747183086
 20
25.447097463656746
 11
327.9602747183086
 21
20.19335207405652
  0
LINE
  8
_1-0_
  6
CONTINUOUS
 62
    9
 10
327.31027471830851
 20
25.447097463656746
 11
327.31027471830851
 21
20.3675190491374
  0
LINE
  8
_1-0_
  6
CONTINUOUS
 62
    9
 10
322.11027471830846
 20
30.909952763947331
 11
322.11027471830846
 21
25.447097463656746
  0
LINE
  8
_1-0_
  6
CONTINUOUS
 62
    9
 10
327.01027471830832
 20
30.747097463656701
 11
327.01027471830832
 21
31.897097463656792
  0
LINE
  8
_1-0_
  6
CONTINUOUS
 62
    9
 10
322.11027471830846
 20
30.909952763947103
 11
326.69556995703272
 21
32.138578920228838
  0
ARC
  8
_1-0_
  6
CONTINUOUS
 62
    9
 10
327.26027471830832
 20
30.747097463656701
 40
0.25
 50
180
 51
285.00000000004496
  0
LINE
  8
_1-0_
  6
CONTINUOUS
 62
    9
 10
327.32497947958416
 20
30.505616007084882
 11
329.86027471830846
 21
31.184946318877564
  0
LINE
  8
_1-0_
  6
CONTINUOUS
 62
    9
 10
327.9602747183086
 20
25.447097463656746
 11
327.9602747183086
 21
30.675842853257109
  0
LINE
  8
_1-0_
  6
CONTINUOUS
 62
    9
 10
327.31027471830851
 20
25.447097463656746
 11
327.31027471830851
 21
30.501675878176229
  0
ARC
  8
_1-0_
  6
CONTINUOUS
 62
    9
 10
326.76027471830832
 20
31.897097463656792
 40
0.25
 50
0
 51
105.00000000008929
  0
LINE
  8
_1-0_
  6
CONTINUOUS
 62
    7
 10
329.86027471830846
 20
32.922097463931777
 11
329.86027471830846
 21
32.351686158452821
  0
ARC
  8
_1-0_
  6
CONTINUOUS
 62
    7
 10
327.23815171381659
 20
31.447097463928458
 40
0.1499999999999999
 50
186.49999999999821
 51
288.60829801488677
  0
LINE
  8
_1-0_
  6
CONTINUOUS
 62
    7
 10
304.86027471831369
 20
32.92209746394974
 11
329.86027471830823
 21
32.922097463931777
  0
LINE
  8
_1-0_
  6
CONTINUOUS
 62
    7
 10
326.21149110536328
 20
32.372097463934324
 11
326.46149110536464
 21
32.122097463932732
  0
LINE
  8
_1-0_
  6
CONTINUOUS
 62
    7
 10
329.86027471830323
 20
17.922097463931777
 11
329.86027471830369
 21
18.492508769497817
  0
LINE
  8
_1-0_
  6
CONTINUOUS
 62
    7
 10
304.86027471831915
 20
32.92209746394974
 11
304.86027471830823
 21
17.92209746394974
  0
ARC
  8
_1-0_
  6
CONTINUOUS
 62
    7
 10
327.2381517138125
 20
19.397097463936916
 40
0.1499999999999999
 50
71.383514957199623
 51
173.49999999996072
  0
LINE
  8
_1-0_
  6
CONTINUOUS
 62
    7
 10
304.86027471830823
 20
17.92209746394974
 11
329.86027471830323
 21
17.922097463932005
  0
LINE
  8
_1-0_
  6
CONTINUOUS
 62
    7
 10
314.2402703094557
 20
30.495976601001075
 11
313.8499117472312
 21
31.172097463941554
  0
LINE
  8
_1-0_
  6
CONTINUOUS
 62
    7
 10
314.35509323277108
 20
32.047097463942009
 11
314.86027471831346
 21
32.047097463942464
  0
LINE
  8
_1-0_
  6
CONTINUOUS
 62
    7
 10
313.8499117472312
 20
31.172097463941327
 11
314.35509323277108
 21
32.047097463942009
  0
ARC
  8
_1-0_
  6
CONTINUOUS
 62
    7
 10
313.89580153950703
 20
30.297097463942919
 40
0.3977582741150607
 50
222.2152905445418
 51
30.000000000068439
  0
ARC
  8
_1-0_
  6
CONTINUOUS
 62
    7
 10
314.86027471831324
 20
31.172097463942464
 40
1.7
 50
150.84463457367556
 51
222.2152905445414
  0
LINE
  8
_1-0_
  6
CONTINUOUS
 62
    7
 10
315.48027912717009
 20
30.495976601000393
 11
315.87063768939527
 21
31.172097463940645
  0
LINE
  8
_1-0_
  6
CONTINUOUS
 62
    7
 10
315.36545620385607
 20
32.047097463941554
 11
314.86027471831369
 21
32.047097463942464
  0
LINE
  8
_1-0_
  6
CONTINUOUS
 62
    7
 10
315.87063768939527
 20
31.172097463940645
 11
315.36545620385607
 21
32.047097463941554
  0
ARC
  8
_1-0_
  6
CONTINUOUS
 62
    7
 10
315.82474789711898
 20
30.297097463942237
 40
0.3977582741150607
 50
149.99999999989041
 51
317.7847094554171
  0
ARC
  8
_1-0_
  6
CONTINUOUS
 62
    7
 10
314.86027471831324
 20
31.172097463942464
 40
1.7
 50
317.78470945541761
 51
29.155365426242618
  0
LINE
  8
_1-0_
  6
CONTINUOUS
 62
    7
 10
316.56321335490668
 20
32.372097463941373
 11
326.21149110536328
 21
32.372097463934324
  0
LINE
  8
_1-0_
  6
CONTINUOUS
 62
    7
 10
305.91027471831887
 20
32.372097463948876
 11
313.15733608172138
 21
32.372097463943874
  0
ARC
  8
_1-0_
  6
CONTINUOUS
 62
    7
 10
313.15733608172116
 20
32.122097463943874
 40
0.25
 50
330.84463457367565
 51
89.999999999999943
  0
LINE
  8
_1-0_
  6
CONTINUOUS
 62
    7
 10
314.24027030945047
 20
20.348218326887491
 11
313.84991174722529
 21
19.672097463947239
  0
LINE
  8
_1-0_
  6
CONTINUOUS
 62
    7
 10
314.35509323276403
 20
18.797097463946557
 11
314.86027471830641
 21
18.797097463945192
  0
LINE
  8
_1-0_
  6
CONTINUOUS
 62
    7
 10
313.84991174722529
 20
19.672097463947239
 11
314.35509323276403
 21
18.797097463946329
  0
ARC
  8
_1-0_
  6
CONTINUOUS
 62
    7
 10
313.89580153950158
 20
20.547097463945875
 40
0.3977582741150607
 50
329.99999999987034
 51
137.78470945539698
  0
ARC
  8
_1-0_
  6
CONTINUOUS
 62
    7
 10
314.86027471830687
 20
19.672097463945192
 40
1.7
 50
137.78470945539746
 51
209.15536542626333
  0
LINE
  8
_1-0_
  6
CONTINUOUS
 62
    7
 10
315.48027912716464
 20
20.348218326886808
 11
315.8706376893889
 21
19.672097463946102
  0
LINE
  8
_1-0_
  6
CONTINUOUS
 62
    7
 10
315.36545620384879
 20
18.797097463945647
 11
314.86027471830641
 21
18.79709746394542
  0
LINE
  8
_1-0_
  6
CONTINUOUS
 62
    7
 10
315.87063768938913
 20
19.672097463946102
 11
315.36545620384879
 21
18.797097463945647
  0
ARC
  8
_1-0_
  6
CONTINUOUS
 62
    7
 10
315.82474789711353
 20
20.54709746394451
 40
0.3977582741150607
 50
42.215290544521672
 51
210.00000000004837
  0
ARC
  8
_1-0_
  6
CONTINUOUS
 62
    7
 10
314.86027471830732
 20
19.672097463945192
 40
1.7
 50
330.84463457369634
 51
42.215290544521238
  0
ARC
  8
_1-0_
  6
CONTINUOUS
 62
    7
 10
316.5632133548994
 20
18.722097463944465
 40
0.25
 50
150.84463457369617
 51
269.99999999993878
  0
ARC
  8
_1-0_
  6
CONTINUOUS
 62
    7
 10
313.15733608171388
 20
18.722097463945829
 40
0.25
 50
269.99999999993884
 51
29.155365426263131
  0
LINE
  8
_1-0_
  6
CONTINUOUS
 62
    7
 10
316.56321335489918
 20
18.472097463941282
 11
326.21149110536078
 21
18.47209746393446
  0
LINE
  8
_1-0_
  6
CONTINUOUS
 62
    7
 10
305.91027471830887
 20
18.472097463949012
 11
313.15733608171388
 21
18.472097463943783
  0
LINE
  8
_1-0_
  6
CONTINUOUS
 62
    7
 10
305.41027471831842
 20
31.872097463949331
 11
305.4102747183091
 21
18.97209746394924
  0
ARC
  8
_1-0_
  6
CONTINUOUS
 62
    7
 10
305.91027471831842
 20
31.872097463948876
 40
0.5
 50
90
 51
180
  0
ARC
  8
_1-0_
  6
CONTINUOUS
 62
    7
 10
305.91027471830932
 20
18.972097463949012
 40
0.5
 50
180
 51
270
  0
LINE
  8
_1-0_
  6
CONTINUOUS
 62
    7
 10
327.28603651177002
 20
19.539248953990864
 11
329.6900827148994
 21
18.729427919588034
  0
ARC
  8
_1-0_
  6
CONTINUOUS
 62
    7
 10
329.61027471830346
 20
18.492508769498045
 40
0.25
 50
0
 51
71.383514957200816
  0
LINE
  8
_1-0_
  6
CONTINUOUS
 62
    7
 10
327.2860365117632
 20
31.304945973957501
 11
329.69008271489167
 21
32.11476700836306
  0
ARC
  8
_1-0_
  6
CONTINUOUS
 62
    7
 10
329.61027471829595
 20
32.351686158452821
 40
0.25
 50
288.61648504286279
 51
0.0000000000000254
  0
LINE
  8
_1-0_
  6
CONTINUOUS
 62
    7
 10
326.21149110536078
 20
18.47209746393446
 11
326.46149110535964
 21
18.722097463932869
  0
LINE
  8
_1-0_
  6
CONTINUOUS
 62
    7
 10
326.46149110535964
 20
18.722097463933096
 11
327.01027471830287
 21
18.722097463932869
  0
LINE
  8
_1-0_
  6
CONTINUOUS
 62
    7
 10
327.08911593546111
 20
19.41407794600218
 11
327.01027471830309
 21
18.722097463932641
  0
LINE
  8
_1-0_
  6
CONTINUOUS
 62
    7
 10
327.0891159354652
 20
31.430116981863193
 11
327.01027471830787
 21
32.122097463932732
  0
LINE
  8
_1-0_
  6
CONTINUOUS
 62
    7
 10
326.46149110536464
 20
32.122097463933187
 11
327.01027471830787
 21
32.12209746393296
  0
POINT
  8
_1-0_
 62
    4
 10
298.14272172673066
 20
17.92209746394974
  0
LINE
  8
_1-0_
  6
CONTINUOUS
 62
    4
 10
298.14272172673066
 20
17.92209746394974
 11
303.30935452145388
 21
17.92209746394974
  0
LINE
  8
_1-0_
  6
CONTINUOUS
 62
    4
 10
298.14272172673066
 20
17.92209746394974
 11
298.14272172673066
 21
32.92209746394974
  0
POINT
  8
_1-0_
 62
    4
 10
298.14272172673066
 20
32.92209746394974
  0
LINE
  8
_1-0_
  6
CONTINUOUS
 62
    4
 10
298.14272172673066
 20
32.92209746394974
 11
303.30935452145388
 21
32.92209746394974
  0
LINE
  8
_1-0_
  6
CONTINUOUS
 62
    7
 10
329.86027471830846
 20
73.663625081178225
 11
329.86027676969945
 21
68.684946318878474
  0
ARC
  8
_1-0_
  6
CONTINUOUS
 62
    7
 10
316.56321335490668
 20
69.622097463941373
 40
0.25
 50
90
 51
209.1553654262427
  0
LINE
  8
_1-0_
  6
CONTINUOUS
 62
    7
 10
329.86027471830846
 20
70.434597463931823
 11
329.86027471830846
 21
69.864186158452867
  0
LINE
  8
_1-0_
  6
CONTINUOUS
 62
    7
 10
329.86027471830323
 20
55.434597463931823
 11
329.86027471830346
 21
56.005008769497863
  0
LINE
  8
_1-0_
  6
CONTINUOUS
 62
    9
 10
322.11027471830846
 20
57.459242163366298
 11
322.11027471830846
 21
62.947097463656746
  0
LINE
  8
_1-0_
  6
CONTINUOUS
 62
    9
 10
327.01027471830832
 20
57.622097463656928
 11
327.01027471830832
 21
56.472097463656837
  0
ARC
  8
_1-0_
  6
CONTINUOUS
 62
    9
 10
326.76027471830832
 20
56.472097463656837
 40
0.25
 50
254.9999999999107
 51
0
  0
LINE
  8
_1-0_
  6
CONTINUOUS
 62
    9
 10
322.11027471830846
 20
57.459242163366298
 11
326.69556995703272
 21
56.230616007084564
  0
ARC
  8
_1-0_
  6
CONTINUOUS
 62
    9
 10
327.26027471830832
 20
57.622097463656928
 40
0.25
 50
74.99999999995498
 51
180
  0
LINE
  8
_1-0_
  6
CONTINUOUS
 62
    9
 10
327.32497947958439
 20
57.863578920228747
 11
329.86027471830869
 21
57.184248608435837
  0
LINE
  8
_1-0_
  6
CONTINUOUS
 62
    9
 10
327.9602747183086
 20
62.947097463656746
 11
327.9602747183086
 21
57.69335207405652
  0
LINE
  8
_1-0_
  6
CONTINUOUS
 62
    9
 10
327.31027471830851
 20
62.947097463656746
 11
327.31027471830851
 21
57.8675190491374
  0
LINE
  8
_1-0_
  6
CONTINUOUS
 62
    9
 10
322.11027471830846
 20
68.409952763947331
 11
322.11027471830846
 21
62.947097463656746
  0
LINE
  8
_1-0_
  6
CONTINUOUS
 62
    9
 10
327.01027471830832
 20
68.247097463656701
 11
327.01027471830832
 21
69.397097463656792
  0
LINE
  8
_1-0_
  6
CONTINUOUS
 62
    9
 10
322.11027471830846
 20
68.409952763947103
 11
326.69556995703272
 21
69.638578920228838
  0
ARC
  8
_1-0_
  6
CONTINUOUS
 62
    9
 10
327.26027471830832
 20
68.247097463656701
 40
0.25
 50
180
 51
285.00000000004496
  0
LINE
  8
_1-0_
  6
CONTINUOUS
 62
    9
 10
327.32497947958416
 20
68.005616007084882
 11
329.86027471830846
 21
68.684946318877564
  0
LINE
  8
_1-0_
  6
CONTINUOUS
 62
    9
 10
327.9602747183086
 20
62.947097463656746
 11
327.9602747183086
 21
68.175842853257109
  0
LINE
  8
_1-0_
  6
CONTINUOUS
 62
    9
 10
327.31027471830851
 20
62.947097463656746
 11
327.31027471830851
 21
68.001675878176229
  0
ARC
  8
_1-0_
  6
CONTINUOUS
 62
    9
 10
326.76027471830832
 20
69.397097463656792
 40
0.25
 50
0
 51
105.00000000008929
  0
LINE
  8
_1-0_
  6
CONTINUOUS
 62
    7
 10
329.86027471830846
 20
70.422097463931777
 11
329.86027471830846
 21
69.851686158452821
  0
ARC
  8
_1-0_
  6
CONTINUOUS
 62
    7
 10
327.23815171381659
 20
68.947097463928458
 40
0.1499999999999999
 50
186.49999999999821
 51
288.60829801488677
  0
LINE
  8
_1-0_
  6
CONTINUOUS
 62
    7
 10
304.86027471831369
 20
70.42209746394974
 11
329.86027471830823
 21
70.422097463931777
  0
LINE
  8
_1-0_
  6
CONTINUOUS
 62
    7
 10
326.21149110536328
 20
69.872097463934324
 11
326.46149110536464
 21
69.622097463932732
  0
LINE
  8
_1-0_
  6
CONTINUOUS
 62
    7
 10
329.86027471830323
 20
55.422097463931777
 11
329.86027471830369
 21
55.992508769497817
  0
LINE
  8
_1-0_
  6
CONTINUOUS
 62
    7
 10
304.86027471831915
 20
70.42209746394974
 11
304.86027471830823
 21
55.42209746394974
  0
ARC
  8
_1-0_
  6
CONTINUOUS
 62
    7
 10
327.2381517138125
 20
56.897097463936916
 40
0.1499999999999999
 50
71.383514957199623
 51
173.49999999996072
  0
LINE
  8
_1-0_
  6
CONTINUOUS
 62
    7
 10
304.86027471830823
 20
55.42209746394974
 11
329.86027471830323
 21
55.422097463932005
  0
LINE
  8
_1-0_
  6
CONTINUOUS
 62
    7
 10
314.2402703094557
 20
67.995976601001075
 11
313.8499117472312
 21
68.672097463941554
  0
LINE
  8
_1-0_
  6
CONTINUOUS
 62
    7
 10
314.35509323277108
 20
69.547097463942009
 11
314.86027471831346
 21
69.547097463942464
  0
LINE
  8
_1-0_
  6
CONTINUOUS
 62
    7
 10
313.8499117472312
 20
68.672097463941327
 11
314.35509323277108
 21
69.547097463942009
  0
ARC
  8
_1-0_
  6
CONTINUOUS
 62
    7
 10
313.89580153950703
 20
67.797097463942919
 40
0.3977582741150607
 50
222.2152905445418
 51
30.000000000068439
  0
ARC
  8
_1-0_
  6
CONTINUOUS
 62
    7
 10
314.86027471831324
 20
68.672097463942464
 40
1.7
 50
150.84463457367556
 51
222.2152905445414
  0
LINE
  8
_1-0_
  6
CONTINUOUS
 62
    7
 10
315.48027912717009
 20
67.995976601000393
 11
315.87063768939527
 21
68.672097463940645
  0
LINE
  8
_1-0_
  6
CONTINUOUS
 62
    7
 10
315.36545620385607
 20
69.547097463941554
 11
314.86027471831369
 21
69.547097463942464
  0
LINE
  8
_1-0_
  6
CONTINUOUS
 62
    7
 10
315.87063768939527
 20
68.672097463940645
 11
315.36545620385607
 21
69.547097463941554
  0
ARC
  8
_1-0_
  6
CONTINUOUS
 62
    7
 10
315.82474789711898
 20
67.797097463942237
 40
0.3977582741150607
 50
149.99999999989041
 51
317.7847094554171
  0
ARC
  8
_1-0_
  6
CONTINUOUS
 62
    7
 10
314.86027471831324
 20
68.672097463942464
 40
1.7
 50
317.78470945541761
 51
29.155365426242618
  0
LINE
  8
_1-0_
  6
CONTINUOUS
 62
    7
 10
316.56321335490668
 20
69.872097463941373
 11
326.21149110536328
 21
69.872097463934324
  0
LINE
  8
_1-0_
  6
CONTINUOUS
 62
    7
 10
305.91027471831887
 20
69.872097463948876
 11
313.15733608172138
 21
69.872097463943874
  0
ARC
  8
_1-0_
  6
CONTINUOUS
 62
    7
 10
313.15733608172116
 20
69.622097463943874
 40
0.25
 50
330.84463457367565
 51
89.999999999999943
  0
LINE
  8
_1-0_
  6
CONTINUOUS
 62
    7
 10
314.24027030945047
 20
57.848218326887491
 11
313.84991174722529
 21
57.172097463947239
  0
LINE
  8
_1-0_
  6
CONTINUOUS
 62
    7
 10
314.35509323276403
 20
56.297097463946557
 11
314.86027471830641
 21
56.297097463945192
  0
LINE
  8
_1-0_
  6
CONTINUOUS
 62
    7
 10
313.84991174722529
 20
57.172097463947239
 11
314.35509323276403
 21
56.297097463946329
  0
ARC
  8
_1-0_
  6
CONTINUOUS
 62
    7
 10
313.89580153950158
 20
58.047097463945875
 40
0.3977582741150607
 50
329.99999999987034
 51
137.78470945539698
  0
ARC
  8
_1-0_
  6
CONTINUOUS
 62
    7
 10
314.86027471830687
 20
57.172097463945192
 40
1.7
 50
137.78470945539746
 51
209.15536542626333
  0
LINE
  8
_1-0_
  6
CONTINUOUS
 62
    7
 10
315.48027912716464
 20
57.848218326886808
 11
315.8706376893889
 21
57.172097463946102
  0
LINE
  8
_1-0_
  6
CONTINUOUS
 62
    7
 10
315.36545620384879
 20
56.297097463945647
 11
314.86027471830641
 21
56.29709746394542
  0
LINE
  8
_1-0_
  6
CONTINUOUS
 62
    7
 10
315.87063768938913
 20
57.172097463946102
 11
315.36545620384879
 21
56.297097463945647
  0
ARC
  8
_1-0_
  6
CONTINUOUS
 62
    7
 10
315.82474789711353
 20
58.04709746394451
 40
0.3977582741150607
 50
42.215290544521672
 51
210.00000000004837
  0
ARC
  8
_1-0_
  6
CONTINUOUS
 62
    7
 10
314.86027471830732
 20
57.172097463945192
 40
1.7
 50
330.84463457369634
 51
42.215290544521238
  0
ARC
  8
_1-0_
  6
CONTINUOUS
 62
    7
 10
316.5632133548994
 20
56.222097463944465
 40
0.25
 50
150.84463457369617
 51
269.99999999993878
  0
ARC
  8
_1-0_
  6
CONTINUOUS
 62
    7
 10
313.15733608171388
 20
56.222097463945829
 40
0.25
 50
269.99999999993884
 51
29.155365426263131
  0
LINE
  8
_1-0_
  6
CONTINUOUS
 62
    7
 10
316.56321335489918
 20
55.972097463941282
 11
326.21149110536078
 21
55.97209746393446
  0
LINE
  8
_1-0_
  6
CONTINUOUS
 62
    7
 10
305.91027471830887
 20
55.972097463949012
 11
313.15733608171388
 21
55.972097463943783
  0
LINE
  8
_1-0_
  6
CONTINUOUS
 62
    7
 10
305.41027471831842
 20
69.372097463949331
 11
305.4102747183091
 21
56.47209746394924
  0
ARC
  8
_1-0_
  6
CONTINUOUS
 62
    7
 10
305.91027471831842
 20
69.372097463948876
 40
0.5
 50
90
 51
180
  0
ARC
  8
_1-0_
  6
CONTINUOUS
 62
    7
 10
305.91027471830932
 20
56.472097463949012
 40
0.5
 50
180
 51
270
  0
LINE
  8
_1-0_
  6
CONTINUOUS
 62
    7
 10
327.28603651177002
 20
57.039248953990864
 11
329.6900827148994
 21
56.229427919588034
  0
ARC
  8
_1-0_
  6
CONTINUOUS
 62
    7
 10
329.61027471830346
 20
55.992508769498045
 40
0.25
 50
0
 51
71.383514957200816
  0
LINE
  8
_1-0_
  6
CONTINUOUS
 62
    7
 10
327.2860365117632
 20
68.804945973957501
 11
329.69008271489167
 21
69.61476700836306
  0
ARC
  8
_1-0_
  6
CONTINUOUS
 62
    7
 10
329.61027471829595
 20
69.851686158452821
 40
0.25
 50
288.61648504286279
 51
0.0000000000000254
  0
LINE
  8
_1-0_
  6
CONTINUOUS
 62
    7
 10
326.21149110536078
 20
55.97209746393446
 11
326.46149110535964
 21
56.222097463932869
  0
LINE
  8
_1-0_
  6
CONTINUOUS
 62
    7
 10
326.46149110535964
 20
56.222097463933096
 11
327.01027471830287
 21
56.222097463932869
  0
LINE
  8
_1-0_
  6
CONTINUOUS
 62
    7
 10
327.08911593546111
 20
56.91407794600218
 11
327.01027471830309
 21
56.222097463932641
  0
LINE
  8
_1-0_
  6
CONTINUOUS
 62
    7
 10
327.0891159354652
 20
68.930116981863193
 11
327.01027471830787
 21
69.622097463932732
  0
LINE
  8
_1-0_
  6
CONTINUOUS
 62
    7
 10
326.46149110536464
 20
69.622097463933187
 11
327.01027471830787
 21
69.62209746393296
  0
POINT
  8
_1-0_
 62
    4
 10
298.14272172673066
 20
55.42209746394974
  0
LINE
  8
_1-0_
  6
CONTINUOUS
 62
    4
 10
298.14272172673066
 20
55.42209746394974
 11
303.30935452145388
 21
55.42209746394974
  0
LINE
  8
_1-0_
  6
CONTINUOUS
 62
    4
 10
298.14272172673066
 20
55.42209746394974
 11
298.14272172673066
 21
70.42209746394974
  0
POINT
  8
_1-0_
 62
    4
 10
298.14272172673066
 20
70.42209746394974
  0
LINE
  8
_1-0_
  6
CONTINUOUS
 62
    4
 10
298.14272172673066
 20
70.42209746394974
 11
303.30935452145388
 21
70.42209746394974
  0
LINE
  8
_1-0_
  6
CONTINUOUS
 62
    7
 10
329.86027471830846
 20
111.16362508117822
 11
329.86027676969945
 21
106.18494631887847
  0
ARC
  8
_1-0_
  6
CONTINUOUS
 62
    7
 10
316.56321335490668
 20
107.12209746394137
 40
0.25
 50
90
 51
209.1553654262427
  0
LINE
  8
_1-0_
  6
CONTINUOUS
 62
    7
 10
329.86027471830846
 20
107.93459746393182
 11
329.86027471830846
 21
107.36418615845287
  0
LINE
  8
_1-0_
  6
CONTINUOUS
 62
    7
 10
329.86027471830323
 20
92.934597463931823
 11
329.86027471830346
 21
93.505008769497863
  0
LINE
  8
_1-0_
  6
CONTINUOUS
 62
    9
 10
322.11027471830846
 20
94.959242163366298
 11
322.11027471830846
 21
100.44709746365675
  0
LINE
  8
_1-0_
  6
CONTINUOUS
 62
    9
 10
327.01027471830832
 20
95.122097463656928
 11
327.01027471830832
 21
93.972097463656837
  0
ARC
  8
_1-0_
  6
CONTINUOUS
 62
    9
 10
326.76027471830832
 20
93.972097463656837
 40
0.25
 50
254.9999999999107
 51
0
  0
LINE
  8
_1-0_
  6
CONTINUOUS
 62
    9
 10
322.11027471830846
 20
94.959242163366298
 11
326.69556995703272
 21
93.730616007084564
  0
ARC
  8
_1-0_
  6
CONTINUOUS
 62
    9
 10
327.26027471830832
 20
95.122097463656928
 40
0.25
 50
74.99999999995498
 51
180
  0
LINE
  8
_1-0_
  6
CONTINUOUS
 62
    9
 10
327.32497947958439
 20
95.363578920228747
 11
329.86027471830869
 21
94.684248608435837
  0
LINE
  8
_1-0_
  6
CONTINUOUS
 62
    9
 10
327.9602747183086
 20
100.44709746365675
 11
327.9602747183086
 21
95.19335207405652
  0
LINE
  8
_1-0_
  6
CONTINUOUS
 62
    9
 10
327.31027471830851
 20
100.44709746365675
 11
327.31027471830851
 21
95.3675190491374
  0
LINE
  8
_1-0_
  6
CONTINUOUS
 62
    9
 10
322.11027471830846
 20
105.90995276394733
 11
322.11027471830846
 21
100.44709746365675
  0
LINE
  8
_1-0_
  6
CONTINUOUS
 62
    9
 10
327.01027471830832
 20
105.7470974636567
 11
327.01027471830832
 21
106.89709746365679
  0
LINE
  8
_1-0_
  6
CONTINUOUS
 62
    9
 10
322.11027471830846
 20
105.9099527639471
 11
326.69556995703272
 21
107.13857892022884
  0
ARC
  8
_1-0_
  6
CONTINUOUS
 62
    9
 10
327.26027471830832
 20
105.7470974636567
 40
0.25
 50
180
 51
285.00000000004496
  0
LINE
  8
_1-0_
  6
CONTINUOUS
 62
    9
 10
327.32497947958416
 20
105.50561600708488
 11
329.86027471830846
 21
106.18494631887756
  0
LINE
  8
_1-0_
  6
CONTINUOUS
 62
    9
 10
327.9602747183086
 20
100.44709746365675
 11
327.9602747183086
 21
105.67584285325711
  0
LINE
  8
_1-0_
  6
CONTINUOUS
 62
    9
 10
327.31027471830851
 20
100.44709746365675
 11
327.31027471830851
 21
105.50167587817623
  0
ARC
  8
_1-0_
  6
CONTINUOUS
 62
    9
 10
326.76027471830832
 20
106.89709746365679
 40
0.25
 50
0
 51
105.00000000008929
  0
LINE
  8
_1-0_
  6
CONTINUOUS
 62
    7
 10
329.86027471830846
 20
107.92209746393178
 11
329.86027471830846
 21
107.35168615845282
  0
ARC
  8
_1-0_
  6
CONTINUOUS
 62
    7
 10
327.23815171381659
 20
106.44709746392846
 40
0.1499999999999999
 50
186.49999999999821
 51
288.60829801488677
  0
LINE
  8
_1-0_
  6
CONTINUOUS
 62
    7
 10
304.86027471831369
 20
107.92209746394974
 11
329.86027471830823
 21
107.92209746393178
  0
LINE
  8
_1-0_
  6
CONTINUOUS
 62
    7
 10
326.21149110536328
 20
107.37209746393432
 11
326.46149110536464
 21
107.12209746393273
  0
LINE
  8
_1-0_
  6
CONTINUOUS
 62
    7
 10
329.86027471830323
 20
92.922097463931777
 11
329.86027471830369
 21
93.492508769497817
  0
LINE
  8
_1-0_
  6
CONTINUOUS
 62
    7
 10
304.86027471831915
 20
107.92209746394974
 11
304.86027471830823
 21
92.92209746394974
  0
ARC
  8
_1-0_
  6
CONTINUOUS
 62
    7
 10
327.2381517138125
 20
94.397097463936916
 40
0.1499999999999999
 50
71.383514957199623
 51
173.49999999996072
  0
LINE
  8
_1-0_
  6
CONTINUOUS
 62
    7
 10
304.86027471830823
 20
92.92209746394974
 11
329.86027471830323
 21
92.922097463932005
  0
LINE
  8
_1-0_
  6
CONTINUOUS
 62
    7
 10
314.2402703094557
 20
105.49597660100108
 11
313.8499117472312
 21
106.17209746394155
  0
LINE
  8
_1-0_
  6
CONTINUOUS
 62
    7
 10
314.35509323277108
 20
107.04709746394201
 11
314.86027471831346
 21
107.04709746394246
  0
LINE
  8
_1-0_
  6
CONTINUOUS
 62
    7
 10
313.8499117472312
 20
106.17209746394133
 11
314.35509323277108
 21
107.04709746394201
  0
ARC
  8
_1-0_
  6
CONTINUOUS
 62
    7
 10
313.89580153950703
 20
105.29709746394292
 40
0.3977582741150607
 50
222.2152905445418
 51
30.000000000068439
  0
ARC
  8
_1-0_
  6
CONTINUOUS
 62
    7
 10
314.86027471831324
 20
106.17209746394246
 40
1.7
 50
150.84463457367556
 51
222.2152905445414
  0
LINE
  8
_1-0_
  6
CONTINUOUS
 62
    7
 10
315.48027912717009
 20
105.49597660100039
 11
315.87063768939527
 21
106.17209746394064
  0
LINE
  8
_1-0_
  6
CONTINUOUS
 62
    7
 10
315.36545620385607
 20
107.04709746394155
 11
314.86027471831369
 21
107.04709746394246
  0
LINE
  8
_1-0_
  6
CONTINUOUS
 62
    7
 10
315.87063768939527
 20
106.17209746394064
 11
315.36545620385607
 21
107.04709746394155
  0
ARC
  8
_1-0_
  6
CONTINUOUS
 62
    7
 10
315.82474789711898
 20
105.29709746394224
 40
0.3977582741150607
 50
149.99999999989041
 51
317.7847094554171
  0
ARC
  8
_1-0_
  6
CONTINUOUS
 62
    7
 10
314.86027471831324
 20
106.17209746394246
 40
1.7
 50
317.78470945541761
 51
29.155365426242618
  0
LINE
  8
_1-0_
  6
CONTINUOUS
 62
    7
 10
316.56321335490668
 20
107.37209746394137
 11
326.21149110536328
 21
107.37209746393432
  0
LINE
  8
_1-0_
  6
CONTINUOUS
 62
    7
 10
305.91027471831887
 20
107.37209746394888
 11
313.15733608172138
 21
107.37209746394387
  0
ARC
  8
_1-0_
  6
CONTINUOUS
 62
    7
 10
313.15733608172116
 20
107.12209746394387
 40
0.25
 50
330.84463457367565
 51
89.999999999999943
  0
LINE
  8
_1-0_
  6
CONTINUOUS
 62
    7
 10
314.24027030945047
 20
95.348218326887491
 11
313.84991174722529
 21
94.672097463947239
  0
LINE
  8
_1-0_
  6
CONTINUOUS
 62
    7
 10
314.35509323276403
 20
93.797097463946557
 11
314.86027471830641
 21
93.797097463945192
  0
LINE
  8
_1-0_
  6
CONTINUOUS
 62
    7
 10
313.84991174722529
 20
94.672097463947239
 11
314.35509323276403
 21
93.797097463946329
  0
ARC
  8
_1-0_
  6
CONTINUOUS
 62
    7
 10
313.89580153950158
 20
95.547097463945875
 40
0.3977582741150607
 50
329.99999999987034
 51
137.78470945539698
  0
ARC
  8
_1-0_
  6
CONTINUOUS
 62
    7
 10
314.86027471830687
 20
94.672097463945192
 40
1.7
 50
137.78470945539746
 51
209.15536542626333
  0
LINE
  8
_1-0_
  6
CONTINUOUS
 62
    7
 10
315.48027912716464
 20
95.348218326886808
 11
315.8706376893889
 21
94.672097463946102
  0
LINE
  8
_1-0_
  6
CONTINUOUS
 62
    7
 10
315.36545620384879
 20
93.797097463945647
 11
314.86027471830641
 21
93.79709746394542
  0
LINE
  8
_1-0_
  6
CONTINUOUS
 62
    7
 10
315.87063768938913
 20
94.672097463946102
 11
315.36545620384879
 21
93.797097463945647
  0
ARC
  8
_1-0_
  6
CONTINUOUS
 62
    7
 10
315.82474789711353
 20
95.54709746394451
 40
0.3977582741150607
 50
42.215290544521672
 51
210.00000000004837
  0
ARC
  8
_1-0_
  6
CONTINUOUS
 62
    7
 10
314.86027471830732
 20
94.672097463945192
 40
1.7
 50
330.84463457369634
 51
42.215290544521238
  0
ARC
  8
_1-0_
  6
CONTINUOUS
 62
    7
 10
316.5632133548994
 20
93.722097463944465
 40
0.25
 50
150.84463457369617
 51
269.99999999993878
  0
ARC
  8
_1-0_
  6
CONTINUOUS
 62
    7
 10
313.15733608171388
 20
93.722097463945829
 40
0.25
 50
269.99999999993884
 51
29.155365426263131
  0
LINE
  8
_1-0_
  6
CONTINUOUS
 62
    7
 10
316.56321335489918
 20
93.472097463941282
 11
326.21149110536078
 21
93.47209746393446
  0
LINE
  8
_1-0_
  6
CONTINUOUS
 62
    7
 10
305.91027471830887
 20
93.472097463949012
 11
313.15733608171388
 21
93.472097463943783
  0
LINE
  8
_1-0_
  6
CONTINUOUS
 62
    7
 10
305.41027471831842
 20
106.87209746394933
 11
305.4102747183091
 21
93.97209746394924
  0
ARC
  8
_1-0_
  6
CONTINUOUS
 62
    7
 10
305.91027471831842
 20
106.87209746394888
 40
0.5
 50
90
 51
180
  0
ARC
  8
_1-0_
  6
CONTINUOUS
 62
    7
 10
305.91027471830932
 20
93.972097463949012
 40
0.5
 50
180
 51
270
  0
LINE
  8
_1-0_
  6
CONTINUOUS
 62
    7
 10
327.28603651177002
 20
94.539248953990864
 11
329.6900827148994
 21
93.729427919588034
  0
ARC
  8
_1-0_
  6
CONTINUOUS
 62
    7
 10
329.61027471830346
 20
93.492508769498045
 40
0.25
 50
0
 51
71.383514957200816
  0
LINE
  8
_1-0_
  6
CONTINUOUS
 62
    7
 10
327.2860365117632
 20
106.3049459739575
 11
329.69008271489167
 21
107.11476700836306
  0
ARC
  8
_1-0_
  6
CONTINUOUS
 62
    7
 10
329.61027471829595
 20
107.35168615845282
 40
0.25
 50
288.61648504286279
 51
0.0000000000000254
  0
LINE
  8
_1-0_
  6
CONTINUOUS
 62
    7
 10
326.21149110536078
 20
93.47209746393446
 11
326.46149110535964
 21
93.722097463932869
  0
LINE
  8
_1-0_
  6
CONTINUOUS
 62
    7
 10
326.46149110535964
 20
93.722097463933096
 11
327.01027471830287
 21
93.722097463932869
  0
LINE
  8
_1-0_
  6
CONTINUOUS
 62
    7
 10
327.08911593546111
 20
94.41407794600218
 11
327.01027471830309
 21
93.722097463932641
  0
LINE
  8
_1-0_
  6
CONTINUOUS
 62
    7
 10
327.0891159354652
 20
106.43011698186319
 11
327.01027471830787
 21
107.12209746393273
  0
LINE
  8
_1-0_
  6
CONTINUOUS
 62
    7
 10
326.46149110536464
 20
107.12209746393319
 11
327.01027471830787
 21
107.12209746393296
  0
POINT
  8
_1-0_
 62
    4
 10
298.14272172673066
 20
92.92209746394974
  0
LINE
  8
_1-0_
  6
CONTINUOUS
 62
    4
 10
298.14272172673066
 20
92.92209746394974
 11
303.30935452145388
 21
92.92209746394974
  0
LINE
  8
_1-0_
  6
CONTINUOUS
 62
    4
 10
298.14272172673066
 20
92.92209746394974
 11
298.14272172673066
 21
107.92209746394974
  0
POINT
  8
_1-0_
 62
    4
 10
298.14272172673066
 20
107.92209746394974
  0
LINE
  8
_1-0_
  6
CONTINUOUS
 62
    4
 10
298.14272172673066
 20
107.92209746394974
 11
303.30935452145388
 21
107.92209746394974
  0
LINE
  8
_1-0_
  6
CONTINUOUS
 62
    7
 10
329.86027471830846
 20
148.66362508117822
 11
329.86027676969945
 21
143.68494631887847
  0
ARC
  8
_1-0_
  6
CONTINUOUS
 62
    7
 10
316.56321335490668
 20
144.62209746394137
 40
0.25
 50
90
 51
209.1553654262427
  0
LINE
  8
_1-0_
  6
CONTINUOUS
 62
    7
 10
329.86027471830846
 20
145.43459746393182
 11
329.86027471830846
 21
144.86418615845287
  0
LINE
  8
_1-0_
  6
CONTINUOUS
 62
    7
 10
329.86027471830323
 20
130.43459746393182
 11
329.86027471830346
 21
131.00500876949786
  0
LINE
  8
_1-0_
  6
CONTINUOUS
 62
    9
 10
322.11027471830846
 20
132.4592421633663
 11
322.11027471830846
 21
137.94709746365675
  0
LINE
  8
_1-0_
  6
CONTINUOUS
 62
    9
 10
327.01027471830832
 20
132.62209746365693
 11
327.01027471830832
 21
131.47209746365684
  0
ARC
  8
_1-0_
  6
CONTINUOUS
 62
    9
 10
326.76027471830832
 20
131.47209746365684
 40
0.25
 50
254.9999999999107
 51
0
  0
LINE
  8
_1-0_
  6
CONTINUOUS
 62
    9
 10
322.11027471830846
 20
132.4592421633663
 11
326.69556995703272
 21
131.23061600708456
  0
ARC
  8
_1-0_
  6
CONTINUOUS
 62
    9
 10
327.26027471830832
 20
132.62209746365693
 40
0.25
 50
74.99999999995498
 51
180
  0
LINE
  8
_1-0_
  6
CONTINUOUS
 62
    9
 10
327.32497947958439
 20
132.86357892022875
 11
329.86027471830869
 21
132.18424860843584
  0
LINE
  8
_1-0_
  6
CONTINUOUS
 62
    9
 10
327.9602747183086
 20
137.94709746365675
 11
327.9602747183086
 21
132.69335207405652
  0
LINE
  8
_1-0_
  6
CONTINUOUS
 62
    9
 10
327.31027471830851
 20
137.94709746365675
 11
327.31027471830851
 21
132.8675190491374
  0
LINE
  8
_1-0_
  6
CONTINUOUS
 62
    9
 10
322.11027471830846
 20
143.40995276394733
 11
322.11027471830846
 21
137.94709746365675
  0
LINE
  8
_1-0_
  6
CONTINUOUS
 62
    9
 10
327.01027471830832
 20
143.2470974636567
 11
327.01027471830832
 21
144.39709746365679
  0
LINE
  8
_1-0_
  6
CONTINUOUS
 62
    9
 10
322.11027471830846
 20
143.4099527639471
 11
326.69556995703272
 21
144.63857892022884
  0
ARC
  8
_1-0_
  6
CONTINUOUS
 62
    9
 10
327.26027471830832
 20
143.2470974636567
 40
0.25
 50
180
 51
285.00000000004496
  0
LINE
  8
_1-0_
  6
CONTINUOUS
 62
    9
 10
327.32497947958416
 20
143.00561600708488
 11
329.86027471830846
 21
143.68494631887756
  0
LINE
  8
_1-0_
  6
CONTINUOUS
 62
    9
 10
327.9602747183086
 20
137.94709746365675
 11
327.9602747183086
 21
143.17584285325711
  0
LINE
  8
_1-0_
  6
CONTINUOUS
 62
    9
 10
327.31027471830851
 20
137.94709746365675
 11
327.31027471830851
 21
143.00167587817623
  0
ARC
  8
_1-0_
  6
CONTINUOUS
 62
    9
 10
326.76027471830832
 20
144.39709746365679
 40
0.25
 50
0
 51
105.00000000008929
  0
LINE
  8
_1-0_
  6
CONTINUOUS
 62
    7
 10
329.86027471830846
 20
145.42209746393178
 11
329.86027471830846
 21
144.85168615845282
  0
ARC
  8
_1-0_
  6
CONTINUOUS
 62
    7
 10
327.23815171381659
 20
143.94709746392846
 40
0.1499999999999999
 50
186.49999999999821
 51
288.60829801488677
  0
LINE
  8
_1-0_
  6
CONTINUOUS
 62
    7
 10
304.86027471831369
 20
145.42209746394974
 11
329.86027471830823
 21
145.42209746393178
  0
LINE
  8
_1-0_
  6
CONTINUOUS
 62
    7
 10
326.21149110536328
 20
144.87209746393432
 11
326.46149110536464
 21
144.62209746393273
  0
LINE
  8
_1-0_
  6
CONTINUOUS
 62
    7
 10
329.86027471830323
 20
130.42209746393178
 11
329.86027471830369
 21
130.99250876949782
  0
LINE
  8
_1-0_
  6
CONTINUOUS
 62
    7
 10
304.86027471831915
 20
145.42209746394974
 11
304.86027471830823
 21
130.42209746394974
  0
ARC
  8
_1-0_
  6
CONTINUOUS
 62
    7
 10
327.2381517138125
 20
131.89709746393692
 40
0.1499999999999999
 50
71.383514957199623
 51
173.49999999996072
  0
LINE
  8
_1-0_
  6
CONTINUOUS
 62
    7
 10
304.86027471830823
 20
130.42209746394974
 11
329.86027471830323
 21
130.422097463932
  0
LINE
  8
_1-0_
  6
CONTINUOUS
 62
    7
 10
314.2402703094557
 20
142.99597660100108
 11
313.8499117472312
 21
143.67209746394155
  0
LINE
  8
_1-0_
  6
CONTINUOUS
 62
    7
 10
314.35509323277108
 20
144.54709746394201
 11
314.86027471831346
 21
144.54709746394246
  0
LINE
  8
_1-0_
  6
CONTINUOUS
 62
    7
 10
313.8499117472312
 20
143.67209746394133
 11
314.35509323277108
 21
144.54709746394201
  0
ARC
  8
_1-0_
  6
CONTINUOUS
 62
    7
 10
313.89580153950703
 20
142.79709746394292
 40
0.3977582741150607
 50
222.2152905445418
 51
30.000000000068439
  0
ARC
  8
_1-0_
  6
CONTINUOUS
 62
    7
 10
314.86027471831324
 20
143.67209746394246
 40
1.7
 50
150.84463457367556
 51
222.2152905445414
  0
LINE
  8
_1-0_
  6
CONTINUOUS
 62
    7
 10
315.48027912717009
 20
142.99597660100039
 11
315.87063768939527
 21
143.67209746394064
  0
LINE
  8
_1-0_
  6
CONTINUOUS
 62
    7
 10
315.36545620385607
 20
144.54709746394155
 11
314.86027471831369
 21
144.54709746394246
  0
LINE
  8
_1-0_
  6
CONTINUOUS
 62
    7
 10
315.87063768939527
 20
143.67209746394064
 11
315.36545620385607
 21
144.54709746394155
  0
ARC
  8
_1-0_
  6
CONTINUOUS
 62
    7
 10
315.82474789711898
 20
142.79709746394224
 40
0.3977582741150607
 50
149.99999999989041
 51
317.7847094554171
  0
ARC
  8
_1-0_
  6
CONTINUOUS
 62
    7
 10
314.86027471831324
 20
143.67209746394246
 40
1.7
 50
317.78470945541761
 51
29.155365426242618
  0
LINE
  8
_1-0_
  6
CONTINUOUS
 62
    7
 10
316.56321335490668
 20
144.87209746394137
 11
326.21149110536328
 21
144.87209746393432
  0
LINE
  8
_1-0_
  6
CONTINUOUS
 62
    7
 10
305.91027471831887
 20
144.87209746394888
 11
313.15733608172138
 21
144.87209746394387
  0
ARC
  8
_1-0_
  6
CONTINUOUS
 62
    7
 10
313.15733608172116
 20
144.62209746394387
 40
0.25
 50
330.84463457367565
 51
89.999999999999943
  0
LINE
  8
_1-0_
  6
CONTINUOUS
 62
    7
 10
314.24027030945047
 20
132.84821832688749
 11
313.84991174722529
 21
132.17209746394724
  0
LINE
  8
_1-0_
  6
CONTINUOUS
 62
    7
 10
314.35509323276403
 20
131.29709746394656
 11
314.86027471830641
 21
131.29709746394519
  0
LINE
  8
_1-0_
  6
CONTINUOUS
 62
    7
 10
313.84991174722529
 20
132.17209746394724
 11
314.35509323276403
 21
131.29709746394633
  0
ARC
  8
_1-0_
  6
CONTINUOUS
 62
    7
 10
313.89580153950158
 20
133.04709746394587
 40
0.3977582741150607
 50
329.99999999987034
 51
137.78470945539698
  0
ARC
  8
_1-0_
  6
CONTINUOUS
 62
    7
 10
314.86027471830687
 20
132.17209746394519
 40
1.7
 50
137.78470945539746
 51
209.15536542626333
  0
LINE
  8
_1-0_
  6
CONTINUOUS
 62
    7
 10
315.48027912716464
 20
132.84821832688681
 11
315.8706376893889
 21
132.1720974639461
  0
LINE
  8
_1-0_
  6
CONTINUOUS
 62
    7
 10
315.36545620384879
 20
131.29709746394565
 11
314.86027471830641
 21
131.29709746394542
  0
LINE
  8
_1-0_
  6
CONTINUOUS
 62
    7
 10
315.87063768938913
 20
132.1720974639461
 11
315.36545620384879
 21
131.29709746394565
  0
ARC
  8
_1-0_
  6
CONTINUOUS
 62
    7
 10
315.82474789711353
 20
133.04709746394451
 40
0.3977582741150607
 50
42.215290544521672
 51
210.00000000004837
  0
ARC
  8
_1-0_
  6
CONTINUOUS
 62
    7
 10
314.86027471830732
 20
132.17209746394519
 40
1.7
 50
330.84463457369634
 51
42.215290544521238
  0
ARC
  8
_1-0_
  6
CONTINUOUS
 62
    7
 10
316.5632133548994
 20
131.22209746394446
 40
0.25
 50
150.84463457369617
 51
269.99999999993878
  0
ARC
  8
_1-0_
  6
CONTINUOUS
 62
    7
 10
313.15733608171388
 20
131.22209746394583
 40
0.25
 50
269.99999999993884
 51
29.155365426263131
  0
LINE
  8
_1-0_
  6
CONTINUOUS
 62
    7
 10
316.56321335489918
 20
130.97209746394128
 11
326.21149110536078
 21
130.97209746393446
  0
LINE
  8
_1-0_
  6
CONTINUOUS
 62
    7
 10
305.91027471830887
 20
130.97209746394901
 11
313.15733608171388
 21
130.97209746394378
  0
LINE
  8
_1-0_
  6
CONTINUOUS
 62
    7
 10
305.41027471831842
 20
144.37209746394933
 11
305.4102747183091
 21
131.47209746394924
  0
ARC
  8
_1-0_
  6
CONTINUOUS
 62
    7
 10
305.91027471831842
 20
144.37209746394888
 40
0.5
 50
90
 51
180
  0
ARC
  8
_1-0_
  6
CONTINUOUS
 62
    7
 10
305.91027471830932
 20
131.47209746394901
 40
0.5
 50
180
 51
270
  0
LINE
  8
_1-0_
  6
CONTINUOUS
 62
    7
 10
327.28603651177002
 20
132.03924895399086
 11
329.6900827148994
 21
131.22942791958803
  0
ARC
  8
_1-0_
  6
CONTINUOUS
 62
    7
 10
329.61027471830346
 20
130.99250876949804
 40
0.25
 50
0
 51
71.383514957200816
  0
LINE
  8
_1-0_
  6
CONTINUOUS
 62
    7
 10
327.2860365117632
 20
143.8049459739575
 11
329.69008271489167
 21
144.61476700836306
  0
ARC
  8
_1-0_
  6
CONTINUOUS
 62
    7
 10
329.61027471829595
 20
144.85168615845282
 40
0.25
 50
288.61648504286279
 51
0.0000000000000254
  0
LINE
  8
_1-0_
  6
CONTINUOUS
 62
    7
 10
326.21149110536078
 20
130.97209746393446
 11
326.46149110535964
 21
131.22209746393287
  0
LINE
  8
_1-0_
  6
CONTINUOUS
 62
    7
 10
326.46149110535964
 20
131.2220974639331
 11
327.01027471830287
 21
131.22209746393287
  0
LINE
  8
_1-0_
  6
CONTINUOUS
 62
    7
 10
327.08911593546111
 20
131.91407794600218
 11
327.01027471830309
 21
131.22209746393264
  0
LINE
  8
_1-0_
  6
CONTINUOUS
 62
    7
 10
327.0891159354652
 20
143.93011698186319
 11
327.01027471830787
 21
144.62209746393273
  0
LINE
  8
_1-0_
  6
CONTINUOUS
 62
    7
 10
326.46149110536464
 20
144.62209746393319
 11
327.01027471830787
 21
144.62209746393296
  0
POINT
  8
_1-0_
 62
    4
 10
298.14272172673066
 20
130.42209746394974
  0
LINE
  8
_1-0_
  6
CONTINUOUS
 62
    4
 10
298.14272172673066
 20
130.42209746394974
 11
303.30935452145388
 21
130.42209746394974
  0
POINT
  8
_1-0_
 62
    4
 10
298.14272172673066
 20
145.42209746394974
  0
LINE
  8
_1-0_
  6
CONTINUOUS
 62
    4
 10
298.14272172673066
 20
145.42209746394974
 11
303.30935452145388
 21
145.42209746394974
  0
LINE
  8
_1-0_
  6
CONTINUOUS
 62
    7
 10
298.14272172673066
 20
130.42209746394974
 11
298.14272172673066
 21
145.42209746394974
  0
LINE
  8
_1-0_
  6
CONTINUOUS
 62
    7
 10
331.02580190151286
 20
167.51611623367535
 11
353.68647417612522
 21
167.51611623367535
  0
LINE
  8
_1-0_
  6
CONTINUOUS
 62
    3
 10
352.11039071830703
 20
120.78647979048583
 11
395.11039071830703
 21
120.78647979048583
  0
ARC
  8
_1-0_
  6
CONTINUOUS
 62
    3
 10
395.11039071830703
 20
118.28647979048583
 40
2.5
 50
0
 51
90
  0
ARC
  8
_1-0_
  6
CONTINUOUS
 62
    3
 10
352.11039071830703
 20
118.28647979048583
 40
2.5
 50
90
 51
180
  0
LINE
  8
_1-0_
  6
CONTINUOUS
 62
    3
 10
358.61039071830703
 20
96.786479790485828
 11
358.61039071830703
 21
97.786479790485828
  0
LINE
  8
_1-0_
  6
CONTINUOUS
 62
    3
 10
358.61039071830703
 20
96.786479790485828
 11
352.11039071830703
 21
96.786479790485828
  0
LINE
  8
_1-0_
  6
CONTINUOUS
 62
    3
 10
348.61039071830703
 20
118.28647979048583
 11
348.61039071830703
 21
100.28647979048583
  0
ARC
  8
_1-0_
  6
CONTINUOUS
 62
    3
 10
352.11039071830703
 20
100.28647979048583
 40
3.5
 50
180
 51
270
  0
ARC
  8
_1-0_
  6
CONTINUOUS
 62
    3
 10
395.11039071830703
 20
118.28647979048583
 40
3.5
 50
0
 51
90
  0
LINE
  8
_1-0_
  6
CONTINUOUS
 62
    3
 10
398.61039071830703
 20
118.28647979048583
 11
398.61039071830703
 21
100.28647979048583
  0
ARC
  8
_1-0_
  6
CONTINUOUS
 62
    3
 10
395.11039071830703
 20
100.28647979048583
 40
3.5
 50
270
 51
0
  0
LINE
  8
_1-0_
  6
CONTINUOUS
 62
    3
 10
388.61039071830703
 20
96.786479790485828
 11
395.11039071830703
 21
96.786479790485828
  0
LINE
  8
_1-0_
  6
CONTINUOUS
 62
    3
 10
388.61039071830703
 20
97.786479790485828
 11
388.61039071830703
 21
96.786479790485828
  0
LINE
  8
_1-0_
  6
CONTINUOUS
 62
    3
 10
388.61039071830703
 20
97.786479790485828
 11
395.11039071830703
 21
97.786479790485828
  0
ARC
  8
_1-0_
  6
CONTINUOUS
 62
    3
 10
395.11039071830703
 20
100.28647979048583
 40
2.5
 50
270
 51
0
  0
LINE
  8
_1-0_
  6
CONTINUOUS
 62
    3
 10
397.61039071830703
 20
100.28647979048583
 11
397.61039071830703
 21
118.28647979048583
  0
LINE
  8
_1-0_
  6
CONTINUOUS
 62
    3
 10
349.61039071830703
 20
118.28647979048583
 11
349.61039071830703
 21
100.28647979048583
  0
ARC
  8
_1-0_
  6
CONTINUOUS
 62
    3
 10
352.11039071830703
 20
100.28647979048583
 40
2.5
 50
180
 51
270
  0
LINE
  8
_1-0_
  6
CONTINUOUS
 62
    3
 10
358.61039071830703
 20
97.786479790485828
 11
352.11039071830703
 21
97.786479790485828
  0
ARC
  8
_1-0_
  6
CONTINUOUS
 62
    3
 10
352.11039071830703
 20
118.28647979048583
 40
3.5
 50
90
 51
180
  0
LINE
  8
_1-0_
  6
CONTINUOUS
 62
    3
 10
352.11039071830703
 20
121.78647979048583
 11
395.11039071830703
 21
121.78647979048583
  0
LINE
  8
_1-0_
  6
CONTINUOUS
 62
    3
 10
403.61039071830703
 20
121.78647979048583
 11
395.11039071830703
 21
121.78647979048583
  0
ARC
  8
_1-0_
  6
CONTINUOUS
 62
    3
 10
380.11039071830703
 20
122.28647979048583
 40
1.5
 50
90
 51
180
  0
LINE
  8
_1-0_
  6
CONTINUOUS
 62
    3
 10
378.61039071830703
 20
121.78647979048583
 11
378.61039071830703
 21
122.28647979048583
  0
ARC
  8
_1-0_
  6
CONTINUOUS
 62
    3
 10
403.11039071830703
 20
145.28647979048583
 40
1.5
 50
90
 51
180
  0
LINE
  8
_1-0_
  6
CONTINUOUS
 62
    3
 10
401.61039071830703
 20
127.03647979048583
 11
401.61039071830703
 21
145.28647979048583
  0
LINE
  8
_1-0_
  6
CONTINUOUS
 62
    3
 10
398.36039071830703
 20
123.78647979048583
 11
380.11039071830703
 21
123.78647979048583
  0
ARC
  8
_1-0_
  6
CONTINUOUS
 62
    3
 10
398.36039071830703
 20
127.03647979048583
 40
3.25
 50
270
 51
0
  0
LINE
  8
_1-0_
  6
CONTINUOUS
 62
    3
 10
403.61039071830703
 20
146.78647979048583
 11
403.11039071830703
 21
146.78647979048583
  0
LINE
  8
_1-0_
  6
CONTINUOUS
 62
    3
 10
352.84005771830687
 20
110.22397979048583
 11
353.54318271830687
 21
108.34897979048583
  0
LINE
  8
_1-0_
  6
CONTINUOUS
 62
    3
 10
352.52261971830706
 20
110.53647979048583
 11
352.84005771830687
 21
110.22397979048583
  0
LINE
  8
_1-0_
  6
CONTINUOUS
 62
    3
 10
352.4395577183069
 20
110.22397979048583
 11
352.52261971830706
 21
110.53647979048583
  0
LINE
  8
_1-0_
  6
CONTINUOUS
 62
    3
 10
353.1426827183069
 20
108.34897979048583
 11
352.4395577183069
 21
110.22397979048583
  0
LINE
  8
_1-0_
  6

 62
    3
 10
343.96011971830706
 20
107.20015479048584
 11
343.46011971830706
 21
106.91147979048583
  0
LINE
  8
_1-0_
  6

 62
    3
 10
343.46011971830706
 20
111.66147979048583
 11
343.96011971830706
 21
111.37280479048582
  0
LINE
  8
_1-0_
  6
CONTINUOUS
 62
    3
 10
356.46011971830683
 20
109.28647979048583
 11
353.46011971830706
 21
110.22397979048583
  0
LINE
  8
_1-0_
  6
CONTINUOUS
 62
    3
 10
355.52261971830683
 20
110.22397979048583
 11
353.46011971830706
 21
110.22397979048583
  0
LINE
  8
_1-0_
  6
CONTINUOUS
 62
    3
 10
355.52261971830683
 20
108.34897979048583
 11
353.54318271830687
 21
108.34897979048583
  0
LINE
  8
_1-0_
  6
CONTINUOUS
 62
    3
 10
356.46011971830683
 20
109.28647979048583
 11
355.52261971830683
 21
110.22397979048583
  0
LINE
  8
_1-0_
  6
CONTINUOUS
 62
    3
 10
355.52261971830683
 20
108.34897979048583
 11
356.46011971830683
 21
109.28647979048583
  0
LINE
  8
_1-0_
  6
CONTINUOUS
 62
    3
 10
355.52261971830683
 20
108.34897979048583
 11
355.52261971830683
 21
109.5794477904858
  0
LINE
  8
_1-0_
  6
CONTINUOUS
 62
    3
 10
353.46011971830706
 20
110.53647979048583
 11
353.1426827183069
 21
110.22397979048583
  0
LINE
  8
_1-0_
  6
CONTINUOUS
 62
    3
 10
353.54318271830687
 20
110.22397979048583
 11
353.46011971830706
 21
110.53647979048583
  0
LINE
  8
_1-0_
  6
CONTINUOUS
 62
    3
 10
352.52261971830706
 20
108.03647979048583
 11
352.2051827183069
 21
108.34897979048583
  0
LINE
  8
_1-0_
  6
CONTINUOUS
 62
    3
 10
352.60568271830687
 20
108.34897979048583
 11
352.52261971830706
 21
108.03647979048583
  0
LINE
  8
_1-0_
  6
CONTINUOUS
 62
    3
 10
353.1426827183069
 20
108.34897979048583
 11
352.60568271830687
 21
108.34897979048583
  0
LINE
  8
_1-0_
  6
CONTINUOUS
 62
    3
 10
352.84005771830687
 20
110.22397979048583
 11
353.46011971830706
 21
110.22397979048583
  0
LINE
  8
_1-0_
  6
CONTINUOUS
 62
    3
 10
351.90255771830687
 20
110.22397979048583
 11
352.4395577183069
 21
110.22397979048583
  0
LINE
  8
_1-0_
  6
CONTINUOUS
 62
    3
 10
350.02755771830687
 20
110.22397979048583
 11
350.5645577183069
 21
110.22397979048583
  0
LINE
  8
_1-0_
  6
CONTINUOUS
 62
    3
 10
351.2676827183069
 20
108.34897979048583
 11
350.73068271830687
 21
108.34897979048583
  0
LINE
  8
_1-0_
  6
CONTINUOUS
 62
    3
 10
350.96505771830687
 20
110.22397979048583
 11
351.5020577183069
 21
110.22397979048583
  0
LINE
  8
_1-0_
  6
CONTINUOUS
 62
    3
 10
351.66818271830687
 20
108.34897979048583
 11
352.2051827183069
 21
108.34897979048583
  0
LINE
  8
_1-0_
  6

 62
    3
 10
343.46011971830706
 20
106.91147979048583
 11
343.46011971830706
 21
111.66147979048583
  0
LINE
  8
_1-0_
  6
CONTINUOUS
 62
    3
 10
351.58511971830706
 20
108.03647979048583
 11
351.2676827183069
 21
108.34897979048583
  0
LINE
  8
_1-0_
  6
CONTINUOUS
 62
    3
 10
351.66818271830687
 20
108.34897979048583
 11
351.58511971830706
 21
108.03647979048583
  0
LINE
  8
_1-0_
  6
CONTINUOUS
 62
    3
 10
353.46011971830706
 20
108.03647979048583
 11
353.1426827183069
 21
108.34897979048583
  0
LINE
  8
_1-0_
  6
CONTINUOUS
 62
    3
 10
353.54318271830687
 20
108.34897979048583
 11
353.46011971830706
 21
108.03647979048583
  0
LINE
  8
_1-0_
  6

 62
    3
 10
342.85869971830687
 20
107.13037879048579
 11
343.46011971830706
 21
106.91147979048583
  0
LINE
  8
_1-0_
  6

 62
    3
 10
342.85869971830687
 20
111.44258079048564
 11
343.46011971830706
 21
111.66147979048583
  0
LINE
  8
_1-0_
  6
CONTINUOUS
 62
    3
 10
349.79318271830687
 20
108.34897979048583
 11
349.61039071830703
 21
108.83642279048581
  0
LINE
  8
_1-0_
  6
CONTINUOUS
 62
    3
 10
349.71011971830706
 20
108.03647979048583
 11
349.61039071830703
 21
108.13465679048568
  0
LINE
  8
_1-0_
  6

 62
    3
 10
346.89761971830706
 20
108.03647979048583
 11
346.5801827183069
 21
108.34897979048583
  0
LINE
  8
_1-0_
  6

 62
    3
 10
346.98068271830687
 20
108.34897979048583
 11
346.89761971830706
 21
108.03647979048583
  0
LINE
  8
_1-0_
  6

 62
    3
 10
346.27755771830687
 20
110.22397979048583
 11
346.98068271830687
 21
108.34897979048583
  0
LINE
  8
_1-0_
  6

 62
    3
 10
345.96011971830706
 20
110.53647979048583
 11
346.27755771830687
 21
110.22397979048583
  0
LINE
  8
_1-0_
  6

 62
    3
 10
345.8770577183069
 20
110.22397979048583
 11
345.96011971830706
 21
110.53647979048583
  0
LINE
  8
_1-0_
  6

 62
    3
 10
346.5801827183069
 20
108.34897979048583
 11
345.8770577183069
 21
110.22397979048583
  0
LINE
  8
_1-0_
  6

 62
    3
 10
348.4551827183069
 20
108.34897979048583
 11
347.91818271830687
 21
108.34897979048583
  0
LINE
  8
_1-0_
  6

 62
    3
 10
347.83511971830706
 20
108.03647979048583
 11
347.5176827183069
 21
108.34897979048583
  0
LINE
  8
_1-0_
  6

 62
    3
 10
347.91818271830687
 20
108.34897979048583
 11
347.83511971830706
 21
108.03647979048583
  0
LINE
  8
_1-0_
  6

 62
    3
 10
347.21505771830687
 20
110.22397979048583
 11
347.91818271830687
 21
108.34897979048583
  0
LINE
  8
_1-0_
  6

 62
    3
 10
346.89761971830706
 20
110.53647979048583
 11
347.21505771830687
 21
110.22397979048583
  0
LINE
  8
_1-0_
  6

 62
    3
 10
346.8145577183069
 20
110.22397979048583
 11
346.89761971830706
 21
110.53647979048583
  0
LINE
  8
_1-0_
  6

 62
    3
 10
347.5176827183069
 20
108.34897979048583
 11
346.8145577183069
 21
110.22397979048583
  0
LINE
  8
_1-0_
  6

 62
    3
 10
349.3926827183069
 20
108.34897979048583
 11
348.85568271830687
 21
108.34897979048583
  0
LINE
  8
_1-0_
  6

 62
    3
 10
348.77261971830706
 20
108.03647979048583
 11
348.4551827183069
 21
108.34897979048583
  0
LINE
  8
_1-0_
  6

 62
    3
 10
348.85568271830687
 20
108.34897979048583
 11
348.77261971830706
 21
108.03647979048583
  0
LINE
  8
_1-0_
  6

 62
    3
 10
348.15255771830687
 20
110.22397979048583
 11
348.85568271830687
 21
108.34897979048583
  0
LINE
  8
_1-0_
  6

 62
    3
 10
347.83511971830706
 20
110.53647979048583
 11
348.15255771830687
 21
110.22397979048583
  0
LINE
  8
_1-0_
  6

 62
    3
 10
347.7520577183069
 20
110.22397979048583
 11
347.83511971830706
 21
110.53647979048583
  0
LINE
  8
_1-0_
  6

 62
    3
 10
348.4551827183069
 20
108.34897979048583
 11
347.7520577183069
 21
110.22397979048583
  0
LINE
  8
_1-0_
  6
CONTINUOUS
 62
    3
 10
349.79318271830687
 20
108.34897979048583
 11
349.71011971830706
 21
108.03647979048583
  0
LINE
  8
_1-0_
  6

 62
    3
 10
349.3926827183069
 20
108.34897979048583
 11
349.61039071830703
 21
108.13465679048568
  0
LINE
  8
_1-0_
  6

 62
    3
 10
349.09005771830687
 20
110.22397979048583
 11
349.61039071830703
 21
108.83642279048581
  0
LINE
  8
_1-0_
  6

 62
    3
 10
348.77261971830706
 20
110.53647979048583
 11
349.09005771830687
 21
110.22397979048583
  0
LINE
  8
_1-0_
  6

 62
    3
 10
348.6895577183069
 20
110.22397979048583
 11
348.77261971830706
 21
110.53647979048583
  0
LINE
  8
_1-0_
  6

 62
    3
 10
349.3926827183069
 20
108.34897979048583
 11
348.6895577183069
 21
110.22397979048583
  0
LINE
  8
_1-0_
  6
CONTINUOUS
 62
    3
 10
350.73068271830687
 20
108.34897979048583
 11
350.64761971830706
 21
108.03647979048583
  0
LINE
  8
_1-0_
  6
CONTINUOUS
 62
    3
 10
350.02755771830687
 20
110.22397979048583
 11
350.73068271830687
 21
108.34897979048583
  0
LINE
  8
_1-0_
  6
CONTINUOUS
 62
    3
 10
349.71011971830706
 20
110.53647979048583
 11
350.02755771830687
 21
110.22397979048583
  0
LINE
  8
_1-0_
  6
CONTINUOUS
 62
    3
 10
349.6270577183069
 20
110.22397979048583
 11
349.71011971830706
 21
110.53647979048583
  0
LINE
  8
_1-0_
  6
CONTINUOUS
 62
    3
 10
350.3301827183069
 20
108.34897979048583
 11
349.79318271830687
 21
108.34897979048583
  0
LINE
  8
_1-0_
  6

 62
    3
 10
349.09005771830687
 20
110.22397979048583
 11
349.6270577183069
 21
110.22397979048583
  0
LINE
  8
_1-0_
  6
CONTINUOUS
 62
    3
 10
350.64761971830706
 20
108.03647979048583
 11
350.3301827183069
 21
108.34897979048583
  0
LINE
  8
_1-0_
  6
CONTINUOUS
 62
    3
 10
350.3301827183069
 20
108.34897979048583
 11
349.6270577183069
 21
110.22397979048583
  0
LINE
  8
_1-0_
  6

 62
    3
 10
345.34005771830687
 20
108.34897979048583
 11
345.6426827183069
 21
108.34897979048583
  0
LINE
  8
_1-0_
  6

 62
    3
 10
348.15255771830687
 20
110.22397979048583
 11
348.6895577183069
 21
110.22397979048583
  0
LINE
  8
_1-0_
  6

 62
    3
 10
347.21505771830687
 20
110.22397979048583
 11
347.7520577183069
 21
110.22397979048583
  0
LINE
  8
_1-0_
  6

 62
    3
 10
346.27755771830687
 20
110.22397979048583
 11
346.8145577183069
 21
110.22397979048583
  0
LINE
  8
_1-0_
  6

 62
    3
 10
345.34005771830687
 20
110.22397979048583
 11
345.8770577183069
 21
110.22397979048583
  0
LINE
  8
_1-0_
  6

 62
    3
 10
343.96011971830706
 20
110.22397979048583
 11
344.9395577183069
 21
110.22397979048583
  0
LINE
  8
_1-0_
  6

 62
    3
 10
343.96011971830706
 20
108.34897979048583
 11
344.9395577183069
 21
108.34897979048583
  0
ARC
  8
_1-0_
  6

 62
    3
 10
347.27142571830689
 20
109.28647979048583
 40
4.9113059999999997
 50
153.95941400000001
 51
206.04058599999999
  0
LINE
  8
_1-0_
  6
CONTINUOUS
 62
    3
 10
353.46011971830706
 20
110.22397979048583
 11
353.46011971830706
 21
108.57047979048571
  0
LINE
  8
_1-0_
  6
CONTINUOUS
 62
    3
 10
351.90255771830687
 20
110.22397979048583
 11
352.60568271830687
 21
108.34897979048583
  0
LINE
  8
_1-0_
  6
CONTINUOUS
 62
    3
 10
351.58511971830706
 20
110.53647979048583
 11
351.90255771830687
 21
110.22397979048583
  0
LINE
  8
_1-0_
  6
CONTINUOUS
 62
    3
 10
351.5020577183069
 20
110.22397979048583
 11
351.58511971830706
 21
110.53647979048583
  0
LINE
  8
_1-0_
  6
CONTINUOUS
 62
    3
 10
352.2051827183069
 20
108.34897979048583
 11
351.5020577183069
 21
110.22397979048583
  0
LINE
  8
_1-0_
  6
CONTINUOUS
 62
    3
 10
350.96505771830687
 20
110.22397979048583
 11
351.66818271830687
 21
108.34897979048583
  0
LINE
  8
_1-0_
  6
CONTINUOUS
 62
    3
 10
350.64761971830706
 20
110.53647979048583
 11
350.96505771830687
 21
110.22397979048583
  0
LINE
  8
_1-0_
  6
CONTINUOUS
 62
    3
 10
350.5645577183069
 20
110.22397979048583
 11
350.64761971830706
 21
110.53647979048583
  0
LINE
  8
_1-0_
  6
CONTINUOUS
 62
    3
 10
351.2676827183069
 20
108.34897979048583
 11
350.5645577183069
 21
110.22397979048583
  0
LINE
  8
_1-0_
  6

 62
    3
 10
345.25699471830706
 20
108.03647979048583
 11
344.9395577183069
 21
108.34897979048583
  0
LINE
  8
_1-0_
  6

 62
    3
 10
345.34005771830687
 20
108.34897979048583
 11
345.25699471830706
 21
108.03647979048583
  0
LINE
  8
_1-0_
  6

 62
    3
 10
344.9395577183069
 20
108.34897979048583
 11
344.9395577183069
 21
110.22397979048583
  0
LINE
  8
_1-0_
  6

 62
    3
 10
346.5801827183069
 20
108.34897979048583
 11
346.04318271830687
 21
108.34897979048583
  0
LINE
  8
_1-0_
  6

 62
    3
 10
345.96011971830706
 20
108.03647979048583
 11
345.6426827183069
 21
108.34897979048583
  0
LINE
  8
_1-0_
  6

 62
    3
 10
346.04318271830687
 20
108.34897979048583
 11
345.96011971830706
 21
108.03647979048583
  0
LINE
  8
_1-0_
  6

 62
    3
 10
345.34005771830687
 20
110.22397979048583
 11
346.04318271830687
 21
108.34897979048583
  0
LINE
  8
_1-0_
  6

 62
    3
 10
345.02261971830706
 20
110.53647979048583
 11
345.34005771830687
 21
110.22397979048583
  0
LINE
  8
_1-0_
  6

 62
    3
 10
344.9395577183069
 20
110.22397979048583
 11
345.02261971830706
 21
110.53647979048583
  0
LINE
  8
_1-0_
  6

 62
    3
 10
345.6426827183069
 20
108.34897979048583
 11
344.9395577183069
 21
110.22397979048583
  0
LINE
  8
_1-0_
  6

 62
    3
 10
347.5176827183069
 20
108.34897979048583
 11
346.98068271830687
 21
108.34897979048583
  0
LINE
  8
_1-0_
  6
CONTINUOUS
 62
    7
 10
346.03010888462643
 20
111.65374110481116
 11
357.08836870705534
 21
152.92372860541332
  0
LINE
  8
_1-0_
  6
CONTINUOUS
 62
    3
 10
403.61039071830703
 20
53.790357815241578
 11
395.11039071830703
 21
53.790357815241578
  0
LINE
  8
_1-0_
  6
CONTINUOUS
 62
    3
 10
358.61039071830703
 20
28.790357815241578
 11
352.11039071830703
 21
28.790357815241578
  0
LINE
  8
_1-0_
  6
CONTINUOUS
 62
    3
 10
348.61039071830703
 20
50.290357815241578
 11
348.61039071830703
 21
32.290357815241578
  0
ARC
  8
_1-0_
  6
CONTINUOUS
 62
    3
 10
352.11039071830703
 20
32.290357815241578
 40
3.5
 50
180
 51
270
  0
ARC
  8
_1-0_
  6
CONTINUOUS
 62
    3
 10
395.11039071830703
 20
50.290357815241578
 40
3.5
 50
0
 51
90
  0
LINE
  8
_1-0_
  6
CONTINUOUS
 62
    3
 10
398.61039071830703
 20
50.290357815241578
 11
398.61039071830703
 21
32.290357815241578
  0
ARC
  8
_1-0_
  6
CONTINUOUS
 62
    3
 10
395.11039071830703
 20
32.290357815241578
 40
3.5
 50
270
 51
0
  0
LINE
  8
_1-0_
  6
CONTINUOUS
 62
    3
 10
388.61039071830703
 20
28.790357815241578
 11
395.11039071830703
 21
28.790357815241578
  0
LINE
  8
_1-0_
  6
CONTINUOUS
 62
    3
 10
388.61039071830703
 20
29.790357815241578
 11
388.61039071830703
 21
28.790357815241578
  0
LINE
  8
_1-0_
  6
CONTINUOUS
 62
    3
 10
388.61039071830703
 20
29.790357815241578
 11
395.11039071830703
 21
29.790357815241578
  0
ARC
  8
_1-0_
  6
CONTINUOUS
 62
    3
 10
395.11039071830703
 20
32.290357815241578
 40
2.5
 50
270
 51
0
  0
LINE
  8
_1-0_
  6
CONTINUOUS
 62
    3
 10
397.61039071830703
 20
32.290357815241578
 11
397.61039071830703
 21
50.290357815241578
  0
LINE
  8
_1-0_
  6
CONTINUOUS
 62
    3
 10
349.61039071830703
 20
50.290357815241578
 11
349.61039071830703
 21
32.290357815241578
  0
ARC
  8
_1-0_
  6
CONTINUOUS
 62
    3
 10
352.11039071830703
 20
32.290357815241578
 40
2.5
 50
180
 51
270
  0
LINE
  8
_1-0_
  6
CONTINUOUS
 62
    3
 10
358.61039071830703
 20
29.790357815241578
 11
352.11039071830703
 21
29.790357815241578
  0
ARC
  8
_1-0_
  6
CONTINUOUS
 62
    3
 10
352.11039071830703
 20
50.290357815241578
 40
3.5
 50
90
 51
180
  0
LINE
  8
_1-0_
  6
CONTINUOUS
 62
    3
 10
352.11039071830703
 20
53.790357815241578
 11
395.11039071830703
 21
53.790357815241578
  0
ARC
  8
_1-0_
  6
CONTINUOUS
 62
    3
 10
380.11039071830703
 20
54.290357815241578
 40
1.5
 50
90
 51
180
  0
LINE
  8
_1-0_
  6
CONTINUOUS
 62
    3
 10
378.61039071830703
 20
53.790357815241578
 11
378.61039071830703
 21
54.290357815241578
  0
ARC
  8
_1-0_
  6
CONTINUOUS
 62
    3
 10
403.11039071830703
 20
77.290357815241578
 40
1.5
 50
90
 51
180
  0
LINE
  8
_1-0_
  6
CONTINUOUS
 62
    3
 10
401.61039071830703
 20
59.040357815241578
 11
401.61039071830703
 21
77.290357815241578
  0
LINE
  8
_1-0_
  6
CONTINUOUS
 62
    3
 10
398.36039071830703
 20
55.790357815241578
 11
380.11039071830703
 21
55.790357815241578
  0
ARC
  8
_1-0_
  6
CONTINUOUS
 62
    3
 10
398.36039071830703
 20
59.040357815241578
 40
3.25
 50
270
 51
0
  0
LINE
  8
_1-0_
  6
CONTINUOUS
 62
    3
 10
403.61039071830703
 20
78.790357815241578
 11
403.11039071830703
 21
78.790357815241578
  0
LINE
  8
_1-0_
  6
CONTINUOUS
 62
    3
 10
352.11039071830703
 20
52.790357815241578
 11
395.11039071830703
 21
52.790357815241578
  0
ARC
  8
_1-0_
  6
CONTINUOUS
 62
    3
 10
395.11039071830703
 20
50.290357815241578
 40
2.5
 50
0
 51
90
  0
ARC
  8
_1-0_
  6
CONTINUOUS
 62
    3
 10
352.11039071830703
 20
50.290357815241578
 40
2.5
 50
90
 51
180
  0
LINE
  8
_1-0_
  6
CONTINUOUS
 62
    3
 10
358.61039071830703
 20
28.790357815241578
 11
358.61039071830703
 21
29.790357815241578
  0
LINE
  8
_1-0_
  6
CONTINUOUS
 62
    3
 10
352.52261971830706
 20
42.540357815241578
 11
352.84005771830687
 21
42.227857815241578
  0
LINE
  8
_1-0_
  6
CONTINUOUS
 62
    3
 10
352.4395577183069
 20
42.227857815241578
 11
352.52261971830706
 21
42.540357815241578
  0
LINE
  8
_1-0_
  6
CONTINUOUS
 62
    3
 10
353.1426827183069
 20
40.352857815241578
 11
352.4395577183069
 21
42.227857815241578
  0
LINE
  8
_1-0_
  6

 62
    3
 10
343.96011971830706
 20
39.20403281524159
 11
343.46011971830706
 21
38.915357815241578
  0
LINE
  8
_1-0_
  6

 62
    3
 10
343.46011971830706
 20
43.665357815241578
 11
343.96011971830706
 21
43.376682815241566
  0
LINE
  8
_1-0_
  6
CONTINUOUS
 62
    3
 10
356.46011971830683
 20
41.290357815241578
 11
353.46011971830706
 21
42.227857815241578
  0
LINE
  8
_1-0_
  6
CONTINUOUS
 62
    3
 10
355.52261971830683
 20
42.227857815241578
 11
353.46011971830706
 21
42.227857815241578
  0
LINE
  8
_1-0_
  6
CONTINUOUS
 62
    3
 10
355.52261971830683
 20
40.352857815241578
 11
353.54318271830687
 21
40.352857815241578
  0
LINE
  8
_1-0_
  6
CONTINUOUS
 62
    3
 10
356.46011971830683
 20
41.290357815241578
 11
355.52261971830683
 21
42.227857815241578
  0
LINE
  8
_1-0_
  6
CONTINUOUS
 62
    3
 10
355.52261971830683
 20
40.352857815241578
 11
356.46011971830683
 21
41.290357815241578
  0
LINE
  8
_1-0_
  6
CONTINUOUS
 62
    3
 10
355.52261971830683
 20
40.352857815241578
 11
355.52261971830683
 21
41.583325815241551
  0
LINE
  8
_1-0_
  6
CONTINUOUS
 62
    3
 10
353.46011971830706
 20
42.540357815241578
 11
353.1426827183069
 21
42.227857815241578
  0
LINE
  8
_1-0_
  6
CONTINUOUS
 62
    3
 10
353.54318271830687
 20
42.227857815241578
 11
353.46011971830706
 21
42.540357815241578
  0
LINE
  8
_1-0_
  6
CONTINUOUS
 62
    3
 10
352.52261971830706
 20
40.040357815241578
 11
352.2051827183069
 21
40.352857815241578
  0
LINE
  8
_1-0_
  6
CONTINUOUS
 62
    3
 10
352.60568271830687
 20
40.352857815241578
 11
352.52261971830706
 21
40.040357815241578
  0
LINE
  8
_1-0_
  6
CONTINUOUS
 62
    3
 10
353.1426827183069
 20
40.352857815241578
 11
352.60568271830687
 21
40.352857815241578
  0
LINE
  8
_1-0_
  6
CONTINUOUS
 62
    3
 10
352.84005771830687
 20
42.227857815241578
 11
353.46011971830706
 21
42.227857815241578
  0
LINE
  8
_1-0_
  6
CONTINUOUS
 62
    3
 10
351.90255771830687
 20
42.227857815241578
 11
352.4395577183069
 21
42.227857815241578
  0
LINE
  8
_1-0_
  6
CONTINUOUS
 62
    3
 10
350.02755771830687
 20
42.227857815241578
 11
350.5645577183069
 21
42.227857815241578
  0
LINE
  8
_1-0_
  6
CONTINUOUS
 62
    3
 10
351.2676827183069
 20
40.352857815241578
 11
350.73068271830687
 21
40.352857815241578
  0
LINE
  8
_1-0_
  6
CONTINUOUS
 62
    3
 10
350.96505771830687
 20
42.227857815241578
 11
351.5020577183069
 21
42.227857815241578
  0
LINE
  8
_1-0_
  6
CONTINUOUS
 62
    3
 10
351.66818271830687
 20
40.352857815241578
 11
352.2051827183069
 21
40.352857815241578
  0
LINE
  8
_1-0_
  6

 62
    3
 10
343.46011971830706
 20
38.915357815241578
 11
343.46011971830706
 21
43.665357815241578
  0
LINE
  8
_1-0_
  6
CONTINUOUS
 62
    3
 10
351.58511971830706
 20
40.040357815241578
 11
351.2676827183069
 21
40.352857815241578
  0
LINE
  8
_1-0_
  6
CONTINUOUS
 62
    3
 10
351.66818271830687
 20
40.352857815241578
 11
351.58511971830706
 21
40.040357815241578
  0
LINE
  8
_1-0_
  6
CONTINUOUS
 62
    3
 10
353.46011971830706
 20
40.040357815241578
 11
353.1426827183069
 21
40.352857815241578
  0
LINE
  8
_1-0_
  6
CONTINUOUS
 62
    3
 10
353.54318271830687
 20
40.352857815241578
 11
353.46011971830706
 21
40.040357815241578
  0
LINE
  8
_1-0_
  6

 62
    3
 10
342.85869971830687
 20
39.134256815241542
 11
343.46011971830706
 21
38.915357815241578
  0
LINE
  8
_1-0_
  6

 62
    3
 10
342.85869971830687
 20
43.446458815241613
 11
343.46011971830706
 21
43.665357815241578
  0
LINE
  8
_1-0_
  6
CONTINUOUS
 62
    3
 10
349.79318271830687
 20
40.352857815241578
 11
349.61039071830703
 21
40.840300815241562
  0
LINE
  8
_1-0_
  6
CONTINUOUS
 62
    3
 10
349.71011971830706
 20
40.040357815241578
 11
349.61039071830703
 21
40.138534815241655
  0
LINE
  8
_1-0_
  6

 62
    3
 10
346.98068271830687
 20
40.352857815241578
 11
346.89761971830706
 21
40.040357815241578
  0
LINE
  8
_1-0_
  6

 62
    3
 10
346.27755771830687
 20
42.227857815241578
 11
346.98068271830687
 21
40.352857815241578
  0
LINE
  8
_1-0_
  6

 62
    3
 10
345.96011971830706
 20
42.540357815241578
 11
346.27755771830687
 21
42.227857815241578
  0
LINE
  8
_1-0_
  6

 62
    3
 10
345.8770577183069
 20
42.227857815241578
 11
345.96011971830706
 21
42.540357815241578
  0
LINE
  8
_1-0_
  6

 62
    3
 10
346.5801827183069
 20
40.352857815241578
 11
345.8770577183069
 21
42.227857815241578
  0
LINE
  8
_1-0_
  6

 62
    3
 10
348.4551827183069
 20
40.352857815241578
 11
347.91818271830687
 21
40.352857815241578
  0
LINE
  8
_1-0_
  6

 62
    3
 10
347.83511971830706
 20
40.040357815241578
 11
347.5176827183069
 21
40.352857815241578
  0
LINE
  8
_1-0_
  6

 62
    3
 10
347.91818271830687
 20
40.352857815241578
 11
347.83511971830706
 21
40.040357815241578
  0
LINE
  8
_1-0_
  6

 62
    3
 10
347.21505771830687
 20
42.227857815241578
 11
347.91818271830687
 21
40.352857815241578
  0
LINE
  8
_1-0_
  6

 62
    3
 10
346.89761971830706
 20
42.540357815241578
 11
347.21505771830687
 21
42.227857815241578
  0
LINE
  8
_1-0_
  6

 62
    3
 10
346.8145577183069
 20
42.227857815241578
 11
346.89761971830706
 21
42.540357815241578
  0
LINE
  8
_1-0_
  6

 62
    3
 10
347.5176827183069
 20
40.352857815241578
 11
346.8145577183069
 21
42.227857815241578
  0
LINE
  8
_1-0_
  6

 62
    3
 10
349.3926827183069
 20
40.352857815241578
 11
348.85568271830687
 21
40.352857815241578
  0
LINE
  8
_1-0_
  6

 62
    3
 10
348.77261971830706
 20
40.040357815241578
 11
348.4551827183069
 21
40.352857815241578
  0
LINE
  8
_1-0_
  6

 62
    3
 10
348.85568271830687
 20
40.352857815241578
 11
348.77261971830706
 21
40.040357815241578
  0
LINE
  8
_1-0_
  6

 62
    3
 10
348.15255771830687
 20
42.227857815241578
 11
348.85568271830687
 21
40.352857815241578
  0
LINE
  8
_1-0_
  6

 62
    3
 10
347.83511971830706
 20
42.540357815241578
 11
348.15255771830687
 21
42.227857815241578
  0
LINE
  8
_1-0_
  6

 62
    3
 10
347.7520577183069
 20
42.227857815241578
 11
347.83511971830706
 21
42.540357815241578
  0
LINE
  8
_1-0_
  6

 62
    3
 10
348.4551827183069
 20
40.352857815241578
 11
347.7520577183069
 21
42.227857815241578
  0
LINE
  8
_1-0_
  6
CONTINUOUS
 62
    3
 10
349.79318271830687
 20
40.352857815241578
 11
349.71011971830706
 21
40.040357815241578
  0
LINE
  8
_1-0_
  6

 62
    3
 10
349.3926827183069
 20
40.352857815241578
 11
349.61039071830703
 21
40.138534815241655
  0
LINE
  8
_1-0_
  6

 62
    3
 10
349.09005771830687
 20
42.227857815241578
 11
349.61039071830703
 21
40.840300815241562
  0
LINE
  8
_1-0_
  6

 62
    3
 10
348.77261971830706
 20
42.540357815241578
 11
349.09005771830687
 21
42.227857815241578
  0
LINE
  8
_1-0_
  6

 62
    3
 10
348.6895577183069
 20
42.227857815241578
 11
348.77261971830706
 21
42.540357815241578
  0
LINE
  8
_1-0_
  6

 62
    3
 10
349.3926827183069
 20
40.352857815241578
 11
348.6895577183069
 21
42.227857815241578
  0
LINE
  8
_1-0_
  6
CONTINUOUS
 62
    3
 10
350.73068271830687
 20
40.352857815241578
 11
350.64761971830706
 21
40.040357815241578
  0
LINE
  8
_1-0_
  6
CONTINUOUS
 62
    3
 10
350.02755771830687
 20
42.227857815241578
 11
350.73068271830687
 21
40.352857815241578
  0
LINE
  8
_1-0_
  6
CONTINUOUS
 62
    3
 10
349.71011971830706
 20
42.540357815241578
 11
350.02755771830687
 21
42.227857815241578
  0
LINE
  8
_1-0_
  6
CONTINUOUS
 62
    3
 10
349.6270577183069
 20
42.227857815241578
 11
349.71011971830706
 21
42.540357815241578
  0
LINE
  8
_1-0_
  6
CONTINUOUS
 62
    3
 10
350.3301827183069
 20
40.352857815241578
 11
349.79318271830687
 21
40.352857815241578
  0
LINE
  8
_1-0_
  6

 62
    3
 10
349.09005771830687
 20
42.227857815241578
 11
349.6270577183069
 21
42.227857815241578
  0
LINE
  8
_1-0_
  6
CONTINUOUS
 62
    3
 10
350.64761971830706
 20
40.040357815241578
 11
350.3301827183069
 21
40.352857815241578
  0
LINE
  8
_1-0_
  6
CONTINUOUS
 62
    3
 10
350.3301827183069
 20
40.352857815241578
 11
349.6270577183069
 21
42.227857815241578
  0
LINE
  8
_1-0_
  6

 62
    3
 10
345.34005771830687
 20
40.352857815241578
 11
345.6426827183069
 21
40.352857815241578
  0
LINE
  8
_1-0_
  6

 62
    3
 10
348.15255771830687
 20
42.227857815241578
 11
348.6895577183069
 21
42.227857815241578
  0
LINE
  8
_1-0_
  6

 62
    3
 10
347.21505771830687
 20
42.227857815241578
 11
347.7520577183069
 21
42.227857815241578
  0
LINE
  8
_1-0_
  6

 62
    3
 10
346.27755771830687
 20
42.227857815241578
 11
346.8145577183069
 21
42.227857815241578
  0
LINE
  8
_1-0_
  6

 62
    3
 10
345.34005771830687
 20
42.227857815241578
 11
345.8770577183069
 21
42.227857815241578
  0
LINE
  8
_1-0_
  6

 62
    3
 10
343.96011971830706
 20
42.227857815241578
 11
344.9395577183069
 21
42.227857815241578
  0
LINE
  8
_1-0_
  6

 62
    3
 10
343.96011971830706
 20
40.352857815241578
 11
344.9395577183069
 21
40.352857815241578
  0
ARC
  8
_1-0_
  6

 62
    3
 10
347.27142571830689
 20
41.290357815241578
 40
4.9113059999999997
 50
153.95941400000001
 51
206.04058599999999
  0
LINE
  8
_1-0_
  6
CONTINUOUS
 62
    3
 10
353.46011971830706
 20
42.227857815241578
 11
353.46011971830706
 21
40.574357815241456
  0
LINE
  8
_1-0_
  6
CONTINUOUS
 62
    3
 10
351.90255771830687
 20
42.227857815241578
 11
352.60568271830687
 21
40.352857815241578
  0
LINE
  8
_1-0_
  6
CONTINUOUS
 62
    3
 10
351.58511971830706
 20
42.540357815241578
 11
351.90255771830687
 21
42.227857815241578
  0
LINE
  8
_1-0_
  6
CONTINUOUS
 62
    3
 10
351.5020577183069
 20
42.227857815241578
 11
351.58511971830706
 21
42.540357815241578
  0
LINE
  8
_1-0_
  6
CONTINUOUS
 62
    3
 10
352.2051827183069
 20
40.352857815241578
 11
351.5020577183069
 21
42.227857815241578
  0
LINE
  8
_1-0_
  6
CONTINUOUS
 62
    3
 10
350.96505771830687
 20
42.227857815241578
 11
351.66818271830687
 21
40.352857815241578
  0
LINE
  8
_1-0_
  6
CONTINUOUS
 62
    3
 10
350.64761971830706
 20
42.540357815241578
 11
350.96505771830687
 21
42.227857815241578
  0
LINE
  8
_1-0_
  6
CONTINUOUS
 62
    3
 10
350.5645577183069
 20
42.227857815241578
 11
350.64761971830706
 21
42.540357815241578
  0
LINE
  8
_1-0_
  6
CONTINUOUS
 62
    3
 10
351.2676827183069
 20
40.352857815241578
 11
350.5645577183069
 21
42.227857815241578
  0
LINE
  8
_1-0_
  6
CONTINUOUS
 62
    3
 10
352.84005771830687
 20
42.227857815241578
 11
353.54318271830687
 21
40.352857815241578
  0
LINE
  8
_1-0_
  6

 62
    3
 10
345.25699471830706
 20
40.040357815241578
 11
344.9395577183069
 21
40.352857815241578
  0
LINE
  8
_1-0_
  6

 62
    3
 10
345.34005771830687
 20
40.352857815241578
 11
345.25699471830706
 21
40.040357815241578
  0
LINE
  8
_1-0_
  6

 62
    3
 10
344.9395577183069
 20
40.352857815241578
 11
344.9395577183069
 21
42.227857815241578
  0
LINE
  8
_1-0_
  6

 62
    3
 10
346.5801827183069
 20
40.352857815241578
 11
346.04318271830687
 21
40.352857815241578
  0
LINE
  8
_1-0_
  6

 62
    3
 10
345.96011971830706
 20
40.040357815241578
 11
345.6426827183069
 21
40.352857815241578
  0
LINE
  8
_1-0_
  6

 62
    3
 10
346.04318271830687
 20
40.352857815241578
 11
345.96011971830706
 21
40.040357815241578
  0
LINE
  8
_1-0_
  6

 62
    3
 10
345.34005771830687
 20
42.227857815241578
 11
346.04318271830687
 21
40.352857815241578
  0
LINE
  8
_1-0_
  6

 62
    3
 10
345.02261971830706
 20
42.540357815241578
 11
345.34005771830687
 21
42.227857815241578
  0
LINE
  8
_1-0_
  6

 62
    3
 10
344.9395577183069
 20
42.227857815241578
 11
345.02261971830706
 21
42.540357815241578
  0
LINE
  8
_1-0_
  6

 62
    3
 10
345.6426827183069
 20
40.352857815241578
 11
344.9395577183069
 21
42.227857815241578
  0
LINE
  8
_1-0_
  6

 62
    3
 10
347.5176827183069
 20
40.352857815241578
 11
346.98068271830687
 21
40.352857815241578
  0
LINE
  8
_1-0_
  6

 62
    3
 10
346.89761971830706
 20
40.040357815241578
 11
346.5801827183069
 21
40.352857815241578
  0
LINE
  8
_1-0_
  6
CONTINUOUS
 62
    7
 10
348.61028068971166
 20
68.073616743129719
 11
358.00333649182141
 21
77.466672545239589
  0
LINE
  8
_1-0_
  6
CONTINUOUS
 62
    3
 10
408.61039071830703
 20
148.68500680683883
 11
408.61039071830703
 21
1.8584503323529589
  0
LINE
  8
_1-0_
  6
CONTINUOUS
 62
    3
 10
403.61039071830703
 20
148.68500680683883
 11
403.61039071830703
 21
1.8584503323529589
  0
LINE
  8
_1-0_
  6

 62
    3
 10
343.96011971830706
 20
148.68500680683883
 11
343.96011971830706
 21
1.8584503323529589
  0
LINE
  8
_1-0_
  6
CONTINUOUS
 62
    3
 10
348.61027471830687
 20
148.6636328068389
 11
348.61033520721355
 21
1.8584503323529589
  0
LINE
  8
_1-0_
  6
CONTINUOUS
 62
    7
 10
329.86032786235512
 20
19.684248608457892
 11
329.86033520721196
 21
1.8584503323529589
  0
CIRCLE
  8
_1-0_
  6
CONTINUOUS
 62
    3
 10
433.61039071830703
 20
96.497648835186737
 40
0.5999999999999999
  0
LINE
  8
_1-0_
  6
CONTINUOUS
 62
    3
 10
400.61039071830703
 20
96.497648835186737
 11
437.61039071830703
 21
96.497648835186737
  0
CIRCLE
  8
_1-0_
  6
CONTINUOUS
 62
    3
 10
433.61039071830703
 20
28.790357815241578
 40
0.5999999999999999
  0
LINE
  8
_1-0_
  6
CONTINUOUS
 62
    3
 10
400.61039071830703
 20
28.790357815241578
 11
437.61039071830703
 21
28.790357815241578
  0
LINE
  8
_1-0_
  6
CONTINUOUS
 62
    3
 10
433.61039071830703
 20
96.497648835186737
 11
433.61039071830703
 21
28.790357815241578
  0
LINE
  8
_1-0_
  6
CONTINUOUS
 62
    3
 10
304.86027471830823
 20
1.4815421687990238
 11
304.86027471830823
 21
-15.268457831200976
  0
CIRCLE
  8
_1-0_
  6
CONTINUOUS
 62
    3
 10
304.86027471830823
 20
-15.268457831200976
 40
0.5999999999999999
  0
CIRCLE
  8
_1-0_
  6
CONTINUOUS
 62
    3
 10
398.61039071830703
 20
-15.268457831200976
 40
0.5999999999999999
  0
CIRCLE
  8
_1-0_
  6
CONTINUOUS
 62
    3
 10
348.61037771830672
 20
-15.268457831200976
 40
0.5999999999999999
  0
LINE
  8
_1-0_
  6
CONTINUOUS
 62
    3
 10
348.61037771830672
 20
-15.268457831200976
 11
398.61039071830703
 21
-15.268457831200976
  0
LINE
  8
_1-0_
  6
CONTINUOUS
 62
    3
 10
403.61039071830703
 20
-15.268457831200976
 11
419.90960371830681
 21
-15.268457831200976
  0
CIRCLE
  8
_1-0_
  6
CONTINUOUS
 62
    3
 10
403.61039071830703
 20
-15.268457831200976
 40
0.5999999999999999
  0
CIRCLE
  8
_1-0_
  6
CONTINUOUS
 62
    3
 10
398.61039071830703
 20
-15.268457831200976
 40
0.5999999999999999
  0
LINE
  8
_1-0_
  6
CONTINUOUS
 62
    3
 10
403.61039071830703
 20
-2.2684578312009762
 11
403.61039071830703
 21
-15.268457831200976
  0
LINE
  8
_1-0_
  6
CONTINUOUS
 62
    3
 10
398.61039071830703
 20
10.031601168798943
 11
398.61039071830703
 21
-15.268457831200976
  0
LINE
  8
_1-0_
  6
CONTINUOUS
 62
    3
 10
398.61039071830703
 20
-15.268457831200976
 11
403.61039071830703
 21
-15.268457831200976
  0
CIRCLE
  8
_1-0_
  6
CONTINUOUS
 62
    3
 10
348.61035571830701
 20
-15.268457831200976
 40
0.5999999999999999
  0
LINE
  8
_1-0_
  6
CONTINUOUS
 62
    3
 10
348.61035571830701
 20
-2.2684578312009762
 11
348.61035571830701
 21
-15.268457831200976
  0
TEXT
  8
_1-0_
 62
    4
 10
138.108326730665
 20
312.67286308206837
 40
17
 41
1
 50
0
  1
ＬＫＰ３０５０
  0
TEXT
  8
_1-0_
 62
    7
 10
337.2715621741346
 20
257.88861441420295
 40
5.4000000000000057
 41
0.999999999999999
 50
90
  1
30
  0
TEXT
  8
_1-0_
 62
    7
 10
326.33173230003956
 20
208.5627160804421
 40
5.4000000000000057
 41
0.999999999999999
 50
0
  1
ﾊﾟﾈﾙﾋﾟｯﾁ
  0
TEXT
  8
_1-0_
 62
    2
 10
360.60938749938202
 20
208.16271608044212
 40
6.1999999999999886
 41
1.0000000000000018
 50
0
  1
75
  0
TEXT
  8
_1-0_
 62
    2
 10
377.60938749938202
 20
208.16271608044212
 40
6.1999999999999886
 41
1.0000000000000018
 50
0
  1
80
  0
TEXT
  8
_1-0_
 62
    2
 10
394.60938749938202
 20
208.16271608044212
 40
6.1999999999999886
 41
1.0000000000000018
 50
0
  1
90
  0
TEXT
  8
_1-0_
 62
    2
 10
409.83438749938193
 20
208.16271608044212
 40
6.1999999999999886
 41
1.0000000000000018
 50
0
  1
100
  0
TEXT
  8
_1-0_
 62
    2
 10
426.83438749938193
 20
208.16271608044212
 40
6.1999999999999886
 41
1.0000000000000018
 50
0
  1
120
  0
LINE
  8
_1-0_
  6
CONTINUOUS
 62
    3
 10
423.43438749938207
 20
215.72521608044212
 11
423.43438749938207
 21
188.95021608044226
  0
LINE
  8
_1-0_
  6
CONTINUOUS
 62
    3
 10
406.43438749938207
 20
215.72521608044212
 11
406.43438749938207
 21
188.95021608044226
  0
LINE
  8
_1-0_
  6
CONTINUOUS
 62
    7
 10
440.43438749938207
 20
215.72521608044212
 11
440.43438749938207
 21
188.95021608044226
  0
LINE
  8
_1-0_
  6
CONTINUOUS
 62
    3
 10
457.43438749938207
 20
215.72521608044212
 11
457.43438749938207
 21
188.95021608044226
  0
LINE
  8
_1-0_
  6
CONTINUOUS
 62
    3
 10
440.43438749938207
 20
215.72521608044212
 11
440.43438749938207
 21
188.95021608044226
  0
LINE
  8
_1-0_
  6
CONTINUOUS
 62
    7
 10
474.43438749938207
 20
215.72521608044212
 11
474.43438749938207
 21
188.95021608044226
  0
LINE
  8
_1-0_
  6
CONTINUOUS
 62
    7
 10
321.62907710069715
 20
215.72521608044212
 11
474.43438749938207
 21
215.72521608044212
  0
LINE
  8
_1-0_
  6
CONTINUOUS
 62
    7
 10
321.62907710069715
 20
206.80021608044217
 11
474.43438749938207
 21
206.80021608044217
  0
LINE
  8
_1-0_
  6
CONTINUOUS
 62
    7
 10
321.62907710069715
 20
197.87521608044221
 11
474.43438749938207
 21
197.87521608044221
  0
LINE
  8
_1-0_
  6
CONTINUOUS
 62
    7
 10
321.62907710069715
 20
188.95021608044226
 11
474.43438749938207
 21
188.95021608044226
  0
TEXT
  8
_1-0_
 62
    2
 10
443.83438749938193
 20
208.16271608044212
 40
6.1999999999999886
 41
1.0000000000000018
 50
0
  1
125
  0
TEXT
  8
_1-0_
 62
    2
 10
460.83438749938193
 20
208.16271608044212
 40
6.1999999999999886
 41
1.0000000000000018
 50
0
  1
150
  0
TEXT
  8
_1-0_
 62
    7
 10
332.73173230003943
 20
199.63771608044215
 40
5.4000000000000057
 41
0.999999999999999
 50
0
  1
開口
  0
TEXT
  8
_1-0_
 62
    2
 10
360.60938749938202
 20
199.23771608044217
 40
6.1999999999999886
 41
1.0000000000000018
 50
0
  1
45
  0
TEXT
  8
_1-0_
 62
    2
 10
377.60938749938202
 20
199.23771608044217
 40
6.1999999999999886
 41
1.0000000000000018
 50
0
  1
50
  0
TEXT
  8
_1-0_
 62
    2
 10
394.60938749938202
 20
199.23771608044217
 40
6.1999999999999886
 41
1.0000000000000018
 50
0
  1
60
  0
TEXT
  8
_1-0_
 62
    2
 10
411.60938749938202
 20
199.23771608044217
 40
6.1999999999999886
 41
1.0000000000000018
 50
0
  1
70
  0
TEXT
  8
_1-0_
 62
    2
 10
428.60938749938202
 20
199.23771608044217
 40
6.1999999999999886
 41
1.0000000000000018
 50
0
  1
90
  0
TEXT
  8
_1-0_
 62
    2
 10
445.60938749938202
 20
199.23771608044217
 40
6.1999999999999886
 41
1.0000000000000018
 50
0
  1
95
  0
TEXT
  8
_1-0_
 62
    2
 10
460.83438749938193
 20
199.23771608044217
 40
6.1999999999999886
 41
1.0000000000000018
 50
0
  1
120
  0
TEXT
  8
_1-0_
 62
    7
 10
323.23173230003943
 20
190.71271608044219
 40
5.4000000000000057
 41
0.999999999999999
 50
0
  1
開口率(％)
  0
TEXT
  8
_1-0_
 62
    2
 10
357.05938749938207
 20
190.31271608044221
 40
6.2000000000000028
 41
0.9999999999999995
 50
0
  1
60.0
  0
TEXT
  8
_1-0_
 62
    2
 10
374.05938749938207
 20
190.31271608044221
 40
6.2000000000000028
 41
0.9999999999999995
 50
0
  1
62.5
  0
TEXT
  8
_1-0_
 62
    2
 10
391.05938749938207
 20
190.31271608044221
 40
6.2000000000000028
 41
0.9999999999999995
 50
0
  1
66.7
  0
TEXT
  8
_1-0_
 62
    2
 10
408.05938749938207
 20
190.31271608044221
 40
6.2000000000000028
 41
0.9999999999999995
 50
0
  1
70.0
  0
TEXT
  8
_1-0_
 62
    2
 10
425.05938749938207
 20
190.31271608044221
 40
6.2000000000000028
 41
0.9999999999999995
 50
0
  1
75.0
  0
TEXT
  8
_1-0_
 62
    2
 10
442.05938749938207
 20
190.31271608044221
 40
6.2000000000000028
 41
0.9999999999999995
 50
0
  1
76.0
  0
TEXT
  8
_1-0_
 62
    2
 10
459.05938749938207
 20
190.31271608044221
 40
6.2000000000000028
 41
0.9999999999999995
 50
0
  1
80.0
  0
TEXT
  8
_1-0_
 62
    7
 10
331.61611135221972
 20
168.59278052640889
 40
5.4000000000000057
 41
0.999999999999999
 50
0
  1
角パネル
  0
TEXT
  8
_1-0_
 62
    7
 10
332.0171351658222
 20
160.84342979161875
 40
5.4000000000000057
 41
0.999999999999999
 50
0
  1
LKP3050
  0
TEXT
  8
_1-0_
 62
    7
 10
356.33137328155374
 20
153.42372860541332
 40
5.4000000000000057
 41
0.999999999999999
 50
0
  1
SUSトップタップ6×35
  0
LINE
  8
_1-0_
  6
CONTINUOUS
 62
    7
 10
304.86027471830823
 20
-15.268457831200976
 11
348.61035571830701
 21
-15.268457831200976
  0
TEXT
  8
_1-0_
 62
    7
 10
297.64272172673066
 20
135.02209746394976
 40
5.3999999999999986
 41
1.0000000000000002
 50
90
  1
30
  0
TEXT
  8
_1-0_
 62
    7
 10
297.64272172673066
 20
97.522097463949763
 40
5.3999999999999986
 41
1.0000000000000002
 50
90
  1
30
  0
LINE
  8
_1-0_
  6
CONTINUOUS
 62
    7
 10
358.00333649182141
 20
77.466672545239589
 11
401.61039071830703
 21
77.466672545239589
  0
LINE
  8
_1-0_
  6
CONTINUOUS
 62
    7
 10
357.08836870705534
 20
152.92372860541332
 11
417.17437785605227
 21
152.92372860541332
  0
TEXT
  8
_1-0_
 62
    7
 10
353.63562760011371
 20
78.020944445082478
 40
5.4000000000000004
 41
1
 50
0
  1
ストリンガー LST
  0
TEXT
  8
_1-0_
 62
    7
 10
451.0222435078332
 20
76.266863107632275
 40
8
 41
1
 50
0
  1
材質
  0
TEXT
  8
_1-0_
 62
    7
 10
451.67736366996053
 20
63.819580027214442
 40
8
 41
1
 50
0
  1
アルミ合金押出形材
  0
TEXT
  8
_1-0_
 62
    7
 10
297.64272172673066
 20
60.022097463949763
 40
5.3999999999999986
 41
1.0000000000000002
 50
90
  1
30
  0
TEXT
  8
_1-0_
 62
    7
 10
451.67736366996053
 20
50.717176784669277
 40
8
 41
1
 50
0
  1
JIS H4100 A6063S-T5
  0
TEXT
  8
_1-0_
 62
    7
 10
451.0222435078332
 20
37.614773542124226
 40
8
 41
1
 50
0
  1
アルマイト処理　９μ以上
  0
TEXT
  8
_1-0_
 62
    7
 10
432.67105362206632
 20
28.525836826242539
 40
5.4000000000000146
 41
0.9999999999999972
 50
90.00000299999995
  1
ストリンガー固定ピッチ
  0
TEXT
  8
_1-0_
 62
    7
 10
451.0222435078332
 20
23.857250137451842
 40
8
 41
1
 50
0
  1
クリア塗装　７μ以上
  0
TEXT
  8
_1-0_
 62
    7
 10
297.64272172673066
 20
22.522097463949763
 40
5.3999999999999986
 41
1.0000000000000002
 50
90
  1
30
  0
TEXT
  8
_1-0_
 62
    7
 10
451.0222435078332
 20
11.409967057034009
 40
8
 41
1
 50
0
  1
定尺4000mm
  0
TEXT
  8
_1-0_
 62
    7
 10
451.60637193567197
 20
-2.3716555309160867
 40
8
 41
1
 50
0
  1
色：シルバー、ステンカラー(標準色)
  0
LINE
  8
_1-0_
  6
CONTINUOUS
 62
    7
 10
206.42137380918541
 20
-72.975186613378128
 11
229.08204608379776
 21
-72.975186613378128
  0
TEXT
  8
_1-0_
 62
    7
 10
315.03531521830757
 20
-14.468457831201022
 40
5.4000000000000057
 41
0.999999999999999
 50
0
  1
８７．５
  0
LINE
  8
_1-0_
  6
CONTINUOUS
 62
    7
 10
179.9932012681694
 20
-99.403359154394138
 11
206.42137380918541
 21
-72.975186613378128
  0
TEXT
  8
_1-0_
 62
    7
 10
364.71037321830693
 20
-14.468457831201022
 40
5.4000000000000057
 41
0.999999999999999
 50
0
  1
１００
  0
TEXT
  8
_1-0_
 62
    7
 10
405.95999721830697
 20
-14.468457831201022
 40
5.4000000000000057
 41
0.999999999999999
 50
0
  1
１０
  0
TEXT
  8
_1-0_
 62
    7
 10
452.33248383208763
 20
-16.105079752310758
 40
8
 41
1
 50
0
  1
他は受注生産です
  0
TEXT
  8
_1-0_
 62
    7
 10
440.65301380437643
 20
-71.275914231046272
 40
5.4000000000000057
 41
0.999999999999999
 50
0
  1
角パネル
  0
TEXT
  8
_1-0_
 62
    7
 10
207.01168325989204
 20
-71.898522320644588
 40
5.4000000000000057
 41
0.999999999999999
 50
0
  1
角パネル
  0
TEXT
  8
_1-0_
 62
    7
 10
206.23319397958392
 20
-80.690058668426673
 40
5.4000000000000057
 41
0.999999999999999
 50
0
  1
LKP3050
  0
TEXT
  8
_1-0_
 62
    7
 10
441.36431557045
 20
-80.856387739941283
 40
5.4000000000000057
 41
0.999999999999999
 50
0
  1
LKP3050
  0
TEXT
  8
_1-0_
 62
    7
 10
169.59320126816658
 20
-88.335727681543403
 40
5.4000000000000057
 41
0.999999999999999
 50
0
  1
30
  0
TEXT
  8
_1-0_
 62
    7
 10
207.09320126816658
 20
-88.335727681543403
 40
5.4000000000000057
 41
0.999999999999999
 50
0
  1
30
  0
TEXT
  8
_1-0_
 62
    7
 10
244.59320126816658
 20
-88.335727681543403
 40
5.4000000000000057
 41
0.999999999999999
 50
0
  1
30
  0
TEXT
  8
_1-0_
 62
    7
 10
282.08070126816654
 20
-88.335727681543403
 40
5.4000000000000057
 41
0.999999999999999
 50
0
  1
30
  0
TEXT
  8
_1-0_
 62
    7
 10
117.52564488654036
 20
-146.20328406316958
 40
5.4000000000000057
 41
0.999999999999999
 50
90
  1
30
  0
TEXT
  8
_1-0_
 62
    7
 10
381.47221360019023
 20
-173.56381660523925
 40
5.3999999999999986
 41
0.9999999999999992
 50
90.000002999999765
  1
２５０以内
  0
LINE
  8
_1-0_
  6
CONTINUOUS
 62
    7
 10
107.43604691769212
 20
309.94977103980887
 11
613.58989307153831
 21
309.94977103980887
  0
TEXT
  8
_1-0_
 62
    7
 10
117.52564488654036
 20
-183.70328406316958
 40
5.4000000000000057
 41
0.999999999999999
 50
90
  1
30
  0
ARC
  8
_1-0_
  6
CONTINUOUS
 62
    7
 10
393.03303705866222
 20
280.88861441417782
 40
0.75
 50
90
 51
209.1553654262427
  0
LINE
  8
_1-0_
  6
CONTINUOUS
 62
    7
 10
432.92422114886756
 20
283.32611441414917
 11
432.92422114886756
 21
281.61488049771231
  0
LINE
  8
_1-0_
  6
CONTINUOUS
 62
    7
 10
432.92422114885164
 20
238.32611441414917
 11
432.92422114885255
 21
240.03734833084729
  0
LINE
  8
_1-0_
  6
CONTINUOUS
 62
    7
 10
432.92422114886756
 20
283.28861441414904
 11
432.92422114886756
 21
281.57738049771217
  0
ARC
  8
_1-0_
  6
CONTINUOUS
 62
    7
 10
425.05785213539241
 20
278.86361441413908
 40
0.4499999999999999
 50
186.49999999999821
 51
288.60829801488677
  0
LINE
  8
_1-0_
  6
CONTINUOUS
 62
    7
 10
357.9242211488837
 20
283.28861441420293
 11
432.92422114886733
 21
283.28861441414904
  0
LINE
  8
_1-0_
  6
CONTINUOUS
 62
    7
 10
421.97787031003202
 20
281.63861441415668
 11
422.72787031003656
 21
280.8886144141519
  0
LINE
  8
_1-0_
  6
CONTINUOUS
 62
    7
 10
432.92422114885164
 20
238.28861441414904
 11
432.92422114885301
 21
239.99984833084716
  0
LINE
  8
_1-0_
  6
CONTINUOUS
 62
    7
 10
357.92422114889962
 20
283.28861441420293
 11
357.92422114886733
 21
238.28861441420293
  0
ARC
  8
_1-0_
  6
CONTINUOUS
 62
    7
 10
425.05785213537945
 20
242.71361441416445
 40
0.4499999999999999
 50
71.383514957199623
 51
173.49999999996072
  0
LINE
  8
_1-0_
  6
CONTINUOUS
 62
    7
 10
357.92422114886733
 20
238.28861441420293
 11
432.92422114885164
 21
238.28861441414972
  0
LINE
  8
_1-0_
  6
CONTINUOUS
 62
    7
 10
386.06420792230927
 20
276.01025182535693
 11
384.89313223563579
 21
278.03861441417837
  0
LINE
  8
_1-0_
  6
CONTINUOUS
 62
    7
 10
386.40867669225543
 20
280.66361441417973
 11
387.92422114888257
 21
280.6636144141811
  0
LINE
  8
_1-0_
  6
CONTINUOUS
 62
    7
 10
384.89313223563579
 20
278.03861441417769
 11
386.40867669225543
 21
280.66361441417973
  0
ARC
  8
_1-0_
  6
CONTINUOUS
 62
    7
 10
385.03080161246305
 20
275.41361441418246
 40
1.1932748223451823
 50
222.2152905445418
 51
30.000000000068439
  0
ARC
  8
_1-0_
  6
CONTINUOUS
 62
    7
 10
387.92422114888166
 20
278.0386144141811
 40
5.0999999999999996
 50
150.84463457367556
 51
222.2152905445414
  0
LINE
  8
_1-0_
  6
CONTINUOUS
 62
    7
 10
389.78423437545291
 20
276.01025182535489
 11
390.95531006212775
 21
278.03861441417564
  0
LINE
  8
_1-0_
  6
CONTINUOUS
 62
    7
 10
389.43976560551016
 20
280.66361441417837
 11
387.92422114888302
 21
280.6636144141811
  0
LINE
  8
_1-0_
  6
CONTINUOUS
 62
    7
 10
390.95531006212798
 20
278.03861441417564
 11
389.43976560551039
 21
280.66361441417837
  0
ARC
  8
_1-0_
  6
CONTINUOUS
 62
    7
 10
390.8176406852989
 20
275.41361441418042
 40
1.1932748223451823
 50
149.99999999989041
 51
317.7847094554171
  0
ARC
  8
_1-0_
  6
CONTINUOUS
 62
    7
 10
387.92422114888234
 20
278.0386144141811
 40
5.0999999999999996
 50
317.78470945541761
 51
29.155365426242618
  0
LINE
  8
_1-0_
  6
CONTINUOUS
 62
    7
 10
393.03303705866267
 20
281.63861441417782
 11
421.97787031003179
 21
281.63861441415668
  0
LINE
  8
_1-0_
  6
CONTINUOUS
 62
    7
 10
361.07422114889857
 20
281.63861441420033
 11
382.81540523910633
 21
281.63861441418533
  0
ARC
  8
_1-0_
  6
CONTINUOUS
 62
    7
 10
382.81540523910564
 20
280.88861441418533
 40
0.75
 50
330.84463457367565
 51
89.999999999999943
  0
LINE
  8
_1-0_
  6
CONTINUOUS
 62
    7
 10
386.06420792229335
 20
245.56697700301618
 11
384.89313223561783
 21
243.53861441419542
  0
LINE
  8
_1-0_
  6
CONTINUOUS
 62
    7
 10
386.40867669223428
 20
240.91361441419338
 11
387.92422114886142
 21
240.91361441418928
  0
LINE
  8
_1-0_
  6
CONTINUOUS
 62
    7
 10
384.89313223561783
 20
243.53861441419542
 11
386.40867669223428
 21
240.91361441419269
  0
ARC
  8
_1-0_
  6
CONTINUOUS
 62
    7
 10
385.03080161244736
 20
246.16361441419133
 40
1.1932748223451823
 50
329.99999999987034
 51
137.78470945539698
  0
ARC
  8
_1-0_
  6
CONTINUOUS
 62
    7
 10
387.92422114886324
 20
243.53861441418928
 40
5.0999999999999996
 50
137.78470945539746
 51
209.15536542626333
  0
LINE
  8
_1-0_
  6
CONTINUOUS
 62
    7
 10
389.78423437543654
 20
245.56697700301413
 11
390.95531006210933
 21
243.53861441419201
  0
LINE
  8
_1-0_
  6
CONTINUOUS
 62
    7
 10
389.43976560548901
 20
240.91361441419065
 11
387.92422114886188
 21
240.91361441418996
  0
LINE
  8
_1-0_
  6
CONTINUOUS
 62
    7
 10
390.95531006210956
 20
243.53861441419201
 11
389.43976560548901
 21
240.91361441419065
  0
ARC
  8
_1-0_
  6
CONTINUOUS
 62
    7
 10
390.81764068528321
 20
246.16361441418724
 40
1.1932748223451823
 50
42.215290544521672
 51
210.00000000004837
  0
ARC
  8
_1-0_
  6
CONTINUOUS
 62
    7
 10
387.92422114886392
 20
243.53861441418928
 40
5.0999999999999996
 50
330.84463457369634
 51
42.215290544521238
  0
ARC
  8
_1-0_
  6
CONTINUOUS
 62
    7
 10
393.03303705864084
 20
240.6886144141871
 40
0.75
 50
150.84463457369617
 51
269.99999999993878
  0
ARC
  8
_1-0_
  6
CONTINUOUS
 62
    7
 10
382.81540523908427
 20
240.68861441419119
 40
0.75
 50
269.99999999993884
 51
29.155365426263131
  0
LINE
  8
_1-0_
  6
CONTINUOUS
 62
    7
 10
393.03303705863971
 20
239.93861441417755
 11
421.97787031002451
 21
239.93861441415709
  0
LINE
  8
_1-0_
  6
CONTINUOUS
 62
    7
 10
361.07422114886856
 20
239.93861441420074
 11
382.81540523908359
 21
239.93861441418505
  0
LINE
  8
_1-0_
  6
CONTINUOUS
 62
    7
 10
359.57422114889744
 20
280.1386144142017
 11
359.57422114886947
 21
241.43861441420142
  0
ARC
  8
_1-0_
  6
CONTINUOUS
 62
    7
 10
361.07422114889744
 20
280.13861441420033
 40
1.5
 50
90
 51
180
  0
ARC
  8
_1-0_
  6
CONTINUOUS
 62
    7
 10
361.07422114886992
 20
241.43861441420074
 40
1.5
 50
180
 51
270
  0
LINE
  8
_1-0_
  6
CONTINUOUS
 62
    7
 10
425.20150652925201
 20
243.1400688843263
 11
432.41364513864016
 21
240.71060578111781
  0
ARC
  8
_1-0_
  6
CONTINUOUS
 62
    7
 10
432.17422114885255
 20
239.99984833084784
 40
0.75
 50
0
 51
71.383514957200816
  0
LINE
  8
_1-0_
  6
CONTINUOUS
 62
    7
 10
425.20150652923223
 20
278.43715994422621
 11
432.41364513861765
 21
280.86662304744289
  0
ARC
  8
_1-0_
  6
CONTINUOUS
 62
    7
 10
432.17422114882982
 20
281.57738049771217
 40
0.75
 50
288.61648504286279
 51
0.0000000000000254
  0
LINE
  8
_1-0_
  6
CONTINUOUS
 62
    7
 10
421.97787031002451
 20
239.93861441415709
 11
422.72787031002156
 21
240.68861441415231
  0
LINE
  8
_1-0_
  6
CONTINUOUS
 62
    7
 10
422.72787031002156
 20
240.68861441415299
 11
424.37422114885123
 21
240.68861441415231
  0
LINE
  8
_1-0_
  6
CONTINUOUS
 62
    7
 10
424.61074480032528
 20
242.76455586036025
 11
424.37422114885146
 21
240.68861441415163
  0
LINE
  8
_1-0_
  6
CONTINUOUS
 62
    7
 10
424.61074480033824
 20
278.81267296794329
 11
424.37422114886556
 21
280.8886144141519
  0
LINE
  8
_1-0_
  6
CONTINUOUS
 62
    7
 10
422.72787031003588
 20
280.88861441415327
 11
424.37422114886579
 21
280.88861441415258
  0
POINT
  8
_1-0_
 62
    4
 10
337.7715621741346
 20
238.28861441420293
  0
LINE
  8
_1-0_
  6
CONTINUOUS
 62
    4
 10
337.7715621741346
 20
238.28861441420293
 11
353.2714605583036
 21
238.28861441420293
  0
POINT
  8
_1-0_
 62
    4
 10
337.7715621741346
 20
283.28861441420293
  0
LINE
  8
_1-0_
  6
CONTINUOUS
 62
    4
 10
337.7715621741346
 20
283.28861441420293
 11
353.2714605583036
 21
283.28861441420293
  0
LINE
  8
_1-0_
  6
CONTINUOUS
 62
    7
 10
337.7715621741346
 20
238.28861441420293
 11
337.7715621741346
 21
283.28861441420293
  0
TEXT
  8
_1-0_
 62
    7
 10
117.52564488654036
 20
-221.20328406316958
 40
5.4000000000000057
 41
0.999999999999999
 50
90
  1
30
  0
TEXT
  8
_1-0_
 62
    7
 10
117.52564488654036
 20
-258.70328406316958
 40
5.4000000000000057
 41
0.999999999999999
 50
90
  1
30
  0
TEXT
  8
_1-0_
 62
    7
 10
381.32221424945271
 20
-268.5446176993064
 40
5.3999999999999995
 41
1.0000000000000002
 50
90.000002999999822
  1
ストリンガーピッチ
  0
TEXT
  8
_1-0_
 62
    7
 10
186.11544399665138
 20
-292.05319359769942
 40
5.3999999999999773
 41
1.0000000000000042
 50
0
  1
１００
  0
TEXT
  8
_1-0_
 62
    7
 10
448.41625240340284
 20
-292.4359556731265
 40
5.3999999999999773
 41
1.0000000000000042
 50
0
  1
１００
  0
TEXT
  8
_1-0_
 62
    7
 10
135.53154806238001
 20
-292.47633738295144
 40
5.3999999999999773
 41
1.0000000000000042
 50
0
  1
８７．５
  0
TEXT
  8
_1-0_
 62
    7
 10
398.89125290340269
 20
-292.58595567312636
 40
5.3999999999999773
 41
1.0000000000000042
 50
0
  1
８７．５
  0
ENDSEC
  0
EOF
