  0
SECTION
  2
HEADER
  9
$ACADVER
  1
AC1009
  9
$INSBASE
 10
0
 20
0
 30
0
  9
$EXTMIN
 10
0
 20
0
  9
$EXTMAX
 10
594
 20
420
  9
$LIMMIN
 10
0
 20
0
  9
$LIMMAX
 10
594
 20
420
  9
$LTSCALE
 40
2
  0
ENDSEC
  0
SECTION
  2
TABLES
  0
TABLE
  2
LTYPE
 70
     9
  0
LTYPE
  2
CONTINUOUS
 70
    64
  3
実線
 72
    65
 73
     0
 40
0.0
  0
LTYPE
  2
DASHED1
 70
    64
  3
--  --  --  --  --  --  --  --  
 72
    65
 73
     2
 40
2.5
 49
1.25
 49
-1.25
  0
LTYPE
  2
DASHED2
 70
    64
  3
----    ----    ----    ----    
 72
    65
 73
     2
 40
5.0
 49
2.5
 49
-2.5
  0
LTYPE
  2
DASHED3
 70
    64
  3
------  ------  ------  ------  
 72
    65
 73
     2
 40
5.0
 49
3.75
 49
-1.25
  0
LTYPE
  2
CENTER1
 70
    64
  3
----- - ----- - ----- - ----- - 
 72
    65
 73
     4
 40
10.0
 49
6.25
 49
-1.25
 49
1.25
 49
-1.25
  0
LTYPE
  2
CENTER2
 70
    64
  3
----------  --  ----------  --  
 72
    65
 73
     4
 40
20.0
 49
12.5
 49
-2.5
 49
2.5
 49
-2.5
  0
LTYPE
  2
PHANTOM1
 70
    64
  3
--- - - --- - - --- - - --- - - 
 72
    65
 73
     6
 40
10.0
 49
3.25
 49
-1.25
 49
1.25
 49
-1.25
 49
1.25
 49
-1.25
  0
LTYPE
  2
PHANTOM2
 70
    64
  3
--------  -  -  --------  -  -  
 72
    65
 73
     6
 40
20.0
 49
10.0
 49
-2.5
 49
1.25
 49
-2.5
 49
1.25
 49
-2.5
  0
LTYPE
  2
DOT
 70
    64
  3
-   -   -   -   -   -   -   -   
 72
    65
 73
     2
 40
2.5
 49
0.625
 49
-1.875
  0
LTYPE
  2
DUMMY
 70
    64
  3
ダミー
 72
    65
 73
     0
 40
0.0
  0
LTYPE
  2
RAND1
 70
    64
  3
ランダム線1
 72
    65
 73
     4
 40
10.0
 49
1.0
 49
-2.0
 49
3.0
 49
-4.0
  0
LTYPE
  2
RAND2
 70
    64
  3
ランダム線2
 72
    65
 73
     4
 40
14.0
 49
2.0
 49
-3.0
 49
4.0
 49
-5.0
  0
LTYPE
  2
RAND3
 70
    64
  3
ランダム線3
 72
    65
 73
     4
 40
18.0
 49
3.0
 49
-4.0
 49
5.0
 49
-6.0
  0
LTYPE
  2
RAND4
 70
    64
  3
ランダム線4
 72
    65
 73
     4
 40
22.0
 49
4.0
 49
-5.0
 49
6.0
 49
-7.0
  0
LTYPE
  2
RAND5
 70
    64
  3
ランダム線5
 72
    65
 73
     4
 40
26.0
 49
5.0
 49
-6.0
 49
7.0
 49
-8.0
  0
LTYPE
  2
LONG1
 70
    64
  3
----------  --  ----------  --  
 72
    65
 73
     4
 40
40.0
 49
32.5
 49
-2.5
 49
2.5
 49
-2.5
  0
LTYPE
  2
LONG2
 70
    64
  3
--------  -  -  --------  -  -  
 72
    65
 73
     6
 40
40.0
 49
30.0
 49
-2.5
 49
1.25
 49
-2.5
 49
1.25
 49
-2.5
  0
LTYPE
  2
LONG3
 70
    64
  3
+++++++++++++++..+++++++++++++++
 72
    65
 73
     2
 40
40.0
 49
37.5
 49
-2.5
  0
LTYPE
  2
LONG4
 70
    64
  3
+++++++++++++++..+++++++++++++++
 72
    65
 73
     2
 40
80.0
 49
75.0
 49
-5.0
  0
LTYPE
  2
LONG5
 70
    64
  3
----------  --  ----------  --  
 72
    65
 73
     4
 40
60.0
 49
37.5
 49
-7.5
 49
7.5
 49
-7.5
  0
LTYPE
  2
dashed
 70
   64
  3
-------   -------------   ------
 72
   65
 73
    2
 40
7.5
 49
6
 49
-1.5
  0
LTYPE
  2
dashed_spaced
 70
   64
  3
----        --------        ----
 72
   65
 73
    2
 40
12
 49
6
 49
-6
  0
LTYPE
  2
long_dashed_dotted
 70
   64
  3
------------- --- --------------
 72
   65
 73
    4
 40
15.25
 49
12
 49
-1.5
 49
0.25
 49
-1.5
  0
LTYPE
  2
long_dashed_double-dotted
 70
   64
  3
----------- --- --- ------------
 72
   65
 73
    6
 40
17
 49
12
 49
-1.5
 49
0.25
 49
-1.5
 49
0.25
 49
-1.5
  0
LTYPE
  2
long_dashed_triplicate-dotted
 70
   64
  3
--------- --- --- --- ----------
 72
   65
 73
    8
 40
18.75
 49
12
 49
-1.5
 49
0.25
 49
-1.5
 49
0.25
 49
-1.5
 49
0.25
 49
-1.5
  0
LTYPE
  2
dotted
 70
   64
  3
   -       -       -       -    
 72
   65
 73
    2
 40
1.75
 49
0.25
 49
-1.5
  0
LTYPE
  2
chain
 70
   64
  3
-------------- -- --------------
 72
   65
 73
    4
 40
18.5
 49
12
 49
-1.5
 49
3.5
 49
-1.5
  0
LTYPE
  2
chain_double_dash
 70
   64
  3
------------ -- -- -------------
 72
   65
 73
    6
 40
23.5
 49
12
 49
-1.5
 49
3.5
 49
-1.5
 49
3.5
 49
-1.5
  0
LTYPE
  2
dashed_dotted
 70
   64
  3
-----------     -     ----------
 72
   65
 73
    4
 40
9.25
 49
6
 49
-1.5
 49
0.25
 49
-1.5
  0
LTYPE
  2
double-dashed_dotted
 70
   64
  3
------   -----------   -   -----
 72
   65
 73
    6
 40
16.75
 49
6
 49
-1.5
 49
6
 49
-1.5
 49
0.25
 49
-1.5
  0
LTYPE
  2
dashed_double-dotted
 70
   64
  3
---------    -    -    ---------
 72
   65
 73
    6
 40
11
 49
6
 49
-1.5
 49
0.25
 49
-1.5
 49
0.25
 49
-1.5
  0
LTYPE
  2
double-dashed_double-dotted
 70
   64
  3
-----   ---------   -   -   ----
 72
   65
 73
    8
 40
18.5
 49
6
 49
-1.5
 49
6
 49
-1.5
 49
0.25
 49
-1.5
 49
0.25
 49
-1.5
  0
LTYPE
  2
dashed_triplicate-dotted
 70
   64
  3
-------    -    -    -    ------
 72
   65
 73
    8
 40
12.75
 49
6
 49
-1.5
 49
0.25
 49
-1.5
 49
0.25
 49
-1.5
 49
0.25
 49
-1.5
  0
LTYPE
  2
double-dashed_triplicate-dotted
 70
   64
  3
-----  ---------  -  -  -  -----
 72
   65
 73
   10
 40
20.25
 49
6
 49
-1.5
 49
6
 49
-1.5
 49
0.25
 49
-1.5
 49
0.25
 49
-1.5
 49
0.25
 49
-1.5
  0
LTYPE
  2
undefined
 70
   64
  3
--------------------------------
 72
   65
 73
    0
 40
0
  0
ENDTAB
  0
TABLE
  2
STYLE
  5
3
100
AcDbSymbolTable
 70
     1
  0
STYLE
  5
10
100
AcDbSymbolTableRecord
100
AcDbTextStyleTableRecord
  2
STANDARD
 70
     0
 40
0.0
 41
1.0
 50
0.0
 71
     0
 42
0.2
  3
txt
  4
bigfont.shx
  0
STYLE
  5
26
100
AcDbSymbolTableRecord
100
AcDbTextStyleTableRecord
  2
TATEGAKI
 70
    68
 40
0.0
 41
1.0
 50
0.0
 71
     0
 42
1.0
  3
txt
  4
bigfont.shx
  0
ENDTAB
  0
TABLE
  2
LAYER
 70
    2
  0
LAYER
  2
_1-0_
 70
   64
 62
    7
  6
CONTINUOUS
  0
LAYER
  2
ADD_LINE
 70
   64
 62
    7
  6
CONTINUOUS
  0
ENDTAB
  0
ENDSEC
  0
SECTION
  2
BLOCKS
  0
ENDSEC
  0
SECTION
  2
ENTITIES
  0
LINE
  8
_1-0_
  6
CONTINUOUS
 62
    7
 10
306.50193008814404
 20
262.65645798042533
 11
812.65577624199022
 21
262.65645798042533
  0
LINE
  8
_1-0_
  6
CONTINUOUS
 62
    7
 10
306.50193008814404
 20
262.65645798042533
 11
812.65577624199022
 21
262.65645798042533
  0
LINE
  8
_1-0_
  6
CONTINUOUS
 62
    7
 10
554.50027066983398
 20
168.43190302105859
 11
554.50027066983398
 21
141.65690302105872
  0
LINE
  8
_1-0_
  6
CONTINUOUS
 62
    3
 10
571.50027066983398
 20
168.43190302105859
 11
571.50027066983398
 21
141.65690302105872
  0
LINE
  8
_1-0_
  6
CONTINUOUS
 62
    3
 10
588.50027066983398
 20
168.43190302105859
 11
588.50027066983398
 21
141.65690302105872
  0
LINE
  8
_1-0_
  6
CONTINUOUS
 62
    3
 10
605.50027066983398
 20
168.43190302105859
 11
605.50027066983398
 21
141.65690302105872
  0
LINE
  8
_1-0_
  6
CONTINUOUS
 62
    7
 10
520.69496027114906
 20
168.43190302105859
 11
520.69496027114906
 21
141.65690302105872
  0
LINE
  8
_1-0_
  6
CONTINUOUS
 62
    3
 10
605.50027066983398
 20
168.43190302105859
 11
605.50027066983398
 21
141.65690302105872
  0
LINE
  8
_1-0_
  6

 62
    3
 10
416.05908004857537
 20
-315.37926873251001
 11
416.05908004857537
 21
-236.59659273250998
  0
LINE
  8
_1-0_
  6

 62
    3
 10
416.05908004857537
 20
-186.59659373250997
 11
416.05908004857537
 21
-211.59659273250998
  0
LINE
  8
_1-0_
  6
CONTINUOUS
 62
    3
 10
367.55908104857537
 20
-186.59659373250997
 11
496.34175604857529
 21
-186.59659273250998
  0
LINE
  8
_1-0_
  6
CONTINUOUS
 62
    3
 10
367.55907704857538
 20
-315.87925873250992
 11
367.55907704857538
 21
-186.59659373250997
  0
LINE
  8
_1-0_
  6

 62
    3
 10
467.55908004857537
 20
-235.09659273250998
 11
496.34175604857529
 21
-235.09659273250998
  0
LINE
  8
_1-0_
  6
CONTINUOUS
 62
    7
 10
407.5053420485753
 20
-219.84659273250998
 11
402.61281904857532
 21
-219.84659273250998
  0
LINE
  8
_1-0_
  6
CONTINUOUS
 62
    7
 10
402.61281904857532
 20
-219.84659273250998
 11
400.15908004857539
 21
-224.09659273250998
  0
LINE
  8
_1-0_
  6
CONTINUOUS
 62
    7
 10
400.15908004857539
 20
-224.09659273250998
 11
402.61281904857532
 21
-228.34659273250998
  0
LINE
  8
_1-0_
  6
CONTINUOUS
 62
    7
 10
402.61281904857532
 20
-228.34659273250998
 11
407.5053420485753
 21
-228.34659273250998
  0
LINE
  8
_1-0_
  6
CONTINUOUS
 62
    7
 10
407.5053420485753
 20
-228.34659273250998
 11
409.95908004857534
 21
-224.09659273250998
  0
LINE
  8
_1-0_
  6
CONTINUOUS
 62
    7
 10
409.95908004857534
 20
-224.09659273250998
 11
407.5053420485753
 21
-219.84659273250998
  0
CIRCLE
  8
_1-0_
  6
CONTINUOUS
 62
    7
 10
405.05908004857537
 20
-224.09227573250996
 40
4.2456829999999997
  0
CIRCLE
  8
_1-0_
  6
CONTINUOUS
 62
    3
 10
405.05908004857537
 20
-224.09227573250996
 40
5.25
  0
LINE
  8
_1-0_
  6
CONTINUOUS
 62
    7
 10
452.61281904857532
 20
-219.84659273250998
 11
450.15908004857539
 21
-224.09659273250998
  0
LINE
  8
_1-0_
  6
CONTINUOUS
 62
    7
 10
457.5053420485753
 20
-219.84659273250998
 11
452.61281904857532
 21
-219.84659273250998
  0
LINE
  8
_1-0_
  6
CONTINUOUS
 62
    7
 10
459.95908004857534
 20
-224.09659273250998
 11
457.5053420485753
 21
-219.84659273250998
  0
LINE
  8
_1-0_
  6
CONTINUOUS
 62
    7
 10
457.5053420485753
 20
-228.34659273250998
 11
459.95908004857534
 21
-224.09659273250998
  0
LINE
  8
_1-0_
  6
CONTINUOUS
 62
    7
 10
452.61281904857532
 20
-228.34659273250998
 11
457.5053420485753
 21
-228.34659273250998
  0
LINE
  8
_1-0_
  6
CONTINUOUS
 62
    7
 10
450.15908004857539
 20
-224.09659273250998
 11
452.61281904857532
 21
-228.34659273250998
  0
CIRCLE
  8
_1-0_
  6
CONTINUOUS
 62
    7
 10
455.05908004857537
 20
-224.09227573250996
 40
4.2456829999999997
  0
CIRCLE
  8
_1-0_
  6
CONTINUOUS
 62
    3
 10
455.05908004857537
 20
-224.09227573250996
 40
5.25
  0
LINE
  8
_1-0_
  6

 62
    3
 10
369.05908004857537
 20
-186.59659573250997
 11
369.05908004857537
 21
-315.37926873251001
  0
LINE
  8
_1-0_
  6
CONTINUOUS
 62
    7
 10
427.61281904857532
 20
-219.84659273250998
 11
425.15908004857539
 21
-224.09659273250998
  0
LINE
  8
_1-0_
  6
CONTINUOUS
 62
    7
 10
432.5053420485753
 20
-219.84659273250998
 11
427.61281904857532
 21
-219.84659273250998
  0
LINE
  8
_1-0_
  6
CONTINUOUS
 62
    7
 10
434.95908004857534
 20
-224.09659273250998
 11
432.5053420485753
 21
-219.84659273250998
  0
LINE
  8
_1-0_
  6
CONTINUOUS
 62
    7
 10
432.5053420485753
 20
-228.34659273250998
 11
434.95908004857534
 21
-224.09659273250998
  0
LINE
  8
_1-0_
  6
CONTINUOUS
 62
    7
 10
427.61281904857532
 20
-228.34659273250998
 11
432.5053420485753
 21
-228.34659273250998
  0
LINE
  8
_1-0_
  6
CONTINUOUS
 62
    7
 10
425.15908004857539
 20
-224.09659273250998
 11
427.61281904857532
 21
-228.34659273250998
  0
CIRCLE
  8
_1-0_
  6
CONTINUOUS
 62
    7
 10
430.05908004857537
 20
-224.09227573250996
 40
4.2456829999999997
  0
LINE
  8
_1-0_
  6
CONTINUOUS
 62
    3
 10
467.55908004857537
 20
-211.59659273250998
 11
467.55908004857537
 21
-236.59659273250998
  0
LINE
  8
_1-0_
  6
CONTINUOUS
 62
    3
 10
453.30908004857537
 20
-301.09659273250998
 11
453.30908004857537
 21
-247.09659273250998
  0
ARC
  8
_1-0_
  6
CONTINUOUS
 62
    3
 10
447.80908004857537
 20
-301.09659273250998
 40
5.5
 50
270
 51
0
  0
LINE
  8
_1-0_
  6
CONTINUOUS
 62
    3
 10
447.80908004857537
 20
-306.59659273250998
 11
417.55908004857537
 21
-306.59659273250998
  0
LINE
  8
_1-0_
  6
CONTINUOUS
 62
    3
 10
456.80908004857537
 20
-301.09659273250998
 11
456.80908004857537
 21
-247.09659273250998
  0
ARC
  8
_1-0_
  6
CONTINUOUS
 62
    3
 10
462.30908004857537
 20
-301.09659273250998
 40
5.5
 50
180
 51
270
  0
LINE
  8
_1-0_
  6
CONTINUOUS
 62
    3
 10
462.30908004857537
 20
-306.59659273250998
 11
492.55908004857537
 21
-306.59659273250998
  0
ARC
  8
_1-0_
  6
CONTINUOUS
 62
    3
 10
447.80908004857537
 20
-247.09659273250998
 40
5.5
 50
0
 51
90
  0
LINE
  8
_1-0_
  6
CONTINUOUS
 62
    3
 10
447.80908004857537
 20
-241.59659273250998
 11
417.55908004857537
 21
-241.59659273250998
  0
LINE
  8
_1-0_
  6
CONTINUOUS
 62
    3
 10
462.30908004857537
 20
-241.59659273250998
 11
492.55908004857537
 21
-241.59659273250998
  0
ARC
  8
_1-0_
  6
CONTINUOUS
 62
    3
 10
462.30908004857537
 20
-247.09659273250998
 40
5.5
 50
90
 51
180
  0
LINE
  8
_1-0_
  6
CONTINUOUS
 62
    3
 10
492.55908004857537
 20
-311.59659273250998
 11
417.55908004857537
 21
-311.59659273250998
  0
LINE
  8
_1-0_
  6
CONTINUOUS
 62
    3
 10
492.55908004857537
 20
-236.59659273250998
 11
492.55908004857537
 21
-241.59659273250998
  0
LINE
  8
_1-0_
  6
CONTINUOUS
 62
    3
 10
492.55908004857537
 20
-306.59659273250998
 11
492.55908004857537
 21
-311.59659273250998
  0
LINE
  8
_1-0_
  6
CONTINUOUS
 62
    3
 10
392.55908004857537
 20
-211.59659273250998
 11
467.55908004857537
 21
-211.59659273250998
  0
LINE
  8
_1-0_
  6
CONTINUOUS
 62
    3
 10
392.55908004857537
 20
-236.59659273250998
 11
392.55908004857537
 21
-211.59659273250998
  0
LINE
  8
_1-0_
  6
CONTINUOUS
 62
    3
 10
392.55908004857537
 20
-236.59659273250998
 11
496.34175604857529
 21
-236.59659273250998
  0
LINE
  8
_1-0_
  6
CONTINUOUS
 62
    3
 10
417.55908004857537
 20
-236.59659273250998
 11
417.55908004857537
 21
-315.37926873251001
  0
LINE
  8
_1-0_
  6

 62
    3
 10
417.55908004857537
 20
-188.09659273250998
 11
496.34175604857529
 21
-188.09659273250998
  0
LINE
  8
_1-0_
  6
CONTINUOUS
 62
    3
 10
417.55908004857537
 20
-186.59659273250998
 11
417.55908004857537
 21
-211.59659273250998
  0
LINE
  8
_1-0_
  6
CONTINUOUS
 62
    3
 10
392.55908004857537
 20
-234.59659273250998
 11
467.55908004857537
 21
-234.59659273250998
  0
CIRCLE
  8
_1-0_
  6
CONTINUOUS
 62
    3
 10
430.05908004857537
 20
-224.09227573250996
 40
5.25
  0
CIRCLE
  8
_1-0_
  6
CONTINUOUS
 62
    2
 10
367.55908104857537
 20
-340.3792687325099
 40
0.2999999999999999
  0
CIRCLE
  8
_1-0_
  6
CONTINUOUS
 62
    2
 10
417.55908004857537
 20
-340.3792687325099
 40
0.2999999999999999
  0
LINE
  8
_1-0_
  6
CONTINUOUS
 62
    2
 10
417.55908004857537
 20
-317.37926873251001
 11
417.55908004857537
 21
-340.3792687325099
  0
LINE
  8
_1-0_
  6
CONTINUOUS
 62
    2
 10
417.55908004857537
 20
-340.3792687325099
 11
367.55908104857537
 21
-340.3792687325099
  0
CIRCLE
  8
_1-0_
  6
CONTINUOUS
 62
    2
 10
367.55908104857537
 20
-340.3792687325099
 40
0.2999999999999999
  0
LINE
  8
_1-0_
  6
CONTINUOUS
 62
    2
 10
367.55908104857537
 20
-317.37926873251001
 11
367.55908104857537
 21
-340.3792687325099
  0
LINE
  8
_1-0_
  6
CONTINUOUS
 62
    7
 10
374.63014480553392
 20
-186.59659367760298
 11
355.88013252516231
 21
-167.84658139723143
  0
LINE
  8
_1-0_
  6
CONTINUOUS
 62
    7
 10
367.55907704857538
 20
-193.66766154437545
 11
348.80906871330012
 21
-174.91765320910019
  0
LINE
  8
_1-0_
  6
CONTINUOUS
 62
    7
 10
355.88013252516231
 20
-167.84658139723143
 11
365.79623558369411
 21
-167.84658548301513
  0
LINE
  8
_1-0_
  6
CONTINUOUS
 62
    7
 10
377.29693329413391
 20
-167.84659022170763
 11
401.55908443863649
 21
-167.84660021856843
  0
LINE
  8
_1-0_
  6
CONTINUOUS
 62
    7
 10
414.79693329412754
 20
-167.84660567302853
 11
439.05908443863649
 21
-167.8466156698895
  0
LINE
  8
_1-0_
  6
CONTINUOUS
 62
    7
 10
452.29693329412117
 20
-167.84662112434967
 11
476.54658443863644
 21
-167.84663111606028
  0
LINE
  8
_1-0_
  6
CONTINUOUS
 62
    7
 10
489.78443329411476
 20
-167.84663657052022
 11
496.34175604857529
 21
-167.84663927236818
  0
LINE
  8
_1-0_
  6
CONTINUOUS
 62
    7
 10
348.80908783865362
 20
-196.3344459780642
 11
348.80909855128203
 21
-222.33374826761815
  0
LINE
  8
_1-0_
  6
CONTINUOUS
 62
    7
 10
348.80906871330012
 20
-174.91765320910019
 11
348.80907279908052
 21
-184.83374826762872
  0
LINE
  8
_1-0_
  6
CONTINUOUS
 62
    7
 10
348.80907753777262
 20
-196.33444503735166
 11
348.80908309996101
 21
-209.83374826762451
  0
LINE
  8
_1-0_
  6
CONTINUOUS
 62
    7
 10
348.80912389173596
 20
-308.83444597804942
 11
348.80912679444697
 21
-315.87925873250992
  0
LINE
  8
_1-0_
  6
CONTINUOUS
 62
    7
 10
348.80910328997464
 20
-233.83444597805783
 11
348.80911400260317
 21
-259.83374826761178
  0
LINE
  8
_1-0_
  6
CONTINUOUS
 62
    7
 10
348.80911874129578
 20
-271.33444597805146
 11
348.80912873815686
 21
-295.5965971225711
  0
LINE
  8
_1-0_
  6
CONTINUOUS
 62
    3
 10
627.94463107385468
 20
-262.84659573250997
 11
627.62719407385475
 21
-262.53409573250997
  0
LINE
  8
_1-0_
  6
CONTINUOUS
 62
    3
 10
627.62719407385475
 20
-262.53409573250997
 11
627.53213207385465
 21
-262.53409573250997
  0
LINE
  8
_1-0_
  6
CONTINUOUS
 62
    3
 10
627.62719407385475
 20
-262.53409573250997
 11
627.53213207385465
 21
-262.28059706584338
  0
LINE
  8
_1-0_
  6
CONTINUOUS
 62
    3
 10
627.53213207385465
 20
-261.21259706584317
 11
628.02769407385472
 21
-262.53409573250997
  0
LINE
  8
_1-0_
  6
CONTINUOUS
 62
    3
 10
627.53213207385465
 20
-260.65909573250997
 11
627.86156907385475
 21
-260.65909573250997
  0
LINE
  8
_1-0_
  6
CONTINUOUS
 62
    3
 10
628.56469407385475
 20
-262.53409573250997
 11
628.02769407385472
 21
-262.53409573250997
  0
LINE
  8
_1-0_
  6
CONTINUOUS
 62
    3
 10
628.02769407385472
 20
-262.53409573250997
 11
627.94463107385468
 21
-262.84659573250997
  0
LINE
  8
_1-0_
  6
CONTINUOUS
 62
    3
 10
628.88213107385468
 20
-262.84659573250997
 11
628.56469407385475
 21
-262.53409573250997
  0
LINE
  8
_1-0_
  6
CONTINUOUS
 62
    3
 10
628.96519407385472
 20
-262.53409573250997
 11
628.88213107385468
 21
-262.84659573250997
  0
LINE
  8
_1-0_
  6
CONTINUOUS
 62
    3
 10
628.26206907385472
 20
-260.65909573250997
 11
628.96519407385472
 21
-262.53409573250997
  0
LINE
  8
_1-0_
  6
CONTINUOUS
 62
    3
 10
627.94463107385468
 20
-260.34659573250997
 11
628.26206907385472
 21
-260.65909573250997
  0
LINE
  8
_1-0_
  6
CONTINUOUS
 62
    3
 10
627.86156907385475
 20
-260.65909573250997
 11
627.94463107385468
 21
-260.34659573250997
  0
LINE
  8
_1-0_
  6
CONTINUOUS
 62
    3
 10
628.56469407385475
 20
-262.53409573250997
 11
627.86156907385475
 21
-260.65909573250997
  0
LINE
  8
_1-0_
  6
CONTINUOUS
 62
    3
 10
628.79906907385475
 20
-260.65909573250997
 11
628.88213107385468
 21
-260.34659573250997
  0
LINE
  8
_1-0_
  6
CONTINUOUS
 62
    3
 10
628.26206907385472
 20
-260.65909573250997
 11
628.79906907385475
 21
-260.65909573250997
  0
ARC
  8
_1-0_
  6
CONTINUOUS
 62
    3
 10
629.84343807385471
 20
-261.59659573250997
 40
4.9113049999999996
 50
153.95941400000001
 51
206.04058600000002
  0
LINE
  8
_1-0_
  6
CONTINUOUS
 62
    3
 10
626.53213207385465
 20
-263.68292073250996
 11
626.03213207385465
 21
-263.97159573250997
  0
LINE
  8
_1-0_
  6
CONTINUOUS
 62
    3
 10
626.03213207385465
 20
-259.22159573250997
 11
626.53213207385465
 21
-259.51027073250998
  0
LINE
  8
_1-0_
  6
CONTINUOUS
 62
    3
 10
626.03213207385465
 20
-263.97159573250997
 11
626.03213207385465
 21
-259.22159573250997
  0
LINE
  8
_1-0_
  6
CONTINUOUS
 62
    3
 10
625.43071207385469
 20
-263.75269673251
 11
626.03213207385465
 21
-263.97159573250997
  0
LINE
  8
_1-0_
  6
CONTINUOUS
 62
    3
 10
625.43071207385469
 20
-259.44049473250993
 11
626.03213207385465
 21
-259.22159573250997
  0
LINE
  8
_1-0_
  6
CONTINUOUS
 62
    7
 10
626.53213207385465
 20
-260.22159573250997
 11
627.53213207385465
 21
-260.22159573250997
  0
LINE
  8
_1-0_
  6
CONTINUOUS
 62
    7
 10
626.53213207385465
 20
-262.97159573250997
 11
627.53213207385465
 21
-262.97159573250997
  0
LINE
  8
_1-0_
  6
CONTINUOUS
 62
    3
 10
629.50219407385475
 20
-262.53409573250997
 11
628.96519407385472
 21
-262.53409573250997
  0
LINE
  8
_1-0_
  6
CONTINUOUS
 62
    3
 10
627.94463107385468
 20
-260.34659573250997
 11
627.88213107385468
 21
-260.58173473250997
  0
LINE
  8
_1-0_
  6
CONTINUOUS
 62
    3
 10
628.56469407385475
 20
-262.53409573250997
 11
627.88213107385468
 21
-260.71392973251
  0
LINE
  8
_1-0_
  6
CONTINUOUS
 62
    3
 10
628.88213107385468
 20
-262.84659573250997
 11
628.56469407385475
 21
-262.53409573250997
  0
LINE
  8
_1-0_
  6
CONTINUOUS
 62
    3
 10
628.96519407385472
 20
-262.53409573250997
 11
628.88213107385468
 21
-262.84659573250997
  0
LINE
  8
_1-0_
  6
CONTINUOUS
 62
    3
 10
628.26206907385472
 20
-260.65909573250997
 11
628.96519407385472
 21
-262.53409573250997
  0
LINE
  8
_1-0_
  6
CONTINUOUS
 62
    3
 10
627.94463107385468
 20
-260.34659573250997
 11
628.26206907385472
 21
-260.65909573250997
  0
LINE
  8
_1-0_
  6
CONTINUOUS
 62
    3
 10
630.43969407385475
 20
-262.53409573250997
 11
629.90269407385472
 21
-262.53409573250997
  0
LINE
  8
_1-0_
  6
CONTINUOUS
 62
    3
 10
629.81963107385468
 20
-262.84659573250997
 11
629.50219407385475
 21
-262.53409573250997
  0
LINE
  8
_1-0_
  6
CONTINUOUS
 62
    3
 10
629.90269407385472
 20
-262.53409573250997
 11
629.81963107385468
 21
-262.84659573250997
  0
LINE
  8
_1-0_
  6
CONTINUOUS
 62
    3
 10
629.19956907385472
 20
-260.65909573250997
 11
629.90269407385472
 21
-262.53409573250997
  0
LINE
  8
_1-0_
  6
CONTINUOUS
 62
    3
 10
628.88213107385468
 20
-260.34659573250997
 11
629.19956907385472
 21
-260.65909573250997
  0
LINE
  8
_1-0_
  6
CONTINUOUS
 62
    3
 10
628.79906907385475
 20
-260.65909573250997
 11
628.88213107385468
 21
-260.34659573250997
  0
LINE
  8
_1-0_
  6
CONTINUOUS
 62
    3
 10
629.50219407385475
 20
-262.53409573250997
 11
628.79906907385475
 21
-260.65909573250997
  0
LINE
  8
_1-0_
  6
CONTINUOUS
 62
    3
 10
631.37719407385475
 20
-262.53409573250997
 11
630.84019407385472
 21
-262.53409573250997
  0
LINE
  8
_1-0_
  6
CONTINUOUS
 62
    3
 10
630.75713107385468
 20
-262.84659573250997
 11
630.43969407385475
 21
-262.53409573250997
  0
LINE
  8
_1-0_
  6
CONTINUOUS
 62
    3
 10
630.84019407385472
 20
-262.53409573250997
 11
630.75713107385468
 21
-262.84659573250997
  0
LINE
  8
_1-0_
  6
CONTINUOUS
 62
    3
 10
630.13706907385472
 20
-260.65909573250997
 11
630.84019407385472
 21
-262.53409573250997
  0
LINE
  8
_1-0_
  6
CONTINUOUS
 62
    3
 10
629.81963107385468
 20
-260.34659573250997
 11
630.13706907385472
 21
-260.65909573250997
  0
LINE
  8
_1-0_
  6
CONTINUOUS
 62
    3
 10
629.73656907385475
 20
-260.65909573250997
 11
629.81963107385468
 21
-260.34659573250997
  0
LINE
  8
_1-0_
  6
CONTINUOUS
 62
    3
 10
630.43969407385475
 20
-262.53409573250997
 11
629.73656907385475
 21
-260.65909573250997
  0
LINE
  8
_1-0_
  6
CONTINUOUS
 62
    3
 10
631.07456907385472
 20
-260.65909573250997
 11
631.53213107385477
 21
-261.87926273250991
  0
LINE
  8
_1-0_
  6
CONTINUOUS
 62
    3
 10
631.37719407385475
 20
-262.53409573250997
 11
631.53213107385477
 21
-262.68662373250993
  0
LINE
  8
_1-0_
  6
CONTINUOUS
 62
    3
 10
630.75713107385468
 20
-260.34659573250997
 11
631.07456907385472
 21
-260.65909573250997
  0
LINE
  8
_1-0_
  6
CONTINUOUS
 62
    3
 10
630.67406907385475
 20
-260.65909573250997
 11
630.75713107385468
 21
-260.34659573250997
  0
LINE
  8
_1-0_
  6
CONTINUOUS
 62
    3
 10
631.37719407385475
 20
-262.53409573250997
 11
630.67406907385475
 21
-260.65909573250997
  0
LINE
  8
_1-0_
  6
CONTINUOUS
 62
    3
 10
631.07456907385472
 20
-260.65909573250997
 11
631.53213107385477
 21
-260.65909573250997
  0
LINE
  8
_1-0_
  6
CONTINUOUS
 62
    3
 10
630.13706907385472
 20
-260.65909573250997
 11
630.67406907385475
 21
-260.65909573250997
  0
LINE
  8
_1-0_
  6
CONTINUOUS
 62
    3
 10
629.19956907385472
 20
-260.65909573250997
 11
629.73656907385475
 21
-260.65909573250997
  0
LINE
  8
_1-0_
  6
CONTINUOUS
 62
    3
 10
628.26206907385472
 20
-260.65909573250997
 11
628.79906907385475
 21
-260.65909573250997
  0
LINE
  8
_1-0_
  6
CONTINUOUS
 62
    3
 10
705.28213507385476
 20
-183.00909273251
 11
705.59463507385476
 21
-182.69165573250996
  0
LINE
  8
_1-0_
  6
CONTINUOUS
 62
    3
 10
705.59463507385476
 20
-182.69165573250996
 11
705.59463507385476
 21
-182.59659373250997
  0
LINE
  8
_1-0_
  6
CONTINUOUS
 62
    3
 10
705.59463507385476
 20
-182.69165573250996
 11
705.84813374052135
 21
-182.59659373250997
  0
LINE
  8
_1-0_
  6
CONTINUOUS
 62
    3
 10
706.91613374052156
 20
-182.59659373250997
 11
705.59463507385476
 21
-183.09215573251004
  0
LINE
  8
_1-0_
  6
CONTINUOUS
 62
    3
 10
707.46963507385476
 20
-182.59659373250997
 11
707.46963507385476
 21
-182.92603073250996
  0
LINE
  8
_1-0_
  6
CONTINUOUS
 62
    3
 10
705.59463507385476
 20
-183.62915573250996
 11
705.59463507385476
 21
-183.09215573251004
  0
LINE
  8
_1-0_
  6
CONTINUOUS
 62
    3
 10
705.59463507385476
 20
-183.09215573251004
 11
705.28213507385476
 21
-183.00909273251
  0
LINE
  8
_1-0_
  6
CONTINUOUS
 62
    3
 10
705.28213507385476
 20
-183.94659273251
 11
705.59463507385476
 21
-183.62915573250996
  0
LINE
  8
_1-0_
  6
CONTINUOUS
 62
    3
 10
705.59463507385476
 20
-184.02965573251004
 11
705.28213507385476
 21
-183.94659273251
  0
LINE
  8
_1-0_
  6
CONTINUOUS
 62
    3
 10
707.46963507385476
 20
-183.32653073251004
 11
705.59463507385476
 21
-184.02965573251004
  0
LINE
  8
_1-0_
  6
CONTINUOUS
 62
    3
 10
707.78213507385476
 20
-183.00909273251
 11
707.46963507385476
 21
-183.32653073251004
  0
LINE
  8
_1-0_
  6
CONTINUOUS
 62
    3
 10
707.46963507385476
 20
-182.92603073250996
 11
707.78213507385476
 21
-183.00909273251
  0
LINE
  8
_1-0_
  6
CONTINUOUS
 62
    3
 10
705.59463507385476
 20
-183.62915573250996
 11
707.46963507385476
 21
-182.92603073250996
  0
LINE
  8
_1-0_
  6
CONTINUOUS
 62
    3
 10
707.46963507385476
 20
-183.86353073250996
 11
707.78213507385476
 21
-183.94659273251
  0
LINE
  8
_1-0_
  6
CONTINUOUS
 62
    3
 10
707.46963507385476
 20
-183.32653073251004
 11
707.46963507385476
 21
-183.86353073250996
  0
ARC
  8
_1-0_
  6
CONTINUOUS
 62
    3
 10
706.53213507385476
 20
-184.90789973251003
 40
4.9113049999999996
 50
63.959414000000002
 51
116.040586
  0
LINE
  8
_1-0_
  6
CONTINUOUS
 62
    3
 10
704.44581007385477
 20
-181.59659373250997
 11
704.15713507385476
 21
-181.09659373250997
  0
LINE
  8
_1-0_
  6
CONTINUOUS
 62
    3
 10
708.90713507385476
 20
-181.09659373250997
 11
708.61846007385475
 21
-181.59659373250997
  0
LINE
  8
_1-0_
  6
CONTINUOUS
 62
    3
 10
704.15713507385476
 20
-181.09659373250997
 11
708.90713507385476
 21
-181.09659373250997
  0
LINE
  8
_1-0_
  6
CONTINUOUS
 62
    3
 10
704.37603407385473
 20
-180.49517373251001
 11
704.15713507385476
 21
-181.09659373250997
  0
LINE
  8
_1-0_
  6
CONTINUOUS
 62
    3
 10
708.6882360738548
 20
-180.49517373251001
 11
708.90713507385476
 21
-181.09659373250997
  0
ARC
  8
_1-0_
  6
CONTINUOUS
 62
    7
 10
710.35713507385458
 20
-186.27159373250993
 40
0.325
 50
180
 51
270
  0
ARC
  8
_1-0_
  6
CONTINUOUS
 62
    7
 10
710.35713507385458
 20
-186.27159373250993
 40
0.325
 50
90
 51
180
  0
LINE
  8
_1-0_
  6
CONTINUOUS
 62
    7
 10
716.53213507385476
 20
-164.19659373250988
 11
716.53213507385476
 21
-160.09659373250997
  0
LINE
  8
_1-0_
  6
CONTINUOUS
 62
    7
 10
716.53213507385476
 20
-172.24659373250995
 11
716.53213507385476
 21
-164.84659373250997
  0
LINE
  8
_1-0_
  6
CONTINUOUS
 62
    7
 10
717.28213507385476
 20
-164.84659373250997
 11
716.53213507385476
 21
-164.84659373250997
  0
LINE
  8
_1-0_
  6
CONTINUOUS
 62
    7
 10
717.28213507385476
 20
-164.19659373250988
 11
716.53213507385476
 21
-164.19659373250988
  0
LINE
  8
_1-0_
  6
CONTINUOUS
 62
    7
 10
713.38213507385467
 20
-181.59659373250997
 11
713.38213507385467
 21
-171.59659373250997
  0
LINE
  8
_1-0_
  6
CONTINUOUS
 62
    7
 10
713.38213507385467
 20
-185.94659373250988
 11
713.38213507385467
 21
-182.59659373250997
  0
LINE
  8
_1-0_
  6
CONTINUOUS
 62
    7
 10
715.88213507385467
 20
-171.59659373250997
 11
715.88213507385467
 21
-160.09659373250997
  0
LINE
  8
_1-0_
  6
CONTINUOUS
 62
    7
 10
706.53213507385476
 20
-182.59659373250997
 11
713.38213507385467
 21
-182.59659373250997
  0
LINE
  8
_1-0_
  6
CONTINUOUS
 62
    7
 10
706.53213507385476
 20
-181.59659373250997
 11
713.38213507385467
 21
-181.59659373250997
  0
LINE
  8
_1-0_
  6
CONTINUOUS
 62
    7
 10
716.53213507385476
 20
-172.24659373250995
 11
714.03213507385476
 21
-172.24659373250995
  0
LINE
  8
_1-0_
  6
CONTINUOUS
 62
    7
 10
713.38213507385467
 20
-171.59659373250997
 11
715.88213507385467
 21
-171.59659373250997
  0
LINE
  8
_1-0_
  6
CONTINUOUS
 62
    7
 10
714.03213507385476
 20
-186.59659373250997
 11
714.03213507385476
 21
-172.24659373250995
  0
LINE
  8
_1-0_
  6
CONTINUOUS
 62
    7
 10
713.38213507385467
 20
-185.94659373250988
 11
710.35713507385458
 21
-185.94659373250988
  0
LINE
  8
_1-0_
  6
CONTINUOUS
 62
    7
 10
717.28213507385476
 20
-164.19659373250988
 11
717.28213507385476
 21
-164.84659373250997
  0
LINE
  8
_1-0_
  6
CONTINUOUS
 62
    7
 10
716.53213507385476
 20
-160.09659373250997
 11
715.88213507385467
 21
-160.09659373250997
  0
LINE
  8
_1-0_
  6
CONTINUOUS
 62
    7
 10
714.03213507385476
 20
-186.59659373250997
 11
710.35713507385458
 21
-186.59659373250997
  0
ARC
  8
_1-0_
  6
CONTINUOUS
 62
    7
 10
702.70713507385472
 20
-186.27159373250993
 40
0.325
 50
270
 51
0
  0
ARC
  8
_1-0_
  6
CONTINUOUS
 62
    7
 10
702.70713507385472
 20
-186.27159373250993
 40
0.325
 50
0
 51
90
  0
LINE
  8
_1-0_
  6
CONTINUOUS
 62
    7
 10
696.53213507385476
 20
-164.19659373250988
 11
696.53213507385476
 21
-160.09659373250997
  0
LINE
  8
_1-0_
  6
CONTINUOUS
 62
    7
 10
696.53213507385476
 20
-172.24659373250995
 11
696.53213507385476
 21
-164.84659373250997
  0
LINE
  8
_1-0_
  6
CONTINUOUS
 62
    7
 10
695.78213507385476
 20
-164.84659373250997
 11
696.53213507385476
 21
-164.84659373250997
  0
LINE
  8
_1-0_
  6
CONTINUOUS
 62
    7
 10
695.78213507385476
 20
-164.19659373250988
 11
696.53213507385476
 21
-164.19659373250988
  0
LINE
  8
_1-0_
  6
CONTINUOUS
 62
    7
 10
699.68213507385462
 20
-181.59659373250997
 11
699.68213507385462
 21
-171.59659373250997
  0
LINE
  8
_1-0_
  6
CONTINUOUS
 62
    7
 10
699.68213507385462
 20
-185.94659373250988
 11
699.68213507385462
 21
-182.59659373250997
  0
LINE
  8
_1-0_
  6
CONTINUOUS
 62
    7
 10
697.18213507385462
 20
-171.59659373250997
 11
697.18213507385462
 21
-160.09659373250997
  0
LINE
  8
_1-0_
  6
CONTINUOUS
 62
    7
 10
706.53213507385476
 20
-182.59659373250997
 11
699.68213507385462
 21
-182.59659373250997
  0
LINE
  8
_1-0_
  6
CONTINUOUS
 62
    7
 10
706.53213507385476
 20
-181.59659373250997
 11
699.68213507385462
 21
-181.59659373250997
  0
LINE
  8
_1-0_
  6
CONTINUOUS
 62
    7
 10
696.53213507385476
 20
-172.24659373250995
 11
699.03213507385476
 21
-172.24659373250995
  0
LINE
  8
_1-0_
  6
CONTINUOUS
 62
    7
 10
699.68213507385462
 20
-171.59659373250997
 11
697.18213507385462
 21
-171.59659373250997
  0
LINE
  8
_1-0_
  6
CONTINUOUS
 62
    7
 10
699.03213507385476
 20
-186.59659373250997
 11
699.03213507385476
 21
-172.24659373250995
  0
LINE
  8
_1-0_
  6
CONTINUOUS
 62
    7
 10
699.68213507385462
 20
-185.94659373250988
 11
702.70713507385472
 21
-185.94659373250988
  0
LINE
  8
_1-0_
  6
CONTINUOUS
 62
    7
 10
695.78213507385476
 20
-164.19659373250988
 11
695.78213507385476
 21
-164.84659373250997
  0
LINE
  8
_1-0_
  6
CONTINUOUS
 62
    7
 10
696.53213507385476
 20
-160.09659373250997
 11
697.18213507385462
 21
-160.09659373250997
  0
LINE
  8
_1-0_
  6
CONTINUOUS
 62
    7
 10
699.03213507385476
 20
-186.59659373250997
 11
702.70713507385472
 21
-186.59659373250997
  0
LINE
  8
_1-0_
  6
CONTINUOUS
 62
    7
 10
715.88213507385467
 20
-167.84659373255124
 11
716.53213507385476
 21
-167.84659373255226
  0
LINE
  8
_1-0_
  6
CONTINUOUS
 62
    7
 10
696.53213507385476
 20
-167.846593732521
 11
697.18213507385462
 21
-167.84659373252202
  0
LINE
  8
_1-0_
  6
CONTINUOUS
 62
    7
 10
715.88213507385467
 20
-164.99659373250722
 11
716.53213507385476
 21
-164.99659373250722
  0
LINE
  8
_1-0_
  6
CONTINUOUS
 62
    7
 10
696.53213507385476
 20
-164.99659373250722
 11
697.18213507385462
 21
-164.99659373250722
  0
LINE
  8
_1-0_
  6
CONTINUOUS
 62
    7
 10
707.90713507385476
 20
-181.59659373250997
 11
707.90713507385476
 21
-182.59659373250997
  0
LINE
  8
_1-0_
  6
CONTINUOUS
 62
    7
 10
705.15713507385476
 20
-181.59659373250986
 11
705.15713507385476
 21
-182.59659373250997
  0
ARC
  8
_1-0_
  6
CONTINUOUS
 62
    7
 10
631.20713207385461
 20
-257.77159573251015
 40
0.325
 50
270
 51
0
  0
ARC
  8
_1-0_
  6
CONTINUOUS
 62
    7
 10
631.20713207385461
 20
-257.77159573251015
 40
0.325
 50
180
 51
270
  0
LINE
  8
_1-0_
  6
CONTINUOUS
 62
    7
 10
609.13213207385456
 20
-251.59659573250997
 11
605.03213207385465
 21
-251.59659573250997
  0
LINE
  8
_1-0_
  6
CONTINUOUS
 62
    7
 10
617.18213207385475
 20
-251.59659573250997
 11
609.78213207385465
 21
-251.59659573250997
  0
LINE
  8
_1-0_
  6
CONTINUOUS
 62
    7
 10
609.78213207385465
 20
-250.84659573250997
 11
609.78213207385465
 21
-251.59659573250997
  0
LINE
  8
_1-0_
  6
CONTINUOUS
 62
    7
 10
609.13213207385456
 20
-250.84659573250997
 11
609.13213207385456
 21
-251.59659573250997
  0
LINE
  8
_1-0_
  6
CONTINUOUS
 62
    7
 10
626.53213207385465
 20
-254.74659573251006
 11
616.53213207385465
 21
-254.74659573251006
  0
LINE
  8
_1-0_
  6
CONTINUOUS
 62
    7
 10
630.88213207385456
 20
-254.74659573251006
 11
627.53213207385465
 21
-254.74659573251006
  0
LINE
  8
_1-0_
  6
CONTINUOUS
 62
    7
 10
616.53213207385465
 20
-252.24659573251006
 11
605.03213207385465
 21
-252.24659573251006
  0
LINE
  8
_1-0_
  6
CONTINUOUS
 62
    7
 10
627.53213207385465
 20
-261.59659573250997
 11
627.53213207385465
 21
-254.74659573251006
  0
LINE
  8
_1-0_
  6
CONTINUOUS
 62
    7
 10
626.53213207385465
 20
-261.59659573250997
 11
626.53213207385465
 21
-254.74659573251006
  0
LINE
  8
_1-0_
  6
CONTINUOUS
 62
    7
 10
617.18213207385475
 20
-251.59659573250997
 11
617.18213207385475
 21
-254.09659573250997
  0
LINE
  8
_1-0_
  6
CONTINUOUS
 62
    7
 10
616.53213207385465
 20
-254.74659573251006
 11
616.53213207385465
 21
-252.24659573251006
  0
LINE
  8
_1-0_
  6
CONTINUOUS
 62
    7
 10
631.53213207385465
 20
-254.09659573250997
 11
617.18213207385475
 21
-254.09659573250997
  0
LINE
  8
_1-0_
  6
CONTINUOUS
 62
    7
 10
630.88213207385456
 20
-254.74659573251006
 11
630.88213207385456
 21
-257.77159573251015
  0
LINE
  8
_1-0_
  6
CONTINUOUS
 62
    7
 10
609.13213207385456
 20
-250.84659573250997
 11
609.78213207385465
 21
-250.84659573250997
  0
LINE
  8
_1-0_
  6
CONTINUOUS
 62
    7
 10
605.03213207385465
 20
-251.59659573250997
 11
605.03213207385465
 21
-252.24659573251006
  0
LINE
  8
_1-0_
  6
CONTINUOUS
 62
    7
 10
631.53213207385465
 20
-254.09659573250997
 11
631.53213207385465
 21
-257.77159573251015
  0
ARC
  8
_1-0_
  6
CONTINUOUS
 62
    7
 10
631.20713207385461
 20
-265.42159573251001
 40
0.325
 50
0
 51
90
  0
ARC
  8
_1-0_
  6
CONTINUOUS
 62
    7
 10
631.20713207385461
 20
-265.42159573251001
 40
0.325
 50
90
 51
180
  0
LINE
  8
_1-0_
  6
CONTINUOUS
 62
    7
 10
609.13213207385456
 20
-271.59659573250997
 11
605.03213207385465
 21
-271.59659573250997
  0
LINE
  8
_1-0_
  6
CONTINUOUS
 62
    7
 10
617.18213207385463
 20
-271.59659573250997
 11
609.78213207385465
 21
-271.59659573250997
  0
LINE
  8
_1-0_
  6
CONTINUOUS
 62
    7
 10
609.78213207385465
 20
-272.34659573250997
 11
609.78213207385465
 21
-271.59659573250997
  0
LINE
  8
_1-0_
  6
CONTINUOUS
 62
    7
 10
609.13213207385456
 20
-272.34659573250997
 11
609.13213207385456
 21
-271.59659573250997
  0
LINE
  8
_1-0_
  6
CONTINUOUS
 62
    7
 10
626.53213207385465
 20
-268.4465957325101
 11
616.53213207385465
 21
-268.4465957325101
  0
LINE
  8
_1-0_
  6
CONTINUOUS
 62
    7
 10
630.88213207385456
 20
-268.4465957325101
 11
627.53213207385465
 21
-268.4465957325101
  0
LINE
  8
_1-0_
  6
CONTINUOUS
 62
    7
 10
616.53213207385465
 20
-270.9465957325101
 11
605.03213207385465
 21
-270.9465957325101
  0
LINE
  8
_1-0_
  6
CONTINUOUS
 62
    7
 10
627.53213207385465
 20
-261.59659573250997
 11
627.53213207385465
 21
-268.4465957325101
  0
LINE
  8
_1-0_
  6
CONTINUOUS
 62
    7
 10
626.53213207385465
 20
-261.59659573250997
 11
626.53213207385465
 21
-268.4465957325101
  0
LINE
  8
_1-0_
  6
CONTINUOUS
 62
    7
 10
617.18213207385463
 20
-271.59659573250997
 11
617.18213207385463
 21
-269.09659573250997
  0
LINE
  8
_1-0_
  6
CONTINUOUS
 62
    7
 10
616.53213207385465
 20
-268.4465957325101
 11
616.53213207385465
 21
-270.9465957325101
  0
LINE
  8
_1-0_
  6
CONTINUOUS
 62
    7
 10
631.53213207385465
 20
-269.09659573250997
 11
617.18213207385463
 21
-269.09659573250997
  0
LINE
  8
_1-0_
  6
CONTINUOUS
 62
    7
 10
630.88213207385456
 20
-268.4465957325101
 11
630.88213207385456
 21
-265.42159573251001
  0
LINE
  8
_1-0_
  6
CONTINUOUS
 62
    7
 10
609.13213207385456
 20
-272.34659573250997
 11
609.78213207385465
 21
-272.34659573250997
  0
LINE
  8
_1-0_
  6
CONTINUOUS
 62
    7
 10
605.03213207385465
 20
-271.59659573250997
 11
605.03213207385465
 21
-270.9465957325101
  0
LINE
  8
_1-0_
  6
CONTINUOUS
 62
    7
 10
631.53213207385465
 20
-269.09659573250997
 11
631.53213207385465
 21
-265.42159573251001
  0
LINE
  8
_1-0_
  6
CONTINUOUS
 62
    7
 10
612.78213207389604
 20
-252.24659573251006
 11
612.78213207389706
 21
-251.59659573250997
  0
LINE
  8
_1-0_
  6
CONTINUOUS
 62
    7
 10
612.78213207386568
 20
-271.59659573250997
 11
612.78213207386671
 21
-270.9465957325101
  0
LINE
  8
_1-0_
  6
CONTINUOUS
 62
    7
 10
609.93213207385202
 20
-252.24659573251006
 11
609.93213207385202
 21
-251.59659573250997
  0
LINE
  8
_1-0_
  6
CONTINUOUS
 62
    7
 10
609.93213207385202
 20
-271.59659573250997
 11
609.93213207385202
 21
-270.9465957325101
  0
LINE
  8
_1-0_
  6
CONTINUOUS
 62
    7
 10
626.53213207385465
 20
-260.22159573250997
 11
627.53213207385465
 21
-260.22159573250997
  0
LINE
  8
_1-0_
  6
CONTINUOUS
 62
    7
 10
626.53213207385465
 20
-262.97159573250997
 11
627.53213207385465
 21
-262.97159573250997
  0
LINE
  8
_1-0_
  6
CONTINUOUS
 62
    3
 10
705.59463507385476
 20
-184.56665573250996
 11
705.59463507385476
 21
-184.02965573251004
  0
LINE
  8
_1-0_
  6
CONTINUOUS
 62
    3
 10
707.78213507385476
 20
-183.00909273251
 11
707.54699607385464
 21
-182.94659273251
  0
LINE
  8
_1-0_
  6
CONTINUOUS
 62
    3
 10
705.59463507385476
 20
-183.62915573250996
 11
707.41480107385473
 21
-182.94659273251
  0
LINE
  8
_1-0_
  6
CONTINUOUS
 62
    3
 10
705.28213507385476
 20
-183.94659273251
 11
705.59463507385476
 21
-183.62915573250996
  0
LINE
  8
_1-0_
  6
CONTINUOUS
 62
    3
 10
705.59463507385476
 20
-184.02965573251004
 11
705.28213507385476
 21
-183.94659273251
  0
LINE
  8
_1-0_
  6
CONTINUOUS
 62
    3
 10
707.46963507385476
 20
-183.32653073251004
 11
705.59463507385476
 21
-184.02965573251004
  0
LINE
  8
_1-0_
  6
CONTINUOUS
 62
    3
 10
707.78213507385476
 20
-183.00909273251
 11
707.46963507385476
 21
-183.32653073251004
  0
LINE
  8
_1-0_
  6
CONTINUOUS
 62
    3
 10
705.59463507385476
 20
-185.50415573250996
 11
705.59463507385476
 21
-184.96715573251004
  0
LINE
  8
_1-0_
  6
CONTINUOUS
 62
    3
 10
705.28213507385476
 20
-184.88409273251
 11
705.59463507385476
 21
-184.56665573250996
  0
LINE
  8
_1-0_
  6
CONTINUOUS
 62
    3
 10
705.59463507385476
 20
-184.96715573251004
 11
705.28213507385476
 21
-184.88409273251
  0
LINE
  8
_1-0_
  6
CONTINUOUS
 62
    3
 10
707.46963507385476
 20
-184.26403073251004
 11
705.59463507385476
 21
-184.96715573251004
  0
LINE
  8
_1-0_
  6
CONTINUOUS
 62
    3
 10
707.78213507385476
 20
-183.94659273251
 11
707.46963507385476
 21
-184.26403073251004
  0
LINE
  8
_1-0_
  6
CONTINUOUS
 62
    3
 10
707.46963507385476
 20
-183.86353073250996
 11
707.78213507385476
 21
-183.94659273251
  0
LINE
  8
_1-0_
  6
CONTINUOUS
 62
    3
 10
705.59463507385476
 20
-184.56665573250996
 11
707.46963507385476
 21
-183.86353073250996
  0
LINE
  8
_1-0_
  6
CONTINUOUS
 62
    3
 10
705.59463507385476
 20
-186.44165573250996
 11
705.59463507385476
 21
-185.90465573251004
  0
LINE
  8
_1-0_
  6
CONTINUOUS
 62
    3
 10
705.28213507385476
 20
-185.82159273251
 11
705.59463507385476
 21
-185.50415573250996
  0
LINE
  8
_1-0_
  6
CONTINUOUS
 62
    3
 10
705.59463507385476
 20
-185.90465573251004
 11
705.28213507385476
 21
-185.82159273251
  0
LINE
  8
_1-0_
  6
CONTINUOUS
 62
    3
 10
707.46963507385476
 20
-185.20153073251004
 11
705.59463507385476
 21
-185.90465573251004
  0
LINE
  8
_1-0_
  6
CONTINUOUS
 62
    3
 10
707.78213507385476
 20
-184.88409273251
 11
707.46963507385476
 21
-185.20153073251004
  0
LINE
  8
_1-0_
  6
CONTINUOUS
 62
    3
 10
707.46963507385476
 20
-184.80103073250996
 11
707.78213507385476
 21
-184.88409273251
  0
LINE
  8
_1-0_
  6
CONTINUOUS
 62
    3
 10
705.59463507385476
 20
-185.50415573250996
 11
707.46963507385476
 21
-184.80103073250996
  0
LINE
  8
_1-0_
  6
CONTINUOUS
 62
    3
 10
707.46963507385476
 20
-186.13903073251004
 11
706.24946807385481
 21
-186.59659273250998
  0
LINE
  8
_1-0_
  6
CONTINUOUS
 62
    3
 10
705.59463507385476
 20
-186.44165573250996
 11
705.44210707385469
 21
-186.59659273250998
  0
LINE
  8
_1-0_
  6
CONTINUOUS
 62
    3
 10
707.78213507385476
 20
-185.82159273251
 11
707.46963507385476
 21
-186.13903073251004
  0
LINE
  8
_1-0_
  6
CONTINUOUS
 62
    3
 10
707.46963507385476
 20
-185.73853073250996
 11
707.78213507385476
 21
-185.82159273251
  0
LINE
  8
_1-0_
  6
CONTINUOUS
 62
    3
 10
705.59463507385476
 20
-186.44165573250996
 11
707.46963507385476
 21
-185.73853073250996
  0
LINE
  8
_1-0_
  6
CONTINUOUS
 62
    3
 10
707.46963507385476
 20
-186.13903073251004
 11
707.46963507385476
 21
-186.59659273250998
  0
LINE
  8
_1-0_
  6
CONTINUOUS
 62
    3
 10
707.46963507385476
 20
-185.20153073251004
 11
707.46963507385476
 21
-185.73853073250996
  0
LINE
  8
_1-0_
  6
CONTINUOUS
 62
    3
 10
707.46963507385476
 20
-184.26403073251004
 11
707.46963507385476
 21
-184.80103073250996
  0
LINE
  8
_1-0_
  6
CONTINUOUS
 62
    3
 10
707.46963507385476
 20
-183.32653073251004
 11
707.46963507385476
 21
-183.86353073250996
  0
LINE
  8
_1-0_
  6

 62
    3
 10
706.53213507385476
 20
-189.09659273250998
 11
706.53213507385476
 21
-156.59659273250998
  0
LINE
  8
_1-0_
  6

 62
    3
 10
634.03213207385465
 20
-261.59659573250997
 11
601.53213207385465
 21
-261.59659573250997
  0
LINE
  8
_1-0_
  6

 62
    3
 10
680.03213507385476
 20
-315.37926873251001
 11
680.03213507385476
 21
-236.59659273250998
  0
LINE
  8
_1-0_
  6

 62
    3
 10
680.03213507385476
 20
-186.59659473250997
 11
680.03213507385476
 21
-211.59659273250998
  0
LINE
  8
_1-0_
  6
CONTINUOUS
 62
    3
 10
631.53213607385464
 20
-186.59659373250997
 11
760.3148110738548
 21
-186.59659373250997
  0
LINE
  8
_1-0_
  6
CONTINUOUS
 62
    3
 10
631.53213207385465
 20
-315.87925873251004
 11
631.53213207385465
 21
-186.59659473250997
  0
LINE
  8
_1-0_
  6

 62
    3
 10
731.53213507385476
 20
-235.09659273250998
 11
760.3148110738548
 21
-235.09659273250998
  0
LINE
  8
_1-0_
  6
CONTINUOUS
 62
    3
 10
671.47839607385481
 20
-219.84659273250998
 11
666.5858730738546
 21
-219.84659273250998
  0
LINE
  8
_1-0_
  6
CONTINUOUS
 62
    3
 10
666.5858730738546
 20
-219.84659273250998
 11
664.13213507385467
 21
-224.09659273250998
  0
LINE
  8
_1-0_
  6
CONTINUOUS
 62
    3
 10
664.13213507385467
 20
-224.09659273250998
 11
666.5858730738546
 21
-228.34659273250998
  0
LINE
  8
_1-0_
  6
CONTINUOUS
 62
    3
 10
666.5858730738546
 20
-228.34659273250998
 11
671.47839607385481
 21
-228.34659273250998
  0
LINE
  8
_1-0_
  6
CONTINUOUS
 62
    3
 10
671.47839607385481
 20
-228.34659273250998
 11
673.93213507385462
 21
-224.09659273250998
  0
LINE
  8
_1-0_
  6
CONTINUOUS
 62
    3
 10
673.93213507385462
 20
-224.09659273250998
 11
671.47839607385481
 21
-219.84659273250998
  0
CIRCLE
  8
_1-0_
  6
CONTINUOUS
 62
    3
 10
669.03213507385476
 20
-224.09227573250996
 40
4.2456829999999997
  0
CIRCLE
  8
_1-0_
  6
CONTINUOUS
 62
    3
 10
669.03213507385476
 20
-224.09227573250996
 40
5.25
  0
LINE
  8
_1-0_
  6
CONTINUOUS
 62
    3
 10
716.5858730738546
 20
-219.84659273250998
 11
714.13213507385467
 21
-224.09659273250998
  0
LINE
  8
_1-0_
  6
CONTINUOUS
 62
    3
 10
721.47839607385481
 20
-219.84659273250998
 11
716.5858730738546
 21
-219.84659273250998
  0
LINE
  8
_1-0_
  6
CONTINUOUS
 62
    3
 10
723.93213507385462
 20
-224.09659273250998
 11
721.47839607385481
 21
-219.84659273250998
  0
LINE
  8
_1-0_
  6
CONTINUOUS
 62
    3
 10
721.47839607385481
 20
-228.34659273250998
 11
723.93213507385462
 21
-224.09659273250998
  0
LINE
  8
_1-0_
  6
CONTINUOUS
 62
    3
 10
716.5858730738546
 20
-228.34659273250998
 11
721.47839607385481
 21
-228.34659273250998
  0
LINE
  8
_1-0_
  6
CONTINUOUS
 62
    3
 10
714.13213507385467
 20
-224.09659273250998
 11
716.5858730738546
 21
-228.34659273250998
  0
CIRCLE
  8
_1-0_
  6
CONTINUOUS
 62
    3
 10
719.03213507385476
 20
-224.09227573250996
 40
4.2456829999999997
  0
CIRCLE
  8
_1-0_
  6
CONTINUOUS
 62
    3
 10
719.03213507385476
 20
-224.09227573250996
 40
5.25
  0
LINE
  8
_1-0_
  6

 62
    3
 10
633.03213507385476
 20
-186.59659673250997
 11
633.03213507385476
 21
-315.37926873251001
  0
LINE
  8
_1-0_
  6
CONTINUOUS
 62
    3
 10
691.5858730738546
 20
-219.84659273250998
 11
689.13213507385467
 21
-224.09659273250998
  0
LINE
  8
_1-0_
  6
CONTINUOUS
 62
    3
 10
696.47839607385481
 20
-219.84659273250998
 11
691.5858730738546
 21
-219.84659273250998
  0
LINE
  8
_1-0_
  6
CONTINUOUS
 62
    3
 10
698.93213507385462
 20
-224.09659273250998
 11
696.47839607385481
 21
-219.84659273250998
  0
LINE
  8
_1-0_
  6
CONTINUOUS
 62
    3
 10
696.47839607385481
 20
-228.34659273250998
 11
698.93213507385462
 21
-224.09659273250998
  0
LINE
  8
_1-0_
  6
CONTINUOUS
 62
    3
 10
691.5858730738546
 20
-228.34659273250998
 11
696.47839607385481
 21
-228.34659273250998
  0
LINE
  8
_1-0_
  6
CONTINUOUS
 62
    3
 10
689.13213507385467
 20
-224.09659273250998
 11
691.5858730738546
 21
-228.34659273250998
  0
CIRCLE
  8
_1-0_
  6
CONTINUOUS
 62
    3
 10
694.03213507385476
 20
-224.09227573250996
 40
4.2456829999999997
  0
LINE
  8
_1-0_
  6
CONTINUOUS
 62
    3
 10
731.53213507385476
 20
-211.59659273250998
 11
731.53213507385476
 21
-236.59659273250998
  0
LINE
  8
_1-0_
  6
CONTINUOUS
 62
    3
 10
717.28213507385476
 20
-301.09659273250998
 11
717.28213507385476
 21
-247.09659273250998
  0
ARC
  8
_1-0_
  6
CONTINUOUS
 62
    3
 10
711.78213507385476
 20
-301.09659273250998
 40
5.5
 50
270
 51
0
  0
LINE
  8
_1-0_
  6
CONTINUOUS
 62
    3
 10
711.78213507385476
 20
-306.59659273250998
 11
681.53213507385476
 21
-306.59659273250998
  0
LINE
  8
_1-0_
  6
CONTINUOUS
 62
    3
 10
720.78213507385476
 20
-301.09659273250998
 11
720.78213507385476
 21
-247.09659273250998
  0
ARC
  8
_1-0_
  6
CONTINUOUS
 62
    3
 10
726.28213507385476
 20
-301.09659273250998
 40
5.5
 50
180
 51
270
  0
LINE
  8
_1-0_
  6
CONTINUOUS
 62
    3
 10
726.28213507385476
 20
-306.59659273250998
 11
756.53213507385476
 21
-306.59659273250998
  0
ARC
  8
_1-0_
  6
CONTINUOUS
 62
    3
 10
711.78213507385476
 20
-247.09659273250998
 40
5.5
 50
0
 51
90
  0
LINE
  8
_1-0_
  6
CONTINUOUS
 62
    3
 10
711.78213507385476
 20
-241.59659273250998
 11
681.53213507385476
 21
-241.59659273250998
  0
LINE
  8
_1-0_
  6
CONTINUOUS
 62
    3
 10
726.28213507385476
 20
-241.59659273250998
 11
756.53213507385476
 21
-241.59659273250998
  0
ARC
  8
_1-0_
  6
CONTINUOUS
 62
    3
 10
726.28213507385476
 20
-247.09659273250998
 40
5.5
 50
90
 51
180
  0
LINE
  8
_1-0_
  6
CONTINUOUS
 62
    3
 10
756.53213507385476
 20
-311.59659273250998
 11
681.53213507385476
 21
-311.59659273250998
  0
LINE
  8
_1-0_
  6
CONTINUOUS
 62
    3
 10
756.53213507385476
 20
-236.59659273250998
 11
756.53213507385476
 21
-241.59659273250998
  0
LINE
  8
_1-0_
  6
CONTINUOUS
 62
    3
 10
756.53213507385476
 20
-306.59659273250998
 11
756.53213507385476
 21
-311.59659273250998
  0
LINE
  8
_1-0_
  6
CONTINUOUS
 62
    3
 10
656.53213507385476
 20
-211.59659273250998
 11
731.53213507385476
 21
-211.59659273250998
  0
LINE
  8
_1-0_
  6
CONTINUOUS
 62
    3
 10
656.53213507385476
 20
-236.59659273250998
 11
656.53213507385476
 21
-211.59659273250998
  0
LINE
  8
_1-0_
  6
CONTINUOUS
 62
    3
 10
656.53213507385476
 20
-236.59659273250998
 11
760.3148110738548
 21
-236.59659273250998
  0
LINE
  8
_1-0_
  6
CONTINUOUS
 62
    3
 10
681.53213507385476
 20
-236.59659273250998
 11
681.53213507385476
 21
-315.37926873251001
  0
LINE
  8
_1-0_
  6

 62
    3
 10
681.53213507385476
 20
-188.09659273250998
 11
760.3148110738548
 21
-188.09659273250998
  0
LINE
  8
_1-0_
  6
CONTINUOUS
 62
    3
 10
681.53213507385476
 20
-186.59659273250998
 11
681.53213507385476
 21
-211.59659273250998
  0
LINE
  8
_1-0_
  6
CONTINUOUS
 62
    3
 10
656.53213507385476
 20
-234.59659273250998
 11
731.53213507385476
 21
-234.59659273250998
  0
CIRCLE
  8
_1-0_
  6
CONTINUOUS
 62
    3
 10
694.03213507385476
 20
-224.09227573250996
 40
5.25
  0
CIRCLE
  8
_1-0_
  6
CONTINUOUS
 62
    3
 10
631.53213607385464
 20
-340.37926873251001
 40
0.2999999999999999
  0
CIRCLE
  8
_1-0_
  6
CONTINUOUS
 62
    3
 10
681.53213507385476
 20
-340.37926873251001
 40
0.2999999999999999
  0
LINE
  8
_1-0_
  6
CONTINUOUS
 62
    3
 10
681.53213507385476
 20
-317.37926873251001
 11
681.53213507385476
 21
-340.37926873251001
  0
CIRCLE
  8
_1-0_
  6
CONTINUOUS
 62
    3
 10
631.53213607385464
 20
-340.37926873251001
 40
0.2999999999999999
  0
LINE
  8
_1-0_
  6
CONTINUOUS
 62
    3
 10
631.53213607385464
 20
-317.37926873251001
 11
631.53213607385464
 21
-340.37926873251001
  0
LINE
  8
_1-0_
  6
CONTINUOUS
 62
    3
 10
619.85320288572018
 20
-167.84659773250996
 11
776.03213507385476
 21
-167.84659773250996
  0
LINE
  8
_1-0_
  6
CONTINUOUS
 62
    3
 10
612.78213607385464
 20
-315.87925873251004
 11
612.78213607385464
 21
-174.91766654437549
  0
LINE
  8
_1-0_
  6
CONTINUOUS
 62
    7
 10
508.4888372343591
 20
98.619955336685962
 11
530.091685071965
 21
120.22280317429181
  0
LINE
  8
_1-0_
  6
CONTINUOUS
 62
    7
 10
528.92619558148613
 20
9.89093554906799
 11
528.92620629411454
 21
-16.108366740485963
  0
LINE
  8
_1-0_
  6
CONTINUOUS
 62
    7
 10
528.92618013016499
 20
47.390935549061624
 11
528.92619084279363
 21
21.391633259507671
  0
LINE
  8
_1-0_
  6
CONTINUOUS
 62
    7
 10
528.92616467884409
 20
84.890935549055257
 11
528.9261753914725
 21
58.891633259501305
  0
LINE
  8
_1-0_
  6
CONTINUOUS
 62
    7
 10
528.92615788876037
 20
101.37031202179469
 11
528.92615994015136
 21
96.391633259494938
  0
LINE
  8
_1-0_
  6
CONTINUOUS
 62
    7
 10
530.091685071965
 20
120.22280317429181
 11
552.75235734657736
 21
120.22280317429181
  0
LINE
  8
_1-0_
  6
CONTINUOUS
 62
    3
 10
551.17627388875894
 20
73.493166731102292
 11
594.17627388875894
 21
73.493166731102292
  0
ARC
  8
_1-0_
  6
CONTINUOUS
 62
    3
 10
594.17627388875894
 20
70.993166731102292
 40
2.5
 50
0
 51
90
  0
ARC
  8
_1-0_
  6
CONTINUOUS
 62
    3
 10
551.17627388875894
 20
70.993166731102292
 40
2.5
 50
90
 51
180
  0
LINE
  8
_1-0_
  6
CONTINUOUS
 62
    3
 10
557.67627388875894
 20
49.493166731102292
 11
557.67627388875894
 21
50.493166731102292
  0
LINE
  8
_1-0_
  6
CONTINUOUS
 62
    3
 10
557.67627388875894
 20
49.493166731102292
 11
551.17627388875894
 21
49.493166731102292
  0
LINE
  8
_1-0_
  6
CONTINUOUS
 62
    3
 10
547.67627388875894
 20
70.993166731102292
 11
547.67627388875894
 21
52.993166731102292
  0
ARC
  8
_1-0_
  6
CONTINUOUS
 62
    3
 10
551.17627388875894
 20
52.993166731102292
 40
3.5
 50
180
 51
270
  0
ARC
  8
_1-0_
  6
CONTINUOUS
 62
    3
 10
594.17627388875894
 20
70.993166731102292
 40
3.5
 50
0
 51
90
  0
LINE
  8
_1-0_
  6
CONTINUOUS
 62
    3
 10
597.67627388875894
 20
70.993166731102292
 11
597.67627388875894
 21
52.993166731102292
  0
ARC
  8
_1-0_
  6
CONTINUOUS
 62
    3
 10
594.17627388875894
 20
52.993166731102292
 40
3.5
 50
270
 51
0
  0
LINE
  8
_1-0_
  6
CONTINUOUS
 62
    3
 10
587.67627388875894
 20
49.493166731102292
 11
594.17627388875894
 21
49.493166731102292
  0
LINE
  8
_1-0_
  6
CONTINUOUS
 62
    3
 10
587.67627388875894
 20
50.493166731102292
 11
587.67627388875894
 21
49.493166731102292
  0
LINE
  8
_1-0_
  6
CONTINUOUS
 62
    3
 10
587.67627388875894
 20
50.493166731102292
 11
594.17627388875894
 21
50.493166731102292
  0
ARC
  8
_1-0_
  6
CONTINUOUS
 62
    3
 10
594.17627388875894
 20
52.993166731102292
 40
2.5
 50
270
 51
0
  0
LINE
  8
_1-0_
  6
CONTINUOUS
 62
    3
 10
596.67627388875894
 20
52.993166731102292
 11
596.67627388875894
 21
70.993166731102292
  0
LINE
  8
_1-0_
  6
CONTINUOUS
 62
    3
 10
548.67627388875894
 20
70.993166731102292
 11
548.67627388875894
 21
52.993166731102292
  0
ARC
  8
_1-0_
  6
CONTINUOUS
 62
    3
 10
551.17627388875894
 20
52.993166731102292
 40
2.5
 50
180
 51
270
  0
LINE
  8
_1-0_
  6
CONTINUOUS
 62
    3
 10
557.67627388875894
 20
50.493166731102292
 11
551.17627388875894
 21
50.493166731102292
  0
ARC
  8
_1-0_
  6
CONTINUOUS
 62
    3
 10
551.17627388875894
 20
70.993166731102292
 40
3.5
 50
90
 51
180
  0
LINE
  8
_1-0_
  6
CONTINUOUS
 62
    3
 10
551.17627388875894
 20
74.493166731102292
 11
594.17627388875894
 21
74.493166731102292
  0
LINE
  8
_1-0_
  6
CONTINUOUS
 62
    3
 10
602.67627388875894
 20
74.493166731102292
 11
594.17627388875894
 21
74.493166731102292
  0
ARC
  8
_1-0_
  6
CONTINUOUS
 62
    3
 10
579.17627388875894
 20
74.993166731102292
 40
1.5
 50
90
 51
180
  0
LINE
  8
_1-0_
  6
CONTINUOUS
 62
    3
 10
577.67627388875894
 20
74.493166731102292
 11
577.67627388875894
 21
74.993166731102292
  0
ARC
  8
_1-0_
  6
CONTINUOUS
 62
    3
 10
602.17627388875894
 20
97.993166731102292
 40
1.5
 50
90
 51
180
  0
LINE
  8
_1-0_
  6
CONTINUOUS
 62
    3
 10
600.67627388875894
 20
79.743166731102292
 11
600.67627388875894
 21
97.993166731102292
  0
LINE
  8
_1-0_
  6
CONTINUOUS
 62
    3
 10
597.42627388875894
 20
76.493166731102292
 11
579.17627388875894
 21
76.493166731102292
  0
ARC
  8
_1-0_
  6
CONTINUOUS
 62
    3
 10
597.42627388875894
 20
79.743166731102292
 40
3.25
 50
270
 51
0
  0
LINE
  8
_1-0_
  6
CONTINUOUS
 62
    3
 10
602.67627388875894
 20
99.493166731102292
 11
602.17627388875894
 21
99.493166731102292
  0
LINE
  8
_1-0_
  6
CONTINUOUS
 62
    3
 10
551.90594088875878
 20
62.930666731102292
 11
552.60906588875878
 21
61.055666731102292
  0
LINE
  8
_1-0_
  6
CONTINUOUS
 62
    3
 10
551.58850288875897
 20
63.243166731102292
 11
551.90594088875878
 21
62.930666731102292
  0
LINE
  8
_1-0_
  6
CONTINUOUS
 62
    3
 10
551.50544088875881
 20
62.930666731102292
 11
551.58850288875897
 21
63.243166731102292
  0
LINE
  8
_1-0_
  6
CONTINUOUS
 62
    3
 10
552.20856588875881
 20
61.055666731102292
 11
551.50544088875881
 21
62.930666731102292
  0
LINE
  8
_1-0_
  6

 62
    3
 10
543.02600288875897
 20
59.906841731102304
 11
542.52600288875897
 21
59.618166731102292
  0
LINE
  8
_1-0_
  6

 62
    3
 10
542.52600288875897
 20
64.368166731102292
 11
543.02600288875897
 21
64.07949173110228
  0
LINE
  8
_1-0_
  6
CONTINUOUS
 62
    3
 10
555.52600288875874
 20
61.993166731102292
 11
552.52600288875897
 21
62.930666731102292
  0
LINE
  8
_1-0_
  6
CONTINUOUS
 62
    3
 10
554.58850288875874
 20
62.930666731102292
 11
552.52600288875897
 21
62.930666731102292
  0
LINE
  8
_1-0_
  6
CONTINUOUS
 62
    3
 10
554.58850288875874
 20
61.055666731102292
 11
552.60906588875878
 21
61.055666731102292
  0
LINE
  8
_1-0_
  6
CONTINUOUS
 62
    3
 10
555.52600288875874
 20
61.993166731102292
 11
554.58850288875874
 21
62.930666731102292
  0
LINE
  8
_1-0_
  6
CONTINUOUS
 62
    3
 10
554.58850288875874
 20
61.055666731102292
 11
555.52600288875874
 21
61.993166731102292
  0
LINE
  8
_1-0_
  6
CONTINUOUS
 62
    3
 10
554.58850288875874
 20
61.055666731102292
 11
554.58850288875874
 21
62.286134731102266
  0
LINE
  8
_1-0_
  6
CONTINUOUS
 62
    3
 10
552.52600288875897
 20
63.243166731102292
 11
552.20856588875881
 21
62.930666731102292
  0
LINE
  8
_1-0_
  6
CONTINUOUS
 62
    3
 10
552.60906588875878
 20
62.930666731102292
 11
552.52600288875897
 21
63.243166731102292
  0
LINE
  8
_1-0_
  6
CONTINUOUS
 62
    3
 10
551.58850288875897
 20
60.743166731102292
 11
551.27106588875881
 21
61.055666731102292
  0
LINE
  8
_1-0_
  6
CONTINUOUS
 62
    3
 10
551.67156588875878
 20
61.055666731102292
 11
551.58850288875897
 21
60.743166731102292
  0
LINE
  8
_1-0_
  6
CONTINUOUS
 62
    3
 10
552.20856588875881
 20
61.055666731102292
 11
551.67156588875878
 21
61.055666731102292
  0
LINE
  8
_1-0_
  6
CONTINUOUS
 62
    3
 10
551.90594088875878
 20
62.930666731102292
 11
552.52600288875897
 21
62.930666731102292
  0
LINE
  8
_1-0_
  6
CONTINUOUS
 62
    3
 10
550.96844088875878
 20
62.930666731102292
 11
551.50544088875881
 21
62.930666731102292
  0
LINE
  8
_1-0_
  6
CONTINUOUS
 62
    3
 10
549.09344088875878
 20
62.930666731102292
 11
549.63044088875881
 21
62.930666731102292
  0
LINE
  8
_1-0_
  6
CONTINUOUS
 62
    3
 10
550.33356588875881
 20
61.055666731102292
 11
549.79656588875878
 21
61.055666731102292
  0
LINE
  8
_1-0_
  6
CONTINUOUS
 62
    3
 10
550.03094088875878
 20
62.930666731102292
 11
550.56794088875881
 21
62.930666731102292
  0
LINE
  8
_1-0_
  6
CONTINUOUS
 62
    3
 10
550.73406588875878
 20
61.055666731102292
 11
551.27106588875881
 21
61.055666731102292
  0
LINE
  8
_1-0_
  6

 62
    3
 10
542.52600288875897
 20
59.618166731102292
 11
542.52600288875897
 21
64.368166731102292
  0
LINE
  8
_1-0_
  6
CONTINUOUS
 62
    3
 10
550.65100288875897
 20
60.743166731102292
 11
550.33356588875881
 21
61.055666731102292
  0
LINE
  8
_1-0_
  6
CONTINUOUS
 62
    3
 10
550.73406588875878
 20
61.055666731102292
 11
550.65100288875897
 21
60.743166731102292
  0
LINE
  8
_1-0_
  6
CONTINUOUS
 62
    3
 10
552.52600288875897
 20
60.743166731102292
 11
552.20856588875881
 21
61.055666731102292
  0
LINE
  8
_1-0_
  6
CONTINUOUS
 62
    3
 10
552.60906588875878
 20
61.055666731102292
 11
552.52600288875897
 21
60.743166731102292
  0
LINE
  8
_1-0_
  6

 62
    3
 10
541.92458288875878
 20
59.837065731102257
 11
542.52600288875897
 21
59.618166731102292
  0
LINE
  8
_1-0_
  6

 62
    3
 10
541.92458288875878
 20
64.1492677311021
 11
542.52600288875897
 21
64.368166731102292
  0
LINE
  8
_1-0_
  6
CONTINUOUS
 62
    3
 10
548.85906588875878
 20
61.055666731102292
 11
548.67627388875894
 21
61.543109731102277
  0
LINE
  8
_1-0_
  6
CONTINUOUS
 62
    3
 10
548.77600288875897
 20
60.743166731102292
 11
548.67627388875894
 21
60.841343731102143
  0
LINE
  8
_1-0_
  6

 62
    3
 10
545.96350288875897
 20
60.743166731102292
 11
545.64606588875881
 21
61.055666731102292
  0
LINE
  8
_1-0_
  6

 62
    3
 10
546.04656588875878
 20
61.055666731102292
 11
545.96350288875897
 21
60.743166731102292
  0
LINE
  8
_1-0_
  6

 62
    3
 10
545.34344088875878
 20
62.930666731102292
 11
546.04656588875878
 21
61.055666731102292
  0
LINE
  8
_1-0_
  6

 62
    3
 10
545.02600288875897
 20
63.243166731102292
 11
545.34344088875878
 21
62.930666731102292
  0
LINE
  8
_1-0_
  6

 62
    3
 10
544.94294088875881
 20
62.930666731102292
 11
545.02600288875897
 21
63.243166731102292
  0
LINE
  8
_1-0_
  6

 62
    3
 10
545.64606588875881
 20
61.055666731102292
 11
544.94294088875881
 21
62.930666731102292
  0
LINE
  8
_1-0_
  6

 62
    3
 10
547.52106588875881
 20
61.055666731102292
 11
546.98406588875878
 21
61.055666731102292
  0
LINE
  8
_1-0_
  6

 62
    3
 10
546.90100288875897
 20
60.743166731102292
 11
546.58356588875881
 21
61.055666731102292
  0
LINE
  8
_1-0_
  6

 62
    3
 10
546.98406588875878
 20
61.055666731102292
 11
546.90100288875897
 21
60.743166731102292
  0
LINE
  8
_1-0_
  6

 62
    3
 10
546.28094088875878
 20
62.930666731102292
 11
546.98406588875878
 21
61.055666731102292
  0
LINE
  8
_1-0_
  6

 62
    3
 10
545.96350288875897
 20
63.243166731102292
 11
546.28094088875878
 21
62.930666731102292
  0
LINE
  8
_1-0_
  6

 62
    3
 10
545.88044088875881
 20
62.930666731102292
 11
545.96350288875897
 21
63.243166731102292
  0
LINE
  8
_1-0_
  6

 62
    3
 10
546.58356588875881
 20
61.055666731102292
 11
545.88044088875881
 21
62.930666731102292
  0
LINE
  8
_1-0_
  6

 62
    3
 10
548.45856588875881
 20
61.055666731102292
 11
547.92156588875878
 21
61.055666731102292
  0
LINE
  8
_1-0_
  6

 62
    3
 10
547.83850288875897
 20
60.743166731102292
 11
547.52106588875881
 21
61.055666731102292
  0
LINE
  8
_1-0_
  6

 62
    3
 10
547.92156588875878
 20
61.055666731102292
 11
547.83850288875897
 21
60.743166731102292
  0
LINE
  8
_1-0_
  6

 62
    3
 10
547.21844088875878
 20
62.930666731102292
 11
547.92156588875878
 21
61.055666731102292
  0
LINE
  8
_1-0_
  6

 62
    3
 10
546.90100288875897
 20
63.243166731102292
 11
547.21844088875878
 21
62.930666731102292
  0
LINE
  8
_1-0_
  6

 62
    3
 10
546.81794088875881
 20
62.930666731102292
 11
546.90100288875897
 21
63.243166731102292
  0
LINE
  8
_1-0_
  6

 62
    3
 10
547.52106588875881
 20
61.055666731102292
 11
546.81794088875881
 21
62.930666731102292
  0
LINE
  8
_1-0_
  6
CONTINUOUS
 62
    3
 10
548.85906588875878
 20
61.055666731102292
 11
548.77600288875897
 21
60.743166731102292
  0
LINE
  8
_1-0_
  6

 62
    3
 10
548.45856588875881
 20
61.055666731102292
 11
548.67627388875894
 21
60.841343731102143
  0
LINE
  8
_1-0_
  6

 62
    3
 10
548.15594088875878
 20
62.930666731102292
 11
548.67627388875894
 21
61.543109731102277
  0
LINE
  8
_1-0_
  6

 62
    3
 10
547.83850288875897
 20
63.243166731102292
 11
548.15594088875878
 21
62.930666731102292
  0
LINE
  8
_1-0_
  6

 62
    3
 10
547.75544088875881
 20
62.930666731102292
 11
547.83850288875897
 21
63.243166731102292
  0
LINE
  8
_1-0_
  6

 62
    3
 10
548.45856588875881
 20
61.055666731102292
 11
547.75544088875881
 21
62.930666731102292
  0
LINE
  8
_1-0_
  6
CONTINUOUS
 62
    3
 10
549.79656588875878
 20
61.055666731102292
 11
549.71350288875897
 21
60.743166731102292
  0
LINE
  8
_1-0_
  6
CONTINUOUS
 62
    3
 10
549.09344088875878
 20
62.930666731102292
 11
549.79656588875878
 21
61.055666731102292
  0
LINE
  8
_1-0_
  6
CONTINUOUS
 62
    3
 10
548.77600288875897
 20
63.243166731102292
 11
549.09344088875878
 21
62.930666731102292
  0
LINE
  8
_1-0_
  6
CONTINUOUS
 62
    3
 10
548.69294088875881
 20
62.930666731102292
 11
548.77600288875897
 21
63.243166731102292
  0
LINE
  8
_1-0_
  6
CONTINUOUS
 62
    3
 10
549.39606588875881
 20
61.055666731102292
 11
548.85906588875878
 21
61.055666731102292
  0
LINE
  8
_1-0_
  6

 62
    3
 10
548.15594088875878
 20
62.930666731102292
 11
548.69294088875881
 21
62.930666731102292
  0
LINE
  8
_1-0_
  6
CONTINUOUS
 62
    3
 10
549.71350288875897
 20
60.743166731102292
 11
549.39606588875881
 21
61.055666731102292
  0
LINE
  8
_1-0_
  6
CONTINUOUS
 62
    3
 10
549.39606588875881
 20
61.055666731102292
 11
548.69294088875881
 21
62.930666731102292
  0
LINE
  8
_1-0_
  6

 62
    3
 10
544.40594088875878
 20
61.055666731102292
 11
544.70856588875881
 21
61.055666731102292
  0
LINE
  8
_1-0_
  6

 62
    3
 10
547.21844088875878
 20
62.930666731102292
 11
547.75544088875881
 21
62.930666731102292
  0
LINE
  8
_1-0_
  6

 62
    3
 10
546.28094088875878
 20
62.930666731102292
 11
546.81794088875881
 21
62.930666731102292
  0
LINE
  8
_1-0_
  6

 62
    3
 10
545.34344088875878
 20
62.930666731102292
 11
545.88044088875881
 21
62.930666731102292
  0
LINE
  8
_1-0_
  6

 62
    3
 10
544.40594088875878
 20
62.930666731102292
 11
544.94294088875881
 21
62.930666731102292
  0
LINE
  8
_1-0_
  6

 62
    3
 10
543.02600288875897
 20
62.930666731102292
 11
544.00544088875881
 21
62.930666731102292
  0
LINE
  8
_1-0_
  6

 62
    3
 10
543.02600288875897
 20
61.055666731102292
 11
544.00544088875881
 21
61.055666731102292
  0
ARC
  8
_1-0_
  6

 62
    3
 10
546.3373088887588
 20
61.993166731102292
 40
4.9113059999999997
 50
153.95941400000001
 51
206.04058599999999
  0
LINE
  8
_1-0_
  6
CONTINUOUS
 62
    3
 10
552.52600288875897
 20
62.930666731102292
 11
552.52600288875897
 21
61.27716673110217
  0
LINE
  8
_1-0_
  6
CONTINUOUS
 62
    3
 10
550.96844088875878
 20
62.930666731102292
 11
551.67156588875878
 21
61.055666731102292
  0
LINE
  8
_1-0_
  6
CONTINUOUS
 62
    3
 10
550.65100288875897
 20
63.243166731102292
 11
550.96844088875878
 21
62.930666731102292
  0
LINE
  8
_1-0_
  6
CONTINUOUS
 62
    3
 10
550.56794088875881
 20
62.930666731102292
 11
550.65100288875897
 21
63.243166731102292
  0
LINE
  8
_1-0_
  6
CONTINUOUS
 62
    3
 10
551.27106588875881
 20
61.055666731102292
 11
550.56794088875881
 21
62.930666731102292
  0
LINE
  8
_1-0_
  6
CONTINUOUS
 62
    3
 10
550.03094088875878
 20
62.930666731102292
 11
550.73406588875878
 21
61.055666731102292
  0
LINE
  8
_1-0_
  6
CONTINUOUS
 62
    3
 10
549.71350288875897
 20
63.243166731102292
 11
550.03094088875878
 21
62.930666731102292
  0
LINE
  8
_1-0_
  6
CONTINUOUS
 62
    3
 10
549.63044088875881
 20
62.930666731102292
 11
549.71350288875897
 21
63.243166731102292
  0
LINE
  8
_1-0_
  6
CONTINUOUS
 62
    3
 10
550.33356588875881
 20
61.055666731102292
 11
549.63044088875881
 21
62.930666731102292
  0
LINE
  8
_1-0_
  6

 62
    3
 10
544.32287788875897
 20
60.743166731102292
 11
544.00544088875881
 21
61.055666731102292
  0
LINE
  8
_1-0_
  6

 62
    3
 10
544.40594088875878
 20
61.055666731102292
 11
544.32287788875897
 21
60.743166731102292
  0
LINE
  8
_1-0_
  6

 62
    3
 10
544.00544088875881
 20
61.055666731102292
 11
544.00544088875881
 21
62.930666731102292
  0
LINE
  8
_1-0_
  6

 62
    3
 10
545.64606588875881
 20
61.055666731102292
 11
545.10906588875878
 21
61.055666731102292
  0
LINE
  8
_1-0_
  6

 62
    3
 10
545.02600288875897
 20
60.743166731102292
 11
544.70856588875881
 21
61.055666731102292
  0
LINE
  8
_1-0_
  6

 62
    3
 10
545.10906588875878
 20
61.055666731102292
 11
545.02600288875897
 21
60.743166731102292
  0
LINE
  8
_1-0_
  6

 62
    3
 10
544.40594088875878
 20
62.930666731102292
 11
545.10906588875878
 21
61.055666731102292
  0
LINE
  8
_1-0_
  6

 62
    3
 10
544.08850288875897
 20
63.243166731102292
 11
544.40594088875878
 21
62.930666731102292
  0
LINE
  8
_1-0_
  6

 62
    3
 10
544.00544088875881
 20
62.930666731102292
 11
544.08850288875897
 21
63.243166731102292
  0
LINE
  8
_1-0_
  6

 62
    3
 10
544.70856588875881
 20
61.055666731102292
 11
544.00544088875881
 21
62.930666731102292
  0
LINE
  8
_1-0_
  6

 62
    3
 10
546.58356588875881
 20
61.055666731102292
 11
546.04656588875878
 21
61.055666731102292
  0
LINE
  8
_1-0_
  6
CONTINUOUS
 62
    7
 10
545.09599205507857
 20
64.360428045427625
 11
556.15425187750725
 21
105.63041554602978
  0
LINE
  8
_1-0_
  6
CONTINUOUS
 62
    3
 10
602.67627388875894
 20
6.4970447558580418
 11
594.17627388875894
 21
6.4970447558580418
  0
LINE
  8
_1-0_
  6
CONTINUOUS
 62
    3
 10
557.67627388875894
 20
-18.502955244141958
 11
551.17627388875894
 21
-18.502955244141958
  0
LINE
  8
_1-0_
  6
CONTINUOUS
 62
    3
 10
547.67627388875894
 20
2.9970447558580418
 11
547.67627388875894
 21
-15.002955244141958
  0
ARC
  8
_1-0_
  6
CONTINUOUS
 62
    3
 10
551.17627388875894
 20
-15.002955244141958
 40
3.5
 50
180
 51
270
  0
ARC
  8
_1-0_
  6
CONTINUOUS
 62
    3
 10
594.17627388875894
 20
2.9970447558580418
 40
3.5
 50
0
 51
90
  0
LINE
  8
_1-0_
  6
CONTINUOUS
 62
    3
 10
597.67627388875894
 20
2.9970447558580418
 11
597.67627388875894
 21
-15.002955244141958
  0
ARC
  8
_1-0_
  6
CONTINUOUS
 62
    3
 10
594.17627388875894
 20
-15.002955244141958
 40
3.5
 50
270
 51
0
  0
LINE
  8
_1-0_
  6
CONTINUOUS
 62
    3
 10
587.67627388875894
 20
-18.502955244141958
 11
594.17627388875894
 21
-18.502955244141958
  0
LINE
  8
_1-0_
  6
CONTINUOUS
 62
    3
 10
587.67627388875894
 20
-17.502955244141958
 11
587.67627388875894
 21
-18.502955244141958
  0
LINE
  8
_1-0_
  6
CONTINUOUS
 62
    3
 10
587.67627388875894
 20
-17.502955244141958
 11
594.17627388875894
 21
-17.502955244141958
  0
ARC
  8
_1-0_
  6
CONTINUOUS
 62
    3
 10
594.17627388875894
 20
-15.002955244141958
 40
2.5
 50
270
 51
0
  0
LINE
  8
_1-0_
  6
CONTINUOUS
 62
    3
 10
596.67627388875894
 20
-15.002955244141958
 11
596.67627388875894
 21
2.9970447558580418
  0
LINE
  8
_1-0_
  6
CONTINUOUS
 62
    3
 10
548.67627388875894
 20
2.9970447558580418
 11
548.67627388875894
 21
-15.002955244141958
  0
ARC
  8
_1-0_
  6
CONTINUOUS
 62
    3
 10
551.17627388875894
 20
-15.002955244141958
 40
2.5
 50
180
 51
270
  0
LINE
  8
_1-0_
  6
CONTINUOUS
 62
    3
 10
557.67627388875894
 20
-17.502955244141958
 11
551.17627388875894
 21
-17.502955244141958
  0
ARC
  8
_1-0_
  6
CONTINUOUS
 62
    3
 10
551.17627388875894
 20
2.9970447558580418
 40
3.5
 50
90
 51
180
  0
LINE
  8
_1-0_
  6
CONTINUOUS
 62
    3
 10
551.17627388875894
 20
6.4970447558580418
 11
594.17627388875894
 21
6.4970447558580418
  0
ARC
  8
_1-0_
  6
CONTINUOUS
 62
    3
 10
579.17627388875894
 20
6.9970447558580418
 40
1.5
 50
90
 51
180
  0
LINE
  8
_1-0_
  6
CONTINUOUS
 62
    3
 10
577.67627388875894
 20
6.4970447558580418
 11
577.67627388875894
 21
6.9970447558580418
  0
ARC
  8
_1-0_
  6
CONTINUOUS
 62
    3
 10
602.17627388875894
 20
29.997044755858042
 40
1.5
 50
90
 51
180
  0
LINE
  8
_1-0_
  6
CONTINUOUS
 62
    3
 10
600.67627388875894
 20
11.747044755858042
 11
600.67627388875894
 21
29.997044755858042
  0
LINE
  8
_1-0_
  6
CONTINUOUS
 62
    3
 10
597.42627388875894
 20
8.4970447558580418
 11
579.17627388875894
 21
8.4970447558580418
  0
ARC
  8
_1-0_
  6
CONTINUOUS
 62
    3
 10
597.42627388875894
 20
11.747044755858042
 40
3.25
 50
270
 51
0
  0
LINE
  8
_1-0_
  6
CONTINUOUS
 62
    3
 10
602.67627388875894
 20
31.497044755858042
 11
602.17627388875894
 21
31.497044755858042
  0
LINE
  8
_1-0_
  6
CONTINUOUS
 62
    3
 10
551.17627388875894
 20
5.4970447558580418
 11
594.17627388875894
 21
5.4970447558580418
  0
ARC
  8
_1-0_
  6
CONTINUOUS
 62
    3
 10
594.17627388875894
 20
2.9970447558580418
 40
2.5
 50
0
 51
90
  0
ARC
  8
_1-0_
  6
CONTINUOUS
 62
    3
 10
551.17627388875894
 20
2.9970447558580418
 40
2.5
 50
90
 51
180
  0
LINE
  8
_1-0_
  6
CONTINUOUS
 62
    3
 10
557.67627388875894
 20
-18.502955244141958
 11
557.67627388875894
 21
-17.502955244141958
  0
LINE
  8
_1-0_
  6
CONTINUOUS
 62
    3
 10
551.58850288875897
 20
-4.7529552441419582
 11
551.90594088875878
 21
-5.0654552441419582
  0
LINE
  8
_1-0_
  6
CONTINUOUS
 62
    3
 10
551.50544088875881
 20
-5.0654552441419582
 11
551.58850288875897
 21
-4.7529552441419582
  0
LINE
  8
_1-0_
  6
CONTINUOUS
 62
    3
 10
552.20856588875881
 20
-6.9404552441419582
 11
551.50544088875881
 21
-5.0654552441419582
  0
LINE
  8
_1-0_
  6

 62
    3
 10
543.02600288875897
 20
-8.0892802441419462
 11
542.52600288875897
 21
-8.3779552441419582
  0
LINE
  8
_1-0_
  6

 62
    3
 10
542.52600288875897
 20
-3.6279552441419582
 11
543.02600288875897
 21
-3.9166302441419703
  0
LINE
  8
_1-0_
  6
CONTINUOUS
 62
    3
 10
555.52600288875874
 20
-6.0029552441419582
 11
552.52600288875897
 21
-5.0654552441419582
  0
LINE
  8
_1-0_
  6
CONTINUOUS
 62
    3
 10
554.58850288875874
 20
-5.0654552441419582
 11
552.52600288875897
 21
-5.0654552441419582
  0
LINE
  8
_1-0_
  6
CONTINUOUS
 62
    3
 10
554.58850288875874
 20
-6.9404552441419582
 11
552.60906588875878
 21
-6.9404552441419582
  0
LINE
  8
_1-0_
  6
CONTINUOUS
 62
    3
 10
555.52600288875874
 20
-6.0029552441419582
 11
554.58850288875874
 21
-5.0654552441419582
  0
LINE
  8
_1-0_
  6
CONTINUOUS
 62
    3
 10
554.58850288875874
 20
-6.9404552441419582
 11
555.52600288875874
 21
-6.0029552441419582
  0
LINE
  8
_1-0_
  6
CONTINUOUS
 62
    3
 10
554.58850288875874
 20
-6.9404552441419582
 11
554.58850288875874
 21
-5.7099872441419848
  0
LINE
  8
_1-0_
  6
CONTINUOUS
 62
    3
 10
552.52600288875897
 20
-4.7529552441419582
 11
552.20856588875881
 21
-5.0654552441419582
  0
LINE
  8
_1-0_
  6
CONTINUOUS
 62
    3
 10
552.60906588875878
 20
-5.0654552441419582
 11
552.52600288875897
 21
-4.7529552441419582
  0
LINE
  8
_1-0_
  6
CONTINUOUS
 62
    3
 10
551.58850288875897
 20
-7.2529552441419582
 11
551.27106588875881
 21
-6.9404552441419582
  0
LINE
  8
_1-0_
  6
CONTINUOUS
 62
    3
 10
551.67156588875878
 20
-6.9404552441419582
 11
551.58850288875897
 21
-7.2529552441419582
  0
LINE
  8
_1-0_
  6
CONTINUOUS
 62
    3
 10
552.20856588875881
 20
-6.9404552441419582
 11
551.67156588875878
 21
-6.9404552441419582
  0
LINE
  8
_1-0_
  6
CONTINUOUS
 62
    3
 10
551.90594088875878
 20
-5.0654552441419582
 11
552.52600288875897
 21
-5.0654552441419582
  0
LINE
  8
_1-0_
  6
CONTINUOUS
 62
    3
 10
550.96844088875878
 20
-5.0654552441419582
 11
551.50544088875881
 21
-5.0654552441419582
  0
LINE
  8
_1-0_
  6
CONTINUOUS
 62
    3
 10
549.09344088875878
 20
-5.0654552441419582
 11
549.63044088875881
 21
-5.0654552441419582
  0
LINE
  8
_1-0_
  6
CONTINUOUS
 62
    3
 10
550.33356588875881
 20
-6.9404552441419582
 11
549.79656588875878
 21
-6.9404552441419582
  0
LINE
  8
_1-0_
  6
CONTINUOUS
 62
    3
 10
550.03094088875878
 20
-5.0654552441419582
 11
550.56794088875881
 21
-5.0654552441419582
  0
LINE
  8
_1-0_
  6
CONTINUOUS
 62
    3
 10
550.73406588875878
 20
-6.9404552441419582
 11
551.27106588875881
 21
-6.9404552441419582
  0
LINE
  8
_1-0_
  6

 62
    3
 10
542.52600288875897
 20
-8.3779552441419582
 11
542.52600288875897
 21
-3.6279552441419582
  0
LINE
  8
_1-0_
  6
CONTINUOUS
 62
    3
 10
550.65100288875897
 20
-7.2529552441419582
 11
550.33356588875881
 21
-6.9404552441419582
  0
LINE
  8
_1-0_
  6
CONTINUOUS
 62
    3
 10
550.73406588875878
 20
-6.9404552441419582
 11
550.65100288875897
 21
-7.2529552441419582
  0
LINE
  8
_1-0_
  6
CONTINUOUS
 62
    3
 10
552.52600288875897
 20
-7.2529552441419582
 11
552.20856588875881
 21
-6.9404552441419582
  0
LINE
  8
_1-0_
  6
CONTINUOUS
 62
    3
 10
552.60906588875878
 20
-6.9404552441419582
 11
552.52600288875897
 21
-7.2529552441419582
  0
LINE
  8
_1-0_
  6

 62
    3
 10
541.92458288875878
 20
-8.1590562441419934
 11
542.52600288875897
 21
-8.3779552441419582
  0
LINE
  8
_1-0_
  6

 62
    3
 10
541.92458288875878
 20
-3.8468542441419231
 11
542.52600288875897
 21
-3.6279552441419582
  0
LINE
  8
_1-0_
  6
CONTINUOUS
 62
    3
 10
548.85906588875878
 20
-6.9404552441419582
 11
548.67627388875894
 21
-6.4530122441419735
  0
LINE
  8
_1-0_
  6
CONTINUOUS
 62
    3
 10
548.77600288875897
 20
-7.2529552441419582
 11
548.67627388875894
 21
-7.1547782441418804
  0
LINE
  8
_1-0_
  6

 62
    3
 10
546.04656588875878
 20
-6.9404552441419582
 11
545.96350288875897
 21
-7.2529552441419582
  0
LINE
  8
_1-0_
  6

 62
    3
 10
545.34344088875878
 20
-5.0654552441419582
 11
546.04656588875878
 21
-6.9404552441419582
  0
LINE
  8
_1-0_
  6

 62
    3
 10
545.02600288875897
 20
-4.7529552441419582
 11
545.34344088875878
 21
-5.0654552441419582
  0
LINE
  8
_1-0_
  6

 62
    3
 10
544.94294088875881
 20
-5.0654552441419582
 11
545.02600288875897
 21
-4.7529552441419582
  0
LINE
  8
_1-0_
  6

 62
    3
 10
545.64606588875881
 20
-6.9404552441419582
 11
544.94294088875881
 21
-5.0654552441419582
  0
LINE
  8
_1-0_
  6

 62
    3
 10
547.52106588875881
 20
-6.9404552441419582
 11
546.98406588875878
 21
-6.9404552441419582
  0
LINE
  8
_1-0_
  6

 62
    3
 10
546.90100288875897
 20
-7.2529552441419582
 11
546.58356588875881
 21
-6.9404552441419582
  0
LINE
  8
_1-0_
  6

 62
    3
 10
546.98406588875878
 20
-6.9404552441419582
 11
546.90100288875897
 21
-7.2529552441419582
  0
LINE
  8
_1-0_
  6

 62
    3
 10
546.28094088875878
 20
-5.0654552441419582
 11
546.98406588875878
 21
-6.9404552441419582
  0
LINE
  8
_1-0_
  6

 62
    3
 10
545.96350288875897
 20
-4.7529552441419582
 11
546.28094088875878
 21
-5.0654552441419582
  0
LINE
  8
_1-0_
  6

 62
    3
 10
545.88044088875881
 20
-5.0654552441419582
 11
545.96350288875897
 21
-4.7529552441419582
  0
LINE
  8
_1-0_
  6

 62
    3
 10
546.58356588875881
 20
-6.9404552441419582
 11
545.88044088875881
 21
-5.0654552441419582
  0
LINE
  8
_1-0_
  6

 62
    3
 10
548.45856588875881
 20
-6.9404552441419582
 11
547.92156588875878
 21
-6.9404552441419582
  0
LINE
  8
_1-0_
  6

 62
    3
 10
547.83850288875897
 20
-7.2529552441419582
 11
547.52106588875881
 21
-6.9404552441419582
  0
LINE
  8
_1-0_
  6

 62
    3
 10
547.92156588875878
 20
-6.9404552441419582
 11
547.83850288875897
 21
-7.2529552441419582
  0
LINE
  8
_1-0_
  6

 62
    3
 10
547.21844088875878
 20
-5.0654552441419582
 11
547.92156588875878
 21
-6.9404552441419582
  0
LINE
  8
_1-0_
  6

 62
    3
 10
546.90100288875897
 20
-4.7529552441419582
 11
547.21844088875878
 21
-5.0654552441419582
  0
LINE
  8
_1-0_
  6

 62
    3
 10
546.81794088875881
 20
-5.0654552441419582
 11
546.90100288875897
 21
-4.7529552441419582
  0
LINE
  8
_1-0_
  6

 62
    3
 10
547.52106588875881
 20
-6.9404552441419582
 11
546.81794088875881
 21
-5.0654552441419582
  0
LINE
  8
_1-0_
  6
CONTINUOUS
 62
    3
 10
548.85906588875878
 20
-6.9404552441419582
 11
548.77600288875897
 21
-7.2529552441419582
  0
LINE
  8
_1-0_
  6

 62
    3
 10
548.45856588875881
 20
-6.9404552441419582
 11
548.67627388875894
 21
-7.1547782441418804
  0
LINE
  8
_1-0_
  6

 62
    3
 10
548.15594088875878
 20
-5.0654552441419582
 11
548.67627388875894
 21
-6.4530122441419735
  0
LINE
  8
_1-0_
  6

 62
    3
 10
547.83850288875897
 20
-4.7529552441419582
 11
548.15594088875878
 21
-5.0654552441419582
  0
LINE
  8
_1-0_
  6

 62
    3
 10
547.75544088875881
 20
-5.0654552441419582
 11
547.83850288875897
 21
-4.7529552441419582
  0
LINE
  8
_1-0_
  6

 62
    3
 10
548.45856588875881
 20
-6.9404552441419582
 11
547.75544088875881
 21
-5.0654552441419582
  0
LINE
  8
_1-0_
  6
CONTINUOUS
 62
    3
 10
549.79656588875878
 20
-6.9404552441419582
 11
549.71350288875897
 21
-7.2529552441419582
  0
LINE
  8
_1-0_
  6
CONTINUOUS
 62
    3
 10
549.09344088875878
 20
-5.0654552441419582
 11
549.79656588875878
 21
-6.9404552441419582
  0
LINE
  8
_1-0_
  6
CONTINUOUS
 62
    3
 10
548.77600288875897
 20
-4.7529552441419582
 11
549.09344088875878
 21
-5.0654552441419582
  0
LINE
  8
_1-0_
  6
CONTINUOUS
 62
    3
 10
548.69294088875881
 20
-5.0654552441419582
 11
548.77600288875897
 21
-4.7529552441419582
  0
LINE
  8
_1-0_
  6
CONTINUOUS
 62
    3
 10
549.39606588875881
 20
-6.9404552441419582
 11
548.85906588875878
 21
-6.9404552441419582
  0
LINE
  8
_1-0_
  6

 62
    3
 10
548.15594088875878
 20
-5.0654552441419582
 11
548.69294088875881
 21
-5.0654552441419582
  0
LINE
  8
_1-0_
  6
CONTINUOUS
 62
    3
 10
549.71350288875897
 20
-7.2529552441419582
 11
549.39606588875881
 21
-6.9404552441419582
  0
LINE
  8
_1-0_
  6
CONTINUOUS
 62
    3
 10
549.39606588875881
 20
-6.9404552441419582
 11
548.69294088875881
 21
-5.0654552441419582
  0
LINE
  8
_1-0_
  6

 62
    3
 10
544.40594088875878
 20
-6.9404552441419582
 11
544.70856588875881
 21
-6.9404552441419582
  0
LINE
  8
_1-0_
  6

 62
    3
 10
547.21844088875878
 20
-5.0654552441419582
 11
547.75544088875881
 21
-5.0654552441419582
  0
LINE
  8
_1-0_
  6

 62
    3
 10
546.28094088875878
 20
-5.0654552441419582
 11
546.81794088875881
 21
-5.0654552441419582
  0
LINE
  8
_1-0_
  6

 62
    3
 10
545.34344088875878
 20
-5.0654552441419582
 11
545.88044088875881
 21
-5.0654552441419582
  0
LINE
  8
_1-0_
  6

 62
    3
 10
544.40594088875878
 20
-5.0654552441419582
 11
544.94294088875881
 21
-5.0654552441419582
  0
LINE
  8
_1-0_
  6

 62
    3
 10
543.02600288875897
 20
-5.0654552441419582
 11
544.00544088875881
 21
-5.0654552441419582
  0
LINE
  8
_1-0_
  6

 62
    3
 10
543.02600288875897
 20
-6.9404552441419582
 11
544.00544088875881
 21
-6.9404552441419582
  0
ARC
  8
_1-0_
  6

 62
    3
 10
546.3373088887588
 20
-6.0029552441419582
 40
4.9113059999999997
 50
153.95941400000001
 51
206.04058599999999
  0
LINE
  8
_1-0_
  6
CONTINUOUS
 62
    3
 10
552.52600288875897
 20
-5.0654552441419582
 11
552.52600288875897
 21
-6.7189552441420801
  0
LINE
  8
_1-0_
  6
CONTINUOUS
 62
    3
 10
550.96844088875878
 20
-5.0654552441419582
 11
551.67156588875878
 21
-6.9404552441419582
  0
LINE
  8
_1-0_
  6
CONTINUOUS
 62
    3
 10
550.65100288875897
 20
-4.7529552441419582
 11
550.96844088875878
 21
-5.0654552441419582
  0
LINE
  8
_1-0_
  6
CONTINUOUS
 62
    3
 10
550.56794088875881
 20
-5.0654552441419582
 11
550.65100288875897
 21
-4.7529552441419582
  0
LINE
  8
_1-0_
  6
CONTINUOUS
 62
    3
 10
551.27106588875881
 20
-6.9404552441419582
 11
550.56794088875881
 21
-5.0654552441419582
  0
LINE
  8
_1-0_
  6
CONTINUOUS
 62
    3
 10
550.03094088875878
 20
-5.0654552441419582
 11
550.73406588875878
 21
-6.9404552441419582
  0
LINE
  8
_1-0_
  6
CONTINUOUS
 62
    3
 10
549.71350288875897
 20
-4.7529552441419582
 11
550.03094088875878
 21
-5.0654552441419582
  0
LINE
  8
_1-0_
  6
CONTINUOUS
 62
    3
 10
549.63044088875881
 20
-5.0654552441419582
 11
549.71350288875897
 21
-4.7529552441419582
  0
LINE
  8
_1-0_
  6
CONTINUOUS
 62
    3
 10
550.33356588875881
 20
-6.9404552441419582
 11
549.63044088875881
 21
-5.0654552441419582
  0
LINE
  8
_1-0_
  6
CONTINUOUS
 62
    3
 10
551.90594088875878
 20
-5.0654552441419582
 11
552.60906588875878
 21
-6.9404552441419582
  0
LINE
  8
_1-0_
  6

 62
    3
 10
544.32287788875897
 20
-7.2529552441419582
 11
544.00544088875881
 21
-6.9404552441419582
  0
LINE
  8
_1-0_
  6

 62
    3
 10
544.40594088875878
 20
-6.9404552441419582
 11
544.32287788875897
 21
-7.2529552441419582
  0
LINE
  8
_1-0_
  6

 62
    3
 10
544.00544088875881
 20
-6.9404552441419582
 11
544.00544088875881
 21
-5.0654552441419582
  0
LINE
  8
_1-0_
  6

 62
    3
 10
545.64606588875881
 20
-6.9404552441419582
 11
545.10906588875878
 21
-6.9404552441419582
  0
LINE
  8
_1-0_
  6

 62
    3
 10
545.02600288875897
 20
-7.2529552441419582
 11
544.70856588875881
 21
-6.9404552441419582
  0
LINE
  8
_1-0_
  6

 62
    3
 10
545.10906588875878
 20
-6.9404552441419582
 11
545.02600288875897
 21
-7.2529552441419582
  0
LINE
  8
_1-0_
  6

 62
    3
 10
544.40594088875878
 20
-5.0654552441419582
 11
545.10906588875878
 21
-6.9404552441419582
  0
LINE
  8
_1-0_
  6

 62
    3
 10
544.08850288875897
 20
-4.7529552441419582
 11
544.40594088875878
 21
-5.0654552441419582
  0
LINE
  8
_1-0_
  6

 62
    3
 10
544.00544088875881
 20
-5.0654552441419582
 11
544.08850288875897
 21
-4.7529552441419582
  0
LINE
  8
_1-0_
  6

 62
    3
 10
544.70856588875881
 20
-6.9404552441419582
 11
544.00544088875881
 21
-5.0654552441419582
  0
LINE
  8
_1-0_
  6

 62
    3
 10
546.58356588875881
 20
-6.9404552441419582
 11
546.04656588875878
 21
-6.9404552441419582
  0
LINE
  8
_1-0_
  6

 62
    3
 10
545.96350288875897
 20
-7.2529552441419582
 11
545.64606588875881
 21
-6.9404552441419582
  0
LINE
  8
_1-0_
  6
CONTINUOUS
 62
    7
 10
547.67616386016357
 20
20.780303683746183
 11
557.06921966227333
 21
30.173359485856054
  0
LINE
  8
_1-0_
  6
CONTINUOUS
 62
    3
 10
607.67627388875894
 20
101.39169374745529
 11
607.67627388875894
 21
-45.434862727030577
  0
LINE
  8
_1-0_
  6
CONTINUOUS
 62
    3
 10
602.67627388875894
 20
101.39169374745529
 11
602.67627388875894
 21
-45.434862727030577
  0
LINE
  8
_1-0_
  6

 62
    3
 10
543.02600288875897
 20
101.39169374745529
 11
543.02600288875897
 21
-45.434862727030577
  0
LINE
  8
_1-0_
  6
CONTINUOUS
 62
    3
 10
547.67615788875878
 20
101.37031974745537
 11
547.67621837766558
 21
-45.434862727030577
  0
LINE
  8
_1-0_
  6
CONTINUOUS
 62
    7
 10
528.92621103280703
 20
-27.6090644509257
 11
528.92621837766399
 21
-45.434862727030577
  0
CIRCLE
  8
_1-0_
  6
CONTINUOUS
 62
    3
 10
632.67627388875894
 20
49.204335775803202
 40
0.5999999999999999
  0
LINE
  8
_1-0_
  6
CONTINUOUS
 62
    3
 10
599.67627388875894
 20
49.204335775803202
 11
636.67627388875894
 21
49.204335775803202
  0
CIRCLE
  8
_1-0_
  6
CONTINUOUS
 62
    3
 10
632.67627388875894
 20
-18.502955244141958
 40
0.5999999999999999
  0
LINE
  8
_1-0_
  6
CONTINUOUS
 62
    3
 10
599.67627388875894
 20
-18.502955244141958
 11
636.67627388875894
 21
-18.502955244141958
  0
LINE
  8
_1-0_
  6
CONTINUOUS
 62
    3
 10
632.67627388875894
 20
49.204335775803202
 11
632.67627388875894
 21
-18.502955244141958
  0
CIRCLE
  8
_1-0_
  6
CONTINUOUS
 62
    3
 10
597.67627388875894
 20
-62.561770890584512
 40
0.5999999999999999
  0
CIRCLE
  8
_1-0_
  6
CONTINUOUS
 62
    3
 10
547.67626088875886
 20
-62.561770890584512
 40
0.5999999999999999
  0
LINE
  8
_1-0_
  6
CONTINUOUS
 62
    3
 10
547.67626088875886
 20
-62.561770890584512
 11
597.67627388875894
 21
-62.561770890584512
  0
LINE
  8
_1-0_
  6
CONTINUOUS
 62
    3
 10
602.67627388875894
 20
-62.561770890584512
 11
618.97548688875884
 21
-62.561770890584512
  0
CIRCLE
  8
_1-0_
  6
CONTINUOUS
 62
    3
 10
602.67627388875894
 20
-62.561770890584512
 40
0.5999999999999999
  0
CIRCLE
  8
_1-0_
  6
CONTINUOUS
 62
    3
 10
597.67627388875894
 20
-62.561770890584512
 40
0.5999999999999999
  0
LINE
  8
_1-0_
  6
CONTINUOUS
 62
    3
 10
602.67627388875894
 20
-49.561770890584512
 11
602.67627388875894
 21
-62.561770890584512
  0
LINE
  8
_1-0_
  6
CONTINUOUS
 62
    3
 10
597.67627388875894
 20
-37.261711890584593
 11
597.67627388875894
 21
-62.561770890584512
  0
LINE
  8
_1-0_
  6
CONTINUOUS
 62
    3
 10
597.67627388875894
 20
-62.561770890584512
 11
602.67627388875894
 21
-62.561770890584512
  0
CIRCLE
  8
_1-0_
  6
CONTINUOUS
 62
    3
 10
547.67623888875892
 20
-62.561770890584512
 40
0.5999999999999999
  0
LINE
  8
_1-0_
  6
CONTINUOUS
 62
    3
 10
547.67623888875892
 20
-49.561770890584512
 11
547.67623888875892
 21
-62.561770890584512
  0
LINE
  8
_1-0_
  6
CONTINUOUS
 62
    3
 10
622.50027066983398
 20
168.43190302105859
 11
622.50027066983398
 21
141.65690302105872
  0
LINE
  8
_1-0_
  6
CONTINUOUS
 62
    3
 10
605.50027066983398
 20
168.43190302105859
 11
605.50027066983398
 21
141.65690302105872
  0
LINE
  8
_1-0_
  6
CONTINUOUS
 62
    7
 10
639.50027066983398
 20
168.43190302105859
 11
639.50027066983398
 21
141.65690302105872
  0
LINE
  8
_1-0_
  6
CONTINUOUS
 62
    3
 10
656.50027066983398
 20
168.43190302105859
 11
656.50027066983398
 21
141.65690302105872
  0
LINE
  8
_1-0_
  6
CONTINUOUS
 62
    3
 10
639.50027066983398
 20
168.43190302105859
 11
639.50027066983398
 21
141.65690302105872
  0
LINE
  8
_1-0_
  6
CONTINUOUS
 62
    7
 10
673.50027066983398
 20
168.43190302105859
 11
673.50027066983398
 21
141.65690302105872
  0
LINE
  8
_1-0_
  6
CONTINUOUS
 62
    7
 10
520.69496027114906
 20
168.43190302105859
 11
673.50027066983398
 21
168.43190302105859
  0
LINE
  8
_1-0_
  6
CONTINUOUS
 62
    7
 10
520.69496027114906
 20
159.50690302105863
 11
673.50027066983398
 21
159.50690302105863
  0
LINE
  8
_1-0_
  6
CONTINUOUS
 62
    7
 10
520.69496027114906
 20
150.58190302105868
 11
673.50027066983398
 21
150.58190302105868
  0
LINE
  8
_1-0_
  6
CONTINUOUS
 62
    7
 10
520.69496027114906
 20
141.65690302105872
 11
673.50027066983398
 21
141.65690302105872
  0
TEXT
  8
_1-0_
 62
    2
 10
559.67527066983394
 20
160.86940302105859
 40
6.2000000000000028
 41
0.9999999999999995
 50
0
  1
75
  0
TEXT
  8
_1-0_
 62
    2
 10
576.67527066983394
 20
160.86940302105859
 40
6.2000000000000028
 41
0.9999999999999995
 50
0
  1
80
  0
TEXT
  8
_1-0_
 62
    2
 10
593.67527066983394
 20
160.86940302105859
 40
6.2000000000000028
 41
0.9999999999999995
 50
0
  1
90
  0
TEXT
  8
_1-0_
 62
    2
 10
608.90027066983384
 20
160.86940302105859
 40
6.2000000000000028
 41
0.9999999999999995
 50
0
  1
100
  0
TEXT
  8
_1-0_
 62
    2
 10
625.90027066983384
 20
160.86940302105859
 40
6.2000000000000028
 41
0.9999999999999995
 50
0
  1
120
  0
TEXT
  8
_1-0_
 62
    2
 10
642.90027066983384
 20
160.86940302105859
 40
6.2000000000000028
 41
0.9999999999999995
 50
0
  1
125
  0
TEXT
  8
_1-0_
 62
    2
 10
659.90027066983384
 20
160.86940302105859
 40
6.2000000000000028
 41
0.9999999999999995
 50
0
  1
150
  0
TEXT
  8
_1-0_
 62
    7
 10
530.68199452267163
 20
121.29946746702535
 40
5.4000000000000057
 41
0.999999999999999
 50
0
  1
角パネル
  0
TEXT
  8
_1-0_
 62
    7
 10
631.73693679251835
 20
-18.767476233140997
 40
5.3999999999999844
 41
1.0000000000000029
 50
90.000002999999992
  1
ストリンガー固定ピッチ
  0
LINE
  8
_1-0_
  6
CONTINUOUS
 62
    7
 10
557.06921966227333
 20
30.173359485856054
 11
600.67627388875894
 21
30.173359485856054
  0
LINE
  8
_1-0_
  6
CONTINUOUS
 62
    7
 10
556.15425187750725
 20
105.63041554602978
 11
616.24026102650419
 21
105.63041554602978
  0
TEXT
  8
_1-0_
 62
    7
 10
563.77625638875884
 20
-61.761770890584501
 40
5.3999999999999773
 41
1.0000000000000042
 50
0
  1
１００
  0
TEXT
  8
_1-0_
 62
    7
 10
605.02588038875888
 20
-61.761770890584501
 40
5.3999999999999773
 41
1.0000000000000042
 50
0
  1
１０
  0
TEXT
  8
_1-0_
 62
    7
 10
552.70151077056562
 20
30.727631385698942
 40
5.4000000000000057
 41
0.999999999999999
 50
0
  1
ストリンガー LST
  0
TEXT
  8
_1-0_
 62
    7
 10
385.18132716710323
 20
-339.34650665708295
 40
5.3999999999999773
 41
1.0000000000000042
 50
0
  1
１００
  0
TEXT
  8
_1-0_
 62
    7
 10
647.48213557385475
 20
-339.72926873251004
 40
5.3999999999999773
 41
1.0000000000000042
 50
0
  1
１００
  0
TEXT
  8
_1-0_
 62
    7
 10
555.39725645200576
 20
106.13041554602978
 40
5.4000000000000057
 41
0.999999999999999
 50
0
  1
SUSトップタップ6×35
  0
TEXT
  8
_1-0_
 62
    7
 10
525.39761547049147
 20
161.26940302105857
 40
5.4000000000000057
 41
0.999999999999999
 50
0
  1
ﾊﾟﾈﾙﾋﾟｯﾁ
  0
TEXT
  8
_1-0_
 62
    7
 10
531.79761547049145
 20
152.34440302105861
 40
5.4000000000000057
 41
0.999999999999999
 50
0
  1
開口
  0
TEXT
  8
_1-0_
 62
    7
 10
522.29761547049145
 20
143.41940302105866
 40
5.4000000000000057
 41
0.999999999999999
 50
0
  1
開口率(％)
  0
LINE
  8
_1-0_
  6
CONTINUOUS
 62
    7
 10
528.92615788876037
 20
101.37031202179492
 11
528.92615994015136
 21
96.391633259494938
  0
LINE
  8
_1-0_
  6
CONTINUOUS
 62
    9
 10
521.17615788876037
 20
85.16592910398299
 11
521.17615788876037
 21
90.653784404273438
  0
LINE
  8
_1-0_
  6
CONTINUOUS
 62
    9
 10
526.07615788876046
 20
85.32878440427362
 11
526.07615788876046
 21
84.178784404273529
  0
ARC
  8
_1-0_
  6
CONTINUOUS
 62
    9
 10
525.82615788876046
 20
84.178784404273529
 40
0.25
 50
254.9999999999107
 51
0
  0
LINE
  8
_1-0_
  6
CONTINUOUS
 62
    9
 10
521.17615788876037
 20
85.16592910398299
 11
525.76145312748463
 21
83.937302947701255
  0
ARC
  8
_1-0_
  6
CONTINUOUS
 62
    9
 10
526.32615788876046
 20
85.32878440427362
 40
0.25
 50
74.99999999995498
 51
180
  0
LINE
  8
_1-0_
  6
CONTINUOUS
 62
    9
 10
526.37615788876042
 20
90.653784404273438
 11
526.37615788876042
 21
85.574205989754091
  0
LINE
  8
_1-0_
  6
CONTINUOUS
 62
    9
 10
521.17615788876037
 20
96.116639704564022
 11
521.17615788876037
 21
90.653784404273438
  0
LINE
  8
_1-0_
  6
CONTINUOUS
 62
    9
 10
526.07615788876046
 20
95.953784404273392
 11
526.07615788876046
 21
97.103784404273483
  0
LINE
  8
_1-0_
  6
CONTINUOUS
 62
    9
 10
521.17615788876037
 20
96.116639704563795
 11
525.76145312748463
 21
97.345265860845529
  0
ARC
  8
_1-0_
  6
CONTINUOUS
 62
    9
 10
526.32615788876046
 20
95.953784404273392
 40
0.25
 50
180
 51
285.00000000004496
  0
LINE
  8
_1-0_
  6
CONTINUOUS
 62
    9
 10
526.39086265003607
 20
95.712302947701573
 11
528.92615788876037
 21
96.391633259494256
  0
LINE
  8
_1-0_
  6
CONTINUOUS
 62
    9
 10
527.02615788876051
 20
90.653784404273438
 11
527.02615788876051
 21
95.8825297938738
  0
LINE
  8
_1-0_
  6
CONTINUOUS
 62
    9
 10
526.37615788876042
 20
90.653784404273438
 11
526.37615788876042
 21
95.708362818792921
  0
ARC
  8
_1-0_
  6
CONTINUOUS
 62
    9
 10
525.82615788876046
 20
97.103784404273483
 40
0.25
 50
0
 51
105.00000000008929
  0
LINE
  8
_1-0_
  6
CONTINUOUS
 62
    9
 10
526.3908626500363
 20
85.570265860845439
 11
528.9261578887606
 21
84.890935549052529
  0
LINE
  8
_1-0_
  6
CONTINUOUS
 62
    9
 10
527.02615788876051
 20
90.653784404273438
 11
527.02615788876051
 21
85.400039014673212
  0
LINE
  8
_1-0_
  6
CONTINUOUS
 62
    9
 10
521.17615788876037
 20
85.165929103982762
 11
521.17615788876037
 21
90.65378440427321
  0
LINE
  8
_1-0_
  6
CONTINUOUS
 62
    9
 10
526.07615788876046
 20
85.328784404273392
 11
526.07615788876046
 21
84.178784404273301
  0
ARC
  8
_1-0_
  6
CONTINUOUS
 62
    9
 10
525.82615788876046
 20
84.178784404273301
 40
0.25
 50
254.9999999999107
 51
0
  0
LINE
  8
_1-0_
  6
CONTINUOUS
 62
    9
 10
521.17615788876037
 20
85.165929103982762
 11
525.7614531274844
 21
83.937302947701028
  0
ARC
  8
_1-0_
  6
CONTINUOUS
 62
    9
 10
526.32615788876046
 20
85.328784404273392
 40
0.25
 50
74.99999999995498
 51
180
  0
LINE
  8
_1-0_
  6
CONTINUOUS
 62
    9
 10
526.39086265003607
 20
85.570265860845211
 11
528.92615788876037
 21
84.890935549052529
  0
LINE
  8
_1-0_
  6
CONTINUOUS
 62
    9
 10
527.02615788876028
 20
90.65378440427321
 11
527.02615788876028
 21
85.400039014673212
  0
LINE
  8
_1-0_
  6
CONTINUOUS
 62
    9
 10
526.37615788876042
 20
90.65378440427321
 11
526.37615788876042
 21
85.574205989753864
  0
LINE
  8
_1-0_
  6
CONTINUOUS
 62
    9
 10
521.17615788876037
 20
96.116639704563795
 11
521.17615788876037
 21
90.65378440427321
  0
LINE
  8
_1-0_
  6
CONTINUOUS
 62
    9
 10
526.07615788876046
 20
95.953784404273165
 11
526.07615788876046
 21
97.103784404273256
  0
ARC
  8
_1-0_
  6
CONTINUOUS
 62
    9
 10
525.82615788876046
 20
97.103784404273256
 40
0.25
 50
0
 51
105.00000000008929
  0
LINE
  8
_1-0_
  6
CONTINUOUS
 62
    9
 10
521.17615788876037
 20
96.116639704563795
 11
525.7614531274844
 21
97.345265860845529
  0
ARC
  8
_1-0_
  6
CONTINUOUS
 62
    9
 10
526.32615788876046
 20
95.953784404273165
 40
0.25
 50
180
 51
285.00000000004496
  0
LINE
  8
_1-0_
  6
CONTINUOUS
 62
    9
 10
526.39086265003607
 20
95.712302947701573
 11
528.92615788876037
 21
96.391633259494256
  0
LINE
  8
_1-0_
  6
CONTINUOUS
 62
    9
 10
527.02615788876028
 20
90.65378440427321
 11
527.02615788876028
 21
95.882529793873573
  0
LINE
  8
_1-0_
  6
CONTINUOUS
 62
    9
 10
526.37615788876042
 20
90.65378440427321
 11
526.37615788876042
 21
95.708362818792693
  0
LINE
  8
_1-0_
  6
CONTINUOUS
 62
    7
 10
528.80115788876037
 20
83.464591978265162
 11
528.80115788876037
 21
84.164678746177515
  0
LINE
  8
_1-0_
  6
CONTINUOUS
 62
    7
 10
500.30115788876032
 20
84.352178746177287
 11
527.30115788876037
 21
83.227178746177287
  0
LINE
  8
_1-0_
  6
CONTINUOUS
 62
    7
 10
527.30115788876037
 20
83.127091978265071
 11
527.30115788876037
 21
83.227178746177515
  0
LINE
  8
_1-0_
  6
CONTINUOUS
 62
    7
 10
528.80115788876037
 20
83.064591978265071
 11
527.3011578887606
 21
83.127091978265071
  0
LINE
  8
_1-0_
  6
CONTINUOUS
 62
    7
 10
500.16993498022629
 20
85.008210358795395
 11
526.07615788876024
 21
83.928784404273301
  0
LINE
  8
_1-0_
  6
CONTINUOUS
 62
    7
 10
526.20115788876046
 20
85.289678746177515
 11
528.80115788876037
 21
84.164678746177515
  0
ARC
  8
_1-0_
  6
CONTINUOUS
 62
    7
 10
528.65115788876028
 20
83.264591978265116
 40
0.25
 50
306.86989764584337
 51
53.13010235415657
  0
LINE
  8
_1-0_
  6
CONTINUOUS
 62
    7
 10
528.80115788876037
 20
97.86476551408964
 11
528.80115788876037
 21
97.164678746177515
  0
LINE
  8
_1-0_
  6
CONTINUOUS
 62
    7
 10
500.30115788876032
 20
96.977178746177287
 11
527.30115788876037
 21
98.102178746177287
  0
LINE
  8
_1-0_
  6
CONTINUOUS
 62
    7
 10
527.30115788876037
 20
98.202265514089504
 11
527.30115788876037
 21
98.102178746177515
  0
LINE
  8
_1-0_
  6
CONTINUOUS
 62
    7
 10
528.80115788876037
 20
98.264765514089731
 11
527.3011578887606
 21
98.202265514089731
  0
LINE
  8
_1-0_
  6
CONTINUOUS
 62
    7
 10
500.16993498022629
 20
96.32114713355918
 11
526.07615788876046
 21
97.400573088081501
  0
LINE
  8
_1-0_
  6
CONTINUOUS
 62
    7
 10
526.20115788876046
 20
96.039678746177287
 11
528.80115788876037
 21
97.164678746177287
  0
ARC
  8
_1-0_
  6
CONTINUOUS
 62
    7
 10
528.65115788876028
 20
98.064765514089459
 40
0.25
 50
306.86989764584337
 51
53.130102354156669
  0
LINE
  8
_1-0_
  6
CONTINUOUS
 62
    7
 10
526.07615788876046
 20
83.928784404273529
 11
526.20115788876046
 21
85.289678746177287
  0
LINE
  8
_1-0_
  6
CONTINUOUS
 62
    7
 10
526.20115788876024
 20
96.039678746177515
 11
526.07615788876024
 21
97.400573088081501
  0
POINT
  8
_1-0_
 62
    4
 10
491.03981916265246
 20
96.998098847700021
  0
LINE
  8
_1-0_
  6
CONTINUOUS
 62
    4
 10
491.03981916265246
 20
96.998098847700021
 11
496.20645195737546
 21
96.998098847700021
  0
POINT
  8
_1-0_
 62
    4
 10
491.03981916265246
 20
84.318758644931677
  0
LINE
  8
_1-0_
  6
CONTINUOUS
 62
    4
 10
491.03981916265246
 20
84.318758644931677
 11
496.20645195737546
 21
84.318758644931677
  0
LINE
  8
_1-0_
  6
CONTINUOUS
 62
    4
 10
491.03981916265246
 20
84.318758644931677
 11
491.03981916265246
 21
96.998098847700021
  0
TEXT
  8
_1-0_
 62
    2
 10
490.53981916265246
 20
88.533428746315849
 40
4
 41
1
 50
90
  1
25
  0
LINE
  8
_1-0_
  6
CONTINUOUS
 62
    9
 10
521.1761733400815
 20
47.665929103989356
 11
521.1761733400815
 21
53.153784404279804
  0
LINE
  8
_1-0_
  6
CONTINUOUS
 62
    9
 10
526.07617334008137
 20
47.828784404279986
 11
526.07617334008137
 21
46.678784404279895
  0
ARC
  8
_1-0_
  6
CONTINUOUS
 62
    9
 10
525.82617334008137
 20
46.678784404279895
 40
0.25
 50
254.9999999999107
 51
0
  0
LINE
  8
_1-0_
  6
CONTINUOUS
 62
    9
 10
521.1761733400815
 20
47.665929103989356
 11
525.76146857880553
 21
46.437302947707622
  0
ARC
  8
_1-0_
  6
CONTINUOUS
 62
    9
 10
526.32617334008137
 20
47.828784404279986
 40
0.25
 50
74.99999999995498
 51
180
  0
LINE
  8
_1-0_
  6
CONTINUOUS
 62
    9
 10
526.37617334008155
 20
53.153784404279804
 11
526.37617334008155
 21
48.074205989760458
  0
LINE
  8
_1-0_
  6
CONTINUOUS
 62
    9
 10
521.1761733400815
 20
58.616639704570389
 11
521.1761733400815
 21
53.153784404279804
  0
LINE
  8
_1-0_
  6
CONTINUOUS
 62
    9
 10
526.07617334008137
 20
58.453784404279759
 11
526.07617334008137
 21
59.60378440427985
  0
LINE
  8
_1-0_
  6
CONTINUOUS
 62
    9
 10
521.1761733400815
 20
58.616639704570161
 11
525.76146857880553
 21
59.845265860851896
  0
ARC
  8
_1-0_
  6
CONTINUOUS
 62
    9
 10
526.32617334008137
 20
58.453784404279759
 40
0.25
 50
180
 51
285.00000000004496
  0
LINE
  8
_1-0_
  6
CONTINUOUS
 62
    9
 10
526.3908781013572
 20
58.21230294770794
 11
528.9261733400815
 21
58.891633259500622
  0
LINE
  8
_1-0_
  6
CONTINUOUS
 62
    9
 10
527.02617334008141
 20
53.153784404279804
 11
527.02617334008141
 21
58.382529793880167
  0
LINE
  8
_1-0_
  6
CONTINUOUS
 62
    9
 10
526.37617334008155
 20
53.153784404279804
 11
526.37617334008155
 21
58.208362818799287
  0
ARC
  8
_1-0_
  6
CONTINUOUS
 62
    9
 10
525.82617334008137
 20
59.60378440427985
 40
0.25
 50
0
 51
105.00000000008929
  0
LINE
  8
_1-0_
  6
CONTINUOUS
 62
    9
 10
526.3908781013572
 20
48.070265860851805
 11
528.9261733400815
 21
47.390935549058895
  0
LINE
  8
_1-0_
  6
CONTINUOUS
 62
    9
 10
527.02617334008141
 20
53.153784404279804
 11
527.02617334008141
 21
47.900039014679578
  0
LINE
  8
_1-0_
  6
CONTINUOUS
 62
    9
 10
521.1761733400815
 20
47.665929103989129
 11
521.1761733400815
 21
53.153784404279577
  0
LINE
  8
_1-0_
  6
CONTINUOUS
 62
    9
 10
526.07617334008137
 20
47.828784404279759
 11
526.07617334008137
 21
46.678784404279668
  0
ARC
  8
_1-0_
  6
CONTINUOUS
 62
    9
 10
525.82617334008137
 20
46.678784404279668
 40
0.25
 50
254.9999999999107
 51
0
  0
LINE
  8
_1-0_
  6
CONTINUOUS
 62
    9
 10
521.1761733400815
 20
47.665929103989129
 11
525.76146857880553
 21
46.437302947707394
  0
ARC
  8
_1-0_
  6
CONTINUOUS
 62
    9
 10
526.32617334008137
 20
47.828784404279759
 40
0.25
 50
74.99999999995498
 51
180
  0
LINE
  8
_1-0_
  6
CONTINUOUS
 62
    9
 10
526.3908781013572
 20
48.070265860851578
 11
528.9261733400815
 21
47.390935549058895
  0
LINE
  8
_1-0_
  6
CONTINUOUS
 62
    9
 10
527.02617334008141
 20
53.153784404279577
 11
527.02617334008141
 21
47.900039014679578
  0
LINE
  8
_1-0_
  6
CONTINUOUS
 62
    9
 10
526.37617334008132
 20
53.153784404279577
 11
526.37617334008132
 21
48.07420598976023
  0
LINE
  8
_1-0_
  6
CONTINUOUS
 62
    9
 10
521.1761733400815
 20
58.616639704570161
 11
521.1761733400815
 21
53.153784404279577
  0
LINE
  8
_1-0_
  6
CONTINUOUS
 62
    9
 10
526.07617334008137
 20
58.453784404279531
 11
526.07617334008137
 21
59.603784404279622
  0
ARC
  8
_1-0_
  6
CONTINUOUS
 62
    9
 10
525.82617334008137
 20
59.603784404279622
 40
0.25
 50
0
 51
105.00000000008929
  0
LINE
  8
_1-0_
  6
CONTINUOUS
 62
    9
 10
521.1761733400815
 20
58.616639704570161
 11
525.76146857880531
 21
59.845265860851896
  0
ARC
  8
_1-0_
  6
CONTINUOUS
 62
    9
 10
526.32617334008137
 20
58.453784404279531
 40
0.25
 50
180
 51
285.00000000004496
  0
LINE
  8
_1-0_
  6
CONTINUOUS
 62
    9
 10
526.3908781013572
 20
58.21230294770794
 11
528.9261733400815
 21
58.891633259500622
  0
LINE
  8
_1-0_
  6
CONTINUOUS
 62
    9
 10
527.02617334008141
 20
53.153784404279577
 11
527.02617334008141
 21
58.382529793879939
  0
LINE
  8
_1-0_
  6
CONTINUOUS
 62
    9
 10
526.37617334008132
 20
53.153784404279577
 11
526.37617334008132
 21
58.20836281879906
  0
LINE
  8
_1-0_
  6
CONTINUOUS
 62
    7
 10
528.80117334008128
 20
45.964591978271528
 11
528.80117334008128
 21
46.664678746183881
  0
LINE
  8
_1-0_
  6
CONTINUOUS
 62
    7
 10
500.30117334008133
 20
46.852178746183654
 11
527.3011733400815
 21
45.727178746183654
  0
LINE
  8
_1-0_
  6
CONTINUOUS
 62
    7
 10
527.30117334008128
 20
45.627091978271437
 11
527.30117334008128
 21
45.727178746183881
  0
LINE
  8
_1-0_
  6
CONTINUOUS
 62
    7
 10
528.8011733400815
 20
45.564591978271437
 11
527.3011733400815
 21
45.627091978271437
  0
LINE
  8
_1-0_
  6
CONTINUOUS
 62
    7
 10
500.16995043154731
 20
47.508210358801762
 11
526.07617334008137
 21
46.428784404279668
  0
LINE
  8
_1-0_
  6
CONTINUOUS
 62
    7
 10
526.20117334008137
 20
47.789678746183881
 11
528.8011733400815
 21
46.664678746183881
  0
ARC
  8
_1-0_
  6
CONTINUOUS
 62
    7
 10
528.65117334008141
 20
45.764591978271483
 40
0.25
 50
306.86989764584337
 51
53.13010235415657
  0
LINE
  8
_1-0_
  6
CONTINUOUS
 62
    7
 10
528.80117334008128
 20
60.364765514096007
 11
528.80117334008128
 21
59.664678746183881
  0
LINE
  8
_1-0_
  6
CONTINUOUS
 62
    7
 10
500.30117334008133
 20
59.477178746183654
 11
527.30117334008128
 21
60.602178746183654
  0
LINE
  8
_1-0_
  6
CONTINUOUS
 62
    7
 10
527.30117334008128
 20
60.70226551409587
 11
527.30117334008128
 21
60.602178746183881
  0
LINE
  8
_1-0_
  6
CONTINUOUS
 62
    7
 10
528.8011733400815
 20
60.764765514096098
 11
527.3011733400815
 21
60.702265514096098
  0
LINE
  8
_1-0_
  6
CONTINUOUS
 62
    7
 10
500.16995043154731
 20
58.821147133565546
 11
526.07617334008137
 21
59.900573088087867
  0
LINE
  8
_1-0_
  6
CONTINUOUS
 62
    7
 10
526.20117334008137
 20
58.539678746183654
 11
528.8011733400815
 21
59.664678746183654
  0
ARC
  8
_1-0_
  6
CONTINUOUS
 62
    7
 10
528.65117334008141
 20
60.564765514095825
 40
0.25
 50
306.86989764584337
 51
53.130102354156669
  0
LINE
  8
_1-0_
  6
CONTINUOUS
 62
    7
 10
526.07617334008137
 20
46.428784404279895
 11
526.20117334008137
 21
47.789678746183654
  0
LINE
  8
_1-0_
  6
CONTINUOUS
 62
    7
 10
526.20117334008137
 20
58.539678746183881
 11
526.07617334008137
 21
59.900573088087867
  0
POINT
  8
_1-0_
 62
    4
 10
491.03983461397348
 20
59.498098847706387
  0
LINE
  8
_1-0_
  6
CONTINUOUS
 62
    4
 10
491.03983461397348
 20
59.498098847706387
 11
496.20646740869648
 21
59.498098847706387
  0
POINT
  8
_1-0_
 62
    4
 10
491.03983461397348
 20
46.818758644938043
  0
LINE
  8
_1-0_
  6
CONTINUOUS
 62
    4
 10
491.03983461397348
 20
46.818758644938043
 11
496.20646740869648
 21
46.818758644938043
  0
LINE
  8
_1-0_
  6
CONTINUOUS
 62
    4
 10
491.03983461397348
 20
46.818758644938043
 11
491.03983461397348
 21
59.498098847706387
  0
TEXT
  8
_1-0_
 62
    2
 10
490.53983461397348
 20
51.033428746322215
 40
4
 41
1
 50
90
  1
25
  0
LINE
  8
_1-0_
  6
CONTINUOUS
 62
    9
 10
521.17618879140241
 20
10.165929103995722
 11
521.17618879140241
 21
15.653784404286171
  0
LINE
  8
_1-0_
  6
CONTINUOUS
 62
    9
 10
526.0761887914025
 20
10.328784404286353
 11
526.0761887914025
 21
9.1787844042862616
  0
ARC
  8
_1-0_
  6
CONTINUOUS
 62
    9
 10
525.8261887914025
 20
9.1787844042862616
 40
0.25
 50
254.9999999999107
 51
0
  0
LINE
  8
_1-0_
  6
CONTINUOUS
 62
    9
 10
521.17618879140241
 20
10.165929103995722
 11
525.76148403012667
 21
8.937302947713988
  0
ARC
  8
_1-0_
  6
CONTINUOUS
 62
    9
 10
526.3261887914025
 20
10.328784404286353
 40
0.25
 50
74.99999999995498
 51
180
  0
LINE
  8
_1-0_
  6
CONTINUOUS
 62
    9
 10
526.37618879140246
 20
15.653784404286171
 11
526.37618879140246
 21
10.574205989766824
  0
LINE
  8
_1-0_
  6
CONTINUOUS
 62
    9
 10
521.17618879140241
 20
21.116639704576755
 11
521.17618879140241
 21
15.653784404286171
  0
LINE
  8
_1-0_
  6
CONTINUOUS
 62
    9
 10
526.0761887914025
 20
20.953784404286125
 11
526.0761887914025
 21
22.103784404286216
  0
LINE
  8
_1-0_
  6
CONTINUOUS
 62
    9
 10
521.17618879140241
 20
21.116639704576528
 11
525.76148403012667
 21
22.345265860858262
  0
ARC
  8
_1-0_
  6
CONTINUOUS
 62
    9
 10
526.3261887914025
 20
20.953784404286125
 40
0.25
 50
180
 51
285.00000000004496
  0
LINE
  8
_1-0_
  6
CONTINUOUS
 62
    9
 10
526.39089355267811
 20
20.712302947714306
 11
528.92618879140241
 21
21.391633259506989
  0
LINE
  8
_1-0_
  6
CONTINUOUS
 62
    9
 10
527.02618879140255
 20
15.653784404286171
 11
527.02618879140255
 21
20.882529793886533
  0
LINE
  8
_1-0_
  6
CONTINUOUS
 62
    9
 10
526.37618879140246
 20
15.653784404286171
 11
526.37618879140246
 21
20.708362818805654
  0
ARC
  8
_1-0_
  6
CONTINUOUS
 62
    9
 10
525.8261887914025
 20
22.103784404286216
 40
0.25
 50
0
 51
105.00000000008929
  0
LINE
  8
_1-0_
  6
CONTINUOUS
 62
    9
 10
526.39089355267834
 20
10.570265860858171
 11
528.92618879140264
 21
9.8909355490652615
  0
LINE
  8
_1-0_
  6
CONTINUOUS
 62
    9
 10
527.02618879140255
 20
15.653784404286171
 11
527.02618879140255
 21
10.400039014685944
  0
LINE
  8
_1-0_
  6
CONTINUOUS
 62
    9
 10
521.17618879140241
 20
10.165929103995495
 11
521.17618879140241
 21
15.653784404285943
  0
LINE
  8
_1-0_
  6
CONTINUOUS
 62
    9
 10
526.0761887914025
 20
10.328784404286125
 11
526.0761887914025
 21
9.1787844042860343
  0
ARC
  8
_1-0_
  6
CONTINUOUS
 62
    9
 10
525.8261887914025
 20
9.1787844042860343
 40
0.25
 50
254.9999999999107
 51
0
  0
LINE
  8
_1-0_
  6
CONTINUOUS
 62
    9
 10
521.17618879140241
 20
10.165929103995495
 11
525.76148403012644
 21
8.9373029477137607
  0
ARC
  8
_1-0_
  6
CONTINUOUS
 62
    9
 10
526.3261887914025
 20
10.328784404286125
 40
0.25
 50
74.99999999995498
 51
180
  0
LINE
  8
_1-0_
  6
CONTINUOUS
 62
    9
 10
526.39089355267811
 20
10.570265860857944
 11
528.92618879140241
 21
9.8909355490652615
  0
LINE
  8
_1-0_
  6
CONTINUOUS
 62
    9
 10
527.02618879140232
 20
15.653784404285943
 11
527.02618879140232
 21
10.400039014685944
  0
LINE
  8
_1-0_
  6
CONTINUOUS
 62
    9
 10
526.37618879140246
 20
15.653784404285943
 11
526.37618879140246
 21
10.574205989766597
  0
LINE
  8
_1-0_
  6
CONTINUOUS
 62
    9
 10
521.17618879140241
 20
21.116639704576528
 11
521.17618879140241
 21
15.653784404285943
  0
LINE
  8
_1-0_
  6
CONTINUOUS
 62
    9
 10
526.0761887914025
 20
20.953784404285898
 11
526.0761887914025
 21
22.103784404285989
  0
ARC
  8
_1-0_
  6
CONTINUOUS
 62
    9
 10
525.8261887914025
 20
22.103784404285989
 40
0.25
 50
0
 51
105.00000000008929
  0
LINE
  8
_1-0_
  6
CONTINUOUS
 62
    9
 10
521.17618879140241
 20
21.116639704576528
 11
525.76148403012644
 21
22.345265860858262
  0
ARC
  8
_1-0_
  6
CONTINUOUS
 62
    9
 10
526.3261887914025
 20
20.953784404285898
 40
0.25
 50
180
 51
285.00000000004496
  0
LINE
  8
_1-0_
  6
CONTINUOUS
 62
    9
 10
526.39089355267811
 20
20.712302947714306
 11
528.92618879140241
 21
21.391633259506989
  0
LINE
  8
_1-0_
  6
CONTINUOUS
 62
    9
 10
527.02618879140232
 20
15.653784404285943
 11
527.02618879140232
 21
20.882529793886306
  0
LINE
  8
_1-0_
  6
CONTINUOUS
 62
    9
 10
526.37618879140246
 20
15.653784404285943
 11
526.37618879140246
 21
20.708362818805426
  0
LINE
  8
_1-0_
  6
CONTINUOUS
 62
    7
 10
528.80118879140241
 20
8.4645919782778947
 11
528.80118879140241
 21
9.1646787461902477
  0
LINE
  8
_1-0_
  6
CONTINUOUS
 62
    7
 10
500.30118879140235
 20
9.3521787461900203
 11
527.30118879140241
 21
8.2271787461900203
  0
LINE
  8
_1-0_
  6
CONTINUOUS
 62
    7
 10
527.30118879140241
 20
8.1270919782778037
 11
527.30118879140241
 21
8.2271787461902477
  0
LINE
  8
_1-0_
  6
CONTINUOUS
 62
    7
 10
528.80118879140241
 20
8.0645919782778037
 11
527.30118879140264
 21
8.1270919782778037
  0
LINE
  8
_1-0_
  6
CONTINUOUS
 62
    7
 10
500.16996588286833
 20
10.008210358808128
 11
526.07618879140227
 21
8.9287844042860343
  0
LINE
  8
_1-0_
  6
CONTINUOUS
 62
    7
 10
526.2011887914025
 20
10.289678746190248
 11
528.80118879140241
 21
9.1646787461902477
  0
ARC
  8
_1-0_
  6
CONTINUOUS
 62
    7
 10
528.65118879140232
 20
8.2645919782778492
 40
0.25
 50
306.86989764584337
 51
53.13010235415657
  0
LINE
  8
_1-0_
  6
CONTINUOUS
 62
    7
 10
528.80118879140241
 20
22.864765514102373
 11
528.80118879140241
 21
22.164678746190248
  0
LINE
  8
_1-0_
  6
CONTINUOUS
 62
    7
 10
500.30118879140235
 20
21.97717874619002
 11
527.30118879140241
 21
23.10217874619002
  0
LINE
  8
_1-0_
  6
CONTINUOUS
 62
    7
 10
527.30118879140241
 20
23.202265514102237
 11
527.30118879140241
 21
23.102178746190248
  0
LINE
  8
_1-0_
  6
CONTINUOUS
 62
    7
 10
528.80118879140241
 20
23.264765514102464
 11
527.30118879140264
 21
23.202265514102464
  0
LINE
  8
_1-0_
  6
CONTINUOUS
 62
    7
 10
500.16996588286833
 20
21.321147133571912
 11
526.0761887914025
 21
22.400573088094234
  0
LINE
  8
_1-0_
  6
CONTINUOUS
 62
    7
 10
526.2011887914025
 20
21.03967874619002
 11
528.80118879140241
 21
22.16467874619002
  0
ARC
  8
_1-0_
  6
CONTINUOUS
 62
    7
 10
528.65118879140232
 20
23.064765514102191
 40
0.25
 50
306.86989764584337
 51
53.130102354156669
  0
LINE
  8
_1-0_
  6
CONTINUOUS
 62
    7
 10
526.0761887914025
 20
8.9287844042862616
 11
526.2011887914025
 21
10.28967874619002
  0
LINE
  8
_1-0_
  6
CONTINUOUS
 62
    7
 10
526.20118879140227
 20
21.039678746190248
 11
526.07618879140227
 21
22.400573088094234
  0
POINT
  8
_1-0_
 62
    4
 10
491.0398500652945
 20
21.998098847712754
  0
LINE
  8
_1-0_
  6
CONTINUOUS
 62
    4
 10
491.0398500652945
 20
21.998098847712754
 11
496.2064828600175
 21
21.998098847712754
  0
POINT
  8
_1-0_
 62
    4
 10
491.0398500652945
 20
9.3187586449444098
  0
LINE
  8
_1-0_
  6
CONTINUOUS
 62
    4
 10
491.0398500652945
 20
9.3187586449444098
 11
496.2064828600175
 21
9.3187586449444098
  0
LINE
  8
_1-0_
  6
CONTINUOUS
 62
    4
 10
491.0398500652945
 20
9.3187586449444098
 11
491.0398500652945
 21
21.998098847712754
  0
TEXT
  8
_1-0_
 62
    2
 10
490.5398500652945
 20
13.533428746328582
 40
4
 41
1
 50
90
  1
25
  0
LINE
  8
_1-0_
  6
CONTINUOUS
 62
    9
 10
521.17620424272354
 20
-27.334070895997911
 11
521.17620424272354
 21
-21.846215595707463
  0
LINE
  8
_1-0_
  6
CONTINUOUS
 62
    9
 10
526.07620424272341
 20
-27.171215595707281
 11
526.07620424272341
 21
-28.321215595707372
  0
ARC
  8
_1-0_
  6
CONTINUOUS
 62
    9
 10
525.82620424272341
 20
-28.321215595707372
 40
0.25
 50
254.9999999999107
 51
0
  0
LINE
  8
_1-0_
  6
CONTINUOUS
 62
    9
 10
521.17620424272354
 20
-27.334070895997911
 11
525.76149948144757
 21
-28.562697052279646
  0
ARC
  8
_1-0_
  6
CONTINUOUS
 62
    9
 10
526.32620424272341
 20
-27.171215595707281
 40
0.25
 50
74.99999999995498
 51
180
  0
LINE
  8
_1-0_
  6
CONTINUOUS
 62
    9
 10
526.37620424272359
 20
-21.846215595707463
 11
526.37620424272359
 21
-26.925794010226809
  0
LINE
  8
_1-0_
  6
CONTINUOUS
 62
    9
 10
521.17620424272354
 20
-16.383360295416878
 11
521.17620424272354
 21
-21.846215595707463
  0
LINE
  8
_1-0_
  6
CONTINUOUS
 62
    9
 10
526.07620424272341
 20
-16.546215595707508
 11
526.07620424272341
 21
-15.396215595707417
  0
LINE
  8
_1-0_
  6
CONTINUOUS
 62
    9
 10
521.17620424272354
 20
-16.383360295417106
 11
525.76149948144757
 21
-15.154734139135371
  0
ARC
  8
_1-0_
  6
CONTINUOUS
 62
    9
 10
526.32620424272341
 20
-16.546215595707508
 40
0.25
 50
180
 51
285.00000000004496
  0
LINE
  8
_1-0_
  6
CONTINUOUS
 62
    9
 10
526.39090900399924
 20
-16.787697052279327
 11
528.92620424272354
 21
-16.108366740486645
  0
LINE
  8
_1-0_
  6
CONTINUOUS
 62
    9
 10
527.02620424272345
 20
-21.846215595707463
 11
527.02620424272345
 21
-16.6174702061071
  0
LINE
  8
_1-0_
  6
CONTINUOUS
 62
    9
 10
526.37620424272359
 20
-21.846215595707463
 11
526.37620424272359
 21
-16.79163718118798
  0
ARC
  8
_1-0_
  6
CONTINUOUS
 62
    9
 10
525.82620424272341
 20
-15.396215595707417
 40
0.25
 50
0
 51
105.00000000008929
  0
LINE
  8
_1-0_
  6
CONTINUOUS
 62
    9
 10
526.39090900399924
 20
-26.929734139135462
 11
528.92620424272354
 21
-27.609064450928372
  0
LINE
  8
_1-0_
  6
CONTINUOUS
 62
    9
 10
527.02620424272345
 20
-21.846215595707463
 11
527.02620424272345
 21
-27.099960985307689
  0
LINE
  8
_1-0_
  6
CONTINUOUS
 62
    9
 10
521.17620424272354
 20
-27.334070895998138
 11
521.17620424272354
 21
-21.84621559570769
  0
LINE
  8
_1-0_
  6
CONTINUOUS
 62
    9
 10
526.07620424272341
 20
-27.171215595707508
 11
526.07620424272341
 21
-28.321215595707599
  0
ARC
  8
_1-0_
  6
CONTINUOUS
 62
    9
 10
525.82620424272341
 20
-28.321215595707599
 40
0.25
 50
254.9999999999107
 51
0
  0
LINE
  8
_1-0_
  6
CONTINUOUS
 62
    9
 10
521.17620424272354
 20
-27.334070895998138
 11
525.76149948144757
 21
-28.562697052279873
  0
ARC
  8
_1-0_
  6
CONTINUOUS
 62
    9
 10
526.32620424272341
 20
-27.171215595707508
 40
0.25
 50
74.99999999995498
 51
180
  0
LINE
  8
_1-0_
  6
CONTINUOUS
 62
    9
 10
526.39090900399924
 20
-26.929734139135689
 11
528.92620424272354
 21
-27.609064450928372
  0
LINE
  8
_1-0_
  6
CONTINUOUS
 62
    9
 10
527.02620424272345
 20
-21.84621559570769
 11
527.02620424272345
 21
-27.099960985307689
  0
LINE
  8
_1-0_
  6
CONTINUOUS
 62
    9
 10
526.37620424272336
 20
-21.84621559570769
 11
526.37620424272336
 21
-26.925794010227037
  0
LINE
  8
_1-0_
  6
CONTINUOUS
 62
    9
 10
521.17620424272354
 20
-16.383360295417106
 11
521.17620424272354
 21
-21.84621559570769
  0
LINE
  8
_1-0_
  6
CONTINUOUS
 62
    9
 10
526.07620424272341
 20
-16.546215595707736
 11
526.07620424272341
 21
-15.396215595707645
  0
ARC
  8
_1-0_
  6
CONTINUOUS
 62
    9
 10
525.82620424272341
 20
-15.396215595707645
 40
0.25
 50
0
 51
105.00000000008929
  0
LINE
  8
_1-0_
  6
CONTINUOUS
 62
    9
 10
521.17620424272354
 20
-16.383360295417106
 11
525.76149948144734
 21
-15.154734139135371
  0
ARC
  8
_1-0_
  6
CONTINUOUS
 62
    9
 10
526.32620424272341
 20
-16.546215595707736
 40
0.25
 50
180
 51
285.00000000004496
  0
LINE
  8
_1-0_
  6
CONTINUOUS
 62
    9
 10
526.39090900399924
 20
-16.787697052279327
 11
528.92620424272354
 21
-16.108366740486645
  0
LINE
  8
_1-0_
  6
CONTINUOUS
 62
    9
 10
527.02620424272345
 20
-21.84621559570769
 11
527.02620424272345
 21
-16.617470206107328
  0
LINE
  8
_1-0_
  6
CONTINUOUS
 62
    9
 10
526.37620424272336
 20
-21.84621559570769
 11
526.37620424272336
 21
-16.791637181188207
  0
LINE
  8
_1-0_
  6
CONTINUOUS
 62
    7
 10
528.80120424272332
 20
-29.035408021715739
 11
528.80120424272332
 21
-28.335321253803386
  0
LINE
  8
_1-0_
  6
CONTINUOUS
 62
    7
 10
500.30120424272337
 20
-28.147821253803613
 11
527.30120424272354
 21
-29.272821253803613
  0
LINE
  8
_1-0_
  6
CONTINUOUS
 62
    7
 10
527.30120424272332
 20
-29.37290802171583
 11
527.30120424272332
 21
-29.272821253803386
  0
LINE
  8
_1-0_
  6
CONTINUOUS
 62
    7
 10
528.80120424272354
 20
-29.43540802171583
 11
527.30120424272354
 21
-29.37290802171583
  0
LINE
  8
_1-0_
  6
CONTINUOUS
 62
    7
 10
500.16998133418934
 20
-27.491789641185505
 11
526.07620424272341
 21
-28.571215595707599
  0
LINE
  8
_1-0_
  6
CONTINUOUS
 62
    7
 10
526.20120424272341
 20
-27.210321253803386
 11
528.80120424272354
 21
-28.335321253803386
  0
ARC
  8
_1-0_
  6
CONTINUOUS
 62
    7
 10
528.65120424272345
 20
-29.235408021715784
 40
0.25
 50
306.86989764584337
 51
53.13010235415657
  0
LINE
  8
_1-0_
  6
CONTINUOUS
 62
    7
 10
528.80120424272332
 20
-14.63523448589126
 11
528.80120424272332
 21
-15.335321253803386
  0
LINE
  8
_1-0_
  6
CONTINUOUS
 62
    7
 10
500.30120424272337
 20
-15.522821253803613
 11
527.30120424272332
 21
-14.397821253803613
  0
LINE
  8
_1-0_
  6
CONTINUOUS
 62
    7
 10
527.30120424272332
 20
-14.297734485891397
 11
527.30120424272332
 21
-14.397821253803386
  0
LINE
  8
_1-0_
  6
CONTINUOUS
 62
    7
 10
528.80120424272354
 20
-14.235234485891169
 11
527.30120424272354
 21
-14.297734485891169
  0
LINE
  8
_1-0_
  6
CONTINUOUS
 62
    7
 10
500.16998133418934
 20
-16.178852866421721
 11
526.07620424272341
 21
-15.0994269118994
  0
LINE
  8
_1-0_
  6
CONTINUOUS
 62
    7
 10
526.20120424272341
 20
-16.460321253803613
 11
528.80120424272354
 21
-15.335321253803613
  0
ARC
  8
_1-0_
  6
CONTINUOUS
 62
    7
 10
528.65120424272345
 20
-14.435234485891442
 40
0.25
 50
306.86989764584337
 51
53.130102354156669
  0
LINE
  8
_1-0_
  6
CONTINUOUS
 62
    7
 10
526.07620424272341
 20
-28.571215595707372
 11
526.20120424272341
 21
-27.210321253803613
  0
LINE
  8
_1-0_
  6
CONTINUOUS
 62
    7
 10
526.20120424272341
 20
-16.460321253803386
 11
526.07620424272341
 21
-15.0994269118994
  0
POINT
  8
_1-0_
 62
    4
 10
491.03986551661552
 20
-15.50190115228088
  0
LINE
  8
_1-0_
  6
CONTINUOUS
 62
    4
 10
491.03986551661552
 20
-15.50190115228088
 11
496.20649831133852
 21
-15.50190115228088
  0
POINT
  8
_1-0_
 62
    4
 10
491.03986551661552
 20
-28.181241355049224
  0
LINE
  8
_1-0_
  6
CONTINUOUS
 62
    4
 10
491.03986551661552
 20
-28.181241355049224
 11
496.20649831133852
 21
-28.181241355049224
  0
LINE
  8
_1-0_
  6
CONTINUOUS
 62
    4
 10
491.03986551661552
 20
-28.181241355049224
 11
491.03986551661552
 21
-15.50190115228088
  0
TEXT
  8
_1-0_
 62
    2
 10
490.53986551661552
 20
-23.966571253665052
 40
4
 41
1
 50
90
  1
25
  0
LINE
  8
_1-0_
  6
CONTINUOUS
 62
    7
 10
647.4982724370966
 20
191.8704727835391
 11
647.4982724370966
 21
193.97073308727616
  0
LINE
  8
_1-0_
  6
CONTINUOUS
 62
    7
 10
642.9982724370966
 20
190.85797278353883
 11
642.9982724370966
 21
191.15823308727616
  0
LINE
  8
_1-0_
  6
CONTINUOUS
 62
    7
 10
647.49827243709694
 20
190.67047278353883
 11
642.99827243709728
 21
190.85797278353883
  0
LINE
  8
_1-0_
  6
CONTINUOUS
 62
    7
 10
639.69827243709688
 20
197.34573308727616
 11
647.49827243709694
 21
193.97073308727616
  0
ARC
  8
_1-0_
  6
CONTINUOUS
 62
    7
 10
647.04827243709667
 20
191.27047278353896
 40
0.75
 50
306.86989764584337
 51
53.13010235415657
  0
LINE
  8
_1-0_
  6
CONTINUOUS
 62
    7
 10
647.4982724370966
 20
235.07099339101254
 11
647.4982724370966
 21
232.97073308727616
  0
LINE
  8
_1-0_
  6
CONTINUOUS
 62
    7
 10
642.9982724370966
 20
236.08349339101213
 11
642.9982724370966
 21
235.78323308727616
  0
LINE
  8
_1-0_
  6
CONTINUOUS
 62
    7
 10
557.19827243709653
 20
232.50849339101231
 11
557.19827243709653
 21
227.72073308727616
  0
LINE
  8
_1-0_
  6
CONTINUOUS
 62
    7
 10
647.49827243709694
 20
236.27099339101281
 11
642.99827243709728
 21
236.08349339101281
  0
LINE
  8
_1-0_
  6
CONTINUOUS
 62
    7
 10
639.69827243709688
 20
229.59573308727548
 11
647.49827243709694
 21
232.97073308727548
  0
ARC
  8
_1-0_
  6
CONTINUOUS
 62
    7
 10
647.04827243709667
 20
235.67099339101199
 40
0.75
 50
306.86989764584337
 51
53.130102354156669
  0
LINE
  8
_1-0_
  6
CONTINUOUS
 62
    7
 10
639.32327243709688
 20
193.2630500615642
 11
639.69827243709688
 21
197.34573308727548
  0
LINE
  8
_1-0_
  6
CONTINUOUS
 62
    7
 10
639.69827243709653
 20
229.59573308727616
 11
639.32327243709653
 21
233.67841611298812
  0
POINT
  8
_1-0_
 62
    4
 10
537.0456134623314
 20
232.50849339101231
  0
LINE
  8
_1-0_
  6
CONTINUOUS
 62
    4
 10
537.0456134623314
 20
232.50849339101231
 11
552.5455118465004
 21
232.50849339101231
  0
POINT
  8
_1-0_
 62
    4
 10
537.0456134623314
 20
194.43297278353864
  0
LINE
  8
_1-0_
  6
CONTINUOUS
 62
    4
 10
537.0456134623314
 20
194.43297278353864
 11
552.5455118465004
 21
194.43297278353864
  0
LINE
  8
_1-0_
  6
CONTINUOUS
 62
    7
 10
537.0456134623314
 20
194.43297278353864
 11
537.0456134623314
 21
232.50849339101231
  0
TEXT
  8
_1-0_
 62
    7
 10
536.5456134623314
 20
210.57073308727547
 40
5.4000000000000057
 41
0.999999999999999
 50
90
  1
25
  0
POINT
  8
_1-0_
 62
    4
 10
310.92273407297256
 20
-184.22728267942296
  0
LINE
  8
_1-0_
  6
CONTINUOUS
 62
    4
 10
310.92273407297256
 20
-184.22728267942296
 11
316.08936686769556
 21
-184.22728267942296
  0
POINT
  8
_1-0_
 62
    4
 10
310.92273407297256
 20
-196.9066228821913
  0
LINE
  8
_1-0_
  6
CONTINUOUS
 62
    4
 10
310.92273407297256
 20
-196.9066228821913
 11
316.08936686769556
 21
-196.9066228821913
  0
LINE
  8
_1-0_
  6
CONTINUOUS
 62
    4
 10
310.92273407297256
 20
-196.9066228821913
 11
310.92273407297256
 21
-184.22728267942296
  0
TEXT
  8
_1-0_
 62
    2
 10
310.42273407297256
 20
-192.69195278080713
 40
4
 41
1
 50
90
  1
25
  0
LINE
  8
_1-0_
  6
CONTINUOUS
 62
    9
 10
346.27380331255773
 20
-223.01307857941083
 11
348.80909855128203
 21
-222.33374826761815
  0
LINE
  8
_1-0_
  6
CONTINUOUS
 62
    9
 10
346.27380331255785
 20
-233.15511566626697
 11
348.80909855128215
 21
-233.83444597805988
  0
LINE
  8
_1-0_
  6
CONTINUOUS
 62
    9
 10
346.27380331255773
 20
-233.15511566626719
 11
348.80909855128203
 21
-233.83444597805988
  0
LINE
  8
_1-0_
  6
CONTINUOUS
 62
    9
 10
346.27380331255773
 20
-223.01307857941083
 11
348.80909855128203
 21
-222.33374826761815
  0
LINE
  8
_1-0_
  6
CONTINUOUS
 62
    7
 10
348.68409855128192
 20
-235.26078954884724
 11
348.68409855128192
 21
-234.56070278093489
  0
LINE
  8
_1-0_
  6
CONTINUOUS
 62
    7
 10
348.68409855128203
 20
-235.66078954884733
 11
347.18409855128215
 21
-235.59828954884733
  0
LINE
  8
_1-0_
  6
CONTINUOUS
 62
    7
 10
346.08409855128201
 20
-233.43570278093489
 11
348.68409855128203
 21
-234.56070278093489
  0
ARC
  8
_1-0_
  6
CONTINUOUS
 62
    7
 10
348.53409855128194
 20
-235.46078954884729
 40
0.25
 50
306.86989764584337
 51
53.13010235415657
  0
LINE
  8
_1-0_
  6
CONTINUOUS
 62
    7
 10
348.68409855128192
 20
-220.86061601302276
 11
348.68409855128192
 21
-221.56070278093489
  0
LINE
  8
_1-0_
  6
CONTINUOUS
 62
    7
 10
348.68409855128203
 20
-220.46061601302267
 11
347.18409855128215
 21
-220.52311601302267
  0
LINE
  8
_1-0_
  6
CONTINUOUS
 62
    7
 10
346.08409855128201
 20
-222.68570278093512
 11
348.68409855128203
 21
-221.56070278093512
  0
ARC
  8
_1-0_
  6
CONTINUOUS
 62
    7
 10
348.53409855128194
 20
-220.66061601302295
 40
0.25
 50
306.86989764584337
 51
53.130102354156669
  0
POINT
  8
_1-0_
 62
    4
 10
310.92275982517407
 20
-221.72728267941238
  0
LINE
  8
_1-0_
  6
CONTINUOUS
 62
    4
 10
310.92275982517407
 20
-221.72728267941238
 11
316.08939261989707
 21
-221.72728267941238
  0
POINT
  8
_1-0_
 62
    4
 10
310.92275982517407
 20
-234.40662288218073
  0
LINE
  8
_1-0_
  6
CONTINUOUS
 62
    4
 10
310.92275982517407
 20
-234.40662288218073
 11
316.08939261989707
 21
-234.40662288218073
  0
LINE
  8
_1-0_
  6
CONTINUOUS
 62
    4
 10
310.92275982517407
 20
-234.40662288218073
 11
310.92275982517407
 21
-221.72728267941238
  0
TEXT
  8
_1-0_
 62
    2
 10
310.42275982517407
 20
-230.19195278079656
 40
4
 41
1
 50
90
  1
25
  0
LINE
  8
_1-0_
  6
CONTINUOUS
 62
    9
 10
346.27382906475924
 20
-260.51307857940037
 11
348.80912430348354
 21
-259.83374826760769
  0
LINE
  8
_1-0_
  6
CONTINUOUS
 62
    9
 10
346.27382906475935
 20
-270.65511566625651
 11
348.80912430348366
 21
-271.33444597804942
  0
LINE
  8
_1-0_
  6
CONTINUOUS
 62
    9
 10
346.27382906475924
 20
-270.65511566625673
 11
348.80912430348354
 21
-271.33444597804942
  0
LINE
  8
_1-0_
  6
CONTINUOUS
 62
    9
 10
346.27382906475924
 20
-260.51307857940037
 11
348.80912430348354
 21
-259.83374826760769
  0
LINE
  8
_1-0_
  6
CONTINUOUS
 62
    7
 10
348.68412430348343
 20
-272.76078954883678
 11
348.68412430348343
 21
-272.06070278092443
  0
LINE
  8
_1-0_
  6
CONTINUOUS
 62
    7
 10
348.68412430348354
 20
-273.16078954883687
 11
347.18412430348366
 21
-273.09828954883687
  0
LINE
  8
_1-0_
  6
CONTINUOUS
 62
    7
 10
346.08412430348352
 20
-270.93570278092443
 11
348.68412430348354
 21
-272.06070278092443
  0
ARC
  8
_1-0_
  6
CONTINUOUS
 62
    7
 10
348.53412430348345
 20
-272.96078954883683
 40
0.25
 50
306.86989764584337
 51
53.13010235415657
  0
LINE
  8
_1-0_
  6
CONTINUOUS
 62
    7
 10
348.68412430348343
 20
-258.3606160130123
 11
348.68412430348343
 21
-259.06070278092443
  0
LINE
  8
_1-0_
  6
CONTINUOUS
 62
    7
 10
348.68412430348354
 20
-257.96061601301221
 11
347.18412430348366
 21
-258.02311601301221
  0
LINE
  8
_1-0_
  6
CONTINUOUS
 62
    7
 10
346.08412430348352
 20
-260.18570278092466
 11
348.68412430348354
 21
-259.06070278092466
  0
ARC
  8
_1-0_
  6
CONTINUOUS
 62
    7
 10
348.53412430348345
 20
-258.16061601301249
 40
0.25
 50
306.86989764584337
 51
53.130102354156669
  0
POINT
  8
_1-0_
 62
    4
 10
310.92278557737558
 20
-259.22728267940192
  0
LINE
  8
_1-0_
  6
CONTINUOUS
 62
    4
 10
310.92278557737558
 20
-259.22728267940192
 11
316.08941837209858
 21
-259.22728267940192
  0
POINT
  8
_1-0_
 62
    4
 10
310.92278557737558
 20
-271.90662288217027
  0
LINE
  8
_1-0_
  6
CONTINUOUS
 62
    4
 10
310.92278557737558
 20
-271.90662288217027
 11
316.08941837209858
 21
-271.90662288217027
  0
LINE
  8
_1-0_
  6
CONTINUOUS
 62
    4
 10
310.92278557737558
 20
-271.90662288217027
 11
310.92278557737558
 21
-259.22728267940192
  0
TEXT
  8
_1-0_
 62
    2
 10
310.42278557737558
 20
-267.6919527807861
 40
4
 41
1
 50
90
  1
25
  0
LINE
  8
_1-0_
  6
CONTINUOUS
 62
    9
 10
346.27383349943256
 20
-296.27592743436378
 11
348.80912873815686
 21
-295.5965971225711
  0
LINE
  8
_1-0_
  6
CONTINUOUS
 62
    9
 10
346.27383349943267
 20
-306.41796452121991
 11
348.80912873815697
 21
-307.09729483301282
  0
LINE
  8
_1-0_
  6
CONTINUOUS
 62
    9
 10
346.27383349943256
 20
-306.41796452122014
 11
348.80912873815686
 21
-307.09729483301282
  0
LINE
  8
_1-0_
  6
CONTINUOUS
 62
    9
 10
346.27383349943256
 20
-296.27592743436378
 11
348.80912873815686
 21
-295.5965971225711
  0
LINE
  8
_1-0_
  6
CONTINUOUS
 62
    7
 10
348.68412873815674
 20
-308.52363840380019
 11
348.68412873815674
 21
-307.82355163588784
  0
LINE
  8
_1-0_
  6
CONTINUOUS
 62
    7
 10
348.68412873815686
 20
-308.92363840380028
 11
347.18412873815697
 21
-308.86113840380028
  0
LINE
  8
_1-0_
  6
CONTINUOUS
 62
    7
 10
346.08412873815683
 20
-306.69855163588784
 11
348.68412873815686
 21
-307.82355163588784
  0
ARC
  8
_1-0_
  6
CONTINUOUS
 62
    7
 10
348.53412873815677
 20
-308.72363840380024
 40
0.25
 50
306.86989764584337
 51
53.13010235415657
  0
LINE
  8
_1-0_
  6
CONTINUOUS
 62
    7
 10
348.68412873815674
 20
-294.12346486797571
 11
348.68412873815674
 21
-294.82355163588784
  0
LINE
  8
_1-0_
  6
CONTINUOUS
 62
    7
 10
348.68412873815686
 20
-293.72346486797562
 11
347.18412873815697
 21
-293.78596486797562
  0
LINE
  8
_1-0_
  6
CONTINUOUS
 62
    7
 10
346.08412873815683
 20
-295.94855163588807
 11
348.68412873815686
 21
-294.82355163588807
  0
ARC
  8
_1-0_
  6
CONTINUOUS
 62
    7
 10
348.53412873815677
 20
-293.92346486797589
 40
0.25
 50
306.86989764584337
 51
53.130102354156669
  0
POINT
  8
_1-0_
 62
    4
 10
310.92279001204889
 20
-294.99013153436533
  0
LINE
  8
_1-0_
  6
CONTINUOUS
 62
    4
 10
310.92279001204889
 20
-294.99013153436533
 11
316.08942280677189
 21
-294.99013153436533
  0
POINT
  8
_1-0_
 62
    4
 10
310.92279001204889
 20
-307.66947173713368
  0
LINE
  8
_1-0_
  6
CONTINUOUS
 62
    4
 10
310.92279001204889
 20
-307.66947173713368
 11
316.08942280677189
 21
-307.66947173713368
  0
LINE
  8
_1-0_
  6
CONTINUOUS
 62
    4
 10
310.92279001204889
 20
-307.66947173713368
 11
310.92279001204889
 21
-294.99013153436533
  0
TEXT
  8
_1-0_
 62
    2
 10
310.42279001204889
 20
-303.4548016357495
 40
4
 41
1
 50
90
  1
25
  0
LINE
  8
_1-0_
  6
CONTINUOUS
 62
    9
 10
366.4755658954868
 20
-165.31129024429083
 11
365.79623558369411
 21
-167.84658548301513
  0
LINE
  8
_1-0_
  6
CONTINUOUS
 62
    9
 10
376.61760298234316
 20
-165.31129024429083
 11
377.29693329413584
 21
-167.84658548301513
  0
POINT
  8
_1-0_
 62
    4
 10
377.90339888234161
 20
-129.96024675690717
  0
LINE
  8
_1-0_
  6
CONTINUOUS
 62
    4
 10
377.90339888234161
 20
-129.96024675690717
 11
377.90339888234161
 21
-135.12687955163017
  0
POINT
  8
_1-0_
 62
    4
 10
365.22405867957326
 20
-129.96024675690717
  0
LINE
  8
_1-0_
  6
CONTINUOUS
 62
    4
 10
365.22405867957326
 20
-129.96024675690717
 11
365.22405867957326
 21
-135.12687955163017
  0
LINE
  8
_1-0_
  6
CONTINUOUS
 62
    4
 10
365.22405867957326
 20
-129.96024675690717
 11
377.90339888234161
 21
-129.96024675690717
  0
TEXT
  8
_1-0_
 62
    2
 10
369.43872878095743
 20
-129.46024675690717
 40
4
 41
1
 50
0
  1
25
  0
POINT
  8
_1-0_
 62
    4
 10
413.66624773728398
 20
-129.96026149246046
  0
LINE
  8
_1-0_
  6
CONTINUOUS
 62
    4
 10
413.66624773728398
 20
-129.96026149246046
 11
413.66624773728398
 21
-135.12689428718346
  0
POINT
  8
_1-0_
 62
    4
 10
400.98690753451564
 20
-129.96026149246046
  0
LINE
  8
_1-0_
  6
CONTINUOUS
 62
    4
 10
400.98690753451564
 20
-129.96026149246046
 11
400.98690753451564
 21
-135.12689428718346
  0
LINE
  8
_1-0_
  6
CONTINUOUS
 62
    4
 10
400.98690753451564
 20
-129.96026149246046
 11
413.66624773728398
 21
-129.96026149246046
  0
TEXT
  8
_1-0_
 62
    2
 10
405.20157763589981
 20
-129.46026149246046
 40
4
 41
1
 50
0
  1
25
  0
POINT
  8
_1-0_
 62
    4
 10
451.16624773728398
 20
-129.96027694378154
  0
LINE
  8
_1-0_
  6
CONTINUOUS
 62
    4
 10
451.16624773728398
 20
-129.96027694378154
 11
451.16624773728398
 21
-135.12690973850454
  0
POINT
  8
_1-0_
 62
    4
 10
438.48690753451564
 20
-129.96027694378154
  0
LINE
  8
_1-0_
  6
CONTINUOUS
 62
    4
 10
438.48690753451564
 20
-129.96027694378154
 11
438.48690753451564
 21
-135.12690973850454
  0
LINE
  8
_1-0_
  6
CONTINUOUS
 62
    4
 10
438.48690753451564
 20
-129.96027694378154
 11
451.16624773728398
 21
-129.96027694378154
  0
TEXT
  8
_1-0_
 62
    2
 10
442.70157763589981
 20
-129.46027694378154
 40
4
 41
1
 50
0
  1
25
  0
POINT
  8
_1-0_
 62
    4
 10
488.65374773728394
 20
-129.96029238995231
  0
LINE
  8
_1-0_
  6
CONTINUOUS
 62
    4
 10
488.65374773728394
 20
-129.96029238995231
 11
488.65374773728394
 21
-135.12692518467531
  0
POINT
  8
_1-0_
 62
    4
 10
475.97440753451559
 20
-129.96029238995231
  0
LINE
  8
_1-0_
  6
CONTINUOUS
 62
    4
 10
475.97440753451559
 20
-129.96029238995231
 11
475.97440753451559
 21
-135.12692518467531
  0
LINE
  8
_1-0_
  6
CONTINUOUS
 62
    4
 10
475.97440753451559
 20
-129.96029238995231
 11
488.65374773728394
 21
-129.96029238995231
  0
TEXT
  8
_1-0_
 62
    2
 10
480.18907763589976
 20
-129.46029238995231
 40
4
 41
1
 50
0
  1
25
  0
LINE
  8
_1-0_
  6
CONTINUOUS
 62
    7
 10
404.30135075571354
 20
-113.22503665217806
 11
426.96202303032589
 21
-113.22503665217806
  0
TEXT
  8
_1-0_
 62
    7
 10
404.89166020642028
 20
-112.14837235944441
 40
5.3999999999999773
 41
1.0000000000000042
 50
0
  1
角パネル
  0
LINE
  8
_1-0_
  6
CONTINUOUS
 62
    7
 10
377.87317821469742
 20
-139.65320919319407
 11
404.30135075571354
 21
-113.22503665217806
  0
TEXT
  8
_1-0_
 62
    2
 10
559.67527066983394
 20
151.94440302105863
 40
6.2000000000000028
 41
0.9999999999999995
 50
0
  1
50
  0
TEXT
  8
_1-0_
 62
    2
 10
576.67527066983394
 20
151.94440302105863
 40
6.2000000000000028
 41
0.9999999999999995
 50
0
  1
55
  0
TEXT
  8
_1-0_
 62
    2
 10
593.67527066983394
 20
151.94440302105866
 40
6.2000000000000028
 41
0.9999999999999995
 50
0
  1
65
  0
TEXT
  8
_1-0_
 62
    2
 10
610.67527066983394
 20
151.94440302105863
 40
6.2000000000000028
 41
0.9999999999999995
 50
0
  1
75
  0
TEXT
  8
_1-0_
 62
    2
 10
627.67527066983394
 20
151.94440302105863
 40
6.2000000000000028
 41
0.9999999999999995
 50
0
  1
95
  0
TEXT
  8
_1-0_
 62
    2
 10
642.90027066983384
 20
151.94440302105863
 40
6.2000000000000028
 41
0.9999999999999995
 50
0
  1
100
  0
TEXT
  8
_1-0_
 62
    2
 10
659.90027066983384
 20
151.94440302105863
 40
6.2000000000000028
 41
0.9999999999999995
 50
0
  1
125
  0
LINE
  8
_1-0_
  6
CONTINUOUS
 62
    3
 10
498.70120424272324
 20
-45.811770890584512
 11
498.70120424272324
 21
-62.561770890584512
  0
CIRCLE
  8
_1-0_
  6
CONTINUOUS
 62
    3
 10
498.70120424272324
 20
-62.561770890584512
 40
0.5999999999999999
  0
LINE
  8
_1-0_
  6
CONTINUOUS
 62
    7
 10
498.70120424272324
 20
-62.561770890584512
 11
547.67623888875892
 21
-62.561770890584512
  0
TEXT
  8
_1-0_
 62
    7
 10
514.1011983887596
 20
-61.761770890584501
 40
5.3999999999999773
 41
1.0000000000000042
 50
0
  1
９７．５
  0
CIRCLE
  8
_1-0_
  6
CONTINUOUS
 62
    2
 10
318.58412873815683
 20
-340.3792687325099
 40
0.2999999999999999
  0
LINE
  8
_1-0_
  6
CONTINUOUS
 62
    2
 10
318.58412873815683
 20
-317.37926873251001
 11
318.58412873815683
 21
-340.3792687325099
  0
LINE
  8
_1-0_
  6
CONTINUOUS
 62
    2
 10
318.58412873815683
 20
-340.3792687325099
 11
367.55908104857537
 21
-340.3792687325099
  0
TEXT
  8
_1-0_
 62
    7
 10
331.0716048933661
 20
-339.57926873250995
 40
5.3999999999999773
 41
1.0000000000000042
 50
0
  1
９７．５
  0
TEXT
  8
_1-0_
 62
    7
 10
570.53809677064237
 20
-220.85712966462268
 40
5.4000000000000128
 41
0.9999999999999975
 50
90.000002999999992
  1
２５０以内
  0
TEXT
  8
_1-0_
 62
    7
 10
570.38809741990485
 20
-315.83793075868994
 40
5.4000000000000137
 41
0.9999999999999976
 50
90.000003000000063
  1
ストリンガーピッチ
  0
LINE
  8
_1-0_
  6
CONTINUOUS
 62
    7
 10
577.78213607385464
 20
-317.37926873251001
 11
577.78213607385464
 21
-340.37926873251001
  0
CIRCLE
  8
_1-0_
  6
CONTINUOUS
 62
    3
 10
570.88809598000807
 20
-261.59659273250998
 40
0.2999999999999999
  0
LINE
  8
_1-0_
  6
CONTINUOUS
 62
    3
 10
570.88809598000807
 20
-261.59659273250998
 11
570.88809598000807
 21
-315.37926873251001
  0
CIRCLE
  8
_1-0_
  6
CONTINUOUS
 62
    3
 10
570.88809598000807
 20
-261.59659273250998
 40
0.2999999999999999
  0
CIRCLE
  8
_1-0_
  6
CONTINUOUS
 62
    3
 10
577.78213607385464
 20
-340.37926873251001
 40
0.2999999999999999
  0
CIRCLE
  8
_1-0_
  6
CONTINUOUS
 62
    3
 10
577.78213607385464
 20
-340.37926873251001
 40
0.2999999999999999
  0
LINE
  8
_1-0_
  6
CONTINUOUS
 62
    3
 10
603.78219507385461
 20
-261.59659273250998
 11
570.88809598000807
 21
-261.59659273250998
  0
LINE
  8
_1-0_
  6
CONTINUOUS
 62
    3
 10
577.78213607385464
 20
-315.87925873251004
 11
577.78213607385464
 21
-139.91766654437544
  0
LINE
  8
_1-0_
  6
CONTINUOUS
 62
    7
 10
593.689594056381
 20
-155.82512452690173
 11
587.78213607385464
 21
-149.91766654437544
  0
LINE
  8
_1-0_
  6
CONTINUOUS
 62
    7
 10
612.78213607385464
 20
-174.91766654437549
 11
577.78213607385464
 21
-139.91766654437538
  0
LINE
  8
_1-0_
  6
CONTINUOUS
 62
    7
 10
612.78213607385464
 20
-315.87925873251004
 11
577.78213607385464
 21
-315.87925873251004
  0
LINE
  8
_1-0_
  6
CONTINUOUS
 62
    3
 10
681.53213507385476
 20
-340.37926873251001
 11
577.78213607385464
 21
-340.37926873251001
  0
CIRCLE
  8
_1-0_
  6
CONTINUOUS
 62
    3
 10
570.88809598000807
 20
-139.91766654437538
 40
0.2999999999999999
  0
CIRCLE
  8
_1-0_
  6
CONTINUOUS
 62
    3
 10
570.88809598000807
 20
-139.91766654437538
 40
0.2999999999999999
  0
LINE
  8
_1-0_
  6
CONTINUOUS
 62
    3
 10
577.13808098000823
 20
-139.91766654437538
 11
570.88809598000807
 21
-139.91766654437538
  0
LINE
  8
_1-0_
  6
CONTINUOUS
 62
    3
 10
570.88809598000807
 20
-139.91766654437538
 11
570.88809598000807
 21
-261.59659273250998
  0
LINE
  8
_1-0_
  6
CONTINUOUS
 62
    7
 10
619.85320288572018
 20
-167.84659773250996
 11
589.85320288572018
 21
-137.84659773250996
  0
LINE
  8
_1-0_
  6
CONTINUOUS
 62
    7
 10
589.85320288572018
 20
-137.84659773250996
 11
776.03213507385476
 21
-137.84659773250996
  0
LINE
  8
_1-0_
  6
CONTINUOUS
 62
    7
 10
643.75945889442414
 20
-116.24374989490423
 11
666.42013116903649
 21
-116.24374989490423
  0
LINE
  8
_1-0_
  6
CONTINUOUS
 62
    7
 10
622.15661105681829
 20
-137.84659773250996
 11
643.75945889442414
 21
-116.24374989490423
  0
TEXT
  8
_1-0_
 62
    7
 10
644.17927678479555
 20
-114.10884748046271
 40
5.3999999999999773
 41
1.0000000000000042
 50
0
  1
角パネル
  0
TEXT
  8
_1-0_
 62
    7
 10
597.95713607385471
 20
-339.8792687325099
 40
5.3999999999999773
 41
1.0000000000000042
 50
0
  1
９７．５
  0
TEXT
  8
_1-0_
 62
    2
 10
556.12527066983398
 20
143.01940302105868
 40
6.2000000000000028
 41
0.9999999999999995
 50
0
  1
67.0
  0
TEXT
  8
_1-0_
 62
    2
 10
573.12527066983398
 20
143.01940302105868
 40
6.2000000000000028
 41
0.9999999999999995
 50
0
  1
69.0
  0
TEXT
  8
_1-0_
 62
    2
 10
590.12527066983398
 20
143.01940302105868
 40
6.2000000000000028
 41
0.9999999999999995
 50
0
  1
72.0
  0
TEXT
  8
_1-0_
 62
    2
 10
607.12527066983398
 20
143.01940302105868
 40
6.2000000000000028
 41
0.9999999999999995
 50
0
  1
75.0
  0
TEXT
  8
_1-0_
 62
    2
 10
624.12527066983398
 20
143.01940302105868
 40
6.2000000000000028
 41
0.9999999999999995
 50
0
  1
79.0
  0
TEXT
  8
_1-0_
 62
    2
 10
641.12527066983398
 20
143.01940302105868
 40
6.2000000000000028
 41
0.9999999999999995
 50
0
  1
80.0
  0
TEXT
  8
_1-0_
 62
    2
 10
658.12527066983398
 20
143.01940302105868
 40
6.2000000000000028
 41
0.9999999999999995
 50
0
  1
83.0
  0
TEXT
  8
_1-0_
 62
    7
 10
643.34057855086917
 20
-123.6893209893579
 40
5.3999999999999773
 41
1.0000000000000042
 50
0
  1
LKP2560M
  0
TEXT
  8
_1-0_
 62
    4
 10
328.67420990111702
 20
265.37955002268484
 40
17
 41
1
 50
0
  1
ＬＫＰ２５６０Ｍ
  0
TEXT
  8
_1-0_
 62
    7
 10
529.53301833627415
 20
113.55011673223521
 40
5.4000000000000057
 41
0.999999999999999
 50
0
  1
LKP2560M
  0
TEXT
  8
_1-0_
 62
    7
 10
402.56317092611198
 20
-120.93990870722661
 40
5.3999999999999773
 41
1.0000000000000042
 50
0
  1
LKP2560M
  0
LINE
  8
_1-0_
  6
CONTINUOUS
 62
    9
 10
341.05907279908052
 20
-196.05945242314021
 11
341.05907279908052
 21
-190.57159712284977
  0
LINE
  8
_1-0_
  6
CONTINUOUS
 62
    9
 10
345.95907279908039
 20
-195.89659712284958
 11
345.95907279908039
 21
-197.04659712284968
  0
ARC
  8
_1-0_
  6
CONTINUOUS
 62
    9
 10
345.70907279908039
 20
-197.04659712284968
 40
0.25
 50
254.9999999999107
 51
0
  0
LINE
  8
_1-0_
  6
CONTINUOUS
 62
    9
 10
341.05907279908052
 20
-196.05945242314021
 11
345.64436803780455
 21
-197.28807857942195
  0
ARC
  8
_1-0_
  6
CONTINUOUS
 62
    9
 10
346.20907279908039
 20
-195.89659712284958
 40
0.25
 50
74.99999999995498
 51
180
  0
LINE
  8
_1-0_
  6
CONTINUOUS
 62
    9
 10
346.273777560356
 20
-195.65511566627799
 11
348.8090727990803
 21
-196.33444597807068
  0
LINE
  8
_1-0_
  6
CONTINUOUS
 62
    9
 10
346.90907279908043
 20
-190.57159712284977
 11
346.90907279908043
 21
-195.82534251244999
  0
LINE
  8
_1-0_
  6
CONTINUOUS
 62
    9
 10
346.25907279908057
 20
-190.57159712284977
 11
346.25907279908057
 21
-195.65117553736911
  0
LINE
  8
_1-0_
  6
CONTINUOUS
 62
    9
 10
341.05907279908052
 20
-185.10874182255918
 11
341.05907279908052
 21
-190.57159712284977
  0
LINE
  8
_1-0_
  6
CONTINUOUS
 62
    9
 10
345.95907279908039
 20
-185.27159712284958
 11
345.95907279908039
 21
-184.12159712284972
  0
ARC
  8
_1-0_
  6
CONTINUOUS
 62
    9
 10
345.70907279908039
 20
-184.12159712284972
 40
0.25
 50
0
 51
105.00000000008929
  0
LINE
  8
_1-0_
  6
CONTINUOUS
 62
    9
 10
341.05907279908052
 20
-185.10874182255941
 11
345.64436803780455
 21
-183.88011566627767
  0
ARC
  8
_1-0_
  6
CONTINUOUS
 62
    9
 10
346.20907279908039
 20
-185.27159712284958
 40
0.25
 50
180
 51
285.00000000004496
  0
LINE
  8
_1-0_
  6
CONTINUOUS
 62
    9
 10
346.27377756035622
 20
-185.5130785794214
 11
348.80907279908052
 21
-184.83374826762872
  0
LINE
  8
_1-0_
  6
CONTINUOUS
 62
    9
 10
346.90907279908043
 20
-190.57159712284977
 11
346.90907279908043
 21
-185.3428517332494
  0
LINE
  8
_1-0_
  6
CONTINUOUS
 62
    9
 10
346.25907279908057
 20
-190.57159712284977
 11
346.25907279908057
 21
-185.51701870833006
  0
LINE
  8
_1-0_
  6
CONTINUOUS
 62
    7
 10
348.68407279908052
 20
-197.76078954885782
 11
348.68407279908052
 21
-197.06070278094546
  0
LINE
  8
_1-0_
  6
CONTINUOUS
 62
    7
 10
320.1840727990803
 20
-196.87320278094569
 11
347.18407279908052
 21
-197.99820278094569
  0
LINE
  8
_1-0_
  6
CONTINUOUS
 62
    7
 10
347.18407279908052
 20
-198.09828954885791
 11
347.18407279908052
 21
-197.99820278094569
  0
LINE
  8
_1-0_
  6
CONTINUOUS
 62
    7
 10
318.58407279908039
 20
-196.9066228821913
 11
318.58407279908039
 21
-195.31070278094569
  0
LINE
  8
_1-0_
  6
CONTINUOUS
 62
    7
 10
320.18407279908052
 20
-196.97328954885791
 11
320.18407279908052
 21
-196.87320278094569
  0
LINE
  8
_1-0_
  6
CONTINUOUS
 62
    7
 10
318.68407279908052
 20
-195.31070278094569
 11
318.58407279908039
 21
-195.31070278094569
  0
LINE
  8
_1-0_
  6
CONTINUOUS
 62
    7
 10
348.68407279908052
 20
-198.16078954885791
 11
347.18407279908075
 21
-198.09828954885791
  0
LINE
  8
_1-0_
  6
CONTINUOUS
 62
    7
 10
320.18407279908075
 20
-196.97328954885791
 11
318.58407279908039
 21
-196.9066228821913
  0
LINE
  8
_1-0_
  6
CONTINUOUS
 62
    7
 10
320.0528498905465
 20
-196.21717116832735
 11
345.95907279908039
 21
-197.29659712284968
  0
ARC
  8
_1-0_
  6
CONTINUOUS
 62
    7
 10
320.08407279908039
 20
-195.46782136350805
 40
0.75
 50
180
 51
267.6140559696114
  0
LINE
  8
_1-0_
  6
CONTINUOUS
 62
    7
 10
346.08407279908039
 20
-195.93570278094569
 11
348.68407279908052
 21
-197.06070278094569
  0
ARC
  8
_1-0_
  6
CONTINUOUS
 62
    7
 10
348.53407279908043
 20
-197.96078954885786
 40
0.25
 50
306.86989764584337
 51
53.13010235415657
  0
LINE
  8
_1-0_
  6
CONTINUOUS
 62
    7
 10
348.68407279908052
 20
-183.36061601303334
 11
348.68407279908052
 21
-184.06070278094546
  0
LINE
  8
_1-0_
  6
CONTINUOUS
 62
    7
 10
320.18407279908052
 20
-184.24820278094569
 11
347.18407279908052
 21
-183.12320278094546
  0
LINE
  8
_1-0_
  6
CONTINUOUS
 62
    7
 10
347.18407279908052
 20
-183.02311601303347
 11
347.18407279908052
 21
-183.12320278094546
  0
LINE
  8
_1-0_
  6
CONTINUOUS
 62
    7
 10
318.58407279908039
 20
-184.21478267970008
 11
318.58407279908039
 21
-185.81070278094546
  0
LINE
  8
_1-0_
  6
CONTINUOUS
 62
    7
 10
320.1840727990803
 20
-184.14811601303347
 11
320.1840727990803
 21
-184.24820278094546
  0
LINE
  8
_1-0_
  6
CONTINUOUS
 62
    7
 10
318.6840727990803
 20
-185.81070278094546
 11
318.58407279908039
 21
-185.81070278094546
  0
LINE
  8
_1-0_
  6
CONTINUOUS
 62
    7
 10
348.68407279908052
 20
-182.96061601303347
 11
347.18407279908075
 21
-183.02311601303347
  0
LINE
  8
_1-0_
  6
CONTINUOUS
 62
    7
 10
320.18407279908075
 20
-184.14811601303347
 11
318.58407279908039
 21
-184.21478267970008
  0
LINE
  8
_1-0_
  6
CONTINUOUS
 62
    7
 10
320.0528498905465
 20
-184.9042343935638
 11
345.95907279908039
 21
-183.82480843904148
  0
ARC
  8
_1-0_
  6
CONTINUOUS
 62
    7
 10
320.08407279908039
 20
-185.6535841983831
 40
0.75
 50
92.385944030388643
 51
180.00000000000006
  0
LINE
  8
_1-0_
  6
CONTINUOUS
 62
    7
 10
346.08407279908039
 20
-185.18570278094569
 11
348.68407279908052
 21
-184.06070278094546
  0
ARC
  8
_1-0_
  6
CONTINUOUS
 62
    7
 10
348.53407279908043
 20
-183.16061601303329
 40
0.25
 50
306.86989764584337
 51
53.130102354156669
  0
LINE
  8
_1-0_
  6
CONTINUOUS
 62
    7
 10
345.95907279908039
 20
-197.29659712284968
 11
346.08407279908039
 21
-195.93570278094546
  0
LINE
  8
_1-0_
  6
CONTINUOUS
 62
    7
 10
346.08407279908039
 20
-185.18570278094546
 11
345.95907279908039
 21
-183.82480843904148
  0
LINE
  8
_1-0_
  6
CONTINUOUS
 62
    7
 10
321.18407279908052
 20
-193.64082979986563
 11
321.18407279908052
 21
-187.48057576202734
  0
LINE
  8
_1-0_
  6
CONTINUOUS
 62
    7
 10
321.83407279908039
 20
-194.13959234205151
 11
321.83407279908039
 21
-186.98181321984191
  0
LINE
  8
_1-0_
  6
CONTINUOUS
 62
    7
 10
321.18407279908052
 20
-193.64082979986563
 11
318.6840727990803
 21
-194.31070278094569
  0
LINE
  8
_1-0_
  6
CONTINUOUS
 62
    7
 10
319.33407279908039
 20
-194.80946532313158
 11
321.83407279908062
 21
-194.13959234205151
  0
LINE
  8
_1-0_
  6
CONTINUOUS
 62
    7
 10
321.18407279908052
 20
-187.48057576202757
 11
318.68407279908052
 21
-186.81070278094569
  0
LINE
  8
_1-0_
  6
CONTINUOUS
 62
    7
 10
319.33407279908039
 20
-186.31194023876003
 11
321.83407279908039
 21
-186.98181321984191
  0
LINE
  8
_1-0_
  6
CONTINUOUS
 62
    7
 10
318.68407279908052
 20
-195.31070278094546
 11
318.68407279908052
 21
-194.31070278094546
  0
LINE
  8
_1-0_
  6
CONTINUOUS
 62
    7
 10
318.68407279908052
 20
-186.81070278094569
 11
318.68407279908052
 21
-185.81070278094569
  0
LINE
  8
_1-0_
  6
CONTINUOUS
 62
    7
 10
319.33407279908039
 20
-195.46782136350805
 11
319.33407279908039
 21
-194.80946532313158
  0
LINE
  8
_1-0_
  6
CONTINUOUS
 62
    7
 10
319.33407279908039
 20
-186.31194023876003
 11
319.33407279908039
 21
-185.6535841983831
  0
POINT
  8
_1-0_
 62
    4
 10
310.92275982517407
 20
-221.72728267941238
  0
LINE
  8
_1-0_
  6
CONTINUOUS
 62
    4
 10
310.92275982517407
 20
-221.72728267941238
 11
316.08939261989707
 21
-221.72728267941238
  0
POINT
  8
_1-0_
 62
    4
 10
310.92275982517407
 20
-234.40662288218073
  0
LINE
  8
_1-0_
  6
CONTINUOUS
 62
    4
 10
310.92275982517407
 20
-234.40662288218073
 11
316.08939261989707
 21
-234.40662288218073
  0
LINE
  8
_1-0_
  6
CONTINUOUS
 62
    4
 10
310.92275982517407
 20
-234.40662288218073
 11
310.92275982517407
 21
-221.72728267941238
  0
TEXT
  8
_1-0_
 62
    2
 10
310.42275982517407
 20
-230.19195278079656
 40
4
 41
1
 50
90
  1
25
  0
LINE
  8
_1-0_
  6
CONTINUOUS
 62
    9
 10
341.05909855128203
 20
-233.55945242312964
 11
341.05909855128203
 21
-228.07159712283919
  0
LINE
  8
_1-0_
  6
CONTINUOUS
 62
    9
 10
345.9590985512819
 20
-233.39659712283901
 11
345.9590985512819
 21
-234.5465971228391
  0
ARC
  8
_1-0_
  6
CONTINUOUS
 62
    9
 10
345.7090985512819
 20
-234.5465971228391
 40
0.25
 50
254.9999999999107
 51
0
  0
LINE
  8
_1-0_
  6
CONTINUOUS
 62
    9
 10
341.05909855128203
 20
-233.55945242312964
 11
345.64439379000606
 21
-234.78807857941138
  0
ARC
  8
_1-0_
  6
CONTINUOUS
 62
    9
 10
346.2090985512819
 20
-233.39659712283901
 40
0.25
 50
74.99999999995498
 51
180
  0
LINE
  8
_1-0_
  6
CONTINUOUS
 62
    9
 10
346.2738033125575
 20
-233.15511566626742
 11
348.80909855128181
 21
-233.8344459780601
  0
LINE
  8
_1-0_
  6
CONTINUOUS
 62
    9
 10
346.90909855128194
 20
-228.07159712283919
 11
346.90909855128194
 21
-233.32534251243942
  0
LINE
  8
_1-0_
  6
CONTINUOUS
 62
    9
 10
346.25909855128208
 20
-228.07159712283919
 11
346.25909855128208
 21
-233.15117553735854
  0
LINE
  8
_1-0_
  6
CONTINUOUS
 62
    9
 10
341.05909855128203
 20
-222.60874182254861
 11
341.05909855128203
 21
-228.07159712283919
  0
LINE
  8
_1-0_
  6
CONTINUOUS
 62
    9
 10
345.9590985512819
 20
-222.77159712283901
 11
345.9590985512819
 21
-221.62159712283915
  0
ARC
  8
_1-0_
  6
CONTINUOUS
 62
    9
 10
345.7090985512819
 20
-221.62159712283915
 40
0.25
 50
0
 51
105.00000000008929
  0
LINE
  8
_1-0_
  6
CONTINUOUS
 62
    9
 10
341.05909855128203
 20
-222.60874182254884
 11
345.64439379000606
 21
-221.3801156662671
  0
ARC
  8
_1-0_
  6
CONTINUOUS
 62
    9
 10
346.2090985512819
 20
-222.77159712283901
 40
0.25
 50
180
 51
285.00000000004496
  0
LINE
  8
_1-0_
  6
CONTINUOUS
 62
    9
 10
346.27380331255773
 20
-223.01307857941083
 11
348.80909855128203
 21
-222.33374826761815
  0
LINE
  8
_1-0_
  6
CONTINUOUS
 62
    9
 10
346.90909855128194
 20
-228.07159712283919
 11
346.90909855128194
 21
-222.84285173323883
  0
LINE
  8
_1-0_
  6
CONTINUOUS
 62
    9
 10
346.25909855128208
 20
-228.07159712283919
 11
346.25909855128208
 21
-223.01701870831948
  0
LINE
  8
_1-0_
  6
CONTINUOUS
 62
    7
 10
348.68409855128203
 20
-235.26078954884724
 11
348.68409855128203
 21
-234.56070278093489
  0
LINE
  8
_1-0_
  6
CONTINUOUS
 62
    7
 10
320.18409855128181
 20
-234.37320278093512
 11
347.18409855128203
 21
-235.49820278093512
  0
LINE
  8
_1-0_
  6
CONTINUOUS
 62
    7
 10
347.18409855128203
 20
-235.59828954884733
 11
347.18409855128203
 21
-235.49820278093512
  0
LINE
  8
_1-0_
  6
CONTINUOUS
 62
    7
 10
318.5840985512819
 20
-234.40662288218073
 11
318.5840985512819
 21
-232.81070278093512
  0
LINE
  8
_1-0_
  6
CONTINUOUS
 62
    7
 10
320.18409855128203
 20
-234.47328954884733
 11
320.18409855128203
 21
-234.37320278093512
  0
LINE
  8
_1-0_
  6
CONTINUOUS
 62
    7
 10
318.68409855128203
 20
-232.81070278093512
 11
318.5840985512819
 21
-232.81070278093512
  0
LINE
  8
_1-0_
  6
CONTINUOUS
 62
    7
 10
348.68409855128203
 20
-235.66078954884733
 11
347.18409855128226
 21
-235.59828954884733
  0
LINE
  8
_1-0_
  6
CONTINUOUS
 62
    7
 10
320.18409855128226
 20
-234.47328954884733
 11
318.5840985512819
 21
-234.40662288218073
  0
LINE
  8
_1-0_
  6
CONTINUOUS
 62
    7
 10
320.05287564274801
 20
-233.71717116831678
 11
345.9590985512819
 21
-234.7965971228391
  0
ARC
  8
_1-0_
  6
CONTINUOUS
 62
    7
 10
320.0840985512819
 20
-232.96782136349748
 40
0.75
 50
180
 51
267.6140559696114
  0
LINE
  8
_1-0_
  6
CONTINUOUS
 62
    7
 10
346.0840985512819
 20
-233.43570278093512
 11
348.68409855128203
 21
-234.56070278093512
  0
ARC
  8
_1-0_
  6
CONTINUOUS
 62
    7
 10
348.53409855128194
 20
-235.46078954884729
 40
0.25
 50
306.86989764584337
 51
53.13010235415657
  0
LINE
  8
_1-0_
  6
CONTINUOUS
 62
    7
 10
348.68409855128203
 20
-220.86061601302276
 11
348.68409855128203
 21
-221.56070278093489
  0
LINE
  8
_1-0_
  6
CONTINUOUS
 62
    7
 10
320.18409855128203
 20
-221.74820278093512
 11
347.18409855128203
 21
-220.62320278093489
  0
LINE
  8
_1-0_
  6
CONTINUOUS
 62
    7
 10
347.18409855128203
 20
-220.5231160130229
 11
347.18409855128203
 21
-220.62320278093489
  0
LINE
  8
_1-0_
  6
CONTINUOUS
 62
    7
 10
318.5840985512819
 20
-221.71478267968951
 11
318.5840985512819
 21
-223.31070278093489
  0
LINE
  8
_1-0_
  6
CONTINUOUS
 62
    7
 10
320.18409855128181
 20
-221.6481160130229
 11
320.18409855128181
 21
-221.74820278093489
  0
LINE
  8
_1-0_
  6
CONTINUOUS
 62
    7
 10
318.68409855128181
 20
-223.31070278093489
 11
318.5840985512819
 21
-223.31070278093489
  0
LINE
  8
_1-0_
  6
CONTINUOUS
 62
    7
 10
348.68409855128203
 20
-220.4606160130229
 11
347.18409855128226
 21
-220.5231160130229
  0
LINE
  8
_1-0_
  6
CONTINUOUS
 62
    7
 10
320.18409855128226
 20
-221.6481160130229
 11
318.5840985512819
 21
-221.71478267968951
  0
LINE
  8
_1-0_
  6
CONTINUOUS
 62
    7
 10
320.05287564274801
 20
-222.40423439355322
 11
345.9590985512819
 21
-221.3248084390309
  0
ARC
  8
_1-0_
  6
CONTINUOUS
 62
    7
 10
320.0840985512819
 20
-223.15358419837253
 40
0.75
 50
92.385944030388643
 51
180.00000000000006
  0
LINE
  8
_1-0_
  6
CONTINUOUS
 62
    7
 10
346.0840985512819
 20
-222.68570278093512
 11
348.68409855128203
 21
-221.56070278093489
  0
ARC
  8
_1-0_
  6
CONTINUOUS
 62
    7
 10
348.53409855128194
 20
-220.66061601302272
 40
0.25
 50
306.86989764584337
 51
53.130102354156669
  0
LINE
  8
_1-0_
  6
CONTINUOUS
 62
    7
 10
345.9590985512819
 20
-234.7965971228391
 11
346.0840985512819
 21
-233.43570278093489
  0
LINE
  8
_1-0_
  6
CONTINUOUS
 62
    7
 10
346.0840985512819
 20
-222.68570278093489
 11
345.9590985512819
 21
-221.3248084390309
  0
LINE
  8
_1-0_
  6
CONTINUOUS
 62
    7
 10
321.18409855128203
 20
-231.14082979985506
 11
321.18409855128203
 21
-224.98057576201677
  0
LINE
  8
_1-0_
  6
CONTINUOUS
 62
    7
 10
321.8340985512819
 20
-231.63959234204094
 11
321.8340985512819
 21
-224.48181321983134
  0
LINE
  8
_1-0_
  6
CONTINUOUS
 62
    7
 10
321.18409855128203
 20
-231.14082979985506
 11
318.68409855128181
 21
-231.81070278093512
  0
LINE
  8
_1-0_
  6
CONTINUOUS
 62
    7
 10
319.3340985512819
 20
-232.309465323121
 11
321.83409855128212
 21
-231.63959234204094
  0
LINE
  8
_1-0_
  6
CONTINUOUS
 62
    7
 10
321.18409855128203
 20
-224.980575762017
 11
318.68409855128203
 21
-224.31070278093512
  0
LINE
  8
_1-0_
  6
CONTINUOUS
 62
    7
 10
319.3340985512819
 20
-223.81194023874946
 11
321.8340985512819
 21
-224.48181321983134
  0
LINE
  8
_1-0_
  6
CONTINUOUS
 62
    7
 10
318.68409855128203
 20
-232.81070278093489
 11
318.68409855128203
 21
-231.81070278093489
  0
LINE
  8
_1-0_
  6
CONTINUOUS
 62
    7
 10
318.68409855128203
 20
-224.31070278093512
 11
318.68409855128203
 21
-223.31070278093512
  0
LINE
  8
_1-0_
  6
CONTINUOUS
 62
    7
 10
319.3340985512819
 20
-232.96782136349748
 11
319.3340985512819
 21
-232.309465323121
  0
LINE
  8
_1-0_
  6
CONTINUOUS
 62
    7
 10
319.3340985512819
 20
-223.81194023874946
 11
319.3340985512819
 21
-223.15358419837253
  0
POINT
  8
_1-0_
 62
    4
 10
310.92278557737558
 20
-259.22728267940192
  0
LINE
  8
_1-0_
  6
CONTINUOUS
 62
    4
 10
310.92278557737558
 20
-259.22728267940192
 11
316.08941837209858
 21
-259.22728267940192
  0
POINT
  8
_1-0_
 62
    4
 10
310.92278557737558
 20
-271.90662288217027
  0
LINE
  8
_1-0_
  6
CONTINUOUS
 62
    4
 10
310.92278557737558
 20
-271.90662288217027
 11
316.08941837209858
 21
-271.90662288217027
  0
LINE
  8
_1-0_
  6
CONTINUOUS
 62
    4
 10
310.92278557737558
 20
-271.90662288217027
 11
310.92278557737558
 21
-259.22728267940192
  0
TEXT
  8
_1-0_
 62
    2
 10
310.42278557737558
 20
-267.6919527807861
 40
4
 41
1
 50
90
  1
25
  0
LINE
  8
_1-0_
  6
CONTINUOUS
 62
    9
 10
341.05912430348354
 20
-271.05945242311918
 11
341.05912430348354
 21
-265.57159712282873
  0
LINE
  8
_1-0_
  6
CONTINUOUS
 62
    9
 10
345.95912430348341
 20
-270.89659712282855
 11
345.95912430348341
 21
-272.04659712282864
  0
ARC
  8
_1-0_
  6
CONTINUOUS
 62
    9
 10
345.70912430348341
 20
-272.04659712282864
 40
0.25
 50
254.9999999999107
 51
0
  0
LINE
  8
_1-0_
  6
CONTINUOUS
 62
    9
 10
341.05912430348354
 20
-271.05945242311918
 11
345.64441954220757
 21
-272.28807857940092
  0
ARC
  8
_1-0_
  6
CONTINUOUS
 62
    9
 10
346.20912430348341
 20
-270.89659712282855
 40
0.25
 50
74.99999999995498
 51
180
  0
LINE
  8
_1-0_
  6
CONTINUOUS
 62
    9
 10
346.27382906475901
 20
-270.65511566625696
 11
348.80912430348332
 21
-271.33444597804964
  0
LINE
  8
_1-0_
  6
CONTINUOUS
 62
    9
 10
346.90912430348345
 20
-265.57159712282873
 11
346.90912430348345
 21
-270.82534251242896
  0
LINE
  8
_1-0_
  6
CONTINUOUS
 62
    9
 10
346.25912430348359
 20
-265.57159712282873
 11
346.25912430348359
 21
-270.65117553734808
  0
LINE
  8
_1-0_
  6
CONTINUOUS
 62
    9
 10
341.05912430348354
 20
-260.10874182253815
 11
341.05912430348354
 21
-265.57159712282873
  0
LINE
  8
_1-0_
  6
CONTINUOUS
 62
    9
 10
345.95912430348341
 20
-260.27159712282855
 11
345.95912430348341
 21
-259.12159712282869
  0
ARC
  8
_1-0_
  6
CONTINUOUS
 62
    9
 10
345.70912430348341
 20
-259.12159712282869
 40
0.25
 50
0
 51
105.00000000008929
  0
LINE
  8
_1-0_
  6
CONTINUOUS
 62
    9
 10
341.05912430348354
 20
-260.10874182253838
 11
345.64441954220757
 21
-258.88011566625664
  0
ARC
  8
_1-0_
  6
CONTINUOUS
 62
    9
 10
346.20912430348341
 20
-260.27159712282855
 40
0.25
 50
180
 51
285.00000000004496
  0
LINE
  8
_1-0_
  6
CONTINUOUS
 62
    9
 10
346.27382906475924
 20
-260.51307857940037
 11
348.80912430348354
 21
-259.83374826760769
  0
LINE
  8
_1-0_
  6
CONTINUOUS
 62
    9
 10
346.90912430348345
 20
-265.57159712282873
 11
346.90912430348345
 21
-260.34285173322837
  0
LINE
  8
_1-0_
  6
CONTINUOUS
 62
    9
 10
346.25912430348359
 20
-265.57159712282873
 11
346.25912430348359
 21
-260.51701870830902
  0
LINE
  8
_1-0_
  6
CONTINUOUS
 62
    7
 10
348.68412430348354
 20
-272.76078954883678
 11
348.68412430348354
 21
-272.06070278092443
  0
LINE
  8
_1-0_
  6
CONTINUOUS
 62
    7
 10
320.18412430348332
 20
-271.87320278092466
 11
347.18412430348354
 21
-272.99820278092466
  0
LINE
  8
_1-0_
  6
CONTINUOUS
 62
    7
 10
347.18412430348354
 20
-273.09828954883687
 11
347.18412430348354
 21
-272.99820278092466
  0
LINE
  8
_1-0_
  6
CONTINUOUS
 62
    7
 10
318.58412430348341
 20
-271.90662288217027
 11
318.58412430348341
 21
-270.31070278092466
  0
LINE
  8
_1-0_
  6
CONTINUOUS
 62
    7
 10
320.18412430348354
 20
-271.97328954883687
 11
320.18412430348354
 21
-271.87320278092466
  0
LINE
  8
_1-0_
  6
CONTINUOUS
 62
    7
 10
318.68412430348354
 20
-270.31070278092466
 11
318.58412430348341
 21
-270.31070278092466
  0
LINE
  8
_1-0_
  6
CONTINUOUS
 62
    7
 10
348.68412430348354
 20
-273.16078954883687
 11
347.18412430348377
 21
-273.09828954883687
  0
LINE
  8
_1-0_
  6
CONTINUOUS
 62
    7
 10
320.18412430348377
 20
-271.97328954883687
 11
318.58412430348341
 21
-271.90662288217027
  0
LINE
  8
_1-0_
  6
CONTINUOUS
 62
    7
 10
320.05290139494952
 20
-271.21717116830632
 11
345.95912430348341
 21
-272.29659712282864
  0
ARC
  8
_1-0_
  6
CONTINUOUS
 62
    7
 10
320.08412430348341
 20
-270.46782136348702
 40
0.75
 50
180
 51
267.6140559696114
  0
LINE
  8
_1-0_
  6
CONTINUOUS
 62
    7
 10
346.08412430348341
 20
-270.93570278092466
 11
348.68412430348354
 21
-272.06070278092466
  0
ARC
  8
_1-0_
  6
CONTINUOUS
 62
    7
 10
348.53412430348345
 20
-272.96078954883683
 40
0.25
 50
306.86989764584337
 51
53.13010235415657
  0
LINE
  8
_1-0_
  6
CONTINUOUS
 62
    7
 10
348.68412430348354
 20
-258.3606160130123
 11
348.68412430348354
 21
-259.06070278092443
  0
LINE
  8
_1-0_
  6
CONTINUOUS
 62
    7
 10
320.18412430348354
 20
-259.24820278092466
 11
347.18412430348354
 21
-258.12320278092443
  0
LINE
  8
_1-0_
  6
CONTINUOUS
 62
    7
 10
347.18412430348354
 20
-258.02311601301244
 11
347.18412430348354
 21
-258.12320278092443
  0
LINE
  8
_1-0_
  6
CONTINUOUS
 62
    7
 10
318.58412430348341
 20
-259.21478267967905
 11
318.58412430348341
 21
-260.81070278092443
  0
LINE
  8
_1-0_
  6
CONTINUOUS
 62
    7
 10
320.18412430348332
 20
-259.14811601301244
 11
320.18412430348332
 21
-259.24820278092443
  0
LINE
  8
_1-0_
  6
CONTINUOUS
 62
    7
 10
318.68412430348332
 20
-260.81070278092443
 11
318.58412430348341
 21
-260.81070278092443
  0
LINE
  8
_1-0_
  6
CONTINUOUS
 62
    7
 10
348.68412430348354
 20
-257.96061601301244
 11
347.18412430348377
 21
-258.02311601301244
  0
LINE
  8
_1-0_
  6
CONTINUOUS
 62
    7
 10
320.18412430348377
 20
-259.14811601301244
 11
318.58412430348341
 21
-259.21478267967905
  0
LINE
  8
_1-0_
  6
CONTINUOUS
 62
    7
 10
320.05290139494952
 20
-259.90423439354277
 11
345.95912430348341
 21
-258.82480843902044
  0
ARC
  8
_1-0_
  6
CONTINUOUS
 62
    7
 10
320.08412430348341
 20
-260.65358419836207
 40
0.75
 50
92.385944030388643
 51
180.00000000000006
  0
LINE
  8
_1-0_
  6
CONTINUOUS
 62
    7
 10
346.08412430348341
 20
-260.18570278092466
 11
348.68412430348354
 21
-259.06070278092443
  0
ARC
  8
_1-0_
  6
CONTINUOUS
 62
    7
 10
348.53412430348345
 20
-258.16061601301226
 40
0.25
 50
306.86989764584337
 51
53.130102354156669
  0
LINE
  8
_1-0_
  6
CONTINUOUS
 62
    7
 10
345.95912430348341
 20
-272.29659712282864
 11
346.08412430348341
 21
-270.93570278092443
  0
LINE
  8
_1-0_
  6
CONTINUOUS
 62
    7
 10
346.08412430348341
 20
-260.18570278092443
 11
345.95912430348341
 21
-258.82480843902044
  0
LINE
  8
_1-0_
  6
CONTINUOUS
 62
    7
 10
321.18412430348354
 20
-268.6408297998446
 11
321.18412430348354
 21
-262.48057576200631
  0
LINE
  8
_1-0_
  6
CONTINUOUS
 62
    7
 10
321.83412430348341
 20
-269.13959234203048
 11
321.83412430348341
 21
-261.98181321982088
  0
LINE
  8
_1-0_
  6
CONTINUOUS
 62
    7
 10
321.18412430348354
 20
-268.6408297998446
 11
318.68412430348332
 21
-269.31070278092466
  0
LINE
  8
_1-0_
  6
CONTINUOUS
 62
    7
 10
319.33412430348341
 20
-269.80946532311054
 11
321.83412430348363
 21
-269.13959234203048
  0
LINE
  8
_1-0_
  6
CONTINUOUS
 62
    7
 10
321.18412430348354
 20
-262.48057576200654
 11
318.68412430348354
 21
-261.81070278092466
  0
LINE
  8
_1-0_
  6
CONTINUOUS
 62
    7
 10
319.33412430348341
 20
-261.311940238739
 11
321.83412430348341
 21
-261.98181321982088
  0
LINE
  8
_1-0_
  6
CONTINUOUS
 62
    7
 10
318.68412430348354
 20
-270.31070278092443
 11
318.68412430348354
 21
-269.31070278092443
  0
LINE
  8
_1-0_
  6
CONTINUOUS
 62
    7
 10
318.68412430348354
 20
-261.81070278092466
 11
318.68412430348354
 21
-260.81070278092466
  0
LINE
  8
_1-0_
  6
CONTINUOUS
 62
    7
 10
319.33412430348341
 20
-270.46782136348702
 11
319.33412430348341
 21
-269.80946532311054
  0
LINE
  8
_1-0_
  6
CONTINUOUS
 62
    7
 10
319.33412430348341
 20
-261.311940238739
 11
319.33412430348341
 21
-260.65358419836207
  0
POINT
  8
_1-0_
 62
    4
 10
310.92279001204889
 20
-294.99013153436533
  0
LINE
  8
_1-0_
  6
CONTINUOUS
 62
    4
 10
310.92279001204889
 20
-294.99013153436533
 11
316.08942280677189
 21
-294.99013153436533
  0
POINT
  8
_1-0_
 62
    4
 10
310.92279001204889
 20
-307.66947173713368
  0
LINE
  8
_1-0_
  6
CONTINUOUS
 62
    4
 10
310.92279001204889
 20
-307.66947173713368
 11
316.08942280677189
 21
-307.66947173713368
  0
LINE
  8
_1-0_
  6
CONTINUOUS
 62
    4
 10
310.92279001204889
 20
-307.66947173713368
 11
310.92279001204889
 21
-294.99013153436533
  0
TEXT
  8
_1-0_
 62
    2
 10
310.42279001204889
 20
-303.4548016357495
 40
4
 41
1
 50
90
  1
25
  0
LINE
  8
_1-0_
  6
CONTINUOUS
 62
    9
 10
341.05912873815686
 20
-306.82230127808259
 11
341.05912873815686
 21
-301.33444597779214
  0
LINE
  8
_1-0_
  6
CONTINUOUS
 62
    9
 10
345.95912873815672
 20
-306.65944597779196
 11
345.95912873815672
 21
-307.80944597779205
  0
ARC
  8
_1-0_
  6
CONTINUOUS
 62
    9
 10
345.70912873815672
 20
-307.80944597779205
 40
0.25
 50
254.9999999999107
 51
0
  0
LINE
  8
_1-0_
  6
CONTINUOUS
 62
    9
 10
341.05912873815686
 20
-306.82230127808259
 11
345.64442397688089
 21
-308.05092743436433
  0
ARC
  8
_1-0_
  6
CONTINUOUS
 62
    9
 10
346.20912873815672
 20
-306.65944597779196
 40
0.25
 50
74.99999999995498
 51
180
  0
LINE
  8
_1-0_
  6
CONTINUOUS
 62
    9
 10
346.27383349943233
 20
-306.41796452122037
 11
348.80912873815663
 21
-307.09729483301305
  0
LINE
  8
_1-0_
  6
CONTINUOUS
 62
    9
 10
346.90912873815677
 20
-301.33444597779214
 11
346.90912873815677
 21
-306.58819136739237
  0
LINE
  8
_1-0_
  6
CONTINUOUS
 62
    9
 10
346.2591287381569
 20
-301.33444597779214
 11
346.2591287381569
 21
-306.41402439231149
  0
LINE
  8
_1-0_
  6
CONTINUOUS
 62
    9
 10
341.05912873815686
 20
-295.87159067750156
 11
341.05912873815686
 21
-301.33444597779214
  0
LINE
  8
_1-0_
  6
CONTINUOUS
 62
    9
 10
345.95912873815672
 20
-296.03444597779196
 11
345.95912873815672
 21
-294.8844459777921
  0
ARC
  8
_1-0_
  6
CONTINUOUS
 62
    9
 10
345.70912873815672
 20
-294.8844459777921
 40
0.25
 50
0
 51
105.00000000008929
  0
LINE
  8
_1-0_
  6
CONTINUOUS
 62
    9
 10
341.05912873815686
 20
-295.87159067750179
 11
345.64442397688089
 21
-294.64296452122005
  0
ARC
  8
_1-0_
  6
CONTINUOUS
 62
    9
 10
346.20912873815672
 20
-296.03444597779196
 40
0.25
 50
180
 51
285.00000000004496
  0
LINE
  8
_1-0_
  6
CONTINUOUS
 62
    9
 10
346.27383349943256
 20
-296.27592743436378
 11
348.80912873815686
 21
-295.5965971225711
  0
LINE
  8
_1-0_
  6
CONTINUOUS
 62
    9
 10
346.90912873815677
 20
-301.33444597779214
 11
346.90912873815677
 21
-296.10570058819178
  0
LINE
  8
_1-0_
  6
CONTINUOUS
 62
    9
 10
346.2591287381569
 20
-301.33444597779214
 11
346.2591287381569
 21
-296.27986756327243
  0
LINE
  8
_1-0_
  6
CONTINUOUS
 62
    7
 10
348.68412873815686
 20
-308.52363840380019
 11
348.68412873815686
 21
-307.82355163588784
  0
LINE
  8
_1-0_
  6
CONTINUOUS
 62
    7
 10
320.18412873815663
 20
-307.63605163588807
 11
347.18412873815686
 21
-308.76105163588807
  0
LINE
  8
_1-0_
  6
CONTINUOUS
 62
    7
 10
347.18412873815686
 20
-308.86113840380028
 11
347.18412873815686
 21
-308.76105163588807
  0
LINE
  8
_1-0_
  6
CONTINUOUS
 62
    7
 10
318.58412873815672
 20
-307.66947173713368
 11
318.58412873815672
 21
-306.07355163588807
  0
LINE
  8
_1-0_
  6
CONTINUOUS
 62
    7
 10
320.18412873815686
 20
-307.73613840380028
 11
320.18412873815686
 21
-307.63605163588807
  0
LINE
  8
_1-0_
  6
CONTINUOUS
 62
    7
 10
318.68412873815686
 20
-306.07355163588807
 11
318.58412873815672
 21
-306.07355163588807
  0
LINE
  8
_1-0_
  6
CONTINUOUS
 62
    7
 10
348.68412873815686
 20
-308.92363840380028
 11
347.18412873815709
 21
-308.86113840380028
  0
LINE
  8
_1-0_
  6
CONTINUOUS
 62
    7
 10
320.18412873815709
 20
-307.73613840380028
 11
318.58412873815672
 21
-307.66947173713368
  0
LINE
  8
_1-0_
  6
CONTINUOUS
 62
    7
 10
320.05290582962283
 20
-306.98002002326973
 11
345.95912873815672
 21
-308.05944597779205
  0
ARC
  8
_1-0_
  6
CONTINUOUS
 62
    7
 10
320.08412873815672
 20
-306.23067021845043
 40
0.75
 50
180
 51
267.6140559696114
  0
LINE
  8
_1-0_
  6
CONTINUOUS
 62
    7
 10
346.08412873815672
 20
-306.69855163588807
 11
348.68412873815686
 21
-307.82355163588807
  0
ARC
  8
_1-0_
  6
CONTINUOUS
 62
    7
 10
348.53412873815677
 20
-308.72363840380024
 40
0.25
 50
306.86989764584337
 51
53.13010235415657
  0
LINE
  8
_1-0_
  6
CONTINUOUS
 62
    7
 10
348.68412873815686
 20
-294.12346486797571
 11
348.68412873815686
 21
-294.82355163588784
  0
LINE
  8
_1-0_
  6
CONTINUOUS
 62
    7
 10
320.18412873815686
 20
-295.01105163588807
 11
347.18412873815686
 21
-293.88605163588784
  0
LINE
  8
_1-0_
  6
CONTINUOUS
 62
    7
 10
347.18412873815686
 20
-293.78596486797585
 11
347.18412873815686
 21
-293.88605163588784
  0
LINE
  8
_1-0_
  6
CONTINUOUS
 62
    7
 10
318.58412873815672
 20
-294.97763153464246
 11
318.58412873815672
 21
-296.57355163588784
  0
LINE
  8
_1-0_
  6
CONTINUOUS
 62
    7
 10
320.18412873815663
 20
-294.91096486797585
 11
320.18412873815663
 21
-295.01105163588784
  0
LINE
  8
_1-0_
  6
CONTINUOUS
 62
    7
 10
318.68412873815663
 20
-296.57355163588784
 11
318.58412873815672
 21
-296.57355163588784
  0
LINE
  8
_1-0_
  6
CONTINUOUS
 62
    7
 10
348.68412873815686
 20
-293.72346486797585
 11
347.18412873815709
 21
-293.78596486797585
  0
LINE
  8
_1-0_
  6
CONTINUOUS
 62
    7
 10
320.18412873815709
 20
-294.91096486797585
 11
318.58412873815672
 21
-294.97763153464246
  0
LINE
  8
_1-0_
  6
CONTINUOUS
 62
    7
 10
320.05290582962283
 20
-295.66708324850617
 11
345.95912873815672
 21
-294.58765729398385
  0
ARC
  8
_1-0_
  6
CONTINUOUS
 62
    7
 10
320.08412873815672
 20
-296.41643305332548
 40
0.75
 50
92.385944030388643
 51
180.00000000000006
  0
LINE
  8
_1-0_
  6
CONTINUOUS
 62
    7
 10
346.08412873815672
 20
-295.94855163588807
 11
348.68412873815686
 21
-294.82355163588784
  0
ARC
  8
_1-0_
  6
CONTINUOUS
 62
    7
 10
348.53412873815677
 20
-293.92346486797567
 40
0.25
 50
306.86989764584337
 51
53.130102354156669
  0
LINE
  8
_1-0_
  6
CONTINUOUS
 62
    7
 10
345.95912873815672
 20
-308.05944597779205
 11
346.08412873815672
 21
-306.69855163588784
  0
LINE
  8
_1-0_
  6
CONTINUOUS
 62
    7
 10
346.08412873815672
 20
-295.94855163588784
 11
345.95912873815672
 21
-294.58765729398385
  0
LINE
  8
_1-0_
  6
CONTINUOUS
 62
    7
 10
321.18412873815686
 20
-304.403678654808
 11
321.18412873815686
 21
-298.24342461696972
  0
LINE
  8
_1-0_
  6
CONTINUOUS
 62
    7
 10
321.83412873815672
 20
-304.90244119699389
 11
321.83412873815672
 21
-297.74466207478429
  0
LINE
  8
_1-0_
  6
CONTINUOUS
 62
    7
 10
321.18412873815686
 20
-304.403678654808
 11
318.68412873815663
 21
-305.07355163588807
  0
LINE
  8
_1-0_
  6
CONTINUOUS
 62
    7
 10
319.33412873815672
 20
-305.57231417807395
 11
321.83412873815695
 21
-304.90244119699389
  0
LINE
  8
_1-0_
  6
CONTINUOUS
 62
    7
 10
321.18412873815686
 20
-298.24342461696995
 11
318.68412873815686
 21
-297.57355163588807
  0
LINE
  8
_1-0_
  6
CONTINUOUS
 62
    7
 10
319.33412873815672
 20
-297.07478909370241
 11
321.83412873815672
 21
-297.74466207478429
  0
LINE
  8
_1-0_
  6
CONTINUOUS
 62
    7
 10
318.68412873815686
 20
-306.07355163588784
 11
318.68412873815686
 21
-305.07355163588784
  0
LINE
  8
_1-0_
  6
CONTINUOUS
 62
    7
 10
318.68412873815686
 20
-297.57355163588807
 11
318.68412873815686
 21
-296.57355163588807
  0
LINE
  8
_1-0_
  6
CONTINUOUS
 62
    7
 10
319.33412873815672
 20
-306.23067021845043
 11
319.33412873815672
 21
-305.57231417807395
  0
LINE
  8
_1-0_
  6
CONTINUOUS
 62
    7
 10
319.33412873815672
 20
-297.07478909370241
 11
319.33412873815672
 21
-296.41643305332548
  0
LINE
  8
_1-0_
  6
CONTINUOUS
 62
    9
 10
366.07122913862457
 20
-160.09658548301536
 11
371.55908443891502
 21
-160.09658548301536
  0
LINE
  8
_1-0_
  6
CONTINUOUS
 62
    9
 10
366.2340844389152
 20
-164.99658548301522
 11
365.08408443891511
 21
-164.99658548301522
  0
ARC
  8
_1-0_
  6
CONTINUOUS
 62
    9
 10
365.08408443891511
 20
-164.74658548301522
 40
0.25
 50
164.9999999999107
 51
270
  0
LINE
  8
_1-0_
  6
CONTINUOUS
 62
    9
 10
366.07122913862457
 20
-160.09658548301536
 11
364.84260298234284
 21
-164.68188072173939
  0
ARC
  8
_1-0_
  6
CONTINUOUS
 62
    9
 10
366.2340844389152
 20
-165.24658548301522
 40
0.25
 50
344.99999999995498
 51
89.999999999999986
  0
LINE
  8
_1-0_
  6
CONTINUOUS
 62
    9
 10
366.4755658954868
 20
-165.31129024429083
 11
365.79623558369411
 21
-167.84658548301513
  0
LINE
  8
_1-0_
  6
CONTINUOUS
 62
    9
 10
371.55908443891502
 20
-165.94658548301527
 11
366.3053390493148
 21
-165.94658548301527
  0
LINE
  8
_1-0_
  6
CONTINUOUS
 62
    9
 10
371.55908443891502
 20
-165.29658548301541
 11
366.47950602439568
 21
-165.29658548301541
  0
LINE
  8
_1-0_
  6
CONTINUOUS
 62
    9
 10
377.02193973920561
 20
-160.09658548301536
 11
371.55908443891502
 21
-160.09658548301536
  0
LINE
  8
_1-0_
  6
CONTINUOUS
 62
    9
 10
376.8590844389152
 20
-164.99658548301522
 11
378.00908443891507
 21
-164.99658548301522
  0
ARC
  8
_1-0_
  6
CONTINUOUS
 62
    9
 10
378.00908443891507
 20
-164.74658548301522
 40
0.25
 50
270
 51
15.000000000089292
  0
LINE
  8
_1-0_
  6
CONTINUOUS
 62
    9
 10
377.02193973920538
 20
-160.09658548301536
 11
378.25056589548711
 21
-164.68188072173939
  0
ARC
  8
_1-0_
  6
CONTINUOUS
 62
    9
 10
376.8590844389152
 20
-165.24658548301522
 40
0.25
 50
90
 51
195.00000000004499
  0
LINE
  8
_1-0_
  6
CONTINUOUS
 62
    9
 10
376.61760298234339
 20
-165.31129024429106
 11
377.29693329413607
 21
-167.84658548301536
  0
LINE
  8
_1-0_
  6
CONTINUOUS
 62
    9
 10
371.55908443891502
 20
-165.94658548301527
 11
376.78782982851538
 21
-165.94658548301527
  0
LINE
  8
_1-0_
  6
CONTINUOUS
 62
    9
 10
371.55908443891502
 20
-165.29658548301541
 11
376.61366285343473
 21
-165.29658548301541
  0
LINE
  8
_1-0_
  6
CONTINUOUS
 62
    7
 10
364.36989201290697
 20
-167.72158548301536
 11
365.06997878081933
 21
-167.72158548301536
  0
LINE
  8
_1-0_
  6
CONTINUOUS
 62
    7
 10
365.2574787808191
 20
-139.22158548301513
 11
364.1324787808191
 21
-166.22158548301536
  0
LINE
  8
_1-0_
  6
CONTINUOUS
 62
    7
 10
364.03239201290688
 20
-166.22158548301536
 11
364.1324787808191
 21
-166.22158548301536
  0
LINE
  8
_1-0_
  6
CONTINUOUS
 62
    7
 10
365.22405867957349
 20
-137.62158548301522
 11
366.8199787808191
 21
-137.62158548301522
  0
LINE
  8
_1-0_
  6
CONTINUOUS
 62
    7
 10
365.15739201290688
 20
-139.22158548301536
 11
365.2574787808191
 21
-139.22158548301536
  0
LINE
  8
_1-0_
  6
CONTINUOUS
 62
    7
 10
366.8199787808191
 20
-137.72158548301536
 11
366.8199787808191
 21
-137.62158548301522
  0
LINE
  8
_1-0_
  6
CONTINUOUS
 62
    7
 10
363.96989201290688
 20
-167.72158548301536
 11
364.03239201290688
 21
-166.22158548301559
  0
LINE
  8
_1-0_
  6
CONTINUOUS
 62
    7
 10
365.15739201290688
 20
-139.22158548301559
 11
365.22405867957349
 21
-137.62158548301522
  0
LINE
  8
_1-0_
  6
CONTINUOUS
 62
    7
 10
365.91351039343743
 20
-139.09036257448133
 11
364.83408443891511
 21
-164.99658548301522
  0
ARC
  8
_1-0_
  6
CONTINUOUS
 62
    7
 10
366.66286019825674
 20
-139.12158548301522
 40
0.75
 50
90
 51
177.6140559696114
  0
LINE
  8
_1-0_
  6
CONTINUOUS
 62
    7
 10
366.1949787808191
 20
-165.12158548301522
 11
365.0699787808191
 21
-167.72158548301536
  0
ARC
  8
_1-0_
  6
CONTINUOUS
 62
    7
 10
364.16989201290693
 20
-167.57158548301527
 40
0.25
 50
216.86989764584337
 51
323.13010235415658
  0
LINE
  8
_1-0_
  6
CONTINUOUS
 62
    7
 10
378.77006554873145
 20
-167.72158548301536
 11
378.06997878081933
 21
-167.72158548301536
  0
LINE
  8
_1-0_
  6
CONTINUOUS
 62
    7
 10
377.8824787808191
 20
-139.22158548301536
 11
379.00747878081933
 21
-166.22158548301536
  0
LINE
  8
_1-0_
  6
CONTINUOUS
 62
    7
 10
379.10756554873132
 20
-166.22158548301536
 11
379.00747878081933
 21
-166.22158548301536
  0
LINE
  8
_1-0_
  6
CONTINUOUS
 62
    7
 10
377.91589888206471
 20
-137.62158548301522
 11
376.31997878081933
 21
-137.62158548301522
  0
LINE
  8
_1-0_
  6
CONTINUOUS
 62
    7
 10
377.98256554873132
 20
-139.22158548301513
 11
377.88247878081933
 21
-139.22158548301513
  0
LINE
  8
_1-0_
  6
CONTINUOUS
 62
    7
 10
376.31997878081933
 20
-137.72158548301513
 11
376.31997878081933
 21
-137.62158548301522
  0
LINE
  8
_1-0_
  6
CONTINUOUS
 62
    7
 10
379.17006554873132
 20
-167.72158548301536
 11
379.10756554873132
 21
-166.22158548301559
  0
LINE
  8
_1-0_
  6
CONTINUOUS
 62
    7
 10
377.98256554873132
 20
-139.22158548301559
 11
377.91589888206471
 21
-137.62158548301522
  0
LINE
  8
_1-0_
  6
CONTINUOUS
 62
    7
 10
377.22644716820099
 20
-139.09036257448133
 11
378.30587312272331
 21
-164.99658548301522
  0
ARC
  8
_1-0_
  6
CONTINUOUS
 62
    7
 10
376.47709736338169
 20
-139.12158548301522
 40
0.75
 50
2.3859440303886434
 51
90.000000000000057
  0
LINE
  8
_1-0_
  6
CONTINUOUS
 62
    7
 10
376.9449787808191
 20
-165.12158548301522
 11
378.06997878081933
 21
-167.72158548301536
  0
ARC
  8
_1-0_
  6
CONTINUOUS
 62
    7
 10
378.9700655487315
 20
-167.57158548301527
 40
0.25
 50
216.86989764584337
 51
323.13010235415669
  0
LINE
  8
_1-0_
  6
CONTINUOUS
 62
    7
 10
364.83408443891511
 20
-164.99658548301522
 11
366.19497878081933
 21
-165.12158548301522
  0
LINE
  8
_1-0_
  6
CONTINUOUS
 62
    7
 10
376.94497878081933
 20
-165.12158548301522
 11
378.30587312272331
 21
-164.99658548301522
  0
LINE
  8
_1-0_
  6
CONTINUOUS
 62
    7
 10
368.48985176189916
 20
-140.22158548301536
 11
374.65010579973745
 21
-140.22158548301536
  0
LINE
  8
_1-0_
  6
CONTINUOUS
 62
    7
 10
367.99108921971327
 20
-140.87158548301522
 11
375.14886834192288
 21
-140.87158548301522
  0
LINE
  8
_1-0_
  6
CONTINUOUS
 62
    7
 10
368.48985176189916
 20
-140.22158548301536
 11
367.8199787808191
 21
-137.72158548301513
  0
LINE
  8
_1-0_
  6
CONTINUOUS
 62
    7
 10
367.32121623863321
 20
-138.37158548301522
 11
367.99108921971327
 21
-140.87158548301545
  0
LINE
  8
_1-0_
  6
CONTINUOUS
 62
    7
 10
374.65010579973722
 20
-140.22158548301536
 11
375.3199787808191
 21
-137.72158548301536
  0
LINE
  8
_1-0_
  6
CONTINUOUS
 62
    7
 10
375.81874132300476
 20
-138.37158548301522
 11
375.14886834192288
 21
-140.87158548301522
  0
LINE
  8
_1-0_
  6
CONTINUOUS
 62
    7
 10
366.81997878081933
 20
-137.72158548301536
 11
367.81997878081933
 21
-137.72158548301536
  0
LINE
  8
_1-0_
  6
CONTINUOUS
 62
    7
 10
375.3199787808191
 20
-137.72158548301536
 11
376.3199787808191
 21
-137.72158548301536
  0
LINE
  8
_1-0_
  6
CONTINUOUS
 62
    7
 10
366.66286019825674
 20
-138.37158548301522
 11
367.32121623863321
 21
-138.37158548301522
  0
LINE
  8
_1-0_
  6
CONTINUOUS
 62
    7
 10
375.81874132300476
 20
-138.37158548301522
 11
376.47709736338169
 21
-138.37158548301522
  0
LINE
  8
_1-0_
  6
CONTINUOUS
 62
    9
 10
402.23841475042917
 20
-165.31130497984412
 11
401.55908443863649
 21
-167.84660021856843
  0
LINE
  8
_1-0_
  6
CONTINUOUS
 62
    9
 10
412.38045183728553
 20
-165.31130497984412
 11
413.05978214907822
 21
-167.84660021856843
  0
LINE
  8
_1-0_
  6
CONTINUOUS
 62
    9
 10
401.83407799356695
 20
-160.09660021856865
 11
407.3219332938574
 21
-160.09660021856865
  0
LINE
  8
_1-0_
  6
CONTINUOUS
 62
    9
 10
401.99693329385758
 20
-164.99660021856852
 11
400.84693329385749
 21
-164.99660021856852
  0
ARC
  8
_1-0_
  6
CONTINUOUS
 62
    9
 10
400.84693329385749
 20
-164.74660021856852
 40
0.25
 50
164.9999999999107
 51
270
  0
LINE
  8
_1-0_
  6
CONTINUOUS
 62
    9
 10
401.83407799356695
 20
-160.09660021856865
 11
400.60545183728522
 21
-164.68189545729268
  0
ARC
  8
_1-0_
  6
CONTINUOUS
 62
    9
 10
401.99693329385758
 20
-165.24660021856852
 40
0.25
 50
344.99999999995498
 51
89.999999999999986
  0
LINE
  8
_1-0_
  6
CONTINUOUS
 62
    9
 10
402.23841475042917
 20
-165.31130497984412
 11
401.55908443863649
 21
-167.84660021856843
  0
LINE
  8
_1-0_
  6
CONTINUOUS
 62
    9
 10
407.3219332938574
 20
-165.94660021856856
 11
402.06818790425717
 21
-165.94660021856856
  0
LINE
  8
_1-0_
  6
CONTINUOUS
 62
    9
 10
407.3219332938574
 20
-165.2966002185687
 11
402.24235487933805
 21
-165.2966002185687
  0
LINE
  8
_1-0_
  6
CONTINUOUS
 62
    9
 10
412.78478859414798
 20
-160.09660021856865
 11
407.3219332938574
 21
-160.09660021856865
  0
LINE
  8
_1-0_
  6
CONTINUOUS
 62
    9
 10
412.62193329385758
 20
-164.99660021856852
 11
413.77193329385744
 21
-164.99660021856852
  0
ARC
  8
_1-0_
  6
CONTINUOUS
 62
    9
 10
413.77193329385744
 20
-164.74660021856852
 40
0.25
 50
270
 51
15.000000000089292
  0
LINE
  8
_1-0_
  6
CONTINUOUS
 62
    9
 10
412.78478859414776
 20
-160.09660021856865
 11
414.01341475042949
 21
-164.68189545729268
  0
ARC
  8
_1-0_
  6
CONTINUOUS
 62
    9
 10
412.62193329385758
 20
-165.24660021856852
 40
0.25
 50
90
 51
195.00000000004499
  0
LINE
  8
_1-0_
  6
CONTINUOUS
 62
    9
 10
412.38045183728576
 20
-165.31130497984435
 11
413.05978214907844
 21
-167.84660021856865
  0
LINE
  8
_1-0_
  6
CONTINUOUS
 62
    9
 10
407.3219332938574
 20
-165.94660021856856
 11
412.55067868345776
 21
-165.94660021856856
  0
LINE
  8
_1-0_
  6
CONTINUOUS
 62
    9
 10
407.3219332938574
 20
-165.2966002185687
 11
412.37651170837711
 21
-165.2966002185687
  0
LINE
  8
_1-0_
  6
CONTINUOUS
 62
    7
 10
400.13274086784935
 20
-167.72160021856865
 11
400.8328276357617
 21
-167.72160021856865
  0
LINE
  8
_1-0_
  6
CONTINUOUS
 62
    7
 10
401.02032763576148
 20
-139.22160021856843
 11
399.89532763576148
 21
-166.22160021856865
  0
LINE
  8
_1-0_
  6
CONTINUOUS
 62
    7
 10
399.79524086784926
 20
-166.22160021856865
 11
399.89532763576148
 21
-166.22160021856865
  0
LINE
  8
_1-0_
  6
CONTINUOUS
 62
    7
 10
400.98690753451586
 20
-137.62160021856852
 11
402.58282763576148
 21
-137.62160021856852
  0
LINE
  8
_1-0_
  6
CONTINUOUS
 62
    7
 10
400.92024086784926
 20
-139.22160021856865
 11
401.02032763576148
 21
-139.22160021856865
  0
LINE
  8
_1-0_
  6
CONTINUOUS
 62
    7
 10
402.58282763576148
 20
-137.72160021856865
 11
402.58282763576148
 21
-137.62160021856852
  0
LINE
  8
_1-0_
  6
CONTINUOUS
 62
    7
 10
399.73274086784926
 20
-167.72160021856865
 11
399.79524086784926
 21
-166.22160021856888
  0
LINE
  8
_1-0_
  6
CONTINUOUS
 62
    7
 10
400.92024086784926
 20
-139.22160021856888
 11
400.98690753451586
 21
-137.62160021856852
  0
LINE
  8
_1-0_
  6
CONTINUOUS
 62
    7
 10
401.67635924837981
 20
-139.09037731003463
 11
400.59693329385749
 21
-164.99660021856852
  0
ARC
  8
_1-0_
  6
CONTINUOUS
 62
    7
 10
402.42570905319911
 20
-139.12160021856852
 40
0.75
 50
90
 51
177.6140559696114
  0
LINE
  8
_1-0_
  6
CONTINUOUS
 62
    7
 10
401.95782763576148
 20
-165.12160021856852
 11
400.83282763576148
 21
-167.72160021856865
  0
ARC
  8
_1-0_
  6
CONTINUOUS
 62
    7
 10
399.9327408678493
 20
-167.57160021856856
 40
0.25
 50
216.86989764584337
 51
323.13010235415658
  0
LINE
  8
_1-0_
  6
CONTINUOUS
 62
    7
 10
414.53291440367383
 20
-167.72160021856865
 11
413.8328276357617
 21
-167.72160021856865
  0
LINE
  8
_1-0_
  6
CONTINUOUS
 62
    7
 10
413.64532763576148
 20
-139.22160021856865
 11
414.7703276357617
 21
-166.22160021856865
  0
LINE
  8
_1-0_
  6
CONTINUOUS
 62
    7
 10
414.87041440367369
 20
-166.22160021856865
 11
414.7703276357617
 21
-166.22160021856865
  0
LINE
  8
_1-0_
  6
CONTINUOUS
 62
    7
 10
413.67874773700709
 20
-137.62160021856852
 11
412.0828276357617
 21
-137.62160021856852
  0
LINE
  8
_1-0_
  6
CONTINUOUS
 62
    7
 10
413.74541440367369
 20
-139.22160021856843
 11
413.6453276357617
 21
-139.22160021856843
  0
LINE
  8
_1-0_
  6
CONTINUOUS
 62
    7
 10
412.0828276357617
 20
-137.72160021856843
 11
412.0828276357617
 21
-137.62160021856852
  0
LINE
  8
_1-0_
  6
CONTINUOUS
 62
    7
 10
414.93291440367369
 20
-167.72160021856865
 11
414.87041440367369
 21
-166.22160021856888
  0
LINE
  8
_1-0_
  6
CONTINUOUS
 62
    7
 10
413.74541440367369
 20
-139.22160021856888
 11
413.67874773700709
 21
-137.62160021856852
  0
LINE
  8
_1-0_
  6
CONTINUOUS
 62
    7
 10
412.98929602314337
 20
-139.09037731003463
 11
414.06872197766569
 21
-164.99660021856852
  0
ARC
  8
_1-0_
  6
CONTINUOUS
 62
    7
 10
412.23994621832406
 20
-139.12160021856852
 40
0.75
 50
2.3859440303886434
 51
90.000000000000057
  0
LINE
  8
_1-0_
  6
CONTINUOUS
 62
    7
 10
412.70782763576148
 20
-165.12160021856852
 11
413.8328276357617
 21
-167.72160021856865
  0
ARC
  8
_1-0_
  6
CONTINUOUS
 62
    7
 10
414.73291440367387
 20
-167.57160021856856
 40
0.25
 50
216.86989764584337
 51
323.13010235415669
  0
LINE
  8
_1-0_
  6
CONTINUOUS
 62
    7
 10
400.59693329385749
 20
-164.99660021856852
 11
401.9578276357617
 21
-165.12160021856852
  0
LINE
  8
_1-0_
  6
CONTINUOUS
 62
    7
 10
412.7078276357617
 20
-165.12160021856852
 11
414.06872197766569
 21
-164.99660021856852
  0
LINE
  8
_1-0_
  6
CONTINUOUS
 62
    7
 10
404.25270061684154
 20
-140.22160021856865
 11
410.41295465467982
 21
-140.22160021856865
  0
LINE
  8
_1-0_
  6
CONTINUOUS
 62
    7
 10
403.75393807465565
 20
-140.87160021856852
 11
410.91171719686525
 21
-140.87160021856852
  0
LINE
  8
_1-0_
  6
CONTINUOUS
 62
    7
 10
404.25270061684154
 20
-140.22160021856865
 11
403.58282763576148
 21
-137.72160021856843
  0
LINE
  8
_1-0_
  6
CONTINUOUS
 62
    7
 10
403.08406509357559
 20
-138.37160021856852
 11
403.75393807465565
 21
-140.87160021856874
  0
LINE
  8
_1-0_
  6
CONTINUOUS
 62
    7
 10
410.4129546546796
 20
-140.22160021856865
 11
411.08282763576148
 21
-137.72160021856865
  0
LINE
  8
_1-0_
  6
CONTINUOUS
 62
    7
 10
411.58159017794713
 20
-138.37160021856852
 11
410.91171719686525
 21
-140.87160021856852
  0
LINE
  8
_1-0_
  6
CONTINUOUS
 62
    7
 10
402.5828276357617
 20
-137.72160021856865
 11
403.5828276357617
 21
-137.72160021856865
  0
LINE
  8
_1-0_
  6
CONTINUOUS
 62
    7
 10
411.08282763576148
 20
-137.72160021856865
 11
412.08282763576148
 21
-137.72160021856865
  0
LINE
  8
_1-0_
  6
CONTINUOUS
 62
    7
 10
402.42570905319911
 20
-138.37160021856852
 11
403.08406509357559
 21
-138.37160021856852
  0
LINE
  8
_1-0_
  6
CONTINUOUS
 62
    7
 10
411.58159017794713
 20
-138.37160021856852
 11
412.23994621832406
 21
-138.37160021856852
  0
LINE
  8
_1-0_
  6
CONTINUOUS
 62
    9
 10
439.73841475042917
 20
-165.3113204311652
 11
439.05908443863649
 21
-167.8466156698895
  0
LINE
  8
_1-0_
  6
CONTINUOUS
 62
    9
 10
449.88045183728553
 20
-165.3113204311652
 11
450.55978214907822
 21
-167.8466156698895
  0
LINE
  8
_1-0_
  6
CONTINUOUS
 62
    9
 10
439.33407799356695
 20
-160.09661566988973
 11
444.8219332938574
 21
-160.09661566988973
  0
LINE
  8
_1-0_
  6
CONTINUOUS
 62
    9
 10
439.49693329385758
 20
-164.99661566988959
 11
438.34693329385749
 21
-164.99661566988959
  0
ARC
  8
_1-0_
  6
CONTINUOUS
 62
    9
 10
438.34693329385749
 20
-164.74661566988959
 40
0.25
 50
164.9999999999107
 51
270
  0
LINE
  8
_1-0_
  6
CONTINUOUS
 62
    9
 10
439.33407799356695
 20
-160.09661566988973
 11
438.10545183728522
 21
-164.68191090861376
  0
ARC
  8
_1-0_
  6
CONTINUOUS
 62
    9
 10
439.49693329385758
 20
-165.24661566988959
 40
0.25
 50
344.99999999995498
 51
89.999999999999986
  0
LINE
  8
_1-0_
  6
CONTINUOUS
 62
    9
 10
439.73841475042917
 20
-165.3113204311652
 11
439.05908443863649
 21
-167.8466156698895
  0
LINE
  8
_1-0_
  6
CONTINUOUS
 62
    9
 10
444.8219332938574
 20
-165.94661566988964
 11
439.56818790425717
 21
-165.94661566988964
  0
LINE
  8
_1-0_
  6
CONTINUOUS
 62
    9
 10
444.8219332938574
 20
-165.29661566988977
 11
439.74235487933805
 21
-165.29661566988977
  0
LINE
  8
_1-0_
  6
CONTINUOUS
 62
    9
 10
450.28478859414798
 20
-160.09661566988973
 11
444.8219332938574
 21
-160.09661566988973
  0
LINE
  8
_1-0_
  6
CONTINUOUS
 62
    9
 10
450.12193329385758
 20
-164.99661566988959
 11
451.27193329385744
 21
-164.99661566988959
  0
ARC
  8
_1-0_
  6
CONTINUOUS
 62
    9
 10
451.27193329385744
 20
-164.74661566988959
 40
0.25
 50
270
 51
15.000000000089292
  0
LINE
  8
_1-0_
  6
CONTINUOUS
 62
    9
 10
450.28478859414776
 20
-160.09661566988973
 11
451.51341475042949
 21
-164.68191090861376
  0
ARC
  8
_1-0_
  6
CONTINUOUS
 62
    9
 10
450.12193329385758
 20
-165.24661566988959
 40
0.25
 50
90
 51
195.00000000004499
  0
LINE
  8
_1-0_
  6
CONTINUOUS
 62
    9
 10
449.88045183728576
 20
-165.31132043116543
 11
450.55978214907844
 21
-167.84661566988973
  0
LINE
  8
_1-0_
  6
CONTINUOUS
 62
    9
 10
444.8219332938574
 20
-165.94661566988964
 11
450.05067868345776
 21
-165.94661566988964
  0
LINE
  8
_1-0_
  6
CONTINUOUS
 62
    9
 10
444.8219332938574
 20
-165.29661566988977
 11
449.87651170837711
 21
-165.29661566988977
  0
LINE
  8
_1-0_
  6
CONTINUOUS
 62
    7
 10
437.63274086784935
 20
-167.72161566988973
 11
438.3328276357617
 21
-167.72161566988973
  0
LINE
  8
_1-0_
  6
CONTINUOUS
 62
    7
 10
438.52032763576148
 20
-139.2216156698895
 11
437.39532763576148
 21
-166.22161566988973
  0
LINE
  8
_1-0_
  6
CONTINUOUS
 62
    7
 10
437.29524086784926
 20
-166.22161566988973
 11
437.39532763576148
 21
-166.22161566988973
  0
LINE
  8
_1-0_
  6
CONTINUOUS
 62
    7
 10
438.48690753451586
 20
-137.62161566988959
 11
440.08282763576148
 21
-137.62161566988959
  0
LINE
  8
_1-0_
  6
CONTINUOUS
 62
    7
 10
438.42024086784926
 20
-139.22161566988973
 11
438.52032763576148
 21
-139.22161566988973
  0
LINE
  8
_1-0_
  6
CONTINUOUS
 62
    7
 10
440.08282763576148
 20
-137.72161566988973
 11
440.08282763576148
 21
-137.62161566988959
  0
LINE
  8
_1-0_
  6
CONTINUOUS
 62
    7
 10
437.23274086784926
 20
-167.72161566988973
 11
437.29524086784926
 21
-166.22161566988996
  0
LINE
  8
_1-0_
  6
CONTINUOUS
 62
    7
 10
438.42024086784926
 20
-139.22161566988996
 11
438.48690753451586
 21
-137.62161566988959
  0
LINE
  8
_1-0_
  6
CONTINUOUS
 62
    7
 10
439.17635924837981
 20
-139.0903927613557
 11
438.09693329385749
 21
-164.99661566988959
  0
ARC
  8
_1-0_
  6
CONTINUOUS
 62
    7
 10
439.92570905319911
 20
-139.12161566988959
 40
0.75
 50
90
 51
177.6140559696114
  0
LINE
  8
_1-0_
  6
CONTINUOUS
 62
    7
 10
439.45782763576148
 20
-165.12161566988959
 11
438.33282763576148
 21
-167.72161566988973
  0
ARC
  8
_1-0_
  6
CONTINUOUS
 62
    7
 10
437.4327408678493
 20
-167.57161566988964
 40
0.25
 50
216.86989764584337
 51
323.13010235415658
  0
LINE
  8
_1-0_
  6
CONTINUOUS
 62
    7
 10
452.03291440367383
 20
-167.72161566988973
 11
451.3328276357617
 21
-167.72161566988973
  0
LINE
  8
_1-0_
  6
CONTINUOUS
 62
    7
 10
451.14532763576148
 20
-139.22161566988973
 11
452.2703276357617
 21
-166.22161566988973
  0
LINE
  8
_1-0_
  6
CONTINUOUS
 62
    7
 10
452.37041440367369
 20
-166.22161566988973
 11
452.2703276357617
 21
-166.22161566988973
  0
LINE
  8
_1-0_
  6
CONTINUOUS
 62
    7
 10
451.17874773700709
 20
-137.62161566988959
 11
449.5828276357617
 21
-137.62161566988959
  0
LINE
  8
_1-0_
  6
CONTINUOUS
 62
    7
 10
451.24541440367369
 20
-139.2216156698895
 11
451.1453276357617
 21
-139.2216156698895
  0
LINE
  8
_1-0_
  6
CONTINUOUS
 62
    7
 10
449.5828276357617
 20
-137.7216156698895
 11
449.5828276357617
 21
-137.62161566988959
  0
LINE
  8
_1-0_
  6
CONTINUOUS
 62
    7
 10
452.43291440367369
 20
-167.72161566988973
 11
452.37041440367369
 21
-166.22161566988996
  0
LINE
  8
_1-0_
  6
CONTINUOUS
 62
    7
 10
451.24541440367369
 20
-139.22161566988996
 11
451.17874773700709
 21
-137.62161566988959
  0
LINE
  8
_1-0_
  6
CONTINUOUS
 62
    7
 10
450.48929602314337
 20
-139.0903927613557
 11
451.56872197766569
 21
-164.99661566988959
  0
ARC
  8
_1-0_
  6
CONTINUOUS
 62
    7
 10
449.73994621832406
 20
-139.12161566988959
 40
0.75
 50
2.3859440303886434
 51
90.000000000000057
  0
LINE
  8
_1-0_
  6
CONTINUOUS
 62
    7
 10
450.20782763576148
 20
-165.12161566988959
 11
451.3328276357617
 21
-167.72161566988973
  0
ARC
  8
_1-0_
  6
CONTINUOUS
 62
    7
 10
452.23291440367387
 20
-167.57161566988964
 40
0.25
 50
216.86989764584337
 51
323.13010235415669
  0
LINE
  8
_1-0_
  6
CONTINUOUS
 62
    7
 10
438.09693329385749
 20
-164.99661566988959
 11
439.4578276357617
 21
-165.12161566988959
  0
LINE
  8
_1-0_
  6
CONTINUOUS
 62
    7
 10
450.2078276357617
 20
-165.12161566988959
 11
451.56872197766569
 21
-164.99661566988959
  0
LINE
  8
_1-0_
  6
CONTINUOUS
 62
    7
 10
441.75270061684154
 20
-140.22161566988973
 11
447.91295465467982
 21
-140.22161566988973
  0
LINE
  8
_1-0_
  6
CONTINUOUS
 62
    7
 10
441.25393807465565
 20
-140.87161566988959
 11
448.41171719686525
 21
-140.87161566988959
  0
LINE
  8
_1-0_
  6
CONTINUOUS
 62
    7
 10
441.75270061684154
 20
-140.22161566988973
 11
441.08282763576148
 21
-137.7216156698895
  0
LINE
  8
_1-0_
  6
CONTINUOUS
 62
    7
 10
440.58406509357559
 20
-138.37161566988959
 11
441.25393807465565
 21
-140.87161566988982
  0
LINE
  8
_1-0_
  6
CONTINUOUS
 62
    7
 10
447.9129546546796
 20
-140.22161566988973
 11
448.58282763576148
 21
-137.72161566988973
  0
LINE
  8
_1-0_
  6
CONTINUOUS
 62
    7
 10
449.08159017794713
 20
-138.37161566988959
 11
448.41171719686525
 21
-140.87161566988959
  0
LINE
  8
_1-0_
  6
CONTINUOUS
 62
    7
 10
440.0828276357617
 20
-137.72161566988973
 11
441.0828276357617
 21
-137.72161566988973
  0
LINE
  8
_1-0_
  6
CONTINUOUS
 62
    7
 10
448.58282763576148
 20
-137.72161566988973
 11
449.58282763576148
 21
-137.72161566988973
  0
LINE
  8
_1-0_
  6
CONTINUOUS
 62
    7
 10
439.92570905319911
 20
-138.37161566988959
 11
440.58406509357559
 21
-138.37161566988959
  0
LINE
  8
_1-0_
  6
CONTINUOUS
 62
    7
 10
449.08159017794713
 20
-138.37161566988959
 11
449.73994621832406
 21
-138.37161566988959
  0
LINE
  8
_1-0_
  6
CONTINUOUS
 62
    9
 10
477.22591475042913
 20
-165.31133587733598
 11
476.54658443863644
 21
-167.84663111606028
  0
LINE
  8
_1-0_
  6
CONTINUOUS
 62
    9
 10
487.36795183728549
 20
-165.31133587733598
 11
488.04728214907817
 21
-167.84663111606028
  0
LINE
  8
_1-0_
  6
CONTINUOUS
 62
    9
 10
476.8215779935669
 20
-160.09663111606051
 11
482.30943329385735
 21
-160.09663111606051
  0
LINE
  8
_1-0_
  6
CONTINUOUS
 62
    9
 10
476.98443329385753
 20
-164.99663111606037
 11
475.83443329385744
 21
-164.99663111606037
  0
ARC
  8
_1-0_
  6
CONTINUOUS
 62
    9
 10
475.83443329385744
 20
-164.74663111606037
 40
0.25
 50
164.9999999999107
 51
270
  0
LINE
  8
_1-0_
  6
CONTINUOUS
 62
    9
 10
476.8215779935669
 20
-160.09663111606051
 11
475.59295183728517
 21
-164.68192635478454
  0
ARC
  8
_1-0_
  6
CONTINUOUS
 62
    9
 10
476.98443329385753
 20
-165.24663111606037
 40
0.25
 50
344.99999999995498
 51
89.999999999999986
  0
LINE
  8
_1-0_
  6
CONTINUOUS
 62
    9
 10
477.22591475042913
 20
-165.31133587733598
 11
476.54658443863644
 21
-167.84663111606028
  0
LINE
  8
_1-0_
  6
CONTINUOUS
 62
    9
 10
482.30943329385735
 20
-165.94663111606042
 11
477.05568790425713
 21
-165.94663111606042
  0
LINE
  8
_1-0_
  6
CONTINUOUS
 62
    9
 10
482.30943329385735
 20
-165.29663111606055
 11
477.22985487933801
 21
-165.29663111606055
  0
LINE
  8
_1-0_
  6
CONTINUOUS
 62
    9
 10
487.77228859414794
 20
-160.09663111606051
 11
482.30943329385735
 21
-160.09663111606051
  0
LINE
  8
_1-0_
  6
CONTINUOUS
 62
    9
 10
487.60943329385753
 20
-164.99663111606037
 11
488.7594332938574
 21
-164.99663111606037
  0
ARC
  8
_1-0_
  6
CONTINUOUS
 62
    9
 10
488.7594332938574
 20
-164.74663111606037
 40
0.25
 50
270
 51
15.000000000089292
  0
LINE
  8
_1-0_
  6
CONTINUOUS
 62
    9
 10
487.77228859414771
 20
-160.09663111606051
 11
489.00091475042944
 21
-164.68192635478454
  0
ARC
  8
_1-0_
  6
CONTINUOUS
 62
    9
 10
487.60943329385753
 20
-165.24663111606037
 40
0.25
 50
90
 51
195.00000000004499
  0
LINE
  8
_1-0_
  6
CONTINUOUS
 62
    9
 10
487.36795183728572
 20
-165.31133587733621
 11
488.0472821490784
 21
-167.84663111606051
  0
LINE
  8
_1-0_
  6
CONTINUOUS
 62
    9
 10
482.30943329385735
 20
-165.94663111606042
 11
487.53817868345772
 21
-165.94663111606042
  0
LINE
  8
_1-0_
  6
CONTINUOUS
 62
    9
 10
482.30943329385735
 20
-165.29663111606055
 11
487.36401170837706
 21
-165.29663111606055
  0
LINE
  8
_1-0_
  6
CONTINUOUS
 62
    7
 10
475.1202408678493
 20
-167.72163111606051
 11
475.82032763576166
 21
-167.72163111606051
  0
LINE
  8
_1-0_
  6
CONTINUOUS
 62
    7
 10
476.00782763576143
 20
-139.22163111606028
 11
474.88282763576143
 21
-166.22163111606051
  0
LINE
  8
_1-0_
  6
CONTINUOUS
 62
    7
 10
474.78274086784921
 20
-166.22163111606051
 11
474.88282763576143
 21
-166.22163111606051
  0
LINE
  8
_1-0_
  6
CONTINUOUS
 62
    7
 10
475.97440753451582
 20
-137.62163111606037
 11
477.57032763576143
 21
-137.62163111606037
  0
LINE
  8
_1-0_
  6
CONTINUOUS
 62
    7
 10
475.90774086784921
 20
-139.22163111606051
 11
476.00782763576143
 21
-139.22163111606051
  0
LINE
  8
_1-0_
  6
CONTINUOUS
 62
    7
 10
477.57032763576143
 20
-137.72163111606051
 11
477.57032763576143
 21
-137.62163111606037
  0
LINE
  8
_1-0_
  6
CONTINUOUS
 62
    7
 10
474.72024086784921
 20
-167.72163111606051
 11
474.78274086784921
 21
-166.22163111606073
  0
LINE
  8
_1-0_
  6
CONTINUOUS
 62
    7
 10
475.90774086784921
 20
-139.22163111606073
 11
475.97440753451582
 21
-137.62163111606037
  0
LINE
  8
_1-0_
  6
CONTINUOUS
 62
    7
 10
476.66385924837977
 20
-139.09040820752648
 11
475.58443329385744
 21
-164.99663111606037
  0
ARC
  8
_1-0_
  6
CONTINUOUS
 62
    7
 10
477.41320905319907
 20
-139.12163111606037
 40
0.75
 50
90
 51
177.6140559696114
  0
LINE
  8
_1-0_
  6
CONTINUOUS
 62
    7
 10
476.94532763576143
 20
-165.12163111606037
 11
475.82032763576143
 21
-167.72163111606051
  0
ARC
  8
_1-0_
  6
CONTINUOUS
 62
    7
 10
474.92024086784926
 20
-167.57163111606042
 40
0.25
 50
216.86989764584337
 51
323.13010235415658
  0
LINE
  8
_1-0_
  6
CONTINUOUS
 62
    7
 10
489.52041440367378
 20
-167.72163111606051
 11
488.82032763576166
 21
-167.72163111606051
  0
LINE
  8
_1-0_
  6
CONTINUOUS
 62
    7
 10
488.63282763576143
 20
-139.22163111606051
 11
489.75782763576166
 21
-166.22163111606051
  0
LINE
  8
_1-0_
  6
CONTINUOUS
 62
    7
 10
489.85791440367365
 20
-166.22163111606051
 11
489.75782763576166
 21
-166.22163111606051
  0
LINE
  8
_1-0_
  6
CONTINUOUS
 62
    7
 10
488.66624773700704
 20
-137.62163111606037
 11
487.07032763576166
 21
-137.62163111606037
  0
LINE
  8
_1-0_
  6
CONTINUOUS
 62
    7
 10
488.73291440367365
 20
-139.22163111606028
 11
488.63282763576166
 21
-139.22163111606028
  0
LINE
  8
_1-0_
  6
CONTINUOUS
 62
    7
 10
487.07032763576166
 20
-137.72163111606028
 11
487.07032763576166
 21
-137.62163111606037
  0
LINE
  8
_1-0_
  6
CONTINUOUS
 62
    7
 10
489.92041440367365
 20
-167.72163111606051
 11
489.85791440367365
 21
-166.22163111606073
  0
LINE
  8
_1-0_
  6
CONTINUOUS
 62
    7
 10
488.73291440367365
 20
-139.22163111606073
 11
488.66624773700704
 21
-137.62163111606037
  0
LINE
  8
_1-0_
  6
CONTINUOUS
 62
    7
 10
487.97679602314332
 20
-139.09040820752648
 11
489.05622197766564
 21
-164.99663111606037
  0
ARC
  8
_1-0_
  6
CONTINUOUS
 62
    7
 10
487.22744621832402
 20
-139.12163111606037
 40
0.75
 50
2.3859440303886434
 51
90.000000000000057
  0
LINE
  8
_1-0_
  6
CONTINUOUS
 62
    7
 10
487.69532763576143
 20
-165.12163111606037
 11
488.82032763576166
 21
-167.72163111606051
  0
ARC
  8
_1-0_
  6
CONTINUOUS
 62
    7
 10
489.72041440367383
 20
-167.57163111606042
 40
0.25
 50
216.86989764584337
 51
323.13010235415669
  0
LINE
  8
_1-0_
  6
CONTINUOUS
 62
    7
 10
475.58443329385744
 20
-164.99663111606037
 11
476.94532763576166
 21
-165.12163111606037
  0
LINE
  8
_1-0_
  6
CONTINUOUS
 62
    7
 10
487.69532763576166
 20
-165.12163111606037
 11
489.05622197766564
 21
-164.99663111606037
  0
LINE
  8
_1-0_
  6
CONTINUOUS
 62
    7
 10
479.24020061684149
 20
-140.22163111606051
 11
485.40045465467978
 21
-140.22163111606051
  0
LINE
  8
_1-0_
  6
CONTINUOUS
 62
    7
 10
478.7414380746556
 20
-140.87163111606037
 11
485.89921719686521
 21
-140.87163111606037
  0
LINE
  8
_1-0_
  6
CONTINUOUS
 62
    7
 10
479.24020061684149
 20
-140.22163111606051
 11
478.57032763576143
 21
-137.72163111606028
  0
LINE
  8
_1-0_
  6
CONTINUOUS
 62
    7
 10
478.07156509357554
 20
-138.37163111606037
 11
478.7414380746556
 21
-140.8716311160606
  0
LINE
  8
_1-0_
  6
CONTINUOUS
 62
    7
 10
485.40045465467955
 20
-140.22163111606051
 11
486.07032763576143
 21
-137.72163111606051
  0
LINE
  8
_1-0_
  6
CONTINUOUS
 62
    7
 10
486.56909017794709
 20
-138.37163111606037
 11
485.89921719686521
 21
-140.87163111606037
  0
LINE
  8
_1-0_
  6
CONTINUOUS
 62
    7
 10
477.57032763576166
 20
-137.72163111606051
 11
478.57032763576166
 21
-137.72163111606051
  0
LINE
  8
_1-0_
  6
CONTINUOUS
 62
    7
 10
486.07032763576143
 20
-137.72163111606051
 11
487.07032763576143
 21
-137.72163111606051
  0
LINE
  8
_1-0_
  6
CONTINUOUS
 62
    7
 10
477.41320905319907
 20
-138.37163111606037
 11
478.07156509357554
 21
-138.37163111606037
  0
LINE
  8
_1-0_
  6
CONTINUOUS
 62
    7
 10
486.56909017794709
 20
-138.37163111606037
 11
487.22744621832402
 21
-138.37163111606037
  0
LINE
  8
_1-0_
  6
CONTINUOUS
 62
    7
 10
557.19827243709653
 20
194.43297278353864
 11
557.19827243709653
 21
199.22073308727548
  0
LINE
  8
_1-0_
  6
CONTINUOUS
 62
    7
 10
561.99827243709694
 20
194.23297278353883
 11
561.99827243709694
 21
194.53323308727548
  0
LINE
  8
_1-0_
  6
CONTINUOUS
 62
    7
 10
557.49827243709694
 20
199.22073308727548
 11
557.19827243709653
 21
199.22073308727548
  0
LINE
  8
_1-0_
  6
CONTINUOUS
 62
    7
 10
561.99827243709763
 20
194.23297278353883
 11
557.19827243709653
 21
194.43297278353864
  0
ARC
  8
_1-0_
  6
CONTINUOUS
 62
    7
 10
561.69827243709653
 20
198.74937733958839
 40
2.25
 50
180
 51
267.6140559696114
  0
LINE
  8
_1-0_
  6
CONTINUOUS
 62
    7
 10
557.19827243709653
 20
232.50849339101231
 11
557.19827243709653
 21
227.72073308727616
  0
LINE
  8
_1-0_
  6
CONTINUOUS
 62
    7
 10
561.99827243709626
 20
232.70849339101213
 11
561.99827243709626
 21
232.40823308727616
  0
LINE
  8
_1-0_
  6
CONTINUOUS
 62
    7
 10
557.49827243709626
 20
227.72073308727616
 11
557.19827243709653
 21
227.72073308727616
  0
LINE
  8
_1-0_
  6
CONTINUOUS
 62
    7
 10
561.99827243709763
 20
232.70849339101213
 11
557.19827243709653
 21
232.50849339101231
  0
ARC
  8
_1-0_
  6
CONTINUOUS
 62
    7
 10
561.69827243709653
 20
228.19208883496324
 40
2.25
 50
92.385944030388643
 51
180.00000000000006
  0
LINE
  8
_1-0_
  6
CONTINUOUS
 62
    7
 10
564.99827243709694
 20
204.23035203051566
 11
564.99827243709694
 21
222.71111414403052
  0
LINE
  8
_1-0_
  6
CONTINUOUS
 62
    7
 10
566.94827243709653
 20
202.734064403958
 11
566.94827243709653
 21
224.20740177058681
  0
LINE
  8
_1-0_
  6
CONTINUOUS
 62
    7
 10
564.99827243709694
 20
204.23035203051566
 11
557.49827243709626
 21
202.22073308727548
  0
LINE
  8
_1-0_
  6
CONTINUOUS
 62
    7
 10
559.44827243709653
 20
200.72444546071782
 11
566.94827243709722
 21
202.734064403958
  0
LINE
  8
_1-0_
  6
CONTINUOUS
 62
    7
 10
564.99827243709694
 20
222.71111414402984
 11
557.49827243709694
 21
224.72073308727548
  0
LINE
  8
_1-0_
  6
CONTINUOUS
 62
    7
 10
559.44827243709653
 20
226.21702071383245
 11
566.94827243709653
 21
224.20740177058681
  0
LINE
  8
_1-0_
  6
CONTINUOUS
 62
    7
 10
557.49827243709694
 20
199.22073308727616
 11
557.49827243709694
 21
202.22073308727616
  0
LINE
  8
_1-0_
  6
CONTINUOUS
 62
    7
 10
557.49827243709694
 20
224.72073308727548
 11
557.49827243709694
 21
227.72073308727548
  0
LINE
  8
_1-0_
  6
CONTINUOUS
 62
    7
 10
559.44827243709653
 20
198.74937733958839
 11
559.44827243709653
 21
200.72444546071782
  0
LINE
  8
_1-0_
  6
CONTINUOUS
 62
    7
 10
559.44827243709653
 20
226.21702071383245
 11
559.44827243709653
 21
228.19208883496324
  0
LINE
  8
_1-0_
  6
CONTINUOUS
 62
    7
 10
561.99827243709626
 20
194.53323308727548
 11
642.99827243709683
 21
191.15823308727548
  0
LINE
  8
_1-0_
  6
CONTINUOUS
 62
    7
 10
561.60460371149486
 20
196.50132792513048
 11
639.32327243709642
 21
193.26305006156352
  0
LINE
  8
_1-0_
  6
CONTINUOUS
 62
    7
 10
561.60460371149486
 20
230.44013824942115
 11
639.32327243709642
 21
233.67841611298812
  0
LINE
  8
_1-0_
  6
CONTINUOUS
 62
    7
 10
561.99827243709694
 20
232.40823308727548
 11
642.99827243709683
 21
235.78323308727616
  0
LINE
  8
_1-0_
  6
CONTINUOUS
 62
    7
 10
498.70115994015129
 20
84.318758644932359
 11
498.70115994015129
 21
85.91467874617797
  0
LINE
  8
_1-0_
  6
CONTINUOUS
 62
    7
 10
500.30115994015142
 20
84.252091978265753
 11
500.30115994015142
 21
84.35217874617797
  0
LINE
  8
_1-0_
  6
CONTINUOUS
 62
    7
 10
498.80115994015142
 20
85.91467874617797
 11
498.70115994015129
 21
85.91467874617797
  0
LINE
  8
_1-0_
  6
CONTINUOUS
 62
    7
 10
500.30115994015165
 20
84.252091978265753
 11
498.70115994015129
 21
84.318758644932359
  0
ARC
  8
_1-0_
  6
CONTINUOUS
 62
    7
 10
500.20115994015129
 20
85.757560163615608
 40
0.75
 50
180
 51
267.6140559696114
  0
LINE
  8
_1-0_
  6
CONTINUOUS
 62
    7
 10
498.70115994015129
 20
97.01059884742358
 11
498.70115994015129
 21
95.414678746178197
  0
LINE
  8
_1-0_
  6
CONTINUOUS
 62
    7
 10
500.30115994015119
 20
97.077265514090186
 11
500.30115994015119
 21
96.977178746178197
  0
LINE
  8
_1-0_
  6
CONTINUOUS
 62
    7
 10
498.80115994015119
 20
95.414678746178197
 11
498.70115994015129
 21
95.414678746178197
  0
LINE
  8
_1-0_
  6
CONTINUOUS
 62
    7
 10
500.30115994015165
 20
97.077265514090186
 11
498.70115994015129
 21
97.01059884742358
  0
ARC
  8
_1-0_
  6
CONTINUOUS
 62
    7
 10
500.20115994015129
 20
95.571797328740558
 40
0.75
 50
92.385944030388643
 51
180.00000000000006
  0
LINE
  8
_1-0_
  6
CONTINUOUS
 62
    7
 10
501.30115994015142
 20
87.584551727258031
 11
501.30115994015142
 21
93.744805765096316
  0
LINE
  8
_1-0_
  6
CONTINUOUS
 62
    7
 10
501.95115994015129
 20
87.085789185072144
 11
501.95115994015129
 21
94.243568307281748
  0
LINE
  8
_1-0_
  6
CONTINUOUS
 62
    7
 10
501.30115994015142
 20
87.584551727258031
 11
498.80115994015119
 21
86.91467874617797
  0
LINE
  8
_1-0_
  6
CONTINUOUS
 62
    7
 10
499.45115994015129
 20
86.415916203992083
 11
501.95115994015151
 21
87.085789185072144
  0
LINE
  8
_1-0_
  6
CONTINUOUS
 62
    7
 10
501.30115994015142
 20
93.744805765096089
 11
498.80115994015142
 21
94.41467874617797
  0
LINE
  8
_1-0_
  6
CONTINUOUS
 62
    7
 10
499.45115994015129
 20
94.913441288363629
 11
501.95115994015129
 21
94.243568307281748
  0
LINE
  8
_1-0_
  6
CONTINUOUS
 62
    7
 10
498.80115994015142
 20
85.914678746178197
 11
498.80115994015142
 21
86.914678746178197
  0
LINE
  8
_1-0_
  6
CONTINUOUS
 62
    7
 10
498.80115994015142
 20
94.41467874617797
 11
498.80115994015142
 21
95.41467874617797
  0
LINE
  8
_1-0_
  6
CONTINUOUS
 62
    7
 10
499.45115994015129
 20
85.757560163615608
 11
499.45115994015129
 21
86.415916203992083
  0
LINE
  8
_1-0_
  6
CONTINUOUS
 62
    7
 10
499.45115994015129
 20
94.913441288363629
 11
499.45115994015129
 21
95.571797328740558
  0
LINE
  8
_1-0_
  6
CONTINUOUS
 62
    7
 10
498.7011753914723
 20
46.818758644938725
 11
498.7011753914723
 21
48.414678746184336
  0
LINE
  8
_1-0_
  6
CONTINUOUS
 62
    7
 10
500.30117539147244
 20
46.752091978272119
 11
500.30117539147244
 21
46.852178746184336
  0
LINE
  8
_1-0_
  6
CONTINUOUS
 62
    7
 10
498.80117539147244
 20
48.414678746184336
 11
498.7011753914723
 21
48.414678746184336
  0
LINE
  8
_1-0_
  6
CONTINUOUS
 62
    7
 10
500.30117539147267
 20
46.752091978272119
 11
498.7011753914723
 21
46.818758644938725
  0
ARC
  8
_1-0_
  6
CONTINUOUS
 62
    7
 10
500.2011753914723
 20
48.257560163621974
 40
0.75
 50
180
 51
267.6140559696114
  0
LINE
  8
_1-0_
  6
CONTINUOUS
 62
    7
 10
498.7011753914723
 20
59.510598847429947
 11
498.7011753914723
 21
57.914678746184563
  0
LINE
  8
_1-0_
  6
CONTINUOUS
 62
    7
 10
500.30117539147221
 20
59.577265514096553
 11
500.30117539147221
 21
59.477178746184563
  0
LINE
  8
_1-0_
  6
CONTINUOUS
 62
    7
 10
498.80117539147221
 20
57.914678746184563
 11
498.7011753914723
 21
57.914678746184563
  0
LINE
  8
_1-0_
  6
CONTINUOUS
 62
    7
 10
500.30117539147267
 20
59.577265514096553
 11
498.7011753914723
 21
59.510598847429947
  0
ARC
  8
_1-0_
  6
CONTINUOUS
 62
    7
 10
500.2011753914723
 20
58.071797328746925
 40
0.75
 50
92.385944030388643
 51
180.00000000000006
  0
LINE
  8
_1-0_
  6
CONTINUOUS
 62
    7
 10
501.30117539147244
 20
50.084551727264397
 11
501.30117539147244
 21
56.244805765102683
  0
LINE
  8
_1-0_
  6
CONTINUOUS
 62
    7
 10
501.9511753914723
 20
49.585789185078511
 11
501.9511753914723
 21
56.743568307288115
  0
LINE
  8
_1-0_
  6
CONTINUOUS
 62
    7
 10
501.30117539147244
 20
50.084551727264397
 11
498.80117539147221
 21
49.414678746184336
  0
LINE
  8
_1-0_
  6
CONTINUOUS
 62
    7
 10
499.4511753914723
 20
48.915916203998449
 11
501.95117539147253
 21
49.585789185078511
  0
LINE
  8
_1-0_
  6
CONTINUOUS
 62
    7
 10
501.30117539147244
 20
56.244805765102456
 11
498.80117539147244
 21
56.914678746184336
  0
LINE
  8
_1-0_
  6
CONTINUOUS
 62
    7
 10
499.4511753914723
 20
57.413441288369995
 11
501.9511753914723
 21
56.743568307288115
  0
LINE
  8
_1-0_
  6
CONTINUOUS
 62
    7
 10
498.80117539147244
 20
48.414678746184563
 11
498.80117539147244
 21
49.414678746184563
  0
LINE
  8
_1-0_
  6
CONTINUOUS
 62
    7
 10
498.80117539147244
 20
56.914678746184336
 11
498.80117539147244
 21
57.914678746184336
  0
LINE
  8
_1-0_
  6
CONTINUOUS
 62
    7
 10
499.4511753914723
 20
48.257560163621974
 11
499.4511753914723
 21
48.915916203998449
  0
LINE
  8
_1-0_
  6
CONTINUOUS
 62
    7
 10
499.4511753914723
 20
57.413441288369995
 11
499.4511753914723
 21
58.071797328746925
  0
LINE
  8
_1-0_
  6
CONTINUOUS
 62
    7
 10
498.70119084279344
 20
9.3187586449450919
 11
498.70119084279344
 21
10.914678746190702
  0
LINE
  8
_1-0_
  6
CONTINUOUS
 62
    7
 10
500.30119084279357
 20
9.2520919782784858
 11
500.30119084279357
 21
9.3521787461907024
  0
LINE
  8
_1-0_
  6
CONTINUOUS
 62
    7
 10
498.80119084279357
 20
10.914678746190702
 11
498.70119084279344
 21
10.914678746190702
  0
LINE
  8
_1-0_
  6
CONTINUOUS
 62
    7
 10
500.3011908427938
 20
9.2520919782784858
 11
498.70119084279344
 21
9.3187586449450919
  0
ARC
  8
_1-0_
  6
CONTINUOUS
 62
    7
 10
500.20119084279344
 20
10.757560163628341
 40
0.75
 50
180
 51
267.6140559696114
  0
LINE
  8
_1-0_
  6
CONTINUOUS
 62
    7
 10
498.70119084279344
 20
22.010598847436313
 11
498.70119084279344
 21
20.41467874619093
  0
LINE
  8
_1-0_
  6
CONTINUOUS
 62
    7
 10
500.30119084279335
 20
22.077265514102919
 11
500.30119084279335
 21
21.97717874619093
  0
LINE
  8
_1-0_
  6
CONTINUOUS
 62
    7
 10
498.80119084279335
 20
20.41467874619093
 11
498.70119084279344
 21
20.41467874619093
  0
LINE
  8
_1-0_
  6
CONTINUOUS
 62
    7
 10
500.3011908427938
 20
22.077265514102919
 11
498.70119084279344
 21
22.010598847436313
  0
ARC
  8
_1-0_
  6
CONTINUOUS
 62
    7
 10
500.20119084279344
 20
20.571797328753291
 40
0.75
 50
92.385944030388643
 51
180.00000000000006
  0
LINE
  8
_1-0_
  6
CONTINUOUS
 62
    7
 10
501.30119084279357
 20
12.584551727270764
 11
501.30119084279357
 21
18.744805765109049
  0
LINE
  8
_1-0_
  6
CONTINUOUS
 62
    7
 10
501.95119084279344
 20
12.085789185084877
 11
501.95119084279344
 21
19.243568307294481
  0
LINE
  8
_1-0_
  6
CONTINUOUS
 62
    7
 10
501.30119084279357
 20
12.584551727270764
 11
498.80119084279335
 21
11.914678746190702
  0
LINE
  8
_1-0_
  6
CONTINUOUS
 62
    7
 10
499.45119084279344
 20
11.415916204004816
 11
501.95119084279366
 21
12.085789185084877
  0
LINE
  8
_1-0_
  6
CONTINUOUS
 62
    7
 10
501.30119084279357
 20
18.744805765108822
 11
498.80119084279357
 21
19.414678746190702
  0
LINE
  8
_1-0_
  6
CONTINUOUS
 62
    7
 10
499.45119084279344
 20
19.913441288376362
 11
501.95119084279344
 21
19.243568307294481
  0
LINE
  8
_1-0_
  6
CONTINUOUS
 62
    7
 10
498.80119084279357
 20
10.91467874619093
 11
498.80119084279357
 21
11.91467874619093
  0
LINE
  8
_1-0_
  6
CONTINUOUS
 62
    7
 10
498.80119084279357
 20
19.414678746190702
 11
498.80119084279357
 21
20.414678746190702
  0
LINE
  8
_1-0_
  6
CONTINUOUS
 62
    7
 10
499.45119084279344
 20
10.757560163628341
 11
499.45119084279344
 21
11.415916204004816
  0
LINE
  8
_1-0_
  6
CONTINUOUS
 62
    7
 10
499.45119084279344
 20
19.913441288376362
 11
499.45119084279344
 21
20.571797328753291
  0
LINE
  8
_1-0_
  6
CONTINUOUS
 62
    7
 10
498.70120629411434
 20
-28.181241355048542
 11
498.70120629411434
 21
-26.585321253802931
  0
LINE
  8
_1-0_
  6
CONTINUOUS
 62
    7
 10
500.30120629411448
 20
-28.247908021715148
 11
500.30120629411448
 21
-28.147821253802931
  0
LINE
  8
_1-0_
  6
CONTINUOUS
 62
    7
 10
498.80120629411448
 20
-26.585321253802931
 11
498.70120629411434
 21
-26.585321253802931
  0
LINE
  8
_1-0_
  6
CONTINUOUS
 62
    7
 10
500.30120629411471
 20
-28.247908021715148
 11
498.70120629411434
 21
-28.181241355048542
  0
ARC
  8
_1-0_
  6
CONTINUOUS
 62
    7
 10
500.20120629411434
 20
-26.742439836365293
 40
0.75
 50
180
 51
267.6140559696114
  0
LINE
  8
_1-0_
  6
CONTINUOUS
 62
    7
 10
498.70120629411434
 20
-15.489401152557321
 11
498.70120629411434
 21
-17.085321253802704
  0
LINE
  8
_1-0_
  6
CONTINUOUS
 62
    7
 10
500.30120629411425
 20
-15.422734485890714
 11
500.30120629411425
 21
-15.522821253802704
  0
LINE
  8
_1-0_
  6
CONTINUOUS
 62
    7
 10
498.80120629411425
 20
-17.085321253802704
 11
498.70120629411434
 21
-17.085321253802704
  0
LINE
  8
_1-0_
  6
CONTINUOUS
 62
    7
 10
500.30120629411471
 20
-15.422734485890714
 11
498.70120629411434
 21
-15.489401152557321
  0
ARC
  8
_1-0_
  6
CONTINUOUS
 62
    7
 10
500.20120629411434
 20
-16.928202671240342
 40
0.75
 50
92.385944030388643
 51
180.00000000000006
  0
LINE
  8
_1-0_
  6
CONTINUOUS
 62
    7
 10
501.30120629411448
 20
-24.91544827272287
 11
501.30120629411448
 21
-18.755194234884584
  0
LINE
  8
_1-0_
  6
CONTINUOUS
 62
    7
 10
501.95120629411434
 20
-25.414210814908756
 11
501.95120629411434
 21
-18.256431692699152
  0
LINE
  8
_1-0_
  6
CONTINUOUS
 62
    7
 10
501.30120629411448
 20
-24.91544827272287
 11
498.80120629411425
 21
-25.585321253802931
  0
LINE
  8
_1-0_
  6
CONTINUOUS
 62
    7
 10
499.45120629411434
 20
-26.084083795988818
 11
501.95120629411457
 21
-25.414210814908756
  0
LINE
  8
_1-0_
  6
CONTINUOUS
 62
    7
 10
501.30120629411448
 20
-18.755194234884812
 11
498.80120629411448
 21
-18.085321253802931
  0
LINE
  8
_1-0_
  6
CONTINUOUS
 62
    7
 10
499.45120629411434
 20
-17.586558711617272
 11
501.95120629411434
 21
-18.256431692699152
  0
LINE
  8
_1-0_
  6
CONTINUOUS
 62
    7
 10
498.80120629411448
 20
-26.585321253802704
 11
498.80120629411448
 21
-25.585321253802704
  0
LINE
  8
_1-0_
  6
CONTINUOUS
 62
    7
 10
498.80120629411448
 20
-18.085321253802931
 11
498.80120629411448
 21
-17.085321253802931
  0
LINE
  8
_1-0_
  6
CONTINUOUS
 62
    7
 10
499.45120629411434
 20
-26.742439836365293
 11
499.45120629411434
 21
-26.084083795988818
  0
LINE
  8
_1-0_
  6
CONTINUOUS
 62
    7
 10
499.45120629411434
 20
-17.586558711617272
 11
499.45120629411434
 21
-16.928202671240342
  0
ENDSEC
  0
EOF
