  0
SECTION
  2
HEADER
  9
$ACADVER
  1
AC1009
  9
$INSBASE
 10
0
 20
0
 30
0
  9
$EXTMIN
 10
0
 20
0
  9
$EXTMAX
 10
594
 20
420
  9
$LIMMIN
 10
0
 20
0
  9
$LIMMAX
 10
594
 20
420
  9
$LTSCALE
 40
2
  0
ENDSEC
  0
SECTION
  2
TABLES
  0
TABLE
  2
LTYPE
 70
     9
  0
LTYPE
  2
CONTINUOUS
 70
    64
  3
実線
 72
    65
 73
     0
 40
0.0
  0
LTYPE
  2
DASHED1
 70
    64
  3
--  --  --  --  --  --  --  --  
 72
    65
 73
     2
 40
2.5
 49
1.25
 49
-1.25
  0
LTYPE
  2
DASHED2
 70
    64
  3
----    ----    ----    ----    
 72
    65
 73
     2
 40
5.0
 49
2.5
 49
-2.5
  0
LTYPE
  2
DASHED3
 70
    64
  3
------  ------  ------  ------  
 72
    65
 73
     2
 40
5.0
 49
3.75
 49
-1.25
  0
LTYPE
  2
CENTER1
 70
    64
  3
----- - ----- - ----- - ----- - 
 72
    65
 73
     4
 40
10.0
 49
6.25
 49
-1.25
 49
1.25
 49
-1.25
  0
LTYPE
  2
CENTER2
 70
    64
  3
----------  --  ----------  --  
 72
    65
 73
     4
 40
20.0
 49
12.5
 49
-2.5
 49
2.5
 49
-2.5
  0
LTYPE
  2
PHANTOM1
 70
    64
  3
--- - - --- - - --- - - --- - - 
 72
    65
 73
     6
 40
10.0
 49
3.25
 49
-1.25
 49
1.25
 49
-1.25
 49
1.25
 49
-1.25
  0
LTYPE
  2
PHANTOM2
 70
    64
  3
--------  -  -  --------  -  -  
 72
    65
 73
     6
 40
20.0
 49
10.0
 49
-2.5
 49
1.25
 49
-2.5
 49
1.25
 49
-2.5
  0
LTYPE
  2
DOT
 70
    64
  3
-   -   -   -   -   -   -   -   
 72
    65
 73
     2
 40
2.5
 49
0.625
 49
-1.875
  0
LTYPE
  2
DUMMY
 70
    64
  3
ダミー
 72
    65
 73
     0
 40
0.0
  0
LTYPE
  2
RAND1
 70
    64
  3
ランダム線1
 72
    65
 73
     4
 40
10.0
 49
1.0
 49
-2.0
 49
3.0
 49
-4.0
  0
LTYPE
  2
RAND2
 70
    64
  3
ランダム線2
 72
    65
 73
     4
 40
14.0
 49
2.0
 49
-3.0
 49
4.0
 49
-5.0
  0
LTYPE
  2
RAND3
 70
    64
  3
ランダム線3
 72
    65
 73
     4
 40
18.0
 49
3.0
 49
-4.0
 49
5.0
 49
-6.0
  0
LTYPE
  2
RAND4
 70
    64
  3
ランダム線4
 72
    65
 73
     4
 40
22.0
 49
4.0
 49
-5.0
 49
6.0
 49
-7.0
  0
LTYPE
  2
RAND5
 70
    64
  3
ランダム線5
 72
    65
 73
     4
 40
26.0
 49
5.0
 49
-6.0
 49
7.0
 49
-8.0
  0
LTYPE
  2
LONG1
 70
    64
  3
----------  --  ----------  --  
 72
    65
 73
     4
 40
40.0
 49
32.5
 49
-2.5
 49
2.5
 49
-2.5
  0
LTYPE
  2
LONG2
 70
    64
  3
--------  -  -  --------  -  -  
 72
    65
 73
     6
 40
40.0
 49
30.0
 49
-2.5
 49
1.25
 49
-2.5
 49
1.25
 49
-2.5
  0
LTYPE
  2
LONG3
 70
    64
  3
+++++++++++++++..+++++++++++++++
 72
    65
 73
     2
 40
40.0
 49
37.5
 49
-2.5
  0
LTYPE
  2
LONG4
 70
    64
  3
+++++++++++++++..+++++++++++++++
 72
    65
 73
     2
 40
80.0
 49
75.0
 49
-5.0
  0
LTYPE
  2
LONG5
 70
    64
  3
----------  --  ----------  --  
 72
    65
 73
     4
 40
60.0
 49
37.5
 49
-7.5
 49
7.5
 49
-7.5
  0
LTYPE
  2
dashed
 70
   64
  3
-------   -------------   ------
 72
   65
 73
    2
 40
7.5
 49
6
 49
-1.5
  0
LTYPE
  2
dashed_spaced
 70
   64
  3
----        --------        ----
 72
   65
 73
    2
 40
12
 49
6
 49
-6
  0
LTYPE
  2
long_dashed_dotted
 70
   64
  3
------------- --- --------------
 72
   65
 73
    4
 40
15.25
 49
12
 49
-1.5
 49
0.25
 49
-1.5
  0
LTYPE
  2
long_dashed_double-dotted
 70
   64
  3
----------- --- --- ------------
 72
   65
 73
    6
 40
17
 49
12
 49
-1.5
 49
0.25
 49
-1.5
 49
0.25
 49
-1.5
  0
LTYPE
  2
long_dashed_triplicate-dotted
 70
   64
  3
--------- --- --- --- ----------
 72
   65
 73
    8
 40
18.75
 49
12
 49
-1.5
 49
0.25
 49
-1.5
 49
0.25
 49
-1.5
 49
0.25
 49
-1.5
  0
LTYPE
  2
dotted
 70
   64
  3
   -       -       -       -    
 72
   65
 73
    2
 40
1.75
 49
0.25
 49
-1.5
  0
LTYPE
  2
chain
 70
   64
  3
-------------- -- --------------
 72
   65
 73
    4
 40
18.5
 49
12
 49
-1.5
 49
3.5
 49
-1.5
  0
LTYPE
  2
chain_double_dash
 70
   64
  3
------------ -- -- -------------
 72
   65
 73
    6
 40
23.5
 49
12
 49
-1.5
 49
3.5
 49
-1.5
 49
3.5
 49
-1.5
  0
LTYPE
  2
dashed_dotted
 70
   64
  3
-----------     -     ----------
 72
   65
 73
    4
 40
9.25
 49
6
 49
-1.5
 49
0.25
 49
-1.5
  0
LTYPE
  2
double-dashed_dotted
 70
   64
  3
------   -----------   -   -----
 72
   65
 73
    6
 40
16.75
 49
6
 49
-1.5
 49
6
 49
-1.5
 49
0.25
 49
-1.5
  0
LTYPE
  2
dashed_double-dotted
 70
   64
  3
---------    -    -    ---------
 72
   65
 73
    6
 40
11
 49
6
 49
-1.5
 49
0.25
 49
-1.5
 49
0.25
 49
-1.5
  0
LTYPE
  2
double-dashed_double-dotted
 70
   64
  3
-----   ---------   -   -   ----
 72
   65
 73
    8
 40
18.5
 49
6
 49
-1.5
 49
6
 49
-1.5
 49
0.25
 49
-1.5
 49
0.25
 49
-1.5
  0
LTYPE
  2
dashed_triplicate-dotted
 70
   64
  3
-------    -    -    -    ------
 72
   65
 73
    8
 40
12.75
 49
6
 49
-1.5
 49
0.25
 49
-1.5
 49
0.25
 49
-1.5
 49
0.25
 49
-1.5
  0
LTYPE
  2
double-dashed_triplicate-dotted
 70
   64
  3
-----  ---------  -  -  -  -----
 72
   65
 73
   10
 40
20.25
 49
6
 49
-1.5
 49
6
 49
-1.5
 49
0.25
 49
-1.5
 49
0.25
 49
-1.5
 49
0.25
 49
-1.5
  0
LTYPE
  2
undefined
 70
   64
  3
--------------------------------
 72
   65
 73
    0
 40
0
  0
ENDTAB
  0
TABLE
  2
STYLE
  5
3
100
AcDbSymbolTable
 70
     1
  0
STYLE
  5
10
100
AcDbSymbolTableRecord
100
AcDbTextStyleTableRecord
  2
STANDARD
 70
     0
 40
0.0
 41
1.0
 50
0.0
 71
     0
 42
0.2
  3
txt
  4
bigfont.shx
  0
STYLE
  5
26
100
AcDbSymbolTableRecord
100
AcDbTextStyleTableRecord
  2
TATEGAKI
 70
    68
 40
0.0
 41
1.0
 50
0.0
 71
     0
 42
1.0
  3
txt
  4
bigfont.shx
  0
ENDTAB
  0
TABLE
  2
LAYER
 70
    2
  0
LAYER
  2
_1-0_
 70
   64
 62
    7
  6
CONTINUOUS
  0
LAYER
  2
ADD_LINE
 70
   64
 62
    7
  6
CONTINUOUS
  0
ENDTAB
  0
ENDSEC
  0
SECTION
  2
BLOCKS
  0
ENDSEC
  0
SECTION
  2
ENTITIES
  0
LINE
  8
_1-0_
  6
CONTINUOUS
 62
    7
 10
265.21725267637828
 20
122.0546735773691
 11
518.29417575330137
 21
122.0546735773691
  0
LINE
  8
_1-0_
  6
CONTINUOUS
 62
    7
 10
513.21559325806811
 20
27.830118618002359
 11
513.21559325806811
 21
1.0551186180024956
  0
LINE
  8
_1-0_
  6
CONTINUOUS
 62
    3
 10
530.21559325806811
 20
27.830118618002359
 11
530.21559325806811
 21
1.0551186180024956
  0
LINE
  8
_1-0_
  6
CONTINUOUS
 62
    3
 10
547.21559325806811
 20
27.830118618002359
 11
547.21559325806811
 21
1.0551186180024956
  0
LINE
  8
_1-0_
  6
CONTINUOUS
 62
    3
 10
564.21559325806811
 20
27.830118618002359
 11
564.21559325806811
 21
1.0551186180024956
  0
LINE
  8
_1-0_
  6
CONTINUOUS
 62
    7
 10
479.41028285938324
 20
27.830118618002359
 11
479.41028285938324
 21
1.0551186180024956
  0
LINE
  8
_1-0_
  6
CONTINUOUS
 62
    3
 10
564.21559325806811
 20
27.830118618002359
 11
564.21559325806811
 21
1.0551186180024956
  0
LINE
  8
_1-0_
  6

 62
    3
 10
374.77440263680961
 20
-455.9810531355663
 11
374.77440263680961
 21
-377.19837713556626
  0
LINE
  8
_1-0_
  6

 62
    3
 10
374.77440263680961
 20
-327.19837813556614
 11
374.77440263680961
 21
-352.19837713556626
  0
LINE
  8
_1-0_
  6
CONTINUOUS
 62
    3
 10
326.27440363680961
 20
-327.19837813556614
 11
455.05707863680954
 21
-327.19837713556626
  0
LINE
  8
_1-0_
  6
CONTINUOUS
 62
    3
 10
326.27439963680962
 20
-456.4810431355661
 11
326.27439963680962
 21
-327.19837813556614
  0
LINE
  8
_1-0_
  6

 62
    3
 10
426.27440263680961
 20
-375.69837713556626
 11
455.05707863680954
 21
-375.69837713556626
  0
LINE
  8
_1-0_
  6
CONTINUOUS
 62
    7
 10
366.22066463680954
 20
-360.44837713556626
 11
361.32814163680956
 21
-360.44837713556626
  0
LINE
  8
_1-0_
  6
CONTINUOUS
 62
    7
 10
361.32814163680956
 20
-360.44837713556626
 11
358.87440263680963
 21
-364.69837713556626
  0
LINE
  8
_1-0_
  6
CONTINUOUS
 62
    7
 10
358.87440263680963
 20
-364.69837713556626
 11
361.32814163680956
 21
-368.94837713556626
  0
LINE
  8
_1-0_
  6
CONTINUOUS
 62
    7
 10
361.32814163680956
 20
-368.94837713556626
 11
366.22066463680954
 21
-368.94837713556626
  0
LINE
  8
_1-0_
  6
CONTINUOUS
 62
    7
 10
366.22066463680954
 20
-368.94837713556626
 11
368.67440263680959
 21
-364.69837713556626
  0
LINE
  8
_1-0_
  6
CONTINUOUS
 62
    7
 10
368.67440263680959
 20
-364.69837713556626
 11
366.22066463680954
 21
-360.44837713556626
  0
CIRCLE
  8
_1-0_
  6
CONTINUOUS
 62
    7
 10
363.77440263680961
 20
-364.69406013556613
 40
4.2456829999999997
  0
CIRCLE
  8
_1-0_
  6
CONTINUOUS
 62
    3
 10
363.77440263680961
 20
-364.69406013556613
 40
5.25
  0
LINE
  8
_1-0_
  6
CONTINUOUS
 62
    7
 10
411.32814163680956
 20
-360.44837713556626
 11
408.87440263680963
 21
-364.69837713556626
  0
LINE
  8
_1-0_
  6
CONTINUOUS
 62
    7
 10
416.22066463680954
 20
-360.44837713556626
 11
411.32814163680956
 21
-360.44837713556626
  0
LINE
  8
_1-0_
  6
CONTINUOUS
 62
    7
 10
418.67440263680959
 20
-364.69837713556626
 11
416.22066463680954
 21
-360.44837713556626
  0
LINE
  8
_1-0_
  6
CONTINUOUS
 62
    7
 10
416.22066463680954
 20
-368.94837713556626
 11
418.67440263680959
 21
-364.69837713556626
  0
LINE
  8
_1-0_
  6
CONTINUOUS
 62
    7
 10
411.32814163680956
 20
-368.94837713556626
 11
416.22066463680954
 21
-368.94837713556626
  0
LINE
  8
_1-0_
  6
CONTINUOUS
 62
    7
 10
408.87440263680963
 20
-364.69837713556626
 11
411.32814163680956
 21
-368.94837713556626
  0
CIRCLE
  8
_1-0_
  6
CONTINUOUS
 62
    7
 10
413.77440263680961
 20
-364.69406013556613
 40
4.2456829999999997
  0
CIRCLE
  8
_1-0_
  6
CONTINUOUS
 62
    3
 10
413.77440263680961
 20
-364.69406013556613
 40
5.25
  0
LINE
  8
_1-0_
  6

 62
    3
 10
327.77440263680961
 20
-327.19838013556614
 11
327.77440263680961
 21
-455.9810531355663
  0
LINE
  8
_1-0_
  6
CONTINUOUS
 62
    7
 10
386.32814163680956
 20
-360.44837713556626
 11
383.87440263680963
 21
-364.69837713556626
  0
LINE
  8
_1-0_
  6
CONTINUOUS
 62
    7
 10
391.22066463680954
 20
-360.44837713556626
 11
386.32814163680956
 21
-360.44837713556626
  0
LINE
  8
_1-0_
  6
CONTINUOUS
 62
    7
 10
393.67440263680959
 20
-364.69837713556626
 11
391.22066463680954
 21
-360.44837713556626
  0
LINE
  8
_1-0_
  6
CONTINUOUS
 62
    7
 10
391.22066463680954
 20
-368.94837713556626
 11
393.67440263680959
 21
-364.69837713556626
  0
LINE
  8
_1-0_
  6
CONTINUOUS
 62
    7
 10
386.32814163680956
 20
-368.94837713556626
 11
391.22066463680954
 21
-368.94837713556626
  0
LINE
  8
_1-0_
  6
CONTINUOUS
 62
    7
 10
383.87440263680963
 20
-364.69837713556626
 11
386.32814163680956
 21
-368.94837713556626
  0
CIRCLE
  8
_1-0_
  6
CONTINUOUS
 62
    7
 10
388.77440263680961
 20
-364.69406013556613
 40
4.2456829999999997
  0
LINE
  8
_1-0_
  6
CONTINUOUS
 62
    3
 10
426.27440263680961
 20
-352.19837713556626
 11
426.27440263680961
 21
-377.19837713556626
  0
LINE
  8
_1-0_
  6
CONTINUOUS
 62
    3
 10
412.02440263680961
 20
-441.69837713556626
 11
412.02440263680961
 21
-387.69837713556626
  0
ARC
  8
_1-0_
  6
CONTINUOUS
 62
    3
 10
406.52440263680961
 20
-441.69837713556626
 40
5.5
 50
270
 51
0
  0
LINE
  8
_1-0_
  6
CONTINUOUS
 62
    3
 10
406.52440263680961
 20
-447.19837713556626
 11
376.27440263680961
 21
-447.19837713556626
  0
LINE
  8
_1-0_
  6
CONTINUOUS
 62
    3
 10
415.52440263680961
 20
-441.69837713556626
 11
415.52440263680961
 21
-387.69837713556626
  0
ARC
  8
_1-0_
  6
CONTINUOUS
 62
    3
 10
421.02440263680961
 20
-441.69837713556626
 40
5.5
 50
180
 51
270
  0
LINE
  8
_1-0_
  6
CONTINUOUS
 62
    3
 10
421.02440263680961
 20
-447.19837713556626
 11
451.27440263680961
 21
-447.19837713556626
  0
ARC
  8
_1-0_
  6
CONTINUOUS
 62
    3
 10
406.52440263680961
 20
-387.69837713556626
 40
5.5
 50
0
 51
90
  0
LINE
  8
_1-0_
  6
CONTINUOUS
 62
    3
 10
406.52440263680961
 20
-382.19837713556626
 11
376.27440263680961
 21
-382.19837713556626
  0
LINE
  8
_1-0_
  6
CONTINUOUS
 62
    3
 10
421.02440263680961
 20
-382.19837713556626
 11
451.27440263680961
 21
-382.19837713556626
  0
ARC
  8
_1-0_
  6
CONTINUOUS
 62
    3
 10
421.02440263680961
 20
-387.69837713556626
 40
5.5
 50
90
 51
180
  0
LINE
  8
_1-0_
  6
CONTINUOUS
 62
    3
 10
451.27440263680961
 20
-452.19837713556626
 11
376.27440263680961
 21
-452.19837713556626
  0
LINE
  8
_1-0_
  6
CONTINUOUS
 62
    3
 10
451.27440263680961
 20
-377.19837713556626
 11
451.27440263680961
 21
-382.19837713556626
  0
LINE
  8
_1-0_
  6
CONTINUOUS
 62
    3
 10
451.27440263680961
 20
-447.19837713556626
 11
451.27440263680961
 21
-452.19837713556626
  0
LINE
  8
_1-0_
  6
CONTINUOUS
 62
    3
 10
351.27440263680961
 20
-352.19837713556626
 11
426.27440263680961
 21
-352.19837713556626
  0
LINE
  8
_1-0_
  6
CONTINUOUS
 62
    3
 10
351.27440263680961
 20
-377.19837713556626
 11
351.27440263680961
 21
-352.19837713556626
  0
LINE
  8
_1-0_
  6
CONTINUOUS
 62
    3
 10
351.27440263680961
 20
-377.19837713556626
 11
455.05707863680954
 21
-377.19837713556626
  0
LINE
  8
_1-0_
  6
CONTINUOUS
 62
    3
 10
376.27440263680961
 20
-377.19837713556626
 11
376.27440263680961
 21
-455.9810531355663
  0
LINE
  8
_1-0_
  6

 62
    3
 10
376.27440263680961
 20
-328.69837713556626
 11
455.05707863680954
 21
-328.69837713556626
  0
LINE
  8
_1-0_
  6
CONTINUOUS
 62
    3
 10
376.27440263680961
 20
-327.19837713556626
 11
376.27440263680961
 21
-352.19837713556626
  0
LINE
  8
_1-0_
  6
CONTINUOUS
 62
    3
 10
351.27440263680961
 20
-375.19837713556626
 11
426.27440263680961
 21
-375.19837713556626
  0
CIRCLE
  8
_1-0_
  6
CONTINUOUS
 62
    3
 10
388.77440263680961
 20
-364.69406013556613
 40
5.25
  0
CIRCLE
  8
_1-0_
  6
CONTINUOUS
 62
    2
 10
326.27440363680961
 20
-480.98105313556607
 40
0.2999999999999999
  0
CIRCLE
  8
_1-0_
  6
CONTINUOUS
 62
    2
 10
376.27440263680961
 20
-480.98105313556607
 40
0.2999999999999999
  0
LINE
  8
_1-0_
  6
CONTINUOUS
 62
    2
 10
376.27440263680961
 20
-457.9810531355663
 11
376.27440263680961
 21
-480.98105313556607
  0
LINE
  8
_1-0_
  6
CONTINUOUS
 62
    2
 10
376.27440263680961
 20
-480.98105313556607
 11
326.27440363680961
 21
-480.98105313556607
  0
CIRCLE
  8
_1-0_
  6
CONTINUOUS
 62
    2
 10
326.27440363680961
 20
-480.98105313556607
 40
0.2999999999999999
  0
LINE
  8
_1-0_
  6
CONTINUOUS
 62
    2
 10
326.27440363680961
 20
-457.9810531355663
 11
326.27440363680961
 21
-480.98105313556607
  0
LINE
  8
_1-0_
  6
CONTINUOUS
 62
    7
 10
333.34546739376816
 20
-327.19837808065927
 11
314.59545511339655
 21
-308.44836580028766
  0
LINE
  8
_1-0_
  6
CONTINUOUS
 62
    7
 10
326.27439963680962
 20
-334.26944594743168
 11
307.52439130153437
 21
-315.51943761215648
  0
LINE
  8
_1-0_
  6
CONTINUOUS
 62
    7
 10
314.59545511339655
 20
-308.44836580028766
 11
324.51155817192836
 21
-308.4483698860713
  0
LINE
  8
_1-0_
  6
CONTINUOUS
 62
    7
 10
336.01225588236815
 20
-308.4483746247638
 11
360.27440702687073
 21
-308.44838462162465
  0
LINE
  8
_1-0_
  6
CONTINUOUS
 62
    7
 10
373.51225588236179
 20
-308.44839007608471
 11
397.77440702687073
 21
-308.44840007294579
  0
LINE
  8
_1-0_
  6
CONTINUOUS
 62
    7
 10
411.01225588235542
 20
-308.44840552740584
 11
435.26190702687069
 21
-308.44841551911645
  0
LINE
  8
_1-0_
  6
CONTINUOUS
 62
    7
 10
448.49975588234901
 20
-308.4484209735765
 11
455.05707863680954
 21
-308.44842367542446
  0
LINE
  8
_1-0_
  6
CONTINUOUS
 62
    7
 10
307.52441042688787
 20
-336.93623038112037
 11
307.52442113951628
 21
-362.93553267067432
  0
LINE
  8
_1-0_
  6
CONTINUOUS
 62
    7
 10
307.52439130153437
 20
-315.51943761215648
 11
307.52439538731477
 21
-325.43553267068501
  0
LINE
  8
_1-0_
  6
CONTINUOUS
 62
    7
 10
307.52440012600687
 20
-336.93622944040794
 11
307.52440568819526
 21
-350.43553267068069
  0
LINE
  8
_1-0_
  6
CONTINUOUS
 62
    7
 10
307.52444647997021
 20
-449.43623038110559
 11
307.52444938268121
 21
-456.4810431355661
  0
LINE
  8
_1-0_
  6
CONTINUOUS
 62
    7
 10
307.52442587820889
 20
-374.436230381114
 11
307.52443659083741
 21
-400.43553267066795
  0
LINE
  8
_1-0_
  6
CONTINUOUS
 62
    7
 10
307.52444132953002
 20
-411.93623038110763
 11
307.5244513263911
 21
-436.19838152562738
  0
LINE
  8
_1-0_
  6
CONTINUOUS
 62
    3
 10
586.65995366208904
 20
-403.44838013556614
 11
586.34251666208888
 21
-403.13588013556614
  0
LINE
  8
_1-0_
  6
CONTINUOUS
 62
    3
 10
586.34251666208888
 20
-403.13588013556614
 11
586.24745466208901
 21
-403.13588013556614
  0
LINE
  8
_1-0_
  6
CONTINUOUS
 62
    3
 10
586.34251666208888
 20
-403.13588013556614
 11
586.24745466208901
 21
-402.88238146889967
  0
LINE
  8
_1-0_
  6
CONTINUOUS
 62
    3
 10
586.24745466208901
 20
-401.81438146889946
 11
586.74301666208908
 21
-403.13588013556614
  0
LINE
  8
_1-0_
  6
CONTINUOUS
 62
    3
 10
586.24745466208901
 20
-401.26088013556614
 11
586.57689166208888
 21
-401.26088013556614
  0
LINE
  8
_1-0_
  6
CONTINUOUS
 62
    3
 10
587.28001666208888
 20
-403.13588013556614
 11
586.74301666208908
 21
-403.13588013556614
  0
LINE
  8
_1-0_
  6
CONTINUOUS
 62
    3
 10
586.74301666208908
 20
-403.13588013556614
 11
586.65995366208904
 21
-403.44838013556614
  0
LINE
  8
_1-0_
  6
CONTINUOUS
 62
    3
 10
587.59745366208904
 20
-403.44838013556614
 11
587.28001666208888
 21
-403.13588013556614
  0
LINE
  8
_1-0_
  6
CONTINUOUS
 62
    3
 10
587.68051666208908
 20
-403.13588013556614
 11
587.59745366208904
 21
-403.44838013556614
  0
LINE
  8
_1-0_
  6
CONTINUOUS
 62
    3
 10
586.97739166208908
 20
-401.26088013556614
 11
587.68051666208908
 21
-403.13588013556614
  0
LINE
  8
_1-0_
  6
CONTINUOUS
 62
    3
 10
586.65995366208904
 20
-400.94838013556614
 11
586.97739166208908
 21
-401.26088013556614
  0
LINE
  8
_1-0_
  6
CONTINUOUS
 62
    3
 10
586.57689166208888
 20
-401.26088013556614
 11
586.65995366208904
 21
-400.94838013556614
  0
LINE
  8
_1-0_
  6
CONTINUOUS
 62
    3
 10
587.28001666208888
 20
-403.13588013556614
 11
586.57689166208888
 21
-401.26088013556614
  0
LINE
  8
_1-0_
  6
CONTINUOUS
 62
    3
 10
587.51439166208888
 20
-401.26088013556614
 11
587.59745366208904
 21
-400.94838013556614
  0
LINE
  8
_1-0_
  6
CONTINUOUS
 62
    3
 10
586.97739166208908
 20
-401.26088013556614
 11
587.51439166208888
 21
-401.26088013556614
  0
ARC
  8
_1-0_
  6
CONTINUOUS
 62
    3
 10
588.55876066208907
 20
-402.19838013556614
 40
4.9113049999999996
 50
153.95941400000001
 51
206.04058600000002
  0
LINE
  8
_1-0_
  6
CONTINUOUS
 62
    3
 10
585.24745466208901
 20
-404.28470513556613
 11
584.74745466208901
 21
-404.57338013556614
  0
LINE
  8
_1-0_
  6
CONTINUOUS
 62
    3
 10
584.74745466208901
 20
-399.82338013556614
 11
585.24745466208901
 21
-400.11205513556615
  0
LINE
  8
_1-0_
  6
CONTINUOUS
 62
    3
 10
584.74745466208901
 20
-404.57338013556614
 11
584.74745466208901
 21
-399.82338013556614
  0
LINE
  8
_1-0_
  6
CONTINUOUS
 62
    3
 10
584.14603466208905
 20
-404.35448113556617
 11
584.74745466208901
 21
-404.57338013556614
  0
LINE
  8
_1-0_
  6
CONTINUOUS
 62
    3
 10
584.14603466208905
 20
-400.0422791355661
 11
584.74745466208901
 21
-399.82338013556614
  0
LINE
  8
_1-0_
  6
CONTINUOUS
 62
    7
 10
585.24745466208901
 20
-400.82338013556614
 11
586.24745466208901
 21
-400.82338013556614
  0
LINE
  8
_1-0_
  6
CONTINUOUS
 62
    7
 10
585.24745466208878
 20
-403.57338013556614
 11
586.24745466208901
 21
-403.57338013556614
  0
LINE
  8
_1-0_
  6
CONTINUOUS
 62
    3
 10
588.21751666208888
 20
-403.13588013556614
 11
587.68051666208908
 21
-403.13588013556614
  0
LINE
  8
_1-0_
  6
CONTINUOUS
 62
    3
 10
586.65995366208904
 20
-400.94838013556614
 11
586.59745366208904
 21
-401.18351913556626
  0
LINE
  8
_1-0_
  6
CONTINUOUS
 62
    3
 10
587.28001666208888
 20
-403.13588013556614
 11
586.59745366208904
 21
-401.31571413556617
  0
LINE
  8
_1-0_
  6
CONTINUOUS
 62
    3
 10
587.59745366208904
 20
-403.44838013556614
 11
587.28001666208888
 21
-403.13588013556614
  0
LINE
  8
_1-0_
  6
CONTINUOUS
 62
    3
 10
587.68051666208908
 20
-403.13588013556614
 11
587.59745366208904
 21
-403.44838013556614
  0
LINE
  8
_1-0_
  6
CONTINUOUS
 62
    3
 10
586.97739166208908
 20
-401.26088013556614
 11
587.68051666208908
 21
-403.13588013556614
  0
LINE
  8
_1-0_
  6
CONTINUOUS
 62
    3
 10
586.65995366208904
 20
-400.94838013556614
 11
586.97739166208908
 21
-401.26088013556614
  0
LINE
  8
_1-0_
  6
CONTINUOUS
 62
    3
 10
589.15501666208888
 20
-403.13588013556614
 11
588.61801666208908
 21
-403.13588013556614
  0
LINE
  8
_1-0_
  6
CONTINUOUS
 62
    3
 10
588.53495366208904
 20
-403.44838013556614
 11
588.21751666208888
 21
-403.13588013556614
  0
LINE
  8
_1-0_
  6
CONTINUOUS
 62
    3
 10
588.61801666208908
 20
-403.13588013556614
 11
588.53495366208904
 21
-403.44838013556614
  0
LINE
  8
_1-0_
  6
CONTINUOUS
 62
    3
 10
587.91489166208908
 20
-401.26088013556614
 11
588.61801666208908
 21
-403.13588013556614
  0
LINE
  8
_1-0_
  6
CONTINUOUS
 62
    3
 10
587.59745366208904
 20
-400.94838013556614
 11
587.91489166208908
 21
-401.26088013556614
  0
LINE
  8
_1-0_
  6
CONTINUOUS
 62
    3
 10
587.51439166208888
 20
-401.26088013556614
 11
587.59745366208904
 21
-400.94838013556614
  0
LINE
  8
_1-0_
  6
CONTINUOUS
 62
    3
 10
588.21751666208888
 20
-403.13588013556614
 11
587.51439166208888
 21
-401.26088013556614
  0
LINE
  8
_1-0_
  6
CONTINUOUS
 62
    3
 10
590.09251666208888
 20
-403.13588013556614
 11
589.55551666208908
 21
-403.13588013556614
  0
LINE
  8
_1-0_
  6
CONTINUOUS
 62
    3
 10
589.47245366208904
 20
-403.44838013556614
 11
589.15501666208888
 21
-403.13588013556614
  0
LINE
  8
_1-0_
  6
CONTINUOUS
 62
    3
 10
589.55551666208908
 20
-403.13588013556614
 11
589.47245366208904
 21
-403.44838013556614
  0
LINE
  8
_1-0_
  6
CONTINUOUS
 62
    3
 10
588.85239166208908
 20
-401.26088013556614
 11
589.55551666208908
 21
-403.13588013556614
  0
LINE
  8
_1-0_
  6
CONTINUOUS
 62
    3
 10
588.53495366208904
 20
-400.94838013556614
 11
588.85239166208908
 21
-401.26088013556614
  0
LINE
  8
_1-0_
  6
CONTINUOUS
 62
    3
 10
588.45189166208888
 20
-401.26088013556614
 11
588.53495366208904
 21
-400.94838013556614
  0
LINE
  8
_1-0_
  6
CONTINUOUS
 62
    3
 10
589.15501666208888
 20
-403.13588013556614
 11
588.45189166208888
 21
-401.26088013556614
  0
LINE
  8
_1-0_
  6
CONTINUOUS
 62
    3
 10
589.78989166208908
 20
-401.26088013556614
 11
590.2474536620889
 21
-402.48104713556609
  0
LINE
  8
_1-0_
  6
CONTINUOUS
 62
    3
 10
590.09251666208888
 20
-403.13588013556614
 11
590.2474536620889
 21
-403.28840813556621
  0
LINE
  8
_1-0_
  6
CONTINUOUS
 62
    3
 10
589.47245366208904
 20
-400.94838013556614
 11
589.78989166208908
 21
-401.26088013556614
  0
LINE
  8
_1-0_
  6
CONTINUOUS
 62
    3
 10
589.38939166208888
 20
-401.26088013556614
 11
589.47245366208904
 21
-400.94838013556614
  0
LINE
  8
_1-0_
  6
CONTINUOUS
 62
    3
 10
590.09251666208888
 20
-403.13588013556614
 11
589.38939166208888
 21
-401.26088013556614
  0
LINE
  8
_1-0_
  6
CONTINUOUS
 62
    3
 10
589.78989166208908
 20
-401.26088013556614
 11
590.2474536620889
 21
-401.26088013556614
  0
LINE
  8
_1-0_
  6
CONTINUOUS
 62
    3
 10
588.85239166208908
 20
-401.26088013556614
 11
589.38939166208888
 21
-401.26088013556614
  0
LINE
  8
_1-0_
  6
CONTINUOUS
 62
    3
 10
587.91489166208908
 20
-401.26088013556614
 11
588.45189166208888
 21
-401.26088013556614
  0
LINE
  8
_1-0_
  6
CONTINUOUS
 62
    3
 10
586.97739166208908
 20
-401.26088013556614
 11
587.51439166208888
 21
-401.26088013556614
  0
LINE
  8
_1-0_
  6
CONTINUOUS
 62
    3
 10
663.99745766208889
 20
-323.61087713556617
 11
664.30995766208889
 21
-323.29344013556624
  0
LINE
  8
_1-0_
  6
CONTINUOUS
 62
    3
 10
664.30995766208889
 20
-323.29344013556624
 11
664.30995766208889
 21
-323.19837813556614
  0
LINE
  8
_1-0_
  6
CONTINUOUS
 62
    3
 10
664.30995766208889
 20
-323.29344013556624
 11
664.56345632875559
 21
-323.19837813556614
  0
LINE
  8
_1-0_
  6
CONTINUOUS
 62
    3
 10
665.6314563287558
 20
-323.19837813556614
 11
664.30995766208889
 21
-323.69394013556621
  0
LINE
  8
_1-0_
  6
CONTINUOUS
 62
    3
 10
666.18495766208889
 20
-323.19837813556614
 11
666.18495766208889
 21
-323.52781513556624
  0
LINE
  8
_1-0_
  6
CONTINUOUS
 62
    3
 10
664.30995766208889
 20
-324.23094013556624
 11
664.30995766208889
 21
-323.69394013556621
  0
LINE
  8
_1-0_
  6
CONTINUOUS
 62
    3
 10
664.30995766208889
 20
-323.69394013556621
 11
663.99745766208889
 21
-323.61087713556617
  0
LINE
  8
_1-0_
  6
CONTINUOUS
 62
    3
 10
663.99745766208889
 20
-324.54837713556617
 11
664.30995766208889
 21
-324.23094013556624
  0
LINE
  8
_1-0_
  6
CONTINUOUS
 62
    3
 10
664.30995766208889
 20
-324.63144013556621
 11
663.99745766208889
 21
-324.54837713556617
  0
LINE
  8
_1-0_
  6
CONTINUOUS
 62
    3
 10
666.18495766208889
 20
-323.92831513556621
 11
664.30995766208889
 21
-324.63144013556621
  0
LINE
  8
_1-0_
  6
CONTINUOUS
 62
    3
 10
666.49745766208889
 20
-323.61087713556617
 11
666.18495766208889
 21
-323.92831513556621
  0
LINE
  8
_1-0_
  6
CONTINUOUS
 62
    3
 10
666.18495766208889
 20
-323.52781513556624
 11
666.49745766208889
 21
-323.61087713556617
  0
LINE
  8
_1-0_
  6
CONTINUOUS
 62
    3
 10
664.30995766208889
 20
-324.23094013556624
 11
666.18495766208889
 21
-323.52781513556624
  0
LINE
  8
_1-0_
  6
CONTINUOUS
 62
    3
 10
666.18495766208889
 20
-324.46531513556624
 11
666.49745766208889
 21
-324.54837713556617
  0
LINE
  8
_1-0_
  6
CONTINUOUS
 62
    3
 10
666.18495766208889
 20
-323.92831513556621
 11
666.18495766208889
 21
-324.46531513556624
  0
ARC
  8
_1-0_
  6
CONTINUOUS
 62
    3
 10
665.24745766208889
 20
-325.5096841355662
 40
4.9113049999999996
 50
63.959414000000002
 51
116.040586
  0
LINE
  8
_1-0_
  6
CONTINUOUS
 62
    3
 10
663.1611326620889
 20
-322.19837813556614
 11
662.87245766208889
 21
-321.69837813556614
  0
LINE
  8
_1-0_
  6
CONTINUOUS
 62
    3
 10
667.62245766208889
 20
-321.69837813556614
 11
667.33378266208888
 21
-322.19837813556614
  0
LINE
  8
_1-0_
  6
CONTINUOUS
 62
    3
 10
662.87245766208889
 20
-321.69837813556614
 11
667.62245766208889
 21
-321.69837813556614
  0
LINE
  8
_1-0_
  6
CONTINUOUS
 62
    3
 10
663.09135666208886
 20
-321.09695813556618
 11
662.87245766208889
 21
-321.69837813556614
  0
LINE
  8
_1-0_
  6
CONTINUOUS
 62
    3
 10
667.40355866208893
 20
-321.09695813556618
 11
667.62245766208889
 21
-321.69837813556614
  0
ARC
  8
_1-0_
  6
CONTINUOUS
 62
    7
 10
669.07245766208871
 20
-326.8733781355661
 40
0.325
 50
180
 51
270
  0
ARC
  8
_1-0_
  6
CONTINUOUS
 62
    7
 10
669.07245766208871
 20
-326.8733781355661
 40
0.325
 50
90
 51
180
  0
LINE
  8
_1-0_
  6
CONTINUOUS
 62
    7
 10
675.24745766208889
 20
-304.79837813556605
 11
675.24745766208889
 21
-300.6983781355662
  0
LINE
  8
_1-0_
  6
CONTINUOUS
 62
    7
 10
675.24745766208889
 20
-312.84837813556624
 11
675.24745766208889
 21
-305.44837813556614
  0
LINE
  8
_1-0_
  6
CONTINUOUS
 62
    7
 10
675.99745766208889
 20
-305.44837813556614
 11
675.24745766208889
 21
-305.44837813556614
  0
LINE
  8
_1-0_
  6
CONTINUOUS
 62
    7
 10
675.99745766208889
 20
-304.79837813556605
 11
675.24745766208889
 21
-304.79837813556605
  0
LINE
  8
_1-0_
  6
CONTINUOUS
 62
    7
 10
672.0974576620888
 20
-322.19837813556614
 11
672.0974576620888
 21
-312.19837813556614
  0
LINE
  8
_1-0_
  6
CONTINUOUS
 62
    7
 10
672.0974576620888
 20
-326.54837813556605
 11
672.0974576620888
 21
-323.19837813556614
  0
LINE
  8
_1-0_
  6
CONTINUOUS
 62
    7
 10
674.5974576620888
 20
-312.19837813556614
 11
674.5974576620888
 21
-300.6983781355662
  0
LINE
  8
_1-0_
  6
CONTINUOUS
 62
    7
 10
665.24745766208889
 20
-323.19837813556614
 11
672.0974576620888
 21
-323.19837813556614
  0
LINE
  8
_1-0_
  6
CONTINUOUS
 62
    7
 10
665.24745766208889
 20
-322.19837813556614
 11
672.0974576620888
 21
-322.19837813556614
  0
LINE
  8
_1-0_
  6
CONTINUOUS
 62
    7
 10
675.24745766208889
 20
-312.84837813556624
 11
672.74745766208889
 21
-312.84837813556624
  0
LINE
  8
_1-0_
  6
CONTINUOUS
 62
    7
 10
672.0974576620888
 20
-312.19837813556614
 11
674.5974576620888
 21
-312.19837813556614
  0
LINE
  8
_1-0_
  6
CONTINUOUS
 62
    7
 10
672.74745766208889
 20
-327.19837813556614
 11
672.74745766208889
 21
-312.84837813556624
  0
LINE
  8
_1-0_
  6
CONTINUOUS
 62
    7
 10
672.0974576620888
 20
-326.54837813556605
 11
669.07245766208871
 21
-326.54837813556605
  0
LINE
  8
_1-0_
  6
CONTINUOUS
 62
    7
 10
675.99745766208889
 20
-304.79837813556605
 11
675.99745766208889
 21
-305.44837813556614
  0
LINE
  8
_1-0_
  6
CONTINUOUS
 62
    7
 10
675.24745766208889
 20
-300.6983781355662
 11
674.5974576620888
 21
-300.6983781355662
  0
LINE
  8
_1-0_
  6
CONTINUOUS
 62
    7
 10
672.74745766208889
 20
-327.19837813556614
 11
669.07245766208871
 21
-327.19837813556614
  0
ARC
  8
_1-0_
  6
CONTINUOUS
 62
    7
 10
661.42245766208885
 20
-326.8733781355661
 40
0.325
 50
270
 51
0
  0
ARC
  8
_1-0_
  6
CONTINUOUS
 62
    7
 10
661.42245766208885
 20
-326.8733781355661
 40
0.325
 50
0
 51
90
  0
LINE
  8
_1-0_
  6
CONTINUOUS
 62
    7
 10
655.24745766208889
 20
-304.79837813556605
 11
655.24745766208889
 21
-300.6983781355662
  0
LINE
  8
_1-0_
  6
CONTINUOUS
 62
    7
 10
655.24745766208889
 20
-312.84837813556624
 11
655.24745766208889
 21
-305.44837813556614
  0
LINE
  8
_1-0_
  6
CONTINUOUS
 62
    7
 10
654.49745766208889
 20
-305.44837813556614
 11
655.24745766208889
 21
-305.44837813556614
  0
LINE
  8
_1-0_
  6
CONTINUOUS
 62
    7
 10
654.49745766208889
 20
-304.79837813556605
 11
655.24745766208889
 21
-304.79837813556605
  0
LINE
  8
_1-0_
  6
CONTINUOUS
 62
    7
 10
658.39745766208875
 20
-322.19837813556614
 11
658.39745766208875
 21
-312.19837813556614
  0
LINE
  8
_1-0_
  6
CONTINUOUS
 62
    7
 10
658.39745766208875
 20
-326.54837813556605
 11
658.39745766208875
 21
-323.19837813556614
  0
LINE
  8
_1-0_
  6
CONTINUOUS
 62
    7
 10
655.89745766208875
 20
-312.19837813556614
 11
655.89745766208875
 21
-300.6983781355662
  0
LINE
  8
_1-0_
  6
CONTINUOUS
 62
    7
 10
665.24745766208889
 20
-323.19837813556614
 11
658.39745766208875
 21
-323.19837813556614
  0
LINE
  8
_1-0_
  6
CONTINUOUS
 62
    7
 10
665.24745766208889
 20
-322.19837813556614
 11
658.39745766208875
 21
-322.19837813556614
  0
LINE
  8
_1-0_
  6
CONTINUOUS
 62
    7
 10
655.24745766208889
 20
-312.84837813556624
 11
657.74745766208889
 21
-312.84837813556624
  0
LINE
  8
_1-0_
  6
CONTINUOUS
 62
    7
 10
658.39745766208875
 20
-312.19837813556614
 11
655.89745766208875
 21
-312.19837813556614
  0
LINE
  8
_1-0_
  6
CONTINUOUS
 62
    7
 10
657.74745766208889
 20
-327.19837813556614
 11
657.74745766208889
 21
-312.84837813556624
  0
LINE
  8
_1-0_
  6
CONTINUOUS
 62
    7
 10
658.39745766208875
 20
-326.54837813556605
 11
661.42245766208885
 21
-326.54837813556605
  0
LINE
  8
_1-0_
  6
CONTINUOUS
 62
    7
 10
654.49745766208889
 20
-304.79837813556605
 11
654.49745766208889
 21
-305.44837813556614
  0
LINE
  8
_1-0_
  6
CONTINUOUS
 62
    7
 10
655.24745766208889
 20
-300.6983781355662
 11
655.89745766208875
 21
-300.6983781355662
  0
LINE
  8
_1-0_
  6
CONTINUOUS
 62
    7
 10
657.74745766208889
 20
-327.19837813556614
 11
661.42245766208885
 21
-327.19837813556614
  0
LINE
  8
_1-0_
  6
CONTINUOUS
 62
    7
 10
674.5974576620888
 20
-308.44837813560753
 11
675.24745766208889
 21
-308.44837813560844
  0
LINE
  8
_1-0_
  6
CONTINUOUS
 62
    7
 10
655.24745766208889
 20
-308.44837813557729
 11
655.89745766208875
 21
-308.4483781355782
  0
LINE
  8
_1-0_
  6
CONTINUOUS
 62
    7
 10
674.5974576620888
 20
-305.59837813556351
 11
675.24745766208889
 21
-305.59837813556351
  0
LINE
  8
_1-0_
  6
CONTINUOUS
 62
    7
 10
655.24745766208889
 20
-305.59837813556351
 11
655.89745766208875
 21
-305.59837813556351
  0
LINE
  8
_1-0_
  6
CONTINUOUS
 62
    7
 10
666.62245766208889
 20
-322.19837813556614
 11
666.62245766208889
 21
-323.19837813556614
  0
LINE
  8
_1-0_
  6
CONTINUOUS
 62
    7
 10
663.87245766208889
 20
-322.19837813556614
 11
663.87245766208889
 21
-323.19837813556614
  0
ARC
  8
_1-0_
  6
CONTINUOUS
 62
    7
 10
589.92245466208897
 20
-398.37338013556632
 40
0.325
 50
270
 51
0
  0
ARC
  8
_1-0_
  6
CONTINUOUS
 62
    7
 10
589.92245466208897
 20
-398.37338013556632
 40
0.325
 50
180
 51
270
  0
LINE
  8
_1-0_
  6
CONTINUOUS
 62
    7
 10
567.84745466208892
 20
-392.19838013556614
 11
563.74745466208901
 21
-392.19838013556614
  0
LINE
  8
_1-0_
  6
CONTINUOUS
 62
    7
 10
575.89745466208888
 20
-392.19838013556614
 11
568.49745466208901
 21
-392.19838013556614
  0
LINE
  8
_1-0_
  6
CONTINUOUS
 62
    7
 10
568.49745466208901
 20
-391.44838013556614
 11
568.49745466208901
 21
-392.19838013556614
  0
LINE
  8
_1-0_
  6
CONTINUOUS
 62
    7
 10
567.84745466208892
 20
-391.44838013556614
 11
567.84745466208892
 21
-392.19838013556614
  0
LINE
  8
_1-0_
  6
CONTINUOUS
 62
    7
 10
585.24745466208901
 20
-395.34838013556623
 11
575.24745466208901
 21
-395.34838013556623
  0
LINE
  8
_1-0_
  6
CONTINUOUS
 62
    7
 10
589.59745466208892
 20
-395.34838013556623
 11
586.24745466208901
 21
-395.34838013556623
  0
LINE
  8
_1-0_
  6
CONTINUOUS
 62
    7
 10
575.24745466208901
 20
-392.84838013556623
 11
563.74745466208901
 21
-392.84838013556623
  0
LINE
  8
_1-0_
  6
CONTINUOUS
 62
    7
 10
586.24745466208901
 20
-402.19838013556614
 11
586.24745466208901
 21
-395.34838013556623
  0
LINE
  8
_1-0_
  6
CONTINUOUS
 62
    7
 10
585.24745466208901
 20
-402.19838013556614
 11
585.24745466208901
 21
-395.34838013556623
  0
LINE
  8
_1-0_
  6
CONTINUOUS
 62
    7
 10
575.89745466208888
 20
-392.19838013556614
 11
575.89745466208888
 21
-394.69838013556614
  0
LINE
  8
_1-0_
  6
CONTINUOUS
 62
    7
 10
575.24745466208901
 20
-395.34838013556623
 11
575.24745466208901
 21
-392.84838013556623
  0
LINE
  8
_1-0_
  6
CONTINUOUS
 62
    7
 10
590.24745466208901
 20
-394.69838013556614
 11
575.89745466208888
 21
-394.69838013556614
  0
LINE
  8
_1-0_
  6
CONTINUOUS
 62
    7
 10
589.59745466208892
 20
-395.34838013556623
 11
589.59745466208892
 21
-398.37338013556632
  0
LINE
  8
_1-0_
  6
CONTINUOUS
 62
    7
 10
567.84745466208892
 20
-391.44838013556614
 11
568.49745466208901
 21
-391.44838013556614
  0
LINE
  8
_1-0_
  6
CONTINUOUS
 62
    7
 10
563.74745466208901
 20
-392.19838013556614
 11
563.74745466208901
 21
-392.84838013556623
  0
LINE
  8
_1-0_
  6
CONTINUOUS
 62
    7
 10
590.24745466208901
 20
-394.69838013556614
 11
590.24745466208901
 21
-398.37338013556632
  0
ARC
  8
_1-0_
  6
CONTINUOUS
 62
    7
 10
589.92245466208897
 20
-406.02338013556619
 40
0.325
 50
0
 51
90
  0
ARC
  8
_1-0_
  6
CONTINUOUS
 62
    7
 10
589.92245466208897
 20
-406.02338013556619
 40
0.325
 50
90
 51
180
  0
LINE
  8
_1-0_
  6
CONTINUOUS
 62
    7
 10
567.84745466208892
 20
-412.19838013556614
 11
563.74745466208901
 21
-412.19838013556614
  0
LINE
  8
_1-0_
  6
CONTINUOUS
 62
    7
 10
575.89745466208888
 20
-412.19838013556614
 11
568.49745466208901
 21
-412.19838013556614
  0
LINE
  8
_1-0_
  6
CONTINUOUS
 62
    7
 10
568.49745466208901
 20
-412.94838013556614
 11
568.49745466208901
 21
-412.19838013556614
  0
LINE
  8
_1-0_
  6
CONTINUOUS
 62
    7
 10
567.84745466208892
 20
-412.94838013556614
 11
567.84745466208892
 21
-412.19838013556614
  0
LINE
  8
_1-0_
  6
CONTINUOUS
 62
    7
 10
585.24745466208901
 20
-409.04838013556628
 11
575.2474546620889
 21
-409.04838013556628
  0
LINE
  8
_1-0_
  6
CONTINUOUS
 62
    7
 10
589.59745466208892
 20
-409.04838013556628
 11
586.24745466208901
 21
-409.04838013556628
  0
LINE
  8
_1-0_
  6
CONTINUOUS
 62
    7
 10
575.2474546620889
 20
-411.54838013556628
 11
563.74745466208901
 21
-411.54838013556628
  0
LINE
  8
_1-0_
  6
CONTINUOUS
 62
    7
 10
586.24745466208901
 20
-402.19838013556614
 11
586.24745466208901
 21
-409.04838013556628
  0
LINE
  8
_1-0_
  6
CONTINUOUS
 62
    7
 10
585.24745466208901
 20
-402.19838013556614
 11
585.24745466208901
 21
-409.04838013556628
  0
LINE
  8
_1-0_
  6
CONTINUOUS
 62
    7
 10
575.89745466208888
 20
-412.19838013556614
 11
575.89745466208888
 21
-409.69838013556614
  0
LINE
  8
_1-0_
  6
CONTINUOUS
 62
    7
 10
575.2474546620889
 20
-409.04838013556628
 11
575.2474546620889
 21
-411.54838013556628
  0
LINE
  8
_1-0_
  6
CONTINUOUS
 62
    7
 10
590.24745466208901
 20
-409.69838013556614
 11
575.89745466208888
 21
-409.69838013556614
  0
LINE
  8
_1-0_
  6
CONTINUOUS
 62
    7
 10
589.59745466208892
 20
-409.04838013556628
 11
589.59745466208892
 21
-406.02338013556619
  0
LINE
  8
_1-0_
  6
CONTINUOUS
 62
    7
 10
567.84745466208892
 20
-412.94838013556614
 11
568.49745466208901
 21
-412.94838013556614
  0
LINE
  8
_1-0_
  6
CONTINUOUS
 62
    7
 10
563.74745466208901
 20
-412.19838013556614
 11
563.74745466208901
 21
-411.54838013556628
  0
LINE
  8
_1-0_
  6
CONTINUOUS
 62
    7
 10
590.24745466208901
 20
-409.69838013556614
 11
590.24745466208901
 21
-406.02338013556619
  0
LINE
  8
_1-0_
  6
CONTINUOUS
 62
    7
 10
571.49745466213028
 20
-392.84838013556623
 11
571.4974546621313
 21
-392.19838013556614
  0
LINE
  8
_1-0_
  6
CONTINUOUS
 62
    7
 10
571.49745466209993
 20
-412.19838013556614
 11
571.49745466210095
 21
-411.54838013556628
  0
LINE
  8
_1-0_
  6
CONTINUOUS
 62
    7
 10
568.64745466208615
 20
-392.84838013556623
 11
568.64745466208615
 21
-392.19838013556614
  0
LINE
  8
_1-0_
  6
CONTINUOUS
 62
    7
 10
568.64745466208615
 20
-412.19838013556614
 11
568.64745466208615
 21
-411.54838013556628
  0
LINE
  8
_1-0_
  6
CONTINUOUS
 62
    7
 10
585.24745466208901
 20
-400.82338013556614
 11
586.24745466208901
 21
-400.82338013556614
  0
LINE
  8
_1-0_
  6
CONTINUOUS
 62
    7
 10
585.2474546620889
 20
-403.57338013556614
 11
586.24745466208901
 21
-403.57338013556614
  0
LINE
  8
_1-0_
  6
CONTINUOUS
 62
    3
 10
664.30995766208889
 20
-325.16844013556624
 11
664.30995766208889
 21
-324.63144013556621
  0
LINE
  8
_1-0_
  6
CONTINUOUS
 62
    3
 10
666.49745766208889
 20
-323.61087713556617
 11
666.262318662089
 21
-323.54837713556617
  0
LINE
  8
_1-0_
  6
CONTINUOUS
 62
    3
 10
664.30995766208889
 20
-324.23094013556624
 11
666.13012366208886
 21
-323.54837713556617
  0
LINE
  8
_1-0_
  6
CONTINUOUS
 62
    3
 10
663.99745766208889
 20
-324.54837713556617
 11
664.30995766208889
 21
-324.23094013556624
  0
LINE
  8
_1-0_
  6
CONTINUOUS
 62
    3
 10
664.30995766208889
 20
-324.63144013556621
 11
663.99745766208889
 21
-324.54837713556617
  0
LINE
  8
_1-0_
  6
CONTINUOUS
 62
    3
 10
666.18495766208889
 20
-323.92831513556621
 11
664.30995766208889
 21
-324.63144013556621
  0
LINE
  8
_1-0_
  6
CONTINUOUS
 62
    3
 10
666.49745766208889
 20
-323.61087713556617
 11
666.18495766208889
 21
-323.92831513556621
  0
LINE
  8
_1-0_
  6
CONTINUOUS
 62
    3
 10
664.30995766208889
 20
-326.10594013556624
 11
664.30995766208889
 21
-325.56894013556621
  0
LINE
  8
_1-0_
  6
CONTINUOUS
 62
    3
 10
663.99745766208889
 20
-325.48587713556617
 11
664.30995766208889
 21
-325.16844013556624
  0
LINE
  8
_1-0_
  6
CONTINUOUS
 62
    3
 10
664.30995766208889
 20
-325.56894013556621
 11
663.99745766208889
 21
-325.48587713556617
  0
LINE
  8
_1-0_
  6
CONTINUOUS
 62
    3
 10
666.18495766208889
 20
-324.86581513556621
 11
664.30995766208889
 21
-325.56894013556621
  0
LINE
  8
_1-0_
  6
CONTINUOUS
 62
    3
 10
666.49745766208889
 20
-324.54837713556617
 11
666.18495766208889
 21
-324.86581513556621
  0
LINE
  8
_1-0_
  6
CONTINUOUS
 62
    3
 10
666.18495766208889
 20
-324.46531513556624
 11
666.49745766208889
 21
-324.54837713556617
  0
LINE
  8
_1-0_
  6
CONTINUOUS
 62
    3
 10
664.30995766208889
 20
-325.16844013556624
 11
666.18495766208889
 21
-324.46531513556624
  0
LINE
  8
_1-0_
  6
CONTINUOUS
 62
    3
 10
664.30995766208889
 20
-327.04344013556624
 11
664.30995766208889
 21
-326.50644013556621
  0
LINE
  8
_1-0_
  6
CONTINUOUS
 62
    3
 10
663.99745766208889
 20
-326.42337713556617
 11
664.30995766208889
 21
-326.10594013556624
  0
LINE
  8
_1-0_
  6
CONTINUOUS
 62
    3
 10
664.30995766208889
 20
-326.50644013556621
 11
663.99745766208889
 21
-326.42337713556617
  0
LINE
  8
_1-0_
  6
CONTINUOUS
 62
    3
 10
666.18495766208889
 20
-325.80331513556621
 11
664.30995766208889
 21
-326.50644013556621
  0
LINE
  8
_1-0_
  6
CONTINUOUS
 62
    3
 10
666.49745766208889
 20
-325.48587713556617
 11
666.18495766208889
 21
-325.80331513556621
  0
LINE
  8
_1-0_
  6
CONTINUOUS
 62
    3
 10
666.18495766208889
 20
-325.40281513556624
 11
666.49745766208889
 21
-325.48587713556617
  0
LINE
  8
_1-0_
  6
CONTINUOUS
 62
    3
 10
664.30995766208889
 20
-326.10594013556624
 11
666.18495766208889
 21
-325.40281513556624
  0
LINE
  8
_1-0_
  6
CONTINUOUS
 62
    3
 10
666.18495766208889
 20
-326.74081513556621
 11
664.96479066208894
 21
-327.19837713556626
  0
LINE
  8
_1-0_
  6
CONTINUOUS
 62
    3
 10
664.30995766208889
 20
-327.04344013556624
 11
664.15742966208904
 21
-327.19837713556626
  0
LINE
  8
_1-0_
  6
CONTINUOUS
 62
    3
 10
666.49745766208889
 20
-326.42337713556617
 11
666.18495766208889
 21
-326.74081513556621
  0
LINE
  8
_1-0_
  6
CONTINUOUS
 62
    3
 10
666.18495766208889
 20
-326.34031513556624
 11
666.49745766208889
 21
-326.42337713556617
  0
LINE
  8
_1-0_
  6
CONTINUOUS
 62
    3
 10
664.30995766208889
 20
-327.04344013556624
 11
666.18495766208889
 21
-326.34031513556624
  0
LINE
  8
_1-0_
  6
CONTINUOUS
 62
    3
 10
666.18495766208889
 20
-326.74081513556621
 11
666.18495766208889
 21
-327.19837713556626
  0
LINE
  8
_1-0_
  6
CONTINUOUS
 62
    3
 10
666.18495766208889
 20
-325.80331513556621
 11
666.18495766208889
 21
-326.34031513556624
  0
LINE
  8
_1-0_
  6
CONTINUOUS
 62
    3
 10
666.18495766208889
 20
-324.86581513556621
 11
666.18495766208889
 21
-325.40281513556624
  0
LINE
  8
_1-0_
  6
CONTINUOUS
 62
    3
 10
666.18495766208889
 20
-323.92831513556621
 11
666.18495766208889
 21
-324.46531513556624
  0
LINE
  8
_1-0_
  6

 62
    3
 10
665.24745766208889
 20
-329.69837713556626
 11
665.24745766208889
 21
-297.1983771355662
  0
LINE
  8
_1-0_
  6

 62
    3
 10
592.74745466208901
 20
-402.19838013556614
 11
560.24745466208901
 21
-402.19838013556614
  0
LINE
  8
_1-0_
  6

 62
    3
 10
638.74745766208889
 20
-455.9810531355663
 11
638.74745766208889
 21
-377.19837713556626
  0
LINE
  8
_1-0_
  6

 62
    3
 10
638.74745766208889
 20
-327.19837913556626
 11
638.74745766208889
 21
-352.19837713556626
  0
LINE
  8
_1-0_
  6
CONTINUOUS
 62
    3
 10
590.247458662089
 20
-327.19837813556614
 11
719.03013366208893
 21
-327.19837813556614
  0
LINE
  8
_1-0_
  6
CONTINUOUS
 62
    3
 10
590.24745466208901
 20
-456.48104313556632
 11
590.24745466208901
 21
-327.19837913556626
  0
LINE
  8
_1-0_
  6

 62
    3
 10
690.24745766208889
 20
-375.69837713556626
 11
719.03013366208893
 21
-375.69837713556626
  0
LINE
  8
_1-0_
  6
CONTINUOUS
 62
    3
 10
630.19371866208894
 20
-360.44837713556626
 11
625.30119566208896
 21
-360.44837713556626
  0
LINE
  8
_1-0_
  6
CONTINUOUS
 62
    3
 10
625.30119566208896
 20
-360.44837713556626
 11
622.84745766208903
 21
-364.69837713556626
  0
LINE
  8
_1-0_
  6
CONTINUOUS
 62
    3
 10
622.84745766208903
 20
-364.69837713556626
 11
625.30119566208896
 21
-368.94837713556626
  0
LINE
  8
_1-0_
  6
CONTINUOUS
 62
    3
 10
625.30119566208896
 20
-368.94837713556626
 11
630.19371866208894
 21
-368.94837713556626
  0
LINE
  8
_1-0_
  6
CONTINUOUS
 62
    3
 10
630.19371866208894
 20
-368.94837713556626
 11
632.64745766208898
 21
-364.69837713556626
  0
LINE
  8
_1-0_
  6
CONTINUOUS
 62
    3
 10
632.64745766208898
 20
-364.69837713556626
 11
630.19371866208894
 21
-360.44837713556626
  0
CIRCLE
  8
_1-0_
  6
CONTINUOUS
 62
    3
 10
627.74745766208889
 20
-364.69406013556613
 40
4.2456829999999997
  0
CIRCLE
  8
_1-0_
  6
CONTINUOUS
 62
    3
 10
627.74745766208889
 20
-364.69406013556613
 40
5.25
  0
LINE
  8
_1-0_
  6
CONTINUOUS
 62
    3
 10
675.30119566208896
 20
-360.44837713556626
 11
672.84745766208903
 21
-364.69837713556626
  0
LINE
  8
_1-0_
  6
CONTINUOUS
 62
    3
 10
680.19371866208894
 20
-360.44837713556626
 11
675.30119566208896
 21
-360.44837713556626
  0
LINE
  8
_1-0_
  6
CONTINUOUS
 62
    3
 10
682.64745766208898
 20
-364.69837713556626
 11
680.19371866208894
 21
-360.44837713556626
  0
LINE
  8
_1-0_
  6
CONTINUOUS
 62
    3
 10
680.19371866208894
 20
-368.94837713556626
 11
682.64745766208898
 21
-364.69837713556626
  0
LINE
  8
_1-0_
  6
CONTINUOUS
 62
    3
 10
675.30119566208896
 20
-368.94837713556626
 11
680.19371866208894
 21
-368.94837713556626
  0
LINE
  8
_1-0_
  6
CONTINUOUS
 62
    3
 10
672.84745766208903
 20
-364.69837713556626
 11
675.30119566208896
 21
-368.94837713556626
  0
CIRCLE
  8
_1-0_
  6
CONTINUOUS
 62
    3
 10
677.74745766208889
 20
-364.69406013556613
 40
4.2456829999999997
  0
CIRCLE
  8
_1-0_
  6
CONTINUOUS
 62
    3
 10
677.74745766208889
 20
-364.69406013556613
 40
5.25
  0
LINE
  8
_1-0_
  6

 62
    3
 10
591.74745766208889
 20
-327.19838113556625
 11
591.74745766208889
 21
-455.9810531355663
  0
LINE
  8
_1-0_
  6
CONTINUOUS
 62
    3
 10
650.30119566208896
 20
-360.44837713556626
 11
647.84745766208903
 21
-364.69837713556626
  0
LINE
  8
_1-0_
  6
CONTINUOUS
 62
    3
 10
655.19371866208894
 20
-360.44837713556626
 11
650.30119566208896
 21
-360.44837713556626
  0
LINE
  8
_1-0_
  6
CONTINUOUS
 62
    3
 10
657.64745766208898
 20
-364.69837713556626
 11
655.19371866208894
 21
-360.44837713556626
  0
LINE
  8
_1-0_
  6
CONTINUOUS
 62
    3
 10
655.19371866208894
 20
-368.94837713556626
 11
657.64745766208898
 21
-364.69837713556626
  0
LINE
  8
_1-0_
  6
CONTINUOUS
 62
    3
 10
650.30119566208896
 20
-368.94837713556626
 11
655.19371866208894
 21
-368.94837713556626
  0
LINE
  8
_1-0_
  6
CONTINUOUS
 62
    3
 10
647.84745766208903
 20
-364.69837713556626
 11
650.30119566208896
 21
-368.94837713556626
  0
CIRCLE
  8
_1-0_
  6
CONTINUOUS
 62
    3
 10
652.74745766208889
 20
-364.69406013556613
 40
4.2456829999999997
  0
LINE
  8
_1-0_
  6
CONTINUOUS
 62
    3
 10
690.24745766208889
 20
-352.19837713556626
 11
690.24745766208889
 21
-377.19837713556626
  0
LINE
  8
_1-0_
  6
CONTINUOUS
 62
    3
 10
675.99745766208889
 20
-441.69837713556626
 11
675.99745766208889
 21
-387.69837713556626
  0
ARC
  8
_1-0_
  6
CONTINUOUS
 62
    3
 10
670.49745766208889
 20
-441.69837713556626
 40
5.5
 50
270
 51
0
  0
LINE
  8
_1-0_
  6
CONTINUOUS
 62
    3
 10
670.49745766208889
 20
-447.19837713556626
 11
640.24745766208889
 21
-447.19837713556626
  0
LINE
  8
_1-0_
  6
CONTINUOUS
 62
    3
 10
679.49745766208889
 20
-441.69837713556626
 11
679.49745766208889
 21
-387.69837713556626
  0
ARC
  8
_1-0_
  6
CONTINUOUS
 62
    3
 10
684.99745766208889
 20
-441.69837713556626
 40
5.5
 50
180
 51
270
  0
LINE
  8
_1-0_
  6
CONTINUOUS
 62
    3
 10
684.99745766208889
 20
-447.19837713556626
 11
715.24745766208889
 21
-447.19837713556626
  0
ARC
  8
_1-0_
  6
CONTINUOUS
 62
    3
 10
670.49745766208889
 20
-387.69837713556626
 40
5.5
 50
0
 51
90
  0
LINE
  8
_1-0_
  6
CONTINUOUS
 62
    3
 10
670.49745766208889
 20
-382.19837713556626
 11
640.24745766208889
 21
-382.19837713556626
  0
LINE
  8
_1-0_
  6
CONTINUOUS
 62
    3
 10
684.99745766208889
 20
-382.19837713556626
 11
715.24745766208889
 21
-382.19837713556626
  0
ARC
  8
_1-0_
  6
CONTINUOUS
 62
    3
 10
684.99745766208889
 20
-387.69837713556626
 40
5.5
 50
90
 51
180
  0
LINE
  8
_1-0_
  6
CONTINUOUS
 62
    3
 10
715.24745766208889
 20
-452.19837713556626
 11
640.24745766208889
 21
-452.19837713556626
  0
LINE
  8
_1-0_
  6
CONTINUOUS
 62
    3
 10
715.24745766208889
 20
-377.19837713556626
 11
715.24745766208889
 21
-382.19837713556626
  0
LINE
  8
_1-0_
  6
CONTINUOUS
 62
    3
 10
715.24745766208889
 20
-447.19837713556626
 11
715.24745766208889
 21
-452.19837713556626
  0
LINE
  8
_1-0_
  6
CONTINUOUS
 62
    3
 10
615.24745766208889
 20
-352.19837713556626
 11
690.24745766208889
 21
-352.19837713556626
  0
LINE
  8
_1-0_
  6
CONTINUOUS
 62
    3
 10
615.24745766208889
 20
-377.19837713556626
 11
615.24745766208889
 21
-352.19837713556626
  0
LINE
  8
_1-0_
  6
CONTINUOUS
 62
    3
 10
615.24745766208889
 20
-377.19837713556626
 11
719.03013366208893
 21
-377.19837713556626
  0
LINE
  8
_1-0_
  6
CONTINUOUS
 62
    3
 10
640.24745766208889
 20
-377.19837713556626
 11
640.24745766208889
 21
-455.9810531355663
  0
LINE
  8
_1-0_
  6

 62
    3
 10
640.24745766208889
 20
-328.69837713556626
 11
719.03013366208893
 21
-328.69837713556626
  0
LINE
  8
_1-0_
  6
CONTINUOUS
 62
    3
 10
640.24745766208889
 20
-327.19837713556626
 11
640.24745766208889
 21
-352.19837713556626
  0
LINE
  8
_1-0_
  6
CONTINUOUS
 62
    3
 10
615.24745766208889
 20
-375.19837713556626
 11
690.24745766208889
 21
-375.19837713556626
  0
CIRCLE
  8
_1-0_
  6
CONTINUOUS
 62
    3
 10
652.74745766208889
 20
-364.69406013556613
 40
5.25
  0
CIRCLE
  8
_1-0_
  6
CONTINUOUS
 62
    3
 10
590.247458662089
 20
-480.9810531355663
 40
0.2999999999999999
  0
CIRCLE
  8
_1-0_
  6
CONTINUOUS
 62
    3
 10
640.24745766208889
 20
-480.9810531355663
 40
0.2999999999999999
  0
LINE
  8
_1-0_
  6
CONTINUOUS
 62
    3
 10
640.24745766208889
 20
-457.9810531355663
 11
640.24745766208889
 21
-480.9810531355663
  0
CIRCLE
  8
_1-0_
  6
CONTINUOUS
 62
    3
 10
590.247458662089
 20
-480.9810531355663
 40
0.2999999999999999
  0
LINE
  8
_1-0_
  6
CONTINUOUS
 62
    3
 10
590.247458662089
 20
-457.9810531355663
 11
590.247458662089
 21
-480.9810531355663
  0
LINE
  8
_1-0_
  6
CONTINUOUS
 62
    3
 10
578.56852547395442
 20
-308.44838213556613
 11
734.74745766208889
 21
-308.44838213556613
  0
LINE
  8
_1-0_
  6
CONTINUOUS
 62
    3
 10
571.497458662089
 20
-456.48104313556632
 11
571.497458662089
 21
-315.51945094743178
  0
LINE
  8
_1-0_
  6
CONTINUOUS
 62
    7
 10
467.20415982259334
 20
-41.981829066370267
 11
488.80700766019919
 21
-20.378981228764417
  0
LINE
  8
_1-0_
  6
CONTINUOUS
 62
    7
 10
487.64151816972031
 20
-130.71084885398824
 11
487.64152888234872
 21
-156.71015114354219
  0
LINE
  8
_1-0_
  6
CONTINUOUS
 62
    7
 10
487.64150271839929
 20
-93.210848853994605
 11
487.64151343102782
 21
-119.21015114354856
  0
LINE
  8
_1-0_
  6
CONTINUOUS
 62
    7
 10
487.64148726707828
 20
-55.710848854000972
 11
487.64149797970668
 21
-81.710151143554924
  0
LINE
  8
_1-0_
  6
CONTINUOUS
 62
    7
 10
487.64148047699467
 20
-39.23147238126154
 11
487.64148252838567
 21
-44.210151143561291
  0
LINE
  8
_1-0_
  6
CONTINUOUS
 62
    7
 10
488.80700766019919
 20
-20.378981228764417
 11
511.46767993481154
 21
-20.378981228764417
  0
LINE
  8
_1-0_
  6
CONTINUOUS
 62
    3
 10
509.89159647699313
 20
-67.108617671953937
 11
552.89159647699307
 21
-67.108617671953937
  0
ARC
  8
_1-0_
  6
CONTINUOUS
 62
    3
 10
552.89159647699307
 20
-69.608617671953937
 40
2.5
 50
0
 51
90
  0
ARC
  8
_1-0_
  6
CONTINUOUS
 62
    3
 10
509.89159647699313
 20
-69.608617671953937
 40
2.5
 50
90
 51
180
  0
LINE
  8
_1-0_
  6
CONTINUOUS
 62
    3
 10
516.39159647699307
 20
-91.108617671953937
 11
516.39159647699307
 21
-90.108617671953937
  0
LINE
  8
_1-0_
  6
CONTINUOUS
 62
    3
 10
516.39159647699307
 20
-91.108617671953937
 11
509.89159647699313
 21
-91.108617671953937
  0
LINE
  8
_1-0_
  6
CONTINUOUS
 62
    3
 10
506.39159647699313
 20
-69.608617671953937
 11
506.39159647699313
 21
-87.608617671953937
  0
ARC
  8
_1-0_
  6
CONTINUOUS
 62
    3
 10
509.89159647699313
 20
-87.608617671953937
 40
3.5
 50
180
 51
270
  0
ARC
  8
_1-0_
  6
CONTINUOUS
 62
    3
 10
552.89159647699307
 20
-69.608617671953937
 40
3.5
 50
0
 51
90
  0
LINE
  8
_1-0_
  6
CONTINUOUS
 62
    3
 10
556.39159647699307
 20
-69.608617671953937
 11
556.39159647699307
 21
-87.608617671953937
  0
ARC
  8
_1-0_
  6
CONTINUOUS
 62
    3
 10
552.89159647699307
 20
-87.608617671953937
 40
3.5
 50
270
 51
0
  0
LINE
  8
_1-0_
  6
CONTINUOUS
 62
    3
 10
546.39159647699307
 20
-91.108617671953937
 11
552.89159647699307
 21
-91.108617671953937
  0
LINE
  8
_1-0_
  6
CONTINUOUS
 62
    3
 10
546.39159647699307
 20
-90.108617671953937
 11
546.39159647699307
 21
-91.108617671953937
  0
LINE
  8
_1-0_
  6
CONTINUOUS
 62
    3
 10
546.39159647699307
 20
-90.108617671953937
 11
552.89159647699307
 21
-90.108617671953937
  0
ARC
  8
_1-0_
  6
CONTINUOUS
 62
    3
 10
552.89159647699307
 20
-87.608617671953937
 40
2.5
 50
270
 51
0
  0
LINE
  8
_1-0_
  6
CONTINUOUS
 62
    3
 10
555.39159647699307
 20
-87.608617671953937
 11
555.39159647699307
 21
-69.608617671953937
  0
LINE
  8
_1-0_
  6
CONTINUOUS
 62
    3
 10
507.39159647699313
 20
-69.608617671953937
 11
507.39159647699313
 21
-87.608617671953937
  0
ARC
  8
_1-0_
  6
CONTINUOUS
 62
    3
 10
509.89159647699313
 20
-87.608617671953937
 40
2.5
 50
180
 51
270
  0
LINE
  8
_1-0_
  6
CONTINUOUS
 62
    3
 10
516.39159647699307
 20
-90.108617671953937
 11
509.89159647699313
 21
-90.108617671953937
  0
ARC
  8
_1-0_
  6
CONTINUOUS
 62
    3
 10
509.89159647699313
 20
-69.608617671953937
 40
3.5
 50
90
 51
180
  0
LINE
  8
_1-0_
  6
CONTINUOUS
 62
    3
 10
509.89159647699313
 20
-66.108617671953937
 11
552.89159647699307
 21
-66.108617671953937
  0
LINE
  8
_1-0_
  6
CONTINUOUS
 62
    3
 10
561.39159647699307
 20
-66.108617671953937
 11
552.89159647699307
 21
-66.108617671953937
  0
ARC
  8
_1-0_
  6
CONTINUOUS
 62
    3
 10
537.89159647699307
 20
-65.608617671953937
 40
1.5
 50
90
 51
180
  0
LINE
  8
_1-0_
  6
CONTINUOUS
 62
    3
 10
536.39159647699307
 20
-66.108617671953937
 11
536.39159647699307
 21
-65.608617671953937
  0
ARC
  8
_1-0_
  6
CONTINUOUS
 62
    3
 10
560.89159647699307
 20
-42.608617671953937
 40
1.5
 50
90
 51
180
  0
LINE
  8
_1-0_
  6
CONTINUOUS
 62
    3
 10
559.39159647699307
 20
-60.858617671953937
 11
559.39159647699307
 21
-42.608617671953937
  0
LINE
  8
_1-0_
  6
CONTINUOUS
 62
    3
 10
556.14159647699307
 20
-64.108617671953937
 11
537.89159647699307
 21
-64.108617671953937
  0
ARC
  8
_1-0_
  6
CONTINUOUS
 62
    3
 10
556.14159647699307
 20
-60.858617671953937
 40
3.25
 50
270
 51
0
  0
LINE
  8
_1-0_
  6
CONTINUOUS
 62
    3
 10
561.39159647699307
 20
-41.108617671953937
 11
560.89159647699307
 21
-41.108617671953937
  0
LINE
  8
_1-0_
  6
CONTINUOUS
 62
    3
 10
510.62126347699308
 20
-77.671117671953937
 11
511.32438847699308
 21
-79.546117671953937
  0
LINE
  8
_1-0_
  6
CONTINUOUS
 62
    3
 10
510.30382547699315
 20
-77.358617671953937
 11
510.62126347699308
 21
-77.671117671953937
  0
LINE
  8
_1-0_
  6
CONTINUOUS
 62
    3
 10
510.22076347699311
 20
-77.671117671953937
 11
510.30382547699315
 21
-77.358617671953937
  0
LINE
  8
_1-0_
  6
CONTINUOUS
 62
    3
 10
510.92388847699311
 20
-79.546117671953937
 11
510.22076347699311
 21
-77.671117671953937
  0
LINE
  8
_1-0_
  6

 62
    3
 10
501.74132547699315
 20
-80.694942671953925
 11
501.24132547699315
 21
-80.983617671953937
  0
LINE
  8
_1-0_
  6

 62
    3
 10
501.24132547699315
 20
-76.233617671953937
 11
501.74132547699315
 21
-76.522292671953949
  0
LINE
  8
_1-0_
  6
CONTINUOUS
 62
    3
 10
514.2413254769931
 20
-78.608617671953937
 11
511.24132547699315
 21
-77.671117671953937
  0
LINE
  8
_1-0_
  6
CONTINUOUS
 62
    3
 10
513.3038254769931
 20
-77.671117671953937
 11
511.24132547699315
 21
-77.671117671953937
  0
LINE
  8
_1-0_
  6
CONTINUOUS
 62
    3
 10
513.3038254769931
 20
-79.546117671953937
 11
511.32438847699308
 21
-79.546117671953937
  0
LINE
  8
_1-0_
  6
CONTINUOUS
 62
    3
 10
514.2413254769931
 20
-78.608617671953937
 11
513.3038254769931
 21
-77.671117671953937
  0
LINE
  8
_1-0_
  6
CONTINUOUS
 62
    3
 10
513.3038254769931
 20
-79.546117671953937
 11
514.2413254769931
 21
-78.608617671953937
  0
LINE
  8
_1-0_
  6
CONTINUOUS
 62
    3
 10
513.3038254769931
 20
-79.546117671953937
 11
513.3038254769931
 21
-78.315649671953963
  0
LINE
  8
_1-0_
  6
CONTINUOUS
 62
    3
 10
511.24132547699315
 20
-77.358617671953937
 11
510.92388847699311
 21
-77.671117671953937
  0
LINE
  8
_1-0_
  6
CONTINUOUS
 62
    3
 10
511.32438847699308
 20
-77.671117671953937
 11
511.24132547699315
 21
-77.358617671953937
  0
LINE
  8
_1-0_
  6
CONTINUOUS
 62
    3
 10
510.30382547699315
 20
-79.858617671953937
 11
509.98638847699311
 21
-79.546117671953937
  0
LINE
  8
_1-0_
  6
CONTINUOUS
 62
    3
 10
510.38688847699308
 20
-79.546117671953937
 11
510.30382547699315
 21
-79.858617671953937
  0
LINE
  8
_1-0_
  6
CONTINUOUS
 62
    3
 10
510.92388847699311
 20
-79.546117671953937
 11
510.38688847699308
 21
-79.546117671953937
  0
LINE
  8
_1-0_
  6
CONTINUOUS
 62
    3
 10
510.62126347699308
 20
-77.671117671953937
 11
511.24132547699315
 21
-77.671117671953937
  0
LINE
  8
_1-0_
  6
CONTINUOUS
 62
    3
 10
509.68376347699308
 20
-77.671117671953937
 11
510.22076347699311
 21
-77.671117671953937
  0
LINE
  8
_1-0_
  6
CONTINUOUS
 62
    3
 10
507.80876347699308
 20
-77.671117671953937
 11
508.34576347699311
 21
-77.671117671953937
  0
LINE
  8
_1-0_
  6
CONTINUOUS
 62
    3
 10
509.04888847699311
 20
-79.546117671953937
 11
508.51188847699308
 21
-79.546117671953937
  0
LINE
  8
_1-0_
  6
CONTINUOUS
 62
    3
 10
508.74626347699308
 20
-77.671117671953937
 11
509.28326347699311
 21
-77.671117671953937
  0
LINE
  8
_1-0_
  6
CONTINUOUS
 62
    3
 10
509.44938847699308
 20
-79.546117671953937
 11
509.98638847699311
 21
-79.546117671953937
  0
LINE
  8
_1-0_
  6

 62
    3
 10
501.24132547699315
 20
-80.983617671953937
 11
501.24132547699315
 21
-76.233617671953937
  0
LINE
  8
_1-0_
  6
CONTINUOUS
 62
    3
 10
509.36632547699315
 20
-79.858617671953937
 11
509.04888847699311
 21
-79.546117671953937
  0
LINE
  8
_1-0_
  6
CONTINUOUS
 62
    3
 10
509.44938847699308
 20
-79.546117671953937
 11
509.36632547699315
 21
-79.858617671953937
  0
LINE
  8
_1-0_
  6
CONTINUOUS
 62
    3
 10
511.24132547699315
 20
-79.858617671953937
 11
510.92388847699311
 21
-79.546117671953937
  0
LINE
  8
_1-0_
  6
CONTINUOUS
 62
    3
 10
511.32438847699308
 20
-79.546117671953937
 11
511.24132547699315
 21
-79.858617671953937
  0
LINE
  8
_1-0_
  6

 62
    3
 10
500.63990547699308
 20
-80.764718671953972
 11
501.24132547699315
 21
-80.983617671953937
  0
LINE
  8
_1-0_
  6

 62
    3
 10
500.63990547699308
 20
-76.452516671954129
 11
501.24132547699315
 21
-76.233617671953937
  0
LINE
  8
_1-0_
  6
CONTINUOUS
 62
    3
 10
507.57438847699308
 20
-79.546117671953937
 11
507.39159647699313
 21
-79.058674671953952
  0
LINE
  8
_1-0_
  6
CONTINUOUS
 62
    3
 10
507.49132547699315
 20
-79.858617671953937
 11
507.39159647699313
 21
-79.760440671954086
  0
LINE
  8
_1-0_
  6

 62
    3
 10
504.67882547699315
 20
-79.858617671953937
 11
504.36138847699311
 21
-79.546117671953937
  0
LINE
  8
_1-0_
  6

 62
    3
 10
504.76188847699308
 20
-79.546117671953937
 11
504.67882547699315
 21
-79.858617671953937
  0
LINE
  8
_1-0_
  6

 62
    3
 10
504.05876347699308
 20
-77.671117671953937
 11
504.76188847699308
 21
-79.546117671953937
  0
LINE
  8
_1-0_
  6

 62
    3
 10
503.74132547699315
 20
-77.358617671953937
 11
504.05876347699308
 21
-77.671117671953937
  0
LINE
  8
_1-0_
  6

 62
    3
 10
503.65826347699311
 20
-77.671117671953937
 11
503.74132547699315
 21
-77.358617671953937
  0
LINE
  8
_1-0_
  6

 62
    3
 10
504.36138847699311
 20
-79.546117671953937
 11
503.65826347699311
 21
-77.671117671953937
  0
LINE
  8
_1-0_
  6

 62
    3
 10
506.23638847699311
 20
-79.546117671953937
 11
505.69938847699308
 21
-79.546117671953937
  0
LINE
  8
_1-0_
  6

 62
    3
 10
505.61632547699315
 20
-79.858617671953937
 11
505.29888847699311
 21
-79.546117671953937
  0
LINE
  8
_1-0_
  6

 62
    3
 10
505.69938847699308
 20
-79.546117671953937
 11
505.61632547699315
 21
-79.858617671953937
  0
LINE
  8
_1-0_
  6

 62
    3
 10
504.99626347699308
 20
-77.671117671953937
 11
505.69938847699308
 21
-79.546117671953937
  0
LINE
  8
_1-0_
  6

 62
    3
 10
504.67882547699315
 20
-77.358617671953937
 11
504.99626347699308
 21
-77.671117671953937
  0
LINE
  8
_1-0_
  6

 62
    3
 10
504.59576347699311
 20
-77.671117671953937
 11
504.67882547699315
 21
-77.358617671953937
  0
LINE
  8
_1-0_
  6

 62
    3
 10
505.29888847699311
 20
-79.546117671953937
 11
504.59576347699311
 21
-77.671117671953937
  0
LINE
  8
_1-0_
  6

 62
    3
 10
507.17388847699311
 20
-79.546117671953937
 11
506.63688847699308
 21
-79.546117671953937
  0
LINE
  8
_1-0_
  6

 62
    3
 10
506.55382547699315
 20
-79.858617671953937
 11
506.23638847699311
 21
-79.546117671953937
  0
LINE
  8
_1-0_
  6

 62
    3
 10
506.63688847699308
 20
-79.546117671953937
 11
506.55382547699315
 21
-79.858617671953937
  0
LINE
  8
_1-0_
  6

 62
    3
 10
505.93376347699308
 20
-77.671117671953937
 11
506.63688847699308
 21
-79.546117671953937
  0
LINE
  8
_1-0_
  6

 62
    3
 10
505.61632547699315
 20
-77.358617671953937
 11
505.93376347699308
 21
-77.671117671953937
  0
LINE
  8
_1-0_
  6

 62
    3
 10
505.53326347699311
 20
-77.671117671953937
 11
505.61632547699315
 21
-77.358617671953937
  0
LINE
  8
_1-0_
  6

 62
    3
 10
506.23638847699311
 20
-79.546117671953937
 11
505.53326347699311
 21
-77.671117671953937
  0
LINE
  8
_1-0_
  6
CONTINUOUS
 62
    3
 10
507.57438847699308
 20
-79.546117671953937
 11
507.49132547699315
 21
-79.858617671953937
  0
LINE
  8
_1-0_
  6

 62
    3
 10
507.17388847699311
 20
-79.546117671953937
 11
507.39159647699313
 21
-79.760440671954086
  0
LINE
  8
_1-0_
  6

 62
    3
 10
506.87126347699308
 20
-77.671117671953937
 11
507.39159647699313
 21
-79.058674671953952
  0
LINE
  8
_1-0_
  6

 62
    3
 10
506.55382547699315
 20
-77.358617671953937
 11
506.87126347699308
 21
-77.671117671953937
  0
LINE
  8
_1-0_
  6

 62
    3
 10
506.47076347699311
 20
-77.671117671953937
 11
506.55382547699315
 21
-77.358617671953937
  0
LINE
  8
_1-0_
  6

 62
    3
 10
507.17388847699311
 20
-79.546117671953937
 11
506.47076347699311
 21
-77.671117671953937
  0
LINE
  8
_1-0_
  6
CONTINUOUS
 62
    3
 10
508.51188847699308
 20
-79.546117671953937
 11
508.42882547699315
 21
-79.858617671953937
  0
LINE
  8
_1-0_
  6
CONTINUOUS
 62
    3
 10
507.80876347699308
 20
-77.671117671953937
 11
508.51188847699308
 21
-79.546117671953937
  0
LINE
  8
_1-0_
  6
CONTINUOUS
 62
    3
 10
507.49132547699315
 20
-77.358617671953937
 11
507.80876347699308
 21
-77.671117671953937
  0
LINE
  8
_1-0_
  6
CONTINUOUS
 62
    3
 10
507.40826347699311
 20
-77.671117671953937
 11
507.49132547699315
 21
-77.358617671953937
  0
LINE
  8
_1-0_
  6
CONTINUOUS
 62
    3
 10
508.11138847699311
 20
-79.546117671953937
 11
507.57438847699308
 21
-79.546117671953937
  0
LINE
  8
_1-0_
  6

 62
    3
 10
506.87126347699308
 20
-77.671117671953937
 11
507.40826347699311
 21
-77.671117671953937
  0
LINE
  8
_1-0_
  6
CONTINUOUS
 62
    3
 10
508.42882547699315
 20
-79.858617671953937
 11
508.11138847699311
 21
-79.546117671953937
  0
LINE
  8
_1-0_
  6
CONTINUOUS
 62
    3
 10
508.11138847699311
 20
-79.546117671953937
 11
507.40826347699311
 21
-77.671117671953937
  0
LINE
  8
_1-0_
  6

 62
    3
 10
503.12126347699308
 20
-79.546117671953937
 11
503.42388847699311
 21
-79.546117671953937
  0
LINE
  8
_1-0_
  6

 62
    3
 10
505.93376347699308
 20
-77.671117671953937
 11
506.47076347699311
 21
-77.671117671953937
  0
LINE
  8
_1-0_
  6

 62
    3
 10
504.99626347699308
 20
-77.671117671953937
 11
505.53326347699311
 21
-77.671117671953937
  0
LINE
  8
_1-0_
  6

 62
    3
 10
504.05876347699308
 20
-77.671117671953937
 11
504.59576347699311
 21
-77.671117671953937
  0
LINE
  8
_1-0_
  6

 62
    3
 10
503.12126347699308
 20
-77.671117671953937
 11
503.65826347699311
 21
-77.671117671953937
  0
LINE
  8
_1-0_
  6

 62
    3
 10
501.74132547699315
 20
-77.671117671953937
 11
502.72076347699311
 21
-77.671117671953937
  0
LINE
  8
_1-0_
  6

 62
    3
 10
501.74132547699315
 20
-79.546117671953937
 11
502.72076347699311
 21
-79.546117671953937
  0
ARC
  8
_1-0_
  6

 62
    3
 10
505.0526314769931
 20
-78.608617671953937
 40
4.9113059999999997
 50
153.95941400000001
 51
206.04058599999999
  0
LINE
  8
_1-0_
  6
CONTINUOUS
 62
    3
 10
511.24132547699315
 20
-77.671117671953937
 11
511.24132547699315
 21
-79.324617671954059
  0
LINE
  8
_1-0_
  6
CONTINUOUS
 62
    3
 10
509.68376347699308
 20
-77.671117671953937
 11
510.38688847699308
 21
-79.546117671953937
  0
LINE
  8
_1-0_
  6
CONTINUOUS
 62
    3
 10
509.36632547699315
 20
-77.358617671953937
 11
509.68376347699308
 21
-77.671117671953937
  0
LINE
  8
_1-0_
  6
CONTINUOUS
 62
    3
 10
509.28326347699311
 20
-77.671117671953937
 11
509.36632547699315
 21
-77.358617671953937
  0
LINE
  8
_1-0_
  6
CONTINUOUS
 62
    3
 10
509.98638847699311
 20
-79.546117671953937
 11
509.28326347699311
 21
-77.671117671953937
  0
LINE
  8
_1-0_
  6
CONTINUOUS
 62
    3
 10
508.74626347699308
 20
-77.671117671953937
 11
509.44938847699308
 21
-79.546117671953937
  0
LINE
  8
_1-0_
  6
CONTINUOUS
 62
    3
 10
508.42882547699315
 20
-77.358617671953937
 11
508.74626347699308
 21
-77.671117671953937
  0
LINE
  8
_1-0_
  6
CONTINUOUS
 62
    3
 10
508.34576347699311
 20
-77.671117671953937
 11
508.42882547699315
 21
-77.358617671953937
  0
LINE
  8
_1-0_
  6
CONTINUOUS
 62
    3
 10
509.04888847699311
 20
-79.546117671953937
 11
508.34576347699311
 21
-77.671117671953937
  0
LINE
  8
_1-0_
  6

 62
    3
 10
503.03820047699315
 20
-79.858617671953937
 11
502.72076347699311
 21
-79.546117671953937
  0
LINE
  8
_1-0_
  6

 62
    3
 10
503.12126347699308
 20
-79.546117671953937
 11
503.03820047699315
 21
-79.858617671953937
  0
LINE
  8
_1-0_
  6

 62
    3
 10
502.72076347699311
 20
-79.546117671953937
 11
502.72076347699311
 21
-77.671117671953937
  0
LINE
  8
_1-0_
  6

 62
    3
 10
504.36138847699311
 20
-79.546117671953937
 11
503.82438847699308
 21
-79.546117671953937
  0
LINE
  8
_1-0_
  6

 62
    3
 10
503.74132547699315
 20
-79.858617671953937
 11
503.42388847699311
 21
-79.546117671953937
  0
LINE
  8
_1-0_
  6

 62
    3
 10
503.82438847699308
 20
-79.546117671953937
 11
503.74132547699315
 21
-79.858617671953937
  0
LINE
  8
_1-0_
  6

 62
    3
 10
503.12126347699308
 20
-77.671117671953937
 11
503.82438847699308
 21
-79.546117671953937
  0
LINE
  8
_1-0_
  6

 62
    3
 10
502.80382547699315
 20
-77.358617671953937
 11
503.12126347699308
 21
-77.671117671953937
  0
LINE
  8
_1-0_
  6

 62
    3
 10
502.72076347699311
 20
-77.671117671953937
 11
502.80382547699315
 21
-77.358617671953937
  0
LINE
  8
_1-0_
  6

 62
    3
 10
503.42388847699311
 20
-79.546117671953937
 11
502.72076347699311
 21
-77.671117671953937
  0
LINE
  8
_1-0_
  6

 62
    3
 10
505.29888847699311
 20
-79.546117671953937
 11
504.76188847699308
 21
-79.546117671953937
  0
LINE
  8
_1-0_
  6
CONTINUOUS
 62
    7
 10
503.81131464331276
 20
-76.241356357628604
 11
514.86957446574161
 21
-34.971368857026448
  0
LINE
  8
_1-0_
  6
CONTINUOUS
 62
    3
 10
561.39159647699307
 20
-134.10473964719819
 11
552.89159647699307
 21
-134.10473964719819
  0
LINE
  8
_1-0_
  6
CONTINUOUS
 62
    3
 10
516.39159647699307
 20
-159.10473964719819
 11
509.89159647699313
 21
-159.10473964719819
  0
LINE
  8
_1-0_
  6
CONTINUOUS
 62
    3
 10
506.39159647699313
 20
-137.60473964719819
 11
506.39159647699313
 21
-155.60473964719819
  0
ARC
  8
_1-0_
  6
CONTINUOUS
 62
    3
 10
509.89159647699313
 20
-155.60473964719819
 40
3.5
 50
180
 51
270
  0
ARC
  8
_1-0_
  6
CONTINUOUS
 62
    3
 10
552.89159647699307
 20
-137.60473964719819
 40
3.5
 50
0
 51
90
  0
LINE
  8
_1-0_
  6
CONTINUOUS
 62
    3
 10
556.39159647699307
 20
-137.60473964719819
 11
556.39159647699307
 21
-155.60473964719819
  0
ARC
  8
_1-0_
  6
CONTINUOUS
 62
    3
 10
552.89159647699307
 20
-155.60473964719819
 40
3.5
 50
270
 51
0
  0
LINE
  8
_1-0_
  6
CONTINUOUS
 62
    3
 10
546.39159647699307
 20
-159.10473964719819
 11
552.89159647699307
 21
-159.10473964719819
  0
LINE
  8
_1-0_
  6
CONTINUOUS
 62
    3
 10
546.39159647699307
 20
-158.10473964719819
 11
546.39159647699307
 21
-159.10473964719819
  0
LINE
  8
_1-0_
  6
CONTINUOUS
 62
    3
 10
546.39159647699307
 20
-158.10473964719819
 11
552.89159647699307
 21
-158.10473964719819
  0
ARC
  8
_1-0_
  6
CONTINUOUS
 62
    3
 10
552.89159647699307
 20
-155.60473964719819
 40
2.5
 50
270
 51
0
  0
LINE
  8
_1-0_
  6
CONTINUOUS
 62
    3
 10
555.39159647699307
 20
-155.60473964719819
 11
555.39159647699307
 21
-137.60473964719819
  0
LINE
  8
_1-0_
  6
CONTINUOUS
 62
    3
 10
507.39159647699313
 20
-137.60473964719819
 11
507.39159647699313
 21
-155.60473964719819
  0
ARC
  8
_1-0_
  6
CONTINUOUS
 62
    3
 10
509.89159647699313
 20
-155.60473964719819
 40
2.5
 50
180
 51
270
  0
LINE
  8
_1-0_
  6
CONTINUOUS
 62
    3
 10
516.39159647699307
 20
-158.10473964719819
 11
509.89159647699313
 21
-158.10473964719819
  0
ARC
  8
_1-0_
  6
CONTINUOUS
 62
    3
 10
509.89159647699313
 20
-137.60473964719819
 40
3.5
 50
90
 51
180
  0
LINE
  8
_1-0_
  6
CONTINUOUS
 62
    3
 10
509.89159647699313
 20
-134.10473964719819
 11
552.89159647699307
 21
-134.10473964719819
  0
ARC
  8
_1-0_
  6
CONTINUOUS
 62
    3
 10
537.89159647699307
 20
-133.60473964719819
 40
1.5
 50
90
 51
180
  0
LINE
  8
_1-0_
  6
CONTINUOUS
 62
    3
 10
536.39159647699307
 20
-134.10473964719819
 11
536.39159647699307
 21
-133.60473964719819
  0
ARC
  8
_1-0_
  6
CONTINUOUS
 62
    3
 10
560.89159647699307
 20
-110.60473964719819
 40
1.5
 50
90
 51
180
  0
LINE
  8
_1-0_
  6
CONTINUOUS
 62
    3
 10
559.39159647699307
 20
-128.85473964719819
 11
559.39159647699307
 21
-110.60473964719819
  0
LINE
  8
_1-0_
  6
CONTINUOUS
 62
    3
 10
556.14159647699307
 20
-132.10473964719819
 11
537.89159647699307
 21
-132.10473964719819
  0
ARC
  8
_1-0_
  6
CONTINUOUS
 62
    3
 10
556.14159647699307
 20
-128.85473964719819
 40
3.25
 50
270
 51
0
  0
LINE
  8
_1-0_
  6
CONTINUOUS
 62
    3
 10
561.39159647699307
 20
-109.10473964719819
 11
560.89159647699307
 21
-109.10473964719819
  0
LINE
  8
_1-0_
  6
CONTINUOUS
 62
    3
 10
509.89159647699313
 20
-135.10473964719819
 11
552.89159647699307
 21
-135.10473964719819
  0
ARC
  8
_1-0_
  6
CONTINUOUS
 62
    3
 10
552.89159647699307
 20
-137.60473964719819
 40
2.5
 50
0
 51
90
  0
ARC
  8
_1-0_
  6
CONTINUOUS
 62
    3
 10
509.89159647699313
 20
-137.60473964719819
 40
2.5
 50
90
 51
180
  0
LINE
  8
_1-0_
  6
CONTINUOUS
 62
    3
 10
516.39159647699307
 20
-159.10473964719819
 11
516.39159647699307
 21
-158.10473964719819
  0
LINE
  8
_1-0_
  6
CONTINUOUS
 62
    3
 10
510.30382547699315
 20
-145.35473964719819
 11
510.62126347699308
 21
-145.66723964719819
  0
LINE
  8
_1-0_
  6
CONTINUOUS
 62
    3
 10
510.22076347699311
 20
-145.66723964719819
 11
510.30382547699315
 21
-145.35473964719819
  0
LINE
  8
_1-0_
  6
CONTINUOUS
 62
    3
 10
510.92388847699311
 20
-147.54223964719819
 11
510.22076347699311
 21
-145.66723964719819
  0
LINE
  8
_1-0_
  6

 62
    3
 10
501.74132547699315
 20
-148.69106464719817
 11
501.24132547699315
 21
-148.97973964719819
  0
LINE
  8
_1-0_
  6

 62
    3
 10
501.24132547699315
 20
-144.22973964719819
 11
501.74132547699315
 21
-144.5184146471982
  0
LINE
  8
_1-0_
  6
CONTINUOUS
 62
    3
 10
514.2413254769931
 20
-146.60473964719819
 11
511.24132547699315
 21
-145.66723964719819
  0
LINE
  8
_1-0_
  6
CONTINUOUS
 62
    3
 10
513.3038254769931
 20
-145.66723964719819
 11
511.24132547699315
 21
-145.66723964719819
  0
LINE
  8
_1-0_
  6
CONTINUOUS
 62
    3
 10
513.3038254769931
 20
-147.54223964719819
 11
511.32438847699308
 21
-147.54223964719819
  0
LINE
  8
_1-0_
  6
CONTINUOUS
 62
    3
 10
514.2413254769931
 20
-146.60473964719819
 11
513.3038254769931
 21
-145.66723964719819
  0
LINE
  8
_1-0_
  6
CONTINUOUS
 62
    3
 10
513.3038254769931
 20
-147.54223964719819
 11
514.2413254769931
 21
-146.60473964719819
  0
LINE
  8
_1-0_
  6
CONTINUOUS
 62
    3
 10
513.3038254769931
 20
-147.54223964719819
 11
513.3038254769931
 21
-146.31177164719821
  0
LINE
  8
_1-0_
  6
CONTINUOUS
 62
    3
 10
511.24132547699315
 20
-145.35473964719819
 11
510.92388847699311
 21
-145.66723964719819
  0
LINE
  8
_1-0_
  6
CONTINUOUS
 62
    3
 10
511.32438847699308
 20
-145.66723964719819
 11
511.24132547699315
 21
-145.35473964719819
  0
LINE
  8
_1-0_
  6
CONTINUOUS
 62
    3
 10
510.30382547699315
 20
-147.85473964719819
 11
509.98638847699311
 21
-147.54223964719819
  0
LINE
  8
_1-0_
  6
CONTINUOUS
 62
    3
 10
510.38688847699308
 20
-147.54223964719819
 11
510.30382547699315
 21
-147.85473964719819
  0
LINE
  8
_1-0_
  6
CONTINUOUS
 62
    3
 10
510.92388847699311
 20
-147.54223964719819
 11
510.38688847699308
 21
-147.54223964719819
  0
LINE
  8
_1-0_
  6
CONTINUOUS
 62
    3
 10
510.62126347699308
 20
-145.66723964719819
 11
511.24132547699315
 21
-145.66723964719819
  0
LINE
  8
_1-0_
  6
CONTINUOUS
 62
    3
 10
509.68376347699308
 20
-145.66723964719819
 11
510.22076347699311
 21
-145.66723964719819
  0
LINE
  8
_1-0_
  6
CONTINUOUS
 62
    3
 10
507.80876347699308
 20
-145.66723964719819
 11
508.34576347699311
 21
-145.66723964719819
  0
LINE
  8
_1-0_
  6
CONTINUOUS
 62
    3
 10
509.04888847699311
 20
-147.54223964719819
 11
508.51188847699308
 21
-147.54223964719819
  0
LINE
  8
_1-0_
  6
CONTINUOUS
 62
    3
 10
508.74626347699308
 20
-145.66723964719819
 11
509.28326347699311
 21
-145.66723964719819
  0
LINE
  8
_1-0_
  6
CONTINUOUS
 62
    3
 10
509.44938847699308
 20
-147.54223964719819
 11
509.98638847699311
 21
-147.54223964719819
  0
LINE
  8
_1-0_
  6

 62
    3
 10
501.24132547699315
 20
-148.97973964719819
 11
501.24132547699315
 21
-144.22973964719819
  0
LINE
  8
_1-0_
  6
CONTINUOUS
 62
    3
 10
509.36632547699315
 20
-147.85473964719819
 11
509.04888847699311
 21
-147.54223964719819
  0
LINE
  8
_1-0_
  6
CONTINUOUS
 62
    3
 10
509.44938847699308
 20
-147.54223964719819
 11
509.36632547699315
 21
-147.85473964719819
  0
LINE
  8
_1-0_
  6
CONTINUOUS
 62
    3
 10
511.24132547699315
 20
-147.85473964719819
 11
510.92388847699311
 21
-147.54223964719819
  0
LINE
  8
_1-0_
  6
CONTINUOUS
 62
    3
 10
511.32438847699308
 20
-147.54223964719819
 11
511.24132547699315
 21
-147.85473964719819
  0
LINE
  8
_1-0_
  6

 62
    3
 10
500.63990547699308
 20
-148.76084064719822
 11
501.24132547699315
 21
-148.97973964719819
  0
LINE
  8
_1-0_
  6

 62
    3
 10
500.63990547699308
 20
-144.44863864719815
 11
501.24132547699315
 21
-144.22973964719819
  0
LINE
  8
_1-0_
  6
CONTINUOUS
 62
    3
 10
507.57438847699308
 20
-147.54223964719819
 11
507.39159647699313
 21
-147.0547966471982
  0
LINE
  8
_1-0_
  6
CONTINUOUS
 62
    3
 10
507.49132547699315
 20
-147.85473964719819
 11
507.39159647699313
 21
-147.75656264719811
  0
LINE
  8
_1-0_
  6

 62
    3
 10
504.76188847699308
 20
-147.54223964719819
 11
504.67882547699315
 21
-147.85473964719819
  0
LINE
  8
_1-0_
  6

 62
    3
 10
504.05876347699308
 20
-145.66723964719819
 11
504.76188847699308
 21
-147.54223964719819
  0
LINE
  8
_1-0_
  6

 62
    3
 10
503.74132547699315
 20
-145.35473964719819
 11
504.05876347699308
 21
-145.66723964719819
  0
LINE
  8
_1-0_
  6

 62
    3
 10
503.65826347699311
 20
-145.66723964719819
 11
503.74132547699315
 21
-145.35473964719819
  0
LINE
  8
_1-0_
  6

 62
    3
 10
504.36138847699311
 20
-147.54223964719819
 11
503.65826347699311
 21
-145.66723964719819
  0
LINE
  8
_1-0_
  6

 62
    3
 10
506.23638847699311
 20
-147.54223964719819
 11
505.69938847699308
 21
-147.54223964719819
  0
LINE
  8
_1-0_
  6

 62
    3
 10
505.61632547699315
 20
-147.85473964719819
 11
505.29888847699311
 21
-147.54223964719819
  0
LINE
  8
_1-0_
  6

 62
    3
 10
505.69938847699308
 20
-147.54223964719819
 11
505.61632547699315
 21
-147.85473964719819
  0
LINE
  8
_1-0_
  6

 62
    3
 10
504.99626347699308
 20
-145.66723964719819
 11
505.69938847699308
 21
-147.54223964719819
  0
LINE
  8
_1-0_
  6

 62
    3
 10
504.67882547699315
 20
-145.35473964719819
 11
504.99626347699308
 21
-145.66723964719819
  0
LINE
  8
_1-0_
  6

 62
    3
 10
504.59576347699311
 20
-145.66723964719819
 11
504.67882547699315
 21
-145.35473964719819
  0
LINE
  8
_1-0_
  6

 62
    3
 10
505.29888847699311
 20
-147.54223964719819
 11
504.59576347699311
 21
-145.66723964719819
  0
LINE
  8
_1-0_
  6

 62
    3
 10
507.17388847699311
 20
-147.54223964719819
 11
506.63688847699308
 21
-147.54223964719819
  0
LINE
  8
_1-0_
  6

 62
    3
 10
506.55382547699315
 20
-147.85473964719819
 11
506.23638847699311
 21
-147.54223964719819
  0
LINE
  8
_1-0_
  6

 62
    3
 10
506.63688847699308
 20
-147.54223964719819
 11
506.55382547699315
 21
-147.85473964719819
  0
LINE
  8
_1-0_
  6

 62
    3
 10
505.93376347699308
 20
-145.66723964719819
 11
506.63688847699308
 21
-147.54223964719819
  0
LINE
  8
_1-0_
  6

 62
    3
 10
505.61632547699315
 20
-145.35473964719819
 11
505.93376347699308
 21
-145.66723964719819
  0
LINE
  8
_1-0_
  6

 62
    3
 10
505.53326347699311
 20
-145.66723964719819
 11
505.61632547699315
 21
-145.35473964719819
  0
LINE
  8
_1-0_
  6

 62
    3
 10
506.23638847699311
 20
-147.54223964719819
 11
505.53326347699311
 21
-145.66723964719819
  0
LINE
  8
_1-0_
  6
CONTINUOUS
 62
    3
 10
507.57438847699308
 20
-147.54223964719819
 11
507.49132547699315
 21
-147.85473964719819
  0
LINE
  8
_1-0_
  6

 62
    3
 10
507.17388847699311
 20
-147.54223964719819
 11
507.39159647699313
 21
-147.75656264719811
  0
LINE
  8
_1-0_
  6

 62
    3
 10
506.87126347699308
 20
-145.66723964719819
 11
507.39159647699313
 21
-147.0547966471982
  0
LINE
  8
_1-0_
  6

 62
    3
 10
506.55382547699315
 20
-145.35473964719819
 11
506.87126347699308
 21
-145.66723964719819
  0
LINE
  8
_1-0_
  6

 62
    3
 10
506.47076347699311
 20
-145.66723964719819
 11
506.55382547699315
 21
-145.35473964719819
  0
LINE
  8
_1-0_
  6

 62
    3
 10
507.17388847699311
 20
-147.54223964719819
 11
506.47076347699311
 21
-145.66723964719819
  0
LINE
  8
_1-0_
  6
CONTINUOUS
 62
    3
 10
508.51188847699308
 20
-147.54223964719819
 11
508.42882547699315
 21
-147.85473964719819
  0
LINE
  8
_1-0_
  6
CONTINUOUS
 62
    3
 10
507.80876347699308
 20
-145.66723964719819
 11
508.51188847699308
 21
-147.54223964719819
  0
LINE
  8
_1-0_
  6
CONTINUOUS
 62
    3
 10
507.49132547699315
 20
-145.35473964719819
 11
507.80876347699308
 21
-145.66723964719819
  0
LINE
  8
_1-0_
  6
CONTINUOUS
 62
    3
 10
507.40826347699311
 20
-145.66723964719819
 11
507.49132547699315
 21
-145.35473964719819
  0
LINE
  8
_1-0_
  6
CONTINUOUS
 62
    3
 10
508.11138847699311
 20
-147.54223964719819
 11
507.57438847699308
 21
-147.54223964719819
  0
LINE
  8
_1-0_
  6

 62
    3
 10
506.87126347699308
 20
-145.66723964719819
 11
507.40826347699311
 21
-145.66723964719819
  0
LINE
  8
_1-0_
  6
CONTINUOUS
 62
    3
 10
508.42882547699315
 20
-147.85473964719819
 11
508.11138847699311
 21
-147.54223964719819
  0
LINE
  8
_1-0_
  6
CONTINUOUS
 62
    3
 10
508.11138847699311
 20
-147.54223964719819
 11
507.40826347699311
 21
-145.66723964719819
  0
LINE
  8
_1-0_
  6

 62
    3
 10
503.12126347699308
 20
-147.54223964719819
 11
503.42388847699311
 21
-147.54223964719819
  0
LINE
  8
_1-0_
  6

 62
    3
 10
505.93376347699308
 20
-145.66723964719819
 11
506.47076347699311
 21
-145.66723964719819
  0
LINE
  8
_1-0_
  6

 62
    3
 10
504.99626347699308
 20
-145.66723964719819
 11
505.53326347699311
 21
-145.66723964719819
  0
LINE
  8
_1-0_
  6

 62
    3
 10
504.05876347699308
 20
-145.66723964719819
 11
504.59576347699311
 21
-145.66723964719819
  0
LINE
  8
_1-0_
  6

 62
    3
 10
503.12126347699308
 20
-145.66723964719819
 11
503.65826347699311
 21
-145.66723964719819
  0
LINE
  8
_1-0_
  6

 62
    3
 10
501.74132547699315
 20
-145.66723964719819
 11
502.72076347699311
 21
-145.66723964719819
  0
LINE
  8
_1-0_
  6

 62
    3
 10
501.74132547699315
 20
-147.54223964719819
 11
502.72076347699311
 21
-147.54223964719819
  0
ARC
  8
_1-0_
  6

 62
    3
 10
505.0526314769931
 20
-146.60473964719819
 40
4.9113059999999997
 50
153.95941400000001
 51
206.04058599999999
  0
LINE
  8
_1-0_
  6
CONTINUOUS
 62
    3
 10
511.24132547699315
 20
-145.66723964719819
 11
511.24132547699315
 21
-147.32073964719831
  0
LINE
  8
_1-0_
  6
CONTINUOUS
 62
    3
 10
509.68376347699308
 20
-145.66723964719819
 11
510.38688847699308
 21
-147.54223964719819
  0
LINE
  8
_1-0_
  6
CONTINUOUS
 62
    3
 10
509.36632547699315
 20
-145.35473964719819
 11
509.68376347699308
 21
-145.66723964719819
  0
LINE
  8
_1-0_
  6
CONTINUOUS
 62
    3
 10
509.28326347699311
 20
-145.66723964719819
 11
509.36632547699315
 21
-145.35473964719819
  0
LINE
  8
_1-0_
  6
CONTINUOUS
 62
    3
 10
509.98638847699311
 20
-147.54223964719819
 11
509.28326347699311
 21
-145.66723964719819
  0
LINE
  8
_1-0_
  6
CONTINUOUS
 62
    3
 10
508.74626347699308
 20
-145.66723964719819
 11
509.44938847699308
 21
-147.54223964719819
  0
LINE
  8
_1-0_
  6
CONTINUOUS
 62
    3
 10
508.42882547699315
 20
-145.35473964719819
 11
508.74626347699308
 21
-145.66723964719819
  0
LINE
  8
_1-0_
  6
CONTINUOUS
 62
    3
 10
508.34576347699311
 20
-145.66723964719819
 11
508.42882547699315
 21
-145.35473964719819
  0
LINE
  8
_1-0_
  6
CONTINUOUS
 62
    3
 10
509.04888847699311
 20
-147.54223964719819
 11
508.34576347699311
 21
-145.66723964719819
  0
LINE
  8
_1-0_
  6
CONTINUOUS
 62
    3
 10
510.62126347699308
 20
-145.66723964719819
 11
511.32438847699308
 21
-147.54223964719819
  0
LINE
  8
_1-0_
  6

 62
    3
 10
503.03820047699315
 20
-147.85473964719819
 11
502.72076347699311
 21
-147.54223964719819
  0
LINE
  8
_1-0_
  6

 62
    3
 10
503.12126347699308
 20
-147.54223964719819
 11
503.03820047699315
 21
-147.85473964719819
  0
LINE
  8
_1-0_
  6

 62
    3
 10
502.72076347699311
 20
-147.54223964719819
 11
502.72076347699311
 21
-145.66723964719819
  0
LINE
  8
_1-0_
  6

 62
    3
 10
504.36138847699311
 20
-147.54223964719819
 11
503.82438847699308
 21
-147.54223964719819
  0
LINE
  8
_1-0_
  6

 62
    3
 10
503.74132547699315
 20
-147.85473964719819
 11
503.42388847699311
 21
-147.54223964719819
  0
LINE
  8
_1-0_
  6

 62
    3
 10
503.82438847699308
 20
-147.54223964719819
 11
503.74132547699315
 21
-147.85473964719819
  0
LINE
  8
_1-0_
  6

 62
    3
 10
503.12126347699308
 20
-145.66723964719819
 11
503.82438847699308
 21
-147.54223964719819
  0
LINE
  8
_1-0_
  6

 62
    3
 10
502.80382547699315
 20
-145.35473964719819
 11
503.12126347699308
 21
-145.66723964719819
  0
LINE
  8
_1-0_
  6

 62
    3
 10
502.72076347699311
 20
-145.66723964719819
 11
502.80382547699315
 21
-145.35473964719819
  0
LINE
  8
_1-0_
  6

 62
    3
 10
503.42388847699311
 20
-147.54223964719819
 11
502.72076347699311
 21
-145.66723964719819
  0
LINE
  8
_1-0_
  6

 62
    3
 10
505.29888847699311
 20
-147.54223964719819
 11
504.76188847699308
 21
-147.54223964719819
  0
LINE
  8
_1-0_
  6

 62
    3
 10
504.67882547699315
 20
-147.85473964719819
 11
504.36138847699311
 21
-147.54223964719819
  0
LINE
  8
_1-0_
  6
CONTINUOUS
 62
    7
 10
506.39148644839787
 20
-119.82148071931005
 11
515.78454225050768
 21
-110.42842491720018
  0
LINE
  8
_1-0_
  6
CONTINUOUS
 62
    3
 10
566.39159647699307
 20
-39.210090655600936
 11
566.39159647699307
 21
-186.03664713008681
  0
LINE
  8
_1-0_
  6
CONTINUOUS
 62
    3
 10
561.39159647699307
 20
-39.210090655600936
 11
561.39159647699307
 21
-186.03664713008681
  0
LINE
  8
_1-0_
  6

 62
    3
 10
501.74132547699315
 20
-39.210090655600936
 11
501.74132547699315
 21
-186.03664713008681
  0
LINE
  8
_1-0_
  6
CONTINUOUS
 62
    3
 10
506.39148047699308
 20
-39.23146465560086
 11
506.39154096589982
 21
-186.03664713008681
  0
LINE
  8
_1-0_
  6
CONTINUOUS
 62
    7
 10
487.64153362104133
 20
-168.21084885398193
 11
487.64154096589823
 21
-186.03664713008681
  0
CIRCLE
  8
_1-0_
  6
CONTINUOUS
 62
    3
 10
591.39159647699307
 20
-91.397448627253027
 40
0.5999999999999999
  0
LINE
  8
_1-0_
  6
CONTINUOUS
 62
    3
 10
558.39159647699307
 20
-91.397448627253027
 11
595.39159647699307
 21
-91.397448627253027
  0
CIRCLE
  8
_1-0_
  6
CONTINUOUS
 62
    3
 10
591.39159647699307
 20
-159.10473964719819
 40
0.5999999999999999
  0
LINE
  8
_1-0_
  6
CONTINUOUS
 62
    3
 10
558.39159647699307
 20
-159.10473964719819
 11
595.39159647699307
 21
-159.10473964719819
  0
LINE
  8
_1-0_
  6
CONTINUOUS
 62
    3
 10
591.39159647699307
 20
-91.397448627253027
 11
591.39159647699307
 21
-159.10473964719819
  0
CIRCLE
  8
_1-0_
  6
CONTINUOUS
 62
    3
 10
556.39159647699307
 20
-203.16355529364074
 40
0.5999999999999999
  0
CIRCLE
  8
_1-0_
  6
CONTINUOUS
 62
    3
 10
506.39158347699305
 20
-203.16355529364074
 40
0.5999999999999999
  0
LINE
  8
_1-0_
  6
CONTINUOUS
 62
    3
 10
506.39158347699305
 20
-203.16355529364074
 11
556.39159647699307
 21
-203.16355529364074
  0
LINE
  8
_1-0_
  6
CONTINUOUS
 62
    3
 10
561.39159647699307
 20
-203.16355529364074
 11
577.69080947699308
 21
-203.16355529364074
  0
CIRCLE
  8
_1-0_
  6
CONTINUOUS
 62
    3
 10
561.39159647699307
 20
-203.16355529364074
 40
0.5999999999999999
  0
CIRCLE
  8
_1-0_
  6
CONTINUOUS
 62
    3
 10
556.39159647699307
 20
-203.16355529364074
 40
0.5999999999999999
  0
LINE
  8
_1-0_
  6
CONTINUOUS
 62
    3
 10
561.39159647699307
 20
-190.16355529364074
 11
561.39159647699307
 21
-203.16355529364074
  0
LINE
  8
_1-0_
  6
CONTINUOUS
 62
    3
 10
556.39159647699307
 20
-177.86349629364082
 11
556.39159647699307
 21
-203.16355529364074
  0
LINE
  8
_1-0_
  6
CONTINUOUS
 62
    3
 10
556.39159647699307
 20
-203.16355529364074
 11
561.39159647699307
 21
-203.16355529364074
  0
CIRCLE
  8
_1-0_
  6
CONTINUOUS
 62
    3
 10
506.3915614769931
 20
-203.16355529364074
 40
0.5999999999999999
  0
LINE
  8
_1-0_
  6
CONTINUOUS
 62
    3
 10
506.3915614769931
 20
-190.16355529364074
 11
506.3915614769931
 21
-203.16355529364074
  0
TEXT
  8
_1-0_
 62
    4
 10
295.88953248935127
 20
124.77776561962861
 40
17
 41
1
 50
0
  1
ＬＫＰ２５６０
  0
TEXT
  8
_1-0_
 62
    7
 10
495.26093605056559
 20
69.968948684219242
 40
5.3999999999999986
 41
1.0000000000000002
 50
90
  1
25
  0
TEXT
  8
_1-0_
 62
    7
 10
484.11293805872572
 20
20.667618618002336
 40
5.3999999999999773
 41
1.0000000000000042
 50
0
  1
ﾊﾟﾈﾙﾋﾟｯﾁ
  0
TEXT
  8
_1-0_
 62
    2
 10
518.39059325806818
 20
20.267618618002416
 40
6.1999999999999886
 41
1.0000000000000018
 50
0
  1
75
  0
TEXT
  8
_1-0_
 62
    2
 10
535.39059325806818
 20
20.267618618002416
 40
6.1999999999999886
 41
1.0000000000000018
 50
0
  1
80
  0
TEXT
  8
_1-0_
 62
    2
 10
552.39059325806818
 20
20.267618618002416
 40
6.1999999999999886
 41
1.0000000000000018
 50
0
  1
90
  0
TEXT
  8
_1-0_
 62
    2
 10
567.6155932580682
 20
20.267618618002416
 40
6.1999999999999886
 41
1.0000000000000018
 50
0
  1
100
  0
TEXT
  8
_1-0_
 62
    2
 10
584.6155932580682
 20
20.267618618002416
 40
6.1999999999999886
 41
1.0000000000000018
 50
0
  1
120
  0
LINE
  8
_1-0_
  6
CONTINUOUS
 62
    3
 10
581.21559325806811
 20
27.830118618002359
 11
581.21559325806811
 21
1.0551186180024956
  0
LINE
  8
_1-0_
  6
CONTINUOUS
 62
    3
 10
564.21559325806811
 20
27.830118618002359
 11
564.21559325806811
 21
1.0551186180024956
  0
LINE
  8
_1-0_
  6
CONTINUOUS
 62
    7
 10
598.21559325806811
 20
27.830118618002359
 11
598.21559325806811
 21
1.0551186180024956
  0
LINE
  8
_1-0_
  6
CONTINUOUS
 62
    3
 10
615.21559325806811
 20
27.830118618002359
 11
615.21559325806811
 21
1.0551186180024956
  0
LINE
  8
_1-0_
  6
CONTINUOUS
 62
    3
 10
598.21559325806811
 20
27.830118618002359
 11
598.21559325806811
 21
1.0551186180024956
  0
LINE
  8
_1-0_
  6
CONTINUOUS
 62
    7
 10
632.21559325806811
 20
27.830118618002359
 11
632.21559325806811
 21
1.0551186180024956
  0
LINE
  8
_1-0_
  6
CONTINUOUS
 62
    7
 10
479.41028285938324
 20
27.830118618002359
 11
632.21559325806811
 21
27.830118618002359
  0
LINE
  8
_1-0_
  6
CONTINUOUS
 62
    7
 10
479.41028285938324
 20
18.905118618002405
 11
632.21559325806811
 21
18.905118618002405
  0
LINE
  8
_1-0_
  6
CONTINUOUS
 62
    7
 10
479.41028285938324
 20
9.9801186180024501
 11
632.21559325806811
 21
9.9801186180024501
  0
LINE
  8
_1-0_
  6
CONTINUOUS
 62
    7
 10
479.41028285938324
 20
1.0551186180024956
 11
632.21559325806811
 21
1.0551186180024956
  0
TEXT
  8
_1-0_
 62
    2
 10
601.6155932580682
 20
20.267618618002416
 40
6.1999999999999886
 41
1.0000000000000018
 50
0
  1
125
  0
TEXT
  8
_1-0_
 62
    2
 10
618.6155932580682
 20
20.267618618002416
 40
6.1999999999999886
 41
1.0000000000000018
 50
0
  1
150
  0
TEXT
  8
_1-0_
 62
    7
 10
490.51293805872569
 20
11.742618618002382
 40
5.3999999999999773
 41
1.0000000000000042
 50
0
  1
開口
  0
TEXT
  8
_1-0_
 62
    2
 10
518.39059325806818
 20
11.342618618002433
 40
6.1999999999999886
 41
1.0000000000000018
 50
0
  1
50
  0
TEXT
  8
_1-0_
 62
    2
 10
535.39059325806818
 20
11.342618618002433
 40
6.1999999999999886
 41
1.0000000000000018
 50
0
  1
55
  0
TEXT
  8
_1-0_
 62
    2
 10
552.39059325806818
 20
11.342618618002433
 40
6.1999999999999886
 41
1.0000000000000018
 50
0
  1
65
  0
TEXT
  8
_1-0_
 62
    2
 10
569.39059325806818
 20
11.342618618002433
 40
6.1999999999999886
 41
1.0000000000000018
 50
0
  1
75
  0
TEXT
  8
_1-0_
 62
    2
 10
586.39059325806818
 20
11.342618618002433
 40
6.1999999999999886
 41
1.0000000000000018
 50
0
  1
95
  0
TEXT
  8
_1-0_
 62
    2
 10
601.6155932580682
 20
11.342618618002433
 40
6.1999999999999886
 41
1.0000000000000018
 50
0
  1
100
  0
LINE
  8
_1-0_
  6
CONTINUOUS
 62
    7
 10
515.78454225050768
 20
-110.42842491720018
 11
559.39159647699307
 21
-110.42842491720018
  0
LINE
  8
_1-0_
  6
CONTINUOUS
 62
    7
 10
514.86957446574161
 20
-34.971368857026448
 11
574.95558361473854
 21
-34.971368857026448
  0
TEXT
  8
_1-0_
 62
    2
 10
618.6155932580682
 20
11.342618618002433
 40
6.1999999999999886
 41
1.0000000000000018
 50
0
  1
125
  0
TEXT
  8
_1-0_
 62
    7
 10
481.01293805872569
 20
2.8176186180024274
 40
5.4000000000000057
 41
0.999999999999999
 50
0
  1
開口率(％)
  0
TEXT
  8
_1-0_
 62
    2
 10
514.84059325806811
 20
2.4176186180024501
 40
6.1999999999999886
 41
1.0000000000000018
 50
0
  1
67.0
  0
TEXT
  8
_1-0_
 62
    2
 10
531.84059325806811
 20
2.4176186180024501
 40
6.1999999999999886
 41
1.0000000000000018
 50
0
  1
69.0
  0
TEXT
  8
_1-0_
 62
    2
 10
548.84059325806811
 20
2.4176186180024501
 40
6.1999999999999886
 41
1.0000000000000018
 50
0
  1
72.0
  0
TEXT
  8
_1-0_
 62
    2
 10
565.84059325806811
 20
2.4176186180024501
 40
6.1999999999999886
 41
1.0000000000000018
 50
0
  1
75.0
  0
TEXT
  8
_1-0_
 62
    2
 10
582.84059325806811
 20
2.4176186180024501
 40
6.1999999999999886
 41
1.0000000000000018
 50
0
  1
79.0
  0
LINE
  8
_1-0_
  6
CONTINUOUS
 62
    7
 10
265.21725267637828
 20
122.0546735773691
 11
771.37109883022447
 21
122.0546735773691
  0
TEXT
  8
_1-0_
 62
    2
 10
599.84059325806811
 20
2.4176186180024501
 40
6.1999999999999886
 41
1.0000000000000018
 50
0
  1
80.0
  0
TEXT
  8
_1-0_
 62
    2
 10
616.84059325806811
 20
2.4176186180024501
 40
6.1999999999999886
 41
1.0000000000000018
 50
0
  1
83.0
  0
TEXT
  8
_1-0_
 62
    7
 10
489.39731711090593
 20
-19.302316936030877
 40
5.4000000000000057
 41
0.999999999999999
 50
0
  1
角パネル
  0
TEXT
  8
_1-0_
 62
    7
 10
489.79834092450835
 20
-27.051667670821018
 40
5.4000000000000057
 41
0.999999999999999
 50
0
  1
LKP2560
  0
LINE
  8
_1-0_
  6
CONTINUOUS
 62
    7
 10
487.64148047699467
 20
-39.231472381261312
 11
487.64148252838567
 21
-44.210151143561291
  0
LINE
  8
_1-0_
  6
CONTINUOUS
 62
    9
 10
479.89148047699467
 20
-55.435855299073239
 11
479.89148047699467
 21
-49.947999998782791
  0
LINE
  8
_1-0_
  6
CONTINUOUS
 62
    9
 10
484.79148047699465
 20
-55.272999998782609
 11
484.79148047699465
 21
-56.4229999987827
  0
ARC
  8
_1-0_
  6
CONTINUOUS
 62
    9
 10
484.54148047699465
 20
-56.4229999987827
 40
0.25
 50
254.9999999999107
 51
0
  0
LINE
  8
_1-0_
  6
CONTINUOUS
 62
    9
 10
479.89148047699467
 20
-55.435855299073239
 11
484.47677571571882
 21
-56.664481455354974
  0
ARC
  8
_1-0_
  6
CONTINUOUS
 62
    9
 10
485.04148047699465
 20
-55.272999998782609
 40
0.25
 50
74.99999999995498
 51
180
  0
LINE
  8
_1-0_
  6
CONTINUOUS
 62
    9
 10
485.09148047699472
 20
-49.947999998782791
 11
485.09148047699472
 21
-55.027578413302138
  0
LINE
  8
_1-0_
  6
CONTINUOUS
 62
    9
 10
479.89148047699467
 20
-44.485144698492206
 11
479.89148047699467
 21
-49.947999998782791
  0
LINE
  8
_1-0_
  6
CONTINUOUS
 62
    9
 10
484.79148047699465
 20
-44.647999998782836
 11
484.79148047699465
 21
-43.497999998782745
  0
LINE
  8
_1-0_
  6
CONTINUOUS
 62
    9
 10
479.89148047699467
 20
-44.485144698492434
 11
484.47677571571882
 21
-43.256518542210699
  0
ARC
  8
_1-0_
  6
CONTINUOUS
 62
    9
 10
485.04148047699465
 20
-44.647999998782836
 40
0.25
 50
180
 51
285.00000000004496
  0
LINE
  8
_1-0_
  6
CONTINUOUS
 62
    9
 10
485.10618523827037
 20
-44.889481455354655
 11
487.64148047699467
 21
-44.210151143561973
  0
LINE
  8
_1-0_
  6
CONTINUOUS
 62
    9
 10
485.7414804769947
 20
-49.947999998782791
 11
485.7414804769947
 21
-44.719254609182428
  0
LINE
  8
_1-0_
  6
CONTINUOUS
 62
    9
 10
485.09148047699472
 20
-49.947999998782791
 11
485.09148047699472
 21
-44.893421584263308
  0
ARC
  8
_1-0_
  6
CONTINUOUS
 62
    9
 10
484.54148047699465
 20
-43.497999998782745
 40
0.25
 50
0
 51
105.00000000008929
  0
LINE
  8
_1-0_
  6
CONTINUOUS
 62
    9
 10
485.10618523827048
 20
-55.03151854221079
 11
487.64148047699479
 21
-55.7108488540037
  0
LINE
  8
_1-0_
  6
CONTINUOUS
 62
    9
 10
485.7414804769947
 20
-49.947999998782791
 11
485.7414804769947
 21
-55.201745388383017
  0
LINE
  8
_1-0_
  6
CONTINUOUS
 62
    9
 10
479.89148047699467
 20
-55.435855299073467
 11
479.89148047699467
 21
-49.947999998783018
  0
LINE
  8
_1-0_
  6
CONTINUOUS
 62
    9
 10
484.79148047699465
 20
-55.272999998782836
 11
484.79148047699465
 21
-56.422999998782927
  0
ARC
  8
_1-0_
  6
CONTINUOUS
 62
    9
 10
484.54148047699465
 20
-56.422999998782927
 40
0.25
 50
254.9999999999107
 51
0
  0
LINE
  8
_1-0_
  6
CONTINUOUS
 62
    9
 10
479.89148047699467
 20
-55.435855299073467
 11
484.4767757157187
 21
-56.664481455355201
  0
ARC
  8
_1-0_
  6
CONTINUOUS
 62
    9
 10
485.04148047699465
 20
-55.272999998782836
 40
0.25
 50
74.99999999995498
 51
180
  0
LINE
  8
_1-0_
  6
CONTINUOUS
 62
    9
 10
485.10618523827037
 20
-55.031518542211018
 11
487.64148047699467
 21
-55.7108488540037
  0
LINE
  8
_1-0_
  6
CONTINUOUS
 62
    9
 10
485.74148047699458
 20
-49.947999998783018
 11
485.74148047699458
 21
-55.201745388383017
  0
LINE
  8
_1-0_
  6
CONTINUOUS
 62
    9
 10
485.0914804769946
 20
-49.947999998783018
 11
485.0914804769946
 21
-55.027578413302365
  0
LINE
  8
_1-0_
  6
CONTINUOUS
 62
    9
 10
479.89148047699467
 20
-44.485144698492434
 11
479.89148047699467
 21
-49.947999998783018
  0
LINE
  8
_1-0_
  6
CONTINUOUS
 62
    9
 10
484.79148047699465
 20
-44.647999998783064
 11
484.79148047699465
 21
-43.497999998782973
  0
ARC
  8
_1-0_
  6
CONTINUOUS
 62
    9
 10
484.54148047699465
 20
-43.497999998782973
 40
0.25
 50
0
 51
105.00000000008929
  0
LINE
  8
_1-0_
  6
CONTINUOUS
 62
    9
 10
479.89148047699467
 20
-44.485144698492434
 11
484.47677571571859
 21
-43.256518542210699
  0
ARC
  8
_1-0_
  6
CONTINUOUS
 62
    9
 10
485.04148047699465
 20
-44.647999998783064
 40
0.25
 50
180
 51
285.00000000004496
  0
LINE
  8
_1-0_
  6
CONTINUOUS
 62
    9
 10
485.10618523827037
 20
-44.889481455354655
 11
487.64148047699467
 21
-44.210151143561973
  0
LINE
  8
_1-0_
  6
CONTINUOUS
 62
    9
 10
485.74148047699458
 20
-49.947999998783018
 11
485.74148047699458
 21
-44.719254609182656
  0
LINE
  8
_1-0_
  6
CONTINUOUS
 62
    9
 10
485.0914804769946
 20
-49.947999998783018
 11
485.0914804769946
 21
-44.893421584263535
  0
LINE
  8
_1-0_
  6
CONTINUOUS
 62
    7
 10
487.51648047699456
 20
-57.137192424791067
 11
487.51648047699456
 21
-56.437105656878714
  0
LINE
  8
_1-0_
  6
CONTINUOUS
 62
    7
 10
457.51648047699467
 20
-54.687105656878714
 11
457.51648047699467
 21
-49.937105656878714
  0
LINE
  8
_1-0_
  6
CONTINUOUS
 62
    7
 10
459.01648047699456
 20
-56.249605656878941
 11
486.01648047699467
 21
-57.374605656878941
  0
LINE
  8
_1-0_
  6
CONTINUOUS
 62
    7
 10
486.01648047699456
 20
-57.474692424791158
 11
486.01648047699456
 21
-57.374605656878714
  0
LINE
  8
_1-0_
  6
CONTINUOUS
 62
    7
 10
457.41648047699465
 20
-56.283025758124552
 11
457.41648047699465
 21
-54.687105656878714
  0
LINE
  8
_1-0_
  6
CONTINUOUS
 62
    7
 10
459.01648047699467
 20
-56.349692424791158
 11
459.01648047699467
 21
-56.249605656878714
  0
LINE
  8
_1-0_
  6
CONTINUOUS
 62
    7
 10
457.51648047699467
 20
-54.687105656878714
 11
457.41648047699465
 21
-54.687105656878714
  0
LINE
  8
_1-0_
  6
CONTINUOUS
 62
    7
 10
487.51648047699467
 20
-57.537192424791158
 11
486.01648047699479
 21
-57.474692424791158
  0
LINE
  8
_1-0_
  6
CONTINUOUS
 62
    7
 10
459.01648047699479
 20
-56.349692424791158
 11
457.41648047699442
 21
-56.283025758124552
  0
LINE
  8
_1-0_
  6
CONTINUOUS
 62
    7
 10
458.16648047699465
 20
-54.84422423944153
 11
458.16648047699465
 21
-49.937105656878714
  0
LINE
  8
_1-0_
  6
CONTINUOUS
 62
    7
 10
458.88525756846053
 20
-55.593574044260833
 11
484.79148047699454
 21
-56.672999998782927
  0
ARC
  8
_1-0_
  6
CONTINUOUS
 62
    7
 10
458.91648047699465
 20
-54.84422423944153
 40
0.75
 50
180
 51
267.6140559696114
  0
LINE
  8
_1-0_
  6
CONTINUOUS
 62
    7
 10
484.91648047699465
 20
-55.312105656878714
 11
487.51648047699467
 21
-56.437105656878714
  0
ARC
  8
_1-0_
  6
CONTINUOUS
 62
    7
 10
487.36648047699458
 20
-57.337192424791112
 40
0.25
 50
306.86989764584337
 51
53.13010235415657
  0
LINE
  8
_1-0_
  6
CONTINUOUS
 62
    7
 10
487.51648047699456
 20
-42.737018888966588
 11
487.51648047699456
 21
-43.437105656878714
  0
LINE
  8
_1-0_
  6
CONTINUOUS
 62
    7
 10
457.51648047699456
 20
-45.187105656878941
 11
457.51648047699456
 21
-49.937105656878941
  0
LINE
  8
_1-0_
  6
CONTINUOUS
 62
    7
 10
459.01648047699456
 20
-43.624605656878941
 11
486.01648047699456
 21
-42.499605656878941
  0
LINE
  8
_1-0_
  6
CONTINUOUS
 62
    7
 10
486.01648047699456
 20
-42.399518888966725
 11
486.01648047699456
 21
-42.499605656878714
  0
LINE
  8
_1-0_
  6
CONTINUOUS
 62
    7
 10
457.41648047699454
 20
-43.591185555633331
 11
457.41648047699454
 21
-45.187105656878714
  0
LINE
  8
_1-0_
  6
CONTINUOUS
 62
    7
 10
459.01648047699456
 20
-43.524518888966497
 11
459.01648047699456
 21
-43.624605656878714
  0
LINE
  8
_1-0_
  6
CONTINUOUS
 62
    7
 10
457.51648047699456
 20
-45.187105656878941
 11
457.41648047699465
 21
-45.187105656878941
  0
LINE
  8
_1-0_
  6
CONTINUOUS
 62
    7
 10
487.51648047699467
 20
-42.337018888966497
 11
486.01648047699479
 21
-42.399518888966497
  0
LINE
  8
_1-0_
  6
CONTINUOUS
 62
    7
 10
459.0164804769949
 20
-43.524518888966497
 11
457.41648047699465
 21
-43.591185555633331
  0
LINE
  8
_1-0_
  6
CONTINUOUS
 62
    7
 10
458.16648047699442
 20
-45.029987074316352
 11
458.16648047699442
 21
-49.937105656878941
  0
LINE
  8
_1-0_
  6
CONTINUOUS
 62
    7
 10
458.88525756846053
 20
-44.280637269497049
 11
484.79148047699465
 21
-43.201211314974728
  0
ARC
  8
_1-0_
  6
CONTINUOUS
 62
    7
 10
458.91648047699465
 20
-45.029987074316352
 40
0.75
 50
92.385944030388643
 51
180.00000000000006
  0
LINE
  8
_1-0_
  6
CONTINUOUS
 62
    7
 10
484.91648047699465
 20
-44.562105656878941
 11
487.51648047699467
 21
-43.437105656878941
  0
ARC
  8
_1-0_
  6
CONTINUOUS
 62
    7
 10
487.36648047699458
 20
-42.53701888896677
 40
0.25
 50
306.86989764584337
 51
53.130102354156669
  0
LINE
  8
_1-0_
  6
CONTINUOUS
 62
    7
 10
484.79148047699465
 20
-56.6729999987827
 11
484.91648047699465
 21
-55.312105656878941
  0
LINE
  8
_1-0_
  6
CONTINUOUS
 62
    7
 10
484.91648047699454
 20
-44.562105656878714
 11
484.79148047699454
 21
-43.201211314974728
  0
POINT
  8
_1-0_
 62
    4
 10
449.75514175088671
 20
-43.603685555356208
  0
LINE
  8
_1-0_
  6
CONTINUOUS
 62
    4
 10
449.75514175088671
 20
-43.603685555356208
 11
454.92177454560971
 21
-43.603685555356208
  0
POINT
  8
_1-0_
 62
    4
 10
449.75514175088671
 20
-56.283025758124552
  0
LINE
  8
_1-0_
  6
CONTINUOUS
 62
    4
 10
449.75514175088671
 20
-56.283025758124552
 11
454.92177454560971
 21
-56.283025758124552
  0
LINE
  8
_1-0_
  6
CONTINUOUS
 62
    4
 10
449.75514175088671
 20
-56.283025758124552
 11
449.75514175088671
 21
-43.603685555356208
  0
TEXT
  8
_1-0_
 62
    7
 10
514.11257904024001
 20
-34.471368857026448
 40
5.4000000000000057
 41
0.999999999999999
 50
0
  1
SUSトップタップ6×35
  0
LINE
  8
_1-0_
  6
CONTINUOUS
 62
    9
 10
479.89149592831569
 20
-92.935855299066873
 11
479.89149592831569
 21
-87.447999998776424
  0
LINE
  8
_1-0_
  6
CONTINUOUS
 62
    9
 10
484.79149592831567
 20
-92.772999998776243
 11
484.79149592831567
 21
-93.922999998776334
  0
ARC
  8
_1-0_
  6
CONTINUOUS
 62
    9
 10
484.54149592831567
 20
-93.922999998776334
 40
0.25
 50
254.9999999999107
 51
0
  0
LINE
  8
_1-0_
  6
CONTINUOUS
 62
    9
 10
479.89149592831569
 20
-92.935855299066873
 11
484.47679116703983
 21
-94.164481455348607
  0
ARC
  8
_1-0_
  6
CONTINUOUS
 62
    9
 10
485.04149592831567
 20
-92.772999998776243
 40
0.25
 50
74.99999999995498
 51
180
  0
LINE
  8
_1-0_
  6
CONTINUOUS
 62
    9
 10
485.09149592831574
 20
-87.447999998776424
 11
485.09149592831574
 21
-92.527578413295771
  0
LINE
  8
_1-0_
  6
CONTINUOUS
 62
    9
 10
479.89149592831569
 20
-81.98514469848584
 11
479.89149592831569
 21
-87.447999998776424
  0
LINE
  8
_1-0_
  6
CONTINUOUS
 62
    9
 10
484.79149592831567
 20
-82.14799999877647
 11
484.79149592831567
 21
-80.997999998776379
  0
LINE
  8
_1-0_
  6
CONTINUOUS
 62
    9
 10
479.89149592831569
 20
-81.985144698486067
 11
484.47679116703983
 21
-80.756518542204333
  0
ARC
  8
_1-0_
  6
CONTINUOUS
 62
    9
 10
485.04149592831567
 20
-82.14799999877647
 40
0.25
 50
180
 51
285.00000000004496
  0
LINE
  8
_1-0_
  6
CONTINUOUS
 62
    9
 10
485.10620068959139
 20
-82.389481455348289
 11
487.64149592831569
 21
-81.710151143555606
  0
LINE
  8
_1-0_
  6
CONTINUOUS
 62
    9
 10
485.74149592831571
 20
-87.447999998776424
 11
485.74149592831571
 21
-82.219254609176062
  0
LINE
  8
_1-0_
  6
CONTINUOUS
 62
    9
 10
485.09149592831574
 20
-87.447999998776424
 11
485.09149592831574
 21
-82.393421584256942
  0
ARC
  8
_1-0_
  6
CONTINUOUS
 62
    9
 10
484.54149592831567
 20
-80.997999998776379
 40
0.25
 50
0
 51
105.00000000008929
  0
LINE
  8
_1-0_
  6
CONTINUOUS
 62
    9
 10
485.1062006895915
 20
-92.531518542204424
 11
487.64149592831581
 21
-93.210848853997334
  0
LINE
  8
_1-0_
  6
CONTINUOUS
 62
    9
 10
485.74149592831571
 20
-87.447999998776424
 11
485.74149592831571
 21
-92.701745388376651
  0
LINE
  8
_1-0_
  6
CONTINUOUS
 62
    9
 10
479.89149592831569
 20
-92.9358552990671
 11
479.89149592831569
 21
-87.447999998776652
  0
LINE
  8
_1-0_
  6
CONTINUOUS
 62
    9
 10
484.79149592831567
 20
-92.77299999877647
 11
484.79149592831567
 21
-93.922999998776561
  0
ARC
  8
_1-0_
  6
CONTINUOUS
 62
    9
 10
484.54149592831567
 20
-93.922999998776561
 40
0.25
 50
254.9999999999107
 51
0
  0
LINE
  8
_1-0_
  6
CONTINUOUS
 62
    9
 10
479.89149592831569
 20
-92.9358552990671
 11
484.47679116703972
 21
-94.164481455348835
  0
ARC
  8
_1-0_
  6
CONTINUOUS
 62
    9
 10
485.04149592831567
 20
-92.77299999877647
 40
0.25
 50
74.99999999995498
 51
180
  0
LINE
  8
_1-0_
  6
CONTINUOUS
 62
    9
 10
485.10620068959139
 20
-92.531518542204651
 11
487.64149592831569
 21
-93.210848853997334
  0
LINE
  8
_1-0_
  6
CONTINUOUS
 62
    9
 10
485.7414959283156
 20
-87.447999998776652
 11
485.7414959283156
 21
-92.701745388376651
  0
LINE
  8
_1-0_
  6
CONTINUOUS
 62
    9
 10
485.09149592831562
 20
-87.447999998776652
 11
485.09149592831562
 21
-92.527578413295998
  0
LINE
  8
_1-0_
  6
CONTINUOUS
 62
    9
 10
479.89149592831569
 20
-81.985144698486067
 11
479.89149592831569
 21
-87.447999998776652
  0
LINE
  8
_1-0_
  6
CONTINUOUS
 62
    9
 10
484.79149592831567
 20
-82.147999998776697
 11
484.79149592831567
 21
-80.997999998776606
  0
ARC
  8
_1-0_
  6
CONTINUOUS
 62
    9
 10
484.54149592831567
 20
-80.997999998776606
 40
0.25
 50
0
 51
105.00000000008929
  0
LINE
  8
_1-0_
  6
CONTINUOUS
 62
    9
 10
479.89149592831569
 20
-81.985144698486067
 11
484.47679116703961
 21
-80.756518542204333
  0
ARC
  8
_1-0_
  6
CONTINUOUS
 62
    9
 10
485.04149592831567
 20
-82.147999998776697
 40
0.25
 50
180
 51
285.00000000004496
  0
LINE
  8
_1-0_
  6
CONTINUOUS
 62
    9
 10
485.10620068959139
 20
-82.389481455348289
 11
487.64149592831569
 21
-81.710151143555606
  0
LINE
  8
_1-0_
  6
CONTINUOUS
 62
    9
 10
485.7414959283156
 20
-87.447999998776652
 11
485.7414959283156
 21
-82.219254609176289
  0
LINE
  8
_1-0_
  6
CONTINUOUS
 62
    9
 10
485.09149592831562
 20
-87.447999998776652
 11
485.09149592831562
 21
-82.393421584257169
  0
LINE
  8
_1-0_
  6
CONTINUOUS
 62
    7
 10
487.51649592831558
 20
-94.637192424784701
 11
487.51649592831558
 21
-93.937105656872347
  0
LINE
  8
_1-0_
  6
CONTINUOUS
 62
    7
 10
457.51649592831569
 20
-92.187105656872347
 11
457.51649592831569
 21
-87.437105656872347
  0
LINE
  8
_1-0_
  6
CONTINUOUS
 62
    7
 10
459.01649592831558
 20
-93.749605656872575
 11
486.01649592831569
 21
-94.874605656872575
  0
LINE
  8
_1-0_
  6
CONTINUOUS
 62
    7
 10
486.01649592831558
 20
-94.974692424784791
 11
486.01649592831558
 21
-94.874605656872347
  0
LINE
  8
_1-0_
  6
CONTINUOUS
 62
    7
 10
457.41649592831567
 20
-93.783025758118185
 11
457.41649592831567
 21
-92.187105656872347
  0
LINE
  8
_1-0_
  6
CONTINUOUS
 62
    7
 10
459.01649592831569
 20
-93.849692424784791
 11
459.01649592831569
 21
-93.749605656872347
  0
LINE
  8
_1-0_
  6
CONTINUOUS
 62
    7
 10
457.51649592831569
 20
-92.187105656872347
 11
457.41649592831567
 21
-92.187105656872347
  0
LINE
  8
_1-0_
  6
CONTINUOUS
 62
    7
 10
487.51649592831569
 20
-95.037192424784791
 11
486.01649592831581
 21
-94.974692424784791
  0
LINE
  8
_1-0_
  6
CONTINUOUS
 62
    7
 10
459.01649592831581
 20
-93.849692424784791
 11
457.41649592831544
 21
-93.783025758118185
  0
LINE
  8
_1-0_
  6
CONTINUOUS
 62
    7
 10
458.16649592831567
 20
-92.344224239435164
 11
458.16649592831567
 21
-87.437105656872347
  0
LINE
  8
_1-0_
  6
CONTINUOUS
 62
    7
 10
458.88527301978155
 20
-93.093574044254467
 11
484.79149592831556
 21
-94.172999998776561
  0
ARC
  8
_1-0_
  6
CONTINUOUS
 62
    7
 10
458.91649592831567
 20
-92.344224239435164
 40
0.75
 50
180
 51
267.6140559696114
  0
LINE
  8
_1-0_
  6
CONTINUOUS
 62
    7
 10
484.91649592831567
 20
-92.812105656872347
 11
487.51649592831569
 21
-93.937105656872347
  0
ARC
  8
_1-0_
  6
CONTINUOUS
 62
    7
 10
487.3664959283156
 20
-94.837192424784746
 40
0.25
 50
306.86989764584337
 51
53.13010235415657
  0
LINE
  8
_1-0_
  6
CONTINUOUS
 62
    7
 10
487.51649592831558
 20
-80.237018888960222
 11
487.51649592831558
 21
-80.937105656872347
  0
LINE
  8
_1-0_
  6
CONTINUOUS
 62
    7
 10
457.51649592831558
 20
-82.687105656872575
 11
457.51649592831558
 21
-87.437105656872575
  0
LINE
  8
_1-0_
  6
CONTINUOUS
 62
    7
 10
459.01649592831558
 20
-81.124605656872575
 11
486.01649592831558
 21
-79.999605656872575
  0
LINE
  8
_1-0_
  6
CONTINUOUS
 62
    7
 10
486.01649592831558
 20
-79.899518888960358
 11
486.01649592831558
 21
-79.999605656872347
  0
LINE
  8
_1-0_
  6
CONTINUOUS
 62
    7
 10
457.41649592831556
 20
-81.091185555626964
 11
457.41649592831556
 21
-82.687105656872347
  0
LINE
  8
_1-0_
  6
CONTINUOUS
 62
    7
 10
459.01649592831558
 20
-81.024518888960131
 11
459.01649592831558
 21
-81.124605656872347
  0
LINE
  8
_1-0_
  6
CONTINUOUS
 62
    7
 10
457.51649592831558
 20
-82.687105656872575
 11
457.41649592831567
 21
-82.687105656872575
  0
LINE
  8
_1-0_
  6
CONTINUOUS
 62
    7
 10
487.51649592831569
 20
-79.837018888960131
 11
486.01649592831581
 21
-79.899518888960131
  0
LINE
  8
_1-0_
  6
CONTINUOUS
 62
    7
 10
459.01649592831592
 20
-81.024518888960131
 11
457.41649592831567
 21
-81.091185555626964
  0
LINE
  8
_1-0_
  6
CONTINUOUS
 62
    7
 10
458.16649592831544
 20
-82.529987074309986
 11
458.16649592831544
 21
-87.437105656872575
  0
LINE
  8
_1-0_
  6
CONTINUOUS
 62
    7
 10
458.88527301978155
 20
-81.780637269490683
 11
484.79149592831567
 21
-80.701211314968361
  0
ARC
  8
_1-0_
  6
CONTINUOUS
 62
    7
 10
458.91649592831567
 20
-82.529987074309986
 40
0.75
 50
92.385944030388643
 51
180.00000000000006
  0
LINE
  8
_1-0_
  6
CONTINUOUS
 62
    7
 10
484.91649592831567
 20
-82.062105656872575
 11
487.51649592831569
 21
-80.937105656872575
  0
ARC
  8
_1-0_
  6
CONTINUOUS
 62
    7
 10
487.3664959283156
 20
-80.037018888960404
 40
0.25
 50
306.86989764584337
 51
53.130102354156669
  0
LINE
  8
_1-0_
  6
CONTINUOUS
 62
    7
 10
484.79149592831567
 20
-94.172999998776334
 11
484.91649592831567
 21
-92.812105656872575
  0
LINE
  8
_1-0_
  6
CONTINUOUS
 62
    7
 10
484.91649592831556
 20
-82.062105656872347
 11
484.79149592831556
 21
-80.701211314968361
  0
POINT
  8
_1-0_
 62
    4
 10
449.75515720220773
 20
-81.103685555349841
  0
LINE
  8
_1-0_
  6
CONTINUOUS
 62
    4
 10
449.75515720220773
 20
-81.103685555349841
 11
454.92178999693073
 21
-81.103685555349841
  0
POINT
  8
_1-0_
 62
    4
 10
449.75515720220773
 20
-93.783025758118185
  0
LINE
  8
_1-0_
  6
CONTINUOUS
 62
    4
 10
449.75515720220773
 20
-93.783025758118185
 11
454.92178999693073
 21
-93.783025758118185
  0
LINE
  8
_1-0_
  6
CONTINUOUS
 62
    4
 10
449.75515720220773
 20
-93.783025758118185
 11
449.75515720220773
 21
-81.103685555349841
  0
TEXT
  8
_1-0_
 62
    2
 10
449.25514175088671
 20
-52.06835565674038
 40
4
 41
1
 50
90
  1
25
  0
LINE
  8
_1-0_
  6
CONTINUOUS
 62
    9
 10
479.89151137963671
 20
-130.43585529906051
 11
479.89151137963671
 21
-124.94799999877006
  0
LINE
  8
_1-0_
  6
CONTINUOUS
 62
    9
 10
484.79151137963669
 20
-130.27299999876988
 11
484.79151137963669
 21
-131.42299999876997
  0
ARC
  8
_1-0_
  6
CONTINUOUS
 62
    9
 10
484.54151137963669
 20
-131.42299999876997
 40
0.25
 50
254.9999999999107
 51
0
  0
LINE
  8
_1-0_
  6
CONTINUOUS
 62
    9
 10
479.89151137963671
 20
-130.43585529906051
 11
484.47680661836085
 21
-131.66448145534224
  0
ARC
  8
_1-0_
  6
CONTINUOUS
 62
    9
 10
485.04151137963669
 20
-130.27299999876988
 40
0.25
 50
74.99999999995498
 51
180
  0
LINE
  8
_1-0_
  6
CONTINUOUS
 62
    9
 10
485.09151137963676
 20
-124.94799999877006
 11
485.09151137963676
 21
-130.0275784132894
  0
LINE
  8
_1-0_
  6
CONTINUOUS
 62
    9
 10
479.89151137963671
 20
-119.48514469847947
 11
479.89151137963671
 21
-124.94799999877006
  0
LINE
  8
_1-0_
  6
CONTINUOUS
 62
    9
 10
484.79151137963669
 20
-119.6479999987701
 11
484.79151137963669
 21
-118.49799999877001
  0
LINE
  8
_1-0_
  6
CONTINUOUS
 62
    9
 10
479.89151137963671
 20
-119.4851446984797
 11
484.47680661836085
 21
-118.25651854219797
  0
ARC
  8
_1-0_
  6
CONTINUOUS
 62
    9
 10
485.04151137963669
 20
-119.6479999987701
 40
0.25
 50
180
 51
285.00000000004496
  0
LINE
  8
_1-0_
  6
CONTINUOUS
 62
    9
 10
485.10621614091241
 20
-119.88948145534192
 11
487.64151137963671
 21
-119.21015114354924
  0
LINE
  8
_1-0_
  6
CONTINUOUS
 62
    9
 10
485.74151137963673
 20
-124.94799999877006
 11
485.74151137963673
 21
-119.7192546091697
  0
LINE
  8
_1-0_
  6
CONTINUOUS
 62
    9
 10
485.09151137963676
 20
-124.94799999877006
 11
485.09151137963676
 21
-119.89342158425058
  0
ARC
  8
_1-0_
  6
CONTINUOUS
 62
    9
 10
484.54151137963669
 20
-118.49799999877001
 40
0.25
 50
0
 51
105.00000000008929
  0
LINE
  8
_1-0_
  6
CONTINUOUS
 62
    9
 10
485.10621614091252
 20
-130.03151854219806
 11
487.64151137963682
 21
-130.71084885399097
  0
LINE
  8
_1-0_
  6
CONTINUOUS
 62
    9
 10
485.74151137963673
 20
-124.94799999877006
 11
485.74151137963673
 21
-130.20174538837028
  0
LINE
  8
_1-0_
  6
CONTINUOUS
 62
    9
 10
479.89151137963671
 20
-130.43585529906073
 11
479.89151137963671
 21
-124.94799999877029
  0
LINE
  8
_1-0_
  6
CONTINUOUS
 62
    9
 10
484.79151137963669
 20
-130.2729999987701
 11
484.79151137963669
 21
-131.42299999877019
  0
ARC
  8
_1-0_
  6
CONTINUOUS
 62
    9
 10
484.54151137963669
 20
-131.42299999877019
 40
0.25
 50
254.9999999999107
 51
0
  0
LINE
  8
_1-0_
  6
CONTINUOUS
 62
    9
 10
479.89151137963671
 20
-130.43585529906073
 11
484.47680661836074
 21
-131.66448145534247
  0
ARC
  8
_1-0_
  6
CONTINUOUS
 62
    9
 10
485.04151137963669
 20
-130.2729999987701
 40
0.25
 50
74.99999999995498
 51
180
  0
LINE
  8
_1-0_
  6
CONTINUOUS
 62
    9
 10
485.10621614091241
 20
-130.03151854219828
 11
487.64151137963671
 21
-130.71084885399097
  0
LINE
  8
_1-0_
  6
CONTINUOUS
 62
    9
 10
485.74151137963662
 20
-124.94799999877029
 11
485.74151137963662
 21
-130.20174538837028
  0
LINE
  8
_1-0_
  6
CONTINUOUS
 62
    9
 10
485.09151137963664
 20
-124.94799999877029
 11
485.09151137963664
 21
-130.02757841328963
  0
LINE
  8
_1-0_
  6
CONTINUOUS
 62
    9
 10
479.89151137963671
 20
-119.4851446984797
 11
479.89151137963671
 21
-124.94799999877029
  0
LINE
  8
_1-0_
  6
CONTINUOUS
 62
    9
 10
484.79151137963669
 20
-119.64799999877033
 11
484.79151137963669
 21
-118.49799999877024
  0
ARC
  8
_1-0_
  6
CONTINUOUS
 62
    9
 10
484.54151137963669
 20
-118.49799999877024
 40
0.25
 50
0
 51
105.00000000008929
  0
LINE
  8
_1-0_
  6
CONTINUOUS
 62
    9
 10
479.89151137963671
 20
-119.4851446984797
 11
484.47680661836063
 21
-118.25651854219797
  0
ARC
  8
_1-0_
  6
CONTINUOUS
 62
    9
 10
485.04151137963669
 20
-119.64799999877033
 40
0.25
 50
180
 51
285.00000000004496
  0
LINE
  8
_1-0_
  6
CONTINUOUS
 62
    9
 10
485.10621614091241
 20
-119.88948145534192
 11
487.64151137963671
 21
-119.21015114354924
  0
LINE
  8
_1-0_
  6
CONTINUOUS
 62
    9
 10
485.74151137963662
 20
-124.94799999877029
 11
485.74151137963662
 21
-119.71925460916992
  0
LINE
  8
_1-0_
  6
CONTINUOUS
 62
    9
 10
485.09151137963664
 20
-124.94799999877029
 11
485.09151137963664
 21
-119.8934215842508
  0
LINE
  8
_1-0_
  6
CONTINUOUS
 62
    7
 10
487.5165113796366
 20
-132.13719242477833
 11
487.5165113796366
 21
-131.43710565686598
  0
LINE
  8
_1-0_
  6
CONTINUOUS
 62
    7
 10
457.51651137963671
 20
-129.68710565686598
 11
457.51651137963671
 21
-124.93710565686598
  0
LINE
  8
_1-0_
  6
CONTINUOUS
 62
    7
 10
459.0165113796366
 20
-131.24960565686621
 11
486.01651137963671
 21
-132.37460565686621
  0
LINE
  8
_1-0_
  6
CONTINUOUS
 62
    7
 10
486.0165113796366
 20
-132.47469242477842
 11
486.0165113796366
 21
-132.37460565686598
  0
LINE
  8
_1-0_
  6
CONTINUOUS
 62
    7
 10
457.41651137963669
 20
-131.28302575811182
 11
457.41651137963669
 21
-129.68710565686598
  0
LINE
  8
_1-0_
  6
CONTINUOUS
 62
    7
 10
459.01651137963671
 20
-131.34969242477842
 11
459.01651137963671
 21
-131.24960565686598
  0
LINE
  8
_1-0_
  6
CONTINUOUS
 62
    7
 10
457.51651137963671
 20
-129.68710565686598
 11
457.41651137963669
 21
-129.68710565686598
  0
LINE
  8
_1-0_
  6
CONTINUOUS
 62
    7
 10
487.51651137963671
 20
-132.53719242477842
 11
486.01651137963682
 21
-132.47469242477842
  0
LINE
  8
_1-0_
  6
CONTINUOUS
 62
    7
 10
459.01651137963682
 20
-131.34969242477842
 11
457.41651137963646
 21
-131.28302575811182
  0
LINE
  8
_1-0_
  6
CONTINUOUS
 62
    7
 10
458.16651137963669
 20
-129.8442242394288
 11
458.16651137963669
 21
-124.93710565686598
  0
LINE
  8
_1-0_
  6
CONTINUOUS
 62
    7
 10
458.88528847110257
 20
-130.5935740442481
 11
484.79151137963657
 21
-131.67299999877019
  0
ARC
  8
_1-0_
  6
CONTINUOUS
 62
    7
 10
458.91651137963669
 20
-129.8442242394288
 40
0.75
 50
180
 51
267.6140559696114
  0
LINE
  8
_1-0_
  6
CONTINUOUS
 62
    7
 10
484.91651137963669
 20
-130.31210565686598
 11
487.51651137963671
 21
-131.43710565686598
  0
ARC
  8
_1-0_
  6
CONTINUOUS
 62
    7
 10
487.36651137963662
 20
-132.33719242477838
 40
0.25
 50
306.86989764584337
 51
53.13010235415657
  0
LINE
  8
_1-0_
  6
CONTINUOUS
 62
    7
 10
487.5165113796366
 20
-117.73701888895386
 11
487.5165113796366
 21
-118.43710565686598
  0
LINE
  8
_1-0_
  6
CONTINUOUS
 62
    7
 10
457.5165113796366
 20
-120.18710565686621
 11
457.5165113796366
 21
-124.93710565686621
  0
LINE
  8
_1-0_
  6
CONTINUOUS
 62
    7
 10
459.0165113796366
 20
-118.62460565686621
 11
486.0165113796366
 21
-117.49960565686621
  0
LINE
  8
_1-0_
  6
CONTINUOUS
 62
    7
 10
486.0165113796366
 20
-117.39951888895399
 11
486.0165113796366
 21
-117.49960565686598
  0
LINE
  8
_1-0_
  6
CONTINUOUS
 62
    7
 10
457.41651137963657
 20
-118.5911855556206
 11
457.41651137963657
 21
-120.18710565686598
  0
LINE
  8
_1-0_
  6
CONTINUOUS
 62
    7
 10
459.0165113796366
 20
-118.52451888895376
 11
459.0165113796366
 21
-118.62460565686598
  0
LINE
  8
_1-0_
  6
CONTINUOUS
 62
    7
 10
457.5165113796366
 20
-120.18710565686621
 11
457.41651137963669
 21
-120.18710565686621
  0
LINE
  8
_1-0_
  6
CONTINUOUS
 62
    7
 10
487.51651137963671
 20
-117.33701888895376
 11
486.01651137963682
 21
-117.39951888895376
  0
LINE
  8
_1-0_
  6
CONTINUOUS
 62
    7
 10
459.01651137963694
 20
-118.52451888895376
 11
457.41651137963669
 21
-118.5911855556206
  0
LINE
  8
_1-0_
  6
CONTINUOUS
 62
    7
 10
458.16651137963646
 20
-120.02998707430362
 11
458.16651137963646
 21
-124.93710565686621
  0
LINE
  8
_1-0_
  6
CONTINUOUS
 62
    7
 10
458.88528847110257
 20
-119.28063726948432
 11
484.79151137963669
 21
-118.20121131496199
  0
ARC
  8
_1-0_
  6
CONTINUOUS
 62
    7
 10
458.91651137963669
 20
-120.02998707430362
 40
0.75
 50
92.385944030388643
 51
180.00000000000006
  0
LINE
  8
_1-0_
  6
CONTINUOUS
 62
    7
 10
484.91651137963669
 20
-119.56210565686621
 11
487.51651137963671
 21
-118.43710565686621
  0
ARC
  8
_1-0_
  6
CONTINUOUS
 62
    7
 10
487.36651137963662
 20
-117.53701888895404
 40
0.25
 50
306.86989764584337
 51
53.130102354156669
  0
LINE
  8
_1-0_
  6
CONTINUOUS
 62
    7
 10
484.79151137963669
 20
-131.67299999876997
 11
484.91651137963669
 21
-130.31210565686621
  0
LINE
  8
_1-0_
  6
CONTINUOUS
 62
    7
 10
484.91651137963657
 20
-119.56210565686598
 11
484.79151137963657
 21
-118.20121131496199
  0
POINT
  8
_1-0_
 62
    4
 10
449.75517265352875
 20
-118.60368555534347
  0
LINE
  8
_1-0_
  6
CONTINUOUS
 62
    4
 10
449.75517265352875
 20
-118.60368555534347
 11
454.92180544825175
 21
-118.60368555534347
  0
POINT
  8
_1-0_
 62
    4
 10
449.75517265352875
 20
-131.28302575811182
  0
LINE
  8
_1-0_
  6
CONTINUOUS
 62
    4
 10
449.75517265352875
 20
-131.28302575811182
 11
454.92180544825175
 21
-131.28302575811182
  0
LINE
  8
_1-0_
  6
CONTINUOUS
 62
    4
 10
449.75517265352875
 20
-131.28302575811182
 11
449.75517265352875
 21
-118.60368555534347
  0
TEXT
  8
_1-0_
 62
    2
 10
449.25515720220773
 20
-89.568355656734013
 40
4
 41
1
 50
90
  1
25
  0
LINE
  8
_1-0_
  6
CONTINUOUS
 62
    9
 10
479.89152683095773
 20
-167.93585529905414
 11
479.89152683095773
 21
-162.44799999876369
  0
LINE
  8
_1-0_
  6
CONTINUOUS
 62
    9
 10
484.79152683095771
 20
-167.77299999876351
 11
484.79152683095771
 21
-168.9229999987636
  0
ARC
  8
_1-0_
  6
CONTINUOUS
 62
    9
 10
484.54152683095771
 20
-168.9229999987636
 40
0.25
 50
254.9999999999107
 51
0
  0
LINE
  8
_1-0_
  6
CONTINUOUS
 62
    9
 10
479.89152683095773
 20
-167.93585529905414
 11
484.47682206968187
 21
-169.16448145533587
  0
ARC
  8
_1-0_
  6
CONTINUOUS
 62
    9
 10
485.04152683095771
 20
-167.77299999876351
 40
0.25
 50
74.99999999995498
 51
180
  0
LINE
  8
_1-0_
  6
CONTINUOUS
 62
    9
 10
485.09152683095778
 20
-162.44799999876369
 11
485.09152683095778
 21
-167.52757841328304
  0
LINE
  8
_1-0_
  6
CONTINUOUS
 62
    9
 10
479.89152683095773
 20
-156.98514469847311
 11
479.89152683095773
 21
-162.44799999876369
  0
LINE
  8
_1-0_
  6
CONTINUOUS
 62
    9
 10
484.79152683095771
 20
-157.14799999876374
 11
484.79152683095771
 21
-155.99799999876365
  0
LINE
  8
_1-0_
  6
CONTINUOUS
 62
    9
 10
479.89152683095773
 20
-156.98514469847333
 11
484.47682206968187
 21
-155.7565185421916
  0
ARC
  8
_1-0_
  6
CONTINUOUS
 62
    9
 10
485.04152683095771
 20
-157.14799999876374
 40
0.25
 50
180
 51
285.00000000004496
  0
LINE
  8
_1-0_
  6
CONTINUOUS
 62
    9
 10
485.10623159223343
 20
-157.38948145533556
 11
487.64152683095773
 21
-156.71015114354287
  0
LINE
  8
_1-0_
  6
CONTINUOUS
 62
    9
 10
485.74152683095775
 20
-162.44799999876369
 11
485.74152683095775
 21
-157.21925460916333
  0
LINE
  8
_1-0_
  6
CONTINUOUS
 62
    9
 10
485.09152683095778
 20
-162.44799999876369
 11
485.09152683095778
 21
-157.39342158424421
  0
ARC
  8
_1-0_
  6
CONTINUOUS
 62
    9
 10
484.54152683095771
 20
-155.99799999876365
 40
0.25
 50
0
 51
105.00000000008929
  0
LINE
  8
_1-0_
  6
CONTINUOUS
 62
    9
 10
485.10623159223354
 20
-167.53151854219169
 11
487.64152683095784
 21
-168.2108488539846
  0
LINE
  8
_1-0_
  6
CONTINUOUS
 62
    9
 10
485.74152683095775
 20
-162.44799999876369
 11
485.74152683095775
 21
-167.70174538836392
  0
LINE
  8
_1-0_
  6
CONTINUOUS
 62
    9
 10
479.89152683095773
 20
-167.93585529905437
 11
479.89152683095773
 21
-162.44799999876392
  0
LINE
  8
_1-0_
  6
CONTINUOUS
 62
    9
 10
484.79152683095771
 20
-167.77299999876374
 11
484.79152683095771
 21
-168.92299999876383
  0
ARC
  8
_1-0_
  6
CONTINUOUS
 62
    9
 10
484.54152683095771
 20
-168.92299999876383
 40
0.25
 50
254.9999999999107
 51
0
  0
LINE
  8
_1-0_
  6
CONTINUOUS
 62
    9
 10
479.89152683095773
 20
-167.93585529905437
 11
484.47682206968176
 21
-169.1644814553361
  0
ARC
  8
_1-0_
  6
CONTINUOUS
 62
    9
 10
485.04152683095771
 20
-167.77299999876374
 40
0.25
 50
74.99999999995498
 51
180
  0
LINE
  8
_1-0_
  6
CONTINUOUS
 62
    9
 10
485.10623159223343
 20
-167.53151854219192
 11
487.64152683095773
 21
-168.2108488539846
  0
LINE
  8
_1-0_
  6
CONTINUOUS
 62
    9
 10
485.74152683095764
 20
-162.44799999876392
 11
485.74152683095764
 21
-167.70174538836392
  0
LINE
  8
_1-0_
  6
CONTINUOUS
 62
    9
 10
485.09152683095766
 20
-162.44799999876392
 11
485.09152683095766
 21
-167.52757841328327
  0
LINE
  8
_1-0_
  6
CONTINUOUS
 62
    9
 10
479.89152683095773
 20
-156.98514469847333
 11
479.89152683095773
 21
-162.44799999876392
  0
LINE
  8
_1-0_
  6
CONTINUOUS
 62
    9
 10
484.79152683095771
 20
-157.14799999876396
 11
484.79152683095771
 21
-155.99799999876387
  0
ARC
  8
_1-0_
  6
CONTINUOUS
 62
    9
 10
484.54152683095771
 20
-155.99799999876387
 40
0.25
 50
0
 51
105.00000000008929
  0
LINE
  8
_1-0_
  6
CONTINUOUS
 62
    9
 10
479.89152683095773
 20
-156.98514469847333
 11
484.47682206968165
 21
-155.7565185421916
  0
ARC
  8
_1-0_
  6
CONTINUOUS
 62
    9
 10
485.04152683095771
 20
-157.14799999876396
 40
0.25
 50
180
 51
285.00000000004496
  0
LINE
  8
_1-0_
  6
CONTINUOUS
 62
    9
 10
485.10623159223343
 20
-157.38948145533556
 11
487.64152683095773
 21
-156.71015114354287
  0
LINE
  8
_1-0_
  6
CONTINUOUS
 62
    9
 10
485.74152683095764
 20
-162.44799999876392
 11
485.74152683095764
 21
-157.21925460916356
  0
LINE
  8
_1-0_
  6
CONTINUOUS
 62
    9
 10
485.09152683095766
 20
-162.44799999876392
 11
485.09152683095766
 21
-157.39342158424444
  0
LINE
  8
_1-0_
  6
CONTINUOUS
 62
    7
 10
487.51652683095762
 20
-169.63719242477197
 11
487.51652683095762
 21
-168.93710565685961
  0
LINE
  8
_1-0_
  6
CONTINUOUS
 62
    7
 10
457.51652683095773
 20
-167.18710565685961
 11
457.51652683095773
 21
-162.43710565685961
  0
LINE
  8
_1-0_
  6
CONTINUOUS
 62
    7
 10
459.01652683095762
 20
-168.74960565685984
 11
486.01652683095773
 21
-169.87460565685984
  0
LINE
  8
_1-0_
  6
CONTINUOUS
 62
    7
 10
486.01652683095762
 20
-169.97469242477206
 11
486.01652683095762
 21
-169.87460565685961
  0
LINE
  8
_1-0_
  6
CONTINUOUS
 62
    7
 10
457.41652683095771
 20
-168.78302575810545
 11
457.41652683095771
 21
-167.18710565685961
  0
LINE
  8
_1-0_
  6
CONTINUOUS
 62
    7
 10
459.01652683095773
 20
-168.84969242477206
 11
459.01652683095773
 21
-168.74960565685961
  0
LINE
  8
_1-0_
  6
CONTINUOUS
 62
    7
 10
457.51652683095773
 20
-167.18710565685961
 11
457.41652683095771
 21
-167.18710565685961
  0
LINE
  8
_1-0_
  6
CONTINUOUS
 62
    7
 10
487.51652683095773
 20
-170.03719242477206
 11
486.01652683095784
 21
-169.97469242477206
  0
LINE
  8
_1-0_
  6
CONTINUOUS
 62
    7
 10
459.01652683095784
 20
-168.84969242477206
 11
457.41652683095748
 21
-168.78302575810545
  0
LINE
  8
_1-0_
  6
CONTINUOUS
 62
    7
 10
458.16652683095771
 20
-167.34422423942243
 11
458.16652683095771
 21
-162.43710565685961
  0
LINE
  8
_1-0_
  6
CONTINUOUS
 62
    7
 10
458.88530392242359
 20
-168.09357404424173
 11
484.79152683095759
 21
-169.17299999876383
  0
ARC
  8
_1-0_
  6
CONTINUOUS
 62
    7
 10
458.91652683095771
 20
-167.34422423942243
 40
0.75
 50
180
 51
267.6140559696114
  0
LINE
  8
_1-0_
  6
CONTINUOUS
 62
    7
 10
484.91652683095771
 20
-167.81210565685961
 11
487.51652683095773
 21
-168.93710565685961
  0
ARC
  8
_1-0_
  6
CONTINUOUS
 62
    7
 10
487.36652683095764
 20
-169.83719242477201
 40
0.25
 50
306.86989764584337
 51
53.13010235415657
  0
LINE
  8
_1-0_
  6
CONTINUOUS
 62
    7
 10
487.51652683095762
 20
-155.23701888894749
 11
487.51652683095762
 21
-155.93710565685961
  0
LINE
  8
_1-0_
  6
CONTINUOUS
 62
    7
 10
457.51652683095762
 20
-157.68710565685984
 11
457.51652683095762
 21
-162.43710565685984
  0
LINE
  8
_1-0_
  6
CONTINUOUS
 62
    7
 10
459.01652683095762
 20
-156.12460565685984
 11
486.01652683095762
 21
-154.99960565685984
  0
LINE
  8
_1-0_
  6
CONTINUOUS
 62
    7
 10
486.01652683095762
 20
-154.89951888894763
 11
486.01652683095762
 21
-154.99960565685961
  0
LINE
  8
_1-0_
  6
CONTINUOUS
 62
    7
 10
457.41652683095759
 20
-156.09118555561423
 11
457.41652683095759
 21
-157.68710565685961
  0
LINE
  8
_1-0_
  6
CONTINUOUS
 62
    7
 10
459.01652683095762
 20
-156.0245188889474
 11
459.01652683095762
 21
-156.12460565685961
  0
LINE
  8
_1-0_
  6
CONTINUOUS
 62
    7
 10
457.51652683095762
 20
-157.68710565685984
 11
457.41652683095771
 21
-157.68710565685984
  0
LINE
  8
_1-0_
  6
CONTINUOUS
 62
    7
 10
487.51652683095773
 20
-154.8370188889474
 11
486.01652683095784
 21
-154.8995188889474
  0
LINE
  8
_1-0_
  6
CONTINUOUS
 62
    7
 10
459.01652683095796
 20
-156.0245188889474
 11
457.41652683095771
 21
-156.09118555561423
  0
LINE
  8
_1-0_
  6
CONTINUOUS
 62
    7
 10
458.16652683095748
 20
-157.52998707429725
 11
458.16652683095748
 21
-162.43710565685984
  0
LINE
  8
_1-0_
  6
CONTINUOUS
 62
    7
 10
458.88530392242359
 20
-156.78063726947795
 11
484.79152683095771
 21
-155.70121131495563
  0
ARC
  8
_1-0_
  6
CONTINUOUS
 62
    7
 10
458.91652683095771
 20
-157.52998707429725
 40
0.75
 50
92.385944030388643
 51
180.00000000000006
  0
LINE
  8
_1-0_
  6
CONTINUOUS
 62
    7
 10
484.91652683095771
 20
-157.06210565685984
 11
487.51652683095773
 21
-155.93710565685984
  0
ARC
  8
_1-0_
  6
CONTINUOUS
 62
    7
 10
487.36652683095764
 20
-155.03701888894767
 40
0.25
 50
306.86989764584337
 51
53.130102354156669
  0
LINE
  8
_1-0_
  6
CONTINUOUS
 62
    7
 10
484.79152683095771
 20
-169.1729999987636
 11
484.91652683095771
 21
-167.81210565685984
  0
LINE
  8
_1-0_
  6
CONTINUOUS
 62
    7
 10
484.91652683095759
 20
-157.06210565685961
 11
484.79152683095759
 21
-155.70121131495563
  0
POINT
  8
_1-0_
 62
    4
 10
449.75518810484976
 20
-156.10368555533711
  0
LINE
  8
_1-0_
  6
CONTINUOUS
 62
    4
 10
449.75518810484976
 20
-156.10368555533711
 11
454.92182089957277
 21
-156.10368555533711
  0
POINT
  8
_1-0_
 62
    4
 10
449.75518810484976
 20
-168.78302575810545
  0
LINE
  8
_1-0_
  6
CONTINUOUS
 62
    4
 10
449.75518810484976
 20
-168.78302575810545
 11
454.92182089957277
 21
-168.78302575810545
  0
LINE
  8
_1-0_
  6
CONTINUOUS
 62
    4
 10
449.75518810484976
 20
-168.78302575810545
 11
449.75518810484976
 21
-156.10368555533711
  0
TEXT
  8
_1-0_
 62
    7
 10
511.41683335879992
 20
-109.87415301735729
 40
5.4000000000000057
 41
0.999999999999999
 50
0
  1
ストリンガー LST
  0
LINE
  8
_1-0_
  6
CONTINUOUS
 62
    7
 10
606.21359502533085
 20
51.268688380482899
 11
606.21359502533085
 21
53.368948684219959
  0
LINE
  8
_1-0_
  6
CONTINUOUS
 62
    7
 10
516.21359502533119
 20
58.618948684219959
 11
516.21359502533119
 21
72.868948684219959
  0
LINE
  8
_1-0_
  6
CONTINUOUS
 62
    7
 10
520.71359502533085
 20
53.931448684219276
 11
601.71359502533119
 21
50.556448684219276
  0
LINE
  8
_1-0_
  6
CONTINUOUS
 62
    7
 10
601.71359502533085
 20
50.256188380482627
 11
601.71359502533085
 21
50.556448684219959
  0
LINE
  8
_1-0_
  6
CONTINUOUS
 62
    7
 10
515.91359502533112
 20
53.831188380482445
 11
515.91359502533112
 21
58.618948684219959
  0
LINE
  8
_1-0_
  6
CONTINUOUS
 62
    7
 10
520.71359502533119
 20
53.631188380482627
 11
520.71359502533119
 21
53.931448684219959
  0
LINE
  8
_1-0_
  6
CONTINUOUS
 62
    7
 10
516.21359502533119
 20
58.618948684219959
 11
515.91359502533112
 21
58.618948684219959
  0
LINE
  8
_1-0_
  6
CONTINUOUS
 62
    7
 10
606.21359502533119
 20
50.068688380482627
 11
601.71359502533153
 21
50.256188380482627
  0
LINE
  8
_1-0_
  6
CONTINUOUS
 62
    7
 10
520.71359502533153
 20
53.631188380482627
 11
515.91359502533044
 21
53.831188380482445
  0
LINE
  8
_1-0_
  6
CONTINUOUS
 62
    7
 10
518.16359502533112
 20
58.14759293653151
 11
518.16359502533112
 21
72.868948684219959
  0
LINE
  8
_1-0_
  6
CONTINUOUS
 62
    7
 10
520.31992629972876
 20
55.8995435220736
 11
598.03859502533078
 21
52.661265658507318
  0
ARC
  8
_1-0_
  6
CONTINUOUS
 62
    7
 10
520.41359502533112
 20
58.14759293653151
 40
2.25
 50
180
 51
267.6140559696114
  0
LINE
  8
_1-0_
  6
CONTINUOUS
 62
    7
 10
598.41359502533112
 20
56.743948684219959
 11
606.21359502533119
 21
53.368948684219959
  0
ARC
  8
_1-0_
  6
CONTINUOUS
 62
    7
 10
605.76359502533091
 20
50.668688380482763
 40
0.75
 50
306.86989764584337
 51
53.13010235415657
  0
LINE
  8
_1-0_
  6
CONTINUOUS
 62
    7
 10
606.21359502533085
 20
94.469208987956335
 11
606.21359502533085
 21
92.368948684219959
  0
LINE
  8
_1-0_
  6
CONTINUOUS
 62
    7
 10
516.21359502533085
 20
87.118948684219276
 11
516.21359502533085
 21
72.868948684219276
  0
LINE
  8
_1-0_
  6
CONTINUOUS
 62
    7
 10
520.71359502533085
 20
91.806448684219276
 11
601.71359502533085
 21
95.181448684219276
  0
LINE
  8
_1-0_
  6
CONTINUOUS
 62
    7
 10
601.71359502533085
 20
95.481708987955926
 11
601.71359502533085
 21
95.181448684219959
  0
LINE
  8
_1-0_
  6
CONTINUOUS
 62
    7
 10
515.91359502533078
 20
91.906708987956108
 11
515.91359502533078
 21
87.118948684219959
  0
LINE
  8
_1-0_
  6
CONTINUOUS
 62
    7
 10
520.71359502533085
 20
92.106708987956608
 11
520.71359502533085
 21
91.806448684219959
  0
LINE
  8
_1-0_
  6
CONTINUOUS
 62
    7
 10
516.21359502533085
 20
87.118948684219276
 11
515.91359502533112
 21
87.118948684219276
  0
LINE
  8
_1-0_
  6
CONTINUOUS
 62
    7
 10
606.21359502533119
 20
95.669208987956608
 11
601.71359502533153
 21
95.481708987956608
  0
LINE
  8
_1-0_
  6
CONTINUOUS
 62
    7
 10
520.71359502533187
 20
92.106708987956608
 11
515.91359502533112
 21
91.906708987956108
  0
LINE
  8
_1-0_
  6
CONTINUOUS
 62
    7
 10
518.16359502533044
 20
87.590304431907043
 11
518.16359502533044
 21
72.868948684219276
  0
LINE
  8
_1-0_
  6
CONTINUOUS
 62
    7
 10
520.31992629972876
 20
89.838353846364953
 11
598.03859502533112
 21
93.076631709931917
  0
ARC
  8
_1-0_
  6
CONTINUOUS
 62
    7
 10
520.41359502533112
 20
87.590304431907043
 40
2.25
 50
92.385944030388643
 51
180.00000000000006
  0
LINE
  8
_1-0_
  6
CONTINUOUS
 62
    7
 10
598.41359502533112
 20
88.993948684219276
 11
606.21359502533119
 21
92.368948684219276
  0
ARC
  8
_1-0_
  6
CONTINUOUS
 62
    7
 10
605.76359502533091
 20
95.06920898795579
 40
0.75
 50
306.86989764584337
 51
53.130102354156669
  0
LINE
  8
_1-0_
  6
CONTINUOUS
 62
    7
 10
598.03859502533112
 20
52.661265658508
 11
598.41359502533112
 21
56.743948684219276
  0
LINE
  8
_1-0_
  6
CONTINUOUS
 62
    7
 10
598.41359502533078
 20
88.993948684219959
 11
598.03859502533078
 21
93.076631709931917
  0
POINT
  8
_1-0_
 62
    4
 10
495.76093605056559
 20
91.906708987956051
  0
LINE
  8
_1-0_
  6
CONTINUOUS
 62
    4
 10
495.76093605056559
 20
91.906708987956051
 11
511.26083443473465
 21
91.906708987956051
  0
POINT
  8
_1-0_
 62
    4
 10
495.76093605056559
 20
53.831188380482445
  0
LINE
  8
_1-0_
  6
CONTINUOUS
 62
    4
 10
495.76093605056559
 20
53.831188380482445
 11
511.26083443473465
 21
53.831188380482445
  0
LINE
  8
_1-0_
  6
CONTINUOUS
 62
    7
 10
495.76093605056559
 20
53.831188380482445
 11
495.76093605056559
 21
91.906708987956051
  0
LINE
  8
_1-0_
  6
CONTINUOUS
 62
    9
 10
299.77439538731477
 20
-336.66123682619627
 11
299.77439538731477
 21
-331.17338152590582
  0
LINE
  8
_1-0_
  6
CONTINUOUS
 62
    9
 10
304.67439538731475
 20
-336.49838152590564
 11
304.67439538731475
 21
-337.64838152590573
  0
ARC
  8
_1-0_
  6
CONTINUOUS
 62
    9
 10
304.42439538731475
 20
-337.64838152590573
 40
0.25
 50
254.9999999999107
 51
0
  0
LINE
  8
_1-0_
  6
CONTINUOUS
 62
    9
 10
299.77439538731477
 20
-336.66123682619627
 11
304.35969062603891
 21
-337.88986298247801
  0
ARC
  8
_1-0_
  6
CONTINUOUS
 62
    9
 10
304.92439538731475
 20
-336.49838152590564
 40
0.25
 50
74.99999999995498
 51
180
  0
LINE
  8
_1-0_
  6
CONTINUOUS
 62
    9
 10
304.97439538731481
 20
-331.17338152590582
 11
304.97439538731481
 21
-336.25295994042517
  0
LINE
  8
_1-0_
  6
CONTINUOUS
 62
    9
 10
299.77439538731477
 20
-325.71052622561524
 11
299.77439538731477
 21
-331.17338152590582
  0
LINE
  8
_1-0_
  6
CONTINUOUS
 62
    9
 10
304.67439538731475
 20
-325.87338152590587
 11
304.67439538731475
 21
-324.72338152590578
  0
LINE
  8
_1-0_
  6
CONTINUOUS
 62
    9
 10
299.77439538731477
 20
-325.71052622561547
 11
304.35969062603891
 21
-324.48190006933373
  0
ARC
  8
_1-0_
  6
CONTINUOUS
 62
    9
 10
304.92439538731475
 20
-325.87338152590587
 40
0.25
 50
180
 51
285.00000000004496
  0
LINE
  8
_1-0_
  6
CONTINUOUS
 62
    9
 10
304.98910014859047
 20
-326.11486298247769
 11
307.52439538731477
 21
-325.43553267068501
  0
LINE
  8
_1-0_
  6
CONTINUOUS
 62
    9
 10
305.62439538731479
 20
-331.17338152590582
 11
305.62439538731479
 21
-325.94463613630546
  0
LINE
  8
_1-0_
  6
CONTINUOUS
 62
    9
 10
304.97439538731481
 20
-331.17338152590582
 11
304.97439538731481
 21
-326.11880311138634
  0
ARC
  8
_1-0_
  6
CONTINUOUS
 62
    9
 10
304.42439538731475
 20
-324.72338152590578
 40
0.25
 50
0
 51
105.00000000008929
  0
LINE
  8
_1-0_
  6
CONTINUOUS
 62
    9
 10
304.98910014859058
 20
-336.25690006933382
 11
307.52439538731488
 21
-336.93623038112673
  0
LINE
  8
_1-0_
  6
CONTINUOUS
 62
    9
 10
305.62439538731479
 20
-331.17338152590582
 11
305.62439538731479
 21
-336.42712691550605
  0
LINE
  8
_1-0_
  6
CONTINUOUS
 62
    9
 10
299.77439538731477
 20
-336.6612368261965
 11
299.77439538731477
 21
-331.17338152590605
  0
LINE
  8
_1-0_
  6
CONTINUOUS
 62
    9
 10
304.67439538731475
 20
-336.49838152590587
 11
304.67439538731475
 21
-337.64838152590596
  0
ARC
  8
_1-0_
  6
CONTINUOUS
 62
    9
 10
304.42439538731475
 20
-337.64838152590596
 40
0.25
 50
254.9999999999107
 51
0
  0
LINE
  8
_1-0_
  6
CONTINUOUS
 62
    9
 10
299.77439538731477
 20
-336.6612368261965
 11
304.3596906260388
 21
-337.88986298247823
  0
ARC
  8
_1-0_
  6
CONTINUOUS
 62
    9
 10
304.92439538731475
 20
-336.49838152590587
 40
0.25
 50
74.99999999995498
 51
180
  0
LINE
  8
_1-0_
  6
CONTINUOUS
 62
    9
 10
304.98910014859047
 20
-336.25690006933405
 11
307.52439538731477
 21
-336.93623038112673
  0
LINE
  8
_1-0_
  6
CONTINUOUS
 62
    9
 10
305.62439538731468
 20
-331.17338152590605
 11
305.62439538731468
 21
-336.42712691550605
  0
LINE
  8
_1-0_
  6
CONTINUOUS
 62
    9
 10
304.9743953873147
 20
-331.17338152590605
 11
304.9743953873147
 21
-336.2529599404254
  0
LINE
  8
_1-0_
  6
CONTINUOUS
 62
    9
 10
299.77439538731477
 20
-325.71052622561547
 11
299.77439538731477
 21
-331.17338152590605
  0
LINE
  8
_1-0_
  6
CONTINUOUS
 62
    9
 10
304.67439538731475
 20
-325.8733815259061
 11
304.67439538731475
 21
-324.72338152590601
  0
ARC
  8
_1-0_
  6
CONTINUOUS
 62
    9
 10
304.42439538731475
 20
-324.72338152590601
 40
0.25
 50
0
 51
105.00000000008929
  0
LINE
  8
_1-0_
  6
CONTINUOUS
 62
    9
 10
299.77439538731477
 20
-325.71052622561547
 11
304.35969062603868
 21
-324.48190006933373
  0
ARC
  8
_1-0_
  6
CONTINUOUS
 62
    9
 10
304.92439538731475
 20
-325.8733815259061
 40
0.25
 50
180
 51
285.00000000004496
  0
LINE
  8
_1-0_
  6
CONTINUOUS
 62
    9
 10
304.98910014859047
 20
-326.11486298247769
 11
307.52439538731477
 21
-325.43553267068501
  0
LINE
  8
_1-0_
  6
CONTINUOUS
 62
    9
 10
305.62439538731468
 20
-331.17338152590605
 11
305.62439538731468
 21
-325.94463613630569
  0
LINE
  8
_1-0_
  6
CONTINUOUS
 62
    9
 10
304.9743953873147
 20
-331.17338152590605
 11
304.9743953873147
 21
-326.11880311138657
  0
LINE
  8
_1-0_
  6
CONTINUOUS
 62
    7
 10
307.39939538731466
 20
-338.3625739519141
 11
307.39939538731466
 21
-337.66248718400175
  0
LINE
  8
_1-0_
  6
CONTINUOUS
 62
    7
 10
277.39939538731477
 20
-335.91248718400175
 11
277.39939538731477
 21
-331.16248718400175
  0
LINE
  8
_1-0_
  6
CONTINUOUS
 62
    7
 10
278.89939538731466
 20
-337.47498718400198
 11
305.89939538731477
 21
-338.59998718400198
  0
LINE
  8
_1-0_
  6
CONTINUOUS
 62
    7
 10
305.89939538731466
 20
-338.70007395191419
 11
305.89939538731466
 21
-338.59998718400175
  0
LINE
  8
_1-0_
  6
CONTINUOUS
 62
    7
 10
277.29939538731475
 20
-337.50840728524759
 11
277.29939538731475
 21
-335.91248718400175
  0
LINE
  8
_1-0_
  6
CONTINUOUS
 62
    7
 10
278.89939538731477
 20
-337.57507395191419
 11
278.89939538731477
 21
-337.47498718400175
  0
LINE
  8
_1-0_
  6
CONTINUOUS
 62
    7
 10
277.39939538731477
 20
-335.91248718400175
 11
277.29939538731475
 21
-335.91248718400175
  0
LINE
  8
_1-0_
  6
CONTINUOUS
 62
    7
 10
307.39939538731477
 20
-338.76257395191419
 11
305.89939538731488
 21
-338.70007395191419
  0
LINE
  8
_1-0_
  6
CONTINUOUS
 62
    7
 10
278.89939538731488
 20
-337.57507395191419
 11
277.29939538731452
 21
-337.50840728524759
  0
LINE
  8
_1-0_
  6
CONTINUOUS
 62
    7
 10
278.04939538731475
 20
-336.06960576656456
 11
278.04939538731475
 21
-331.16248718400175
  0
LINE
  8
_1-0_
  6
CONTINUOUS
 62
    7
 10
278.76817247878063
 20
-336.81895557138387
 11
304.67439538731463
 21
-337.89838152590596
  0
ARC
  8
_1-0_
  6
CONTINUOUS
 62
    7
 10
278.79939538731475
 20
-336.06960576656456
 40
0.75
 50
180
 51
267.6140559696114
  0
LINE
  8
_1-0_
  6
CONTINUOUS
 62
    7
 10
304.79939538731475
 20
-336.53748718400175
 11
307.39939538731477
 21
-337.66248718400175
  0
ARC
  8
_1-0_
  6
CONTINUOUS
 62
    7
 10
307.24939538731468
 20
-338.56257395191415
 40
0.25
 50
306.86989764584337
 51
53.13010235415657
  0
LINE
  8
_1-0_
  6
CONTINUOUS
 62
    7
 10
307.39939538731466
 20
-323.96240041608962
 11
307.39939538731466
 21
-324.66248718400175
  0
LINE
  8
_1-0_
  6
CONTINUOUS
 62
    7
 10
277.39939538731466
 20
-326.41248718400198
 11
277.39939538731466
 21
-331.16248718400198
  0
LINE
  8
_1-0_
  6
CONTINUOUS
 62
    7
 10
278.89939538731466
 20
-324.84998718400198
 11
305.89939538731466
 21
-323.72498718400198
  0
LINE
  8
_1-0_
  6
CONTINUOUS
 62
    7
 10
305.89939538731466
 20
-323.62490041608976
 11
305.89939538731466
 21
-323.72498718400175
  0
LINE
  8
_1-0_
  6
CONTINUOUS
 62
    7
 10
277.29939538731463
 20
-324.81656708275636
 11
277.29939538731463
 21
-326.41248718400175
  0
LINE
  8
_1-0_
  6
CONTINUOUS
 62
    7
 10
278.89939538731466
 20
-324.74990041608953
 11
278.89939538731466
 21
-324.84998718400175
  0
LINE
  8
_1-0_
  6
CONTINUOUS
 62
    7
 10
277.39939538731466
 20
-326.41248718400198
 11
277.29939538731475
 21
-326.41248718400198
  0
LINE
  8
_1-0_
  6
CONTINUOUS
 62
    7
 10
307.39939538731477
 20
-323.56240041608953
 11
305.89939538731488
 21
-323.62490041608953
  0
LINE
  8
_1-0_
  6
CONTINUOUS
 62
    7
 10
278.899395387315
 20
-324.74990041608953
 11
277.29939538731475
 21
-324.81656708275636
  0
LINE
  8
_1-0_
  6
CONTINUOUS
 62
    7
 10
278.04939538731452
 20
-326.25536860143939
 11
278.04939538731452
 21
-331.16248718400198
  0
LINE
  8
_1-0_
  6
CONTINUOUS
 62
    7
 10
278.76817247878063
 20
-325.50601879662008
 11
304.67439538731475
 21
-324.42659284209776
  0
ARC
  8
_1-0_
  6
CONTINUOUS
 62
    7
 10
278.79939538731475
 20
-326.25536860143939
 40
0.75
 50
92.385944030388643
 51
180.00000000000006
  0
LINE
  8
_1-0_
  6
CONTINUOUS
 62
    7
 10
304.79939538731475
 20
-325.78748718400198
 11
307.39939538731477
 21
-324.66248718400198
  0
ARC
  8
_1-0_
  6
CONTINUOUS
 62
    7
 10
307.24939538731468
 20
-323.7624004160898
 40
0.25
 50
306.86989764584337
 51
53.130102354156669
  0
LINE
  8
_1-0_
  6
CONTINUOUS
 62
    7
 10
304.67439538731475
 20
-337.89838152590573
 11
304.79939538731475
 21
-336.53748718400198
  0
LINE
  8
_1-0_
  6
CONTINUOUS
 62
    7
 10
304.79939538731463
 20
-325.78748718400175
 11
304.67439538731463
 21
-324.42659284209776
  0
POINT
  8
_1-0_
 62
    4
 10
269.6380566612068
 20
-324.82906708247924
  0
LINE
  8
_1-0_
  6
CONTINUOUS
 62
    4
 10
269.6380566612068
 20
-324.82906708247924
 11
274.8046894559298
 21
-324.82906708247924
  0
POINT
  8
_1-0_
 62
    4
 10
269.6380566612068
 20
-337.50840728524759
  0
LINE
  8
_1-0_
  6
CONTINUOUS
 62
    4
 10
269.6380566612068
 20
-337.50840728524759
 11
274.8046894559298
 21
-337.50840728524759
  0
LINE
  8
_1-0_
  6
CONTINUOUS
 62
    4
 10
269.6380566612068
 20
-337.50840728524759
 11
269.6380566612068
 21
-324.82906708247924
  0
TEXT
  8
_1-0_
 62
    2
 10
449.25517265352875
 20
-127.06835565672765
 40
4
 41
1
 50
90
  1
25
  0
LINE
  8
_1-0_
  6
CONTINUOUS
 62
    9
 10
299.77442113951628
 20
-374.16123682618559
 11
299.77442113951628
 21
-368.67338152589514
  0
LINE
  8
_1-0_
  6
CONTINUOUS
 62
    9
 10
304.67442113951626
 20
-373.99838152589496
 11
304.67442113951626
 21
-375.14838152589505
  0
ARC
  8
_1-0_
  6
CONTINUOUS
 62
    9
 10
304.42442113951626
 20
-375.14838152589505
 40
0.25
 50
254.9999999999107
 51
0
  0
LINE
  8
_1-0_
  6
CONTINUOUS
 62
    9
 10
299.77442113951628
 20
-374.16123682618559
 11
304.35971637824042
 21
-375.38986298246732
  0
ARC
  8
_1-0_
  6
CONTINUOUS
 62
    9
 10
304.92442113951626
 20
-373.99838152589496
 40
0.25
 50
74.99999999995498
 51
180
  0
LINE
  8
_1-0_
  6
CONTINUOUS
 62
    9
 10
304.97442113951632
 20
-368.67338152589514
 11
304.97442113951632
 21
-373.75295994041448
  0
LINE
  8
_1-0_
  6
CONTINUOUS
 62
    9
 10
299.77442113951628
 20
-363.21052622560455
 11
299.77442113951628
 21
-368.67338152589514
  0
LINE
  8
_1-0_
  6
CONTINUOUS
 62
    9
 10
304.67442113951626
 20
-363.37338152589518
 11
304.67442113951626
 21
-362.22338152589509
  0
LINE
  8
_1-0_
  6
CONTINUOUS
 62
    9
 10
299.77442113951628
 20
-363.21052622560478
 11
304.35971637824042
 21
-361.98190006932305
  0
ARC
  8
_1-0_
  6
CONTINUOUS
 62
    9
 10
304.92442113951626
 20
-363.37338152589518
 40
0.25
 50
180
 51
285.00000000004496
  0
LINE
  8
_1-0_
  6
CONTINUOUS
 62
    9
 10
304.98912590079198
 20
-363.614862982467
 11
307.52442113951628
 21
-362.93553267067432
  0
LINE
  8
_1-0_
  6
CONTINUOUS
 62
    9
 10
305.6244211395163
 20
-368.67338152589514
 11
305.6244211395163
 21
-363.44463613629478
  0
LINE
  8
_1-0_
  6
CONTINUOUS
 62
    9
 10
304.97442113951632
 20
-368.67338152589514
 11
304.97442113951632
 21
-363.61880311137566
  0
ARC
  8
_1-0_
  6
CONTINUOUS
 62
    9
 10
304.42442113951626
 20
-362.22338152589509
 40
0.25
 50
0
 51
105.00000000008929
  0
LINE
  8
_1-0_
  6
CONTINUOUS
 62
    9
 10
304.98912590079209
 20
-373.75690006932314
 11
307.52442113951639
 21
-374.43623038111605
  0
LINE
  8
_1-0_
  6
CONTINUOUS
 62
    9
 10
305.6244211395163
 20
-368.67338152589514
 11
305.6244211395163
 21
-373.92712691549536
  0
LINE
  8
_1-0_
  6
CONTINUOUS
 62
    9
 10
299.77442113951628
 20
-374.16123682618581
 11
299.77442113951628
 21
-368.67338152589537
  0
LINE
  8
_1-0_
  6
CONTINUOUS
 62
    9
 10
304.67442113951626
 20
-373.99838152589518
 11
304.67442113951626
 21
-375.14838152589527
  0
ARC
  8
_1-0_
  6
CONTINUOUS
 62
    9
 10
304.42442113951626
 20
-375.14838152589527
 40
0.25
 50
254.9999999999107
 51
0
  0
LINE
  8
_1-0_
  6
CONTINUOUS
 62
    9
 10
299.77442113951628
 20
-374.16123682618581
 11
304.35971637824031
 21
-375.38986298246755
  0
ARC
  8
_1-0_
  6
CONTINUOUS
 62
    9
 10
304.92442113951626
 20
-373.99838152589518
 40
0.25
 50
74.99999999995498
 51
180
  0
LINE
  8
_1-0_
  6
CONTINUOUS
 62
    9
 10
304.98912590079198
 20
-373.75690006932336
 11
307.52442113951628
 21
-374.43623038111605
  0
LINE
  8
_1-0_
  6
CONTINUOUS
 62
    9
 10
305.62442113951619
 20
-368.67338152589537
 11
305.62442113951619
 21
-373.92712691549536
  0
LINE
  8
_1-0_
  6
CONTINUOUS
 62
    9
 10
304.97442113951621
 20
-368.67338152589537
 11
304.97442113951621
 21
-373.75295994041471
  0
LINE
  8
_1-0_
  6
CONTINUOUS
 62
    9
 10
299.77442113951628
 20
-363.21052622560478
 11
299.77442113951628
 21
-368.67338152589537
  0
LINE
  8
_1-0_
  6
CONTINUOUS
 62
    9
 10
304.67442113951626
 20
-363.37338152589541
 11
304.67442113951626
 21
-362.22338152589532
  0
ARC
  8
_1-0_
  6
CONTINUOUS
 62
    9
 10
304.42442113951626
 20
-362.22338152589532
 40
0.25
 50
0
 51
105.00000000008929
  0
LINE
  8
_1-0_
  6
CONTINUOUS
 62
    9
 10
299.77442113951628
 20
-363.21052622560478
 11
304.35971637824019
 21
-361.98190006932305
  0
ARC
  8
_1-0_
  6
CONTINUOUS
 62
    9
 10
304.92442113951626
 20
-363.37338152589541
 40
0.25
 50
180
 51
285.00000000004496
  0
LINE
  8
_1-0_
  6
CONTINUOUS
 62
    9
 10
304.98912590079198
 20
-363.614862982467
 11
307.52442113951628
 21
-362.93553267067432
  0
LINE
  8
_1-0_
  6
CONTINUOUS
 62
    9
 10
305.62442113951619
 20
-368.67338152589537
 11
305.62442113951619
 21
-363.444636136295
  0
LINE
  8
_1-0_
  6
CONTINUOUS
 62
    9
 10
304.97442113951621
 20
-368.67338152589537
 11
304.97442113951621
 21
-363.61880311137588
  0
LINE
  8
_1-0_
  6
CONTINUOUS
 62
    7
 10
307.39942113951616
 20
-375.86257395190341
 11
307.39942113951616
 21
-375.16248718399106
  0
LINE
  8
_1-0_
  6
CONTINUOUS
 62
    7
 10
277.39942113951628
 20
-373.41248718399106
 11
277.39942113951628
 21
-368.66248718399106
  0
LINE
  8
_1-0_
  6
CONTINUOUS
 62
    7
 10
278.89942113951616
 20
-374.97498718399129
 11
305.89942113951628
 21
-376.09998718399129
  0
LINE
  8
_1-0_
  6
CONTINUOUS
 62
    7
 10
305.89942113951616
 20
-376.20007395190351
 11
305.89942113951616
 21
-376.09998718399106
  0
LINE
  8
_1-0_
  6
CONTINUOUS
 62
    7
 10
277.29942113951626
 20
-375.0084072852369
 11
277.29942113951626
 21
-373.41248718399106
  0
LINE
  8
_1-0_
  6
CONTINUOUS
 62
    7
 10
278.89942113951628
 20
-375.07507395190351
 11
278.89942113951628
 21
-374.97498718399106
  0
LINE
  8
_1-0_
  6
CONTINUOUS
 62
    7
 10
277.39942113951628
 20
-373.41248718399106
 11
277.29942113951626
 21
-373.41248718399106
  0
LINE
  8
_1-0_
  6
CONTINUOUS
 62
    7
 10
307.39942113951628
 20
-376.26257395190351
 11
305.89942113951639
 21
-376.20007395190351
  0
LINE
  8
_1-0_
  6
CONTINUOUS
 62
    7
 10
278.89942113951639
 20
-375.07507395190351
 11
277.29942113951603
 21
-375.0084072852369
  0
LINE
  8
_1-0_
  6
CONTINUOUS
 62
    7
 10
278.04942113951626
 20
-373.56960576655388
 11
278.04942113951626
 21
-368.66248718399106
  0
LINE
  8
_1-0_
  6
CONTINUOUS
 62
    7
 10
278.76819823098214
 20
-374.31895557137318
 11
304.67442113951614
 21
-375.39838152589527
  0
ARC
  8
_1-0_
  6
CONTINUOUS
 62
    7
 10
278.79942113951626
 20
-373.56960576655388
 40
0.75
 50
180
 51
267.6140559696114
  0
LINE
  8
_1-0_
  6
CONTINUOUS
 62
    7
 10
304.79942113951626
 20
-374.03748718399106
 11
307.39942113951628
 21
-375.16248718399106
  0
ARC
  8
_1-0_
  6
CONTINUOUS
 62
    7
 10
307.24942113951619
 20
-376.06257395190346
 40
0.25
 50
306.86989764584337
 51
53.13010235415657
  0
LINE
  8
_1-0_
  6
CONTINUOUS
 62
    7
 10
307.39942113951616
 20
-361.46240041607894
 11
307.39942113951616
 21
-362.16248718399106
  0
LINE
  8
_1-0_
  6
CONTINUOUS
 62
    7
 10
277.39942113951616
 20
-363.91248718399129
 11
277.39942113951616
 21
-368.66248718399129
  0
LINE
  8
_1-0_
  6
CONTINUOUS
 62
    7
 10
278.89942113951616
 20
-362.34998718399129
 11
305.89942113951616
 21
-361.22498718399129
  0
LINE
  8
_1-0_
  6
CONTINUOUS
 62
    7
 10
305.89942113951616
 20
-361.12490041607907
 11
305.89942113951616
 21
-361.22498718399106
  0
LINE
  8
_1-0_
  6
CONTINUOUS
 62
    7
 10
277.29942113951614
 20
-362.31656708274568
 11
277.29942113951614
 21
-363.91248718399106
  0
LINE
  8
_1-0_
  6
CONTINUOUS
 62
    7
 10
278.89942113951616
 20
-362.24990041607884
 11
278.89942113951616
 21
-362.34998718399106
  0
LINE
  8
_1-0_
  6
CONTINUOUS
 62
    7
 10
277.39942113951616
 20
-363.91248718399129
 11
277.29942113951626
 21
-363.91248718399129
  0
LINE
  8
_1-0_
  6
CONTINUOUS
 62
    7
 10
307.39942113951628
 20
-361.06240041607884
 11
305.89942113951639
 21
-361.12490041607884
  0
LINE
  8
_1-0_
  6
CONTINUOUS
 62
    7
 10
278.89942113951651
 20
-362.24990041607884
 11
277.29942113951626
 21
-362.31656708274568
  0
LINE
  8
_1-0_
  6
CONTINUOUS
 62
    7
 10
278.04942113951603
 20
-363.7553686014287
 11
278.04942113951603
 21
-368.66248718399129
  0
LINE
  8
_1-0_
  6
CONTINUOUS
 62
    7
 10
278.76819823098214
 20
-363.0060187966094
 11
304.67442113951626
 21
-361.92659284208708
  0
ARC
  8
_1-0_
  6
CONTINUOUS
 62
    7
 10
278.79942113951626
 20
-363.7553686014287
 40
0.75
 50
92.385944030388643
 51
180.00000000000006
  0
LINE
  8
_1-0_
  6
CONTINUOUS
 62
    7
 10
304.79942113951626
 20
-363.28748718399129
 11
307.39942113951628
 21
-362.16248718399129
  0
ARC
  8
_1-0_
  6
CONTINUOUS
 62
    7
 10
307.24942113951619
 20
-361.26240041607912
 40
0.25
 50
306.86989764584337
 51
53.130102354156669
  0
LINE
  8
_1-0_
  6
CONTINUOUS
 62
    7
 10
304.67442113951626
 20
-375.39838152589505
 11
304.79942113951626
 21
-374.03748718399129
  0
LINE
  8
_1-0_
  6
CONTINUOUS
 62
    7
 10
304.79942113951614
 20
-363.28748718399106
 11
304.67442113951614
 21
-361.92659284208708
  0
POINT
  8
_1-0_
 62
    4
 10
269.63808241340831
 20
-362.32906708246855
  0
LINE
  8
_1-0_
  6
CONTINUOUS
 62
    4
 10
269.63808241340831
 20
-362.32906708246855
 11
274.80471520813131
 21
-362.32906708246855
  0
POINT
  8
_1-0_
 62
    4
 10
269.63808241340831
 20
-375.0084072852369
  0
LINE
  8
_1-0_
  6
CONTINUOUS
 62
    4
 10
269.63808241340831
 20
-375.0084072852369
 11
274.80471520813131
 21
-375.0084072852369
  0
LINE
  8
_1-0_
  6
CONTINUOUS
 62
    4
 10
269.63808241340831
 20
-375.0084072852369
 11
269.63808241340831
 21
-362.32906708246855
  0
LINE
  8
_1-0_
  6
CONTINUOUS
 62
    9
 10
299.77444689171779
 20
-411.66123682617513
 11
299.77444689171779
 21
-406.17338152588468
  0
LINE
  8
_1-0_
  6
CONTINUOUS
 62
    9
 10
304.67444689171776
 20
-411.4983815258845
 11
304.67444689171776
 21
-412.64838152588459
  0
ARC
  8
_1-0_
  6
CONTINUOUS
 62
    9
 10
304.42444689171776
 20
-412.64838152588459
 40
0.25
 50
254.9999999999107
 51
0
  0
LINE
  8
_1-0_
  6
CONTINUOUS
 62
    9
 10
299.77444689171779
 20
-411.66123682617513
 11
304.35974213044193
 21
-412.88986298245686
  0
ARC
  8
_1-0_
  6
CONTINUOUS
 62
    9
 10
304.92444689171776
 20
-411.4983815258845
 40
0.25
 50
74.99999999995498
 51
180
  0
LINE
  8
_1-0_
  6
CONTINUOUS
 62
    9
 10
304.97444689171783
 20
-406.17338152588468
 11
304.97444689171783
 21
-411.25295994040403
  0
LINE
  8
_1-0_
  6
CONTINUOUS
 62
    9
 10
299.77444689171779
 20
-400.71052622559409
 11
299.77444689171779
 21
-406.17338152588468
  0
LINE
  8
_1-0_
  6
CONTINUOUS
 62
    9
 10
304.67444689171776
 20
-400.87338152588472
 11
304.67444689171776
 21
-399.72338152588463
  0
LINE
  8
_1-0_
  6
CONTINUOUS
 62
    9
 10
299.77444689171779
 20
-400.71052622559432
 11
304.35974213044193
 21
-399.48190006931259
  0
ARC
  8
_1-0_
  6
CONTINUOUS
 62
    9
 10
304.92444689171776
 20
-400.87338152588472
 40
0.25
 50
180
 51
285.00000000004496
  0
LINE
  8
_1-0_
  6
CONTINUOUS
 62
    9
 10
304.98915165299348
 20
-401.11486298245654
 11
307.52444689171779
 21
-400.43553267066386
  0
LINE
  8
_1-0_
  6
CONTINUOUS
 62
    9
 10
305.62444689171781
 20
-406.17338152588468
 11
305.62444689171781
 21
-400.94463613628432
  0
LINE
  8
_1-0_
  6
CONTINUOUS
 62
    9
 10
304.97444689171783
 20
-406.17338152588468
 11
304.97444689171783
 21
-401.1188031113652
  0
ARC
  8
_1-0_
  6
CONTINUOUS
 62
    9
 10
304.42444689171776
 20
-399.72338152588463
 40
0.25
 50
0
 51
105.00000000008929
  0
LINE
  8
_1-0_
  6
CONTINUOUS
 62
    9
 10
304.9891516529936
 20
-411.25690006931268
 11
307.5244468917179
 21
-411.93623038110559
  0
LINE
  8
_1-0_
  6
CONTINUOUS
 62
    9
 10
305.62444689171781
 20
-406.17338152588468
 11
305.62444689171781
 21
-411.42712691548491
  0
LINE
  8
_1-0_
  6
CONTINUOUS
 62
    9
 10
299.77444689171779
 20
-411.66123682617535
 11
299.77444689171779
 21
-406.17338152588491
  0
LINE
  8
_1-0_
  6
CONTINUOUS
 62
    9
 10
304.67444689171776
 20
-411.49838152588472
 11
304.67444689171776
 21
-412.64838152588482
  0
ARC
  8
_1-0_
  6
CONTINUOUS
 62
    9
 10
304.42444689171776
 20
-412.64838152588482
 40
0.25
 50
254.9999999999107
 51
0
  0
LINE
  8
_1-0_
  6
CONTINUOUS
 62
    9
 10
299.77444689171779
 20
-411.66123682617535
 11
304.35974213044182
 21
-412.88986298245709
  0
ARC
  8
_1-0_
  6
CONTINUOUS
 62
    9
 10
304.92444689171776
 20
-411.49838152588472
 40
0.25
 50
74.99999999995498
 51
180
  0
LINE
  8
_1-0_
  6
CONTINUOUS
 62
    9
 10
304.98915165299348
 20
-411.25690006931291
 11
307.52444689171779
 21
-411.93623038110559
  0
LINE
  8
_1-0_
  6
CONTINUOUS
 62
    9
 10
305.6244468917177
 20
-406.17338152588491
 11
305.6244468917177
 21
-411.42712691548491
  0
LINE
  8
_1-0_
  6
CONTINUOUS
 62
    9
 10
304.97444689171772
 20
-406.17338152588491
 11
304.97444689171772
 21
-411.25295994040425
  0
LINE
  8
_1-0_
  6
CONTINUOUS
 62
    9
 10
299.77444689171779
 20
-400.71052622559432
 11
299.77444689171779
 21
-406.17338152588491
  0
LINE
  8
_1-0_
  6
CONTINUOUS
 62
    9
 10
304.67444689171776
 20
-400.87338152588495
 11
304.67444689171776
 21
-399.72338152588486
  0
ARC
  8
_1-0_
  6
CONTINUOUS
 62
    9
 10
304.42444689171776
 20
-399.72338152588486
 40
0.25
 50
0
 51
105.00000000008929
  0
LINE
  8
_1-0_
  6
CONTINUOUS
 62
    9
 10
299.77444689171779
 20
-400.71052622559432
 11
304.3597421304417
 21
-399.48190006931259
  0
ARC
  8
_1-0_
  6
CONTINUOUS
 62
    9
 10
304.92444689171776
 20
-400.87338152588495
 40
0.25
 50
180
 51
285.00000000004496
  0
LINE
  8
_1-0_
  6
CONTINUOUS
 62
    9
 10
304.98915165299348
 20
-401.11486298245654
 11
307.52444689171779
 21
-400.43553267066386
  0
LINE
  8
_1-0_
  6
CONTINUOUS
 62
    9
 10
305.6244468917177
 20
-406.17338152588491
 11
305.6244468917177
 21
-400.94463613628454
  0
LINE
  8
_1-0_
  6
CONTINUOUS
 62
    9
 10
304.97444689171772
 20
-406.17338152588491
 11
304.97444689171772
 21
-401.11880311136542
  0
LINE
  8
_1-0_
  6
CONTINUOUS
 62
    7
 10
307.39944689171767
 20
-413.36257395189295
 11
307.39944689171767
 21
-412.6624871839806
  0
LINE
  8
_1-0_
  6
CONTINUOUS
 62
    7
 10
277.39944689171779
 20
-410.9124871839806
 11
277.39944689171779
 21
-406.1624871839806
  0
LINE
  8
_1-0_
  6
CONTINUOUS
 62
    7
 10
278.89944689171767
 20
-412.47498718398083
 11
305.89944689171779
 21
-413.59998718398083
  0
LINE
  8
_1-0_
  6
CONTINUOUS
 62
    7
 10
305.89944689171767
 20
-413.70007395189305
 11
305.89944689171767
 21
-413.5999871839806
  0
LINE
  8
_1-0_
  6
CONTINUOUS
 62
    7
 10
277.29944689171776
 20
-412.50840728522644
 11
277.29944689171776
 21
-410.9124871839806
  0
LINE
  8
_1-0_
  6
CONTINUOUS
 62
    7
 10
278.89944689171779
 20
-412.57507395189305
 11
278.89944689171779
 21
-412.4749871839806
  0
LINE
  8
_1-0_
  6
CONTINUOUS
 62
    7
 10
277.39944689171779
 20
-410.9124871839806
 11
277.29944689171776
 21
-410.9124871839806
  0
LINE
  8
_1-0_
  6
CONTINUOUS
 62
    7
 10
307.39944689171779
 20
-413.76257395189305
 11
305.8994468917179
 21
-413.70007395189305
  0
LINE
  8
_1-0_
  6
CONTINUOUS
 62
    7
 10
278.8994468917179
 20
-412.57507395189305
 11
277.29944689171754
 21
-412.50840728522644
  0
LINE
  8
_1-0_
  6
CONTINUOUS
 62
    7
 10
278.04944689171776
 20
-411.06960576654342
 11
278.04944689171776
 21
-406.1624871839806
  0
LINE
  8
_1-0_
  6
CONTINUOUS
 62
    7
 10
278.76822398318365
 20
-411.81895557136272
 11
304.67444689171765
 21
-412.89838152588482
  0
ARC
  8
_1-0_
  6
CONTINUOUS
 62
    7
 10
278.79944689171776
 20
-411.06960576654342
 40
0.75
 50
180
 51
267.6140559696114
  0
LINE
  8
_1-0_
  6
CONTINUOUS
 62
    7
 10
304.79944689171776
 20
-411.5374871839806
 11
307.39944689171779
 21
-412.6624871839806
  0
ARC
  8
_1-0_
  6
CONTINUOUS
 62
    7
 10
307.2494468917177
 20
-413.562573951893
 40
0.25
 50
306.86989764584337
 51
53.13010235415657
  0
LINE
  8
_1-0_
  6
CONTINUOUS
 62
    7
 10
307.39944689171767
 20
-398.96240041606848
 11
307.39944689171767
 21
-399.6624871839806
  0
LINE
  8
_1-0_
  6
CONTINUOUS
 62
    7
 10
277.39944689171767
 20
-401.41248718398083
 11
277.39944689171767
 21
-406.16248718398083
  0
LINE
  8
_1-0_
  6
CONTINUOUS
 62
    7
 10
278.89944689171767
 20
-399.84998718398083
 11
305.89944689171767
 21
-398.72498718398083
  0
LINE
  8
_1-0_
  6
CONTINUOUS
 62
    7
 10
305.89944689171767
 20
-398.62490041606861
 11
305.89944689171767
 21
-398.7249871839806
  0
LINE
  8
_1-0_
  6
CONTINUOUS
 62
    7
 10
277.29944689171765
 20
-399.81656708273522
 11
277.29944689171765
 21
-401.4124871839806
  0
LINE
  8
_1-0_
  6
CONTINUOUS
 62
    7
 10
278.89944689171767
 20
-399.74990041606839
 11
278.89944689171767
 21
-399.8499871839806
  0
LINE
  8
_1-0_
  6
CONTINUOUS
 62
    7
 10
277.39944689171767
 20
-401.41248718398083
 11
277.29944689171776
 21
-401.41248718398083
  0
LINE
  8
_1-0_
  6
CONTINUOUS
 62
    7
 10
307.39944689171779
 20
-398.56240041606839
 11
305.8994468917179
 21
-398.62490041606839
  0
LINE
  8
_1-0_
  6
CONTINUOUS
 62
    7
 10
278.89944689171801
 20
-399.74990041606839
 11
277.29944689171776
 21
-399.81656708273522
  0
LINE
  8
_1-0_
  6
CONTINUOUS
 62
    7
 10
278.04944689171754
 20
-401.25536860141824
 11
278.04944689171754
 21
-406.16248718398083
  0
LINE
  8
_1-0_
  6
CONTINUOUS
 62
    7
 10
278.76822398318365
 20
-400.50601879659894
 11
304.67444689171776
 21
-399.42659284207662
  0
ARC
  8
_1-0_
  6
CONTINUOUS
 62
    7
 10
278.79944689171776
 20
-401.25536860141824
 40
0.75
 50
92.385944030388643
 51
180.00000000000006
  0
LINE
  8
_1-0_
  6
CONTINUOUS
 62
    7
 10
304.79944689171776
 20
-400.78748718398083
 11
307.39944689171779
 21
-399.66248718398083
  0
ARC
  8
_1-0_
  6
CONTINUOUS
 62
    7
 10
307.2494468917177
 20
-398.76240041606866
 40
0.25
 50
306.86989764584337
 51
53.130102354156669
  0
LINE
  8
_1-0_
  6
CONTINUOUS
 62
    7
 10
304.67444689171776
 20
-412.89838152588459
 11
304.79944689171776
 21
-411.53748718398083
  0
LINE
  8
_1-0_
  6
CONTINUOUS
 62
    7
 10
304.79944689171765
 20
-400.7874871839806
 11
304.67444689171765
 21
-399.42659284207662
  0
POINT
  8
_1-0_
 62
    4
 10
269.63810816560982
 20
-399.8290670824581
  0
LINE
  8
_1-0_
  6
CONTINUOUS
 62
    4
 10
269.63810816560982
 20
-399.8290670824581
 11
274.80474096033282
 21
-399.8290670824581
  0
POINT
  8
_1-0_
 62
    4
 10
269.63810816560982
 20
-412.50840728522644
  0
LINE
  8
_1-0_
  6
CONTINUOUS
 62
    4
 10
269.63810816560982
 20
-412.50840728522644
 11
274.80474096033282
 21
-412.50840728522644
  0
LINE
  8
_1-0_
  6
CONTINUOUS
 62
    4
 10
269.63810816560982
 20
-412.50840728522644
 11
269.63810816560982
 21
-399.8290670824581
  0
LINE
  8
_1-0_
  6
CONTINUOUS
 62
    9
 10
299.7744513263911
 20
-447.42408568113865
 11
299.7744513263911
 21
-441.9362303808482
  0
LINE
  8
_1-0_
  6
CONTINUOUS
 62
    9
 10
304.67445132639108
 20
-447.26123038084802
 11
304.67445132639108
 21
-448.41123038084811
  0
ARC
  8
_1-0_
  6
CONTINUOUS
 62
    9
 10
304.42445132639108
 20
-448.41123038084811
 40
0.25
 50
254.9999999999107
 51
0
  0
LINE
  8
_1-0_
  6
CONTINUOUS
 62
    9
 10
299.7744513263911
 20
-447.42408568113865
 11
304.35974656511524
 21
-448.65271183742038
  0
ARC
  8
_1-0_
  6
CONTINUOUS
 62
    9
 10
304.92445132639108
 20
-447.26123038084802
 40
0.25
 50
74.99999999995498
 51
180
  0
LINE
  8
_1-0_
  6
CONTINUOUS
 62
    9
 10
304.97445132639115
 20
-441.9362303808482
 11
304.97445132639115
 21
-447.01580879536755
  0
LINE
  8
_1-0_
  6
CONTINUOUS
 62
    9
 10
299.7744513263911
 20
-436.47337508055762
 11
299.7744513263911
 21
-441.9362303808482
  0
LINE
  8
_1-0_
  6
CONTINUOUS
 62
    9
 10
304.67445132639108
 20
-436.63623038084825
 11
304.67445132639108
 21
-435.48623038084816
  0
LINE
  8
_1-0_
  6
CONTINUOUS
 62
    9
 10
299.7744513263911
 20
-436.47337508055784
 11
304.35974656511524
 21
-435.24474892427611
  0
ARC
  8
_1-0_
  6
CONTINUOUS
 62
    9
 10
304.92445132639108
 20
-436.63623038084825
 40
0.25
 50
180
 51
285.00000000004496
  0
LINE
  8
_1-0_
  6
CONTINUOUS
 62
    9
 10
304.9891560876668
 20
-436.87771183742007
 11
307.5244513263911
 21
-436.19838152562738
  0
LINE
  8
_1-0_
  6
CONTINUOUS
 62
    9
 10
305.62445132639112
 20
-441.9362303808482
 11
305.62445132639112
 21
-436.70748499124784
  0
LINE
  8
_1-0_
  6
CONTINUOUS
 62
    9
 10
304.97445132639115
 20
-441.9362303808482
 11
304.97445132639115
 21
-436.88165196632872
  0
ARC
  8
_1-0_
  6
CONTINUOUS
 62
    9
 10
304.42445132639108
 20
-435.48623038084816
 40
0.25
 50
0
 51
105.00000000008929
  0
LINE
  8
_1-0_
  6
CONTINUOUS
 62
    9
 10
304.98915608766691
 20
-447.0197489242762
 11
307.52445132639122
 21
-447.69907923606911
  0
LINE
  8
_1-0_
  6
CONTINUOUS
 62
    9
 10
305.62445132639112
 20
-441.9362303808482
 11
305.62445132639112
 21
-447.18997577044843
  0
LINE
  8
_1-0_
  6
CONTINUOUS
 62
    9
 10
299.7744513263911
 20
-447.42408568113888
 11
299.7744513263911
 21
-441.93623038084843
  0
LINE
  8
_1-0_
  6
CONTINUOUS
 62
    9
 10
304.67445132639108
 20
-447.26123038084825
 11
304.67445132639108
 21
-448.41123038084834
  0
ARC
  8
_1-0_
  6
CONTINUOUS
 62
    9
 10
304.42445132639108
 20
-448.41123038084834
 40
0.25
 50
254.9999999999107
 51
0
  0
LINE
  8
_1-0_
  6
CONTINUOUS
 62
    9
 10
299.7744513263911
 20
-447.42408568113888
 11
304.35974656511513
 21
-448.65271183742061
  0
ARC
  8
_1-0_
  6
CONTINUOUS
 62
    9
 10
304.92445132639108
 20
-447.26123038084825
 40
0.25
 50
74.99999999995498
 51
180
  0
LINE
  8
_1-0_
  6
CONTINUOUS
 62
    9
 10
304.9891560876668
 20
-447.01974892427643
 11
307.5244513263911
 21
-447.69907923606911
  0
LINE
  8
_1-0_
  6
CONTINUOUS
 62
    9
 10
305.62445132639101
 20
-441.93623038084843
 11
305.62445132639101
 21
-447.18997577044843
  0
LINE
  8
_1-0_
  6
CONTINUOUS
 62
    9
 10
304.97445132639103
 20
-441.93623038084843
 11
304.97445132639103
 21
-447.01580879536778
  0
LINE
  8
_1-0_
  6
CONTINUOUS
 62
    9
 10
299.7744513263911
 20
-436.47337508055784
 11
299.7744513263911
 21
-441.93623038084843
  0
LINE
  8
_1-0_
  6
CONTINUOUS
 62
    9
 10
304.67445132639108
 20
-436.63623038084847
 11
304.67445132639108
 21
-435.48623038084838
  0
ARC
  8
_1-0_
  6
CONTINUOUS
 62
    9
 10
304.42445132639108
 20
-435.48623038084838
 40
0.25
 50
0
 51
105.00000000008929
  0
LINE
  8
_1-0_
  6
CONTINUOUS
 62
    9
 10
299.7744513263911
 20
-436.47337508055784
 11
304.35974656511502
 21
-435.24474892427611
  0
ARC
  8
_1-0_
  6
CONTINUOUS
 62
    9
 10
304.92445132639108
 20
-436.63623038084847
 40
0.25
 50
180
 51
285.00000000004496
  0
LINE
  8
_1-0_
  6
CONTINUOUS
 62
    9
 10
304.9891560876668
 20
-436.87771183742007
 11
307.5244513263911
 21
-436.19838152562738
  0
LINE
  8
_1-0_
  6
CONTINUOUS
 62
    9
 10
305.62445132639101
 20
-441.93623038084843
 11
305.62445132639101
 21
-436.70748499124807
  0
LINE
  8
_1-0_
  6
CONTINUOUS
 62
    9
 10
304.97445132639103
 20
-441.93623038084843
 11
304.97445132639103
 21
-436.88165196632895
  0
LINE
  8
_1-0_
  6
CONTINUOUS
 62
    7
 10
307.39945132639099
 20
-449.12542280685648
 11
307.39945132639099
 21
-448.42533603894412
  0
LINE
  8
_1-0_
  6
CONTINUOUS
 62
    7
 10
277.3994513263911
 20
-446.67533603894412
 11
277.3994513263911
 21
-441.92533603894412
  0
LINE
  8
_1-0_
  6
CONTINUOUS
 62
    7
 10
278.89945132639099
 20
-448.23783603894435
 11
305.8994513263911
 21
-449.36283603894435
  0
LINE
  8
_1-0_
  6
CONTINUOUS
 62
    7
 10
305.89945132639099
 20
-449.46292280685657
 11
305.89945132639099
 21
-449.36283603894412
  0
LINE
  8
_1-0_
  6
CONTINUOUS
 62
    7
 10
277.29945132639108
 20
-448.27125614018996
 11
277.29945132639108
 21
-446.67533603894412
  0
LINE
  8
_1-0_
  6
CONTINUOUS
 62
    7
 10
278.8994513263911
 20
-448.33792280685657
 11
278.8994513263911
 21
-448.23783603894412
  0
LINE
  8
_1-0_
  6
CONTINUOUS
 62
    7
 10
277.3994513263911
 20
-446.67533603894412
 11
277.29945132639108
 21
-446.67533603894412
  0
LINE
  8
_1-0_
  6
CONTINUOUS
 62
    7
 10
307.3994513263911
 20
-449.52542280685657
 11
305.89945132639122
 21
-449.46292280685657
  0
LINE
  8
_1-0_
  6
CONTINUOUS
 62
    7
 10
278.89945132639122
 20
-448.33792280685657
 11
277.29945132639085
 21
-448.27125614018996
  0
LINE
  8
_1-0_
  6
CONTINUOUS
 62
    7
 10
278.04945132639108
 20
-446.83245462150694
 11
278.04945132639108
 21
-441.92533603894412
  0
LINE
  8
_1-0_
  6
CONTINUOUS
 62
    7
 10
278.76822841785696
 20
-447.58180442632624
 11
304.67445132639097
 21
-448.66123038084834
  0
ARC
  8
_1-0_
  6
CONTINUOUS
 62
    7
 10
278.79945132639108
 20
-446.83245462150694
 40
0.75
 50
180
 51
267.6140559696114
  0
LINE
  8
_1-0_
  6
CONTINUOUS
 62
    7
 10
304.79945132639108
 20
-447.30033603894412
 11
307.3994513263911
 21
-448.42533603894412
  0
ARC
  8
_1-0_
  6
CONTINUOUS
 62
    7
 10
307.24945132639101
 20
-449.32542280685652
 40
0.25
 50
306.86989764584337
 51
53.13010235415657
  0
LINE
  8
_1-0_
  6
CONTINUOUS
 62
    7
 10
307.39945132639099
 20
-434.725249271032
 11
307.39945132639099
 21
-435.42533603894412
  0
LINE
  8
_1-0_
  6
CONTINUOUS
 62
    7
 10
277.39945132639099
 20
-437.17533603894435
 11
277.39945132639099
 21
-441.92533603894435
  0
LINE
  8
_1-0_
  6
CONTINUOUS
 62
    7
 10
278.89945132639099
 20
-435.61283603894435
 11
305.89945132639099
 21
-434.48783603894435
  0
LINE
  8
_1-0_
  6
CONTINUOUS
 62
    7
 10
305.89945132639099
 20
-434.38774927103213
 11
305.89945132639099
 21
-434.48783603894412
  0
LINE
  8
_1-0_
  6
CONTINUOUS
 62
    7
 10
277.29945132639097
 20
-435.57941593769874
 11
277.29945132639097
 21
-437.17533603894412
  0
LINE
  8
_1-0_
  6
CONTINUOUS
 62
    7
 10
278.89945132639099
 20
-435.51274927103191
 11
278.89945132639099
 21
-435.61283603894412
  0
LINE
  8
_1-0_
  6
CONTINUOUS
 62
    7
 10
277.39945132639099
 20
-437.17533603894435
 11
277.29945132639108
 21
-437.17533603894435
  0
LINE
  8
_1-0_
  6
CONTINUOUS
 62
    7
 10
307.3994513263911
 20
-434.32524927103191
 11
305.89945132639122
 21
-434.38774927103191
  0
LINE
  8
_1-0_
  6
CONTINUOUS
 62
    7
 10
278.89945132639133
 20
-435.51274927103191
 11
277.29945132639108
 21
-435.57941593769874
  0
LINE
  8
_1-0_
  6
CONTINUOUS
 62
    7
 10
278.04945132639085
 20
-437.01821745638176
 11
278.04945132639085
 21
-441.92533603894435
  0
LINE
  8
_1-0_
  6
CONTINUOUS
 62
    7
 10
278.76822841785696
 20
-436.26886765156246
 11
304.67445132639108
 21
-435.18944169704014
  0
ARC
  8
_1-0_
  6
CONTINUOUS
 62
    7
 10
278.79945132639108
 20
-437.01821745638176
 40
0.75
 50
92.385944030388643
 51
180.00000000000006
  0
LINE
  8
_1-0_
  6
CONTINUOUS
 62
    7
 10
304.79945132639108
 20
-436.55033603894435
 11
307.3994513263911
 21
-435.42533603894435
  0
ARC
  8
_1-0_
  6
CONTINUOUS
 62
    7
 10
307.24945132639101
 20
-434.52524927103218
 40
0.25
 50
306.86989764584337
 51
53.130102354156669
  0
LINE
  8
_1-0_
  6
CONTINUOUS
 62
    7
 10
304.67445132639108
 20
-448.66123038084811
 11
304.79945132639108
 21
-447.30033603894435
  0
LINE
  8
_1-0_
  6
CONTINUOUS
 62
    7
 10
304.79945132639097
 20
-436.55033603894412
 11
304.67445132639097
 21
-435.18944169704014
  0
POINT
  8
_1-0_
 62
    4
 10
269.63811260028314
 20
-435.59191593742162
  0
LINE
  8
_1-0_
  6
CONTINUOUS
 62
    4
 10
269.63811260028314
 20
-435.59191593742162
 11
274.80474539500614
 21
-435.59191593742162
  0
POINT
  8
_1-0_
 62
    4
 10
269.63811260028314
 20
-448.27125614018996
  0
LINE
  8
_1-0_
  6
CONTINUOUS
 62
    4
 10
269.63811260028314
 20
-448.27125614018996
 11
274.80474539500614
 21
-448.27125614018996
  0
LINE
  8
_1-0_
  6
CONTINUOUS
 62
    4
 10
269.63811260028314
 20
-448.27125614018996
 11
269.63811260028314
 21
-435.59191593742162
  0
TEXT
  8
_1-0_
 62
    7
 10
590.45225938075259
 20
-159.36926063619723
 40
5.4000000000000004
 41
0.9999999999999998
 50
90.000003000000049
  1
ストリンガー固定ピッチ
  0
LINE
  8
_1-0_
  6
CONTINUOUS
 62
    9
 10
324.78655172685882
 20
-300.69836988607136
 11
330.27440702714927
 21
-300.69836988607136
  0
LINE
  8
_1-0_
  6
CONTINUOUS
 62
    9
 10
324.94940702714945
 20
-305.5983698860714
 11
323.79940702714936
 21
-305.5983698860714
  0
ARC
  8
_1-0_
  6
CONTINUOUS
 62
    9
 10
323.79940702714936
 20
-305.3483698860714
 40
0.25
 50
164.9999999999107
 51
270
  0
LINE
  8
_1-0_
  6
CONTINUOUS
 62
    9
 10
324.78655172685882
 20
-300.69836988607136
 11
323.55792557057708
 21
-305.28366512479556
  0
ARC
  8
_1-0_
  6
CONTINUOUS
 62
    9
 10
324.94940702714945
 20
-305.8483698860714
 40
0.25
 50
344.99999999995498
 51
89.999999999999986
  0
LINE
  8
_1-0_
  6
CONTINUOUS
 62
    9
 10
330.27440702714927
 20
-305.89836988607135
 11
325.19482861262992
 21
-305.89836988607135
  0
LINE
  8
_1-0_
  6
CONTINUOUS
 62
    9
 10
335.73726232743985
 20
-300.69836988607136
 11
330.27440702714927
 21
-300.69836988607136
  0
LINE
  8
_1-0_
  6
CONTINUOUS
 62
    9
 10
335.57440702714922
 20
-305.5983698860714
 11
336.72440702714931
 21
-305.5983698860714
  0
LINE
  8
_1-0_
  6
CONTINUOUS
 62
    9
 10
335.73726232743962
 20
-300.69836988607136
 11
336.96588848372136
 21
-305.28366512479556
  0
ARC
  8
_1-0_
  6
CONTINUOUS
 62
    9
 10
335.57440702714922
 20
-305.8483698860714
 40
0.25
 50
90
 51
195.00000000004499
  0
LINE
  8
_1-0_
  6
CONTINUOUS
 62
    9
 10
335.3329255705774
 20
-305.913074647347
 11
336.01225588237008
 21
-308.4483698860713
  0
LINE
  8
_1-0_
  6
CONTINUOUS
 62
    9
 10
330.27440702714927
 20
-306.54836988607144
 11
335.50315241674963
 21
-306.54836988607144
  0
LINE
  8
_1-0_
  6
CONTINUOUS
 62
    9
 10
330.27440702714927
 20
-305.89836988607135
 11
335.32898544166875
 21
-305.89836988607135
  0
ARC
  8
_1-0_
  6
CONTINUOUS
 62
    9
 10
336.72440702714931
 20
-305.3483698860714
 40
0.25
 50
270
 51
15.000000000089292
  0
LINE
  8
_1-0_
  6
CONTINUOUS
 62
    9
 10
325.19088848372127
 20
-305.91307464734723
 11
324.51155817192836
 21
-308.44836988607153
  0
LINE
  8
_1-0_
  6
CONTINUOUS
 62
    9
 10
330.27440702714927
 20
-306.54836988607144
 11
325.02066163754904
 21
-306.54836988607144
  0
LINE
  8
_1-0_
  6
CONTINUOUS
 62
    9
 10
324.78655172685859
 20
-300.69836988607136
 11
330.27440702714904
 21
-300.69836988607136
  0
LINE
  8
_1-0_
  6
CONTINUOUS
 62
    9
 10
324.94940702714922
 20
-305.5983698860714
 11
323.79940702714913
 21
-305.5983698860714
  0
ARC
  8
_1-0_
  6
CONTINUOUS
 62
    9
 10
323.79940702714913
 20
-305.3483698860714
 40
0.25
 50
164.9999999999107
 51
270
  0
LINE
  8
_1-0_
  6
CONTINUOUS
 62
    9
 10
324.78655172685859
 20
-300.69836988607136
 11
323.55792557057686
 21
-305.28366512479533
  0
ARC
  8
_1-0_
  6
CONTINUOUS
 62
    9
 10
324.94940702714922
 20
-305.8483698860714
 40
0.25
 50
344.99999999995498
 51
89.999999999999986
  0
LINE
  8
_1-0_
  6
CONTINUOUS
 62
    9
 10
325.19088848372104
 20
-305.913074647347
 11
324.51155817192836
 21
-308.4483698860713
  0
LINE
  8
_1-0_
  6
CONTINUOUS
 62
    9
 10
330.27440702714904
 20
-306.54836988607121
 11
325.02066163754904
 21
-306.54836988607121
  0
LINE
  8
_1-0_
  6
CONTINUOUS
 62
    9
 10
330.27440702714904
 20
-305.89836988607135
 11
325.19482861262969
 21
-305.89836988607135
  0
LINE
  8
_1-0_
  6
CONTINUOUS
 62
    9
 10
335.73726232743962
 20
-300.69836988607136
 11
330.27440702714904
 21
-300.69836988607136
  0
LINE
  8
_1-0_
  6
CONTINUOUS
 62
    9
 10
335.57440702714899
 20
-305.5983698860714
 11
336.72440702714908
 21
-305.5983698860714
  0
ARC
  8
_1-0_
  6
CONTINUOUS
 62
    9
 10
336.72440702714908
 20
-305.3483698860714
 40
0.25
 50
270
 51
15.000000000089292
  0
LINE
  8
_1-0_
  6
CONTINUOUS
 62
    9
 10
335.73726232743962
 20
-300.69836988607136
 11
336.96588848372136
 21
-305.28366512479533
  0
ARC
  8
_1-0_
  6
CONTINUOUS
 62
    9
 10
335.57440702714899
 20
-305.8483698860714
 40
0.25
 50
90
 51
195.00000000004499
  0
LINE
  8
_1-0_
  6
CONTINUOUS
 62
    9
 10
335.3329255705774
 20
-305.913074647347
 11
336.01225588237008
 21
-308.4483698860713
  0
LINE
  8
_1-0_
  6
CONTINUOUS
 62
    9
 10
330.27440702714904
 20
-306.54836988607121
 11
335.5031524167494
 21
-306.54836988607121
  0
LINE
  8
_1-0_
  6
CONTINUOUS
 62
    9
 10
330.27440702714904
 20
-305.89836988607135
 11
335.32898544166852
 21
-305.89836988607135
  0
LINE
  8
_1-0_
  6
CONTINUOUS
 62
    7
 10
323.08521460114099
 20
-308.3233698860713
 11
323.78530136905334
 21
-308.3233698860713
  0
LINE
  8
_1-0_
  6
CONTINUOUS
 62
    7
 10
325.53530136905334
 20
-278.32336988607136
 11
330.28530136905334
 21
-278.32336988607136
  0
LINE
  8
_1-0_
  6
CONTINUOUS
 62
    7
 10
323.97280136905312
 20
-279.82336988607125
 11
322.84780136905312
 21
-306.8233698860713
  0
LINE
  8
_1-0_
  6
CONTINUOUS
 62
    7
 10
322.7477146011409
 20
-306.8233698860713
 11
322.84780136905334
 21
-306.8233698860713
  0
LINE
  8
_1-0_
  6
CONTINUOUS
 62
    7
 10
323.93938126780751
 20
-278.22336988607134
 11
325.53530136905334
 21
-278.22336988607134
  0
LINE
  8
_1-0_
  6
CONTINUOUS
 62
    7
 10
323.8727146011409
 20
-279.82336988607136
 11
323.97280136905334
 21
-279.82336988607136
  0
LINE
  8
_1-0_
  6
CONTINUOUS
 62
    7
 10
325.53530136905334
 20
-278.32336988607136
 11
325.53530136905334
 21
-278.22336988607134
  0
LINE
  8
_1-0_
  6
CONTINUOUS
 62
    7
 10
322.6852146011409
 20
-308.3233698860713
 11
322.7477146011409
 21
-306.82336988607153
  0
LINE
  8
_1-0_
  6
CONTINUOUS
 62
    7
 10
323.8727146011409
 20
-279.82336988607148
 11
323.93938126780751
 21
-278.22336988607111
  0
LINE
  8
_1-0_
  6
CONTINUOUS
 62
    7
 10
325.37818278649053
 20
-278.97336988607134
 11
330.28530136905334
 21
-278.97336988607134
  0
LINE
  8
_1-0_
  6
CONTINUOUS
 62
    7
 10
324.62883298167122
 20
-279.69214697753722
 11
323.54940702714913
 21
-305.59836988607117
  0
ARC
  8
_1-0_
  6
CONTINUOUS
 62
    7
 10
325.37818278649053
 20
-279.72336988607134
 40
0.75
 50
90
 51
177.6140559696114
  0
LINE
  8
_1-0_
  6
CONTINUOUS
 62
    7
 10
324.91030136905334
 20
-305.7233698860714
 11
323.78530136905334
 21
-308.3233698860713
  0
ARC
  8
_1-0_
  6
CONTINUOUS
 62
    7
 10
322.88521460114094
 20
-308.17336988607121
 40
0.25
 50
216.86989764584337
 51
323.13010235415658
  0
LINE
  8
_1-0_
  6
CONTINUOUS
 62
    7
 10
337.48538813696547
 20
-308.3233698860713
 11
336.78530136905334
 21
-308.3233698860713
  0
LINE
  8
_1-0_
  6
CONTINUOUS
 62
    7
 10
335.03530136905312
 20
-278.32336988607125
 11
330.28530136905312
 21
-278.32336988607125
  0
LINE
  8
_1-0_
  6
CONTINUOUS
 62
    7
 10
336.59780136905312
 20
-279.82336988607125
 11
337.72280136905312
 21
-306.8233698860713
  0
LINE
  8
_1-0_
  6
CONTINUOUS
 62
    7
 10
337.82288813696533
 20
-306.8233698860713
 11
337.72280136905334
 21
-306.8233698860713
  0
LINE
  8
_1-0_
  6
CONTINUOUS
 62
    7
 10
336.63122147029873
 20
-278.22336988607123
 11
335.03530136905334
 21
-278.22336988607123
  0
LINE
  8
_1-0_
  6
CONTINUOUS
 62
    7
 10
336.69788813696556
 20
-279.82336988607125
 11
336.59780136905334
 21
-279.82336988607125
  0
LINE
  8
_1-0_
  6
CONTINUOUS
 62
    7
 10
335.03530136905312
 20
-278.32336988607125
 11
335.03530136905312
 21
-278.22336988607134
  0
LINE
  8
_1-0_
  6
CONTINUOUS
 62
    7
 10
337.88538813696556
 20
-308.3233698860713
 11
337.82288813696556
 21
-306.82336988607153
  0
LINE
  8
_1-0_
  6
CONTINUOUS
 62
    7
 10
336.69788813696556
 20
-279.82336988607159
 11
336.63122147029873
 21
-278.22336988607134
  0
LINE
  8
_1-0_
  6
CONTINUOUS
 62
    7
 10
335.1924199516157
 20
-278.97336988607111
 11
330.28530136905312
 21
-278.97336988607111
  0
LINE
  8
_1-0_
  6
CONTINUOUS
 62
    7
 10
335.94176975643501
 20
-279.69214697753722
 11
337.02119571095733
 21
-305.5983698860714
  0
ARC
  8
_1-0_
  6
CONTINUOUS
 62
    7
 10
335.1924199516157
 20
-279.72336988607134
 40
0.75
 50
2.3859440303886434
 51
90.000000000000057
  0
LINE
  8
_1-0_
  6
CONTINUOUS
 62
    7
 10
335.66030136905312
 20
-305.7233698860714
 11
336.78530136905312
 21
-308.3233698860713
  0
ARC
  8
_1-0_
  6
CONTINUOUS
 62
    7
 10
337.68538813696529
 20
-308.17336988607121
 40
0.25
 50
216.86989764584337
 51
323.13010235415669
  0
LINE
  8
_1-0_
  6
CONTINUOUS
 62
    7
 10
323.54940702714936
 20
-305.5983698860714
 11
324.91030136905312
 21
-305.7233698860714
  0
LINE
  8
_1-0_
  6
CONTINUOUS
 62
    7
 10
335.66030136905334
 20
-305.72336988607117
 11
337.02119571095733
 21
-305.59836988607117
  0
POINT
  8
_1-0_
 62
    4
 10
336.61872147057585
 20
-270.5620311599634
  0
LINE
  8
_1-0_
  6
CONTINUOUS
 62
    4
 10
336.61872147057585
 20
-270.5620311599634
 11
336.61872147057585
 21
-275.7286639546864
  0
POINT
  8
_1-0_
 62
    4
 10
323.93938126780751
 20
-270.5620311599634
  0
LINE
  8
_1-0_
  6
CONTINUOUS
 62
    4
 10
323.93938126780751
 20
-270.5620311599634
 11
323.93938126780751
 21
-275.7286639546864
  0
LINE
  8
_1-0_
  6
CONTINUOUS
 62
    4
 10
323.93938126780751
 20
-270.5620311599634
 11
336.61872147057585
 21
-270.5620311599634
  0
LINE
  8
_1-0_
  6
CONTINUOUS
 62
    9
 10
360.54940058180119
 20
-300.69838462162465
 11
366.03725588209164
 21
-300.69838462162465
  0
LINE
  8
_1-0_
  6
CONTINUOUS
 62
    9
 10
360.71225588209182
 20
-305.59838462162463
 11
359.56225588209173
 21
-305.59838462162463
  0
ARC
  8
_1-0_
  6
CONTINUOUS
 62
    9
 10
359.56225588209173
 20
-305.34838462162463
 40
0.25
 50
164.9999999999107
 51
270
  0
LINE
  8
_1-0_
  6
CONTINUOUS
 62
    9
 10
360.54940058180119
 20
-300.69838462162465
 11
359.32077442551946
 21
-305.2836798603488
  0
ARC
  8
_1-0_
  6
CONTINUOUS
 62
    9
 10
360.71225588209182
 20
-305.84838462162463
 40
0.25
 50
344.99999999995498
 51
89.999999999999986
  0
LINE
  8
_1-0_
  6
CONTINUOUS
 62
    9
 10
366.03725588209164
 20
-305.8983846216247
 11
360.9576774675723
 21
-305.8983846216247
  0
LINE
  8
_1-0_
  6
CONTINUOUS
 62
    9
 10
371.50011118238223
 20
-300.69838462162465
 11
366.03725588209164
 21
-300.69838462162465
  0
LINE
  8
_1-0_
  6
CONTINUOUS
 62
    9
 10
371.3372558820916
 20
-305.59838462162463
 11
372.48725588209169
 21
-305.59838462162463
  0
LINE
  8
_1-0_
  6
CONTINUOUS
 62
    9
 10
371.500111182382
 20
-300.69838462162465
 11
372.72873733866373
 21
-305.2836798603488
  0
ARC
  8
_1-0_
  6
CONTINUOUS
 62
    9
 10
371.3372558820916
 20
-305.84838462162463
 40
0.25
 50
90
 51
195.00000000004499
  0
LINE
  8
_1-0_
  6
CONTINUOUS
 62
    9
 10
371.09577442551978
 20
-305.91308938290035
 11
371.77510473731246
 21
-308.44838462162465
  0
LINE
  8
_1-0_
  6
CONTINUOUS
 62
    9
 10
366.03725588209164
 20
-306.54838462162468
 11
371.26600127169201
 21
-306.54838462162468
  0
LINE
  8
_1-0_
  6
CONTINUOUS
 62
    9
 10
366.03725588209164
 20
-305.8983846216247
 11
371.09183429661113
 21
-305.8983846216247
  0
ARC
  8
_1-0_
  6
CONTINUOUS
 62
    9
 10
372.48725588209169
 20
-305.34838462162463
 40
0.25
 50
270
 51
15.000000000089292
  0
LINE
  8
_1-0_
  6
CONTINUOUS
 62
    9
 10
360.95373733866364
 20
-305.91308938290047
 11
360.27440702687073
 21
-308.44838462162477
  0
LINE
  8
_1-0_
  6
CONTINUOUS
 62
    9
 10
366.03725588209164
 20
-306.54838462162468
 11
360.78351049249142
 21
-306.54838462162468
  0
LINE
  8
_1-0_
  6
CONTINUOUS
 62
    9
 10
360.54940058180097
 20
-300.69838462162465
 11
366.03725588209142
 21
-300.69838462162465
  0
LINE
  8
_1-0_
  6
CONTINUOUS
 62
    9
 10
360.7122558820916
 20
-305.59838462162463
 11
359.56225588209151
 21
-305.59838462162463
  0
ARC
  8
_1-0_
  6
CONTINUOUS
 62
    9
 10
359.56225588209151
 20
-305.34838462162463
 40
0.25
 50
164.9999999999107
 51
270
  0
LINE
  8
_1-0_
  6
CONTINUOUS
 62
    9
 10
360.54940058180097
 20
-300.69838462162465
 11
359.32077442551923
 21
-305.28367986034868
  0
ARC
  8
_1-0_
  6
CONTINUOUS
 62
    9
 10
360.7122558820916
 20
-305.84838462162463
 40
0.25
 50
344.99999999995498
 51
89.999999999999986
  0
LINE
  8
_1-0_
  6
CONTINUOUS
 62
    9
 10
360.95373733866342
 20
-305.91308938290035
 11
360.27440702687073
 21
-308.44838462162465
  0
LINE
  8
_1-0_
  6
CONTINUOUS
 62
    9
 10
366.03725588209142
 20
-306.54838462162456
 11
360.78351049249142
 21
-306.54838462162456
  0
LINE
  8
_1-0_
  6
CONTINUOUS
 62
    9
 10
366.03725588209142
 20
-305.89838462162459
 11
360.95767746757207
 21
-305.89838462162459
  0
LINE
  8
_1-0_
  6
CONTINUOUS
 62
    9
 10
371.500111182382
 20
-300.69838462162465
 11
366.03725588209142
 21
-300.69838462162465
  0
LINE
  8
_1-0_
  6
CONTINUOUS
 62
    9
 10
371.33725588209137
 20
-305.59838462162463
 11
372.48725588209146
 21
-305.59838462162463
  0
ARC
  8
_1-0_
  6
CONTINUOUS
 62
    9
 10
372.48725588209146
 20
-305.34838462162463
 40
0.25
 50
270
 51
15.000000000089292
  0
LINE
  8
_1-0_
  6
CONTINUOUS
 62
    9
 10
371.500111182382
 20
-300.69838462162465
 11
372.72873733866373
 21
-305.28367986034857
  0
ARC
  8
_1-0_
  6
CONTINUOUS
 62
    9
 10
371.33725588209137
 20
-305.84838462162463
 40
0.25
 50
90
 51
195.00000000004499
  0
LINE
  8
_1-0_
  6
CONTINUOUS
 62
    9
 10
371.09577442551978
 20
-305.91308938290035
 11
371.77510473731246
 21
-308.44838462162465
  0
LINE
  8
_1-0_
  6
CONTINUOUS
 62
    9
 10
366.03725588209142
 20
-306.54838462162456
 11
371.26600127169178
 21
-306.54838462162456
  0
LINE
  8
_1-0_
  6
CONTINUOUS
 62
    9
 10
366.03725588209142
 20
-305.89838462162459
 11
371.0918342966109
 21
-305.89838462162459
  0
LINE
  8
_1-0_
  6
CONTINUOUS
 62
    7
 10
358.84806345608337
 20
-308.32338462162454
 11
359.54815022399572
 21
-308.32338462162454
  0
LINE
  8
_1-0_
  6
CONTINUOUS
 62
    7
 10
361.29815022399572
 20
-278.32338462162465
 11
366.04815022399572
 21
-278.32338462162465
  0
LINE
  8
_1-0_
  6
CONTINUOUS
 62
    7
 10
359.73565022399549
 20
-279.82338462162454
 11
358.61065022399549
 21
-306.82338462162465
  0
LINE
  8
_1-0_
  6
CONTINUOUS
 62
    7
 10
358.51056345608328
 20
-306.82338462162454
 11
358.61065022399572
 21
-306.82338462162454
  0
LINE
  8
_1-0_
  6
CONTINUOUS
 62
    7
 10
359.70223012274988
 20
-278.22338462162463
 11
361.29815022399572
 21
-278.22338462162463
  0
LINE
  8
_1-0_
  6
CONTINUOUS
 62
    7
 10
359.63556345608328
 20
-279.82338462162465
 11
359.73565022399572
 21
-279.82338462162465
  0
LINE
  8
_1-0_
  6
CONTINUOUS
 62
    7
 10
361.29815022399572
 20
-278.32338462162465
 11
361.29815022399572
 21
-278.22338462162463
  0
LINE
  8
_1-0_
  6
CONTINUOUS
 62
    7
 10
358.44806345608328
 20
-308.32338462162465
 11
358.51056345608328
 21
-306.82338462162477
  0
LINE
  8
_1-0_
  6
CONTINUOUS
 62
    7
 10
359.63556345608328
 20
-279.82338462162477
 11
359.70223012274988
 21
-278.2233846216244
  0
LINE
  8
_1-0_
  6
CONTINUOUS
 62
    7
 10
361.1410316414329
 20
-278.97338462162463
 11
366.04815022399572
 21
-278.97338462162463
  0
LINE
  8
_1-0_
  6
CONTINUOUS
 62
    7
 10
360.3916818366136
 20
-279.69216171309051
 11
359.31225588209151
 21
-305.59838462162452
  0
ARC
  8
_1-0_
  6
CONTINUOUS
 62
    7
 10
361.1410316414329
 20
-279.72338462162463
 40
0.75
 50
90
 51
177.6140559696114
  0
LINE
  8
_1-0_
  6
CONTINUOUS
 62
    7
 10
360.67315022399572
 20
-305.72338462162463
 11
359.54815022399572
 21
-308.32338462162465
  0
ARC
  8
_1-0_
  6
CONTINUOUS
 62
    7
 10
358.64806345608332
 20
-308.17338462162456
 40
0.25
 50
216.86989764584337
 51
323.13010235415658
  0
LINE
  8
_1-0_
  6
CONTINUOUS
 62
    7
 10
373.24823699190785
 20
-308.32338462162454
 11
372.54815022399572
 21
-308.32338462162454
  0
LINE
  8
_1-0_
  6
CONTINUOUS
 62
    7
 10
370.79815022399549
 20
-278.32338462162454
 11
366.04815022399549
 21
-278.32338462162454
  0
LINE
  8
_1-0_
  6
CONTINUOUS
 62
    7
 10
372.36065022399549
 20
-279.82338462162454
 11
373.48565022399549
 21
-306.82338462162454
  0
LINE
  8
_1-0_
  6
CONTINUOUS
 62
    7
 10
373.58573699190771
 20
-306.82338462162454
 11
373.48565022399572
 21
-306.82338462162454
  0
LINE
  8
_1-0_
  6
CONTINUOUS
 62
    7
 10
372.3940703252411
 20
-278.22338462162452
 11
370.79815022399572
 21
-278.22338462162452
  0
LINE
  8
_1-0_
  6
CONTINUOUS
 62
    7
 10
372.46073699190794
 20
-279.82338462162454
 11
372.36065022399572
 21
-279.82338462162454
  0
LINE
  8
_1-0_
  6
CONTINUOUS
 62
    7
 10
370.79815022399549
 20
-278.32338462162454
 11
370.79815022399549
 21
-278.22338462162463
  0
LINE
  8
_1-0_
  6
CONTINUOUS
 62
    7
 10
373.64823699190794
 20
-308.32338462162465
 11
373.58573699190794
 21
-306.82338462162477
  0
LINE
  8
_1-0_
  6
CONTINUOUS
 62
    7
 10
372.46073699190794
 20
-279.82338462162488
 11
372.3940703252411
 21
-278.22338462162463
  0
LINE
  8
_1-0_
  6
CONTINUOUS
 62
    7
 10
370.95526880655808
 20
-278.9733846216244
 11
366.04815022399549
 21
-278.9733846216244
  0
LINE
  8
_1-0_
  6
CONTINUOUS
 62
    7
 10
371.70461861137738
 20
-279.69216171309051
 11
372.78404456589971
 21
-305.59838462162463
  0
ARC
  8
_1-0_
  6
CONTINUOUS
 62
    7
 10
370.95526880655808
 20
-279.72338462162463
 40
0.75
 50
2.3859440303886434
 51
90.000000000000057
  0
LINE
  8
_1-0_
  6
CONTINUOUS
 62
    7
 10
371.42315022399549
 20
-305.72338462162463
 11
372.54815022399549
 21
-308.32338462162465
  0
ARC
  8
_1-0_
  6
CONTINUOUS
 62
    7
 10
373.44823699190766
 20
-308.17338462162456
 40
0.25
 50
216.86989764584337
 51
323.13010235415669
  0
LINE
  8
_1-0_
  6
CONTINUOUS
 62
    7
 10
359.31225588209173
 20
-305.59838462162463
 11
360.67315022399549
 21
-305.72338462162463
  0
LINE
  8
_1-0_
  6
CONTINUOUS
 62
    7
 10
371.42315022399572
 20
-305.72338462162452
 11
372.78404456589971
 21
-305.59838462162452
  0
POINT
  8
_1-0_
 62
    4
 10
372.38157032551823
 20
-270.56204589551669
  0
LINE
  8
_1-0_
  6
CONTINUOUS
 62
    4
 10
372.38157032551823
 20
-270.56204589551669
 11
372.38157032551823
 21
-275.72867869023969
  0
POINT
  8
_1-0_
 62
    4
 10
359.70223012274988
 20
-270.56204589551669
  0
LINE
  8
_1-0_
  6
CONTINUOUS
 62
    4
 10
359.70223012274988
 20
-270.56204589551669
 11
359.70223012274988
 21
-275.72867869023969
  0
LINE
  8
_1-0_
  6
CONTINUOUS
 62
    4
 10
359.70223012274988
 20
-270.56204589551669
 11
372.38157032551823
 21
-270.56204589551669
  0
TEXT
  8
_1-0_
 62
    2
 10
449.25518810484976
 20
-164.56835565672128
 40
4
 41
1
 50
90
  1
25
  0
LINE
  8
_1-0_
  6
CONTINUOUS
 62
    9
 10
398.04940058180119
 20
-300.69840007294573
 11
403.53725588209164
 21
-300.69840007294573
  0
LINE
  8
_1-0_
  6
CONTINUOUS
 62
    9
 10
398.21225588209182
 20
-305.59840007294565
 11
397.06225588209173
 21
-305.59840007294565
  0
ARC
  8
_1-0_
  6
CONTINUOUS
 62
    9
 10
397.06225588209173
 20
-305.34840007294565
 40
0.25
 50
164.9999999999107
 51
270
  0
LINE
  8
_1-0_
  6
CONTINUOUS
 62
    9
 10
398.04940058180119
 20
-300.69840007294573
 11
396.82077442551946
 21
-305.28369531166982
  0
ARC
  8
_1-0_
  6
CONTINUOUS
 62
    9
 10
398.21225588209182
 20
-305.84840007294565
 40
0.25
 50
344.99999999995498
 51
89.999999999999986
  0
LINE
  8
_1-0_
  6
CONTINUOUS
 62
    9
 10
403.53725588209164
 20
-305.89840007294583
 11
398.4576774675723
 21
-305.89840007294583
  0
LINE
  8
_1-0_
  6
CONTINUOUS
 62
    9
 10
409.00011118238223
 20
-300.69840007294573
 11
403.53725588209164
 21
-300.69840007294573
  0
LINE
  8
_1-0_
  6
CONTINUOUS
 62
    9
 10
408.8372558820916
 20
-305.59840007294565
 11
409.98725588209169
 21
-305.59840007294565
  0
LINE
  8
_1-0_
  6
CONTINUOUS
 62
    9
 10
409.000111182382
 20
-300.69840007294573
 11
410.22873733866373
 21
-305.28369531166982
  0
ARC
  8
_1-0_
  6
CONTINUOUS
 62
    9
 10
408.8372558820916
 20
-305.84840007294565
 40
0.25
 50
90
 51
195.00000000004499
  0
LINE
  8
_1-0_
  6
CONTINUOUS
 62
    9
 10
408.59577442551978
 20
-305.91310483422149
 11
409.27510473731246
 21
-308.44840007294579
  0
LINE
  8
_1-0_
  6
CONTINUOUS
 62
    9
 10
403.53725588209164
 20
-306.5484000729457
 11
408.76600127169201
 21
-306.5484000729457
  0
LINE
  8
_1-0_
  6
CONTINUOUS
 62
    9
 10
403.53725588209164
 20
-305.89840007294583
 11
408.59183429661113
 21
-305.89840007294583
  0
ARC
  8
_1-0_
  6
CONTINUOUS
 62
    9
 10
409.98725588209169
 20
-305.34840007294565
 40
0.25
 50
270
 51
15.000000000089292
  0
LINE
  8
_1-0_
  6
CONTINUOUS
 62
    9
 10
398.45373733866364
 20
-305.91310483422149
 11
397.77440702687073
 21
-308.44840007294579
  0
LINE
  8
_1-0_
  6
CONTINUOUS
 62
    9
 10
403.53725588209164
 20
-306.5484000729457
 11
398.28351049249142
 21
-306.5484000729457
  0
LINE
  8
_1-0_
  6
CONTINUOUS
 62
    9
 10
398.04940058180097
 20
-300.69840007294573
 11
403.53725588209142
 21
-300.69840007294573
  0
LINE
  8
_1-0_
  6
CONTINUOUS
 62
    9
 10
398.2122558820916
 20
-305.59840007294565
 11
397.06225588209151
 21
-305.59840007294565
  0
ARC
  8
_1-0_
  6
CONTINUOUS
 62
    9
 10
397.06225588209151
 20
-305.34840007294565
 40
0.25
 50
164.9999999999107
 51
270
  0
LINE
  8
_1-0_
  6
CONTINUOUS
 62
    9
 10
398.04940058180097
 20
-300.69840007294573
 11
396.82077442551923
 21
-305.28369531166982
  0
ARC
  8
_1-0_
  6
CONTINUOUS
 62
    9
 10
398.2122558820916
 20
-305.84840007294565
 40
0.25
 50
344.99999999995498
 51
89.999999999999986
  0
LINE
  8
_1-0_
  6
CONTINUOUS
 62
    9
 10
398.45373733866342
 20
-305.91310483422149
 11
397.77440702687073
 21
-308.44840007294579
  0
LINE
  8
_1-0_
  6
CONTINUOUS
 62
    9
 10
403.53725588209142
 20
-306.5484000729457
 11
398.28351049249142
 21
-306.5484000729457
  0
LINE
  8
_1-0_
  6
CONTINUOUS
 62
    9
 10
403.53725588209142
 20
-305.89840007294561
 11
398.45767746757207
 21
-305.89840007294561
  0
LINE
  8
_1-0_
  6
CONTINUOUS
 62
    9
 10
409.000111182382
 20
-300.69840007294573
 11
403.53725588209142
 21
-300.69840007294573
  0
LINE
  8
_1-0_
  6
CONTINUOUS
 62
    9
 10
408.83725588209137
 20
-305.59840007294565
 11
409.98725588209146
 21
-305.59840007294565
  0
ARC
  8
_1-0_
  6
CONTINUOUS
 62
    9
 10
409.98725588209146
 20
-305.34840007294565
 40
0.25
 50
270
 51
15.000000000089292
  0
LINE
  8
_1-0_
  6
CONTINUOUS
 62
    9
 10
409.000111182382
 20
-300.69840007294573
 11
410.22873733866373
 21
-305.28369531166959
  0
ARC
  8
_1-0_
  6
CONTINUOUS
 62
    9
 10
408.83725588209137
 20
-305.84840007294565
 40
0.25
 50
90
 51
195.00000000004499
  0
LINE
  8
_1-0_
  6
CONTINUOUS
 62
    9
 10
408.59577442551978
 20
-305.91310483422149
 11
409.27510473731246
 21
-308.44840007294579
  0
LINE
  8
_1-0_
  6
CONTINUOUS
 62
    9
 10
403.53725588209142
 20
-306.5484000729457
 11
408.76600127169178
 21
-306.5484000729457
  0
LINE
  8
_1-0_
  6
CONTINUOUS
 62
    9
 10
403.53725588209142
 20
-305.89840007294561
 11
408.5918342966109
 21
-305.89840007294561
  0
LINE
  8
_1-0_
  6
CONTINUOUS
 62
    7
 10
396.34806345608337
 20
-308.32340007294556
 11
397.04815022399572
 21
-308.32340007294556
  0
LINE
  8
_1-0_
  6
CONTINUOUS
 62
    7
 10
398.79815022399572
 20
-278.32340007294573
 11
403.54815022399572
 21
-278.32340007294573
  0
LINE
  8
_1-0_
  6
CONTINUOUS
 62
    7
 10
397.23565022399549
 20
-279.82340007294562
 11
396.11065022399549
 21
-306.82340007294579
  0
LINE
  8
_1-0_
  6
CONTINUOUS
 62
    7
 10
396.01056345608328
 20
-306.82340007294556
 11
396.11065022399572
 21
-306.82340007294556
  0
LINE
  8
_1-0_
  6
CONTINUOUS
 62
    7
 10
397.20223012274988
 20
-278.22340007294571
 11
398.79815022399572
 21
-278.22340007294571
  0
LINE
  8
_1-0_
  6
CONTINUOUS
 62
    7
 10
397.13556345608328
 20
-279.82340007294573
 11
397.23565022399572
 21
-279.82340007294573
  0
LINE
  8
_1-0_
  6
CONTINUOUS
 62
    7
 10
398.79815022399572
 20
-278.32340007294573
 11
398.79815022399572
 21
-278.22340007294571
  0
LINE
  8
_1-0_
  6
CONTINUOUS
 62
    7
 10
395.94806345608328
 20
-308.32340007294579
 11
396.01056345608328
 21
-306.82340007294579
  0
LINE
  8
_1-0_
  6
CONTINUOUS
 62
    7
 10
397.13556345608328
 20
-279.82340007294584
 11
397.20223012274988
 21
-278.22340007294548
  0
LINE
  8
_1-0_
  6
CONTINUOUS
 62
    7
 10
398.6410316414329
 20
-278.97340007294571
 11
403.54815022399572
 21
-278.97340007294571
  0
LINE
  8
_1-0_
  6
CONTINUOUS
 62
    7
 10
397.8916818366136
 20
-279.69217716441159
 11
396.81225588209151
 21
-305.59840007294565
  0
ARC
  8
_1-0_
  6
CONTINUOUS
 62
    7
 10
398.6410316414329
 20
-279.72340007294571
 40
0.75
 50
90
 51
177.6140559696114
  0
LINE
  8
_1-0_
  6
CONTINUOUS
 62
    7
 10
398.17315022399572
 20
-305.72340007294565
 11
397.04815022399572
 21
-308.32340007294579
  0
ARC
  8
_1-0_
  6
CONTINUOUS
 62
    7
 10
396.14806345608332
 20
-308.1734000729457
 40
0.25
 50
216.86989764584337
 51
323.13010235415658
  0
LINE
  8
_1-0_
  6
CONTINUOUS
 62
    7
 10
410.74823699190785
 20
-308.32340007294556
 11
410.04815022399572
 21
-308.32340007294556
  0
LINE
  8
_1-0_
  6
CONTINUOUS
 62
    7
 10
408.29815022399549
 20
-278.32340007294562
 11
403.54815022399549
 21
-278.32340007294562
  0
LINE
  8
_1-0_
  6
CONTINUOUS
 62
    7
 10
409.86065022399549
 20
-279.82340007294562
 11
410.98565022399549
 21
-306.82340007294556
  0
LINE
  8
_1-0_
  6
CONTINUOUS
 62
    7
 10
411.08573699190771
 20
-306.82340007294556
 11
410.98565022399572
 21
-306.82340007294556
  0
LINE
  8
_1-0_
  6
CONTINUOUS
 62
    7
 10
409.8940703252411
 20
-278.22340007294559
 11
408.29815022399572
 21
-278.22340007294559
  0
LINE
  8
_1-0_
  6
CONTINUOUS
 62
    7
 10
409.96073699190794
 20
-279.82340007294562
 11
409.86065022399572
 21
-279.82340007294562
  0
LINE
  8
_1-0_
  6
CONTINUOUS
 62
    7
 10
408.29815022399549
 20
-278.32340007294562
 11
408.29815022399549
 21
-278.22340007294571
  0
LINE
  8
_1-0_
  6
CONTINUOUS
 62
    7
 10
411.14823699190794
 20
-308.32340007294579
 11
411.08573699190794
 21
-306.82340007294579
  0
LINE
  8
_1-0_
  6
CONTINUOUS
 62
    7
 10
409.96073699190794
 20
-279.82340007294596
 11
409.8940703252411
 21
-278.22340007294571
  0
LINE
  8
_1-0_
  6
CONTINUOUS
 62
    7
 10
408.45526880655808
 20
-278.97340007294548
 11
403.54815022399549
 21
-278.97340007294548
  0
LINE
  8
_1-0_
  6
CONTINUOUS
 62
    7
 10
409.20461861137738
 20
-279.69217716441159
 11
410.28404456589971
 21
-305.59840007294565
  0
ARC
  8
_1-0_
  6
CONTINUOUS
 62
    7
 10
408.45526880655808
 20
-279.72340007294571
 40
0.75
 50
2.3859440303886434
 51
90.000000000000057
  0
LINE
  8
_1-0_
  6
CONTINUOUS
 62
    7
 10
408.92315022399549
 20
-305.72340007294565
 11
410.04815022399549
 21
-308.32340007294579
  0
ARC
  8
_1-0_
  6
CONTINUOUS
 62
    7
 10
410.94823699190766
 20
-308.1734000729457
 40
0.25
 50
216.86989764584337
 51
323.13010235415669
  0
LINE
  8
_1-0_
  6
CONTINUOUS
 62
    7
 10
396.81225588209173
 20
-305.59840007294565
 11
398.17315022399549
 21
-305.72340007294565
  0
LINE
  8
_1-0_
  6
CONTINUOUS
 62
    7
 10
408.92315022399572
 20
-305.72340007294565
 11
410.28404456589971
 21
-305.59840007294565
  0
POINT
  8
_1-0_
 62
    4
 10
409.88157032551823
 20
-270.56206134683777
  0
LINE
  8
_1-0_
  6
CONTINUOUS
 62
    4
 10
409.88157032551823
 20
-270.56206134683777
 11
409.88157032551823
 21
-275.72869414156077
  0
POINT
  8
_1-0_
 62
    4
 10
397.20223012274988
 20
-270.56206134683777
  0
LINE
  8
_1-0_
  6
CONTINUOUS
 62
    4
 10
397.20223012274988
 20
-270.56206134683777
 11
397.20223012274988
 21
-275.72869414156077
  0
LINE
  8
_1-0_
  6
CONTINUOUS
 62
    4
 10
397.20223012274988
 20
-270.56206134683777
 11
409.88157032551823
 21
-270.56206134683777
  0
LINE
  8
_1-0_
  6
CONTINUOUS
 62
    9
 10
435.53690058180115
 20
-300.69841551911651
 11
441.0247558820916
 21
-300.69841551911651
  0
LINE
  8
_1-0_
  6
CONTINUOUS
 62
    9
 10
435.69975588209178
 20
-305.59841551911654
 11
434.54975588209169
 21
-305.59841551911654
  0
ARC
  8
_1-0_
  6
CONTINUOUS
 62
    9
 10
434.54975588209169
 20
-305.34841551911654
 40
0.25
 50
164.9999999999107
 51
270
  0
LINE
  8
_1-0_
  6
CONTINUOUS
 62
    9
 10
435.53690058180115
 20
-300.69841551911651
 11
434.30827442551941
 21
-305.28371075784071
  0
ARC
  8
_1-0_
  6
CONTINUOUS
 62
    9
 10
435.69975588209178
 20
-305.84841551911654
 40
0.25
 50
344.99999999995498
 51
89.999999999999986
  0
LINE
  8
_1-0_
  6
CONTINUOUS
 62
    9
 10
441.0247558820916
 20
-305.8984155191165
 11
435.94517746757225
 21
-305.8984155191165
  0
LINE
  8
_1-0_
  6
CONTINUOUS
 62
    9
 10
446.48761118238218
 20
-300.69841551911651
 11
441.0247558820916
 21
-300.69841551911651
  0
LINE
  8
_1-0_
  6
CONTINUOUS
 62
    9
 10
446.32475588209155
 20
-305.59841551911654
 11
447.47475588209164
 21
-305.59841551911654
  0
LINE
  8
_1-0_
  6
CONTINUOUS
 62
    9
 10
446.48761118238195
 20
-300.69841551911651
 11
447.71623733866369
 21
-305.28371075784071
  0
ARC
  8
_1-0_
  6
CONTINUOUS
 62
    9
 10
446.32475588209155
 20
-305.84841551911654
 40
0.25
 50
90
 51
195.00000000004499
  0
LINE
  8
_1-0_
  6
CONTINUOUS
 62
    9
 10
446.08327442551973
 20
-305.91312028039215
 11
446.76260473731242
 21
-308.44841551911645
  0
LINE
  8
_1-0_
  6
CONTINUOUS
 62
    9
 10
441.0247558820916
 20
-306.54841551911659
 11
446.25350127169196
 21
-306.54841551911659
  0
LINE
  8
_1-0_
  6
CONTINUOUS
 62
    9
 10
441.0247558820916
 20
-305.8984155191165
 11
446.07933429661108
 21
-305.8984155191165
  0
ARC
  8
_1-0_
  6
CONTINUOUS
 62
    9
 10
447.47475588209164
 20
-305.34841551911654
 40
0.25
 50
270
 51
15.000000000089292
  0
LINE
  8
_1-0_
  6
CONTINUOUS
 62
    9
 10
435.9412373386636
 20
-305.91312028039238
 11
435.26190702687069
 21
-308.44841551911668
  0
LINE
  8
_1-0_
  6
CONTINUOUS
 62
    9
 10
441.0247558820916
 20
-306.54841551911659
 11
435.77101049249137
 21
-306.54841551911659
  0
LINE
  8
_1-0_
  6
CONTINUOUS
 62
    9
 10
435.53690058180092
 20
-300.69841551911651
 11
441.02475588209137
 21
-300.69841551911651
  0
LINE
  8
_1-0_
  6
CONTINUOUS
 62
    9
 10
435.69975588209155
 20
-305.59841551911654
 11
434.54975588209146
 21
-305.59841551911654
  0
ARC
  8
_1-0_
  6
CONTINUOUS
 62
    9
 10
434.54975588209146
 20
-305.34841551911654
 40
0.25
 50
164.9999999999107
 51
270
  0
LINE
  8
_1-0_
  6
CONTINUOUS
 62
    9
 10
435.53690058180092
 20
-300.69841551911651
 11
434.30827442551919
 21
-305.28371075784048
  0
ARC
  8
_1-0_
  6
CONTINUOUS
 62
    9
 10
435.69975588209155
 20
-305.84841551911654
 40
0.25
 50
344.99999999995498
 51
89.999999999999986
  0
LINE
  8
_1-0_
  6
CONTINUOUS
 62
    9
 10
435.94123733866337
 20
-305.91312028039215
 11
435.26190702687069
 21
-308.44841551911645
  0
LINE
  8
_1-0_
  6
CONTINUOUS
 62
    9
 10
441.02475588209137
 20
-306.54841551911636
 11
435.77101049249137
 21
-306.54841551911636
  0
LINE
  8
_1-0_
  6
CONTINUOUS
 62
    9
 10
441.02475588209137
 20
-305.8984155191165
 11
435.94517746757202
 21
-305.8984155191165
  0
LINE
  8
_1-0_
  6
CONTINUOUS
 62
    9
 10
446.48761118238195
 20
-300.69841551911651
 11
441.02475588209137
 21
-300.69841551911651
  0
LINE
  8
_1-0_
  6
CONTINUOUS
 62
    9
 10
446.32475588209132
 20
-305.59841551911654
 11
447.47475588209142
 21
-305.59841551911654
  0
ARC
  8
_1-0_
  6
CONTINUOUS
 62
    9
 10
447.47475588209142
 20
-305.34841551911654
 40
0.25
 50
270
 51
15.000000000089292
  0
LINE
  8
_1-0_
  6
CONTINUOUS
 62
    9
 10
446.48761118238195
 20
-300.69841551911651
 11
447.71623733866369
 21
-305.28371075784048
  0
ARC
  8
_1-0_
  6
CONTINUOUS
 62
    9
 10
446.32475588209132
 20
-305.84841551911654
 40
0.25
 50
90
 51
195.00000000004499
  0
LINE
  8
_1-0_
  6
CONTINUOUS
 62
    9
 10
446.08327442551973
 20
-305.91312028039215
 11
446.76260473731242
 21
-308.44841551911645
  0
LINE
  8
_1-0_
  6
CONTINUOUS
 62
    9
 10
441.02475588209137
 20
-306.54841551911636
 11
446.25350127169173
 21
-306.54841551911636
  0
LINE
  8
_1-0_
  6
CONTINUOUS
 62
    9
 10
441.02475588209137
 20
-305.8984155191165
 11
446.07933429661085
 21
-305.8984155191165
  0
LINE
  8
_1-0_
  6
CONTINUOUS
 62
    7
 10
433.83556345608332
 20
-308.32341551911645
 11
434.53565022399567
 21
-308.32341551911645
  0
LINE
  8
_1-0_
  6
CONTINUOUS
 62
    7
 10
436.28565022399567
 20
-278.32341551911651
 11
441.03565022399567
 21
-278.32341551911651
  0
LINE
  8
_1-0_
  6
CONTINUOUS
 62
    7
 10
434.72315022399545
 20
-279.82341551911639
 11
433.59815022399545
 21
-306.82341551911645
  0
LINE
  8
_1-0_
  6
CONTINUOUS
 62
    7
 10
433.49806345608323
 20
-306.82341551911645
 11
433.59815022399567
 21
-306.82341551911645
  0
LINE
  8
_1-0_
  6
CONTINUOUS
 62
    7
 10
434.68973012274984
 20
-278.22341551911649
 11
436.28565022399567
 21
-278.22341551911649
  0
LINE
  8
_1-0_
  6
CONTINUOUS
 62
    7
 10
434.62306345608323
 20
-279.82341551911651
 11
434.72315022399567
 21
-279.82341551911651
  0
LINE
  8
_1-0_
  6
CONTINUOUS
 62
    7
 10
436.28565022399567
 20
-278.32341551911651
 11
436.28565022399567
 21
-278.22341551911649
  0
LINE
  8
_1-0_
  6
CONTINUOUS
 62
    7
 10
433.43556345608323
 20
-308.32341551911645
 11
433.49806345608323
 21
-306.82341551911668
  0
LINE
  8
_1-0_
  6
CONTINUOUS
 62
    7
 10
434.62306345608323
 20
-279.82341551911662
 11
434.68973012274984
 21
-278.22341551911626
  0
LINE
  8
_1-0_
  6
CONTINUOUS
 62
    7
 10
436.12853164143286
 20
-278.97341551911649
 11
441.03565022399567
 21
-278.97341551911649
  0
LINE
  8
_1-0_
  6
CONTINUOUS
 62
    7
 10
435.37918183661355
 20
-279.69219261058237
 11
434.29975588209146
 21
-305.59841551911632
  0
ARC
  8
_1-0_
  6
CONTINUOUS
 62
    7
 10
436.12853164143286
 20
-279.72341551911649
 40
0.75
 50
90
 51
177.6140559696114
  0
LINE
  8
_1-0_
  6
CONTINUOUS
 62
    7
 10
435.66065022399567
 20
-305.72341551911654
 11
434.53565022399567
 21
-308.32341551911645
  0
ARC
  8
_1-0_
  6
CONTINUOUS
 62
    7
 10
433.63556345608328
 20
-308.17341551911636
 40
0.25
 50
216.86989764584337
 51
323.13010235415658
  0
LINE
  8
_1-0_
  6
CONTINUOUS
 62
    7
 10
448.2357369919078
 20
-308.32341551911645
 11
447.53565022399567
 21
-308.32341551911645
  0
LINE
  8
_1-0_
  6
CONTINUOUS
 62
    7
 10
445.78565022399545
 20
-278.32341551911639
 11
441.03565022399545
 21
-278.32341551911639
  0
LINE
  8
_1-0_
  6
CONTINUOUS
 62
    7
 10
447.34815022399545
 20
-279.82341551911639
 11
448.47315022399545
 21
-306.82341551911645
  0
LINE
  8
_1-0_
  6
CONTINUOUS
 62
    7
 10
448.57323699190766
 20
-306.82341551911645
 11
448.47315022399567
 21
-306.82341551911645
  0
LINE
  8
_1-0_
  6
CONTINUOUS
 62
    7
 10
447.38157032524106
 20
-278.22341551911637
 11
445.78565022399567
 21
-278.22341551911637
  0
LINE
  8
_1-0_
  6
CONTINUOUS
 62
    7
 10
447.44823699190789
 20
-279.82341551911639
 11
447.34815022399567
 21
-279.82341551911639
  0
LINE
  8
_1-0_
  6
CONTINUOUS
 62
    7
 10
445.78565022399545
 20
-278.32341551911639
 11
445.78565022399545
 21
-278.22341551911649
  0
LINE
  8
_1-0_
  6
CONTINUOUS
 62
    7
 10
448.63573699190789
 20
-308.32341551911645
 11
448.57323699190789
 21
-306.82341551911668
  0
LINE
  8
_1-0_
  6
CONTINUOUS
 62
    7
 10
447.44823699190789
 20
-279.82341551911674
 11
447.38157032524106
 21
-278.22341551911649
  0
LINE
  8
_1-0_
  6
CONTINUOUS
 62
    7
 10
445.94276880655804
 20
-278.97341551911626
 11
441.03565022399545
 21
-278.97341551911626
  0
LINE
  8
_1-0_
  6
CONTINUOUS
 62
    7
 10
446.69211861137734
 20
-279.69219261058237
 11
447.77154456589966
 21
-305.59841551911654
  0
ARC
  8
_1-0_
  6
CONTINUOUS
 62
    7
 10
445.94276880655804
 20
-279.72341551911649
 40
0.75
 50
2.3859440303886434
 51
90.000000000000057
  0
LINE
  8
_1-0_
  6
CONTINUOUS
 62
    7
 10
446.41065022399545
 20
-305.72341551911654
 11
447.53565022399545
 21
-308.32341551911645
  0
ARC
  8
_1-0_
  6
CONTINUOUS
 62
    7
 10
448.43573699190762
 20
-308.17341551911636
 40
0.25
 50
216.86989764584337
 51
323.13010235415669
  0
LINE
  8
_1-0_
  6
CONTINUOUS
 62
    7
 10
434.29975588209169
 20
-305.59841551911654
 11
435.66065022399545
 21
-305.72341551911654
  0
LINE
  8
_1-0_
  6
CONTINUOUS
 62
    7
 10
446.41065022399567
 20
-305.72341551911632
 11
447.77154456589966
 21
-305.59841551911632
  0
POINT
  8
_1-0_
 62
    4
 10
447.36907032551818
 20
-270.56207679300854
  0
LINE
  8
_1-0_
  6
CONTINUOUS
 62
    4
 10
447.36907032551818
 20
-270.56207679300854
 11
447.36907032551818
 21
-275.72870958773154
  0
POINT
  8
_1-0_
 62
    4
 10
434.68973012274984
 20
-270.56207679300854
  0
LINE
  8
_1-0_
  6
CONTINUOUS
 62
    4
 10
434.68973012274984
 20
-270.56207679300854
 11
434.68973012274984
 21
-275.72870958773154
  0
LINE
  8
_1-0_
  6
CONTINUOUS
 62
    4
 10
434.68973012274984
 20
-270.56207679300854
 11
447.36907032551818
 21
-270.56207679300854
  0
LINE
  8
_1-0_
  6
CONTINUOUS
 62
    7
 10
363.01667334394779
 20
-253.82682105523429
 11
385.67734561856014
 21
-253.82682105523429
  0
LINE
  8
_1-0_
  6
CONTINUOUS
 62
    7
 10
336.58850080293166
 20
-280.2549935962503
 11
363.01667334394779
 21
-253.82682105523429
  0
TEXT
  8
_1-0_
 62
    7
 10
472.81652097699384
 20
-202.36355529364073
 40
5.3999999999999986
 41
1.0000000000000002
 50
0
  1
９７．５
  0
TEXT
  8
_1-0_
 62
    7
 10
522.49157897699308
 20
-202.36355529364073
 40
5.3999999999999986
 41
1.0000000000000002
 50
0
  1
１００
  0
TEXT
  8
_1-0_
 62
    7
 10
563.74120297699312
 20
-202.36355529364073
 40
5.3999999999999986
 41
1.0000000000000002
 50
0
  1
１０
  0
TEXT
  8
_1-0_
 62
    7
 10
363.60698279465453
 20
-252.75015676250064
 40
5.4000000000000004
 41
1
 50
0
  1
角パネル
  0
TEXT
  8
_1-0_
 62
    7
 10
602.89459937302968
 20
-254.71063188351894
 40
5.4000000000000004
 41
1
 50
0
  1
角パネル
  0
TEXT
  8
_1-0_
 62
    7
 10
362.82849351434629
 20
-261.54169311028284
 40
5.4000000000000004
 41
1
 50
0
  1
LKP2560
  0
TEXT
  8
_1-0_
 62
    7
 10
603.60590113910337
 20
-264.29110539241412
 40
5.4000000000000004
 41
1
 50
0
  1
LKP2560
  0
LINE
  8
_1-0_
  6
CONTINUOUS
 62
    3
 10
457.41652683095748
 20
-186.41355529364074
 11
457.41652683095748
 21
-203.16355529364074
  0
CIRCLE
  8
_1-0_
  6
CONTINUOUS
 62
    3
 10
457.41652683095748
 20
-203.16355529364074
 40
0.5999999999999999
  0
LINE
  8
_1-0_
  6
CONTINUOUS
 62
    7
 10
457.41652683095748
 20
-203.16355529364074
 11
506.3915614769931
 21
-203.16355529364074
  0
TEXT
  8
_1-0_
 62
    2
 10
328.15405136919168
 20
-270.0620311599634
 40
4
 41
1
 50
0
  1
25
  0
CIRCLE
  8
_1-0_
  6
CONTINUOUS
 62
    2
 10
277.29945132639108
 20
-480.98105313556607
 40
0.2999999999999999
  0
LINE
  8
_1-0_
  6
CONTINUOUS
 62
    2
 10
277.29945132639108
 20
-457.9810531355663
 11
277.29945132639108
 21
-480.98105313556607
  0
LINE
  8
_1-0_
  6
CONTINUOUS
 62
    2
 10
277.29945132639108
 20
-480.98105313556607
 11
326.27440363680961
 21
-480.98105313556607
  0
TEXT
  8
_1-0_
 62
    2
 10
363.91690022413405
 20
-270.06204589551669
 40
4
 41
1
 50
0
  1
25
  0
TEXT
  8
_1-0_
 62
    2
 10
401.41690022413405
 20
-270.06206134683777
 40
4
 41
1
 50
0
  1
25
  0
TEXT
  8
_1-0_
 62
    2
 10
438.90440022413401
 20
-270.06207679300854
 40
4
 41
1
 50
0
  1
25
  0
LINE
  8
_1-0_
  6
CONTINUOUS
 62
    7
 10
536.497458662089
 20
-457.9810531355663
 11
536.497458662089
 21
-480.9810531355663
  0
CIRCLE
  8
_1-0_
  6
CONTINUOUS
 62
    3
 10
529.60341856824243
 20
-402.19837713556626
 40
0.2999999999999999
  0
LINE
  8
_1-0_
  6
CONTINUOUS
 62
    3
 10
529.60341856824243
 20
-402.19837713556626
 11
529.60341856824243
 21
-455.9810531355663
  0
CIRCLE
  8
_1-0_
  6
CONTINUOUS
 62
    3
 10
529.60341856824243
 20
-402.19837713556626
 40
0.2999999999999999
  0
CIRCLE
  8
_1-0_
  6
CONTINUOUS
 62
    3
 10
536.497458662089
 20
-480.9810531355663
 40
0.2999999999999999
  0
CIRCLE
  8
_1-0_
  6
CONTINUOUS
 62
    3
 10
536.497458662089
 20
-480.9810531355663
 40
0.2999999999999999
  0
LINE
  8
_1-0_
  6
CONTINUOUS
 62
    3
 10
562.49751766208897
 20
-402.19837713556626
 11
529.60341856824243
 21
-402.19837713556626
  0
LINE
  8
_1-0_
  6
CONTINUOUS
 62
    3
 10
536.497458662089
 20
-456.48104313556632
 11
536.497458662089
 21
-280.51945094743166
  0
LINE
  8
_1-0_
  6
CONTINUOUS
 62
    7
 10
552.40491664461524
 20
-296.42690892995796
 11
546.497458662089
 21
-290.51945094743166
  0
LINE
  8
_1-0_
  6
CONTINUOUS
 62
    7
 10
571.497458662089
 20
-315.51945094743178
 11
536.497458662089
 21
-280.51945094743161
  0
LINE
  8
_1-0_
  6
CONTINUOUS
 62
    7
 10
571.497458662089
 20
-456.48104313556632
 11
536.497458662089
 21
-456.48104313556632
  0
LINE
  8
_1-0_
  6
CONTINUOUS
 62
    3
 10
640.24745766208889
 20
-480.9810531355663
 11
536.497458662089
 21
-480.9810531355663
  0
CIRCLE
  8
_1-0_
  6
CONTINUOUS
 62
    3
 10
529.60341856824243
 20
-280.51945094743161
 40
0.2999999999999999
  0
CIRCLE
  8
_1-0_
  6
CONTINUOUS
 62
    3
 10
529.60341856824243
 20
-280.51945094743161
 40
0.2999999999999999
  0
LINE
  8
_1-0_
  6
CONTINUOUS
 62
    3
 10
535.85340356824236
 20
-280.51945094743161
 11
529.60341856824243
 21
-280.51945094743161
  0
LINE
  8
_1-0_
  6
CONTINUOUS
 62
    3
 10
529.60341856824243
 20
-280.51945094743161
 11
529.60341856824243
 21
-402.19837713556626
  0
LINE
  8
_1-0_
  6
CONTINUOUS
 62
    7
 10
578.56852547395442
 20
-308.44838213556613
 11
548.56852547395442
 21
-278.44838213556619
  0
LINE
  8
_1-0_
  6
CONTINUOUS
 62
    7
 10
548.56852547395442
 20
-278.44838213556619
 11
734.74745766208889
 21
-278.44838213556619
  0
LINE
  8
_1-0_
  6
CONTINUOUS
 62
    7
 10
602.47478148265839
 20
-256.84553429796046
 11
625.13545375727074
 21
-256.84553429796046
  0
LINE
  8
_1-0_
  6
CONTINUOUS
 62
    7
 10
580.87193364505254
 20
-278.44838213556619
 11
602.47478148265839
 21
-256.84553429796046
  0
TEXT
  8
_1-0_
 62
    2
 10
269.1380566612068
 20
-333.29373718386341
 40
4
 41
1
 50
90
  1
25
  0
TEXT
  8
_1-0_
 62
    7
 10
529.2534193588765
 20
-361.45891406767885
 40
5.3999999999999986
 41
1.0000000000000002
 50
90.000002999999992
  1
２５０以内
  0
TEXT
  8
_1-0_
 62
    2
 10
269.13808241340831
 20
-370.79373718385273
 40
4
 41
1
 50
90
  1
25
  0
TEXT
  8
_1-0_
 62
    2
 10
269.13810816560982
 20
-408.29373718384227
 40
4
 41
1
 50
90
  1
25
  0
TEXT
  8
_1-0_
 62
    2
 10
269.13811260028314
 20
-444.05658603880579
 40
4
 41
1
 50
90
  1
25
  0
TEXT
  8
_1-0_
 62
    7
 10
529.10342000813898
 20
-456.43971516174611
 40
5.3999999999999995
 41
1.0000000000000002
 50
90.00000299999995
  1
ストリンガーピッチ
  0
TEXT
  8
_1-0_
 62
    7
 10
343.89664975533748
 20
-479.94829106013913
 40
5.4000000000000057
 41
0.999999999999999
 50
0
  1
１００
  0
TEXT
  8
_1-0_
 62
    7
 10
289.78692748160034
 20
-480.18105313556612
 40
5.4000000000000057
 41
0.999999999999999
 50
0
  1
９７．５
  0
TEXT
  8
_1-0_
 62
    7
 10
606.19745816208888
 20
-480.33105313556621
 40
5.4000000000000057
 41
0.999999999999999
 50
0
  1
１００
  0
TEXT
  8
_1-0_
 62
    7
 10
556.67245866208896
 20
-480.4810531355663
 40
5.4000000000000057
 41
0.999999999999999
 50
0
  1
９７．５
  0
ENDSEC
  0
EOF
