  0
SECTION
  2
HEADER
  9
$ACADVER
  1
AC1009
  9
$INSBASE
 10
0
 20
0
 30
0
  9
$EXTMIN
 10
0
 20
0
  9
$EXTMAX
 10
420.5
 20
297
  9
$LIMMIN
 10
0
 20
0
  9
$LIMMAX
 10
420.5
 20
297
  9
$LTSCALE
 40
0.5
  0
ENDSEC
  0
SECTION
  2
TABLES
  0
TABLE
  2
LTYPE
 70
     9
  0
LTYPE
  2
CONTINUOUS
 70
    64
  3
実線
 72
    65
 73
     0
 40
0.0
  0
LTYPE
  2
DASHED1
 70
    64
  3
--  --  --  --  --  --  --  --  
 72
    65
 73
     2
 40
2.5
 49
1.25
 49
-1.25
  0
LTYPE
  2
DASHED2
 70
    64
  3
----    ----    ----    ----    
 72
    65
 73
     2
 40
5.0
 49
2.5
 49
-2.5
  0
LTYPE
  2
DASHED3
 70
    64
  3
------  ------  ------  ------  
 72
    65
 73
     2
 40
5.0
 49
3.75
 49
-1.25
  0
LTYPE
  2
CENTER1
 70
    64
  3
----- - ----- - ----- - ----- - 
 72
    65
 73
     4
 40
10.0
 49
6.25
 49
-1.25
 49
1.25
 49
-1.25
  0
LTYPE
  2
CENTER2
 70
    64
  3
----------  --  ----------  --  
 72
    65
 73
     4
 40
20.0
 49
12.5
 49
-2.5
 49
2.5
 49
-2.5
  0
LTYPE
  2
PHANTOM1
 70
    64
  3
--- - - --- - - --- - - --- - - 
 72
    65
 73
     6
 40
10.0
 49
3.25
 49
-1.25
 49
1.25
 49
-1.25
 49
1.25
 49
-1.25
  0
LTYPE
  2
PHANTOM2
 70
    64
  3
--------  -  -  --------  -  -  
 72
    65
 73
     6
 40
20.0
 49
10.0
 49
-2.5
 49
1.25
 49
-2.5
 49
1.25
 49
-2.5
  0
LTYPE
  2
DOT
 70
    64
  3
-   -   -   -   -   -   -   -   
 72
    65
 73
     2
 40
2.5
 49
0.625
 49
-1.875
  0
LTYPE
  2
DUMMY
 70
    64
  3
ダミー
 72
    65
 73
     0
 40
0.0
  0
LTYPE
  2
RAND1
 70
    64
  3
ランダム線1
 72
    65
 73
     4
 40
10.0
 49
1.0
 49
-2.0
 49
3.0
 49
-4.0
  0
LTYPE
  2
RAND2
 70
    64
  3
ランダム線2
 72
    65
 73
     4
 40
14.0
 49
2.0
 49
-3.0
 49
4.0
 49
-5.0
  0
LTYPE
  2
RAND3
 70
    64
  3
ランダム線3
 72
    65
 73
     4
 40
18.0
 49
3.0
 49
-4.0
 49
5.0
 49
-6.0
  0
LTYPE
  2
RAND4
 70
    64
  3
ランダム線4
 72
    65
 73
     4
 40
22.0
 49
4.0
 49
-5.0
 49
6.0
 49
-7.0
  0
LTYPE
  2
RAND5
 70
    64
  3
ランダム線5
 72
    65
 73
     4
 40
26.0
 49
5.0
 49
-6.0
 49
7.0
 49
-8.0
  0
LTYPE
  2
LONG1
 70
    64
  3
----------  --  ----------  --  
 72
    65
 73
     4
 40
40.0
 49
32.5
 49
-2.5
 49
2.5
 49
-2.5
  0
LTYPE
  2
LONG2
 70
    64
  3
--------  -  -  --------  -  -  
 72
    65
 73
     6
 40
40.0
 49
30.0
 49
-2.5
 49
1.25
 49
-2.5
 49
1.25
 49
-2.5
  0
LTYPE
  2
LONG3
 70
    64
  3
+++++++++++++++..+++++++++++++++
 72
    65
 73
     2
 40
40.0
 49
37.5
 49
-2.5
  0
LTYPE
  2
LONG4
 70
    64
  3
+++++++++++++++..+++++++++++++++
 72
    65
 73
     2
 40
80.0
 49
75.0
 49
-5.0
  0
LTYPE
  2
LONG5
 70
    64
  3
----------  --  ----------  --  
 72
    65
 73
     4
 40
60.0
 49
37.5
 49
-7.5
 49
7.5
 49
-7.5
  0
LTYPE
  2
dashed
 70
   64
  3
-------   -------------   ------
 72
   65
 73
    2
 40
7.5
 49
6
 49
-1.5
  0
LTYPE
  2
dashed_spaced
 70
   64
  3
----        --------        ----
 72
   65
 73
    2
 40
12
 49
6
 49
-6
  0
LTYPE
  2
long_dashed_dotted
 70
   64
  3
------------- --- --------------
 72
   65
 73
    4
 40
15.25
 49
12
 49
-1.5
 49
0.25
 49
-1.5
  0
LTYPE
  2
long_dashed_double-dotted
 70
   64
  3
----------- --- --- ------------
 72
   65
 73
    6
 40
17
 49
12
 49
-1.5
 49
0.25
 49
-1.5
 49
0.25
 49
-1.5
  0
LTYPE
  2
long_dashed_triplicate-dotted
 70
   64
  3
--------- --- --- --- ----------
 72
   65
 73
    8
 40
18.75
 49
12
 49
-1.5
 49
0.25
 49
-1.5
 49
0.25
 49
-1.5
 49
0.25
 49
-1.5
  0
LTYPE
  2
dotted
 70
   64
  3
   -       -       -       -    
 72
   65
 73
    2
 40
1.75
 49
0.25
 49
-1.5
  0
LTYPE
  2
chain
 70
   64
  3
-------------- -- --------------
 72
   65
 73
    4
 40
18.5
 49
12
 49
-1.5
 49
3.5
 49
-1.5
  0
LTYPE
  2
chain_double_dash
 70
   64
  3
------------ -- -- -------------
 72
   65
 73
    6
 40
23.5
 49
12
 49
-1.5
 49
3.5
 49
-1.5
 49
3.5
 49
-1.5
  0
LTYPE
  2
dashed_dotted
 70
   64
  3
-----------     -     ----------
 72
   65
 73
    4
 40
9.25
 49
6
 49
-1.5
 49
0.25
 49
-1.5
  0
LTYPE
  2
double-dashed_dotted
 70
   64
  3
------   -----------   -   -----
 72
   65
 73
    6
 40
16.75
 49
6
 49
-1.5
 49
6
 49
-1.5
 49
0.25
 49
-1.5
  0
LTYPE
  2
dashed_double-dotted
 70
   64
  3
---------    -    -    ---------
 72
   65
 73
    6
 40
11
 49
6
 49
-1.5
 49
0.25
 49
-1.5
 49
0.25
 49
-1.5
  0
LTYPE
  2
double-dashed_double-dotted
 70
   64
  3
-----   ---------   -   -   ----
 72
   65
 73
    8
 40
18.5
 49
6
 49
-1.5
 49
6
 49
-1.5
 49
0.25
 49
-1.5
 49
0.25
 49
-1.5
  0
LTYPE
  2
dashed_triplicate-dotted
 70
   64
  3
-------    -    -    -    ------
 72
   65
 73
    8
 40
12.75
 49
6
 49
-1.5
 49
0.25
 49
-1.5
 49
0.25
 49
-1.5
 49
0.25
 49
-1.5
  0
LTYPE
  2
double-dashed_triplicate-dotted
 70
   64
  3
-----  ---------  -  -  -  -----
 72
   65
 73
   10
 40
20.25
 49
6
 49
-1.5
 49
6
 49
-1.5
 49
0.25
 49
-1.5
 49
0.25
 49
-1.5
 49
0.25
 49
-1.5
  0
LTYPE
  2
undefined
 70
   64
  3
--------------------------------
 72
   65
 73
    0
 40
0
  0
LTYPE
  2
PLINE2
 70
   64
  3
------     -----------     -----
 72
   65
 73
    2
 40
3
 49
2.1000000000000001
 49
-0.9
  0
LTYPE
  2
PLINE3
 70
   64
  3
------------   ---   -----------
 72
   65
 73
    4
 40
10
 49
7
 49
-1
 49
1
 49
-1
  0
LTYPE
  2
PLINE4
 70
   64
  3
---------   ---   ---   --------
 72
   65
 73
    6
 40
10
 49
5
 49
-1
 49
1
 49
-1
 49
1
 49
-1
  0
LTYPE
  2
PLINE5
 70
   64
  3
------     -----------     -----
 72
   65
 73
    2
 40
5
 49
3.5
 49
-1.5
  0
LTYPE
  2
PLINE6
 70
   64
  3
------------   ---   -----------
 72
   65
 73
    4
 40
15
 49
10.5
 49
-1.5
 49
1.5
 49
-1.5
  0
LTYPE
  2
PLINE7
 70
   64
  3
---------   ---   ---   --------
 72
   65
 73
    6
 40
15
 49
7.5
 49
-1.5
 49
1.5
 49
-1.5
 49
1.5
 49
-1.5
  0
LTYPE
  2
PLINE8
 70
   64
  3
------     -----------     -----
 72
   65
 73
    2
 40
7
 49
4.9000000000000004
 49
-2.1000000000000001
  0
LTYPE
  2
PLINE9
 70
   64
  3
------------   ---   -----------
 72
   65
 73
    4
 40
20
 49
14
 49
-2
 49
2
 49
-2
  0
LTYPE
  2
PLINE10
 70
   64
  3
---------   ---   ---   --------
 72
   65
 73
    6
 40
20
 49
10
 49
-2
 49
2
 49
-2
 49
2
 49
-2
  0
LTYPE
  2
PLINE11
 70
   64
  3
------     -----------     -----
 72
   65
 73
    2
 40
9
 49
6.2999999999999998
 49
-2.7000000000000002
  0
LTYPE
  2
PLINE12
 70
   64
  3
------------   ---   -----------
 72
   65
 73
    4
 40
25
 49
17.5
 49
-2.5
 49
2.5
 49
-2.5
  0
LTYPE
  2
PLINE13
 70
   64
  3
---------   ---   ---   --------
 72
   65
 73
    6
 40
25
 49
12.5
 49
-2.5
 49
2.5
 49
-2.5
 49
2.5
 49
-2.5
  0
LTYPE
  2
PLINE14
 70
   64
  3
------     -----------     -----
 72
   65
 73
    2
 40
11
 49
7.7000000000000002
 49
-3.2999999999999998
  0
LTYPE
  2
PLINE15
 70
   64
  3
------------   ---   -----------
 72
   65
 73
    4
 40
30
 49
21
 49
-3
 49
3
 49
-3
  0
LTYPE
  2
PLINE16
 70
   64
  3
---------   ---   ---   --------
 72
   65
 73
    6
 40
30
 49
15
 49
-3
 49
3
 49
-3
 49
3
 49
-3
  0
ENDTAB
  0
TABLE
  2
STYLE
  5
3
100
AcDbSymbolTable
 70
     1
  0
STYLE
  5
10
100
AcDbSymbolTableRecord
100
AcDbTextStyleTableRecord
  2
STANDARD
 70
     0
 40
0.0
 41
1.0
 50
0.0
 71
     0
 42
0.2
  3
txt
  4
bigfont.shx
  0
STYLE
  5
26
100
AcDbSymbolTableRecord
100
AcDbTextStyleTableRecord
  2
TATEGAKI
 70
    68
 40
0.0
 41
1.0
 50
0.0
 71
     0
 42
1.0
  3
txt
  4
bigfont.shx
  0
ENDTAB
  0
TABLE
  2
LAYER
 70
    2
  0
LAYER
  2
_0-1_PRO0
 70
   64
 62
    7
  6
CONTINUOUS
  0
LAYER
  2
ADD_LINE
 70
   64
 62
    7
  6
CONTINUOUS
  0
ENDTAB
  0
ENDSEC
  0
SECTION
  2
BLOCKS
  0
ENDSEC
  0
SECTION
  2
ENTITIES
  0
LINE
  8
_0-1_PRO0
  6
CONTINUOUS
 62
    3
 10
210.20718400000001
 20
213.790593
 11
210.20718400000001
 21
45.040593000000001
  0
LINE
  8
_0-1_PRO0
  6
CONTINUOUS
 62
    3
 10
206.45718400000001
 20
45.040593000000001
 11
206.45718400000001
 21
213.790593
  0
LINE
  8
_0-1_PRO0
  6
PLINE3
 62
    2
 10
145.25711699999999
 20
163.165593
 11
171.76961700000001
 21
163.165593
  0
LINE
  8
_0-1_PRO0
  6
CONTINUOUS
 62
    2
 10
154.70711700000001
 20
214.51962
 11
154.70711700000001
 21
45.040593000000001
  0
LINE
  8
_0-1_PRO0
  6
CONTINUOUS
 62
    3
 10
151.89461700000001
 20
78.790593000000001
 11
151.89461700000001
 21
75.040593000000001
  0
LINE
  8
_0-1_PRO0
  6
CONTINUOUS
 62
    3
 10
165.20711700000001
 20
214.51962
 11
165.20711700000001
 21
45.040593000000001
  0
LINE
  8
_0-1_PRO0
  6
PLINE3
 62
    2
 10
145.25711699999999
 20
61.915593000000001
 11
171.76961700000001
 21
61.915593000000001
  0
ARC
  8
_0-1_PRO0
  6
CONTINUOUS
 62
    3
 10
151.51961700000001
 20
50.290593000000001
 40
0.375
 50
0
 51
90
  0
LINE
  8
_0-1_PRO0
  6
CONTINUOUS
 62
    3
 10
150.03900400000001
 20
50.665593000000001
 11
151.51961700000001
 21
50.665593000000001
  0
LINE
  8
_0-1_PRO0
  6
CONTINUOUS
 62
    3
 10
151.89461700000001
 20
50.290593000000001
 11
151.89461700000001
 21
45.040593000000001
  0
ARC
  8
_0-1_PRO0
  6
CONTINUOUS
 62
    3
 10
150.01961700000001
 20
75.040593000000001
 40
1.875
 50
270
 51
0
  0
LINE
  8
_0-1_PRO0
  6
CONTINUOUS
 62
    3
 10
137.48170299999998
 20
73.165593000000001
 11
150.01961700000001
 21
73.165593000000001
  0
ARC
  8
_0-1_PRO0
  6
CONTINUOUS
 62
    3
 10
150.03900400000001
 20
50.290593000000001
 40
0.375
 50
90
 51
209.99987899999999
  0
LINE
  8
_0-1_PRO0
  6
CONTINUOUS
 62
    3
 10
150.67555100000001
 20
48.438052999999996
 11
149.71424400000001
 21
50.103093999999999
  0
ARC
  8
_0-1_PRO0
  6
CONTINUOUS
 62
    3
 10
148.894308
 20
51.523271999999992
 40
3.5625
 50
209.99987899999999
 51
299.99987900000002
  0
LINE
  8
_0-1_PRO0
  6
CONTINUOUS
 62
    3
 10
138.55132500000002
 20
62.312905000000001
 11
133.80912799999999
 21
70.526670999999993
  0
LINE
  8
_0-1_PRO0
  6
CONTINUOUS
 62
    3
 10
145.809088
 20
49.742029000000002
 11
141.066892
 21
57.955793999999997
  0
ARC
  8
_0-1_PRO0
  6
CONTINUOUS
 62
    3
 10
137.48170299999998
 20
75.040593000000001
 40
1.875
 50
209.99987899999999
 51
270
  0
LINE
  8
_0-1_PRO0
  6
CONTINUOUS
 62
    3
 10
135.11310400000002
 20
75.393133000000006
 11
135.85790299999999
 21
74.103095999999994
  0
ARC
  8
_0-1_PRO0
  6
CONTINUOUS
 62
    3
 10
136.89434699999998
 20
72.307913999999997
 40
3.5625
 50
119.99987900000002
 51
209.99987900000002
  0
ARC
  8
_0-1_PRO0
  6
CONTINUOUS
 62
    3
 10
141.71641199999999
 20
58.330792000000002
 40
0.75
 50
136.601429
 51
209.99987900000002
  0
ARC
  8
_0-1_PRO0
  6
CONTINUOUS
 62
    3
 10
139.20084400000002
 20
62.687904000000003
 40
0.75
 50
209.99987899999999
 51
283.39832999999999
  0
ARC
  8
_0-1_PRO0
  6
CONTINUOUS
 62
    3
 10
139.80910799999998
 20
60.134349999999998
 40
1.875
 50
316.60142900000005
 51
103.39833000000002
  0
LINE
  8
_0-1_PRO0
  6
CONTINUOUS
 62
    2
 10
135.11309199999999
 20
75.39315400000001
 11
135.394353
 21
74.905992999999995
  0
ARC
  8
_0-1_PRO0
  6
CONTINUOUS
 62
    2
 10
135.506494
 20
75.836761999999993
 40
0.1875
 50
340.47387300000003
 51
120.37648000000002
  0
LINE
  8
_0-1_PRO0
  6
CONTINUOUS
 62
    2
 10
135.394364
 20
74.906007000000002
 11
135.683211
 21
75.774092999999993
  0
LINE
  8
_0-1_PRO0
  6
CONTINUOUS
 62
    2
 10
131.28093899999999
 20
73.180638000000002
 11
136.43716999999998
 21
64.249740000000003
  0
LINE
  8
_0-1_PRO0
  6
CONTINUOUS
 62
    2
 10
136.62466899999998
 20
63.924980000000005
 11
139.02465999999998
 21
59.768053000000009
  0
LINE
  8
_0-1_PRO0
  6
CONTINUOUS
 62
    2
 10
141.499651
 20
55.481222000000002
 11
139.09966
 21
59.638148999999999
  0
LINE
  8
_0-1_PRO0
  6
CONTINUOUS
 62
    2
 10
146.84338199999999
 20
46.225563999999991
 11
141.687151
 21
55.156462000000005
  0
LINE
  8
_0-1_PRO0
  6
CONTINUOUS
 62
    2
 10
130.70372800000001
 20
73.280399000000003
 11
135.413814
 21
75.999754999999993
  0
LINE
  8
_0-1_PRO0
  6
CONTINUOUS
 62
    2
 10
135.11310400000002
 20
75.393133000000006
 11
131.28092599999999
 21
73.180661000000001
  0
LINE
  8
_0-1_PRO0
  6
CONTINUOUS
 62
    2
 10
130.93810200000001
 20
72.874448999999998
 11
130.70372800000001
 21
73.280399000000003
  0
LINE
  8
_0-1_PRO0
  6
CONTINUOUS
 62
    2
 10
141.625563
 20
54.363133000000005
 11
141.344314
 21
54.850273000000001
  0
LINE
  8
_0-1_PRO0
  6
CONTINUOUS
 62
    2
 10
141.344314
 20
54.850273000000001
 11
141.409266
 21
54.88777300000001
  0
LINE
  8
_0-1_PRO0
  6
CONTINUOUS
 62
    2
 10
141.409266
 20
54.88777300000001
 11
141.128017
 21
55.374912999999992
  0
LINE
  8
_0-1_PRO0
  6
CONTINUOUS
 62
    2
 10
141.128017
 20
55.374912999999992
 11
141.06306499999999
 21
55.337412999999998
  0
LINE
  8
_0-1_PRO0
  6
CONTINUOUS
 62
    2
 10
141.06306499999999
 20
55.337412999999998
 11
140.78181599999999
 21
55.824553000000009
  0
LINE
  8
_0-1_PRO0
  6
CONTINUOUS
 62
    2
 10
140.78181599999999
 20
55.824553000000009
 11
140.846768
 21
55.862053000000003
  0
LINE
  8
_0-1_PRO0
  6
CONTINUOUS
 62
    2
 10
140.846768
 20
55.862053000000003
 11
140.56551899999999
 21
56.349193
  0
LINE
  8
_0-1_PRO0
  6
CONTINUOUS
 62
    2
 10
140.56551899999999
 20
56.349193
 11
140.50056699999999
 21
56.311692999999991
  0
LINE
  8
_0-1_PRO0
  6
CONTINUOUS
 62
    2
 10
140.50056699999999
 20
56.311692999999991
 11
140.21931799999999
 21
56.798833000000002
  0
LINE
  8
_0-1_PRO0
  6
CONTINUOUS
 62
    2
 10
140.21931799999999
 20
56.798833000000002
 11
140.28426999999999
 21
56.836331999999999
  0
LINE
  8
_0-1_PRO0
  6
CONTINUOUS
 62
    2
 10
140.28426999999999
 20
56.836331999999999
 11
140.00302099999999
 21
57.32347200000001
  0
LINE
  8
_0-1_PRO0
  6
CONTINUOUS
 62
    2
 10
140.00302099999999
 20
57.32347200000001
 11
139.93806899999998
 21
57.285972000000001
  0
LINE
  8
_0-1_PRO0
  6
CONTINUOUS
 62
    2
 10
139.93806899999998
 20
57.285972000000001
 11
139.65681999999998
 21
57.773111999999998
  0
LINE
  8
_0-1_PRO0
  6
CONTINUOUS
 62
    2
 10
139.65681999999998
 20
57.773111999999998
 11
139.72177199999999
 21
57.810611999999992
  0
LINE
  8
_0-1_PRO0
  6
CONTINUOUS
 62
    2
 10
139.72177199999999
 20
57.810611999999992
 11
139.44052299999998
 21
58.297752000000003
  0
LINE
  8
_0-1_PRO0
  6
CONTINUOUS
 62
    2
 10
139.44052299999998
 20
58.297752000000003
 11
139.37557099999998
 21
58.260252000000008
  0
LINE
  8
_0-1_PRO0
  6
CONTINUOUS
 62
    2
 10
139.37557099999998
 20
58.260252000000008
 11
139.09432200000001
 21
58.747391999999991
  0
LINE
  8
_0-1_PRO0
  6
CONTINUOUS
 62
    2
 10
139.09432200000001
 20
58.747391999999991
 11
139.15927399999998
 21
58.784891999999999
  0
LINE
  8
_0-1_PRO0
  6
CONTINUOUS
 62
    2
 10
139.15927399999998
 20
58.784891999999999
 11
138.87802499999998
 21
59.272031999999996
  0
LINE
  8
_0-1_PRO0
  6
CONTINUOUS
 62
    2
 10
138.87802499999998
 20
59.272031999999996
 11
138.813073
 21
59.234532000000002
  0
LINE
  8
_0-1_PRO0
  6
CONTINUOUS
 62
    2
 10
138.813073
 20
59.234532000000002
 11
138.531824
 21
59.721671999999998
  0
LINE
  8
_0-1_PRO0
  6
CONTINUOUS
 62
    2
 10
138.531824
 20
59.721671999999998
 11
138.59677600000001
 21
59.759172000000007
  0
LINE
  8
_0-1_PRO0
  6
CONTINUOUS
 62
    2
 10
138.59677600000001
 20
59.759172000000007
 11
138.315527
 21
60.246312000000003
  0
LINE
  8
_0-1_PRO0
  6
CONTINUOUS
 62
    2
 10
138.315527
 20
60.246312000000003
 11
138.250575
 21
60.208811999999995
  0
LINE
  8
_0-1_PRO0
  6
CONTINUOUS
 62
    2
 10
138.250575
 20
60.208811999999995
 11
137.969326
 21
60.695952000000005
  0
LINE
  8
_0-1_PRO0
  6
CONTINUOUS
 62
    2
 10
137.969326
 20
60.695952000000005
 11
138.034278
 21
60.733452
  0
LINE
  8
_0-1_PRO0
  6
CONTINUOUS
 62
    2
 10
138.034278
 20
60.733452
 11
137.753029
 21
61.220590999999999
  0
LINE
  8
_0-1_PRO0
  6
CONTINUOUS
 62
    2
 10
137.753029
 20
61.220590999999999
 11
137.68807700000002
 21
61.183092000000002
  0
LINE
  8
_0-1_PRO0
  6
CONTINUOUS
 62
    2
 10
137.68807700000002
 20
61.183092000000002
 11
137.40682800000002
 21
61.670231000000001
  0
LINE
  8
_0-1_PRO0
  6
CONTINUOUS
 62
    2
 10
137.40682800000002
 20
61.670231000000001
 11
137.47178
 21
61.707730999999995
  0
LINE
  8
_0-1_PRO0
  6
CONTINUOUS
 62
    2
 10
137.47178
 20
61.707730999999995
 11
137.19053099999999
 21
62.194871000000006
  0
LINE
  8
_0-1_PRO0
  6
CONTINUOUS
 62
    2
 10
137.19053099999999
 20
62.194871000000006
 11
137.12557900000002
 21
62.157370999999998
  0
LINE
  8
_0-1_PRO0
  6
CONTINUOUS
 62
    2
 10
137.12557900000002
 20
62.157370999999998
 11
136.84433000000001
 21
62.644510999999994
  0
LINE
  8
_0-1_PRO0
  6
CONTINUOUS
 62
    2
 10
136.84433000000001
 20
62.644510999999994
 11
136.90928200000002
 21
62.682011000000003
  0
LINE
  8
_0-1_PRO0
  6
CONTINUOUS
 62
    2
 10
136.90928200000002
 20
62.682011000000003
 11
136.62803300000002
 21
63.169150999999999
  0
LINE
  8
_0-1_PRO0
  6
CONTINUOUS
 62
    2
 10
136.62803300000002
 20
63.169150999999999
 11
136.56308100000001
 21
63.131651000000005
  0
LINE
  8
_0-1_PRO0
  6
CONTINUOUS
 62
    2
 10
136.56308100000001
 20
63.131651000000005
 11
136.28183200000001
 21
63.618791000000002
  0
LINE
  8
_0-1_PRO0
  6
CONTINUOUS
 62
    2
 10
136.28183200000001
 20
63.618791000000002
 11
136.34678400000001
 21
63.65629100000001
  0
LINE
  8
_0-1_PRO0
  6
CONTINUOUS
 62
    2
 10
136.34678400000001
 20
63.65629100000001
 11
136.06553500000001
 21
64.143430999999993
  0
LINE
  8
_0-1_PRO0
  6
CONTINUOUS
 62
    2
 10
136.06553500000001
 20
64.143430999999993
 11
136.00058300000001
 21
64.105930999999998
  0
LINE
  8
_0-1_PRO0
  6
CONTINUOUS
 62
    2
 10
136.00058300000001
 20
64.105930999999998
 11
135.719334
 21
64.593071000000009
  0
LINE
  8
_0-1_PRO0
  6
CONTINUOUS
 62
    2
 10
135.719334
 20
64.593071000000009
 11
135.78428600000001
 21
64.630571000000003
  0
LINE
  8
_0-1_PRO0
  6
CONTINUOUS
 62
    2
 10
135.78428600000001
 20
64.630571000000003
 11
135.50303700000001
 21
65.117710000000002
  0
LINE
  8
_0-1_PRO0
  6
CONTINUOUS
 62
    2
 10
135.50303700000001
 20
65.117710000000002
 11
135.438085
 21
65.080210999999991
  0
LINE
  8
_0-1_PRO0
  6
CONTINUOUS
 62
    2
 10
135.438085
 20
65.080210999999991
 11
135.156836
 21
65.567350000000005
  0
LINE
  8
_0-1_PRO0
  6
CONTINUOUS
 62
    2
 10
135.156836
 20
65.567350000000005
 11
135.221788
 21
65.604849999999999
  0
LINE
  8
_0-1_PRO0
  6
CONTINUOUS
 62
    2
 10
135.221788
 20
65.604849999999999
 11
134.940539
 21
66.09199000000001
  0
LINE
  8
_0-1_PRO0
  6
CONTINUOUS
 62
    2
 10
134.940539
 20
66.09199000000001
 11
134.875587
 21
66.054490000000001
  0
LINE
  8
_0-1_PRO0
  6
CONTINUOUS
 62
    2
 10
134.875587
 20
66.054490000000001
 11
134.59433799999999
 21
66.541629999999998
  0
LINE
  8
_0-1_PRO0
  6
CONTINUOUS
 62
    2
 10
134.59433799999999
 20
66.541629999999998
 11
134.65929
 21
66.579129999999992
  0
LINE
  8
_0-1_PRO0
  6
CONTINUOUS
 62
    2
 10
134.65929
 20
66.579129999999992
 11
134.378041
 21
67.066270000000003
  0
LINE
  8
_0-1_PRO0
  6
CONTINUOUS
 62
    2
 10
134.378041
 20
67.066270000000003
 11
134.31308899999999
 21
67.028770000000009
  0
LINE
  8
_0-1_PRO0
  6
CONTINUOUS
 62
    2
 10
134.31308899999999
 20
67.028770000000009
 11
134.03183999999999
 21
67.515909999999991
  0
LINE
  8
_0-1_PRO0
  6
CONTINUOUS
 62
    2
 10
134.03183999999999
 20
67.515909999999991
 11
134.09679199999999
 21
67.55341
  0
LINE
  8
_0-1_PRO0
  6
CONTINUOUS
 62
    2
 10
134.09679199999999
 20
67.55341
 11
133.81554299999999
 21
68.040549999999996
  0
LINE
  8
_0-1_PRO0
  6
CONTINUOUS
 62
    2
 10
133.81554299999999
 20
68.040549999999996
 11
133.75059099999999
 21
68.003050000000002
  0
LINE
  8
_0-1_PRO0
  6
CONTINUOUS
 62
    2
 10
133.75059099999999
 20
68.003050000000002
 11
133.46934199999998
 21
68.490189999999998
  0
LINE
  8
_0-1_PRO0
  6
CONTINUOUS
 62
    2
 10
133.46934199999998
 20
68.490189999999998
 11
133.53429399999999
 21
68.527690000000007
  0
LINE
  8
_0-1_PRO0
  6
CONTINUOUS
 62
    2
 10
133.53429399999999
 20
68.527690000000007
 11
133.25304499999999
 21
69.014830000000003
  0
LINE
  8
_0-1_PRO0
  6
CONTINUOUS
 62
    2
 10
133.25304499999999
 20
69.014830000000003
 11
133.18809299999998
 21
68.977329999999995
  0
LINE
  8
_0-1_PRO0
  6
CONTINUOUS
 62
    2
 10
133.18809299999998
 20
68.977329999999995
 11
132.906845
 21
69.464470000000006
  0
LINE
  8
_0-1_PRO0
  6
CONTINUOUS
 62
    2
 10
132.906845
 20
69.464470000000006
 11
132.97179599999998
 21
69.501969000000003
  0
LINE
  8
_0-1_PRO0
  6
CONTINUOUS
 62
    2
 10
132.97179599999998
 20
69.501969000000003
 11
132.69054800000001
 21
69.989108999999999
  0
LINE
  8
_0-1_PRO0
  6
CONTINUOUS
 62
    2
 10
132.69054800000001
 20
69.989108999999999
 11
132.625596
 21
69.951608999999991
  0
LINE
  8
_0-1_PRO0
  6
CONTINUOUS
 62
    2
 10
132.625596
 20
69.951608999999991
 11
132.344347
 21
70.438749000000001
  0
LINE
  8
_0-1_PRO0
  6
CONTINUOUS
 62
    2
 10
132.344347
 20
70.438749000000001
 11
132.409299
 21
70.476248999999996
  0
LINE
  8
_0-1_PRO0
  6
CONTINUOUS
 62
    2
 10
132.409299
 20
70.476248999999996
 11
132.12805
 21
70.963389000000006
  0
LINE
  8
_0-1_PRO0
  6
CONTINUOUS
 62
    2
 10
132.12805
 20
70.963389000000006
 11
132.063098
 21
70.925888999999998
  0
LINE
  8
_0-1_PRO0
  6
CONTINUOUS
 62
    2
 10
132.063098
 20
70.925888999999998
 11
131.78184899999999
 21
71.413028999999995
  0
LINE
  8
_0-1_PRO0
  6
CONTINUOUS
 62
    2
 10
131.78184899999999
 20
71.413028999999995
 11
131.846801
 21
71.450529000000003
  0
LINE
  8
_0-1_PRO0
  6
CONTINUOUS
 62
    2
 10
131.846801
 20
71.450529000000003
 11
131.565552
 21
71.937669
  0
LINE
  8
_0-1_PRO0
  6
CONTINUOUS
 62
    2
 10
131.565552
 20
71.937669
 11
131.50060000000002
 21
71.900169000000005
  0
LINE
  8
_0-1_PRO0
  6
CONTINUOUS
 62
    2
 10
131.50060000000002
 20
71.900169000000005
 11
131.21935100000002
 21
72.387309000000002
  0
LINE
  8
_0-1_PRO0
  6
CONTINUOUS
 62
    2
 10
131.21935100000002
 20
72.387309000000002
 11
131.28430299999999
 21
72.42480900000001
  0
LINE
  8
_0-1_PRO0
  6
CONTINUOUS
 62
    2
 10
131.28430299999999
 20
72.42480900000001
 11
131.00305400000002
 21
72.911948999999993
  0
LINE
  8
_0-1_PRO0
  6
CONTINUOUS
 62
    2
 10
131.00305400000002
 20
72.911948999999993
 11
130.93810200000001
 21
72.874448999999998
  0
LINE
  8
_0-1_PRO0
  6
CONTINUOUS
 62
    2
 10
138.964732
 20
59.646850999999998
 11
139.02465999999998
 21
59.768053000000009
  0
ARC
  8
_0-1_PRO0
  6
CONTINUOUS
 62
    2
 10
142.08054099999998
 20
55.600090999999992
 40
0.1875
 50
299.99987900000002
 51
119.99987900000002
  0
LINE
  8
_0-1_PRO0
  6
CONTINUOUS
 62
    2
 10
141.499651
 20
55.481222000000002
 11
141.98679099999998
 21
55.762471000000005
  0
LINE
  8
_0-1_PRO0
  6
CONTINUOUS
 62
    2
 10
141.687151
 20
55.156462000000005
 11
142.17429099999998
 21
55.437711000000007
  0
ARC
  8
_0-1_PRO0
  6
CONTINUOUS
 62
    2
 10
137.01805899999999
 20
64.368608999999992
 40
0.1875
 50
299.99987900000002
 51
119.99987900000002
  0
LINE
  8
_0-1_PRO0
  6
CONTINUOUS
 62
    2
 10
136.62466899999998
 20
63.924980000000005
 11
137.11180899999999
 21
64.206229000000008
  0
LINE
  8
_0-1_PRO0
  6
CONTINUOUS
 62
    2
 10
136.43716999999998
 20
64.249740000000003
 11
136.92430999999999
 21
64.530989000000005
  0
LINE
  8
_0-1_PRO0
  6
CONTINUOUS
 62
    2
 10
138.964732
 20
59.646850999999998
 11
139.09966
 21
59.638148999999999
  0
LINE
  8
_0-1_PRO0
  6
CONTINUOUS
 62
    2
 10
150.67556300000001
 20
48.438031999999993
 11
150.39430200000001
 21
48.925193000000007
  0
ARC
  8
_0-1_PRO0
  6
CONTINUOUS
 62
    2
 10
151.256441
 20
48.556922
 40
0.1875
 50
299.62327900000003
 51
79.525886000000014
  0
LINE
  8
_0-1_PRO0
  6
CONTINUOUS
 62
    2
 10
150.394319
 20
48.925195000000002
 11
151.290527
 21
48.741297000000003
  0
LINE
  8
_0-1_PRO0
  6
CONTINUOUS
 62
    2
 10
146.64116899999999
 20
45.675804999999997
 11
151.35125600000001
 21
48.395161000000002
  0
LINE
  8
_0-1_PRO0
  6
CONTINUOUS
 62
    2
 10
150.67555100000001
 20
48.438052999999996
 11
146.84339499999999
 21
46.225540999999993
  0
LINE
  8
_0-1_PRO0
  6
CONTINUOUS
 62
    2
 10
146.40679499999999
 20
46.081755000000001
 11
146.64116899999999
 21
45.675804999999997
  0
LINE
  8
_0-1_PRO0
  6
CONTINUOUS
 62
    2
 10
141.625563
 20
54.363133000000005
 11
141.690515
 21
54.400632999999999
  0
LINE
  8
_0-1_PRO0
  6
CONTINUOUS
 62
    2
 10
141.690515
 20
54.400632999999999
 11
141.97176400000001
 21
53.913493000000003
  0
LINE
  8
_0-1_PRO0
  6
CONTINUOUS
 62
    2
 10
141.97176400000001
 20
53.913493000000003
 11
141.906812
 21
53.875992999999994
  0
LINE
  8
_0-1_PRO0
  6
CONTINUOUS
 62
    2
 10
141.906812
 20
53.875992999999994
 11
142.188061
 21
53.388852999999997
  0
LINE
  8
_0-1_PRO0
  6
CONTINUOUS
 62
    2
 10
142.188061
 20
53.388852999999997
 11
142.25301300000001
 21
53.426353000000006
  0
LINE
  8
_0-1_PRO0
  6
CONTINUOUS
 62
    2
 10
142.25301300000001
 20
53.426353000000006
 11
142.53426200000001
 21
52.939212999999995
  0
LINE
  8
_0-1_PRO0
  6
CONTINUOUS
 62
    2
 10
142.53426200000001
 20
52.939212999999995
 11
142.46931000000001
 21
52.901713000000001
  0
LINE
  8
_0-1_PRO0
  6
CONTINUOUS
 62
    2
 10
142.46931000000001
 20
52.901713000000001
 11
142.75055900000001
 21
52.414574000000002
  0
LINE
  8
_0-1_PRO0
  6
CONTINUOUS
 62
    2
 10
142.75055900000001
 20
52.414574000000002
 11
142.81551100000001
 21
52.452072999999999
  0
LINE
  8
_0-1_PRO0
  6
CONTINUOUS
 62
    2
 10
142.81551100000001
 20
52.452072999999999
 11
143.09676000000002
 21
51.964934
  0
LINE
  8
_0-1_PRO0
  6
CONTINUOUS
 62
    2
 10
143.09676000000002
 20
51.964934
 11
143.03180800000001
 21
51.927434000000005
  0
LINE
  8
_0-1_PRO0
  6
CONTINUOUS
 62
    2
 10
143.03180800000001
 20
51.927434000000005
 11
143.31305699999999
 21
51.440293999999994
  0
LINE
  8
_0-1_PRO0
  6
CONTINUOUS
 62
    2
 10
143.31305699999999
 20
51.440293999999994
 11
143.37800899999999
 21
51.477794000000003
  0
LINE
  8
_0-1_PRO0
  6
CONTINUOUS
 62
    2
 10
143.37800899999999
 20
51.477794000000003
 11
143.65925799999999
 21
50.990654000000006
  0
LINE
  8
_0-1_PRO0
  6
CONTINUOUS
 62
    2
 10
143.65925799999999
 20
50.990654000000006
 11
143.59430599999999
 21
50.953153999999998
  0
LINE
  8
_0-1_PRO0
  6
CONTINUOUS
 62
    2
 10
143.59430599999999
 20
50.953153999999998
 11
143.87555499999999
 21
50.466014000000001
  0
LINE
  8
_0-1_PRO0
  6
CONTINUOUS
 62
    2
 10
143.87555499999999
 20
50.466014000000001
 11
143.940506
 21
50.503513999999996
  0
LINE
  8
_0-1_PRO0
  6
CONTINUOUS
 62
    2
 10
143.940506
 20
50.503513999999996
 11
144.221755
 21
50.016373999999999
  0
LINE
  8
_0-1_PRO0
  6
CONTINUOUS
 62
    2
 10
144.221755
 20
50.016373999999999
 11
144.156803
 21
49.97887399999999
  0
LINE
  8
_0-1_PRO0
  6
CONTINUOUS
 62
    2
 10
144.156803
 20
49.97887399999999
 11
144.438052
 21
49.491734000000008
  0
LINE
  8
_0-1_PRO0
  6
CONTINUOUS
 62
    2
 10
144.438052
 20
49.491734000000008
 11
144.503004
 21
49.529234000000002
  0
LINE
  8
_0-1_PRO0
  6
CONTINUOUS
 62
    2
 10
144.503004
 20
49.529234000000002
 11
144.78425300000001
 21
49.042093999999992
  0
LINE
  8
_0-1_PRO0
  6
CONTINUOUS
 62
    2
 10
144.78425300000001
 20
49.042093999999992
 11
144.719301
 21
49.004593999999997
  0
LINE
  8
_0-1_PRO0
  6
CONTINUOUS
 62
    2
 10
144.719301
 20
49.004593999999997
 11
145.00055
 21
48.517454000000001
  0
LINE
  8
_0-1_PRO0
  6
CONTINUOUS
 62
    2
 10
145.00055
 20
48.517454000000001
 11
145.06550200000001
 21
48.554954000000009
  0
LINE
  8
_0-1_PRO0
  6
CONTINUOUS
 62
    2
 10
145.06550200000001
 20
48.554954000000009
 11
145.34675100000001
 21
48.067813999999998
  0
LINE
  8
_0-1_PRO0
  6
CONTINUOUS
 62
    2
 10
145.34675100000001
 20
48.067813999999998
 11
145.28179900000001
 21
48.030315000000002
  0
LINE
  8
_0-1_PRO0
  6
CONTINUOUS
 62
    2
 10
145.28179900000001
 20
48.030315000000002
 11
145.56304800000001
 21
47.543174999999991
  0
LINE
  8
_0-1_PRO0
  6
CONTINUOUS
 62
    2
 10
145.56304800000001
 20
47.543174999999991
 11
145.62799999999999
 21
47.580674999999999
  0
LINE
  8
_0-1_PRO0
  6
CONTINUOUS
 62
    2
 10
145.62799999999999
 20
47.580674999999999
 11
145.90924899999999
 21
47.093535000000003
  0
LINE
  8
_0-1_PRO0
  6
CONTINUOUS
 62
    2
 10
145.90924899999999
 20
47.093535000000003
 11
145.84429700000001
 21
47.056035000000008
  0
LINE
  8
_0-1_PRO0
  6
CONTINUOUS
 62
    2
 10
145.84429700000001
 20
47.056035000000008
 11
146.12554600000001
 21
46.568894999999998
  0
LINE
  8
_0-1_PRO0
  6
CONTINUOUS
 62
    2
 10
146.12554600000001
 20
46.568894999999998
 11
146.19049799999999
 21
46.606394999999992
  0
LINE
  8
_0-1_PRO0
  6
CONTINUOUS
 62
    2
 10
146.19049799999999
 20
46.606394999999992
 11
146.47174699999999
 21
46.11925500000001
  0
LINE
  8
_0-1_PRO0
  6
CONTINUOUS
 62
    2
 10
146.47174699999999
 20
46.11925500000001
 11
146.40679499999999
 21
46.081755000000001
  0
LINE
  8
_0-1_PRO0
  6
CONTINUOUS
 62
    3
 10
206.45711700000001
 20
172.540593
 11
200.08211700000001
 21
172.540593
  0
LINE
  8
_0-1_PRO0
  6
CONTINUOUS
 62
    3
 10
167.83211700000001
 20
172.540593
 11
200.08211700000001
 21
172.540593
  0
ARC
  8
_0-1_PRO0
  6
CONTINUOUS
 62
    3
 10
167.83211700000001
 20
169.915593
 40
2.625
 50
90
 51
180
  0
LINE
  8
_0-1_PRO0
  6
CONTINUOUS
 62
    3
 10
172.70711700000001
 20
154.540593
 11
167.83211700000001
 21
154.540593
  0
ARC
  8
_0-1_PRO0
  6
CONTINUOUS
 62
    3
 10
167.83211700000001
 20
156.415593
 40
1.875
 50
180
 51
270
  0
LINE
  8
_0-1_PRO0
  6
CONTINUOUS
 62
    3
 10
165.95711700000001
 20
169.915593
 11
165.95711700000001
 21
156.415593
  0
LINE
  8
_0-1_PRO0
  6
CONTINUOUS
 62
    3
 10
201.95711700000001
 20
156.415593
 11
201.95711700000001
 21
169.915593
  0
ARC
  8
_0-1_PRO0
  6
CONTINUOUS
 62
    3
 10
200.08211700000001
 20
156.415593
 40
1.875
 50
270
 51
0
  0
LINE
  8
_0-1_PRO0
  6
CONTINUOUS
 62
    3
 10
195.20711700000001
 20
154.540593
 11
200.08211700000001
 21
154.540593
  0
LINE
  8
_0-1_PRO0
  6
CONTINUOUS
 62
    3
 10
195.20711700000001
 20
154.540593
 11
195.20711700000001
 21
153.790593
  0
LINE
  8
_0-1_PRO0
  6
CONTINUOUS
 62
    3
 10
195.20711700000001
 20
153.790593
 11
200.08211700000001
 21
153.790593
  0
ARC
  8
_0-1_PRO0
  6
CONTINUOUS
 62
    3
 10
200.08211700000001
 20
156.415593
 40
2.625
 50
270
 51
0
  0
LINE
  8
_0-1_PRO0
  6
CONTINUOUS
 62
    3
 10
202.70711700000001
 20
169.915593
 11
202.70711700000001
 21
156.415593
  0
ARC
  8
_0-1_PRO0
  6
CONTINUOUS
 62
    3
 10
200.08211700000001
 20
169.915593
 40
2.625
 50
0
 51
90
  0
ARC
  8
_0-1_PRO0
  6
CONTINUOUS
 62
    3
 10
167.83211700000001
 20
156.415593
 40
2.625
 50
180
 51
270
  0
LINE
  8
_0-1_PRO0
  6
CONTINUOUS
 62
    3
 10
165.20711700000001
 20
169.915593
 11
165.20711700000001
 21
156.415593
  0
LINE
  8
_0-1_PRO0
  6
CONTINUOUS
 62
    3
 10
172.70711700000001
 20
153.790593
 11
167.83211700000001
 21
153.790593
  0
LINE
  8
_0-1_PRO0
  6
CONTINUOUS
 62
    3
 10
172.70711700000001
 20
153.790593
 11
172.70711700000001
 21
154.540593
  0
ARC
  8
_0-1_PRO0
  6
CONTINUOUS
 62
    3
 10
167.83211700000001
 20
169.915593
 40
1.875
 50
90
 51
180
  0
ARC
  8
_0-1_PRO0
  6
CONTINUOUS
 62
    3
 10
200.08211700000001
 20
169.915593
 40
1.875
 50
0
 51
90
  0
LINE
  8
_0-1_PRO0
  6
CONTINUOUS
 62
    3
 10
167.83211700000001
 20
171.790593
 11
200.08211700000001
 21
171.790593
  0
LINE
  8
_0-1_PRO0
  6
CONTINUOUS
 62
    3
 10
206.45711700000001
 20
191.290593
 11
206.08211700000001
 21
191.290593
  0
ARC
  8
_0-1_PRO0
  6
CONTINUOUS
 62
    3
 10
202.51961700000001
 20
176.478093
 40
2.4375
 50
270
 51
0
  0
LINE
  8
_0-1_PRO0
  6
CONTINUOUS
 62
    3
 10
202.51961700000001
 20
174.040593
 11
188.83211700000001
 21
174.040593
  0
LINE
  8
_0-1_PRO0
  6
CONTINUOUS
 62
    3
 10
204.95711700000001
 20
176.478093
 11
204.95711700000001
 21
190.165593
  0
ARC
  8
_0-1_PRO0
  6
CONTINUOUS
 62
    3
 10
206.08211700000001
 20
190.165593
 40
1.125
 50
90
 51
180
  0
LINE
  8
_0-1_PRO0
  6
CONTINUOUS
 62
    3
 10
187.70711700000001
 20
172.540593
 11
187.70711700000001
 21
172.915593
  0
ARC
  8
_0-1_PRO0
  6
CONTINUOUS
 62
    3
 10
188.83211700000001
 20
172.915593
 40
1.125
 50
90
 51
180
  0
LINE
  8
_0-1_PRO0
  6
PLINE2
 62
    7
 10
165.95711700000001
 20
162.228093
 11
165.88232099999999
 21
162.301726
  0
LINE
  8
_0-1_PRO0
  6
PLINE2
 62
    7
 10
165.95711700000001
 20
162.228093
 11
165.88232099999999
 21
162.42755099999999
  0
LINE
  8
_0-1_PRO0
  6
CONTINUOUS
 62
    7
 10
166.01941400000001
 20
162.462468
 11
165.95711700000001
 21
162.628593
  0
LINE
  8
_0-1_PRO0
  6
PLINE2
 62
    7
 10
160.81855200000001
 20
164.782669
 11
161.26961700000001
 21
164.946843
  0
LINE
  8
_0-1_PRO0
  6
PLINE2
 62
    7
 10
160.81855200000001
 20
161.548517
 11
161.26961700000001
 21
161.384343
  0
LINE
  8
_0-1_PRO0
  6
CONTINUOUS
 62
    7
 10
168.53153900000001
 20
162.462468
 11
168.00419500000001
 21
163.868718
  0
LINE
  8
_0-1_PRO0
  6
CONTINUOUS
 62
    7
 10
168.00419500000001
 20
163.868718
 11
168.06649200000001
 21
164.103093
  0
LINE
  8
_0-1_PRO0
  6
CONTINUOUS
 62
    7
 10
168.06649200000001
 20
164.103093
 11
168.30457100000001
 21
163.868718
  0
LINE
  8
_0-1_PRO0
  6
CONTINUOUS
 62
    7
 10
168.30457100000001
 20
163.868718
 11
168.83191400000001
 21
162.462468
  0
LINE
  8
_0-1_PRO0
  6
CONTINUOUS
 62
    7
 10
168.83191400000001
 20
162.462468
 11
168.76961700000001
 21
162.228093
  0
LINE
  8
_0-1_PRO0
  6
CONTINUOUS
 62
    7
 10
168.76961700000001
 20
162.228093
 11
168.53153900000001
 21
162.462468
  0
LINE
  8
_0-1_PRO0
  6
CONTINUOUS
 62
    7
 10
167.12528900000001
 20
162.462468
 11
166.59794500000001
 21
163.868718
  0
LINE
  8
_0-1_PRO0
  6
CONTINUOUS
 62
    7
 10
166.59794500000001
 20
163.868718
 11
166.66024200000001
 21
164.103093
  0
LINE
  8
_0-1_PRO0
  6
CONTINUOUS
 62
    7
 10
166.66024200000001
 20
164.103093
 11
166.89832100000001
 21
163.868718
  0
LINE
  8
_0-1_PRO0
  6
CONTINUOUS
 62
    7
 10
166.89832100000001
 20
163.868718
 11
167.42566400000001
 21
162.462468
  0
LINE
  8
_0-1_PRO0
  6
CONTINUOUS
 62
    7
 10
167.42566400000001
 20
162.462468
 11
167.36336700000001
 21
162.228093
  0
LINE
  8
_0-1_PRO0
  6
CONTINUOUS
 62
    7
 10
167.36336700000001
 20
162.228093
 11
167.12528900000001
 21
162.462468
  0
LINE
  8
_0-1_PRO0
  6
PLINE2
 62
    7
 10
161.26961700000001
 20
161.384343
 11
161.26961700000001
 21
164.946843
  0
LINE
  8
_0-1_PRO0
  6
CONTINUOUS
 62
    7
 10
167.42566400000001
 20
162.462468
 11
167.82841400000001
 21
162.462468
  0
LINE
  8
_0-1_PRO0
  6
CONTINUOUS
 62
    7
 10
166.89832100000001
 20
163.868718
 11
167.30107000000001
 21
163.868718
  0
LINE
  8
_0-1_PRO0
  6
CONTINUOUS
 62
    7
 10
167.12528900000001
 20
162.462468
 11
166.72253900000001
 21
162.462468
  0
LINE
  8
_0-1_PRO0
  6
CONTINUOUS
 62
    7
 10
166.19519600000001
 20
163.868718
 11
166.59794500000001
 21
163.868718
  0
LINE
  8
_0-1_PRO0
  6
CONTINUOUS
 62
    7
 10
167.60144600000001
 20
163.868718
 11
168.00419500000001
 21
163.868718
  0
LINE
  8
_0-1_PRO0
  6
CONTINUOUS
 62
    7
 10
168.30457100000001
 20
163.868718
 11
168.76961700000001
 21
163.868718
  0
LINE
  8
_0-1_PRO0
  6
CONTINUOUS
 62
    7
 10
168.53153900000001
 20
162.462468
 11
168.12878900000001
 21
162.462468
  0
LINE
  8
_0-1_PRO0
  6
CONTINUOUS
 62
    7
 10
167.82841400000001
 20
162.462468
 11
167.30107000000001
 21
163.868718
  0
LINE
  8
_0-1_PRO0
  6
CONTINUOUS
 62
    7
 10
167.30107000000001
 20
163.868718
 11
167.36336700000001
 21
164.103093
  0
LINE
  8
_0-1_PRO0
  6
CONTINUOUS
 62
    7
 10
167.36336700000001
 20
164.103093
 11
167.60144600000001
 21
163.868718
  0
LINE
  8
_0-1_PRO0
  6
CONTINUOUS
 62
    7
 10
167.60144600000001
 20
163.868718
 11
168.12878900000001
 21
162.462468
  0
LINE
  8
_0-1_PRO0
  6
CONTINUOUS
 62
    7
 10
168.12878900000001
 20
162.462468
 11
168.06649200000001
 21
162.228093
  0
LINE
  8
_0-1_PRO0
  6
CONTINUOUS
 62
    7
 10
168.06649200000001
 20
162.228093
 11
167.82841400000001
 21
162.462468
  0
LINE
  8
_0-1_PRO0
  6
CONTINUOUS
 62
    7
 10
168.83191400000001
 20
163.868718
 11
168.76961700000001
 21
164.103093
  0
LINE
  8
_0-1_PRO0
  6
CONTINUOUS
 62
    7
 10
168.76961700000001
 20
164.103093
 11
168.53153900000001
 21
163.868718
  0
LINE
  8
_0-1_PRO0
  6
CONTINUOUS
 62
    7
 10
170.31649200000001
 20
162.462468
 11
170.31649200000001
 21
163.38532000000001
  0
LINE
  8
_0-1_PRO0
  6
CONTINUOUS
 62
    7
 10
168.76961700000001
 20
163.868718
 11
168.76961700000001
 21
162.628593
  0
LINE
  8
_0-1_PRO0
  6
CONTINUOUS
 62
    7
 10
170.31649200000001
 20
162.462468
 11
171.01961700000001
 21
163.165593
  0
LINE
  8
_0-1_PRO0
  6
CONTINUOUS
 62
    7
 10
171.01961700000001
 20
163.165593
 11
170.31649200000001
 21
163.868718
  0
LINE
  8
_0-1_PRO0
  6
CONTINUOUS
 62
    7
 10
170.31649200000001
 20
162.462468
 11
168.83191400000001
 21
162.462468
  0
LINE
  8
_0-1_PRO0
  6
CONTINUOUS
 62
    7
 10
170.31649200000001
 20
163.868718
 11
168.76961700000001
 21
163.868718
  0
LINE
  8
_0-1_PRO0
  6
CONTINUOUS
 62
    7
 10
171.01961700000001
 20
163.165593
 11
168.76961700000001
 21
163.868718
  0
LINE
  8
_0-1_PRO0
  6
PLINE2
 62
    7
 10
161.26961700000001
 20
164.946843
 11
161.64461700000001
 21
164.73033699999999
  0
LINE
  8
_0-1_PRO0
  6
PLINE2
 62
    7
 10
161.64461700000001
 20
161.60084900000001
 11
161.26961700000001
 21
161.384343
  0
ARC
  8
_0-1_PRO0
  6
PLINE2
 62
    7
 10
164.128096
 20
163.165593
 40
3.6834790000000002
 50
153.95941400000001
 51
206.04058599999999
  0
LINE
  8
_0-1_PRO0
  6
PLINE2
 62
    7
 10
161.64461700000001
 20
162.462468
 11
162.37919500000001
 21
162.462468
  0
LINE
  8
_0-1_PRO0
  6
PLINE2
 62
    7
 10
161.64461700000001
 20
163.868718
 11
162.37919500000001
 21
163.868718
  0
LINE
  8
_0-1_PRO0
  6
PLINE2
 62
    7
 10
162.67957100000001
 20
163.868718
 11
163.08232000000001
 21
163.868718
  0
LINE
  8
_0-1_PRO0
  6
PLINE2
 62
    7
 10
163.38269600000001
 20
163.868718
 11
163.78544500000001
 21
163.868718
  0
LINE
  8
_0-1_PRO0
  6
PLINE2
 62
    7
 10
164.08582100000001
 20
163.868718
 11
164.48857000000001
 21
163.868718
  0
LINE
  8
_0-1_PRO0
  6
PLINE2
 62
    7
 10
164.78894600000001
 20
163.868718
 11
165.19169500000001
 21
163.868718
  0
LINE
  8
_0-1_PRO0
  6
PLINE2
 62
    7
 10
162.67957100000001
 20
162.462468
 11
162.90653900000001
 21
162.462468
  0
LINE
  8
_0-1_PRO0
  6
CONTINUOUS
 62
    7
 10
165.95711700000001
 20
164.103093
 11
166.19519600000001
 21
163.868718
  0
LINE
  8
_0-1_PRO0
  6
CONTINUOUS
 62
    7
 10
166.19519600000001
 20
163.868718
 11
166.72253900000001
 21
162.462468
  0
LINE
  8
_0-1_PRO0
  6
CONTINUOUS
 62
    7
 10
166.42216400000001
 20
162.462468
 11
165.95711700000001
 21
163.70259300000001
  0
LINE
  8
_0-1_PRO0
  6
PLINE2
 62
    7
 10
165.89482000000001
 20
163.868718
 11
165.95711700000001
 21
164.103093
  0
LINE
  8
_0-1_PRO0
  6
PLINE2
 62
    7
 10
165.49207100000001
 20
163.868718
 11
165.89482000000001
 21
163.868718
  0
LINE
  8
_0-1_PRO0
  6
CONTINUOUS
 62
    7
 10
166.42216400000001
 20
162.462468
 11
166.01941400000001
 21
162.462468
  0
LINE
  8
_0-1_PRO0
  6
CONTINUOUS
 62
    7
 10
166.72253900000001
 20
162.462468
 11
166.66024200000001
 21
162.228093
  0
LINE
  8
_0-1_PRO0
  6
CONTINUOUS
 62
    7
 10
166.66024200000001
 20
162.228093
 11
166.42216400000001
 21
162.462468
  0
LINE
  8
_0-1_PRO0
  6
PLINE2
 62
    7
 10
165.71903900000001
 20
162.462468
 11
165.19169500000001
 21
163.868718
  0
LINE
  8
_0-1_PRO0
  6
PLINE2
 62
    7
 10
165.49207100000001
 20
163.868718
 11
165.95711700000001
 21
162.628593
  0
LINE
  8
_0-1_PRO0
  6
PLINE2
 62
    7
 10
165.71903900000001
 20
162.462468
 11
165.88232099999999
 21
162.301726
  0
LINE
  8
_0-1_PRO0
  6
CONTINUOUS
 62
    7
 10
166.01941400000001
 20
162.462468
 11
165.95711700000001
 21
162.228093
  0
LINE
  8
_0-1_PRO0
  6
PLINE2
 62
    7
 10
165.19169500000001
 20
163.868718
 11
165.25399200000001
 21
164.103093
  0
LINE
  8
_0-1_PRO0
  6
PLINE2
 62
    7
 10
165.25399200000001
 20
164.103093
 11
165.49207100000001
 21
163.868718
  0
LINE
  8
_0-1_PRO0
  6
PLINE2
 62
    7
 10
165.01591400000001
 20
162.462468
 11
164.48857000000001
 21
163.868718
  0
LINE
  8
_0-1_PRO0
  6
PLINE2
 62
    7
 10
164.48857000000001
 20
163.868718
 11
164.55086700000001
 21
164.103093
  0
LINE
  8
_0-1_PRO0
  6
PLINE2
 62
    7
 10
164.55086700000001
 20
164.103093
 11
164.78894600000001
 21
163.868718
  0
LINE
  8
_0-1_PRO0
  6
PLINE2
 62
    7
 10
164.78894600000001
 20
163.868718
 11
165.31628900000001
 21
162.462468
  0
LINE
  8
_0-1_PRO0
  6
PLINE2
 62
    7
 10
165.31628900000001
 20
162.462468
 11
165.25399200000001
 21
162.228093
  0
LINE
  8
_0-1_PRO0
  6
PLINE2
 62
    7
 10
165.25399200000001
 20
162.228093
 11
165.01591400000001
 21
162.462468
  0
LINE
  8
_0-1_PRO0
  6
PLINE2
 62
    7
 10
165.71903900000001
 20
162.462468
 11
165.31628900000001
 21
162.462468
  0
LINE
  8
_0-1_PRO0
  6
PLINE2
 62
    7
 10
164.31278900000001
 20
162.462468
 11
163.78544500000001
 21
163.868718
  0
LINE
  8
_0-1_PRO0
  6
PLINE2
 62
    7
 10
163.78544500000001
 20
163.868718
 11
163.84774200000001
 21
164.103093
  0
LINE
  8
_0-1_PRO0
  6
PLINE2
 62
    7
 10
163.84774200000001
 20
164.103093
 11
164.08582100000001
 21
163.868718
  0
LINE
  8
_0-1_PRO0
  6
PLINE2
 62
    7
 10
164.08582100000001
 20
163.868718
 11
164.61316400000001
 21
162.462468
  0
LINE
  8
_0-1_PRO0
  6
PLINE2
 62
    7
 10
164.61316400000001
 20
162.462468
 11
164.55086700000001
 21
162.228093
  0
LINE
  8
_0-1_PRO0
  6
PLINE2
 62
    7
 10
164.55086700000001
 20
162.228093
 11
164.31278900000001
 21
162.462468
  0
LINE
  8
_0-1_PRO0
  6
PLINE2
 62
    7
 10
165.01591400000001
 20
162.462468
 11
164.61316400000001
 21
162.462468
  0
LINE
  8
_0-1_PRO0
  6
PLINE2
 62
    7
 10
163.60966400000001
 20
162.462468
 11
163.08232000000001
 21
163.868718
  0
LINE
  8
_0-1_PRO0
  6
PLINE2
 62
    7
 10
163.08232000000001
 20
163.868718
 11
163.14461700000001
 21
164.103093
  0
LINE
  8
_0-1_PRO0
  6
PLINE2
 62
    7
 10
163.14461700000001
 20
164.103093
 11
163.38269600000001
 21
163.868718
  0
LINE
  8
_0-1_PRO0
  6
PLINE2
 62
    7
 10
163.38269600000001
 20
163.868718
 11
163.91003900000001
 21
162.462468
  0
LINE
  8
_0-1_PRO0
  6
PLINE2
 62
    7
 10
163.91003900000001
 20
162.462468
 11
163.84774200000001
 21
162.228093
  0
LINE
  8
_0-1_PRO0
  6
PLINE2
 62
    7
 10
163.84774200000001
 20
162.228093
 11
163.60966400000001
 21
162.462468
  0
LINE
  8
_0-1_PRO0
  6
PLINE2
 62
    7
 10
164.31278900000001
 20
162.462468
 11
163.91003900000001
 21
162.462468
  0
LINE
  8
_0-1_PRO0
  6
PLINE2
 62
    7
 10
162.90653900000001
 20
162.462468
 11
162.37919500000001
 21
163.868718
  0
LINE
  8
_0-1_PRO0
  6
PLINE2
 62
    7
 10
162.37919500000001
 20
163.868718
 11
162.44149200000001
 21
164.103093
  0
LINE
  8
_0-1_PRO0
  6
PLINE2
 62
    7
 10
162.44149200000001
 20
164.103093
 11
162.67957100000001
 21
163.868718
  0
LINE
  8
_0-1_PRO0
  6
PLINE2
 62
    7
 10
162.67957100000001
 20
163.868718
 11
163.20691400000001
 21
162.462468
  0
LINE
  8
_0-1_PRO0
  6
PLINE2
 62
    7
 10
163.20691400000001
 20
162.462468
 11
163.14461700000001
 21
162.228093
  0
LINE
  8
_0-1_PRO0
  6
PLINE2
 62
    7
 10
163.14461700000001
 20
162.228093
 11
162.90653900000001
 21
162.462468
  0
LINE
  8
_0-1_PRO0
  6
PLINE2
 62
    7
 10
163.60966400000001
 20
162.462468
 11
163.20691400000001
 21
162.462468
  0
LINE
  8
_0-1_PRO0
  6
PLINE2
 62
    7
 10
162.37919500000001
 20
162.462468
 11
162.37919500000001
 21
163.868718
  0
LINE
  8
_0-1_PRO0
  6
PLINE2
 62
    7
 10
162.67957100000001
 20
162.462468
 11
162.61727400000001
 21
162.228093
  0
LINE
  8
_0-1_PRO0
  6
PLINE2
 62
    7
 10
162.61727400000001
 20
162.228093
 11
162.37919500000001
 21
162.462468
  0
LINE
  8
_0-1_PRO0
  6
CONTINUOUS
 62
    3
 10
206.45711700000001
 20
71.290593000000001
 11
200.08211700000001
 21
71.290593000000001
  0
LINE
  8
_0-1_PRO0
  6
CONTINUOUS
 62
    3
 10
167.83211700000001
 20
71.290593000000001
 11
200.08211700000001
 21
71.290593000000001
  0
LINE
  8
_0-1_PRO0
  6
CONTINUOUS
 62
    3
 10
201.95711700000001
 20
55.165593000000001
 11
201.95711700000001
 21
68.665593000000001
  0
ARC
  8
_0-1_PRO0
  6
CONTINUOUS
 62
    3
 10
200.08211700000001
 20
55.165593000000001
 40
1.875
 50
270
 51
0
  0
LINE
  8
_0-1_PRO0
  6
CONTINUOUS
 62
    3
 10
195.20711700000001
 20
53.290593000000001
 11
200.08211700000001
 21
53.290593000000001
  0
LINE
  8
_0-1_PRO0
  6
CONTINUOUS
 62
    3
 10
195.20711700000001
 20
53.290593000000001
 11
195.20711700000001
 21
52.540593000000001
  0
LINE
  8
_0-1_PRO0
  6
CONTINUOUS
 62
    3
 10
195.20711700000001
 20
52.540593000000001
 11
200.08211700000001
 21
52.540593000000001
  0
ARC
  8
_0-1_PRO0
  6
CONTINUOUS
 62
    3
 10
200.08211700000001
 20
55.165593000000001
 40
2.625
 50
270
 51
0
  0
LINE
  8
_0-1_PRO0
  6
CONTINUOUS
 62
    3
 10
202.70711700000001
 20
68.665593000000001
 11
202.70711700000001
 21
55.165593000000001
  0
ARC
  8
_0-1_PRO0
  6
CONTINUOUS
 62
    3
 10
200.08211700000001
 20
68.665593000000001
 40
2.625
 50
0
 51
90
  0
ARC
  8
_0-1_PRO0
  6
CONTINUOUS
 62
    3
 10
200.08211700000001
 20
68.665593000000001
 40
1.875
 50
0
 51
90
  0
LINE
  8
_0-1_PRO0
  6
CONTINUOUS
 62
    3
 10
167.83211700000001
 20
70.540593000000001
 11
200.08211700000001
 21
70.540593000000001
  0
LINE
  8
_0-1_PRO0
  6
CONTINUOUS
 62
    3
 10
206.45711700000001
 20
90.040593000000001
 11
206.08211700000001
 21
90.040593000000001
  0
ARC
  8
_0-1_PRO0
  6
CONTINUOUS
 62
    3
 10
202.51961700000001
 20
75.228093000000001
 40
2.4375
 50
270
 51
0
  0
LINE
  8
_0-1_PRO0
  6
CONTINUOUS
 62
    3
 10
202.51961700000001
 20
72.790593000000001
 11
188.83211700000001
 21
72.790593000000001
  0
LINE
  8
_0-1_PRO0
  6
CONTINUOUS
 62
    3
 10
204.95711700000001
 20
75.228093000000001
 11
204.95711700000001
 21
88.915593000000001
  0
ARC
  8
_0-1_PRO0
  6
CONTINUOUS
 62
    3
 10
206.08211700000001
 20
88.915593000000001
 40
1.125
 50
90
 51
180
  0
LINE
  8
_0-1_PRO0
  6
CONTINUOUS
 62
    3
 10
187.70711700000001
 20
71.290593000000001
 11
187.70711700000001
 21
71.665593000000001
  0
ARC
  8
_0-1_PRO0
  6
CONTINUOUS
 62
    3
 10
188.83211700000001
 20
71.665593000000001
 40
1.125
 50
90
 51
180
  0
LINE
  8
_0-1_PRO0
  6
PLINE2
 62
    7
 10
165.95711700000001
 20
163.70259300000001
 11
165.89482000000001
 21
163.868718
  0
LINE
  8
_0-1_PRO0
  6
PLINE2
 62
    2
 10
161.64461700000001
 20
213.790593
 11
161.64461700000001
 21
45.040593000000001
  0
LINE
  8
_0-1_PRO0
  6
CONTINUOUS
 62
    2
 10
111.317544
 20
196.915593
 11
111.317544
 21
163.165593
  0
LINE
  8
_0-1_PRO0
  6
CONTINUOUS
 62
    2
 10
136.09177199999999
 20
196.915593
 11
111.317544
 21
196.915593
  0
LINE
  8
_0-1_PRO0
  6
CONTINUOUS
 62
    2
 10
136.09177199999999
 20
163.165593
 11
111.317544
 21
163.165593
  0
CIRCLE
  8
_0-1_PRO0
  6
CONTINUOUS
 62
    2
 10
111.317544
 20
196.915593
 40
0.2999999999999999
  0
CIRCLE
  8
_0-1_PRO0
  6
CONTINUOUS
 62
    2
 10
111.317544
 20
163.165593
 40
0.2999999999999999
  0
TEXT
  8
_0-1_PRO0
 62
    7
 10
110.317543
 20
177.46578500000001
 40
3
 41
0.7381100000000001
 50
90.000003000000007
  1
９０
  0
LINE
  8
_0-1_PRO0
  6
CONTINUOUS
 62
    2
 10
111.317544
 20
129.415593
 11
111.317544
 21
95.665593000000001
  0
LINE
  8
_0-1_PRO0
  6
CONTINUOUS
 62
    2
 10
136.09177199999999
 20
129.415593
 11
111.317544
 21
129.415593
  0
LINE
  8
_0-1_PRO0
  6
CONTINUOUS
 62
    2
 10
136.09177199999999
 20
95.665593000000001
 11
111.317544
 21
95.665593000000001
  0
CIRCLE
  8
_0-1_PRO0
  6
CONTINUOUS
 62
    2
 10
111.317544
 20
129.415593
 40
0.2999999999999999
  0
CIRCLE
  8
_0-1_PRO0
  6
CONTINUOUS
 62
    2
 10
111.317544
 20
95.665593000000001
 40
0.2999999999999999
  0
TEXT
  8
_0-1_PRO0
 62
    7
 10
110.317543
 20
109.96579300000001
 40
3
 41
0.7381100000000001
 50
90.000003000000007
  1
９０
  0
LINE
  8
_0-1_PRO0
  6
CONTINUOUS
 62
    2
 10
111.317544
 20
61.915593000000001
 11
111.317544
 21
95.665593000000001
  0
LINE
  8
_0-1_PRO0
  6
CONTINUOUS
 62
    2
 10
136.09177199999999
 20
61.915593000000001
 11
111.317544
 21
61.915593000000001
  0
CIRCLE
  8
_0-1_PRO0
  6
CONTINUOUS
 62
    2
 10
111.317544
 20
61.915593000000001
 40
0.2999999999999999
  0
CIRCLE
  8
_0-1_PRO0
  6
CONTINUOUS
 62
    2
 10
111.317544
 20
95.665593000000001
 40
0.2999999999999999
  0
TEXT
  8
_0-1_PRO0
 62
    7
 10
110.317543
 20
76.215792999999991
 40
3
 41
0.7381100000000001
 50
90.000003000000007
  1
９０
  0
LINE
  8
_0-1_PRO0
  6
CONTINUOUS
 62
    2
 10
111.317544
 20
163.165593
 11
111.317544
 21
129.415593
  0
CIRCLE
  8
_0-1_PRO0
  6
CONTINUOUS
 62
    2
 10
111.317544
 20
163.165593
 40
0.2999999999999999
  0
CIRCLE
  8
_0-1_PRO0
  6
CONTINUOUS
 62
    2
 10
111.317544
 20
129.415593
 40
0.2999999999999999
  0
TEXT
  8
_0-1_PRO0
 62
    7
 10
110.317543
 20
143.71578500000001
 40
3
 41
0.7381100000000001
 50
90.000003000000007
  1
９０
  0
LINE
  8
_0-1_PRO0
  6
CONTINUOUS
 62
    2
 10
202.70718400000001
 20
26.290593000000001
 11
165.20711700000001
 21
26.290593000000001
  0
LINE
  8
_0-1_PRO0
  6
CONTINUOUS
 62
    2
 10
202.70718400000001
 20
51.040593000000001
 11
202.70718400000001
 21
26.290593000000001
  0
LINE
  8
_0-1_PRO0
  6
CONTINUOUS
 62
    2
 10
165.20711700000001
 20
43.540593000000001
 11
165.20711700000001
 21
26.290593000000001
  0
CIRCLE
  8
_0-1_PRO0
  6
CONTINUOUS
 62
    2
 10
202.70718400000001
 20
26.290593000000001
 40
0.2999999999999999
  0
CIRCLE
  8
_0-1_PRO0
  6
CONTINUOUS
 62
    2
 10
165.20711700000001
 20
26.290593000000001
 40
0.2999999999999999
  0
TEXT
  8
_0-1_PRO0
 62
    7
 10
180.09494900000001
 20
27.290586000000005
 40
3
 41
0.7381100000000001
 50
0
  1
１００
  0
LINE
  8
_0-1_PRO0
  6
CONTINUOUS
 62
    2
 10
206.45718400000001
 20
26.290593000000001
 11
202.70718400000001
 21
26.290593000000001
  0
LINE
  8
_0-1_PRO0
  6
CONTINUOUS
 62
    2
 10
206.45718400000001
 20
43.540593000000001
 11
206.45718400000001
 21
26.290593000000001
  0
CIRCLE
  8
_0-1_PRO0
  6
CONTINUOUS
 62
    2
 10
206.45718400000001
 20
26.290593000000001
 40
0.2999999999999999
  0
CIRCLE
  8
_0-1_PRO0
  6
CONTINUOUS
 62
    2
 10
202.70718400000001
 20
26.290593000000001
 40
0.2999999999999999
  0
TEXT
  8
_0-1_PRO0
 62
    7
 10
202.26998900000001
 20
21.782111999999998
 40
3
 41
0.7381100000000001
 50
0
  1
１０
  0
LINE
  8
_0-1_PRO0
  6
CONTINUOUS
 62
    2
 10
130.70372800000001
 20
26.290593000000001
 11
165.20711700000001
 21
26.290593000000001
  0
LINE
  8
_0-1_PRO0
  6
CONTINUOUS
 62
    2
 10
130.70372800000001
 20
71.780399000000003
 11
130.70372800000001
 21
26.290593000000001
  0
CIRCLE
  8
_0-1_PRO0
  6
CONTINUOUS
 62
    2
 10
130.70372800000001
 20
26.290593000000001
 40
0.2999999999999999
  0
CIRCLE
  8
_0-1_PRO0
  6
CONTINUOUS
 62
    2
 10
165.20711700000001
 20
26.290593000000001
 40
0.2999999999999999
  0
TEXT
  8
_0-1_PRO0
 62
    7
 10
145.38062600000001
 20
27.290586000000005
 40
3
 41
0.7381100000000001
 50
0
  1
９２
  0
LINE
  8
_0-1_PRO0
  6
CONTINUOUS
 62
    2
 10
228.95718400000001
 20
153.790593
 11
228.95718400000001
 21
52.540593000000001
  0
LINE
  8
_0-1_PRO0
  6
CONTINUOUS
 62
    2
 10
204.20718400000001
 20
153.790593
 11
228.95718400000001
 21
153.790593
  0
LINE
  8
_0-1_PRO0
  6
CONTINUOUS
 62
    2
 10
204.20718400000001
 20
52.540593000000001
 11
228.95718400000001
 21
52.540593000000001
  0
CIRCLE
  8
_0-1_PRO0
  6
CONTINUOUS
 62
    2
 10
228.95718400000001
 20
153.790593
 40
0.2999999999999999
  0
CIRCLE
  8
_0-1_PRO0
  6
CONTINUOUS
 62
    2
 10
228.95718400000001
 20
52.540593000000001
 40
0.2999999999999999
  0
TEXT
  8
_0-1_PRO0
 62
    7
 10
227.95718400000001
 20
89.004178999999993
 40
3
 41
0.7381100000000001
 50
90.000003000000007
  1
ストリンガー固定ピッチ
  0
ARC
  8
_0-1_PRO0
  6
CONTINUOUS
 62
    3
 10
167.83211700000001
 20
68.665593000000001
 40
2.625
 50
90
 51
180
  0
LINE
  8
_0-1_PRO0
  6
CONTINUOUS
 62
    3
 10
172.70711700000001
 20
53.290593000000001
 11
167.83211700000001
 21
53.290593000000001
  0
ARC
  8
_0-1_PRO0
  6
CONTINUOUS
 62
    3
 10
167.83211700000001
 20
55.165593000000001
 40
1.875
 50
180
 51
270
  0
LINE
  8
_0-1_PRO0
  6
CONTINUOUS
 62
    3
 10
165.95711700000001
 20
68.665593000000001
 11
165.95711700000001
 21
55.165593000000001
  0
ARC
  8
_0-1_PRO0
  6
CONTINUOUS
 62
    3
 10
167.83211700000001
 20
55.165593000000001
 40
2.625
 50
180
 51
270
  0
LINE
  8
_0-1_PRO0
  6
CONTINUOUS
 62
    3
 10
165.20711700000001
 20
68.665593000000001
 11
165.20711700000001
 21
55.165593000000001
  0
LINE
  8
_0-1_PRO0
  6
CONTINUOUS
 62
    3
 10
172.70711700000001
 20
52.540593000000001
 11
167.83211700000001
 21
52.540593000000001
  0
LINE
  8
_0-1_PRO0
  6
CONTINUOUS
 62
    3
 10
172.70711700000001
 20
52.540593000000001
 11
172.70711700000001
 21
53.290593000000001
  0
ARC
  8
_0-1_PRO0
  6
CONTINUOUS
 62
    3
 10
167.83211700000001
 20
68.665593000000001
 40
1.875
 50
90
 51
180
  0
LINE
  8
_0-1_PRO0
  6
PLINE2
 62
    7
 10
165.95711700000001
 20
60.978093000000001
 11
165.88232099999999
 21
61.051726000000002
  0
LINE
  8
_0-1_PRO0
  6
PLINE2
 62
    7
 10
165.95711700000001
 20
60.978093000000001
 11
165.88232099999999
 21
61.177550999999994
  0
LINE
  8
_0-1_PRO0
  6
CONTINUOUS
 62
    7
 10
166.01941400000001
 20
61.212468000000001
 11
165.95711700000001
 21
61.378592999999995
  0
LINE
  8
_0-1_PRO0
  6
PLINE2
 62
    7
 10
160.81855200000001
 20
63.532668999999999
 11
161.26961700000001
 21
63.696843000000001
  0
LINE
  8
_0-1_PRO0
  6
PLINE2
 62
    7
 10
160.81855200000001
 20
60.298517000000004
 11
161.26961700000001
 21
60.134343000000001
  0
LINE
  8
_0-1_PRO0
  6
CONTINUOUS
 62
    7
 10
168.53153900000001
 20
61.212468000000001
 11
168.00419500000001
 21
62.618718000000001
  0
LINE
  8
_0-1_PRO0
  6
CONTINUOUS
 62
    7
 10
168.00419500000001
 20
62.618718000000001
 11
168.06649200000001
 21
62.853093000000001
  0
LINE
  8
_0-1_PRO0
  6
CONTINUOUS
 62
    7
 10
168.06649200000001
 20
62.853093000000001
 11
168.30457100000001
 21
62.618718000000001
  0
LINE
  8
_0-1_PRO0
  6
CONTINUOUS
 62
    7
 10
168.30457100000001
 20
62.618718000000001
 11
168.83191400000001
 21
61.212468000000001
  0
LINE
  8
_0-1_PRO0
  6
CONTINUOUS
 62
    7
 10
168.83191400000001
 20
61.212468000000001
 11
168.76961700000001
 21
60.978093000000001
  0
LINE
  8
_0-1_PRO0
  6
CONTINUOUS
 62
    7
 10
168.76961700000001
 20
60.978093000000001
 11
168.53153900000001
 21
61.212468000000001
  0
LINE
  8
_0-1_PRO0
  6
CONTINUOUS
 62
    7
 10
167.12528900000001
 20
61.212468000000001
 11
166.59794500000001
 21
62.618718000000001
  0
LINE
  8
_0-1_PRO0
  6
CONTINUOUS
 62
    7
 10
166.59794500000001
 20
62.618718000000001
 11
166.66024200000001
 21
62.853093000000001
  0
LINE
  8
_0-1_PRO0
  6
CONTINUOUS
 62
    7
 10
166.66024200000001
 20
62.853093000000001
 11
166.89832100000001
 21
62.618718000000001
  0
LINE
  8
_0-1_PRO0
  6
CONTINUOUS
 62
    7
 10
166.89832100000001
 20
62.618718000000001
 11
167.42566400000001
 21
61.212468000000001
  0
LINE
  8
_0-1_PRO0
  6
CONTINUOUS
 62
    7
 10
167.42566400000001
 20
61.212468000000001
 11
167.36336700000001
 21
60.978093000000001
  0
LINE
  8
_0-1_PRO0
  6
CONTINUOUS
 62
    7
 10
167.36336700000001
 20
60.978093000000001
 11
167.12528900000001
 21
61.212468000000001
  0
LINE
  8
_0-1_PRO0
  6
PLINE2
 62
    7
 10
161.26961700000001
 20
60.134343000000001
 11
161.26961700000001
 21
63.696843000000001
  0
LINE
  8
_0-1_PRO0
  6
CONTINUOUS
 62
    7
 10
167.42566400000001
 20
61.212468000000001
 11
167.82841400000001
 21
61.212468000000001
  0
LINE
  8
_0-1_PRO0
  6
CONTINUOUS
 62
    7
 10
166.89832100000001
 20
62.618718000000001
 11
167.30107000000001
 21
62.618718000000001
  0
LINE
  8
_0-1_PRO0
  6
CONTINUOUS
 62
    7
 10
167.12528900000001
 20
61.212468000000001
 11
166.72253900000001
 21
61.212468000000001
  0
LINE
  8
_0-1_PRO0
  6
CONTINUOUS
 62
    7
 10
166.19519600000001
 20
62.618718000000001
 11
166.59794500000001
 21
62.618718000000001
  0
LINE
  8
_0-1_PRO0
  6
CONTINUOUS
 62
    7
 10
167.60144600000001
 20
62.618718000000001
 11
168.00419500000001
 21
62.618718000000001
  0
LINE
  8
_0-1_PRO0
  6
CONTINUOUS
 62
    7
 10
168.30457100000001
 20
62.618718000000001
 11
168.76961700000001
 21
62.618718000000001
  0
LINE
  8
_0-1_PRO0
  6
CONTINUOUS
 62
    7
 10
168.53153900000001
 20
61.212468000000001
 11
168.12878900000001
 21
61.212468000000001
  0
LINE
  8
_0-1_PRO0
  6
CONTINUOUS
 62
    7
 10
167.82841400000001
 20
61.212468000000001
 11
167.30107000000001
 21
62.618718000000001
  0
LINE
  8
_0-1_PRO0
  6
CONTINUOUS
 62
    7
 10
167.30107000000001
 20
62.618718000000001
 11
167.36336700000001
 21
62.853093000000001
  0
LINE
  8
_0-1_PRO0
  6
CONTINUOUS
 62
    7
 10
167.36336700000001
 20
62.853093000000001
 11
167.60144600000001
 21
62.618718000000001
  0
LINE
  8
_0-1_PRO0
  6
CONTINUOUS
 62
    7
 10
167.60144600000001
 20
62.618718000000001
 11
168.12878900000001
 21
61.212468000000001
  0
LINE
  8
_0-1_PRO0
  6
CONTINUOUS
 62
    7
 10
168.12878900000001
 20
61.212468000000001
 11
168.06649200000001
 21
60.978093000000001
  0
LINE
  8
_0-1_PRO0
  6
CONTINUOUS
 62
    7
 10
168.06649200000001
 20
60.978093000000001
 11
167.82841400000001
 21
61.212468000000001
  0
LINE
  8
_0-1_PRO0
  6
CONTINUOUS
 62
    7
 10
168.83191400000001
 20
62.618718000000001
 11
168.76961700000001
 21
62.853093000000001
  0
LINE
  8
_0-1_PRO0
  6
CONTINUOUS
 62
    7
 10
168.76961700000001
 20
62.853093000000001
 11
168.53153900000001
 21
62.618718000000001
  0
LINE
  8
_0-1_PRO0
  6
CONTINUOUS
 62
    7
 10
170.31649200000001
 20
61.212468000000001
 11
170.31649200000001
 21
62.135320000000007
  0
LINE
  8
_0-1_PRO0
  6
CONTINUOUS
 62
    7
 10
168.76961700000001
 20
62.618718000000001
 11
168.76961700000001
 21
61.378592999999995
  0
LINE
  8
_0-1_PRO0
  6
CONTINUOUS
 62
    7
 10
170.31649200000001
 20
61.212468000000001
 11
171.01961700000001
 21
61.915593000000001
  0
LINE
  8
_0-1_PRO0
  6
CONTINUOUS
 62
    7
 10
171.01961700000001
 20
61.915593000000001
 11
170.31649200000001
 21
62.618718000000001
  0
LINE
  8
_0-1_PRO0
  6
CONTINUOUS
 62
    7
 10
170.31649200000001
 20
61.212468000000001
 11
168.83191400000001
 21
61.212468000000001
  0
LINE
  8
_0-1_PRO0
  6
CONTINUOUS
 62
    7
 10
170.31649200000001
 20
62.618718000000001
 11
168.76961700000001
 21
62.618718000000001
  0
LINE
  8
_0-1_PRO0
  6
CONTINUOUS
 62
    7
 10
171.01961700000001
 20
61.915593000000001
 11
168.76961700000001
 21
62.618718000000001
  0
LINE
  8
_0-1_PRO0
  6
PLINE2
 62
    7
 10
161.26961700000001
 20
63.696843000000001
 11
161.64461700000001
 21
63.480336999999992
  0
LINE
  8
_0-1_PRO0
  6
PLINE2
 62
    7
 10
161.64461700000001
 20
60.350848999999997
 11
161.26961700000001
 21
60.134343000000001
  0
ARC
  8
_0-1_PRO0
  6
PLINE2
 62
    7
 10
164.128096
 20
61.915593000000001
 40
3.6834790000000002
 50
153.95941400000001
 51
206.04058599999999
  0
LINE
  8
_0-1_PRO0
  6
PLINE2
 62
    7
 10
161.64461700000001
 20
61.212468000000001
 11
162.37919500000001
 21
61.212468000000001
  0
LINE
  8
_0-1_PRO0
  6
PLINE2
 62
    7
 10
161.64461700000001
 20
62.618718000000001
 11
162.37919500000001
 21
62.618718000000001
  0
LINE
  8
_0-1_PRO0
  6
PLINE2
 62
    7
 10
162.67957100000001
 20
62.618718000000001
 11
163.08232000000001
 21
62.618718000000001
  0
LINE
  8
_0-1_PRO0
  6
PLINE2
 62
    7
 10
163.38269600000001
 20
62.618718000000001
 11
163.78544500000001
 21
62.618718000000001
  0
LINE
  8
_0-1_PRO0
  6
PLINE2
 62
    7
 10
164.08582100000001
 20
62.618718000000001
 11
164.48857000000001
 21
62.618718000000001
  0
LINE
  8
_0-1_PRO0
  6
PLINE2
 62
    7
 10
164.78894600000001
 20
62.618718000000001
 11
165.19169500000001
 21
62.618718000000001
  0
LINE
  8
_0-1_PRO0
  6
PLINE2
 62
    7
 10
162.67957100000001
 20
61.212468000000001
 11
162.90653900000001
 21
61.212468000000001
  0
LINE
  8
_0-1_PRO0
  6
CONTINUOUS
 62
    7
 10
165.95711700000001
 20
62.853093000000001
 11
166.19519600000001
 21
62.618718000000001
  0
LINE
  8
_0-1_PRO0
  6
CONTINUOUS
 62
    7
 10
166.19519600000001
 20
62.618718000000001
 11
166.72253900000001
 21
61.212468000000001
  0
LINE
  8
_0-1_PRO0
  6
CONTINUOUS
 62
    7
 10
166.42216400000001
 20
61.212468000000001
 11
165.95711700000001
 21
62.452593000000007
  0
LINE
  8
_0-1_PRO0
  6
PLINE2
 62
    7
 10
165.89482000000001
 20
62.618718000000001
 11
165.95711700000001
 21
62.853093000000001
  0
LINE
  8
_0-1_PRO0
  6
PLINE2
 62
    7
 10
165.49207100000001
 20
62.618718000000001
 11
165.89482000000001
 21
62.618718000000001
  0
LINE
  8
_0-1_PRO0
  6
CONTINUOUS
 62
    7
 10
166.42216400000001
 20
61.212468000000001
 11
166.01941400000001
 21
61.212468000000001
  0
LINE
  8
_0-1_PRO0
  6
CONTINUOUS
 62
    7
 10
166.72253900000001
 20
61.212468000000001
 11
166.66024200000001
 21
60.978093000000001
  0
LINE
  8
_0-1_PRO0
  6
CONTINUOUS
 62
    7
 10
166.66024200000001
 20
60.978093000000001
 11
166.42216400000001
 21
61.212468000000001
  0
LINE
  8
_0-1_PRO0
  6
PLINE2
 62
    7
 10
165.71903900000001
 20
61.212468000000001
 11
165.19169500000001
 21
62.618718000000001
  0
LINE
  8
_0-1_PRO0
  6
PLINE2
 62
    7
 10
165.49207100000001
 20
62.618718000000001
 11
165.95711700000001
 21
61.378592999999995
  0
LINE
  8
_0-1_PRO0
  6
PLINE2
 62
    7
 10
165.71903900000001
 20
61.212468000000001
 11
165.88232099999999
 21
61.051726000000002
  0
LINE
  8
_0-1_PRO0
  6
CONTINUOUS
 62
    7
 10
166.01941400000001
 20
61.212468000000001
 11
165.95711700000001
 21
60.978093000000001
  0
LINE
  8
_0-1_PRO0
  6
PLINE2
 62
    7
 10
165.19169500000001
 20
62.618718000000001
 11
165.25399200000001
 21
62.853093000000001
  0
LINE
  8
_0-1_PRO0
  6
PLINE2
 62
    7
 10
165.25399200000001
 20
62.853093000000001
 11
165.49207100000001
 21
62.618718000000001
  0
LINE
  8
_0-1_PRO0
  6
PLINE2
 62
    7
 10
165.01591400000001
 20
61.212468000000001
 11
164.48857000000001
 21
62.618718000000001
  0
LINE
  8
_0-1_PRO0
  6
PLINE2
 62
    7
 10
164.48857000000001
 20
62.618718000000001
 11
164.55086700000001
 21
62.853093000000001
  0
LINE
  8
_0-1_PRO0
  6
PLINE2
 62
    7
 10
164.55086700000001
 20
62.853093000000001
 11
164.78894600000001
 21
62.618718000000001
  0
LINE
  8
_0-1_PRO0
  6
PLINE2
 62
    7
 10
164.78894600000001
 20
62.618718000000001
 11
165.31628900000001
 21
61.212468000000001
  0
LINE
  8
_0-1_PRO0
  6
PLINE2
 62
    7
 10
165.31628900000001
 20
61.212468000000001
 11
165.25399200000001
 21
60.978093000000001
  0
LINE
  8
_0-1_PRO0
  6
PLINE2
 62
    7
 10
165.25399200000001
 20
60.978093000000001
 11
165.01591400000001
 21
61.212468000000001
  0
LINE
  8
_0-1_PRO0
  6
PLINE2
 62
    7
 10
165.71903900000001
 20
61.212468000000001
 11
165.31628900000001
 21
61.212468000000001
  0
LINE
  8
_0-1_PRO0
  6
PLINE2
 62
    7
 10
164.31278900000001
 20
61.212468000000001
 11
163.78544500000001
 21
62.618718000000001
  0
LINE
  8
_0-1_PRO0
  6
PLINE2
 62
    7
 10
163.78544500000001
 20
62.618718000000001
 11
163.84774200000001
 21
62.853093000000001
  0
LINE
  8
_0-1_PRO0
  6
PLINE2
 62
    7
 10
163.84774200000001
 20
62.853093000000001
 11
164.08582100000001
 21
62.618718000000001
  0
LINE
  8
_0-1_PRO0
  6
PLINE2
 62
    7
 10
164.08582100000001
 20
62.618718000000001
 11
164.61316400000001
 21
61.212468000000001
  0
LINE
  8
_0-1_PRO0
  6
PLINE2
 62
    7
 10
164.61316400000001
 20
61.212468000000001
 11
164.55086700000001
 21
60.978093000000001
  0
LINE
  8
_0-1_PRO0
  6
PLINE2
 62
    7
 10
164.55086700000001
 20
60.978093000000001
 11
164.31278900000001
 21
61.212468000000001
  0
LINE
  8
_0-1_PRO0
  6
PLINE2
 62
    7
 10
165.01591400000001
 20
61.212468000000001
 11
164.61316400000001
 21
61.212468000000001
  0
LINE
  8
_0-1_PRO0
  6
PLINE2
 62
    7
 10
163.60966400000001
 20
61.212468000000001
 11
163.08232000000001
 21
62.618718000000001
  0
LINE
  8
_0-1_PRO0
  6
PLINE2
 62
    7
 10
163.08232000000001
 20
62.618718000000001
 11
163.14461700000001
 21
62.853093000000001
  0
LINE
  8
_0-1_PRO0
  6
PLINE2
 62
    7
 10
163.14461700000001
 20
62.853093000000001
 11
163.38269600000001
 21
62.618718000000001
  0
LINE
  8
_0-1_PRO0
  6
PLINE2
 62
    7
 10
163.38269600000001
 20
62.618718000000001
 11
163.91003900000001
 21
61.212468000000001
  0
LINE
  8
_0-1_PRO0
  6
PLINE2
 62
    7
 10
163.91003900000001
 20
61.212468000000001
 11
163.84774200000001
 21
60.978093000000001
  0
LINE
  8
_0-1_PRO0
  6
PLINE2
 62
    7
 10
163.84774200000001
 20
60.978093000000001
 11
163.60966400000001
 21
61.212468000000001
  0
LINE
  8
_0-1_PRO0
  6
PLINE2
 62
    7
 10
164.31278900000001
 20
61.212468000000001
 11
163.91003900000001
 21
61.212468000000001
  0
LINE
  8
_0-1_PRO0
  6
PLINE2
 62
    7
 10
162.90653900000001
 20
61.212468000000001
 11
162.37919500000001
 21
62.618718000000001
  0
LINE
  8
_0-1_PRO0
  6
PLINE2
 62
    7
 10
162.37919500000001
 20
62.618718000000001
 11
162.44149200000001
 21
62.853093000000001
  0
LINE
  8
_0-1_PRO0
  6
PLINE2
 62
    7
 10
162.44149200000001
 20
62.853093000000001
 11
162.67957100000001
 21
62.618718000000001
  0
LINE
  8
_0-1_PRO0
  6
PLINE2
 62
    7
 10
162.67957100000001
 20
62.618718000000001
 11
163.20691400000001
 21
61.212468000000001
  0
LINE
  8
_0-1_PRO0
  6
PLINE2
 62
    7
 10
163.20691400000001
 20
61.212468000000001
 11
163.14461700000001
 21
60.978093000000001
  0
LINE
  8
_0-1_PRO0
  6
PLINE2
 62
    7
 10
163.14461700000001
 20
60.978093000000001
 11
162.90653900000001
 21
61.212468000000001
  0
LINE
  8
_0-1_PRO0
  6
PLINE2
 62
    7
 10
163.60966400000001
 20
61.212468000000001
 11
163.20691400000001
 21
61.212468000000001
  0
LINE
  8
_0-1_PRO0
  6
PLINE2
 62
    7
 10
162.37919500000001
 20
61.212468000000001
 11
162.37919500000001
 21
62.618718000000001
  0
LINE
  8
_0-1_PRO0
  6
PLINE2
 62
    7
 10
162.67957100000001
 20
61.212468000000001
 11
162.61727400000001
 21
60.978093000000001
  0
LINE
  8
_0-1_PRO0
  6
PLINE2
 62
    7
 10
162.61727400000001
 20
60.978093000000001
 11
162.37919500000001
 21
61.212468000000001
  0
LINE
  8
_0-1_PRO0
  6
PLINE2
 62
    7
 10
165.95711700000001
 20
62.452593000000007
 11
165.89482000000001
 21
62.618718000000001
  0
LINE
  8
_0-1_PRO0
  6
CONTINUOUS
 62
    3
 10
151.89461700000001
 20
112.540593
 11
151.89461700000001
 21
108.790593
  0
ARC
  8
_0-1_PRO0
  6
CONTINUOUS
 62
    3
 10
151.51961700000001
 20
84.040593000000001
 40
0.375
 50
0
 51
90
  0
LINE
  8
_0-1_PRO0
  6
CONTINUOUS
 62
    3
 10
150.03900400000001
 20
84.415593000000001
 11
151.51961700000001
 21
84.415593000000001
  0
LINE
  8
_0-1_PRO0
  6
CONTINUOUS
 62
    3
 10
151.89461700000001
 20
84.040593000000001
 11
151.89461700000001
 21
78.790593000000001
  0
ARC
  8
_0-1_PRO0
  6
CONTINUOUS
 62
    3
 10
150.01961700000001
 20
108.790593
 40
1.875
 50
270
 51
0
  0
LINE
  8
_0-1_PRO0
  6
CONTINUOUS
 62
    3
 10
137.48170299999998
 20
106.915593
 11
150.01961700000001
 21
106.915593
  0
ARC
  8
_0-1_PRO0
  6
CONTINUOUS
 62
    3
 10
150.03900400000001
 20
84.040593000000001
 40
0.375
 50
90
 51
209.99987899999999
  0
LINE
  8
_0-1_PRO0
  6
CONTINUOUS
 62
    3
 10
150.67555100000001
 20
82.188052999999996
 11
149.71424400000001
 21
83.853093999999999
  0
ARC
  8
_0-1_PRO0
  6
CONTINUOUS
 62
    3
 10
148.894308
 20
85.273272000000006
 40
3.5625
 50
209.99987899999999
 51
299.99987900000002
  0
LINE
  8
_0-1_PRO0
  6
CONTINUOUS
 62
    3
 10
138.55132500000002
 20
96.062905000000001
 11
133.80912799999999
 21
104.27667099999999
  0
LINE
  8
_0-1_PRO0
  6
CONTINUOUS
 62
    3
 10
145.809088
 20
83.492029000000002
 11
141.066892
 21
91.705793999999997
  0
ARC
  8
_0-1_PRO0
  6
CONTINUOUS
 62
    3
 10
137.48170299999998
 20
108.790593
 40
1.875
 50
209.99987899999999
 51
270
  0
LINE
  8
_0-1_PRO0
  6
CONTINUOUS
 62
    3
 10
135.11310400000002
 20
109.14313300000001
 11
135.85790299999999
 21
107.85309599999999
  0
ARC
  8
_0-1_PRO0
  6
CONTINUOUS
 62
    3
 10
136.89434699999998
 20
106.057914
 40
3.5625
 50
119.99987900000002
 51
209.99987900000002
  0
ARC
  8
_0-1_PRO0
  6
CONTINUOUS
 62
    3
 10
141.71641199999999
 20
92.080792000000002
 40
0.75
 50
136.601429
 51
209.99987900000002
  0
ARC
  8
_0-1_PRO0
  6
CONTINUOUS
 62
    3
 10
139.20084400000002
 20
96.437904000000003
 40
0.75
 50
209.99987899999999
 51
283.39832999999999
  0
ARC
  8
_0-1_PRO0
  6
CONTINUOUS
 62
    3
 10
139.80910799999998
 20
93.884349999999998
 40
1.875
 50
316.60142900000005
 51
103.39833000000002
  0
LINE
  8
_0-1_PRO0
  6
CONTINUOUS
 62
    2
 10
135.11309199999999
 20
109.143154
 11
135.394353
 21
108.655993
  0
ARC
  8
_0-1_PRO0
  6
CONTINUOUS
 62
    2
 10
135.506494
 20
109.58676199999999
 40
0.1875
 50
340.47387300000003
 51
120.37648000000002
  0
LINE
  8
_0-1_PRO0
  6
CONTINUOUS
 62
    2
 10
135.394364
 20
108.656007
 11
135.683211
 21
109.52409299999999
  0
LINE
  8
_0-1_PRO0
  6
CONTINUOUS
 62
    2
 10
131.28093899999999
 20
106.930638
 11
136.43716999999998
 21
97.999740000000003
  0
LINE
  8
_0-1_PRO0
  6
CONTINUOUS
 62
    2
 10
136.62466899999998
 20
97.674980000000005
 11
139.02465999999998
 21
93.518052999999995
  0
LINE
  8
_0-1_PRO0
  6
CONTINUOUS
 62
    2
 10
141.499651
 20
89.231222000000002
 11
139.09966
 21
93.388148999999999
  0
LINE
  8
_0-1_PRO0
  6
CONTINUOUS
 62
    2
 10
146.84338199999999
 20
79.975564000000006
 11
141.687151
 21
88.906462000000005
  0
LINE
  8
_0-1_PRO0
  6
CONTINUOUS
 62
    2
 10
130.70372800000001
 20
107.030399
 11
135.413814
 21
109.74975499999999
  0
LINE
  8
_0-1_PRO0
  6
CONTINUOUS
 62
    2
 10
135.11310400000002
 20
109.14313300000001
 11
131.28092599999999
 21
106.930661
  0
LINE
  8
_0-1_PRO0
  6
CONTINUOUS
 62
    2
 10
130.93810200000001
 20
106.624449
 11
130.70372800000001
 21
107.030399
  0
LINE
  8
_0-1_PRO0
  6
CONTINUOUS
 62
    2
 10
141.625563
 20
88.113133000000005
 11
141.344314
 21
88.600273000000001
  0
LINE
  8
_0-1_PRO0
  6
CONTINUOUS
 62
    2
 10
141.344314
 20
88.600273000000001
 11
141.409266
 21
88.637772999999996
  0
LINE
  8
_0-1_PRO0
  6
CONTINUOUS
 62
    2
 10
141.409266
 20
88.637772999999996
 11
141.128017
 21
89.124913000000006
  0
LINE
  8
_0-1_PRO0
  6
CONTINUOUS
 62
    2
 10
141.128017
 20
89.124913000000006
 11
141.06306499999999
 21
89.087412999999998
  0
LINE
  8
_0-1_PRO0
  6
CONTINUOUS
 62
    2
 10
141.06306499999999
 20
89.087412999999998
 11
140.78181599999999
 21
89.574552999999995
  0
LINE
  8
_0-1_PRO0
  6
CONTINUOUS
 62
    2
 10
140.78181599999999
 20
89.574552999999995
 11
140.846768
 21
89.612053000000003
  0
LINE
  8
_0-1_PRO0
  6
CONTINUOUS
 62
    2
 10
140.846768
 20
89.612053000000003
 11
140.56551899999999
 21
90.099193
  0
LINE
  8
_0-1_PRO0
  6
CONTINUOUS
 62
    2
 10
140.56551899999999
 20
90.099193
 11
140.50056699999999
 21
90.061693000000005
  0
LINE
  8
_0-1_PRO0
  6
CONTINUOUS
 62
    2
 10
140.50056699999999
 20
90.061693000000005
 11
140.21931799999999
 21
90.548833000000002
  0
LINE
  8
_0-1_PRO0
  6
CONTINUOUS
 62
    2
 10
140.21931799999999
 20
90.548833000000002
 11
140.28426999999999
 21
90.586331999999999
  0
LINE
  8
_0-1_PRO0
  6
CONTINUOUS
 62
    2
 10
140.28426999999999
 20
90.586331999999999
 11
140.00302099999999
 21
91.073471999999995
  0
LINE
  8
_0-1_PRO0
  6
CONTINUOUS
 62
    2
 10
140.00302099999999
 20
91.073471999999995
 11
139.93806899999998
 21
91.035972000000001
  0
LINE
  8
_0-1_PRO0
  6
CONTINUOUS
 62
    2
 10
139.93806899999998
 20
91.035972000000001
 11
139.65681999999998
 21
91.523111999999998
  0
LINE
  8
_0-1_PRO0
  6
CONTINUOUS
 62
    2
 10
139.65681999999998
 20
91.523111999999998
 11
139.72177199999999
 21
91.560612000000006
  0
LINE
  8
_0-1_PRO0
  6
CONTINUOUS
 62
    2
 10
139.72177199999999
 20
91.560612000000006
 11
139.44052299999998
 21
92.047752000000003
  0
LINE
  8
_0-1_PRO0
  6
CONTINUOUS
 62
    2
 10
139.44052299999998
 20
92.047752000000003
 11
139.37557099999998
 21
92.010251999999994
  0
LINE
  8
_0-1_PRO0
  6
CONTINUOUS
 62
    2
 10
139.37557099999998
 20
92.010251999999994
 11
139.09432200000001
 21
92.497392000000005
  0
LINE
  8
_0-1_PRO0
  6
CONTINUOUS
 62
    2
 10
139.09432200000001
 20
92.497392000000005
 11
139.15927399999998
 21
92.534891999999999
  0
LINE
  8
_0-1_PRO0
  6
CONTINUOUS
 62
    2
 10
139.15927399999998
 20
92.534891999999999
 11
138.87802499999998
 21
93.022031999999996
  0
LINE
  8
_0-1_PRO0
  6
CONTINUOUS
 62
    2
 10
138.87802499999998
 20
93.022031999999996
 11
138.813073
 21
92.984532000000002
  0
LINE
  8
_0-1_PRO0
  6
CONTINUOUS
 62
    2
 10
138.813073
 20
92.984532000000002
 11
138.531824
 21
93.471671999999998
  0
LINE
  8
_0-1_PRO0
  6
CONTINUOUS
 62
    2
 10
138.531824
 20
93.471671999999998
 11
138.59677600000001
 21
93.509172000000007
  0
LINE
  8
_0-1_PRO0
  6
CONTINUOUS
 62
    2
 10
138.59677600000001
 20
93.509172000000007
 11
138.315527
 21
93.996312000000003
  0
LINE
  8
_0-1_PRO0
  6
CONTINUOUS
 62
    2
 10
138.315527
 20
93.996312000000003
 11
138.250575
 21
93.958811999999995
  0
LINE
  8
_0-1_PRO0
  6
CONTINUOUS
 62
    2
 10
138.250575
 20
93.958811999999995
 11
137.969326
 21
94.445952000000005
  0
LINE
  8
_0-1_PRO0
  6
CONTINUOUS
 62
    2
 10
137.969326
 20
94.445952000000005
 11
138.034278
 21
94.483452
  0
LINE
  8
_0-1_PRO0
  6
CONTINUOUS
 62
    2
 10
138.034278
 20
94.483452
 11
137.753029
 21
94.970590999999999
  0
LINE
  8
_0-1_PRO0
  6
CONTINUOUS
 62
    2
 10
137.753029
 20
94.970590999999999
 11
137.68807700000002
 21
94.933092000000002
  0
LINE
  8
_0-1_PRO0
  6
CONTINUOUS
 62
    2
 10
137.68807700000002
 20
94.933092000000002
 11
137.40682800000002
 21
95.420231000000001
  0
LINE
  8
_0-1_PRO0
  6
CONTINUOUS
 62
    2
 10
137.40682800000002
 20
95.420231000000001
 11
137.47178
 21
95.457730999999995
  0
LINE
  8
_0-1_PRO0
  6
CONTINUOUS
 62
    2
 10
137.47178
 20
95.457730999999995
 11
137.19053099999999
 21
95.944871000000006
  0
LINE
  8
_0-1_PRO0
  6
CONTINUOUS
 62
    2
 10
137.19053099999999
 20
95.944871000000006
 11
137.12557900000002
 21
95.907370999999998
  0
LINE
  8
_0-1_PRO0
  6
CONTINUOUS
 62
    2
 10
137.12557900000002
 20
95.907370999999998
 11
136.84433000000001
 21
96.394510999999994
  0
LINE
  8
_0-1_PRO0
  6
CONTINUOUS
 62
    2
 10
136.84433000000001
 20
96.394510999999994
 11
136.90928200000002
 21
96.432011000000003
  0
LINE
  8
_0-1_PRO0
  6
CONTINUOUS
 62
    2
 10
136.90928200000002
 20
96.432011000000003
 11
136.62803300000002
 21
96.919150999999999
  0
LINE
  8
_0-1_PRO0
  6
CONTINUOUS
 62
    2
 10
136.62803300000002
 20
96.919150999999999
 11
136.56308100000001
 21
96.881651000000005
  0
LINE
  8
_0-1_PRO0
  6
CONTINUOUS
 62
    2
 10
136.56308100000001
 20
96.881651000000005
 11
136.28183200000001
 21
97.368791000000002
  0
LINE
  8
_0-1_PRO0
  6
CONTINUOUS
 62
    2
 10
136.28183200000001
 20
97.368791000000002
 11
136.34678400000001
 21
97.406290999999996
  0
LINE
  8
_0-1_PRO0
  6
CONTINUOUS
 62
    2
 10
136.34678400000001
 20
97.406290999999996
 11
136.06553500000001
 21
97.893431000000007
  0
LINE
  8
_0-1_PRO0
  6
CONTINUOUS
 62
    2
 10
136.06553500000001
 20
97.893431000000007
 11
136.00058300000001
 21
97.855930999999998
  0
LINE
  8
_0-1_PRO0
  6
CONTINUOUS
 62
    2
 10
136.00058300000001
 20
97.855930999999998
 11
135.719334
 21
98.343070999999995
  0
LINE
  8
_0-1_PRO0
  6
CONTINUOUS
 62
    2
 10
135.719334
 20
98.343070999999995
 11
135.78428600000001
 21
98.380571000000003
  0
LINE
  8
_0-1_PRO0
  6
CONTINUOUS
 62
    2
 10
135.78428600000001
 20
98.380571000000003
 11
135.50303700000001
 21
98.867710000000002
  0
LINE
  8
_0-1_PRO0
  6
CONTINUOUS
 62
    2
 10
135.50303700000001
 20
98.867710000000002
 11
135.438085
 21
98.830211000000006
  0
LINE
  8
_0-1_PRO0
  6
CONTINUOUS
 62
    2
 10
135.438085
 20
98.830211000000006
 11
135.156836
 21
99.317350000000005
  0
LINE
  8
_0-1_PRO0
  6
CONTINUOUS
 62
    2
 10
135.156836
 20
99.317350000000005
 11
135.221788
 21
99.354849999999999
  0
LINE
  8
_0-1_PRO0
  6
CONTINUOUS
 62
    2
 10
135.221788
 20
99.354849999999999
 11
134.940539
 21
99.841989999999996
  0
LINE
  8
_0-1_PRO0
  6
CONTINUOUS
 62
    2
 10
134.940539
 20
99.841989999999996
 11
134.875587
 21
99.804490000000001
  0
LINE
  8
_0-1_PRO0
  6
CONTINUOUS
 62
    2
 10
134.875587
 20
99.804490000000001
 11
134.59433799999999
 21
100.29163
  0
LINE
  8
_0-1_PRO0
  6
CONTINUOUS
 62
    2
 10
134.59433799999999
 20
100.29163
 11
134.65929
 21
100.32913000000001
  0
LINE
  8
_0-1_PRO0
  6
CONTINUOUS
 62
    2
 10
134.65929
 20
100.32913000000001
 11
134.378041
 21
100.81627
  0
LINE
  8
_0-1_PRO0
  6
CONTINUOUS
 62
    2
 10
134.378041
 20
100.81627
 11
134.31308899999999
 21
100.77876999999999
  0
LINE
  8
_0-1_PRO0
  6
CONTINUOUS
 62
    2
 10
134.31308899999999
 20
100.77876999999999
 11
134.03183999999999
 21
101.26591000000001
  0
LINE
  8
_0-1_PRO0
  6
CONTINUOUS
 62
    2
 10
134.03183999999999
 20
101.26591000000001
 11
134.09679199999999
 21
101.30341
  0
LINE
  8
_0-1_PRO0
  6
CONTINUOUS
 62
    2
 10
134.09679199999999
 20
101.30341
 11
133.81554299999999
 21
101.79055
  0
LINE
  8
_0-1_PRO0
  6
CONTINUOUS
 62
    2
 10
133.81554299999999
 20
101.79055
 11
133.75059099999999
 21
101.75305
  0
LINE
  8
_0-1_PRO0
  6
CONTINUOUS
 62
    2
 10
133.75059099999999
 20
101.75305
 11
133.46934199999998
 21
102.24019
  0
LINE
  8
_0-1_PRO0
  6
CONTINUOUS
 62
    2
 10
133.46934199999998
 20
102.24019
 11
133.53429399999999
 21
102.27769000000001
  0
LINE
  8
_0-1_PRO0
  6
CONTINUOUS
 62
    2
 10
133.53429399999999
 20
102.27769000000001
 11
133.25304499999999
 21
102.76483
  0
LINE
  8
_0-1_PRO0
  6
CONTINUOUS
 62
    2
 10
133.25304499999999
 20
102.76483
 11
133.18809299999998
 21
102.72732999999999
  0
LINE
  8
_0-1_PRO0
  6
CONTINUOUS
 62
    2
 10
133.18809299999998
 20
102.72732999999999
 11
132.906845
 21
103.21447000000001
  0
LINE
  8
_0-1_PRO0
  6
CONTINUOUS
 62
    2
 10
132.906845
 20
103.21447000000001
 11
132.97179599999998
 21
103.251969
  0
LINE
  8
_0-1_PRO0
  6
CONTINUOUS
 62
    2
 10
132.97179599999998
 20
103.251969
 11
132.69054800000001
 21
103.739109
  0
LINE
  8
_0-1_PRO0
  6
CONTINUOUS
 62
    2
 10
132.69054800000001
 20
103.739109
 11
132.625596
 21
103.701609
  0
LINE
  8
_0-1_PRO0
  6
CONTINUOUS
 62
    2
 10
132.625596
 20
103.701609
 11
132.344347
 21
104.188749
  0
LINE
  8
_0-1_PRO0
  6
CONTINUOUS
 62
    2
 10
132.344347
 20
104.188749
 11
132.409299
 21
104.226249
  0
LINE
  8
_0-1_PRO0
  6
CONTINUOUS
 62
    2
 10
132.409299
 20
104.226249
 11
132.12805
 21
104.71338900000001
  0
LINE
  8
_0-1_PRO0
  6
CONTINUOUS
 62
    2
 10
132.12805
 20
104.71338900000001
 11
132.063098
 21
104.675889
  0
LINE
  8
_0-1_PRO0
  6
CONTINUOUS
 62
    2
 10
132.063098
 20
104.675889
 11
131.78184899999999
 21
105.16302899999999
  0
LINE
  8
_0-1_PRO0
  6
CONTINUOUS
 62
    2
 10
131.78184899999999
 20
105.16302899999999
 11
131.846801
 21
105.200529
  0
LINE
  8
_0-1_PRO0
  6
CONTINUOUS
 62
    2
 10
131.846801
 20
105.200529
 11
131.565552
 21
105.687669
  0
LINE
  8
_0-1_PRO0
  6
CONTINUOUS
 62
    2
 10
131.565552
 20
105.687669
 11
131.50060000000002
 21
105.65016900000001
  0
LINE
  8
_0-1_PRO0
  6
CONTINUOUS
 62
    2
 10
131.50060000000002
 20
105.65016900000001
 11
131.21935100000002
 21
106.137309
  0
LINE
  8
_0-1_PRO0
  6
CONTINUOUS
 62
    2
 10
131.21935100000002
 20
106.137309
 11
131.28430299999999
 21
106.174809
  0
LINE
  8
_0-1_PRO0
  6
CONTINUOUS
 62
    2
 10
131.28430299999999
 20
106.174809
 11
131.00305400000002
 21
106.66194900000001
  0
LINE
  8
_0-1_PRO0
  6
CONTINUOUS
 62
    2
 10
131.00305400000002
 20
106.66194900000001
 11
130.93810200000001
 21
106.624449
  0
LINE
  8
_0-1_PRO0
  6
CONTINUOUS
 62
    2
 10
138.964732
 20
93.396850999999998
 11
139.02465999999998
 21
93.518052999999995
  0
ARC
  8
_0-1_PRO0
  6
CONTINUOUS
 62
    2
 10
142.08054099999998
 20
89.350091000000006
 40
0.1875
 50
299.99987900000002
 51
119.99987900000002
  0
LINE
  8
_0-1_PRO0
  6
CONTINUOUS
 62
    2
 10
141.499651
 20
89.231222000000002
 11
141.98679099999998
 21
89.512471000000005
  0
LINE
  8
_0-1_PRO0
  6
CONTINUOUS
 62
    2
 10
141.687151
 20
88.906462000000005
 11
142.17429099999998
 21
89.187710999999993
  0
ARC
  8
_0-1_PRO0
  6
CONTINUOUS
 62
    2
 10
137.01805899999999
 20
98.118609000000006
 40
0.1875
 50
299.99987900000002
 51
119.99987900000002
  0
LINE
  8
_0-1_PRO0
  6
CONTINUOUS
 62
    2
 10
136.62466899999998
 20
97.674980000000005
 11
137.11180899999999
 21
97.956228999999993
  0
LINE
  8
_0-1_PRO0
  6
CONTINUOUS
 62
    2
 10
136.43716999999998
 20
97.999740000000003
 11
136.92430999999999
 21
98.280989000000005
  0
LINE
  8
_0-1_PRO0
  6
CONTINUOUS
 62
    2
 10
138.964732
 20
93.396850999999998
 11
139.09966
 21
93.388148999999999
  0
LINE
  8
_0-1_PRO0
  6
CONTINUOUS
 62
    2
 10
150.67556300000001
 20
82.188032000000007
 11
150.39430200000001
 21
82.675192999999993
  0
ARC
  8
_0-1_PRO0
  6
CONTINUOUS
 62
    2
 10
151.256441
 20
82.306922
 40
0.1875
 50
299.62327900000003
 51
79.525886000000014
  0
LINE
  8
_0-1_PRO0
  6
CONTINUOUS
 62
    2
 10
150.394319
 20
82.675195000000002
 11
151.290527
 21
82.491297000000003
  0
LINE
  8
_0-1_PRO0
  6
CONTINUOUS
 62
    2
 10
146.64116899999999
 20
79.425804999999997
 11
151.35125600000001
 21
82.145161000000002
  0
LINE
  8
_0-1_PRO0
  6
CONTINUOUS
 62
    2
 10
150.67555100000001
 20
82.188052999999996
 11
146.84339499999999
 21
79.975541000000007
  0
LINE
  8
_0-1_PRO0
  6
CONTINUOUS
 62
    2
 10
146.40679499999999
 20
79.831755000000001
 11
146.64116899999999
 21
79.425804999999997
  0
LINE
  8
_0-1_PRO0
  6
CONTINUOUS
 62
    2
 10
141.625563
 20
88.113133000000005
 11
141.690515
 21
88.150632999999999
  0
LINE
  8
_0-1_PRO0
  6
CONTINUOUS
 62
    2
 10
141.690515
 20
88.150632999999999
 11
141.97176400000001
 21
87.663493000000003
  0
LINE
  8
_0-1_PRO0
  6
CONTINUOUS
 62
    2
 10
141.97176400000001
 20
87.663493000000003
 11
141.906812
 21
87.625992999999994
  0
LINE
  8
_0-1_PRO0
  6
CONTINUOUS
 62
    2
 10
141.906812
 20
87.625992999999994
 11
142.188061
 21
87.138852999999997
  0
LINE
  8
_0-1_PRO0
  6
CONTINUOUS
 62
    2
 10
142.188061
 20
87.138852999999997
 11
142.25301300000001
 21
87.176353000000006
  0
LINE
  8
_0-1_PRO0
  6
CONTINUOUS
 62
    2
 10
142.25301300000001
 20
87.176353000000006
 11
142.53426200000001
 21
86.689212999999995
  0
LINE
  8
_0-1_PRO0
  6
CONTINUOUS
 62
    2
 10
142.53426200000001
 20
86.689212999999995
 11
142.46931000000001
 21
86.651713000000001
  0
LINE
  8
_0-1_PRO0
  6
CONTINUOUS
 62
    2
 10
142.46931000000001
 20
86.651713000000001
 11
142.75055900000001
 21
86.164574000000002
  0
LINE
  8
_0-1_PRO0
  6
CONTINUOUS
 62
    2
 10
142.75055900000001
 20
86.164574000000002
 11
142.81551100000001
 21
86.202072999999999
  0
LINE
  8
_0-1_PRO0
  6
CONTINUOUS
 62
    2
 10
142.81551100000001
 20
86.202072999999999
 11
143.09676000000002
 21
85.714934
  0
LINE
  8
_0-1_PRO0
  6
CONTINUOUS
 62
    2
 10
143.09676000000002
 20
85.714934
 11
143.03180800000001
 21
85.677434000000005
  0
LINE
  8
_0-1_PRO0
  6
CONTINUOUS
 62
    2
 10
143.03180800000001
 20
85.677434000000005
 11
143.31305699999999
 21
85.190293999999994
  0
LINE
  8
_0-1_PRO0
  6
CONTINUOUS
 62
    2
 10
143.31305699999999
 20
85.190293999999994
 11
143.37800899999999
 21
85.227794000000003
  0
LINE
  8
_0-1_PRO0
  6
CONTINUOUS
 62
    2
 10
143.37800899999999
 20
85.227794000000003
 11
143.65925799999999
 21
84.740654000000006
  0
LINE
  8
_0-1_PRO0
  6
CONTINUOUS
 62
    2
 10
143.65925799999999
 20
84.740654000000006
 11
143.59430599999999
 21
84.703153999999998
  0
LINE
  8
_0-1_PRO0
  6
CONTINUOUS
 62
    2
 10
143.59430599999999
 20
84.703153999999998
 11
143.87555499999999
 21
84.216014000000001
  0
LINE
  8
_0-1_PRO0
  6
CONTINUOUS
 62
    2
 10
143.87555499999999
 20
84.216014000000001
 11
143.940506
 21
84.253513999999996
  0
LINE
  8
_0-1_PRO0
  6
CONTINUOUS
 62
    2
 10
143.940506
 20
84.253513999999996
 11
144.221755
 21
83.766373999999999
  0
LINE
  8
_0-1_PRO0
  6
CONTINUOUS
 62
    2
 10
144.221755
 20
83.766373999999999
 11
144.156803
 21
83.728874000000005
  0
LINE
  8
_0-1_PRO0
  6
CONTINUOUS
 62
    2
 10
144.156803
 20
83.728874000000005
 11
144.438052
 21
83.241733999999994
  0
LINE
  8
_0-1_PRO0
  6
CONTINUOUS
 62
    2
 10
144.438052
 20
83.241733999999994
 11
144.503004
 21
83.279234000000002
  0
LINE
  8
_0-1_PRO0
  6
CONTINUOUS
 62
    2
 10
144.503004
 20
83.279234000000002
 11
144.78425300000001
 21
82.792094000000006
  0
LINE
  8
_0-1_PRO0
  6
CONTINUOUS
 62
    2
 10
144.78425300000001
 20
82.792094000000006
 11
144.719301
 21
82.754593999999997
  0
LINE
  8
_0-1_PRO0
  6
CONTINUOUS
 62
    2
 10
144.719301
 20
82.754593999999997
 11
145.00055
 21
82.267454000000001
  0
LINE
  8
_0-1_PRO0
  6
CONTINUOUS
 62
    2
 10
145.00055
 20
82.267454000000001
 11
145.06550200000001
 21
82.304953999999995
  0
LINE
  8
_0-1_PRO0
  6
CONTINUOUS
 62
    2
 10
145.06550200000001
 20
82.304953999999995
 11
145.34675100000001
 21
81.817813999999998
  0
LINE
  8
_0-1_PRO0
  6
CONTINUOUS
 62
    2
 10
145.34675100000001
 20
81.817813999999998
 11
145.28179900000001
 21
81.780315000000002
  0
LINE
  8
_0-1_PRO0
  6
CONTINUOUS
 62
    2
 10
145.28179900000001
 20
81.780315000000002
 11
145.56304800000001
 21
81.293175000000005
  0
LINE
  8
_0-1_PRO0
  6
CONTINUOUS
 62
    2
 10
145.56304800000001
 20
81.293175000000005
 11
145.62799999999999
 21
81.330674999999999
  0
LINE
  8
_0-1_PRO0
  6
CONTINUOUS
 62
    2
 10
145.62799999999999
 20
81.330674999999999
 11
145.90924899999999
 21
80.843535000000003
  0
LINE
  8
_0-1_PRO0
  6
CONTINUOUS
 62
    2
 10
145.90924899999999
 20
80.843535000000003
 11
145.84429700000001
 21
80.806034999999994
  0
LINE
  8
_0-1_PRO0
  6
CONTINUOUS
 62
    2
 10
145.84429700000001
 20
80.806034999999994
 11
146.12554600000001
 21
80.318894999999998
  0
LINE
  8
_0-1_PRO0
  6
CONTINUOUS
 62
    2
 10
146.12554600000001
 20
80.318894999999998
 11
146.19049799999999
 21
80.356395000000006
  0
LINE
  8
_0-1_PRO0
  6
CONTINUOUS
 62
    2
 10
146.19049799999999
 20
80.356395000000006
 11
146.47174699999999
 21
79.869254999999995
  0
LINE
  8
_0-1_PRO0
  6
CONTINUOUS
 62
    2
 10
146.47174699999999
 20
79.869254999999995
 11
146.40679499999999
 21
79.831755000000001
  0
LINE
  8
_0-1_PRO0
  6
CONTINUOUS
 62
    3
 10
151.89461700000001
 20
146.290593
 11
151.89461700000001
 21
142.540593
  0
ARC
  8
_0-1_PRO0
  6
CONTINUOUS
 62
    3
 10
151.51961700000001
 20
117.790593
 40
0.375
 50
0
 51
90
  0
LINE
  8
_0-1_PRO0
  6
CONTINUOUS
 62
    3
 10
150.03900400000001
 20
118.165593
 11
151.51961700000001
 21
118.165593
  0
LINE
  8
_0-1_PRO0
  6
CONTINUOUS
 62
    3
 10
151.89461700000001
 20
117.790593
 11
151.89461700000001
 21
112.540593
  0
ARC
  8
_0-1_PRO0
  6
CONTINUOUS
 62
    3
 10
150.01961700000001
 20
142.540593
 40
1.875
 50
270
 51
0
  0
LINE
  8
_0-1_PRO0
  6
CONTINUOUS
 62
    3
 10
137.48170299999998
 20
140.665593
 11
150.01961700000001
 21
140.665593
  0
ARC
  8
_0-1_PRO0
  6
CONTINUOUS
 62
    3
 10
150.03900400000001
 20
117.790593
 40
0.375
 50
90
 51
209.99987899999999
  0
LINE
  8
_0-1_PRO0
  6
CONTINUOUS
 62
    3
 10
150.67555100000001
 20
115.938053
 11
149.71424400000001
 21
117.603094
  0
ARC
  8
_0-1_PRO0
  6
CONTINUOUS
 62
    3
 10
148.894308
 20
119.02327200000001
 40
3.5625
 50
209.99987899999999
 51
299.99987900000002
  0
LINE
  8
_0-1_PRO0
  6
CONTINUOUS
 62
    3
 10
138.55132500000002
 20
129.812905
 11
133.80912799999999
 21
138.02667099999999
  0
LINE
  8
_0-1_PRO0
  6
CONTINUOUS
 62
    3
 10
145.809088
 20
117.242029
 11
141.066892
 21
125.455794
  0
ARC
  8
_0-1_PRO0
  6
CONTINUOUS
 62
    3
 10
137.48170299999998
 20
142.540593
 40
1.875
 50
209.99987899999999
 51
270
  0
LINE
  8
_0-1_PRO0
  6
CONTINUOUS
 62
    3
 10
135.11310400000002
 20
142.89313300000001
 11
135.85790299999999
 21
141.60309599999999
  0
ARC
  8
_0-1_PRO0
  6
CONTINUOUS
 62
    3
 10
136.89434699999998
 20
139.80791399999998
 40
3.5625
 50
119.99987900000002
 51
209.99987900000002
  0
ARC
  8
_0-1_PRO0
  6
CONTINUOUS
 62
    3
 10
141.71641199999999
 20
125.830792
 40
0.75
 50
136.601429
 51
209.99987900000002
  0
ARC
  8
_0-1_PRO0
  6
CONTINUOUS
 62
    3
 10
139.20084400000002
 20
130.187904
 40
0.75
 50
209.99987899999999
 51
283.39832999999999
  0
ARC
  8
_0-1_PRO0
  6
CONTINUOUS
 62
    3
 10
139.80910799999998
 20
127.63435
 40
1.875
 50
316.60142900000005
 51
103.39833000000002
  0
LINE
  8
_0-1_PRO0
  6
CONTINUOUS
 62
    2
 10
135.11309199999999
 20
142.89315400000001
 11
135.394353
 21
142.405993
  0
ARC
  8
_0-1_PRO0
  6
CONTINUOUS
 62
    2
 10
135.506494
 20
143.33676199999999
 40
0.1875
 50
340.47387300000003
 51
120.37648000000002
  0
LINE
  8
_0-1_PRO0
  6
CONTINUOUS
 62
    2
 10
135.394364
 20
142.40600699999999
 11
135.683211
 21
143.27409299999999
  0
LINE
  8
_0-1_PRO0
  6
CONTINUOUS
 62
    2
 10
131.28093899999999
 20
140.68063799999999
 11
136.43716999999998
 21
131.74974
  0
LINE
  8
_0-1_PRO0
  6
CONTINUOUS
 62
    2
 10
136.62466899999998
 20
131.42498000000001
 11
139.02465999999998
 21
127.26805299999999
  0
LINE
  8
_0-1_PRO0
  6
CONTINUOUS
 62
    2
 10
141.499651
 20
122.981222
 11
139.09966
 21
127.138149
  0
LINE
  8
_0-1_PRO0
  6
CONTINUOUS
 62
    2
 10
146.84338199999999
 20
113.72556400000001
 11
141.687151
 21
122.656462
  0
LINE
  8
_0-1_PRO0
  6
CONTINUOUS
 62
    2
 10
130.70372800000001
 20
140.78039899999999
 11
135.413814
 21
143.49975499999999
  0
LINE
  8
_0-1_PRO0
  6
CONTINUOUS
 62
    2
 10
135.11310400000002
 20
142.89313300000001
 11
131.28092599999999
 21
140.68066099999999
  0
LINE
  8
_0-1_PRO0
  6
CONTINUOUS
 62
    2
 10
130.93810200000001
 20
140.374449
 11
130.70372800000001
 21
140.78039899999999
  0
LINE
  8
_0-1_PRO0
  6
CONTINUOUS
 62
    2
 10
141.625563
 20
121.863133
 11
141.344314
 21
122.350273
  0
LINE
  8
_0-1_PRO0
  6
CONTINUOUS
 62
    2
 10
141.344314
 20
122.350273
 11
141.409266
 21
122.387773
  0
LINE
  8
_0-1_PRO0
  6
CONTINUOUS
 62
    2
 10
141.409266
 20
122.387773
 11
141.128017
 21
122.87491300000001
  0
LINE
  8
_0-1_PRO0
  6
CONTINUOUS
 62
    2
 10
141.128017
 20
122.87491300000001
 11
141.06306499999999
 21
122.837413
  0
LINE
  8
_0-1_PRO0
  6
CONTINUOUS
 62
    2
 10
141.06306499999999
 20
122.837413
 11
140.78181599999999
 21
123.32455299999999
  0
LINE
  8
_0-1_PRO0
  6
CONTINUOUS
 62
    2
 10
140.78181599999999
 20
123.32455299999999
 11
140.846768
 21
123.362053
  0
LINE
  8
_0-1_PRO0
  6
CONTINUOUS
 62
    2
 10
140.846768
 20
123.362053
 11
140.56551899999999
 21
123.849193
  0
LINE
  8
_0-1_PRO0
  6
CONTINUOUS
 62
    2
 10
140.56551899999999
 20
123.849193
 11
140.50056699999999
 21
123.81169300000001
  0
LINE
  8
_0-1_PRO0
  6
CONTINUOUS
 62
    2
 10
140.50056699999999
 20
123.81169300000001
 11
140.21931799999999
 21
124.298833
  0
LINE
  8
_0-1_PRO0
  6
CONTINUOUS
 62
    2
 10
140.21931799999999
 20
124.298833
 11
140.28426999999999
 21
124.336332
  0
LINE
  8
_0-1_PRO0
  6
CONTINUOUS
 62
    2
 10
140.28426999999999
 20
124.336332
 11
140.00302099999999
 21
124.823472
  0
LINE
  8
_0-1_PRO0
  6
CONTINUOUS
 62
    2
 10
140.00302099999999
 20
124.823472
 11
139.93806899999998
 21
124.785972
  0
LINE
  8
_0-1_PRO0
  6
CONTINUOUS
 62
    2
 10
139.93806899999998
 20
124.785972
 11
139.65681999999998
 21
125.273112
  0
LINE
  8
_0-1_PRO0
  6
CONTINUOUS
 62
    2
 10
139.65681999999998
 20
125.273112
 11
139.72177199999999
 21
125.31061200000001
  0
LINE
  8
_0-1_PRO0
  6
CONTINUOUS
 62
    2
 10
139.72177199999999
 20
125.31061200000001
 11
139.44052299999998
 21
125.797752
  0
LINE
  8
_0-1_PRO0
  6
CONTINUOUS
 62
    2
 10
139.44052299999998
 20
125.797752
 11
139.37557099999998
 21
125.76025199999999
  0
LINE
  8
_0-1_PRO0
  6
CONTINUOUS
 62
    2
 10
139.37557099999998
 20
125.76025199999999
 11
139.09432200000001
 21
126.247392
  0
LINE
  8
_0-1_PRO0
  6
CONTINUOUS
 62
    2
 10
139.09432200000001
 20
126.247392
 11
139.15927399999998
 21
126.284892
  0
LINE
  8
_0-1_PRO0
  6
CONTINUOUS
 62
    2
 10
139.15927399999998
 20
126.284892
 11
138.87802499999998
 21
126.772032
  0
LINE
  8
_0-1_PRO0
  6
CONTINUOUS
 62
    2
 10
138.87802499999998
 20
126.772032
 11
138.813073
 21
126.734532
  0
LINE
  8
_0-1_PRO0
  6
CONTINUOUS
 62
    2
 10
138.813073
 20
126.734532
 11
138.531824
 21
127.221672
  0
LINE
  8
_0-1_PRO0
  6
CONTINUOUS
 62
    2
 10
138.531824
 20
127.221672
 11
138.59677600000001
 21
127.25917200000001
  0
LINE
  8
_0-1_PRO0
  6
CONTINUOUS
 62
    2
 10
138.59677600000001
 20
127.25917200000001
 11
138.315527
 21
127.746312
  0
LINE
  8
_0-1_PRO0
  6
CONTINUOUS
 62
    2
 10
138.315527
 20
127.746312
 11
138.250575
 21
127.70881199999999
  0
LINE
  8
_0-1_PRO0
  6
CONTINUOUS
 62
    2
 10
138.250575
 20
127.70881199999999
 11
137.969326
 21
128.19595200000001
  0
LINE
  8
_0-1_PRO0
  6
CONTINUOUS
 62
    2
 10
137.969326
 20
128.19595200000001
 11
138.034278
 21
128.233452
  0
LINE
  8
_0-1_PRO0
  6
CONTINUOUS
 62
    2
 10
138.034278
 20
128.233452
 11
137.753029
 21
128.72059100000001
  0
LINE
  8
_0-1_PRO0
  6
CONTINUOUS
 62
    2
 10
137.753029
 20
128.72059100000001
 11
137.68807700000002
 21
128.68309199999999
  0
LINE
  8
_0-1_PRO0
  6
CONTINUOUS
 62
    2
 10
137.68807700000002
 20
128.68309199999999
 11
137.40682800000002
 21
129.170231
  0
LINE
  8
_0-1_PRO0
  6
CONTINUOUS
 62
    2
 10
137.40682800000002
 20
129.170231
 11
137.47178
 21
129.207731
  0
LINE
  8
_0-1_PRO0
  6
CONTINUOUS
 62
    2
 10
137.47178
 20
129.207731
 11
137.19053099999999
 21
129.69487100000001
  0
LINE
  8
_0-1_PRO0
  6
CONTINUOUS
 62
    2
 10
137.19053099999999
 20
129.69487100000001
 11
137.12557900000002
 21
129.65737100000001
  0
LINE
  8
_0-1_PRO0
  6
CONTINUOUS
 62
    2
 10
137.12557900000002
 20
129.65737100000001
 11
136.84433000000001
 21
130.14451099999999
  0
LINE
  8
_0-1_PRO0
  6
CONTINUOUS
 62
    2
 10
136.84433000000001
 20
130.14451099999999
 11
136.90928200000002
 21
130.18201099999999
  0
LINE
  8
_0-1_PRO0
  6
CONTINUOUS
 62
    2
 10
136.90928200000002
 20
130.18201099999999
 11
136.62803300000002
 21
130.669151
  0
LINE
  8
_0-1_PRO0
  6
CONTINUOUS
 62
    2
 10
136.62803300000002
 20
130.669151
 11
136.56308100000001
 21
130.63165100000001
  0
LINE
  8
_0-1_PRO0
  6
CONTINUOUS
 62
    2
 10
136.56308100000001
 20
130.63165100000001
 11
136.28183200000001
 21
131.11879099999999
  0
LINE
  8
_0-1_PRO0
  6
CONTINUOUS
 62
    2
 10
136.28183200000001
 20
131.11879099999999
 11
136.34678400000001
 21
131.15629100000001
  0
LINE
  8
_0-1_PRO0
  6
CONTINUOUS
 62
    2
 10
136.34678400000001
 20
131.15629100000001
 11
136.06553500000001
 21
131.64343100000002
  0
LINE
  8
_0-1_PRO0
  6
CONTINUOUS
 62
    2
 10
136.06553500000001
 20
131.64343100000002
 11
136.00058300000001
 21
131.605931
  0
LINE
  8
_0-1_PRO0
  6
CONTINUOUS
 62
    2
 10
136.00058300000001
 20
131.605931
 11
135.719334
 21
132.09307100000001
  0
LINE
  8
_0-1_PRO0
  6
CONTINUOUS
 62
    2
 10
135.719334
 20
132.09307100000001
 11
135.78428600000001
 21
132.130571
  0
LINE
  8
_0-1_PRO0
  6
CONTINUOUS
 62
    2
 10
135.78428600000001
 20
132.130571
 11
135.50303700000001
 21
132.61770999999999
  0
LINE
  8
_0-1_PRO0
  6
CONTINUOUS
 62
    2
 10
135.50303700000001
 20
132.61770999999999
 11
135.438085
 21
132.58021100000002
  0
LINE
  8
_0-1_PRO0
  6
CONTINUOUS
 62
    2
 10
135.438085
 20
132.58021100000002
 11
135.156836
 21
133.06735
  0
LINE
  8
_0-1_PRO0
  6
CONTINUOUS
 62
    2
 10
135.156836
 20
133.06735
 11
135.221788
 21
133.10485
  0
LINE
  8
_0-1_PRO0
  6
CONTINUOUS
 62
    2
 10
135.221788
 20
133.10485
 11
134.940539
 21
133.59199000000001
  0
LINE
  8
_0-1_PRO0
  6
CONTINUOUS
 62
    2
 10
134.940539
 20
133.59199000000001
 11
134.875587
 21
133.55448999999999
  0
LINE
  8
_0-1_PRO0
  6
CONTINUOUS
 62
    2
 10
134.875587
 20
133.55448999999999
 11
134.59433799999999
 21
134.04163
  0
LINE
  8
_0-1_PRO0
  6
CONTINUOUS
 62
    2
 10
134.59433799999999
 20
134.04163
 11
134.65929
 21
134.07913000000002
  0
LINE
  8
_0-1_PRO0
  6
CONTINUOUS
 62
    2
 10
134.65929
 20
134.07913000000002
 11
134.378041
 21
134.56627
  0
LINE
  8
_0-1_PRO0
  6
CONTINUOUS
 62
    2
 10
134.378041
 20
134.56627
 11
134.31308899999999
 21
134.52877000000001
  0
LINE
  8
_0-1_PRO0
  6
CONTINUOUS
 62
    2
 10
134.31308899999999
 20
134.52877000000001
 11
134.03183999999999
 21
135.01591000000002
  0
LINE
  8
_0-1_PRO0
  6
CONTINUOUS
 62
    2
 10
134.03183999999999
 20
135.01591000000002
 11
134.09679199999999
 21
135.05340999999999
  0
LINE
  8
_0-1_PRO0
  6
CONTINUOUS
 62
    2
 10
134.09679199999999
 20
135.05340999999999
 11
133.81554299999999
 21
135.54055
  0
LINE
  8
_0-1_PRO0
  6
CONTINUOUS
 62
    2
 10
133.81554299999999
 20
135.54055
 11
133.75059099999999
 21
135.50305
  0
LINE
  8
_0-1_PRO0
  6
CONTINUOUS
 62
    2
 10
133.75059099999999
 20
135.50305
 11
133.46934199999998
 21
135.99018999999998
  0
LINE
  8
_0-1_PRO0
  6
CONTINUOUS
 62
    2
 10
133.46934199999998
 20
135.99018999999998
 11
133.53429399999999
 21
136.02769000000001
  0
LINE
  8
_0-1_PRO0
  6
CONTINUOUS
 62
    2
 10
133.53429399999999
 20
136.02769000000001
 11
133.25304499999999
 21
136.51483000000002
  0
LINE
  8
_0-1_PRO0
  6
CONTINUOUS
 62
    2
 10
133.25304499999999
 20
136.51483000000002
 11
133.18809299999998
 21
136.47732999999999
  0
LINE
  8
_0-1_PRO0
  6
CONTINUOUS
 62
    2
 10
133.18809299999998
 20
136.47732999999999
 11
132.906845
 21
136.96447000000001
  0
LINE
  8
_0-1_PRO0
  6
CONTINUOUS
 62
    2
 10
132.906845
 20
136.96447000000001
 11
132.97179599999998
 21
137.001969
  0
LINE
  8
_0-1_PRO0
  6
CONTINUOUS
 62
    2
 10
132.97179599999998
 20
137.001969
 11
132.69054800000001
 21
137.48910899999998
  0
LINE
  8
_0-1_PRO0
  6
CONTINUOUS
 62
    2
 10
132.69054800000001
 20
137.48910899999998
 11
132.625596
 21
137.45160900000002
  0
LINE
  8
_0-1_PRO0
  6
CONTINUOUS
 62
    2
 10
132.625596
 20
137.45160900000002
 11
132.344347
 21
137.938749
  0
LINE
  8
_0-1_PRO0
  6
CONTINUOUS
 62
    2
 10
132.344347
 20
137.938749
 11
132.409299
 21
137.976249
  0
LINE
  8
_0-1_PRO0
  6
CONTINUOUS
 62
    2
 10
132.409299
 20
137.976249
 11
132.12805
 21
138.46338900000001
  0
LINE
  8
_0-1_PRO0
  6
CONTINUOUS
 62
    2
 10
132.12805
 20
138.46338900000001
 11
132.063098
 21
138.42588899999998
  0
LINE
  8
_0-1_PRO0
  6
CONTINUOUS
 62
    2
 10
132.063098
 20
138.42588899999998
 11
131.78184899999999
 21
138.91302899999999
  0
LINE
  8
_0-1_PRO0
  6
CONTINUOUS
 62
    2
 10
131.78184899999999
 20
138.91302899999999
 11
131.846801
 21
138.95052900000002
  0
LINE
  8
_0-1_PRO0
  6
CONTINUOUS
 62
    2
 10
131.846801
 20
138.95052900000002
 11
131.565552
 21
139.437669
  0
LINE
  8
_0-1_PRO0
  6
CONTINUOUS
 62
    2
 10
131.565552
 20
139.437669
 11
131.50060000000002
 21
139.40016900000001
  0
LINE
  8
_0-1_PRO0
  6
CONTINUOUS
 62
    2
 10
131.50060000000002
 20
139.40016900000001
 11
131.21935100000002
 21
139.88730900000002
  0
LINE
  8
_0-1_PRO0
  6
CONTINUOUS
 62
    2
 10
131.21935100000002
 20
139.88730900000002
 11
131.28430299999999
 21
139.92480899999998
  0
LINE
  8
_0-1_PRO0
  6
CONTINUOUS
 62
    2
 10
131.28430299999999
 20
139.92480899999998
 11
131.00305400000002
 21
140.41194899999999
  0
LINE
  8
_0-1_PRO0
  6
CONTINUOUS
 62
    2
 10
131.00305400000002
 20
140.41194899999999
 11
130.93810200000001
 21
140.374449
  0
LINE
  8
_0-1_PRO0
  6
CONTINUOUS
 62
    2
 10
138.964732
 20
127.146851
 11
139.02465999999998
 21
127.26805299999999
  0
ARC
  8
_0-1_PRO0
  6
CONTINUOUS
 62
    2
 10
142.08054099999998
 20
123.10009100000001
 40
0.1875
 50
299.99987900000002
 51
119.99987900000002
  0
LINE
  8
_0-1_PRO0
  6
CONTINUOUS
 62
    2
 10
141.499651
 20
122.981222
 11
141.98679099999998
 21
123.26247100000001
  0
LINE
  8
_0-1_PRO0
  6
CONTINUOUS
 62
    2
 10
141.687151
 20
122.656462
 11
142.17429099999998
 21
122.93771099999999
  0
ARC
  8
_0-1_PRO0
  6
CONTINUOUS
 62
    2
 10
137.01805899999999
 20
131.86860899999999
 40
0.1875
 50
299.99987900000002
 51
119.99987900000002
  0
LINE
  8
_0-1_PRO0
  6
CONTINUOUS
 62
    2
 10
136.62466899999998
 20
131.42498000000001
 11
137.11180899999999
 21
131.70622900000001
  0
LINE
  8
_0-1_PRO0
  6
CONTINUOUS
 62
    2
 10
136.43716999999998
 20
131.74974
 11
136.92430999999999
 21
132.03098900000001
  0
LINE
  8
_0-1_PRO0
  6
CONTINUOUS
 62
    2
 10
138.964732
 20
127.146851
 11
139.09966
 21
127.138149
  0
LINE
  8
_0-1_PRO0
  6
CONTINUOUS
 62
    2
 10
150.67556300000001
 20
115.93803200000001
 11
150.39430200000001
 21
116.42519299999999
  0
ARC
  8
_0-1_PRO0
  6
CONTINUOUS
 62
    2
 10
151.256441
 20
116.056922
 40
0.1875
 50
299.62327900000003
 51
79.525886000000014
  0
LINE
  8
_0-1_PRO0
  6
CONTINUOUS
 62
    2
 10
150.394319
 20
116.425195
 11
151.290527
 21
116.241297
  0
LINE
  8
_0-1_PRO0
  6
CONTINUOUS
 62
    2
 10
146.64116899999999
 20
113.175805
 11
151.35125600000001
 21
115.895161
  0
LINE
  8
_0-1_PRO0
  6
CONTINUOUS
 62
    2
 10
150.67555100000001
 20
115.938053
 11
146.84339499999999
 21
113.72554100000001
  0
LINE
  8
_0-1_PRO0
  6
CONTINUOUS
 62
    2
 10
146.40679499999999
 20
113.581755
 11
146.64116899999999
 21
113.175805
  0
LINE
  8
_0-1_PRO0
  6
CONTINUOUS
 62
    2
 10
141.625563
 20
121.863133
 11
141.690515
 21
121.900633
  0
LINE
  8
_0-1_PRO0
  6
CONTINUOUS
 62
    2
 10
141.690515
 20
121.900633
 11
141.97176400000001
 21
121.413493
  0
LINE
  8
_0-1_PRO0
  6
CONTINUOUS
 62
    2
 10
141.97176400000001
 20
121.413493
 11
141.906812
 21
121.37599299999999
  0
LINE
  8
_0-1_PRO0
  6
CONTINUOUS
 62
    2
 10
141.906812
 20
121.37599299999999
 11
142.188061
 21
120.888853
  0
LINE
  8
_0-1_PRO0
  6
CONTINUOUS
 62
    2
 10
142.188061
 20
120.888853
 11
142.25301300000001
 21
120.92635300000001
  0
LINE
  8
_0-1_PRO0
  6
CONTINUOUS
 62
    2
 10
142.25301300000001
 20
120.92635300000001
 11
142.53426200000001
 21
120.439213
  0
LINE
  8
_0-1_PRO0
  6
CONTINUOUS
 62
    2
 10
142.53426200000001
 20
120.439213
 11
142.46931000000001
 21
120.401713
  0
LINE
  8
_0-1_PRO0
  6
CONTINUOUS
 62
    2
 10
142.46931000000001
 20
120.401713
 11
142.75055900000001
 21
119.914574
  0
LINE
  8
_0-1_PRO0
  6
CONTINUOUS
 62
    2
 10
142.75055900000001
 20
119.914574
 11
142.81551100000001
 21
119.952073
  0
LINE
  8
_0-1_PRO0
  6
CONTINUOUS
 62
    2
 10
142.81551100000001
 20
119.952073
 11
143.09676000000002
 21
119.464934
  0
LINE
  8
_0-1_PRO0
  6
CONTINUOUS
 62
    2
 10
143.09676000000002
 20
119.464934
 11
143.03180800000001
 21
119.42743400000001
  0
LINE
  8
_0-1_PRO0
  6
CONTINUOUS
 62
    2
 10
143.03180800000001
 20
119.42743400000001
 11
143.31305699999999
 21
118.94029399999999
  0
LINE
  8
_0-1_PRO0
  6
CONTINUOUS
 62
    2
 10
143.31305699999999
 20
118.94029399999999
 11
143.37800899999999
 21
118.977794
  0
LINE
  8
_0-1_PRO0
  6
CONTINUOUS
 62
    2
 10
143.37800899999999
 20
118.977794
 11
143.65925799999999
 21
118.49065400000001
  0
LINE
  8
_0-1_PRO0
  6
CONTINUOUS
 62
    2
 10
143.65925799999999
 20
118.49065400000001
 11
143.59430599999999
 21
118.453154
  0
LINE
  8
_0-1_PRO0
  6
CONTINUOUS
 62
    2
 10
143.59430599999999
 20
118.453154
 11
143.87555499999999
 21
117.966014
  0
LINE
  8
_0-1_PRO0
  6
CONTINUOUS
 62
    2
 10
143.87555499999999
 20
117.966014
 11
143.940506
 21
118.003514
  0
LINE
  8
_0-1_PRO0
  6
CONTINUOUS
 62
    2
 10
143.940506
 20
118.003514
 11
144.221755
 21
117.516374
  0
LINE
  8
_0-1_PRO0
  6
CONTINUOUS
 62
    2
 10
144.221755
 20
117.516374
 11
144.156803
 21
117.478874
  0
LINE
  8
_0-1_PRO0
  6
CONTINUOUS
 62
    2
 10
144.156803
 20
117.478874
 11
144.438052
 21
116.99173399999999
  0
LINE
  8
_0-1_PRO0
  6
CONTINUOUS
 62
    2
 10
144.438052
 20
116.99173399999999
 11
144.503004
 21
117.029234
  0
LINE
  8
_0-1_PRO0
  6
CONTINUOUS
 62
    2
 10
144.503004
 20
117.029234
 11
144.78425300000001
 21
116.54209400000001
  0
LINE
  8
_0-1_PRO0
  6
CONTINUOUS
 62
    2
 10
144.78425300000001
 20
116.54209400000001
 11
144.719301
 21
116.504594
  0
LINE
  8
_0-1_PRO0
  6
CONTINUOUS
 62
    2
 10
144.719301
 20
116.504594
 11
145.00055
 21
116.017454
  0
LINE
  8
_0-1_PRO0
  6
CONTINUOUS
 62
    2
 10
145.00055
 20
116.017454
 11
145.06550200000001
 21
116.054954
  0
LINE
  8
_0-1_PRO0
  6
CONTINUOUS
 62
    2
 10
145.06550200000001
 20
116.054954
 11
145.34675100000001
 21
115.567814
  0
LINE
  8
_0-1_PRO0
  6
CONTINUOUS
 62
    2
 10
145.34675100000001
 20
115.567814
 11
145.28179900000001
 21
115.530315
  0
LINE
  8
_0-1_PRO0
  6
CONTINUOUS
 62
    2
 10
145.28179900000001
 20
115.530315
 11
145.56304800000001
 21
115.04317500000001
  0
LINE
  8
_0-1_PRO0
  6
CONTINUOUS
 62
    2
 10
145.56304800000001
 20
115.04317500000001
 11
145.62799999999999
 21
115.080675
  0
LINE
  8
_0-1_PRO0
  6
CONTINUOUS
 62
    2
 10
145.62799999999999
 20
115.080675
 11
145.90924899999999
 21
114.593535
  0
LINE
  8
_0-1_PRO0
  6
CONTINUOUS
 62
    2
 10
145.90924899999999
 20
114.593535
 11
145.84429700000001
 21
114.55603499999999
  0
LINE
  8
_0-1_PRO0
  6
CONTINUOUS
 62
    2
 10
145.84429700000001
 20
114.55603499999999
 11
146.12554600000001
 21
114.068895
  0
LINE
  8
_0-1_PRO0
  6
CONTINUOUS
 62
    2
 10
146.12554600000001
 20
114.068895
 11
146.19049799999999
 21
114.10639500000001
  0
LINE
  8
_0-1_PRO0
  6
CONTINUOUS
 62
    2
 10
146.19049799999999
 20
114.10639500000001
 11
146.47174699999999
 21
113.619255
  0
LINE
  8
_0-1_PRO0
  6
CONTINUOUS
 62
    2
 10
146.47174699999999
 20
113.619255
 11
146.40679499999999
 21
113.581755
  0
LINE
  8
_0-1_PRO0
  6
CONTINUOUS
 62
    3
 10
151.89461700000001
 20
180.040593
 11
151.89461700000001
 21
176.290593
  0
ARC
  8
_0-1_PRO0
  6
CONTINUOUS
 62
    3
 10
151.51961700000001
 20
151.540593
 40
0.375
 50
0
 51
90
  0
LINE
  8
_0-1_PRO0
  6
CONTINUOUS
 62
    3
 10
150.03900400000001
 20
151.915593
 11
151.51961700000001
 21
151.915593
  0
LINE
  8
_0-1_PRO0
  6
CONTINUOUS
 62
    3
 10
151.89461700000001
 20
151.540593
 11
151.89461700000001
 21
146.290593
  0
ARC
  8
_0-1_PRO0
  6
CONTINUOUS
 62
    3
 10
150.01961700000001
 20
176.290593
 40
1.875
 50
270
 51
0
  0
LINE
  8
_0-1_PRO0
  6
CONTINUOUS
 62
    3
 10
137.48170299999998
 20
174.415593
 11
150.01961700000001
 21
174.415593
  0
ARC
  8
_0-1_PRO0
  6
CONTINUOUS
 62
    3
 10
150.03900400000001
 20
151.540593
 40
0.375
 50
90
 51
209.99987899999999
  0
LINE
  8
_0-1_PRO0
  6
CONTINUOUS
 62
    3
 10
150.67555100000001
 20
149.688053
 11
149.71424400000001
 21
151.353094
  0
ARC
  8
_0-1_PRO0
  6
CONTINUOUS
 62
    3
 10
148.894308
 20
152.77327199999999
 40
3.5625
 50
209.99987899999999
 51
299.99987900000002
  0
LINE
  8
_0-1_PRO0
  6
CONTINUOUS
 62
    3
 10
138.55132500000002
 20
163.562905
 11
133.80912799999999
 21
171.77667099999999
  0
LINE
  8
_0-1_PRO0
  6
CONTINUOUS
 62
    3
 10
145.809088
 20
150.992029
 11
141.066892
 21
159.205794
  0
ARC
  8
_0-1_PRO0
  6
CONTINUOUS
 62
    3
 10
137.48170299999998
 20
176.290593
 40
1.875
 50
209.99987899999999
 51
270
  0
LINE
  8
_0-1_PRO0
  6
CONTINUOUS
 62
    3
 10
135.11310400000002
 20
176.64313300000001
 11
135.85790299999999
 21
175.35309599999999
  0
ARC
  8
_0-1_PRO0
  6
CONTINUOUS
 62
    3
 10
136.89434699999998
 20
173.55791400000001
 40
3.5625
 50
119.99987900000002
 51
209.99987900000002
  0
ARC
  8
_0-1_PRO0
  6
CONTINUOUS
 62
    3
 10
141.71641199999999
 20
159.580792
 40
0.75
 50
136.601429
 51
209.99987900000002
  0
ARC
  8
_0-1_PRO0
  6
CONTINUOUS
 62
    3
 10
139.20084400000002
 20
163.937904
 40
0.75
 50
209.99987899999999
 51
283.39832999999999
  0
ARC
  8
_0-1_PRO0
  6
CONTINUOUS
 62
    3
 10
139.80910799999998
 20
161.38435000000001
 40
1.875
 50
316.60142900000005
 51
103.39833000000002
  0
LINE
  8
_0-1_PRO0
  6
CONTINUOUS
 62
    2
 10
135.11309199999999
 20
176.64315400000001
 11
135.394353
 21
176.155993
  0
ARC
  8
_0-1_PRO0
  6
CONTINUOUS
 62
    2
 10
135.506494
 20
177.08676199999999
 40
0.1875
 50
340.47387300000003
 51
120.37648000000002
  0
LINE
  8
_0-1_PRO0
  6
CONTINUOUS
 62
    2
 10
135.394364
 20
176.15600699999999
 11
135.683211
 21
177.02409299999999
  0
LINE
  8
_0-1_PRO0
  6
CONTINUOUS
 62
    2
 10
131.28093899999999
 20
174.43063799999999
 11
136.43716999999998
 21
165.49974
  0
LINE
  8
_0-1_PRO0
  6
CONTINUOUS
 62
    2
 10
136.62466899999998
 20
165.17498000000001
 11
139.02465999999998
 21
161.01805300000001
  0
LINE
  8
_0-1_PRO0
  6
CONTINUOUS
 62
    2
 10
141.499651
 20
156.731222
 11
139.09966
 21
160.888149
  0
LINE
  8
_0-1_PRO0
  6
CONTINUOUS
 62
    2
 10
146.84338199999999
 20
147.47556399999999
 11
141.687151
 21
156.406462
  0
LINE
  8
_0-1_PRO0
  6
CONTINUOUS
 62
    2
 10
130.70372800000001
 20
174.53039899999999
 11
135.413814
 21
177.24975499999999
  0
LINE
  8
_0-1_PRO0
  6
CONTINUOUS
 62
    2
 10
135.11310400000002
 20
176.64313300000001
 11
131.28092599999999
 21
174.43066099999999
  0
LINE
  8
_0-1_PRO0
  6
CONTINUOUS
 62
    2
 10
130.93810200000001
 20
174.124449
 11
130.70372800000001
 21
174.53039899999999
  0
LINE
  8
_0-1_PRO0
  6
CONTINUOUS
 62
    2
 10
141.625563
 20
155.613133
 11
141.344314
 21
156.10027299999999
  0
LINE
  8
_0-1_PRO0
  6
CONTINUOUS
 62
    2
 10
141.344314
 20
156.10027299999999
 11
141.409266
 21
156.13777300000001
  0
LINE
  8
_0-1_PRO0
  6
CONTINUOUS
 62
    2
 10
141.409266
 20
156.13777300000001
 11
141.128017
 21
156.62491299999999
  0
LINE
  8
_0-1_PRO0
  6
CONTINUOUS
 62
    2
 10
141.128017
 20
156.62491299999999
 11
141.06306499999999
 21
156.587413
  0
LINE
  8
_0-1_PRO0
  6
CONTINUOUS
 62
    2
 10
141.06306499999999
 20
156.587413
 11
140.78181599999999
 21
157.07455300000001
  0
LINE
  8
_0-1_PRO0
  6
CONTINUOUS
 62
    2
 10
140.78181599999999
 20
157.07455300000001
 11
140.846768
 21
157.112053
  0
LINE
  8
_0-1_PRO0
  6
CONTINUOUS
 62
    2
 10
140.846768
 20
157.112053
 11
140.56551899999999
 21
157.59919300000001
  0
LINE
  8
_0-1_PRO0
  6
CONTINUOUS
 62
    2
 10
140.56551899999999
 20
157.59919300000001
 11
140.50056699999999
 21
157.56169299999999
  0
LINE
  8
_0-1_PRO0
  6
CONTINUOUS
 62
    2
 10
140.50056699999999
 20
157.56169299999999
 11
140.21931799999999
 21
158.048833
  0
LINE
  8
_0-1_PRO0
  6
CONTINUOUS
 62
    2
 10
140.21931799999999
 20
158.048833
 11
140.28426999999999
 21
158.086332
  0
LINE
  8
_0-1_PRO0
  6
CONTINUOUS
 62
    2
 10
140.28426999999999
 20
158.086332
 11
140.00302099999999
 21
158.57347200000001
  0
LINE
  8
_0-1_PRO0
  6
CONTINUOUS
 62
    2
 10
140.00302099999999
 20
158.57347200000001
 11
139.93806899999998
 21
158.53597199999999
  0
LINE
  8
_0-1_PRO0
  6
CONTINUOUS
 62
    2
 10
139.93806899999998
 20
158.53597199999999
 11
139.65681999999998
 21
159.023112
  0
LINE
  8
_0-1_PRO0
  6
CONTINUOUS
 62
    2
 10
139.65681999999998
 20
159.023112
 11
139.72177199999999
 21
159.06061199999999
  0
LINE
  8
_0-1_PRO0
  6
CONTINUOUS
 62
    2
 10
139.72177199999999
 20
159.06061199999999
 11
139.44052299999998
 21
159.547752
  0
LINE
  8
_0-1_PRO0
  6
CONTINUOUS
 62
    2
 10
139.44052299999998
 20
159.547752
 11
139.37557099999998
 21
159.51025200000001
  0
LINE
  8
_0-1_PRO0
  6
CONTINUOUS
 62
    2
 10
139.37557099999998
 20
159.51025200000001
 11
139.09432200000001
 21
159.99739199999999
  0
LINE
  8
_0-1_PRO0
  6
CONTINUOUS
 62
    2
 10
139.09432200000001
 20
159.99739199999999
 11
139.15927399999998
 21
160.03489200000001
  0
LINE
  8
_0-1_PRO0
  6
CONTINUOUS
 62
    2
 10
139.15927399999998
 20
160.03489200000001
 11
138.87802499999998
 21
160.522032
  0
LINE
  8
_0-1_PRO0
  6
CONTINUOUS
 62
    2
 10
138.87802499999998
 20
160.522032
 11
138.813073
 21
160.484532
  0
LINE
  8
_0-1_PRO0
  6
CONTINUOUS
 62
    2
 10
138.813073
 20
160.484532
 11
138.531824
 21
160.97167200000001
  0
LINE
  8
_0-1_PRO0
  6
CONTINUOUS
 62
    2
 10
138.531824
 20
160.97167200000001
 11
138.59677600000001
 21
161.00917200000001
  0
LINE
  8
_0-1_PRO0
  6
CONTINUOUS
 62
    2
 10
138.59677600000001
 20
161.00917200000001
 11
138.315527
 21
161.49631199999999
  0
LINE
  8
_0-1_PRO0
  6
CONTINUOUS
 62
    2
 10
138.315527
 20
161.49631199999999
 11
138.250575
 21
161.45881199999999
  0
LINE
  8
_0-1_PRO0
  6
CONTINUOUS
 62
    2
 10
138.250575
 20
161.45881199999999
 11
137.969326
 21
161.94595200000001
  0
LINE
  8
_0-1_PRO0
  6
CONTINUOUS
 62
    2
 10
137.969326
 20
161.94595200000001
 11
138.034278
 21
161.983452
  0
LINE
  8
_0-1_PRO0
  6
CONTINUOUS
 62
    2
 10
138.034278
 20
161.983452
 11
137.753029
 21
162.47059100000001
  0
LINE
  8
_0-1_PRO0
  6
CONTINUOUS
 62
    2
 10
137.753029
 20
162.47059100000001
 11
137.68807700000002
 21
162.43309199999999
  0
LINE
  8
_0-1_PRO0
  6
CONTINUOUS
 62
    2
 10
137.68807700000002
 20
162.43309199999999
 11
137.40682800000002
 21
162.920231
  0
LINE
  8
_0-1_PRO0
  6
CONTINUOUS
 62
    2
 10
137.40682800000002
 20
162.920231
 11
137.47178
 21
162.957731
  0
LINE
  8
_0-1_PRO0
  6
CONTINUOUS
 62
    2
 10
137.47178
 20
162.957731
 11
137.19053099999999
 21
163.44487100000001
  0
LINE
  8
_0-1_PRO0
  6
CONTINUOUS
 62
    2
 10
137.19053099999999
 20
163.44487100000001
 11
137.12557900000002
 21
163.40737100000001
  0
LINE
  8
_0-1_PRO0
  6
CONTINUOUS
 62
    2
 10
137.12557900000002
 20
163.40737100000001
 11
136.84433000000001
 21
163.89451099999999
  0
LINE
  8
_0-1_PRO0
  6
CONTINUOUS
 62
    2
 10
136.84433000000001
 20
163.89451099999999
 11
136.90928200000002
 21
163.93201099999999
  0
LINE
  8
_0-1_PRO0
  6
CONTINUOUS
 62
    2
 10
136.90928200000002
 20
163.93201099999999
 11
136.62803300000002
 21
164.419151
  0
LINE
  8
_0-1_PRO0
  6
CONTINUOUS
 62
    2
 10
136.62803300000002
 20
164.419151
 11
136.56308100000001
 21
164.38165100000001
  0
LINE
  8
_0-1_PRO0
  6
CONTINUOUS
 62
    2
 10
136.56308100000001
 20
164.38165100000001
 11
136.28183200000001
 21
164.86879099999999
  0
LINE
  8
_0-1_PRO0
  6
CONTINUOUS
 62
    2
 10
136.28183200000001
 20
164.86879099999999
 11
136.34678400000001
 21
164.90629100000001
  0
LINE
  8
_0-1_PRO0
  6
CONTINUOUS
 62
    2
 10
136.34678400000001
 20
164.90629100000001
 11
136.06553500000001
 21
165.39343099999999
  0
LINE
  8
_0-1_PRO0
  6
CONTINUOUS
 62
    2
 10
136.06553500000001
 20
165.39343099999999
 11
136.00058300000001
 21
165.355931
  0
LINE
  8
_0-1_PRO0
  6
CONTINUOUS
 62
    2
 10
136.00058300000001
 20
165.355931
 11
135.719334
 21
165.84307100000001
  0
LINE
  8
_0-1_PRO0
  6
CONTINUOUS
 62
    2
 10
135.719334
 20
165.84307100000001
 11
135.78428600000001
 21
165.880571
  0
LINE
  8
_0-1_PRO0
  6
CONTINUOUS
 62
    2
 10
135.78428600000001
 20
165.880571
 11
135.50303700000001
 21
166.36770999999999
  0
LINE
  8
_0-1_PRO0
  6
CONTINUOUS
 62
    2
 10
135.50303700000001
 20
166.36770999999999
 11
135.438085
 21
166.33021099999999
  0
LINE
  8
_0-1_PRO0
  6
CONTINUOUS
 62
    2
 10
135.438085
 20
166.33021099999999
 11
135.156836
 21
166.81735
  0
LINE
  8
_0-1_PRO0
  6
CONTINUOUS
 62
    2
 10
135.156836
 20
166.81735
 11
135.221788
 21
166.85485
  0
LINE
  8
_0-1_PRO0
  6
CONTINUOUS
 62
    2
 10
135.221788
 20
166.85485
 11
134.940539
 21
167.34199000000001
  0
LINE
  8
_0-1_PRO0
  6
CONTINUOUS
 62
    2
 10
134.940539
 20
167.34199000000001
 11
134.875587
 21
167.30448999999999
  0
LINE
  8
_0-1_PRO0
  6
CONTINUOUS
 62
    2
 10
134.875587
 20
167.30448999999999
 11
134.59433799999999
 21
167.79163
  0
LINE
  8
_0-1_PRO0
  6
CONTINUOUS
 62
    2
 10
134.59433799999999
 20
167.79163
 11
134.65929
 21
167.82912999999999
  0
LINE
  8
_0-1_PRO0
  6
CONTINUOUS
 62
    2
 10
134.65929
 20
167.82912999999999
 11
134.378041
 21
168.31627
  0
LINE
  8
_0-1_PRO0
  6
CONTINUOUS
 62
    2
 10
134.378041
 20
168.31627
 11
134.31308899999999
 21
168.27877000000001
  0
LINE
  8
_0-1_PRO0
  6
CONTINUOUS
 62
    2
 10
134.31308899999999
 20
168.27877000000001
 11
134.03183999999999
 21
168.76590999999999
  0
LINE
  8
_0-1_PRO0
  6
CONTINUOUS
 62
    2
 10
134.03183999999999
 20
168.76590999999999
 11
134.09679199999999
 21
168.80341000000001
  0
LINE
  8
_0-1_PRO0
  6
CONTINUOUS
 62
    2
 10
134.09679199999999
 20
168.80341000000001
 11
133.81554299999999
 21
169.29055
  0
LINE
  8
_0-1_PRO0
  6
CONTINUOUS
 62
    2
 10
133.81554299999999
 20
169.29055
 11
133.75059099999999
 21
169.25305
  0
LINE
  8
_0-1_PRO0
  6
CONTINUOUS
 62
    2
 10
133.75059099999999
 20
169.25305
 11
133.46934199999998
 21
169.74019000000001
  0
LINE
  8
_0-1_PRO0
  6
CONTINUOUS
 62
    2
 10
133.46934199999998
 20
169.74019000000001
 11
133.53429399999999
 21
169.77769000000001
  0
LINE
  8
_0-1_PRO0
  6
CONTINUOUS
 62
    2
 10
133.53429399999999
 20
169.77769000000001
 11
133.25304499999999
 21
170.26482999999999
  0
LINE
  8
_0-1_PRO0
  6
CONTINUOUS
 62
    2
 10
133.25304499999999
 20
170.26482999999999
 11
133.18809299999998
 21
170.22732999999999
  0
LINE
  8
_0-1_PRO0
  6
CONTINUOUS
 62
    2
 10
133.18809299999998
 20
170.22732999999999
 11
132.906845
 21
170.71447000000001
  0
LINE
  8
_0-1_PRO0
  6
CONTINUOUS
 62
    2
 10
132.906845
 20
170.71447000000001
 11
132.97179599999998
 21
170.751969
  0
LINE
  8
_0-1_PRO0
  6
CONTINUOUS
 62
    2
 10
132.97179599999998
 20
170.751969
 11
132.69054800000001
 21
171.23910900000001
  0
LINE
  8
_0-1_PRO0
  6
CONTINUOUS
 62
    2
 10
132.69054800000001
 20
171.23910900000001
 11
132.625596
 21
171.20160899999999
  0
LINE
  8
_0-1_PRO0
  6
CONTINUOUS
 62
    2
 10
132.625596
 20
171.20160899999999
 11
132.344347
 21
171.688749
  0
LINE
  8
_0-1_PRO0
  6
CONTINUOUS
 62
    2
 10
132.344347
 20
171.688749
 11
132.409299
 21
171.726249
  0
LINE
  8
_0-1_PRO0
  6
CONTINUOUS
 62
    2
 10
132.409299
 20
171.726249
 11
132.12805
 21
172.21338900000001
  0
LINE
  8
_0-1_PRO0
  6
CONTINUOUS
 62
    2
 10
132.12805
 20
172.21338900000001
 11
132.063098
 21
172.17588900000001
  0
LINE
  8
_0-1_PRO0
  6
CONTINUOUS
 62
    2
 10
132.063098
 20
172.17588900000001
 11
131.78184899999999
 21
172.66302899999999
  0
LINE
  8
_0-1_PRO0
  6
CONTINUOUS
 62
    2
 10
131.78184899999999
 20
172.66302899999999
 11
131.846801
 21
172.70052899999999
  0
LINE
  8
_0-1_PRO0
  6
CONTINUOUS
 62
    2
 10
131.846801
 20
172.70052899999999
 11
131.565552
 21
173.187669
  0
LINE
  8
_0-1_PRO0
  6
CONTINUOUS
 62
    2
 10
131.565552
 20
173.187669
 11
131.50060000000002
 21
173.15016900000001
  0
LINE
  8
_0-1_PRO0
  6
CONTINUOUS
 62
    2
 10
131.50060000000002
 20
173.15016900000001
 11
131.21935100000002
 21
173.63730899999999
  0
LINE
  8
_0-1_PRO0
  6
CONTINUOUS
 62
    2
 10
131.21935100000002
 20
173.63730899999999
 11
131.28430299999999
 21
173.67480900000001
  0
LINE
  8
_0-1_PRO0
  6
CONTINUOUS
 62
    2
 10
131.28430299999999
 20
173.67480900000001
 11
131.00305400000002
 21
174.16194899999999
  0
LINE
  8
_0-1_PRO0
  6
CONTINUOUS
 62
    2
 10
131.00305400000002
 20
174.16194899999999
 11
130.93810200000001
 21
174.124449
  0
LINE
  8
_0-1_PRO0
  6
CONTINUOUS
 62
    2
 10
138.964732
 20
160.896851
 11
139.02465999999998
 21
161.01805300000001
  0
ARC
  8
_0-1_PRO0
  6
CONTINUOUS
 62
    2
 10
142.08054099999998
 20
156.85009099999999
 40
0.1875
 50
299.99987900000002
 51
119.99987900000002
  0
LINE
  8
_0-1_PRO0
  6
CONTINUOUS
 62
    2
 10
141.499651
 20
156.731222
 11
141.98679099999998
 21
157.01247100000001
  0
LINE
  8
_0-1_PRO0
  6
CONTINUOUS
 62
    2
 10
141.687151
 20
156.406462
 11
142.17429099999998
 21
156.68771100000001
  0
ARC
  8
_0-1_PRO0
  6
CONTINUOUS
 62
    2
 10
137.01805899999999
 20
165.61860899999999
 40
0.1875
 50
299.99987900000002
 51
119.99987900000002
  0
LINE
  8
_0-1_PRO0
  6
CONTINUOUS
 62
    2
 10
136.62466899999998
 20
165.17498000000001
 11
137.11180899999999
 21
165.45622900000001
  0
LINE
  8
_0-1_PRO0
  6
CONTINUOUS
 62
    2
 10
136.43716999999998
 20
165.49974
 11
136.92430999999999
 21
165.78098900000001
  0
LINE
  8
_0-1_PRO0
  6
CONTINUOUS
 62
    2
 10
138.964732
 20
160.896851
 11
139.09966
 21
160.888149
  0
LINE
  8
_0-1_PRO0
  6
CONTINUOUS
 62
    2
 10
150.67556300000001
 20
149.68803199999999
 11
150.39430200000001
 21
150.17519300000001
  0
ARC
  8
_0-1_PRO0
  6
CONTINUOUS
 62
    2
 10
151.256441
 20
149.80692199999999
 40
0.1875
 50
299.62327900000003
 51
79.525886000000014
  0
LINE
  8
_0-1_PRO0
  6
CONTINUOUS
 62
    2
 10
150.394319
 20
150.175195
 11
151.290527
 21
149.991297
  0
LINE
  8
_0-1_PRO0
  6
CONTINUOUS
 62
    2
 10
146.64116899999999
 20
146.925805
 11
151.35125600000001
 21
149.645161
  0
LINE
  8
_0-1_PRO0
  6
CONTINUOUS
 62
    2
 10
150.67555100000001
 20
149.688053
 11
146.84339499999999
 21
147.47554099999999
  0
LINE
  8
_0-1_PRO0
  6
CONTINUOUS
 62
    2
 10
146.40679499999999
 20
147.33175499999999
 11
146.64116899999999
 21
146.925805
  0
LINE
  8
_0-1_PRO0
  6
CONTINUOUS
 62
    2
 10
141.625563
 20
155.613133
 11
141.690515
 21
155.650633
  0
LINE
  8
_0-1_PRO0
  6
CONTINUOUS
 62
    2
 10
141.690515
 20
155.650633
 11
141.97176400000001
 21
155.16349299999999
  0
LINE
  8
_0-1_PRO0
  6
CONTINUOUS
 62
    2
 10
141.97176400000001
 20
155.16349299999999
 11
141.906812
 21
155.12599299999999
  0
LINE
  8
_0-1_PRO0
  6
CONTINUOUS
 62
    2
 10
141.906812
 20
155.12599299999999
 11
142.188061
 21
154.63885300000001
  0
LINE
  8
_0-1_PRO0
  6
CONTINUOUS
 62
    2
 10
142.188061
 20
154.63885300000001
 11
142.25301300000001
 21
154.67635300000001
  0
LINE
  8
_0-1_PRO0
  6
CONTINUOUS
 62
    2
 10
142.25301300000001
 20
154.67635300000001
 11
142.53426200000001
 21
154.189213
  0
LINE
  8
_0-1_PRO0
  6
CONTINUOUS
 62
    2
 10
142.53426200000001
 20
154.189213
 11
142.46931000000001
 21
154.151713
  0
LINE
  8
_0-1_PRO0
  6
CONTINUOUS
 62
    2
 10
142.46931000000001
 20
154.151713
 11
142.75055900000001
 21
153.66457399999999
  0
LINE
  8
_0-1_PRO0
  6
CONTINUOUS
 62
    2
 10
142.75055900000001
 20
153.66457399999999
 11
142.81551100000001
 21
153.70207300000001
  0
LINE
  8
_0-1_PRO0
  6
CONTINUOUS
 62
    2
 10
142.81551100000001
 20
153.70207300000001
 11
143.09676000000002
 21
153.214934
  0
LINE
  8
_0-1_PRO0
  6
CONTINUOUS
 62
    2
 10
143.09676000000002
 20
153.214934
 11
143.03180800000001
 21
153.17743400000001
  0
LINE
  8
_0-1_PRO0
  6
CONTINUOUS
 62
    2
 10
143.03180800000001
 20
153.17743400000001
 11
143.31305699999999
 21
152.69029399999999
  0
LINE
  8
_0-1_PRO0
  6
CONTINUOUS
 62
    2
 10
143.31305699999999
 20
152.69029399999999
 11
143.37800899999999
 21
152.72779399999999
  0
LINE
  8
_0-1_PRO0
  6
CONTINUOUS
 62
    2
 10
143.37800899999999
 20
152.72779399999999
 11
143.65925799999999
 21
152.24065400000001
  0
LINE
  8
_0-1_PRO0
  6
CONTINUOUS
 62
    2
 10
143.65925799999999
 20
152.24065400000001
 11
143.59430599999999
 21
152.20315400000001
  0
LINE
  8
_0-1_PRO0
  6
CONTINUOUS
 62
    2
 10
143.59430599999999
 20
152.20315400000001
 11
143.87555499999999
 21
151.716014
  0
LINE
  8
_0-1_PRO0
  6
CONTINUOUS
 62
    2
 10
143.87555499999999
 20
151.716014
 11
143.940506
 21
151.753514
  0
LINE
  8
_0-1_PRO0
  6
CONTINUOUS
 62
    2
 10
143.940506
 20
151.753514
 11
144.221755
 21
151.26637400000001
  0
LINE
  8
_0-1_PRO0
  6
CONTINUOUS
 62
    2
 10
144.221755
 20
151.26637400000001
 11
144.156803
 21
151.22887399999999
  0
LINE
  8
_0-1_PRO0
  6
CONTINUOUS
 62
    2
 10
144.156803
 20
151.22887399999999
 11
144.438052
 21
150.74173400000001
  0
LINE
  8
_0-1_PRO0
  6
CONTINUOUS
 62
    2
 10
144.438052
 20
150.74173400000001
 11
144.503004
 21
150.779234
  0
LINE
  8
_0-1_PRO0
  6
CONTINUOUS
 62
    2
 10
144.503004
 20
150.779234
 11
144.78425300000001
 21
150.29209399999999
  0
LINE
  8
_0-1_PRO0
  6
CONTINUOUS
 62
    2
 10
144.78425300000001
 20
150.29209399999999
 11
144.719301
 21
150.254594
  0
LINE
  8
_0-1_PRO0
  6
CONTINUOUS
 62
    2
 10
144.719301
 20
150.254594
 11
145.00055
 21
149.76745399999999
  0
LINE
  8
_0-1_PRO0
  6
CONTINUOUS
 62
    2
 10
145.00055
 20
149.76745399999999
 11
145.06550200000001
 21
149.80495400000001
  0
LINE
  8
_0-1_PRO0
  6
CONTINUOUS
 62
    2
 10
145.06550200000001
 20
149.80495400000001
 11
145.34675100000001
 21
149.317814
  0
LINE
  8
_0-1_PRO0
  6
CONTINUOUS
 62
    2
 10
145.34675100000001
 20
149.317814
 11
145.28179900000001
 21
149.280315
  0
LINE
  8
_0-1_PRO0
  6
CONTINUOUS
 62
    2
 10
145.28179900000001
 20
149.280315
 11
145.56304800000001
 21
148.79317499999999
  0
LINE
  8
_0-1_PRO0
  6
CONTINUOUS
 62
    2
 10
145.56304800000001
 20
148.79317499999999
 11
145.62799999999999
 21
148.83067500000001
  0
LINE
  8
_0-1_PRO0
  6
CONTINUOUS
 62
    2
 10
145.62799999999999
 20
148.83067500000001
 11
145.90924899999999
 21
148.343535
  0
LINE
  8
_0-1_PRO0
  6
CONTINUOUS
 62
    2
 10
145.90924899999999
 20
148.343535
 11
145.84429700000001
 21
148.30603500000001
  0
LINE
  8
_0-1_PRO0
  6
CONTINUOUS
 62
    2
 10
145.84429700000001
 20
148.30603500000001
 11
146.12554600000001
 21
147.818895
  0
LINE
  8
_0-1_PRO0
  6
CONTINUOUS
 62
    2
 10
146.12554600000001
 20
147.818895
 11
146.19049799999999
 21
147.85639499999999
  0
LINE
  8
_0-1_PRO0
  6
CONTINUOUS
 62
    2
 10
146.19049799999999
 20
147.85639499999999
 11
146.47174699999999
 21
147.36925500000001
  0
LINE
  8
_0-1_PRO0
  6
CONTINUOUS
 62
    2
 10
146.47174699999999
 20
147.36925500000001
 11
146.40679499999999
 21
147.33175499999999
  0
LINE
  8
_0-1_PRO0
  6
CONTINUOUS
 62
    3
 10
151.89461700000001
 20
213.790593
 11
151.89461700000001
 21
210.040593
  0
ARC
  8
_0-1_PRO0
  6
CONTINUOUS
 62
    3
 10
151.51961700000001
 20
185.290593
 40
0.375
 50
0
 51
90
  0
LINE
  8
_0-1_PRO0
  6
CONTINUOUS
 62
    3
 10
150.03900400000001
 20
185.665593
 11
151.51961700000001
 21
185.665593
  0
LINE
  8
_0-1_PRO0
  6
CONTINUOUS
 62
    3
 10
151.89461700000001
 20
185.290593
 11
151.89461700000001
 21
180.040593
  0
ARC
  8
_0-1_PRO0
  6
CONTINUOUS
 62
    3
 10
150.01961700000001
 20
210.040593
 40
1.875
 50
270
 51
0
  0
LINE
  8
_0-1_PRO0
  6
CONTINUOUS
 62
    3
 10
137.48170299999998
 20
208.165593
 11
150.01961700000001
 21
208.165593
  0
ARC
  8
_0-1_PRO0
  6
CONTINUOUS
 62
    3
 10
150.03900400000001
 20
185.290593
 40
0.375
 50
90
 51
209.99987899999999
  0
LINE
  8
_0-1_PRO0
  6
CONTINUOUS
 62
    3
 10
150.67555100000001
 20
183.438053
 11
149.71424400000001
 21
185.103094
  0
ARC
  8
_0-1_PRO0
  6
CONTINUOUS
 62
    3
 10
148.894308
 20
186.52327199999999
 40
3.5625
 50
209.99987899999999
 51
299.99987900000002
  0
LINE
  8
_0-1_PRO0
  6
CONTINUOUS
 62
    3
 10
138.55132500000002
 20
197.312905
 11
133.80912799999999
 21
205.52667099999999
  0
LINE
  8
_0-1_PRO0
  6
CONTINUOUS
 62
    3
 10
145.809088
 20
184.742029
 11
141.066892
 21
192.955794
  0
ARC
  8
_0-1_PRO0
  6
CONTINUOUS
 62
    3
 10
137.48170299999998
 20
210.040593
 40
1.875
 50
209.99987899999999
 51
270
  0
LINE
  8
_0-1_PRO0
  6
CONTINUOUS
 62
    3
 10
135.11310400000002
 20
210.39313300000001
 11
135.85790299999999
 21
209.10309599999999
  0
ARC
  8
_0-1_PRO0
  6
CONTINUOUS
 62
    3
 10
136.89434699999998
 20
207.30791400000001
 40
3.5625
 50
119.99987900000002
 51
209.99987900000002
  0
ARC
  8
_0-1_PRO0
  6
CONTINUOUS
 62
    3
 10
141.71641199999999
 20
193.330792
 40
0.75
 50
136.601429
 51
209.99987900000002
  0
ARC
  8
_0-1_PRO0
  6
CONTINUOUS
 62
    3
 10
139.20084400000002
 20
197.687904
 40
0.75
 50
209.99987899999999
 51
283.39832999999999
  0
ARC
  8
_0-1_PRO0
  6
CONTINUOUS
 62
    3
 10
139.80910799999998
 20
195.13435000000001
 40
1.875
 50
316.60142900000005
 51
103.39833000000002
  0
LINE
  8
_0-1_PRO0
  6
CONTINUOUS
 62
    2
 10
135.11309199999999
 20
210.39315400000001
 11
135.394353
 21
209.905993
  0
ARC
  8
_0-1_PRO0
  6
CONTINUOUS
 62
    2
 10
135.506494
 20
210.83676199999999
 40
0.1875
 50
340.47387300000003
 51
120.37648000000002
  0
LINE
  8
_0-1_PRO0
  6
CONTINUOUS
 62
    2
 10
135.394364
 20
209.90600699999999
 11
135.683211
 21
210.77409299999999
  0
LINE
  8
_0-1_PRO0
  6
CONTINUOUS
 62
    2
 10
131.28093899999999
 20
208.18063799999999
 11
136.43716999999998
 21
199.24974
  0
LINE
  8
_0-1_PRO0
  6
CONTINUOUS
 62
    2
 10
136.62466899999998
 20
198.92498000000001
 11
139.02465999999998
 21
194.76805300000001
  0
LINE
  8
_0-1_PRO0
  6
CONTINUOUS
 62
    2
 10
141.499651
 20
190.481222
 11
139.09966
 21
194.638149
  0
LINE
  8
_0-1_PRO0
  6
CONTINUOUS
 62
    2
 10
146.84338199999999
 20
181.22556399999999
 11
141.687151
 21
190.156462
  0
LINE
  8
_0-1_PRO0
  6
CONTINUOUS
 62
    2
 10
130.70372800000001
 20
208.28039899999999
 11
135.413814
 21
210.99975499999999
  0
LINE
  8
_0-1_PRO0
  6
CONTINUOUS
 62
    2
 10
135.11310400000002
 20
210.39313300000001
 11
131.28092599999999
 21
208.18066099999999
  0
LINE
  8
_0-1_PRO0
  6
CONTINUOUS
 62
    2
 10
130.93810200000001
 20
207.874449
 11
130.70372800000001
 21
208.28039899999999
  0
LINE
  8
_0-1_PRO0
  6
CONTINUOUS
 62
    2
 10
141.625563
 20
189.363133
 11
141.344314
 21
189.85027299999999
  0
LINE
  8
_0-1_PRO0
  6
CONTINUOUS
 62
    2
 10
141.344314
 20
189.85027299999999
 11
141.409266
 21
189.88777300000001
  0
LINE
  8
_0-1_PRO0
  6
CONTINUOUS
 62
    2
 10
141.409266
 20
189.88777300000001
 11
141.128017
 21
190.37491299999999
  0
LINE
  8
_0-1_PRO0
  6
CONTINUOUS
 62
    2
 10
141.128017
 20
190.37491299999999
 11
141.06306499999999
 21
190.337413
  0
LINE
  8
_0-1_PRO0
  6
CONTINUOUS
 62
    2
 10
141.06306499999999
 20
190.337413
 11
140.78181599999999
 21
190.82455300000001
  0
LINE
  8
_0-1_PRO0
  6
CONTINUOUS
 62
    2
 10
140.78181599999999
 20
190.82455300000001
 11
140.846768
 21
190.862053
  0
LINE
  8
_0-1_PRO0
  6
CONTINUOUS
 62
    2
 10
140.846768
 20
190.862053
 11
140.56551899999999
 21
191.34919300000001
  0
LINE
  8
_0-1_PRO0
  6
CONTINUOUS
 62
    2
 10
140.56551899999999
 20
191.34919300000001
 11
140.50056699999999
 21
191.31169299999999
  0
LINE
  8
_0-1_PRO0
  6
CONTINUOUS
 62
    2
 10
140.50056699999999
 20
191.31169299999999
 11
140.21931799999999
 21
191.798833
  0
LINE
  8
_0-1_PRO0
  6
CONTINUOUS
 62
    2
 10
140.21931799999999
 20
191.798833
 11
140.28426999999999
 21
191.836332
  0
LINE
  8
_0-1_PRO0
  6
CONTINUOUS
 62
    2
 10
140.28426999999999
 20
191.836332
 11
140.00302099999999
 21
192.32347200000001
  0
LINE
  8
_0-1_PRO0
  6
CONTINUOUS
 62
    2
 10
140.00302099999999
 20
192.32347200000001
 11
139.93806899999998
 21
192.28597199999999
  0
LINE
  8
_0-1_PRO0
  6
CONTINUOUS
 62
    2
 10
139.93806899999998
 20
192.28597199999999
 11
139.65681999999998
 21
192.773112
  0
LINE
  8
_0-1_PRO0
  6
CONTINUOUS
 62
    2
 10
139.65681999999998
 20
192.773112
 11
139.72177199999999
 21
192.81061199999999
  0
LINE
  8
_0-1_PRO0
  6
CONTINUOUS
 62
    2
 10
139.72177199999999
 20
192.81061199999999
 11
139.44052299999998
 21
193.297752
  0
LINE
  8
_0-1_PRO0
  6
CONTINUOUS
 62
    2
 10
139.44052299999998
 20
193.297752
 11
139.37557099999998
 21
193.26025200000001
  0
LINE
  8
_0-1_PRO0
  6
CONTINUOUS
 62
    2
 10
139.37557099999998
 20
193.26025200000001
 11
139.09432200000001
 21
193.74739199999999
  0
LINE
  8
_0-1_PRO0
  6
CONTINUOUS
 62
    2
 10
139.09432200000001
 20
193.74739199999999
 11
139.15927399999998
 21
193.78489200000001
  0
LINE
  8
_0-1_PRO0
  6
CONTINUOUS
 62
    2
 10
139.15927399999998
 20
193.78489200000001
 11
138.87802499999998
 21
194.272032
  0
LINE
  8
_0-1_PRO0
  6
CONTINUOUS
 62
    2
 10
138.87802499999998
 20
194.272032
 11
138.813073
 21
194.234532
  0
LINE
  8
_0-1_PRO0
  6
CONTINUOUS
 62
    2
 10
138.813073
 20
194.234532
 11
138.531824
 21
194.72167200000001
  0
LINE
  8
_0-1_PRO0
  6
CONTINUOUS
 62
    2
 10
138.531824
 20
194.72167200000001
 11
138.59677600000001
 21
194.75917200000001
  0
LINE
  8
_0-1_PRO0
  6
CONTINUOUS
 62
    2
 10
138.59677600000001
 20
194.75917200000001
 11
138.315527
 21
195.24631199999999
  0
LINE
  8
_0-1_PRO0
  6
CONTINUOUS
 62
    2
 10
138.315527
 20
195.24631199999999
 11
138.250575
 21
195.20881199999999
  0
LINE
  8
_0-1_PRO0
  6
CONTINUOUS
 62
    2
 10
138.250575
 20
195.20881199999999
 11
137.969326
 21
195.69595200000001
  0
LINE
  8
_0-1_PRO0
  6
CONTINUOUS
 62
    2
 10
137.969326
 20
195.69595200000001
 11
138.034278
 21
195.733452
  0
LINE
  8
_0-1_PRO0
  6
CONTINUOUS
 62
    2
 10
138.034278
 20
195.733452
 11
137.753029
 21
196.22059100000001
  0
LINE
  8
_0-1_PRO0
  6
CONTINUOUS
 62
    2
 10
137.753029
 20
196.22059100000001
 11
137.68807700000002
 21
196.18309199999999
  0
LINE
  8
_0-1_PRO0
  6
CONTINUOUS
 62
    2
 10
137.68807700000002
 20
196.18309199999999
 11
137.40682800000002
 21
196.670231
  0
LINE
  8
_0-1_PRO0
  6
CONTINUOUS
 62
    2
 10
137.40682800000002
 20
196.670231
 11
137.47178
 21
196.707731
  0
LINE
  8
_0-1_PRO0
  6
CONTINUOUS
 62
    2
 10
137.47178
 20
196.707731
 11
137.19053099999999
 21
197.19487100000001
  0
LINE
  8
_0-1_PRO0
  6
CONTINUOUS
 62
    2
 10
137.19053099999999
 20
197.19487100000001
 11
137.12557900000002
 21
197.15737100000001
  0
LINE
  8
_0-1_PRO0
  6
CONTINUOUS
 62
    2
 10
137.12557900000002
 20
197.15737100000001
 11
136.84433000000001
 21
197.64451099999999
  0
LINE
  8
_0-1_PRO0
  6
CONTINUOUS
 62
    2
 10
136.84433000000001
 20
197.64451099999999
 11
136.90928200000002
 21
197.68201099999999
  0
LINE
  8
_0-1_PRO0
  6
CONTINUOUS
 62
    2
 10
136.90928200000002
 20
197.68201099999999
 11
136.62803300000002
 21
198.169151
  0
LINE
  8
_0-1_PRO0
  6
CONTINUOUS
 62
    2
 10
136.62803300000002
 20
198.169151
 11
136.56308100000001
 21
198.13165100000001
  0
LINE
  8
_0-1_PRO0
  6
CONTINUOUS
 62
    2
 10
136.56308100000001
 20
198.13165100000001
 11
136.28183200000001
 21
198.61879099999999
  0
LINE
  8
_0-1_PRO0
  6
CONTINUOUS
 62
    2
 10
136.28183200000001
 20
198.61879099999999
 11
136.34678400000001
 21
198.65629100000001
  0
LINE
  8
_0-1_PRO0
  6
CONTINUOUS
 62
    2
 10
136.34678400000001
 20
198.65629100000001
 11
136.06553500000001
 21
199.14343099999999
  0
LINE
  8
_0-1_PRO0
  6
CONTINUOUS
 62
    2
 10
136.06553500000001
 20
199.14343099999999
 11
136.00058300000001
 21
199.105931
  0
LINE
  8
_0-1_PRO0
  6
CONTINUOUS
 62
    2
 10
136.00058300000001
 20
199.105931
 11
135.719334
 21
199.59307100000001
  0
LINE
  8
_0-1_PRO0
  6
CONTINUOUS
 62
    2
 10
135.719334
 20
199.59307100000001
 11
135.78428600000001
 21
199.630571
  0
LINE
  8
_0-1_PRO0
  6
CONTINUOUS
 62
    2
 10
135.78428600000001
 20
199.630571
 11
135.50303700000001
 21
200.11770999999999
  0
LINE
  8
_0-1_PRO0
  6
CONTINUOUS
 62
    2
 10
135.50303700000001
 20
200.11770999999999
 11
135.438085
 21
200.08021099999999
  0
LINE
  8
_0-1_PRO0
  6
CONTINUOUS
 62
    2
 10
135.438085
 20
200.08021099999999
 11
135.156836
 21
200.56735
  0
LINE
  8
_0-1_PRO0
  6
CONTINUOUS
 62
    2
 10
135.156836
 20
200.56735
 11
135.221788
 21
200.60485
  0
LINE
  8
_0-1_PRO0
  6
CONTINUOUS
 62
    2
 10
135.221788
 20
200.60485
 11
134.940539
 21
201.09199000000001
  0
LINE
  8
_0-1_PRO0
  6
CONTINUOUS
 62
    2
 10
134.940539
 20
201.09199000000001
 11
134.875587
 21
201.05448999999999
  0
LINE
  8
_0-1_PRO0
  6
CONTINUOUS
 62
    2
 10
134.875587
 20
201.05448999999999
 11
134.59433799999999
 21
201.54163
  0
LINE
  8
_0-1_PRO0
  6
CONTINUOUS
 62
    2
 10
134.59433799999999
 20
201.54163
 11
134.65929
 21
201.57912999999999
  0
LINE
  8
_0-1_PRO0
  6
CONTINUOUS
 62
    2
 10
134.65929
 20
201.57912999999999
 11
134.378041
 21
202.06627
  0
LINE
  8
_0-1_PRO0
  6
CONTINUOUS
 62
    2
 10
134.378041
 20
202.06627
 11
134.31308899999999
 21
202.02877000000001
  0
LINE
  8
_0-1_PRO0
  6
CONTINUOUS
 62
    2
 10
134.31308899999999
 20
202.02877000000001
 11
134.03183999999999
 21
202.51590999999999
  0
LINE
  8
_0-1_PRO0
  6
CONTINUOUS
 62
    2
 10
134.03183999999999
 20
202.51590999999999
 11
134.09679199999999
 21
202.55341000000001
  0
LINE
  8
_0-1_PRO0
  6
CONTINUOUS
 62
    2
 10
134.09679199999999
 20
202.55341000000001
 11
133.81554299999999
 21
203.04055
  0
LINE
  8
_0-1_PRO0
  6
CONTINUOUS
 62
    2
 10
133.81554299999999
 20
203.04055
 11
133.75059099999999
 21
203.00305
  0
LINE
  8
_0-1_PRO0
  6
CONTINUOUS
 62
    2
 10
133.75059099999999
 20
203.00305
 11
133.46934199999998
 21
203.49019000000001
  0
LINE
  8
_0-1_PRO0
  6
CONTINUOUS
 62
    2
 10
133.46934199999998
 20
203.49019000000001
 11
133.53429399999999
 21
203.52769000000001
  0
LINE
  8
_0-1_PRO0
  6
CONTINUOUS
 62
    2
 10
133.53429399999999
 20
203.52769000000001
 11
133.25304499999999
 21
204.01482999999999
  0
LINE
  8
_0-1_PRO0
  6
CONTINUOUS
 62
    2
 10
133.25304499999999
 20
204.01482999999999
 11
133.18809299999998
 21
203.97732999999999
  0
LINE
  8
_0-1_PRO0
  6
CONTINUOUS
 62
    2
 10
133.18809299999998
 20
203.97732999999999
 11
132.906845
 21
204.46447000000001
  0
LINE
  8
_0-1_PRO0
  6
CONTINUOUS
 62
    2
 10
132.906845
 20
204.46447000000001
 11
132.97179599999998
 21
204.501969
  0
LINE
  8
_0-1_PRO0
  6
CONTINUOUS
 62
    2
 10
132.97179599999998
 20
204.501969
 11
132.69054800000001
 21
204.98910900000001
  0
LINE
  8
_0-1_PRO0
  6
CONTINUOUS
 62
    2
 10
132.69054800000001
 20
204.98910900000001
 11
132.625596
 21
204.95160899999999
  0
LINE
  8
_0-1_PRO0
  6
CONTINUOUS
 62
    2
 10
132.625596
 20
204.95160899999999
 11
132.344347
 21
205.438749
  0
LINE
  8
_0-1_PRO0
  6
CONTINUOUS
 62
    2
 10
132.344347
 20
205.438749
 11
132.409299
 21
205.476249
  0
LINE
  8
_0-1_PRO0
  6
CONTINUOUS
 62
    2
 10
132.409299
 20
205.476249
 11
132.12805
 21
205.96338900000001
  0
LINE
  8
_0-1_PRO0
  6
CONTINUOUS
 62
    2
 10
132.12805
 20
205.96338900000001
 11
132.063098
 21
205.92588900000001
  0
LINE
  8
_0-1_PRO0
  6
CONTINUOUS
 62
    2
 10
132.063098
 20
205.92588900000001
 11
131.78184899999999
 21
206.41302899999999
  0
LINE
  8
_0-1_PRO0
  6
CONTINUOUS
 62
    2
 10
131.78184899999999
 20
206.41302899999999
 11
131.846801
 21
206.45052899999999
  0
LINE
  8
_0-1_PRO0
  6
CONTINUOUS
 62
    2
 10
131.846801
 20
206.45052899999999
 11
131.565552
 21
206.937669
  0
LINE
  8
_0-1_PRO0
  6
CONTINUOUS
 62
    2
 10
131.565552
 20
206.937669
 11
131.50060000000002
 21
206.90016900000001
  0
LINE
  8
_0-1_PRO0
  6
CONTINUOUS
 62
    2
 10
131.50060000000002
 20
206.90016900000001
 11
131.21935100000002
 21
207.38730899999999
  0
LINE
  8
_0-1_PRO0
  6
CONTINUOUS
 62
    2
 10
131.21935100000002
 20
207.38730899999999
 11
131.28430299999999
 21
207.42480900000001
  0
LINE
  8
_0-1_PRO0
  6
CONTINUOUS
 62
    2
 10
131.28430299999999
 20
207.42480900000001
 11
131.00305400000002
 21
207.91194899999999
  0
LINE
  8
_0-1_PRO0
  6
CONTINUOUS
 62
    2
 10
131.00305400000002
 20
207.91194899999999
 11
130.93810200000001
 21
207.874449
  0
LINE
  8
_0-1_PRO0
  6
CONTINUOUS
 62
    2
 10
138.964732
 20
194.646851
 11
139.02465999999998
 21
194.76805300000001
  0
ARC
  8
_0-1_PRO0
  6
CONTINUOUS
 62
    2
 10
142.08054099999998
 20
190.60009099999999
 40
0.1875
 50
299.99987900000002
 51
119.99987900000002
  0
LINE
  8
_0-1_PRO0
  6
CONTINUOUS
 62
    2
 10
141.499651
 20
190.481222
 11
141.98679099999998
 21
190.76247100000001
  0
LINE
  8
_0-1_PRO0
  6
CONTINUOUS
 62
    2
 10
141.687151
 20
190.156462
 11
142.17429099999998
 21
190.43771100000001
  0
ARC
  8
_0-1_PRO0
  6
CONTINUOUS
 62
    2
 10
137.01805899999999
 20
199.36860899999999
 40
0.1875
 50
299.99987900000002
 51
119.99987900000002
  0
LINE
  8
_0-1_PRO0
  6
CONTINUOUS
 62
    2
 10
136.62466899999998
 20
198.92498000000001
 11
137.11180899999999
 21
199.20622900000001
  0
LINE
  8
_0-1_PRO0
  6
CONTINUOUS
 62
    2
 10
136.43716999999998
 20
199.24974
 11
136.92430999999999
 21
199.53098900000001
  0
LINE
  8
_0-1_PRO0
  6
CONTINUOUS
 62
    2
 10
138.964732
 20
194.646851
 11
139.09966
 21
194.638149
  0
LINE
  8
_0-1_PRO0
  6
CONTINUOUS
 62
    2
 10
150.67556300000001
 20
183.43803199999999
 11
150.39430200000001
 21
183.92519300000001
  0
ARC
  8
_0-1_PRO0
  6
CONTINUOUS
 62
    2
 10
151.256441
 20
183.55692199999999
 40
0.1875
 50
299.62327900000003
 51
79.525886000000014
  0
LINE
  8
_0-1_PRO0
  6
CONTINUOUS
 62
    2
 10
150.394319
 20
183.925195
 11
151.290527
 21
183.741297
  0
LINE
  8
_0-1_PRO0
  6
CONTINUOUS
 62
    2
 10
146.64116899999999
 20
180.675805
 11
151.35125600000001
 21
183.395161
  0
LINE
  8
_0-1_PRO0
  6
CONTINUOUS
 62
    2
 10
150.67555100000001
 20
183.438053
 11
146.84339499999999
 21
181.22554099999999
  0
LINE
  8
_0-1_PRO0
  6
CONTINUOUS
 62
    2
 10
146.40679499999999
 20
181.08175499999999
 11
146.64116899999999
 21
180.675805
  0
LINE
  8
_0-1_PRO0
  6
CONTINUOUS
 62
    2
 10
141.625563
 20
189.363133
 11
141.690515
 21
189.400633
  0
LINE
  8
_0-1_PRO0
  6
CONTINUOUS
 62
    2
 10
141.690515
 20
189.400633
 11
141.97176400000001
 21
188.91349299999999
  0
LINE
  8
_0-1_PRO0
  6
CONTINUOUS
 62
    2
 10
141.97176400000001
 20
188.91349299999999
 11
141.906812
 21
188.87599299999999
  0
LINE
  8
_0-1_PRO0
  6
CONTINUOUS
 62
    2
 10
141.906812
 20
188.87599299999999
 11
142.188061
 21
188.38885300000001
  0
LINE
  8
_0-1_PRO0
  6
CONTINUOUS
 62
    2
 10
142.188061
 20
188.38885300000001
 11
142.25301300000001
 21
188.42635300000001
  0
LINE
  8
_0-1_PRO0
  6
CONTINUOUS
 62
    2
 10
142.25301300000001
 20
188.42635300000001
 11
142.53426200000001
 21
187.939213
  0
LINE
  8
_0-1_PRO0
  6
CONTINUOUS
 62
    2
 10
142.53426200000001
 20
187.939213
 11
142.46931000000001
 21
187.901713
  0
LINE
  8
_0-1_PRO0
  6
CONTINUOUS
 62
    2
 10
142.46931000000001
 20
187.901713
 11
142.75055900000001
 21
187.41457399999999
  0
LINE
  8
_0-1_PRO0
  6
CONTINUOUS
 62
    2
 10
142.75055900000001
 20
187.41457399999999
 11
142.81551100000001
 21
187.45207300000001
  0
LINE
  8
_0-1_PRO0
  6
CONTINUOUS
 62
    2
 10
142.81551100000001
 20
187.45207300000001
 11
143.09676000000002
 21
186.964934
  0
LINE
  8
_0-1_PRO0
  6
CONTINUOUS
 62
    2
 10
143.09676000000002
 20
186.964934
 11
143.03180800000001
 21
186.92743400000001
  0
LINE
  8
_0-1_PRO0
  6
CONTINUOUS
 62
    2
 10
143.03180800000001
 20
186.92743400000001
 11
143.31305699999999
 21
186.44029399999999
  0
LINE
  8
_0-1_PRO0
  6
CONTINUOUS
 62
    2
 10
143.31305699999999
 20
186.44029399999999
 11
143.37800899999999
 21
186.47779399999999
  0
LINE
  8
_0-1_PRO0
  6
CONTINUOUS
 62
    2
 10
143.37800899999999
 20
186.47779399999999
 11
143.65925799999999
 21
185.99065400000001
  0
LINE
  8
_0-1_PRO0
  6
CONTINUOUS
 62
    2
 10
143.65925799999999
 20
185.99065400000001
 11
143.59430599999999
 21
185.95315400000001
  0
LINE
  8
_0-1_PRO0
  6
CONTINUOUS
 62
    2
 10
143.59430599999999
 20
185.95315400000001
 11
143.87555499999999
 21
185.466014
  0
LINE
  8
_0-1_PRO0
  6
CONTINUOUS
 62
    2
 10
143.87555499999999
 20
185.466014
 11
143.940506
 21
185.503514
  0
LINE
  8
_0-1_PRO0
  6
CONTINUOUS
 62
    2
 10
143.940506
 20
185.503514
 11
144.221755
 21
185.01637400000001
  0
LINE
  8
_0-1_PRO0
  6
CONTINUOUS
 62
    2
 10
144.221755
 20
185.01637400000001
 11
144.156803
 21
184.97887399999999
  0
LINE
  8
_0-1_PRO0
  6
CONTINUOUS
 62
    2
 10
144.156803
 20
184.97887399999999
 11
144.438052
 21
184.49173400000001
  0
LINE
  8
_0-1_PRO0
  6
CONTINUOUS
 62
    2
 10
144.438052
 20
184.49173400000001
 11
144.503004
 21
184.529234
  0
LINE
  8
_0-1_PRO0
  6
CONTINUOUS
 62
    2
 10
144.503004
 20
184.529234
 11
144.78425300000001
 21
184.04209399999999
  0
LINE
  8
_0-1_PRO0
  6
CONTINUOUS
 62
    2
 10
144.78425300000001
 20
184.04209399999999
 11
144.719301
 21
184.004594
  0
LINE
  8
_0-1_PRO0
  6
CONTINUOUS
 62
    2
 10
144.719301
 20
184.004594
 11
145.00055
 21
183.51745399999999
  0
LINE
  8
_0-1_PRO0
  6
CONTINUOUS
 62
    2
 10
145.00055
 20
183.51745399999999
 11
145.06550200000001
 21
183.55495400000001
  0
LINE
  8
_0-1_PRO0
  6
CONTINUOUS
 62
    2
 10
145.06550200000001
 20
183.55495400000001
 11
145.34675100000001
 21
183.067814
  0
LINE
  8
_0-1_PRO0
  6
CONTINUOUS
 62
    2
 10
145.34675100000001
 20
183.067814
 11
145.28179900000001
 21
183.030315
  0
LINE
  8
_0-1_PRO0
  6
CONTINUOUS
 62
    2
 10
145.28179900000001
 20
183.030315
 11
145.56304800000001
 21
182.54317499999999
  0
LINE
  8
_0-1_PRO0
  6
CONTINUOUS
 62
    2
 10
145.56304800000001
 20
182.54317499999999
 11
145.62799999999999
 21
182.58067500000001
  0
LINE
  8
_0-1_PRO0
  6
CONTINUOUS
 62
    2
 10
145.62799999999999
 20
182.58067500000001
 11
145.90924899999999
 21
182.093535
  0
LINE
  8
_0-1_PRO0
  6
CONTINUOUS
 62
    2
 10
145.90924899999999
 20
182.093535
 11
145.84429700000001
 21
182.05603500000001
  0
LINE
  8
_0-1_PRO0
  6
CONTINUOUS
 62
    2
 10
145.84429700000001
 20
182.05603500000001
 11
146.12554600000001
 21
181.568895
  0
LINE
  8
_0-1_PRO0
  6
CONTINUOUS
 62
    2
 10
146.12554600000001
 20
181.568895
 11
146.19049799999999
 21
181.60639499999999
  0
LINE
  8
_0-1_PRO0
  6
CONTINUOUS
 62
    2
 10
146.19049799999999
 20
181.60639499999999
 11
146.47174699999999
 21
181.11925500000001
  0
LINE
  8
_0-1_PRO0
  6
CONTINUOUS
 62
    2
 10
146.47174699999999
 20
181.11925500000001
 11
146.40679499999999
 21
181.08175499999999
  0
ENDSEC
  0
EOF
