  0
SECTION
  2
HEADER
  9
$ACADVER
  1
AC1015
  9
$DWGCODEPAGE
  3
ANSI_932
  9
$EXTMIN
 10
-192.3993903513
 20
-187.8024501265
  9
$EXTMAX
 10
612.3993903513
 20
481.8024501265
  9
$LIMMIN
 10
0
 20
0
  9
$LIMMAX
 10
420
 20
294
  9
$LTSCALE
 40
1
  9
$DIMSCALE
 40
1
  9
$DIMSTYLE
  2
M7DIMSTL
  9
$HANDSEED
  5
7FFFFFFF
  9
$MEASUREMENT
 70
     1
  0
ENDSEC
  0
SECTION
  2
CLASSES
  0
CLASS
  1
CSOFTARXCLASS
  2
CSoftArxClass
  3
CSRasterApi
 90
     0
280
     0
281
     0
  0
CLASS
  1
IMAGEDEF
  2
AcDbRasterImageDef
  3
ISM
 90
     0
280
     0
281
     0
  0
CLASS
  1
RASTERVARIABLES
  2
AcDbRasterVariables
  3
ISM
 90
     0
280
     0
281
     0
  0
CLASS
  1
IMAGE
  2
AcDbRasterImage
  3
ISM
 90
   127
280
     0
281
     0
  0
CLASS
  1
IMAGEDEF_REACTOR
  2
AcDbRasterImageDefReactor
  3
ISM
 90
     1
280
     0
281
     0
  0
CLASS
  1
HATCH
  2
AcDbHatch
  3
M7
 90
     0
280
     0
281
     1
  0
ENDSEC
  0
SECTION
  2
TABLES
  0
TABLE
  2
VPORT
  5
FF
100
AcDbSymbolTable
 70
     5
  0
VPORT
  5
100
100
AcDbSymbolTableRecord
100
AcDbViewportTableRecord
  2
*ACTIVE
 70
     0
 10
0
 20
0
 11
1
 21
1
 12
210
 22
147
 13
0
 23
0
 14
0
 24
0
 15
0
 25
0
 16
0
 26
0
 36
1
 17
0
 27
0
 37
0
 40
147
 41
1.428571428571
 42
50
 43
0
 44
0
 50
0
 51
0
 71
     0
 72
   100
 73
     1
 74
     3
 75
     0
 76
     0
 77
     0
 78
     0
  0
ENDTAB
  0
TABLE
  2
LTYPE
  5
101
100
AcDbSymbolTable
 70
     1
  0
LTYPE
  5
102
100
AcDbSymbolTableRecord
100
AcDbLinetypeTableRecord
  2
BYBLOCK
 70
     0
  3

 72
    65
 73
     0
 40
0
  0
LTYPE
  5
103
100
AcDbSymbolTableRecord
100
AcDbLinetypeTableRecord
  2
BYLAYER
 70
     0
  3

 72
    65
 73
     0
 40
0
  0
LTYPE
  5
104
100
AcDbSymbolTableRecord
100
AcDbLinetypeTableRecord
  2
CONTINUOUS
 70
     0
  3
Solid line
 72
    65
 73
     0
 40
0
  0
LTYPE
  5
105
100
AcDbSymbolTableRecord
100
AcDbLinetypeTableRecord
  2
DOT
 70
     0
  3
...............................
 72
    65
 73
     2
 40
2
 49
1
 74
     0
 49
-1
 74
     0
  0
LTYPE
  5
106
100
AcDbSymbolTableRecord
100
AcDbLinetypeTableRecord
  2
DASHED
 70
     0
  3
- - - - - - - - - - - - - - - -
 72
    65
 73
     2
 40
4
 49
2
 74
     0
 49
-2
 74
     0
  0
LTYPE
  5
107
100
AcDbSymbolTableRecord
100
AcDbLinetypeTableRecord
  2
DASHED2
 70
     0
  3
-- -- -- -- -- -- -- -- -- -- -
 72
    65
 73
     2
 40
8
 49
5
 74
     0
 49
-3
 74
     0
  0
LTYPE
  5
108
100
AcDbSymbolTableRecord
100
AcDbLinetypeTableRecord
  2
CENTER
 70
     0
  3
--------- - --------- - -------
 72
    65
 73
     4
 40
23
 49
20
 74
     0
 49
-1
 74
     0
 49
1
 74
     0
 49
-1
 74
     0
  0
LTYPE
  5
109
100
AcDbSymbolTableRecord
100
AcDbLinetypeTableRecord
  2
CENTERX2
 70
     0
  3
-------------- - --------------
 72
    65
 73
     4
 40
43
 49
40
 74
     0
 49
-1
 74
     0
 49
1
 74
     0
 49
-1
 74
     0
  0
LTYPE
  5
10A
100
AcDbSymbolTableRecord
100
AcDbLinetypeTableRecord
  2
CENTER2
 70
     0
  3
------ - ----- - ------ - -----
 72
    65
 73
     4
 40
13
 49
10
 74
     0
 49
-1
 74
     0
 49
1
 74
     0
 49
-1
 74
     0
  0
LTYPE
  5
10B
100
AcDbSymbolTableRecord
100
AcDbLinetypeTableRecord
  2
PHANTOM
 70
     0
  3
-------- - - ------- - - ------
 72
    65
 73
     6
 40
25
 49
20
 74
     0
 49
-1
 74
     0
 49
1
 74
     0
 49
-1
 74
     0
 49
1
 74
     0
 49
-1
 74
     0
  0
LTYPE
  5
10C
100
AcDbSymbolTableRecord
100
AcDbLinetypeTableRecord
  2
PHANTOMX2
 70
     0
  3
------------- - - -------------
 72
    65
 73
     6
 40
45
 49
40
 74
     0
 49
-1
 74
     0
 49
1
 74
     0
 49
-1
 74
     0
 49
1
 74
     0
 49
-1
 74
     0
  0
LTYPE
  5
10D
100
AcDbSymbolTableRecord
100
AcDbLinetypeTableRecord
  2
PHANTOM2
 70
     0
  3
---- - - ---- - - ---- - - ----
 72
    65
 73
     6
 40
15
 49
10
 74
     0
 49
-1
 74
     0
 49
1
 74
     0
 49
-1
 74
     0
 49
1
 74
     0
 49
-1
 74
     0
  0
LTYPE
  5
10E
100
AcDbSymbolTableRecord
100
AcDbLinetypeTableRecord
  2
ACAD_ISO06W100
 70
     0
  3
------------ - - - ------------
 72
    65
 73
     8
 40
47
 49
40
 74
     0
 49
-1
 74
     0
 49
1
 74
     0
 49
-1
 74
     0
 49
1
 74
     0
 49
-1
 74
     0
 49
1
 74
     0
 49
-1
 74
     0
  0
LTYPE
  5
10F
100
AcDbSymbolTableRecord
100
AcDbLinetypeTableRecord
  2
ACAD_ISO14W100
 70
     0
  3
---- - - - -------- - - - -----
 72
    65
 73
     8
 40
27
 49
20
 74
     0
 49
-1
 74
     0
 49
1
 74
     0
 49
-1
 74
     0
 49
1
 74
     0
 49
-1
 74
     0
 49
1
 74
     0
 49
-1
 74
     0
  0
LTYPE
  5
110
100
AcDbSymbolTableRecord
100
AcDbLinetypeTableRecord
  2
ACAD_ISO11W100
 70
     0
  3
------- ------ - ------- ------
 72
    65
 73
     6
 40
44
 49
20
 74
     0
 49
-1
 74
     0
 49
20
 74
     0
 49
-1
 74
     0
 49
1
 74
     0
 49
-1
 74
     0
  0
LTYPE
  5
111
100
AcDbSymbolTableRecord
100
AcDbLinetypeTableRecord
  2
ACAD_ISO13W100
 70
     0
  3
------ ------ - - ------ ------
 72
    65
 73
     8
 40
46
 49
20
 74
     0
 49
-1
 74
     0
 49
20
 74
     0
 49
-1
 74
     0
 49
1
 74
     0
 49
-1
 74
     0
 49
1
 74
     0
 49
-1
 74
     0
  0
LTYPE
  5
112
100
AcDbSymbolTableRecord
100
AcDbLinetypeTableRecord
  2
ACAD_ISO15W100
 70
     0
  3
------ ----- - - - ------ -----
 72
    65
 73
    10
 40
48
 49
20
 74
     0
 49
-1
 74
     0
 49
20
 74
     0
 49
-1
 74
     0
 49
1
 74
     0
 49
-1
 74
     0
 49
1
 74
     0
 49
-1
 74
     0
 49
1
 74
     0
 49
-1
 74
     0
  0
LTYPE
  5
113
100
AcDbSymbolTableRecord
100
AcDbLinetypeTableRecord
  2
HIDDEN
 70
     0
  3
. . . . . . . . . . . . . . . .
 72
    65
 73
     2
 40
1.5
 49
1
 74
     0
 49
-0.5
 74
     0
  0
ENDTAB
  0
TABLE
  2
LAYER
  5
114
100
AcDbSymbolTable
 70
     1
  0
LAYER
  5
115
100
AcDbSymbolTableRecord
100
AcDbLayerTableRecord
  2
0
 70
     0
 62
     7
  6
CONTINUOUS
390
116
  0
LAYER
  5
117
100
AcDbSymbolTableRecord
100
AcDbLayerTableRecord
  2
レイヤ2
 70
     0
 62
     7
  6
CONTINUOUS
390
   278
  0
LAYER
  5
118
100
AcDbSymbolTableRecord
100
AcDbLayerTableRecord
  2
レイヤ3
 70
     0
 62
     7
  6
CONTINUOUS
390
   278
  0
LAYER
  5
119
100
AcDbSymbolTableRecord
100
AcDbLayerTableRecord
  2
レイヤ4
 70
     0
 62
     7
  6
CONTINUOUS
390
   278
  0
LAYER
  5
11A
100
AcDbSymbolTableRecord
100
AcDbLayerTableRecord
  2
レイヤ5
 70
     0
 62
     7
  6
CONTINUOUS
390
   278
  0
LAYER
  5
11B
100
AcDbSymbolTableRecord
100
AcDbLayerTableRecord
  2
レイヤ16
 70
     0
 62
     7
  6
CONTINUOUS
390
   278
  0
ENDTAB
  0
TABLE
  2
STYLE
  5
11C
100
AcDbSymbolTable
 70
     1
  0
STYLE
  5
11D
100
AcDbSymbolTableRecord
100
AcDbTextStyleTableRecord
  2
STANDARD
 70
     0
 40
0
 41
0
 50
0
 71
     0
 42
1
  3
txt
  4
bigfont
  0
STYLE
  5
11E
100
AcDbSymbolTableRecord
100
AcDbTextStyleTableRecord
  2
VSTANDARD
 70
     4
 40
0
 41
0
 50
0
 71
     0
 42
1
  3
txt
  4
bigfont
  0
ENDTAB
  0
TABLE
  2
VIEW
  5
11F
100
AcDbSymbolTable
 70
     0
  0
ENDTAB
  0
TABLE
  2
UCS
  5
120
100
AcDbSymbolTable
 70
     0
  0
ENDTAB
  0
TABLE
  2
APPID
  5
121
100
AcDbSymbolTable
 70
     1
  0
APPID
  5
122
100
AcDbSymbolTableRecord
100
AcDbRegAppTableRecord
  2
ACAD
 70
     0
  0
ENDTAB
  0
TABLE
  2
DIMSTYLE
  5
123
100
AcDbSymbolTable
 70
     1
100
AcDbDimStyleTable
 71
     0
  0
DIMSTYLE
105
124
100
AcDbSymbolTableRecord
100
AcDbDimStyleTableRecord
  2
M7DIMSTL
 70
     0
  3

  4

  5

  6

  7

 40
1
 41
2.5
 42
0.625
 43
3.75
 44
1.25
 45
0
 46
0
 47
0
 48
0
140
2.5
141
2.5
142
0
143
0.03937007874016
144
1
145
0
146
1
147
0.625
 71
     0
 72
     0
 73
     0
 74
     0
 75
     0
 76
     0
 77
     1
 78
     8
170
     0
171
     3
172
     1
173
     0
174
     0
175
     0
176
     0
177
     0
178
     0
270
     2
271
     2
272
     2
273
     2
274
     3
340
11D
275
     0
280
     0
281
     0
282
     0
283
     0
284
     8
285
     0
286
     0
287
     3
288
     0
  0
ENDTAB
  0
TABLE
  2
BLOCK_RECORD
  5
125
100
AcDbSymbolTable
 70
     2
  0
BLOCK_RECORD
  5
126
100
AcDbSymbolTableRecord
100
AcDbBlockTableRecord
  2
*MODEL_SPACE
  0
BLOCK_RECORD
  5
127
100
AcDbSymbolTableRecord
100
AcDbBlockTableRecord
  2
*PAPER_SPACE
  0
BLOCK_RECORD
  5
128
100
AcDbSymbolTableRecord
100
AcDbBlockTableRecord
  2
_DOT
  0
BLOCK_RECORD
  5
129
100
AcDbSymbolTableRecord
100
AcDbBlockTableRecord
  2
_OPEN30
  0
BLOCK_RECORD
  5
12A
100
AcDbSymbolTableRecord
100
AcDbBlockTableRecord
  2
_ClosedBlank
  0
BLOCK_RECORD
  5
12B
100
AcDbSymbolTableRecord
100
AcDbBlockTableRecord
  2
_Origin
  0
BLOCK_RECORD
  5
12C
100
AcDbSymbolTableRecord
100
AcDbBlockTableRecord
  2
_Oblique
  0
BLOCK_RECORD
  5
12D
100
AcDbSymbolTableRecord
100
AcDbBlockTableRecord
  2
_Origin2
  0
BLOCK_RECORD
  5
12E
100
AcDbSymbolTableRecord
100
AcDbBlockTableRecord
  2
_BoxBlank
  0
BLOCK_RECORD
  5
12F
100
AcDbSymbolTableRecord
100
AcDbBlockTableRecord
  2
_BoxFilled
  0
BLOCK_RECORD
  5
130
100
AcDbSymbolTableRecord
100
AcDbBlockTableRecord
  2
_Integral
  0
ENDTAB
  0
ENDSEC
  0
SECTION
  2
BLOCKS
  0
BLOCK
  5
131
100
AcDbEntity
  8
0
100
AcDbBlockBegin
  2
*MODEL_SPACE
 70
     0
 10
0
 20
0
  3
*MODEL_SPACE
  1

  0
ENDBLK
  5
132
100
AcDbEntity
  8
0
100
AcDbBlockEnd
  0
BLOCK
  5
133
100
AcDbEntity
 67
     1
  8
0
100
AcDbBlockBegin
  2
*PAPER_SPACE
 70
     0
 10
0
 20
0
  3
*PAPER_SPACE
  1

  0
ENDBLK
  5
134
100
AcDbEntity
 67
     1
  8
0
100
AcDbBlockEnd
  0
BLOCK
  5
135
100
AcDbEntity
 67
     1
  8
0
100
AcDbBlockBegin
  2
_DOT
 70
     0
 10
0
 20
0
  3
_DOT
  1

  0
LWPOLYLINE
  5
136
100
AcDbEntity
  8
0
  6
BYBLOCK
 62
     0
100
AcDbPolyline
 90
     2
 70
     1
 43
0.5
 10
-0.25
 20
0
 42
1
 10
0.25
 20
0
 42
1
  0
LINE
  5
137
100
AcDbEntity
  8
0
  6
BYBLOCK
 62
     0
100
AcDbLine
 10
-0.5
 20
0
 11
-1
 21
0
  0
ENDBLK
  5
138
100
AcDbEntity
  8
0
100
AcDbBlockEnd
  0
BLOCK
  5
139
100
AcDbEntity
 67
     1
  8
0
100
AcDbBlockBegin
  2
_OPEN30
 70
     0
 10
0
 20
0
  3
_OPEN30
  1

  0
LINE
  5
13A
100
AcDbEntity
  8
0
  6
BYBLOCK
 62
     0
100
AcDbLine
 10
-1
 20
0.26794919
 11
0
 21
0
  0
LINE
  5
13B
100
AcDbEntity
  8
0
  6
BYBLOCK
 62
     0
100
AcDbLine
 10
-1
 20
-0.26794919
 11
0
 21
0
  0
LINE
  5
13C
100
AcDbEntity
  8
0
  6
BYBLOCK
 62
     0
100
AcDbLine
 10
0
 20
0
 11
-1
 21
0
  0
ENDBLK
  5
13D
100
AcDbEntity
  8
0
100
AcDbBlockEnd
  0
BLOCK
  5
13E
100
AcDbEntity
 67
     1
  8
0
100
AcDbBlockBegin
  2
_ClosedBlank
 70
     0
 10
0
 20
0
  3
_ClosedBlank
  1

  0
LINE
  5
13F
100
AcDbEntity
  8
0
  6
BYBLOCK
 62
     0
100
AcDbLine
 10
-1
 20
0.1666666666667
 11
0
 21
0
  0
LINE
  5
140
100
AcDbEntity
  8
0
  6
BYBLOCK
 62
     0
100
AcDbLine
 10
0
 20
0
 11
-1
 21
-0.1666666666667
  0
LINE
  5
141
100
AcDbEntity
  8
0
  6
BYBLOCK
 62
     0
100
AcDbLine
 10
-1
 20
0.1666666666667
 11
-1
 21
-0.1666666666667
  0
ENDBLK
  5
142
100
AcDbEntity
  8
0
100
AcDbBlockEnd
  0
BLOCK
  5
143
100
AcDbEntity
 67
     1
  8
0
100
AcDbBlockBegin
  2
_Origin
 70
     0
 10
0
 20
0
  3
_Origin
  1

  0
CIRCLE
  5
144
100
AcDbEntity
  8
0
  6
BYBLOCK
 62
     0
100
AcDbCircle
 10
0
 20
0
 40
0.5
  0
LINE
  5
145
100
AcDbEntity
  8
0
  6
BYBLOCK
 62
     0
100
AcDbLine
 10
0
 20
0
 11
-1
 21
0
  0
ENDBLK
  5
146
100
AcDbEntity
  8
0
100
AcDbBlockEnd
  0
BLOCK
  5
147
100
AcDbEntity
 67
     1
  8
0
100
AcDbBlockBegin
  2
_Oblique
 70
     0
 10
0
 20
0
  3
_Oblique
  1

  0
LINE
  5
148
100
AcDbEntity
  8
0
  6
BYBLOCK
 62
     0
100
AcDbLine
 10
-0.5
 20
-0.5
 11
0.5
 21
0.5
  0
ENDBLK
  5
149
100
AcDbEntity
  8
0
100
AcDbBlockEnd
  0
BLOCK
  5
14A
100
AcDbEntity
 67
     1
  8
0
100
AcDbBlockBegin
  2
_Origin2
 70
     0
 10
0
 20
0
  3
_Origin2
  1

  0
CIRCLE
  5
14B
100
AcDbEntity
  8
0
  6
BYBLOCK
 62
     0
100
AcDbCircle
 10
0
 20
0
 40
0.5
  0
CIRCLE
  5
14C
100
AcDbEntity
  8
0
  6
BYBLOCK
 62
     0
100
AcDbCircle
 10
0
 20
0
 40
0.25
  0
LINE
  5
14D
100
AcDbEntity
  8
0
  6
BYBLOCK
 62
     0
100
AcDbLine
 10
-0.5
 20
0
 11
-1
 21
0
  0
ENDBLK
  5
14E
100
AcDbEntity
  8
0
100
AcDbBlockEnd
  0
BLOCK
  5
14F
100
AcDbEntity
 67
     1
  8
0
100
AcDbBlockBegin
  2
_BoxBlank
 70
     0
 10
0
 20
0
  3
_BoxBlank
  1

  0
LINE
  5
150
100
AcDbEntity
  8
0
  6
BYBLOCK
 62
     0
100
AcDbLine
 10
-0.5
 20
-0.5
 11
0.5
 21
-0.5
  0
LINE
  5
151
100
AcDbEntity
  8
0
  6
BYBLOCK
 62
     0
100
AcDbLine
 10
0.5
 20
-0.5
 11
0.5
 21
0.5
  0
LINE
  5
152
100
AcDbEntity
  8
0
  6
BYBLOCK
 62
     0
100
AcDbLine
 10
0.5
 20
0.5
 11
-0.5
 21
0.5
  0
LINE
  5
153
100
AcDbEntity
  8
0
  6
BYBLOCK
 62
     0
100
AcDbLine
 10
-0.5
 20
0.5
 11
-0.5
 21
-0.5
  0
LINE
  5
154
100
AcDbEntity
  8
0
  6
BYBLOCK
 62
     0
100
AcDbLine
 10
-0.5
 20
0
 11
-1
 21
0
  0
ENDBLK
  5
155
100
AcDbEntity
  8
0
100
AcDbBlockEnd
  0
BLOCK
  5
156
100
AcDbEntity
 67
     1
  8
0
100
AcDbBlockBegin
  2
_BoxFilled
 70
     0
 10
0
 20
0
  3
_BoxFilled
  1

  0
SOLID
  5
157
100
AcDbEntity
  8
0
  6
BYBLOCK
 62
     0
100
AcDbTrace
 10
-0.5
 20
0.5
 11
0.5
 21
0.5
 12
-0.5
 22
-0.5
 13
0.5
 23
-0.5
  0
LINE
  5
158
100
AcDbEntity
  8
0
  6
BYBLOCK
 62
     0
100
AcDbLine
 10
-0.5
 20
0
 11
-1
 21
0
  0
ENDBLK
  5
159
100
AcDbEntity
  8
0
100
AcDbBlockEnd
  0
BLOCK
  5
15A
100
AcDbEntity
 67
     1
  8
0
100
AcDbBlockBegin
  2
_Integral
 70
     0
 10
0
 20
0
  3
_Integral
  1

  0
ARC
  5
15B
100
AcDbEntity
  8
0
  6
BYBLOCK
 62
     0
100
AcDbCircle
 10
0.44488802
 20
-0.09133463
 40
0.45416667
100
AcDbArc
 50
101.999999998
 51
167.9999999799
  0
ARC
  5
15C
100
AcDbEntity
  8
0
  6
BYBLOCK
 62
     0
100
AcDbCircle
 10
-0.44488802
 20
0.09133463
 40
0.45416667
100
AcDbArc
 50
282.0000000215
 51
348.0000000034
  0
ENDBLK
  5
15D
100
AcDbEntity
  8
0
100
AcDbBlockEnd
  0
ENDSEC
  0
SECTION
  2
ENTITIES
  0
LINE
  5
15E
100
AcDbEntity
  8
レイヤ4
  6
CONTINUOUS
 62
     4
100
AcDbLine
 10
204.6652212652
 20
-162.9704811266
 11
-17.33590073482
 21
-162.9704811266
  0
LINE
  5
15F
100
AcDbEntity
  8
レイヤ4
  6
CONTINUOUS
 62
     4
100
AcDbLine
 10
-17.33590073482
 20
-187.8024501265
 11
204.6652212652
 21
-187.8024501265
  0
LINE
  5
160
100
AcDbEntity
  8
レイヤ4
  6
CONTINUOUS
 62
     4
100
AcDbLine
 10
-17.33590073482
 20
-162.9704811266
 11
-17.33590073482
 21
-187.8024501265
  0
LINE
  5
161
100
AcDbEntity
  8
レイヤ4
  6
CONTINUOUS
 62
     4
100
AcDbLine
 10
204.6652212652
 20
-187.8024501265
 11
204.6652212652
 21
-162.9704811266
  0
LINE
  5
162
100
AcDbEntity
  8
レイヤ2
  6
CONTINUOUS
 62
     3
100
AcDbLine
 10
291.3283233513
 20
-97.17418912105
 11
292.3283223513
 21
-97.17418912105
  0
LINE
  5
163
100
AcDbEntity
  8
レイヤ2
  6
CONTINUOUS
 62
     3
100
AcDbLine
 10
255.7283223513
 20
-36.07419112109
 11
268.9283223513
 21
-36.07419112109
  0
LINE
  5
164
100
AcDbEntity
  8
レイヤ2
  6
CONTINUOUS
 62
     3
100
AcDbLine
 10
281.8283223513
 20
-51.17419012109
 11
245.3283213513
 21
-51.17419012109
  0
ARC
  5
165
100
AcDbEntity
  8
レイヤ2
  6
CONTINUOUS
 62
     3
100
AcDbCircle
 10
245.3283213513
 20
-48.17419012109
 40
3
100
AcDbArc
 50
180
 51
270
  0
LINE
  5
166
100
AcDbEntity
  8
レイヤ2
  6
CONTINUOUS
 62
     3
100
AcDbLine
 10
242.3283213513
 20
-48.17419012109
 11
242.3283213513
 21
-47.17419112109
  0
LINE
  5
167
100
AcDbEntity
  8
レイヤ2
  6
CONTINUOUS
 62
     3
100
AcDbLine
 10
241.3283223513
 20
-43.17418912109
 11
281.8283223513
 21
-43.17418912109
  0
LINE
  5
168
100
AcDbEntity
  8
レイヤ2
  6
CONTINUOUS
 62
     3
100
AcDbLine
 10
281.8283223513
 20
-47.17419112109
 11
232.3283223513
 21
-47.17419112109
  0
LINE
  5
169
100
AcDbEntity
  8
レイヤ2
  6
CONTINUOUS
 62
     3
100
AcDbLine
 10
253.8283233513
 20
-41.57419012109
 11
270.8283213513
 21
-41.57419012109
  0
LINE
  5
16A
100
AcDbEntity
  8
レイヤ2
  6
CONTINUOUS
 62
     3
100
AcDbLine
 10
270.1683213513
 20
-36.77536612109
 11
270.1683213513
 21
-41.67418912109
  0
LINE
  5
16B
100
AcDbEntity
  8
レイヤ2
  6
CONTINUOUS
 62
     3
100
AcDbLine
 10
268.9283223513
 20
-36.07419112109
 11
270.1683213513
 21
-36.77536612109
  0
ARC
  5
16C
100
AcDbEntity
  8
レイヤ2
  6
CONTINUOUS
 62
     3
100
AcDbCircle
 10
281.8283223513
 20
-57.67419112109
 40
6.500001
100
AcDbArc
 50
0
 51
90
  0
LINE
  5
16D
100
AcDbEntity
  8
レイヤ2
  6
CONTINUOUS
 62
     3
100
AcDbLine
 10
282.3283233513
 20
-46.67419012109
 11
282.3283233513
 21
-43.67419012109
  0
ARC
  5
16E
100
AcDbEntity
  8
レイヤ2
  6
CONTINUOUS
 62
     3
100
AcDbCircle
 10
281.8283223513
 20
-46.67419012109
 40
0.500001
100
AcDbArc
 50
-90
 51
0
  0
ARC
  5
16F
100
AcDbEntity
  8
レイヤ2
  6
CONTINUOUS
 62
     3
100
AcDbCircle
 10
281.8283223513
 20
-43.67419012109
 40
0.500001
100
AcDbArc
 50
0
 51
90
  0
LINE
  5
170
100
AcDbEntity
  8
レイヤ2
  6
CONTINUOUS
 62
     3
100
AcDbLine
 10
270.8283213513
 20
-41.57419012109
 11
270.8283213513
 21
-43.17418912109
  0
LINE
  5
171
100
AcDbEntity
  8
レイヤ2
  6
CONTINUOUS
 62
     3
100
AcDbLine
 10
231.8283213513
 20
-20.17419112109
 11
229.3283223513
 21
-20.17419112109
  0
LINE
  5
172
100
AcDbEntity
  8
レイヤ2
  6
CONTINUOUS
 62
     3
100
AcDbLine
 10
231.8283213513
 20
-8.17419112109
 11
231.8283213513
 21
-20.17419112109
  0
LINE
  5
173
100
AcDbEntity
  8
レイヤ2
  6
CONTINUOUS
 62
     3
100
AcDbLine
 10
229.3283223513
 20
-8.17419112109
 11
231.8283213513
 21
-8.17419112109
  0
LINE
  5
174
100
AcDbEntity
  8
レイヤ2
  6
CONTINUOUS
 62
     3
100
AcDbLine
 10
253.8283233513
 20
-17.17419112109
 11
254.3283213513
 21
-16.67419012109
  0
LINE
  5
175
100
AcDbEntity
  8
レイヤ2
  6
CONTINUOUS
 62
     3
100
AcDbLine
 10
244.2283233513
 20
-17.17419112109
 11
253.8283233513
 21
-17.17419112109
  0
LINE
  5
176
100
AcDbEntity
  8
レイヤ2
  6
CONTINUOUS
 62
     3
100
AcDbLine
 10
254.3283213513
 20
-11.67418912109
 11
254.3283213513
 21
-16.67419012109
  0
LINE
  5
177
100
AcDbEntity
  8
レイヤ2
  6
CONTINUOUS
 62
     3
100
AcDbLine
 10
253.8283233513
 20
-11.17419112109
 11
254.3283213513
 21
-11.67418912109
  0
LINE
  5
178
100
AcDbEntity
  8
レイヤ2
  6
CONTINUOUS
 62
     3
100
AcDbLine
 10
244.2283233513
 20
-11.17419112109
 11
253.8283233513
 21
-11.17419112109
  0
LINE
  5
179
100
AcDbEntity
  8
レイヤ2
  6
CONTINUOUS
 62
     3
100
AcDbLine
 10
254.4883233513
 20
-36.79010512109
 11
254.4883233513
 21
-41.67418912109
  0
LINE
  5
17A
100
AcDbEntity
  8
レイヤ2
  6
CONTINUOUS
 62
     3
100
AcDbLine
 10
258.3283233513
 20
-36.77536612109
 11
258.3283233513
 21
-41.67418912109
  0
LINE
  5
17B
100
AcDbEntity
  8
レイヤ2
  6
CONTINUOUS
 62
     3
100
AcDbLine
 10
266.3283213513
 20
-36.77536612109
 11
266.3283213513
 21
-41.67418912109
  0
LINE
  5
17C
100
AcDbEntity
  8
レイヤ2
  6
CONTINUOUS
 62
     3
100
AcDbLine
 10
254.4883233513
 20
-36.79010512109
 11
255.7283223513
 21
-36.07419112109
  0
ARC
  5
17D
100
AcDbEntity
  8
レイヤ2
  6
CONTINUOUS
 62
     3
100
AcDbCircle
 10
256.3318443513
 20
-39.00735712109
 40
2.994615
100
AcDbArc
 50
48.187928
 51
78.373205
  0
ARC
  5
17E
100
AcDbEntity
  8
レイヤ2
  6
CONTINUOUS
 62
     3
100
AcDbCircle
 10
268.3248003513
 20
-39.00735712109
 40
2.994615
100
AcDbArc
 50
101.626795
 51
131.812072
  0
ARC
  5
17F
100
AcDbEntity
  8
レイヤ2
  6
CONTINUOUS
 62
     3
100
AcDbCircle
 10
262.3283223513
 20
-47.83419112109
 40
11.76
100
AcDbArc
 50
70.114837
 51
109.885163
  0
ARC
  5
180
100
AcDbEntity
  8
レイヤ2
  6
CONTINUOUS
 62
     3
100
AcDbCircle
 10
241.9363233513
 20
-9.72694012109
 40
2.292
100
AcDbArc
 50
-39.156132
 51
0
  0
ARC
  5
181
100
AcDbEntity
  8
レイヤ2
  6
CONTINUOUS
 62
     3
100
AcDbCircle
 10
235.2283233513
 20
-14.17419112109
 40
9
100
AcDbArc
 50
0
 51
19.471221
  0
LINE
  5
182
100
AcDbEntity
  8
レイヤ2
  6
CONTINUOUS
 62
     3
100
AcDbLine
 10
243.6863943513
 20
-8.17419112109
 11
244.2283233513
 21
-9.11283712109
  0
LINE
  5
183
100
AcDbEntity
  8
レイヤ2
  6
CONTINUOUS
 62
     3
100
AcDbLine
 10
243.6863943513
 20
-8.17419112109
 11
239.4283233513
 21
-8.17419112109
  0
LINE
  5
184
100
AcDbEntity
  8
レイヤ2
  6
CONTINUOUS
 62
     3
100
AcDbLine
 10
243.7136043513
 20
-11.17419112109
 11
239.4283233513
 21
-11.17419112109
  0
ARC
  5
185
100
AcDbEntity
  8
レイヤ2
  6
CONTINUOUS
 62
     3
100
AcDbCircle
 10
241.9363233513
 20
-18.62144212109
 40
2.292
100
AcDbArc
 50
0
 51
39.156132
  0
ARC
  5
186
100
AcDbEntity
  8
レイヤ2
  6
CONTINUOUS
 62
     3
100
AcDbCircle
 10
235.2283233513
 20
-14.17419112109
 40
9
100
AcDbArc
 50
-19.471221
 51
0
  0
LINE
  5
187
100
AcDbEntity
  8
レイヤ2
  6
CONTINUOUS
 62
     3
100
AcDbLine
 10
243.6863943513
 20
-20.17419112109
 11
239.4283233513
 21
-20.17419112109
  0
LINE
  5
188
100
AcDbEntity
  8
レイヤ2
  6
CONTINUOUS
 62
     3
100
AcDbLine
 10
243.7136043513
 20
-17.17419112109
 11
239.4283233513
 21
-17.17419112109
  0
LINE
  5
189
100
AcDbEntity
  8
レイヤ2
  6
CONTINUOUS
 62
     3
100
AcDbLine
 10
239.4283233513
 20
-14.17419112109
 11
239.4283233513
 21
-8.07418912109
  0
LINE
  5
18A
100
AcDbEntity
  8
レイヤ2
  6
CONTINUOUS
 62
     3
100
AcDbLine
 10
239.4283233513
 20
-20.27419012109
 11
239.4283233513
 21
-14.17419112109
  0
LINE
  5
18B
100
AcDbEntity
  8
レイヤ2
  6
CONTINUOUS
 62
     3
100
AcDbLine
 10
239.4283233513
 20
-14.17419112109
 11
237.9283233513
 21
-12.67419112109
  0
LINE
  5
18C
100
AcDbEntity
  8
レイヤ2
  6
CONTINUOUS
 62
     3
100
AcDbLine
 10
237.9283233513
 20
-14.17419112109
 11
239.4283233513
 21
-15.67419112109
  0
LINE
  5
18D
100
AcDbEntity
  8
レイヤ2
  6
CONTINUOUS
 62
     3
100
AcDbLine
 10
237.9283233513
 20
-8.07418912109
 11
239.4283233513
 21
-8.07418912109
  0
LINE
  5
18E
100
AcDbEntity
  8
レイヤ2
  6
CONTINUOUS
 62
     3
100
AcDbLine
 10
237.9283233513
 20
-20.42419012109
 11
236.3283213513
 21
-20.42419012109
  0
LINE
  5
18F
100
AcDbEntity
  8
レイヤ2
  6
CONTINUOUS
 62
     3
100
AcDbLine
 10
237.9283233513
 20
-7.92418912109
 11
236.3283213513
 21
-7.92418912109
  0
LINE
  5
190
100
AcDbEntity
  8
レイヤ2
  6
CONTINUOUS
 62
     3
100
AcDbLine
 10
237.9283233513
 20
-20.42419012109
 11
237.9283233513
 21
-7.92418912109
  0
LINE
  5
191
100
AcDbEntity
  8
レイヤ2
  6
CONTINUOUS
 62
     3
100
AcDbLine
 10
239.4283233513
 20
-20.27419012109
 11
237.9283233513
 21
-20.27419012109
  0
ARC
  5
192
100
AcDbEntity
  8
レイヤ2
  6
CONTINUOUS
 62
     3
100
AcDbCircle
 10
241.3283223513
 20
-38.17419112109
 40
5.000001
100
AcDbArc
 50
180
 51
270
  0
LINE
  5
193
100
AcDbEntity
  8
レイヤ2
  6
CONTINUOUS
 62
     3
100
AcDbLine
 10
244.2283233513
 20
-19.23554512109
 11
243.6863943513
 21
-20.17419112109
  0
LINE
  5
194
100
AcDbEntity
  8
レイヤ2
  6
CONTINUOUS
 62
     3
100
AcDbLine
 10
244.2283233513
 20
-9.11283712109
 11
244.2283233513
 21
-19.23554512109
  0
LINE
  5
195
100
AcDbEntity
  8
レイヤ2
  6
CONTINUOUS
 62
     3
100
AcDbLine
 10
253.8283233513
 20
-43.17418912109
 11
253.8283233513
 21
-41.57419012109
  0
LINE
  5
196
100
AcDbEntity
  8
レイヤ2
  6
CONTINUOUS
 62
     3
100
AcDbLine
 10
231.8283213513
 20
-17.17419112109
 11
236.3283213513
 21
-17.17419112109
  0
LINE
  5
197
100
AcDbEntity
  8
レイヤ2
  6
CONTINUOUS
 62
     3
100
AcDbLine
 10
236.3283213513
 20
-11.17419112109
 11
231.8283213513
 21
-11.17419112109
  0
LINE
  5
198
100
AcDbEntity
  8
レイヤ2
  6
CONTINUOUS
 62
     3
100
AcDbLine
 10
242.3283213513
 20
-47.17419112109
 11
292.3283223513
 21
-47.17419112109
  0
LINE
  5
199
100
AcDbEntity
  8
レイヤ2
  6
CONTINUOUS
 62
     3
100
AcDbLine
 10
288.3283233513
 20
-57.67419112109
 11
288.3283233513
 21
-94.17418912105
  0
ARC
  5
19A
100
AcDbEntity
  8
レイヤ2
  6
CONTINUOUS
 62
     3
100
AcDbCircle
 10
291.3283233513
 20
-94.17418912105
 40
3
100
AcDbArc
 50
180
 51
270
  0
LINE
  5
19B
100
AcDbEntity
  8
レイヤ2
  6
CONTINUOUS
 62
     3
100
AcDbLine
 10
235.8283233513
 20
2.82580987891
 11
232.8283233513
 21
2.82580987891
  0
ARC
  5
19C
100
AcDbEntity
  8
レイヤ2
  6
CONTINUOUS
 62
     3
100
AcDbCircle
 10
235.8283233513
 20
2.32580887891
 40
0.500001
100
AcDbArc
 50
0
 51
90
  0
ARC
  5
19D
100
AcDbEntity
  8
レイヤ2
  6
CONTINUOUS
 62
     3
100
AcDbCircle
 10
232.8283233513
 20
2.32580887891
 40
0.500001
100
AcDbArc
 50
90
 51
180
  0
LINE
  5
19E
100
AcDbEntity
  8
レイヤ2
  6
CONTINUOUS
 62
     3
100
AcDbLine
 10
236.3283213513
 20
-38.17419112109
 11
236.3283213513
 21
2.32580887891
  0
LINE
  5
19F
100
AcDbEntity
  8
レイヤ2
  6
CONTINUOUS
 62
     3
100
AcDbLine
 10
255.7283223513
 20
113.9258088789
 11
268.9283223513
 21
113.9258088789
  0
LINE
  5
1A0
100
AcDbEntity
  8
レイヤ2
  6
CONTINUOUS
 62
     3
100
AcDbLine
 10
281.8283223513
 20
98.82580987891
 11
245.3283213513
 21
98.82580987891
  0
ARC
  5
1A1
100
AcDbEntity
  8
レイヤ2
  6
CONTINUOUS
 62
     3
100
AcDbCircle
 10
245.3283213513
 20
101.8258098789
 40
3
100
AcDbArc
 50
180
 51
270
  0
LINE
  5
1A2
100
AcDbEntity
  8
レイヤ2
  6
CONTINUOUS
 62
     3
100
AcDbLine
 10
242.3283213513
 20
101.8258098789
 11
242.3283213513
 21
102.8258088789
  0
LINE
  5
1A3
100
AcDbEntity
  8
レイヤ2
  6
CONTINUOUS
 62
     3
100
AcDbLine
 10
241.3283223513
 20
106.8258108789
 11
281.8283223513
 21
106.8258108789
  0
LINE
  5
1A4
100
AcDbEntity
  8
レイヤ2
  6
CONTINUOUS
 62
     3
100
AcDbLine
 10
281.8283223513
 20
102.8258088789
 11
232.3283223513
 21
102.8258088789
  0
LINE
  5
1A5
100
AcDbEntity
  8
レイヤ2
  6
CONTINUOUS
 62
     3
100
AcDbLine
 10
253.8283233513
 20
108.4258098789
 11
270.8283213513
 21
108.4258098789
  0
LINE
  5
1A6
100
AcDbEntity
  8
レイヤ2
  6
CONTINUOUS
 62
     3
100
AcDbLine
 10
270.1683213513
 20
113.2246338789
 11
270.1683213513
 21
108.3258108789
  0
LINE
  5
1A7
100
AcDbEntity
  8
レイヤ2
  6
CONTINUOUS
 62
     3
100
AcDbLine
 10
268.9283223513
 20
113.9258088789
 11
270.1683213513
 21
113.2246338789
  0
ARC
  5
1A8
100
AcDbEntity
  8
レイヤ2
  6
CONTINUOUS
 62
     3
100
AcDbCircle
 10
281.8283223513
 20
92.32580887891
 40
6.500001
100
AcDbArc
 50
0
 51
90
  0
LINE
  5
1A9
100
AcDbEntity
  8
レイヤ2
  6
CONTINUOUS
 62
     3
100
AcDbLine
 10
282.3283233513
 20
103.3258098789
 11
282.3283233513
 21
106.3258098789
  0
ARC
  5
1AA
100
AcDbEntity
  8
レイヤ2
  6
CONTINUOUS
 62
     3
100
AcDbCircle
 10
281.8283223513
 20
103.3258098789
 40
0.500001
100
AcDbArc
 50
-90
 51
0
  0
ARC
  5
1AB
100
AcDbEntity
  8
レイヤ2
  6
CONTINUOUS
 62
     3
100
AcDbCircle
 10
281.8283223513
 20
106.3258098789
 40
0.500001
100
AcDbArc
 50
0
 51
90
  0
LINE
  5
1AC
100
AcDbEntity
  8
レイヤ2
  6
CONTINUOUS
 62
     3
100
AcDbLine
 10
270.8283213513
 20
108.4258098789
 11
270.8283213513
 21
106.8258108789
  0
LINE
  5
1AD
100
AcDbEntity
  8
レイヤ2
  6
CONTINUOUS
 62
     3
100
AcDbLine
 10
231.8283213513
 20
129.8258088789
 11
229.3283223513
 21
129.8258088789
  0
LINE
  5
1AE
100
AcDbEntity
  8
レイヤ2
  6
CONTINUOUS
 62
     3
100
AcDbLine
 10
231.8283213513
 20
141.825808879
 11
231.8283213513
 21
129.8258088789
  0
LINE
  5
1AF
100
AcDbEntity
  8
レイヤ2
  6
CONTINUOUS
 62
     3
100
AcDbLine
 10
229.3283223513
 20
141.825808879
 11
231.8283213513
 21
141.825808879
  0
LINE
  5
1B0
100
AcDbEntity
  8
レイヤ2
  6
CONTINUOUS
 62
     3
100
AcDbLine
 10
253.8283233513
 20
132.825808879
 11
254.3283213513
 21
133.325809879
  0
LINE
  5
1B1
100
AcDbEntity
  8
レイヤ2
  6
CONTINUOUS
 62
     3
100
AcDbLine
 10
244.2283233513
 20
132.825808879
 11
253.8283233513
 21
132.825808879
  0
LINE
  5
1B2
100
AcDbEntity
  8
レイヤ2
  6
CONTINUOUS
 62
     3
100
AcDbLine
 10
254.3283213513
 20
138.3258108789
 11
254.3283213513
 21
133.325809879
  0
LINE
  5
1B3
100
AcDbEntity
  8
レイヤ2
  6
CONTINUOUS
 62
     3
100
AcDbLine
 10
253.8283233513
 20
138.825808879
 11
254.3283213513
 21
138.3258108789
  0
LINE
  5
1B4
100
AcDbEntity
  8
レイヤ2
  6
CONTINUOUS
 62
     3
100
AcDbLine
 10
244.2283233513
 20
138.825808879
 11
253.8283233513
 21
138.825808879
  0
LINE
  5
1B5
100
AcDbEntity
  8
レイヤ2
  6
CONTINUOUS
 62
     3
100
AcDbLine
 10
254.4883233513
 20
113.2098948789
 11
254.4883233513
 21
108.3258108789
  0
LINE
  5
1B6
100
AcDbEntity
  8
レイヤ2
  6
CONTINUOUS
 62
     3
100
AcDbLine
 10
258.3283233513
 20
113.2246338789
 11
258.3283233513
 21
108.3258108789
  0
LINE
  5
1B7
100
AcDbEntity
  8
レイヤ2
  6
CONTINUOUS
 62
     3
100
AcDbLine
 10
266.3283213513
 20
113.2246338789
 11
266.3283213513
 21
108.3258108789
  0
LINE
  5
1B8
100
AcDbEntity
  8
レイヤ2
  6
CONTINUOUS
 62
     3
100
AcDbLine
 10
254.4883233513
 20
113.2098948789
 11
255.7283223513
 21
113.9258088789
  0
ARC
  5
1B9
100
AcDbEntity
  8
レイヤ2
  6
CONTINUOUS
 62
     3
100
AcDbCircle
 10
256.3318443513
 20
110.9926428789
 40
2.994615
100
AcDbArc
 50
48.187928
 51
78.373205
  0
ARC
  5
1BA
100
AcDbEntity
  8
レイヤ2
  6
CONTINUOUS
 62
     3
100
AcDbCircle
 10
268.3248003513
 20
110.9926428789
 40
2.994615
100
AcDbArc
 50
101.626795
 51
131.812072
  0
ARC
  5
1BB
100
AcDbEntity
  8
レイヤ2
  6
CONTINUOUS
 62
     3
100
AcDbCircle
 10
262.3283223513
 20
102.1658088789
 40
11.76
100
AcDbArc
 50
70.114837
 51
109.885163
  0
ARC
  5
1BC
100
AcDbEntity
  8
レイヤ2
  6
CONTINUOUS
 62
     3
100
AcDbCircle
 10
241.9363233513
 20
140.2730598789
 40
2.292
100
AcDbArc
 50
-39.156132
 51
0
  0
ARC
  5
1BD
100
AcDbEntity
  8
レイヤ2
  6
CONTINUOUS
 62
     3
100
AcDbCircle
 10
235.2283233513
 20
135.825808879
 40
9
100
AcDbArc
 50
0
 51
19.471221
  0
LINE
  5
1BE
100
AcDbEntity
  8
レイヤ2
  6
CONTINUOUS
 62
     3
100
AcDbLine
 10
243.6863943513
 20
141.825808879
 11
244.2283233513
 21
140.8871628789
  0
LINE
  5
1BF
100
AcDbEntity
  8
レイヤ2
  6
CONTINUOUS
 62
     3
100
AcDbLine
 10
243.6863943513
 20
141.825808879
 11
239.4283233513
 21
141.825808879
  0
LINE
  5
1C0
100
AcDbEntity
  8
レイヤ2
  6
CONTINUOUS
 62
     3
100
AcDbLine
 10
243.7136043513
 20
138.825808879
 11
239.4283233513
 21
138.825808879
  0
ARC
  5
1C1
100
AcDbEntity
  8
レイヤ2
  6
CONTINUOUS
 62
     3
100
AcDbCircle
 10
241.9363233513
 20
131.3785578789
 40
2.292
100
AcDbArc
 50
0
 51
39.156132
  0
ARC
  5
1C2
100
AcDbEntity
  8
レイヤ2
  6
CONTINUOUS
 62
     3
100
AcDbCircle
 10
235.2283233513
 20
135.825808879
 40
9
100
AcDbArc
 50
-19.471221
 51
0
  0
LINE
  5
1C3
100
AcDbEntity
  8
レイヤ2
  6
CONTINUOUS
 62
     3
100
AcDbLine
 10
243.6863943513
 20
129.8258088789
 11
239.4283233513
 21
129.8258088789
  0
LINE
  5
1C4
100
AcDbEntity
  8
レイヤ2
  6
CONTINUOUS
 62
     3
100
AcDbLine
 10
243.7136043513
 20
132.825808879
 11
239.4283233513
 21
132.825808879
  0
LINE
  5
1C5
100
AcDbEntity
  8
レイヤ2
  6
CONTINUOUS
 62
     3
100
AcDbLine
 10
239.4283233513
 20
135.825808879
 11
239.4283233513
 21
141.925810879
  0
LINE
  5
1C6
100
AcDbEntity
  8
レイヤ2
  6
CONTINUOUS
 62
     3
100
AcDbLine
 10
239.4283233513
 20
129.7258098789
 11
239.4283233513
 21
135.825808879
  0
LINE
  5
1C7
100
AcDbEntity
  8
レイヤ2
  6
CONTINUOUS
 62
     3
100
AcDbLine
 10
239.4283233513
 20
135.825808879
 11
237.9283233513
 21
137.325808879
  0
LINE
  5
1C8
100
AcDbEntity
  8
レイヤ2
  6
CONTINUOUS
 62
     3
100
AcDbLine
 10
237.9283233513
 20
135.825808879
 11
239.4283233513
 21
134.325808879
  0
LINE
  5
1C9
100
AcDbEntity
  8
レイヤ2
  6
CONTINUOUS
 62
     3
100
AcDbLine
 10
237.9283233513
 20
141.925810879
 11
239.4283233513
 21
141.925810879
  0
LINE
  5
1CA
100
AcDbEntity
  8
レイヤ2
  6
CONTINUOUS
 62
     3
100
AcDbLine
 10
237.9283233513
 20
129.5758098789
 11
236.3283213513
 21
129.5758098789
  0
LINE
  5
1CB
100
AcDbEntity
  8
レイヤ2
  6
CONTINUOUS
 62
     3
100
AcDbLine
 10
237.9283233513
 20
142.0758108789
 11
236.3283213513
 21
142.0758108789
  0
LINE
  5
1CC
100
AcDbEntity
  8
レイヤ2
  6
CONTINUOUS
 62
     3
100
AcDbLine
 10
237.9283233513
 20
129.5758098789
 11
237.9283233513
 21
142.0758108789
  0
LINE
  5
1CD
100
AcDbEntity
  8
レイヤ2
  6
CONTINUOUS
 62
     3
100
AcDbLine
 10
239.4283233513
 20
129.7258098789
 11
237.9283233513
 21
129.7258098789
  0
LINE
  5
1CE
100
AcDbEntity
  8
レイヤ2
  6
CONTINUOUS
 62
     3
100
AcDbLine
 10
236.3283213513
 20
111.8258088789
 11
236.3283213513
 21
152.325808879
  0
ARC
  5
1CF
100
AcDbEntity
  8
レイヤ2
  6
CONTINUOUS
 62
     3
100
AcDbCircle
 10
241.3283223513
 20
111.8258088789
 40
5.000001
100
AcDbArc
 50
180
 51
270
  0
LINE
  5
1D0
100
AcDbEntity
  8
レイヤ2
  6
CONTINUOUS
 62
     3
100
AcDbLine
 10
235.8283233513
 20
152.825809879
 11
232.8283233513
 21
152.825809879
  0
ARC
  5
1D1
100
AcDbEntity
  8
レイヤ2
  6
CONTINUOUS
 62
     3
100
AcDbCircle
 10
235.8283233513
 20
152.325808879
 40
0.500001
100
AcDbArc
 50
0
 51
90
  0
ARC
  5
1D2
100
AcDbEntity
  8
レイヤ2
  6
CONTINUOUS
 62
     3
100
AcDbCircle
 10
232.8283233513
 20
152.325808879
 40
0.500001
100
AcDbArc
 50
90
 51
180
  0
LINE
  5
1D3
100
AcDbEntity
  8
レイヤ2
  6
CONTINUOUS
 62
     3
100
AcDbLine
 10
244.2283233513
 20
130.7644548789
 11
243.6863943513
 21
129.8258088789
  0
LINE
  5
1D4
100
AcDbEntity
  8
レイヤ2
  6
CONTINUOUS
 62
     3
100
AcDbLine
 10
244.2283233513
 20
140.8871628789
 11
244.2283233513
 21
130.7644548789
  0
LINE
  5
1D5
100
AcDbEntity
  8
レイヤ2
  6
CONTINUOUS
 62
     3
100
AcDbLine
 10
253.8283233513
 20
106.8258108789
 11
253.8283233513
 21
108.4258098789
  0
LINE
  5
1D6
100
AcDbEntity
  8
レイヤ2
  6
CONTINUOUS
 62
     3
100
AcDbLine
 10
231.8283213513
 20
132.825808879
 11
236.3283213513
 21
132.825808879
  0
LINE
  5
1D7
100
AcDbEntity
  8
レイヤ2
  6
CONTINUOUS
 62
     3
100
AcDbLine
 10
236.3283213513
 20
138.825808879
 11
231.8283213513
 21
138.825808879
  0
LINE
  5
1D8
100
AcDbEntity
  8
レイヤ2
  6
CONTINUOUS
 62
     3
100
AcDbLine
 10
242.3283213513
 20
102.8258088789
 11
292.3283223513
 21
102.8258088789
  0
LINE
  5
1D9
100
AcDbEntity
  8
レイヤ2
  6
CONTINUOUS
 62
     3
100
AcDbLine
 10
288.3283233513
 20
92.32580887891
 11
288.3283233513
 21
55.82581087891
  0
ARC
  5
1DA
100
AcDbEntity
  8
レイヤ2
  6
CONTINUOUS
 62
     3
100
AcDbCircle
 10
291.3283233513
 20
55.82581087891
 40
3
100
AcDbArc
 50
180
 51
270
  0
LINE
  5
1DB
100
AcDbEntity
  8
レイヤ2
  6
CONTINUOUS
 62
     3
100
AcDbLine
 10
291.3283233513
 20
52.82581087891
 11
292.3283223513
 21
52.82581087891
  0
LINE
  5
1DC
100
AcDbEntity
  8
レイヤ2
  6
CONTINUOUS
 62
     3
100
AcDbLine
 10
566.3993913513
 20
233.396878879
 11
566.3993913513
 21
269.896876879
  0
ARC
  5
1DD
100
AcDbEntity
  8
レイヤ2
  6
CONTINUOUS
 62
     3
100
AcDbCircle
 10
563.3993913513
 20
269.896876879
 40
3
100
AcDbArc
 50
0
 51
90
  0
LINE
  5
1DE
100
AcDbEntity
  8
レイヤ2
  6
CONTINUOUS
 62
     3
100
AcDbLine
 10
563.3993913513
 20
272.896876879
 11
562.3993893513
 21
272.896876879
  0
LINE
  5
1DF
100
AcDbEntity
  8
レイヤ2
  6
CONTINUOUS
 62
     3
100
AcDbLine
 10
562.3993893513
 20
272.896876879
 11
562.3993893513
 21
222.896878879
  0
LINE
  5
1E0
100
AcDbEntity
  8
レイヤ2
  6
CONTINUOUS
 62
     3
100
AcDbLine
 10
558.3993903513
 20
273.896878879
 11
558.3993903513
 21
233.396878879
  0
LINE
  5
1E1
100
AcDbEntity
  8
レイヤ2
  6
CONTINUOUS
 62
     3
100
AcDbLine
 10
562.3993893513
 20
233.396878879
 11
562.3993893513
 21
282.896878879
  0
LINE
  5
1E2
100
AcDbEntity
  8
レイヤ2
  6
CONTINUOUS
 62
     3
100
AcDbLine
 10
416.3993913513
 20
233.396878879
 11
416.3993913513
 21
269.896876879
  0
ARC
  5
1E3
100
AcDbEntity
  8
レイヤ2
  6
CONTINUOUS
 62
     3
100
AcDbCircle
 10
413.3993913513
 20
269.896876879
 40
3
100
AcDbArc
 50
0
 51
90
  0
LINE
  5
1E4
100
AcDbEntity
  8
レイヤ2
  6
CONTINUOUS
 62
     3
100
AcDbLine
 10
413.3993913513
 20
272.896876879
 11
412.3993893513
 21
272.896876879
  0
LINE
  5
1E5
100
AcDbEntity
  8
レイヤ2
  6
CONTINUOUS
 62
     3
100
AcDbLine
 10
412.3993893513
 20
272.896876879
 11
412.3993893513
 21
222.896878879
  0
LINE
  5
1E6
100
AcDbEntity
  8
レイヤ2
  6
CONTINUOUS
 62
     3
100
AcDbLine
 10
408.3993903513
 20
273.896878879
 11
408.3993903513
 21
233.396878879
  0
LINE
  5
1E7
100
AcDbEntity
  8
レイヤ2
  6
CONTINUOUS
 62
     3
100
AcDbLine
 10
412.3993893513
 20
233.396878879
 11
412.3993893513
 21
282.896878879
  0
LINE
  5
1E8
100
AcDbEntity
  8
レイヤ2
  6
CONTINUOUS
 62
     3
100
AcDbLine
 10
600.2393913513
 20
213.512791879
 11
600.2393913513
 21
218.296876879
  0
LINE
  5
1E9
100
AcDbEntity
  8
レイヤ2
  6
CONTINUOUS
 62
     3
100
AcDbLine
 10
584.5593903513
 20
213.498052879
 11
584.5593903513
 21
218.296876879
  0
LINE
  5
1EA
100
AcDbEntity
  8
レイヤ2
  6
CONTINUOUS
 62
     3
100
AcDbLine
 10
596.3993913513
 20
213.498052879
 11
596.3993913513
 21
218.296876879
  0
LINE
  5
1EB
100
AcDbEntity
  8
レイヤ2
  6
CONTINUOUS
 62
     3
100
AcDbLine
 10
588.3993903513
 20
213.498052879
 11
588.3993903513
 21
218.296876879
  0
LINE
  5
1EC
100
AcDbEntity
  8
レイヤ2
  6
CONTINUOUS
 62
     3
100
AcDbLine
 10
598.9993893513
 20
212.796877879
 11
585.7993893513
 21
212.796877879
  0
LINE
  5
1ED
100
AcDbEntity
  8
レイヤ2
  6
CONTINUOUS
 62
     3
100
AcDbLine
 10
600.2393913513
 20
213.512791879
 11
598.9993893513
 21
212.796877879
  0
LINE
  5
1EE
100
AcDbEntity
  8
レイヤ2
  6
CONTINUOUS
 62
     3
100
AcDbLine
 10
585.7993893513
 20
212.796877879
 11
584.5593903513
 21
213.498052879
  0
ARC
  5
1EF
100
AcDbEntity
  8
レイヤ2
  6
CONTINUOUS
 62
     3
100
AcDbCircle
 10
598.3958673513
 20
215.730043879
 40
2.994615
100
AcDbArc
 50
-131.812072
 51
-101.626795
  0
ARC
  5
1F0
100
AcDbEntity
  8
レイヤ2
  6
CONTINUOUS
 62
     3
100
AcDbCircle
 10
586.4029143513
 20
215.730043879
 40
2.994615
100
AcDbArc
 50
-78.373205
 51
-48.187928
  0
ARC
  5
1F1
100
AcDbEntity
  8
レイヤ2
  6
CONTINUOUS
 62
     3
100
AcDbCircle
 10
592.3993893513
 20
224.556877879
 40
11.76
100
AcDbArc
 50
-109.885163
 51
-70.114837
  0
LINE
  5
1F2
100
AcDbEntity
  8
レイヤ2
  6
CONTINUOUS
 62
     3
100
AcDbLine
 10
572.8993893513
 20
226.896877879
 11
609.3993903513
 21
226.896877879
  0
ARC
  5
1F3
100
AcDbEntity
  8
レイヤ2
  6
CONTINUOUS
 62
     3
100
AcDbCircle
 10
609.3993903513
 20
223.896877879
 40
3
100
AcDbArc
 50
0
 51
90
  0
LINE
  5
1F4
100
AcDbEntity
  8
レイヤ2
  6
CONTINUOUS
 62
     3
100
AcDbLine
 10
612.3993903513
 20
223.896877879
 11
612.3993903513
 21
222.896878879
  0
ARC
  5
1F5
100
AcDbEntity
  8
レイヤ2
  6
CONTINUOUS
 62
     3
100
AcDbCircle
 10
572.8993893513
 20
233.396878879
 40
6.500001
100
AcDbArc
 50
180
 51
270
  0
LINE
  5
1F6
100
AcDbEntity
  8
レイヤ2
  6
CONTINUOUS
 62
     3
100
AcDbLine
 10
561.8993913513
 20
232.896877879
 11
558.8993913513
 21
232.896877879
  0
ARC
  5
1F7
100
AcDbEntity
  8
レイヤ2
  6
CONTINUOUS
 62
     3
100
AcDbCircle
 10
561.8993913513
 20
233.396878879
 40
0.500001
100
AcDbArc
 50
-90
 51
0
  0
ARC
  5
1F8
100
AcDbEntity
  8
レイヤ2
  6
CONTINUOUS
 62
     3
100
AcDbCircle
 10
558.8993913513
 20
233.396878879
 40
0.500001
100
AcDbArc
 50
180
 51
270
  0
LINE
  5
1F9
100
AcDbEntity
  8
レイヤ2
  6
CONTINUOUS
 62
     3
100
AcDbLine
 10
600.8993913513
 20
218.296876879
 11
600.8993913513
 21
219.896878879
  0
LINE
  5
1FA
100
AcDbEntity
  8
レイヤ2
  6
CONTINUOUS
 62
     3
100
AcDbLine
 10
583.8993903513
 20
218.296876879
 11
600.8993913513
 21
218.296876879
  0
LINE
  5
1FB
100
AcDbEntity
  8
レイヤ2
  6
CONTINUOUS
 62
     3
100
AcDbLine
 10
583.8993903513
 20
219.896878879
 11
583.8993903513
 21
218.296876879
  0
LINE
  5
1FC
100
AcDbEntity
  8
レイヤ2
  6
CONTINUOUS
 62
     3
100
AcDbLine
 10
583.8993903513
 20
219.896878879
 11
600.8993913513
 21
219.896878879
  0
LINE
  5
1FD
100
AcDbEntity
  8
レイヤ2
  6
CONTINUOUS
 62
     3
100
AcDbLine
 10
450.2393913513
 20
213.512791879
 11
450.2393913513
 21
218.296876879
  0
LINE
  5
1FE
100
AcDbEntity
  8
レイヤ2
  6
CONTINUOUS
 62
     3
100
AcDbLine
 10
434.5593903513
 20
213.498052879
 11
434.5593903513
 21
218.296876879
  0
LINE
  5
1FF
100
AcDbEntity
  8
レイヤ2
  6
CONTINUOUS
 62
     3
100
AcDbLine
 10
446.3993913513
 20
213.498052879
 11
446.3993913513
 21
218.296876879
  0
LINE
  5
200
100
AcDbEntity
  8
レイヤ2
  6
CONTINUOUS
 62
     3
100
AcDbLine
 10
438.3993903513
 20
213.498052879
 11
438.3993903513
 21
218.296876879
  0
LINE
  5
201
100
AcDbEntity
  8
レイヤ2
  6
CONTINUOUS
 62
     3
100
AcDbLine
 10
448.9993893513
 20
212.796877879
 11
435.7993893513
 21
212.796877879
  0
LINE
  5
202
100
AcDbEntity
  8
レイヤ2
  6
CONTINUOUS
 62
     3
100
AcDbLine
 10
450.2393913513
 20
213.512791879
 11
448.9993893513
 21
212.796877879
  0
LINE
  5
203
100
AcDbEntity
  8
レイヤ2
  6
CONTINUOUS
 62
     3
100
AcDbLine
 10
435.7993893513
 20
212.796877879
 11
434.5593903513
 21
213.498052879
  0
ARC
  5
204
100
AcDbEntity
  8
レイヤ2
  6
CONTINUOUS
 62
     3
100
AcDbCircle
 10
448.3958673513
 20
215.730043879
 40
2.994615
100
AcDbArc
 50
-131.812072
 51
-101.626795
  0
ARC
  5
205
100
AcDbEntity
  8
レイヤ2
  6
CONTINUOUS
 62
     3
100
AcDbCircle
 10
436.4029143513
 20
215.730043879
 40
2.994615
100
AcDbArc
 50
-78.373205
 51
-48.187928
  0
ARC
  5
206
100
AcDbEntity
  8
レイヤ2
  6
CONTINUOUS
 62
     3
100
AcDbCircle
 10
442.3993893513
 20
224.556877879
 40
11.76
100
AcDbArc
 50
-109.885163
 51
-70.114837
  0
LINE
  5
207
100
AcDbEntity
  8
レイヤ2
  6
CONTINUOUS
 62
     3
100
AcDbLine
 10
422.8993893513
 20
226.896877879
 11
459.3993903513
 21
226.896877879
  0
ARC
  5
208
100
AcDbEntity
  8
レイヤ2
  6
CONTINUOUS
 62
     3
100
AcDbCircle
 10
459.3993903513
 20
223.896877879
 40
3
100
AcDbArc
 50
0
 51
90
  0
LINE
  5
209
100
AcDbEntity
  8
レイヤ2
  6
CONTINUOUS
 62
     3
100
AcDbLine
 10
462.3993903513
 20
223.896877879
 11
462.3993903513
 21
222.896878879
  0
ARC
  5
20A
100
AcDbEntity
  8
レイヤ2
  6
CONTINUOUS
 62
     3
100
AcDbCircle
 10
422.8993893513
 20
233.396878879
 40
6.500001
100
AcDbArc
 50
180
 51
270
  0
LINE
  5
20B
100
AcDbEntity
  8
レイヤ2
  6
CONTINUOUS
 62
     3
100
AcDbLine
 10
412.3993893513
 20
222.896878879
 11
462.3993903513
 21
222.896878879
  0
LINE
  5
20C
100
AcDbEntity
  8
レイヤ2
  6
CONTINUOUS
 62
     3
100
AcDbLine
 10
411.8993913513
 20
232.896877879
 11
408.8993913513
 21
232.896877879
  0
ARC
  5
20D
100
AcDbEntity
  8
レイヤ2
  6
CONTINUOUS
 62
     3
100
AcDbCircle
 10
411.8993913513
 20
233.396878879
 40
0.500001
100
AcDbArc
 50
-90
 51
0
  0
ARC
  5
20E
100
AcDbEntity
  8
レイヤ2
  6
CONTINUOUS
 62
     3
100
AcDbCircle
 10
408.8993913513
 20
233.396878879
 40
0.500001
100
AcDbArc
 50
180
 51
270
  0
LINE
  5
20F
100
AcDbEntity
  8
レイヤ2
  6
CONTINUOUS
 62
     3
100
AcDbLine
 10
450.8993913513
 20
218.296876879
 11
450.8993913513
 21
219.896878879
  0
LINE
  5
210
100
AcDbEntity
  8
レイヤ2
  6
CONTINUOUS
 62
     3
100
AcDbLine
 10
433.8993903513
 20
218.296876879
 11
450.8993913513
 21
218.296876879
  0
LINE
  5
211
100
AcDbEntity
  8
レイヤ2
  6
CONTINUOUS
 62
     3
100
AcDbLine
 10
433.8993903513
 20
219.896878879
 11
433.8993903513
 21
218.296876879
  0
LINE
  5
212
100
AcDbEntity
  8
レイヤ2
  6
CONTINUOUS
 62
     3
100
AcDbLine
 10
433.8993903513
 20
219.896878879
 11
450.8993913513
 21
219.896878879
  0
LINE
  5
213
100
AcDbEntity
  8
レイヤ2
  6
CONTINUOUS
 62
     3
100
AcDbLine
 10
535.3993893513
 20
283.396876879
 11
535.3993893513
 21
285.896878879
  0
LINE
  5
214
100
AcDbEntity
  8
レイヤ2
  6
CONTINUOUS
 62
     3
100
AcDbLine
 10
523.3993893513
 20
283.396876879
 11
535.3993893513
 21
283.396876879
  0
LINE
  5
215
100
AcDbEntity
  8
レイヤ2
  6
CONTINUOUS
 62
     3
100
AcDbLine
 10
523.3993893513
 20
285.896878879
 11
523.3993893513
 21
283.396876879
  0
LINE
  5
216
100
AcDbEntity
  8
レイヤ2
  6
CONTINUOUS
 62
     3
100
AcDbLine
 10
532.3993893513
 20
261.396877879
 11
531.8993913513
 21
260.896876879
  0
LINE
  5
217
100
AcDbEntity
  8
レイヤ2
  6
CONTINUOUS
 62
     3
100
AcDbLine
 10
532.3993893513
 20
270.996877879
 11
532.3993893513
 21
261.396877879
  0
LINE
  5
218
100
AcDbEntity
  8
レイヤ2
  6
CONTINUOUS
 62
     3
100
AcDbLine
 10
526.8993903513
 20
260.896876879
 11
531.8993913513
 21
260.896876879
  0
LINE
  5
219
100
AcDbEntity
  8
レイヤ2
  6
CONTINUOUS
 62
     3
100
AcDbLine
 10
526.3993893513
 20
261.396877879
 11
526.8993903513
 21
260.896876879
  0
LINE
  5
21A
100
AcDbEntity
  8
レイヤ2
  6
CONTINUOUS
 62
     3
100
AcDbLine
 10
526.3993893513
 20
270.996877879
 11
526.3993893513
 21
261.396877879
  0
LINE
  5
21B
100
AcDbEntity
  8
レイヤ2
  6
CONTINUOUS
 62
     3
100
AcDbLine
 10
552.0153063513
 20
260.736877879
 11
556.8993903513
 21
260.736877879
  0
LINE
  5
21C
100
AcDbEntity
  8
レイヤ2
  6
CONTINUOUS
 62
     3
100
AcDbLine
 10
552.0005673513
 20
245.056876879
 11
556.8993903513
 21
245.056876879
  0
LINE
  5
21D
100
AcDbEntity
  8
レイヤ2
  6
CONTINUOUS
 62
     3
100
AcDbLine
 10
552.0005673513
 20
256.896877879
 11
556.8993903513
 21
256.896877879
  0
LINE
  5
21E
100
AcDbEntity
  8
レイヤ2
  6
CONTINUOUS
 62
     3
100
AcDbLine
 10
552.0005673513
 20
248.896876879
 11
556.8993903513
 21
248.896876879
  0
LINE
  5
21F
100
AcDbEntity
  8
レイヤ2
  6
CONTINUOUS
 62
     3
100
AcDbLine
 10
551.2993893513
 20
259.496878879
 11
551.2993893513
 21
246.296878879
  0
LINE
  5
220
100
AcDbEntity
  8
レイヤ2
  6
CONTINUOUS
 62
     3
100
AcDbLine
 10
552.0153063513
 20
260.736877879
 11
551.2993893513
 21
259.496878879
  0
LINE
  5
221
100
AcDbEntity
  8
レイヤ2
  6
CONTINUOUS
 62
     3
100
AcDbLine
 10
551.2993893513
 20
246.296878879
 11
552.0005673513
 21
245.056876879
  0
ARC
  5
222
100
AcDbEntity
  8
レイヤ2
  6
CONTINUOUS
 62
     3
100
AcDbCircle
 10
554.2325583513
 20
258.893353879
 40
2.994615
100
AcDbArc
 50
-168.373205
 51
-138.187928
  0
ARC
  5
223
100
AcDbEntity
  8
レイヤ2
  6
CONTINUOUS
 62
     3
100
AcDbCircle
 10
554.2325583513
 20
246.900400879
 40
2.994615
100
AcDbArc
 50
138.187928
 51
168.373205
  0
ARC
  5
224
100
AcDbEntity
  8
レイヤ2
  6
CONTINUOUS
 62
     3
100
AcDbCircle
 10
563.0593893513
 20
252.896878879
 40
11.76
100
AcDbArc
 50
160.114837
 51
199.885163
  0
ARC
  5
225
100
AcDbEntity
  8
レイヤ2
  6
CONTINUOUS
 62
     3
100
AcDbCircle
 10
524.9521383513
 20
273.288877879
 40
2.292
100
AcDbArc
 50
-90
 51
-50.843868
  0
ARC
  5
226
100
AcDbEntity
  8
レイヤ2
  6
CONTINUOUS
 62
     3
100
AcDbCircle
 10
529.3993893513
 20
279.996877879
 40
9
100
AcDbArc
 50
-109.471221
 51
-90
  0
LINE
  5
227
100
AcDbEntity
  8
レイヤ2
  6
CONTINUOUS
 62
     3
100
AcDbLine
 10
523.3993893513
 20
271.538803879
 11
524.3380353513
 21
270.996877879
  0
LINE
  5
228
100
AcDbEntity
  8
レイヤ2
  6
CONTINUOUS
 62
     3
100
AcDbLine
 10
523.3993893513
 20
271.538803879
 11
523.3993893513
 21
275.796877879
  0
LINE
  5
229
100
AcDbEntity
  8
レイヤ2
  6
CONTINUOUS
 62
     3
100
AcDbLine
 10
526.3993893513
 20
271.511596879
 11
526.3993893513
 21
275.796877879
  0
ARC
  5
22A
100
AcDbEntity
  8
レイヤ2
  6
CONTINUOUS
 62
     3
100
AcDbCircle
 10
533.8466403513
 20
273.288877879
 40
2.292
100
AcDbArc
 50
-129.156132
 51
-90
  0
ARC
  5
22B
100
AcDbEntity
  8
レイヤ2
  6
CONTINUOUS
 62
     3
100
AcDbCircle
 10
529.3993893513
 20
279.996877879
 40
9
100
AcDbArc
 50
-90
 51
-70.528779
  0
LINE
  5
22C
100
AcDbEntity
  8
レイヤ2
  6
CONTINUOUS
 62
     3
100
AcDbLine
 10
535.3993893513
 20
271.538803879
 11
535.3993893513
 21
275.796877879
  0
LINE
  5
22D
100
AcDbEntity
  8
レイヤ2
  6
CONTINUOUS
 62
     3
100
AcDbLine
 10
532.3993893513
 20
271.511596879
 11
532.3993893513
 21
275.796877879
  0
LINE
  5
22E
100
AcDbEntity
  8
レイヤ2
  6
CONTINUOUS
 62
     3
100
AcDbLine
 10
529.3993893513
 20
275.796877879
 11
523.2993903513
 21
275.796877879
  0
LINE
  5
22F
100
AcDbEntity
  8
レイヤ2
  6
CONTINUOUS
 62
     3
100
AcDbLine
 10
535.4993913513
 20
275.796877879
 11
529.3993893513
 21
275.796877879
  0
LINE
  5
230
100
AcDbEntity
  8
レイヤ2
  6
CONTINUOUS
 62
     3
100
AcDbLine
 10
529.3993893513
 20
275.796877879
 11
527.8993893513
 21
277.296877879
  0
LINE
  5
231
100
AcDbEntity
  8
レイヤ2
  6
CONTINUOUS
 62
     3
100
AcDbLine
 10
529.3993893513
 20
277.296877879
 11
530.8993893513
 21
275.796877879
  0
LINE
  5
232
100
AcDbEntity
  8
レイヤ2
  6
CONTINUOUS
 62
     3
100
AcDbLine
 10
523.2993903513
 20
277.296877879
 11
523.2993903513
 21
275.796877879
  0
LINE
  5
233
100
AcDbEntity
  8
レイヤ2
  6
CONTINUOUS
 62
     3
100
AcDbLine
 10
535.6493913513
 20
277.296877879
 11
535.6493913513
 21
278.896876879
  0
LINE
  5
234
100
AcDbEntity
  8
レイヤ2
  6
CONTINUOUS
 62
     3
100
AcDbLine
 10
523.1493903513
 20
277.296877879
 11
523.1493903513
 21
278.896876879
  0
LINE
  5
235
100
AcDbEntity
  8
レイヤ2
  6
CONTINUOUS
 62
     3
100
AcDbLine
 10
535.6493913513
 20
277.296877879
 11
523.1493903513
 21
277.296877879
  0
LINE
  5
236
100
AcDbEntity
  8
レイヤ2
  6
CONTINUOUS
 62
     3
100
AcDbLine
 10
535.4993913513
 20
275.796877879
 11
535.4993913513
 21
277.296877879
  0
LINE
  5
237
100
AcDbEntity
  8
レイヤ2
  6
CONTINUOUS
 62
     3
100
AcDbLine
 10
553.3993893513
 20
278.896876879
 11
512.8993893513
 21
278.896876879
  0
ARC
  5
238
100
AcDbEntity
  8
レイヤ2
  6
CONTINUOUS
 62
     3
100
AcDbCircle
 10
553.3993893513
 20
273.896878879
 40
5.000001
100
AcDbArc
 50
0
 51
90
  0
LINE
  5
239
100
AcDbEntity
  8
レイヤ2
  6
CONTINUOUS
 62
     3
100
AcDbLine
 10
512.3993913513
 20
279.396877879
 11
512.3993913513
 21
282.396877879
  0
ARC
  5
23A
100
AcDbEntity
  8
レイヤ2
  6
CONTINUOUS
 62
     3
100
AcDbCircle
 10
512.8993893513
 20
279.396877879
 40
0.500001
100
AcDbArc
 50
180
 51
270
  0
ARC
  5
23B
100
AcDbEntity
  8
レイヤ2
  6
CONTINUOUS
 62
     3
100
AcDbCircle
 10
512.8993893513
 20
282.396877879
 40
0.500001
100
AcDbArc
 50
90
 51
180
  0
LINE
  5
23C
100
AcDbEntity
  8
レイヤ2
  6
CONTINUOUS
 62
     3
100
AcDbLine
 10
534.4607463513
 20
270.996877879
 11
535.3993893513
 21
271.538803879
  0
LINE
  5
23D
100
AcDbEntity
  8
レイヤ2
  6
CONTINUOUS
 62
     3
100
AcDbLine
 10
524.3380353513
 20
270.996877879
 11
534.4607463513
 21
270.996877879
  0
LINE
  5
23E
100
AcDbEntity
  8
レイヤ2
  6
CONTINUOUS
 62
     3
100
AcDbLine
 10
556.7993913513
 20
244.396876879
 11
558.3993903513
 21
244.396876879
  0
LINE
  5
23F
100
AcDbEntity
  8
レイヤ2
  6
CONTINUOUS
 62
     3
100
AcDbLine
 10
556.7993913513
 20
261.396877879
 11
556.7993913513
 21
244.396876879
  0
LINE
  5
240
100
AcDbEntity
  8
レイヤ2
  6
CONTINUOUS
 62
     3
100
AcDbLine
 10
558.3993903513
 20
261.396877879
 11
556.7993913513
 21
261.396877879
  0
LINE
  5
241
100
AcDbEntity
  8
レイヤ2
  6
CONTINUOUS
 62
     3
100
AcDbLine
 10
532.3993893513
 20
283.396876879
 11
532.3993893513
 21
278.896876879
  0
LINE
  5
242
100
AcDbEntity
  8
レイヤ2
  6
CONTINUOUS
 62
     3
100
AcDbLine
 10
526.3993893513
 20
278.896876879
 11
526.3993893513
 21
283.396876879
  0
LINE
  5
243
100
AcDbEntity
  8
レイヤ2
  6
CONTINUOUS
 62
     3
100
AcDbLine
 10
385.3993893513
 20
283.396876879
 11
385.3993893513
 21
285.896878879
  0
LINE
  5
244
100
AcDbEntity
  8
レイヤ2
  6
CONTINUOUS
 62
     3
100
AcDbLine
 10
373.3993893513
 20
283.396876879
 11
385.3993893513
 21
283.396876879
  0
LINE
  5
245
100
AcDbEntity
  8
レイヤ2
  6
CONTINUOUS
 62
     3
100
AcDbLine
 10
373.3993893513
 20
285.896878879
 11
373.3993893513
 21
283.396876879
  0
LINE
  5
246
100
AcDbEntity
  8
レイヤ2
  6
CONTINUOUS
 62
     3
100
AcDbLine
 10
382.3993893513
 20
261.396877879
 11
381.8993913513
 21
260.896876879
  0
LINE
  5
247
100
AcDbEntity
  8
レイヤ2
  6
CONTINUOUS
 62
     3
100
AcDbLine
 10
382.3993893513
 20
270.996877879
 11
382.3993893513
 21
261.396877879
  0
LINE
  5
248
100
AcDbEntity
  8
レイヤ2
  6
CONTINUOUS
 62
     3
100
AcDbLine
 10
376.8993903513
 20
260.896876879
 11
381.8993913513
 21
260.896876879
  0
LINE
  5
249
100
AcDbEntity
  8
レイヤ2
  6
CONTINUOUS
 62
     3
100
AcDbLine
 10
376.3993893513
 20
261.396877879
 11
376.8993903513
 21
260.896876879
  0
LINE
  5
24A
100
AcDbEntity
  8
レイヤ2
  6
CONTINUOUS
 62
     3
100
AcDbLine
 10
376.3993893513
 20
270.996877879
 11
376.3993893513
 21
261.396877879
  0
LINE
  5
24B
100
AcDbEntity
  8
レイヤ2
  6
CONTINUOUS
 62
     3
100
AcDbLine
 10
402.0153063513
 20
260.736877879
 11
406.8993903513
 21
260.736877879
  0
LINE
  5
24C
100
AcDbEntity
  8
レイヤ2
  6
CONTINUOUS
 62
     3
100
AcDbLine
 10
402.0005673513
 20
245.056876879
 11
406.8993903513
 21
245.056876879
  0
LINE
  5
24D
100
AcDbEntity
  8
レイヤ2
  6
CONTINUOUS
 62
     3
100
AcDbLine
 10
402.0005673513
 20
256.896877879
 11
406.8993903513
 21
256.896877879
  0
LINE
  5
24E
100
AcDbEntity
  8
レイヤ2
  6
CONTINUOUS
 62
     3
100
AcDbLine
 10
402.0005673513
 20
248.896876879
 11
406.8993903513
 21
248.896876879
  0
LINE
  5
24F
100
AcDbEntity
  8
レイヤ2
  6
CONTINUOUS
 62
     3
100
AcDbLine
 10
401.2993893513
 20
259.496878879
 11
401.2993893513
 21
246.296878879
  0
LINE
  5
250
100
AcDbEntity
  8
レイヤ2
  6
CONTINUOUS
 62
     3
100
AcDbLine
 10
402.0153063513
 20
260.736877879
 11
401.2993893513
 21
259.496878879
  0
LINE
  5
251
100
AcDbEntity
  8
レイヤ2
  6
CONTINUOUS
 62
     3
100
AcDbLine
 10
401.2993893513
 20
246.296878879
 11
402.0005673513
 21
245.056876879
  0
ARC
  5
252
100
AcDbEntity
  8
レイヤ2
  6
CONTINUOUS
 62
     3
100
AcDbCircle
 10
404.2325583513
 20
258.893353879
 40
2.994615
100
AcDbArc
 50
-168.373205
 51
-138.187928
  0
ARC
  5
253
100
AcDbEntity
  8
レイヤ2
  6
CONTINUOUS
 62
     3
100
AcDbCircle
 10
404.2325583513
 20
246.900400879
 40
2.994615
100
AcDbArc
 50
138.187928
 51
168.373205
  0
ARC
  5
254
100
AcDbEntity
  8
レイヤ2
  6
CONTINUOUS
 62
     3
100
AcDbCircle
 10
413.0593893513
 20
252.896878879
 40
11.76
100
AcDbArc
 50
160.114837
 51
199.885163
  0
ARC
  5
255
100
AcDbEntity
  8
レイヤ2
  6
CONTINUOUS
 62
     3
100
AcDbCircle
 10
374.9521383513
 20
273.288877879
 40
2.292
100
AcDbArc
 50
-90
 51
-50.843868
  0
ARC
  5
256
100
AcDbEntity
  8
レイヤ2
  6
CONTINUOUS
 62
     3
100
AcDbCircle
 10
379.3993893513
 20
279.996877879
 40
9
100
AcDbArc
 50
-109.471221
 51
-90
  0
LINE
  5
257
100
AcDbEntity
  8
レイヤ2
  6
CONTINUOUS
 62
     3
100
AcDbLine
 10
373.3993893513
 20
271.538803879
 11
374.3380353513
 21
270.996877879
  0
LINE
  5
258
100
AcDbEntity
  8
レイヤ2
  6
CONTINUOUS
 62
     3
100
AcDbLine
 10
373.3993893513
 20
271.538803879
 11
373.3993893513
 21
275.796877879
  0
LINE
  5
259
100
AcDbEntity
  8
レイヤ2
  6
CONTINUOUS
 62
     3
100
AcDbLine
 10
376.3993893513
 20
271.511596879
 11
376.3993893513
 21
275.796877879
  0
ARC
  5
25A
100
AcDbEntity
  8
レイヤ2
  6
CONTINUOUS
 62
     3
100
AcDbCircle
 10
383.8466403513
 20
273.288877879
 40
2.292
100
AcDbArc
 50
-129.156132
 51
-90
  0
ARC
  5
25B
100
AcDbEntity
  8
レイヤ2
  6
CONTINUOUS
 62
     3
100
AcDbCircle
 10
379.3993893513
 20
279.996877879
 40
9
100
AcDbArc
 50
-90
 51
-70.528779
  0
LINE
  5
25C
100
AcDbEntity
  8
レイヤ2
  6
CONTINUOUS
 62
     3
100
AcDbLine
 10
385.3993893513
 20
271.538803879
 11
385.3993893513
 21
275.796877879
  0
LINE
  5
25D
100
AcDbEntity
  8
レイヤ2
  6
CONTINUOUS
 62
     3
100
AcDbLine
 10
382.3993893513
 20
271.511596879
 11
382.3993893513
 21
275.796877879
  0
LINE
  5
25E
100
AcDbEntity
  8
レイヤ2
  6
CONTINUOUS
 62
     3
100
AcDbLine
 10
379.3993893513
 20
275.796877879
 11
373.2993903513
 21
275.796877879
  0
LINE
  5
25F
100
AcDbEntity
  8
レイヤ2
  6
CONTINUOUS
 62
     3
100
AcDbLine
 10
385.4993913513
 20
275.796877879
 11
379.3993893513
 21
275.796877879
  0
LINE
  5
260
100
AcDbEntity
  8
レイヤ2
  6
CONTINUOUS
 62
     3
100
AcDbLine
 10
379.3993893513
 20
275.796877879
 11
377.8993893513
 21
277.296877879
  0
LINE
  5
261
100
AcDbEntity
  8
レイヤ2
  6
CONTINUOUS
 62
     3
100
AcDbLine
 10
379.3993893513
 20
277.296877879
 11
380.8993893513
 21
275.796877879
  0
LINE
  5
262
100
AcDbEntity
  8
レイヤ2
  6
CONTINUOUS
 62
     3
100
AcDbLine
 10
373.2993903513
 20
277.296877879
 11
373.2993903513
 21
275.796877879
  0
LINE
  5
263
100
AcDbEntity
  8
レイヤ2
  6
CONTINUOUS
 62
     3
100
AcDbLine
 10
385.6493913513
 20
277.296877879
 11
385.6493913513
 21
278.896876879
  0
LINE
  5
264
100
AcDbEntity
  8
レイヤ2
  6
CONTINUOUS
 62
     3
100
AcDbLine
 10
373.1493903513
 20
277.296877879
 11
373.1493903513
 21
278.896876879
  0
LINE
  5
265
100
AcDbEntity
  8
レイヤ2
  6
CONTINUOUS
 62
     3
100
AcDbLine
 10
385.6493913513
 20
277.296877879
 11
373.1493903513
 21
277.296877879
  0
LINE
  5
266
100
AcDbEntity
  8
レイヤ2
  6
CONTINUOUS
 62
     3
100
AcDbLine
 10
385.4993913513
 20
275.796877879
 11
385.4993913513
 21
277.296877879
  0
LINE
  5
267
100
AcDbEntity
  8
レイヤ2
  6
CONTINUOUS
 62
     3
100
AcDbLine
 10
403.3993893513
 20
278.896876879
 11
362.8993893513
 21
278.896876879
  0
ARC
  5
268
100
AcDbEntity
  8
レイヤ2
  6
CONTINUOUS
 62
     3
100
AcDbCircle
 10
403.3993893513
 20
273.896878879
 40
5.000001
100
AcDbArc
 50
0
 51
90
  0
LINE
  5
269
100
AcDbEntity
  8
レイヤ2
  6
CONTINUOUS
 62
     3
100
AcDbLine
 10
362.3993913513
 20
279.396877879
 11
362.3993913513
 21
282.396877879
  0
ARC
  5
26A
100
AcDbEntity
  8
レイヤ2
  6
CONTINUOUS
 62
     3
100
AcDbCircle
 10
362.8993893513
 20
279.396877879
 40
0.500001
100
AcDbArc
 50
180
 51
270
  0
ARC
  5
26B
100
AcDbEntity
  8
レイヤ2
  6
CONTINUOUS
 62
     3
100
AcDbCircle
 10
362.8993893513
 20
282.396877879
 40
0.500001
100
AcDbArc
 50
90
 51
180
  0
LINE
  5
26C
100
AcDbEntity
  8
レイヤ2
  6
CONTINUOUS
 62
     3
100
AcDbLine
 10
384.4607463513
 20
270.996877879
 11
385.3993893513
 21
271.538803879
  0
LINE
  5
26D
100
AcDbEntity
  8
レイヤ2
  6
CONTINUOUS
 62
     3
100
AcDbLine
 10
374.3380353513
 20
270.996877879
 11
384.4607463513
 21
270.996877879
  0
LINE
  5
26E
100
AcDbEntity
  8
レイヤ2
  6
CONTINUOUS
 62
     3
100
AcDbLine
 10
406.7993913513
 20
244.396876879
 11
408.3993903513
 21
244.396876879
  0
LINE
  5
26F
100
AcDbEntity
  8
レイヤ2
  6
CONTINUOUS
 62
     3
100
AcDbLine
 10
406.7993913513
 20
261.396877879
 11
406.7993913513
 21
244.396876879
  0
LINE
  5
270
100
AcDbEntity
  8
レイヤ2
  6
CONTINUOUS
 62
     3
100
AcDbLine
 10
408.3993903513
 20
261.396877879
 11
406.7993913513
 21
261.396877879
  0
LINE
  5
271
100
AcDbEntity
  8
レイヤ2
  6
CONTINUOUS
 62
     3
100
AcDbLine
 10
382.3993893513
 20
283.396876879
 11
382.3993893513
 21
278.896876879
  0
LINE
  5
272
100
AcDbEntity
  8
レイヤ2
  6
CONTINUOUS
 62
     3
100
AcDbLine
 10
376.3993893513
 20
278.896876879
 11
376.3993893513
 21
283.396876879
  0
LINE
  5
273
100
AcDbEntity
  8
レイヤ2
  6
CONTINUOUS
 62
     3
100
AcDbLine
 10
295.3283223513
 20
122.8968768789
 11
295.3283223513
 21
-125.667694121
  0
LINE
  5
274
100
AcDbEntity
  8
レイヤ2
  6
CONTINUOUS
 62
     4
100
AcDbLine
 10
292.3283223513
 20
222.896878879
 11
292.3283223513
 21
-125.667694121
  0
LINE
  5
275
100
AcDbEntity
  8
レイヤ2
  6
CONTINUOUS
 62
     4
100
AcDbLine
 10
392.3283213513
 20
122.8968768789
 11
392.3283213513
 21
-125.667694121
  0
LINE
  5
276
100
AcDbEntity
  8
レイヤ2
  6
CONTINUOUS
 62
     3
100
AcDbLine
 10
389.1283233513
 20
122.8968768789
 11
389.1283233513
 21
-125.667694121
  0
LINE
  5
277
100
AcDbEntity
  8
レイヤ2
  6
CONTINUOUS
 62
     3
100
AcDbLine
 10
392.3283213513
 20
-110.7135251211
 11
392.3283213513
 21
-113.7135251211
  0
LINE
  5
278
100
AcDbEntity
  8
レイヤ2
  6
CONTINUOUS
 62
     3
100
AcDbLine
 10
581.7993903513
 20
249.546478879
 11
581.1497913513
 21
248.896876879
  0
LINE
  5
279
100
AcDbEntity
  8
レイヤ2
  6
CONTINUOUS
 62
     3
100
AcDbLine
 10
581.7993903513
 20
256.247278879
 11
581.7993903513
 21
249.546478879
  0
LINE
  5
27A
100
AcDbEntity
  8
レイヤ2
  6
CONTINUOUS
 62
     3
100
AcDbLine
 10
581.1497913513
 20
256.896877879
 11
581.7993903513
 21
256.247278879
  0
LINE
  5
27B
100
AcDbEntity
  8
レイヤ2
  6
CONTINUOUS
 62
     3
100
AcDbLine
 10
567.9993903513
 20
260.596876879
 11
569.9993913513
 21
260.596876879
  0
LINE
  5
27C
100
AcDbEntity
  8
レイヤ2
  6
CONTINUOUS
 62
     3
100
AcDbLine
 10
567.9993903513
 20
245.196877879
 11
569.9993913513
 21
245.196877879
  0
LINE
  5
27D
100
AcDbEntity
  8
レイヤ2
  6
CONTINUOUS
 62
     3
100
AcDbLine
 10
569.9993913513
 20
254.896876879
 11
567.9993903513
 21
252.896878879
  0
LINE
  5
27E
100
AcDbEntity
  8
レイヤ2
  6
CONTINUOUS
 62
     3
100
AcDbLine
 10
567.9993903513
 20
250.896877879
 11
569.9993913513
 21
252.896878879
  0
LINE
  5
27F
100
AcDbEntity
  8
レイヤ2
  6
CONTINUOUS
 62
     3
100
AcDbLine
 10
575.6834763513
 20
260.736877879
 11
576.3993903513
 21
259.496878879
  0
LINE
  5
280
100
AcDbEntity
  8
レイヤ2
  6
CONTINUOUS
 62
     3
100
AcDbLine
 10
576.3993903513
 20
259.496878879
 11
576.3993903513
 21
246.296878879
  0
LINE
  5
281
100
AcDbEntity
  8
レイヤ2
  6
CONTINUOUS
 62
     3
100
AcDbLine
 10
589.0487193513
 20
243.296878879
 11
595.7497893513
 21
243.296878879
  0
LINE
  5
282
100
AcDbEntity
  8
レイヤ2
  6
CONTINUOUS
 62
     3
100
AcDbLine
 10
596.3993913513
 20
242.647276879
 11
595.7497893513
 21
243.296878879
  0
LINE
  5
283
100
AcDbEntity
  8
レイヤ2
  6
CONTINUOUS
 62
     3
100
AcDbLine
 10
589.0489893513
 20
243.296878879
 11
588.3993903513
 21
242.647276879
  0
LINE
  5
284
100
AcDbEntity
  8
レイヤ2
  6
CONTINUOUS
 62
     3
100
AcDbLine
 10
581.1497913513
 20
248.896876879
 11
576.3993903513
 21
248.896876879
  0
LINE
  5
285
100
AcDbEntity
  8
レイヤ2
  6
CONTINUOUS
 62
     3
100
AcDbLine
 10
576.3993903513
 20
256.896877879
 11
581.1497913513
 21
256.896877879
  0
LINE
  5
286
100
AcDbEntity
  8
レイヤ2
  6
CONTINUOUS
 62
     3
100
AcDbLine
 10
575.6982153513
 20
245.056876879
 11
569.9993913513
 21
245.056876879
  0
LINE
  5
287
100
AcDbEntity
  8
レイヤ2
  6
CONTINUOUS
 62
     3
100
AcDbLine
 10
569.9993913513
 20
248.896876879
 11
575.6982153513
 21
248.896876879
  0
LINE
  5
288
100
AcDbEntity
  8
レイヤ2
  6
CONTINUOUS
 62
     3
100
AcDbLine
 10
575.6982153513
 20
256.896877879
 11
569.9993913513
 21
256.896877879
  0
LINE
  5
289
100
AcDbEntity
  8
レイヤ2
  6
CONTINUOUS
 62
     3
100
AcDbLine
 10
569.9993913513
 20
260.736877879
 11
575.6834763513
 21
260.736877879
  0
LINE
  5
28A
100
AcDbEntity
  8
レイヤ2
  6
CONTINUOUS
 62
     3
100
AcDbLine
 10
569.9993913513
 20
260.736877879
 11
569.9993913513
 21
245.056876879
  0
ARC
  5
28B
100
AcDbEntity
  8
レイヤ2
  6
CONTINUOUS
 62
     3
100
AcDbCircle
 10
564.6393903513
 20
252.896878879
 40
11.76
100
AcDbArc
 50
-19.885163
 51
19.885163
  0
ARC
  5
28C
100
AcDbEntity
  8
レイヤ2
  6
CONTINUOUS
 62
     3
100
AcDbCircle
 10
573.4662243513
 20
246.900400879
 40
2.994615
100
AcDbArc
 50
11.626795
 51
41.812072
  0
ARC
  5
28D
100
AcDbEntity
  8
レイヤ2
  6
CONTINUOUS
 62
     3
100
AcDbCircle
 10
573.4662243513
 20
258.893353879
 40
2.994615
100
AcDbArc
 50
-41.81207200001
 51
-11.62679500001
  0
LINE
  5
28E
100
AcDbEntity
  8
レイヤ2
  6
CONTINUOUS
 62
     3
100
AcDbLine
 10
576.3993903513
 20
246.296878879
 11
575.6982153513
 21
245.056876879
  0
LINE
  5
28F
100
AcDbEntity
  8
レイヤ2
  6
CONTINUOUS
 62
     3
100
AcDbLine
 10
584.6993913513
 20
230.496877879
 11
584.6993913513
 21
228.496876879
  0
LINE
  5
290
100
AcDbEntity
  8
レイヤ2
  6
CONTINUOUS
 62
     3
100
AcDbLine
 10
600.0993903513
 20
230.496877879
 11
600.0993903513
 21
228.496876879
  0
LINE
  5
291
100
AcDbEntity
  8
レイヤ2
  6
CONTINUOUS
 62
     3
100
AcDbLine
 10
585.7993893513
 20
236.996878879
 11
584.5593903513
 21
236.295700879
  0
LINE
  5
292
100
AcDbEntity
  8
レイヤ2
  6
CONTINUOUS
 62
     3
100
AcDbLine
 10
585.7993893513
 20
236.996878879
 11
598.9993893513
 21
236.996878879
  0
LINE
  5
293
100
AcDbEntity
  8
レイヤ2
  6
CONTINUOUS
 62
     3
100
AcDbLine
 10
598.9993893513
 20
236.996878879
 11
600.2393913513
 21
236.280961879
  0
LINE
  5
294
100
AcDbEntity
  8
レイヤ2
  6
CONTINUOUS
 62
     3
100
AcDbLine
 10
592.3993893513
 20
230.496877879
 11
590.3993913513
 21
228.496876879
  0
LINE
  5
295
100
AcDbEntity
  8
レイヤ2
  6
CONTINUOUS
 62
     3
100
AcDbLine
 10
592.3993893513
 20
228.496876879
 11
594.3993903513
 21
230.496877879
  0
LINE
  5
296
100
AcDbEntity
  8
レイヤ2
  6
CONTINUOUS
 62
     3
100
AcDbLine
 10
584.5593903513
 20
236.240206879
 11
584.5593903513
 21
230.496877879
  0
LINE
  5
297
100
AcDbEntity
  8
レイヤ2
  6
CONTINUOUS
 62
     3
100
AcDbLine
 10
600.2393913513
 20
230.496877879
 11
600.2393913513
 21
236.225467879
  0
LINE
  5
298
100
AcDbEntity
  8
レイヤ2
  6
CONTINUOUS
 62
     3
100
AcDbLine
 10
600.2393913513
 20
230.496877879
 11
584.5593903513
 21
230.496877879
  0
LINE
  5
299
100
AcDbEntity
  8
レイヤ2
  6
CONTINUOUS
 62
     3
100
AcDbLine
 10
596.3993913513
 20
236.295700879
 11
596.3993913513
 21
230.496877879
  0
LINE
  5
29A
100
AcDbEntity
  8
レイヤ2
  6
CONTINUOUS
 62
     3
100
AcDbLine
 10
588.3993903513
 20
230.496877879
 11
588.3993903513
 21
236.295700879
  0
ARC
  5
29B
100
AcDbEntity
  8
レイヤ2
  6
CONTINUOUS
 62
     3
100
AcDbCircle
 10
592.3993893513
 20
225.236878879
 40
11.76
100
AcDbArc
 50
70.114837
 51
109.885163
  0
ARC
  5
29C
100
AcDbEntity
  8
レイヤ2
  6
CONTINUOUS
 62
     3
100
AcDbCircle
 10
586.4029143513
 20
234.063709879
 40
2.994615
100
AcDbArc
 50
48.187928
 51
78.373205
  0
ARC
  5
29D
100
AcDbEntity
  8
レイヤ2
  6
CONTINUOUS
 62
     3
100
AcDbCircle
 10
598.3958673513
 20
234.063709879
 40
2.994615
100
AcDbArc
 50
101.626795
 51
131.812072
  0
LINE
  5
29E
100
AcDbEntity
  8
レイヤ2
  6
CONTINUOUS
 62
     3
100
AcDbLine
 10
588.3993903513
 20
242.647276879
 11
588.3993903513
 21
236.996878879
  0
LINE
  5
29F
100
AcDbEntity
  8
レイヤ2
  6
CONTINUOUS
 62
     3
100
AcDbLine
 10
596.3993913513
 20
242.647276879
 11
596.3993913513
 21
236.996878879
  0
LINE
  5
2A0
100
AcDbEntity
  8
レイヤ2
  6
CONTINUOUS
 62
     3
100
AcDbLine
 10
583.8993903513
 20
228.496876879
 11
600.8993913513
 21
228.496876879
  0
LINE
  5
2A1
100
AcDbEntity
  8
レイヤ2
  6
CONTINUOUS
 62
     3
100
AcDbLine
 10
583.8993903513
 20
228.496876879
 11
583.8993903513
 21
226.896877879
  0
LINE
  5
2A2
100
AcDbEntity
  8
レイヤ2
  6
CONTINUOUS
 62
     3
100
AcDbLine
 10
583.8993903513
 20
226.896877879
 11
600.8993913513
 21
226.896877879
  0
LINE
  5
2A3
100
AcDbEntity
  8
レイヤ2
  6
CONTINUOUS
 62
     3
100
AcDbLine
 10
600.8993913513
 20
226.896877879
 11
600.8993913513
 21
228.496876879
  0
LINE
  5
2A4
100
AcDbEntity
  8
レイヤ2
  6
CONTINUOUS
 62
     3
100
AcDbLine
 10
567.9993903513
 20
261.396877879
 11
566.3993913513
 21
261.396877879
  0
LINE
  5
2A5
100
AcDbEntity
  8
レイヤ2
  6
CONTINUOUS
 62
     3
100
AcDbLine
 10
567.9993903513
 20
261.396877879
 11
567.9993903513
 21
244.396876879
  0
LINE
  5
2A6
100
AcDbEntity
  8
レイヤ2
  6
CONTINUOUS
 62
     3
100
AcDbLine
 10
566.3993913513
 20
244.396876879
 11
567.9993903513
 21
244.396876879
  0
LINE
  5
2A7
100
AcDbEntity
  8
レイヤ2
  6
CONTINUOUS
 62
     3
100
AcDbLine
 10
431.7993903513
 20
249.546478879
 11
431.1497913513
 21
248.896876879
  0
LINE
  5
2A8
100
AcDbEntity
  8
レイヤ2
  6
CONTINUOUS
 62
     3
100
AcDbLine
 10
431.7993903513
 20
256.247278879
 11
431.7993903513
 21
249.546478879
  0
LINE
  5
2A9
100
AcDbEntity
  8
レイヤ2
  6
CONTINUOUS
 62
     3
100
AcDbLine
 10
431.1497913513
 20
256.896877879
 11
431.7993903513
 21
256.247278879
  0
LINE
  5
2AA
100
AcDbEntity
  8
レイヤ2
  6
CONTINUOUS
 62
     3
100
AcDbLine
 10
417.9993903513
 20
260.596876879
 11
419.9993913513
 21
260.596876879
  0
LINE
  5
2AB
100
AcDbEntity
  8
レイヤ2
  6
CONTINUOUS
 62
     3
100
AcDbLine
 10
417.9993903513
 20
245.196877879
 11
419.9993913513
 21
245.196877879
  0
LINE
  5
2AC
100
AcDbEntity
  8
レイヤ2
  6
CONTINUOUS
 62
     3
100
AcDbLine
 10
419.9993913513
 20
254.896876879
 11
417.9993903513
 21
252.896878879
  0
LINE
  5
2AD
100
AcDbEntity
  8
レイヤ2
  6
CONTINUOUS
 62
     3
100
AcDbLine
 10
417.9993903513
 20
250.896877879
 11
419.9993913513
 21
252.896878879
  0
LINE
  5
2AE
100
AcDbEntity
  8
レイヤ2
  6
CONTINUOUS
 62
     3
100
AcDbLine
 10
425.6834763513
 20
260.736877879
 11
426.3993903513
 21
259.496878879
  0
LINE
  5
2AF
100
AcDbEntity
  8
レイヤ2
  6
CONTINUOUS
 62
     3
100
AcDbLine
 10
426.3993903513
 20
259.496878879
 11
426.3993903513
 21
246.296878879
  0
LINE
  5
2B0
100
AcDbEntity
  8
レイヤ2
  6
CONTINUOUS
 62
     3
100
AcDbLine
 10
439.0487193513
 20
243.296878879
 11
445.7497893513
 21
243.296878879
  0
LINE
  5
2B1
100
AcDbEntity
  8
レイヤ2
  6
CONTINUOUS
 62
     3
100
AcDbLine
 10
446.3993913513
 20
242.647276879
 11
445.7497893513
 21
243.296878879
  0
LINE
  5
2B2
100
AcDbEntity
  8
レイヤ2
  6
CONTINUOUS
 62
     3
100
AcDbLine
 10
439.0489893513
 20
243.296878879
 11
438.3993903513
 21
242.647276879
  0
LINE
  5
2B3
100
AcDbEntity
  8
レイヤ2
  6
CONTINUOUS
 62
     3
100
AcDbLine
 10
431.1497913513
 20
248.896876879
 11
426.3993903513
 21
248.896876879
  0
LINE
  5
2B4
100
AcDbEntity
  8
レイヤ2
  6
CONTINUOUS
 62
     3
100
AcDbLine
 10
426.3993903513
 20
256.896877879
 11
431.1497913513
 21
256.896877879
  0
LINE
  5
2B5
100
AcDbEntity
  8
レイヤ2
  6
CONTINUOUS
 62
     3
100
AcDbLine
 10
425.6982153513
 20
245.056876879
 11
419.9993913513
 21
245.056876879
  0
LINE
  5
2B6
100
AcDbEntity
  8
レイヤ2
  6
CONTINUOUS
 62
     3
100
AcDbLine
 10
419.9993913513
 20
248.896876879
 11
425.6982153513
 21
248.896876879
  0
LINE
  5
2B7
100
AcDbEntity
  8
レイヤ2
  6
CONTINUOUS
 62
     3
100
AcDbLine
 10
425.6982153513
 20
256.896877879
 11
419.9993913513
 21
256.896877879
  0
LINE
  5
2B8
100
AcDbEntity
  8
レイヤ2
  6
CONTINUOUS
 62
     3
100
AcDbLine
 10
419.9993913513
 20
260.736877879
 11
425.6834763513
 21
260.736877879
  0
LINE
  5
2B9
100
AcDbEntity
  8
レイヤ2
  6
CONTINUOUS
 62
     3
100
AcDbLine
 10
419.9993913513
 20
260.736877879
 11
419.9993913513
 21
245.056876879
  0
ARC
  5
2BA
100
AcDbEntity
  8
レイヤ2
  6
CONTINUOUS
 62
     3
100
AcDbCircle
 10
414.6393903513
 20
252.896878879
 40
11.76
100
AcDbArc
 50
-19.885163
 51
19.885163
  0
ARC
  5
2BB
100
AcDbEntity
  8
レイヤ2
  6
CONTINUOUS
 62
     3
100
AcDbCircle
 10
423.4662243513
 20
246.900400879
 40
2.994615
100
AcDbArc
 50
11.626795
 51
41.812072
  0
ARC
  5
2BC
100
AcDbEntity
  8
レイヤ2
  6
CONTINUOUS
 62
     3
100
AcDbCircle
 10
423.4662243513
 20
258.893353879
 40
2.994615
100
AcDbArc
 50
-41.81207200001
 51
-11.62679500001
  0
LINE
  5
2BD
100
AcDbEntity
  8
レイヤ2
  6
CONTINUOUS
 62
     3
100
AcDbLine
 10
426.3993903513
 20
246.296878879
 11
425.6982153513
 21
245.056876879
  0
LINE
  5
2BE
100
AcDbEntity
  8
レイヤ2
  6
CONTINUOUS
 62
     3
100
AcDbLine
 10
434.6993913513
 20
230.496877879
 11
434.6993913513
 21
228.496876879
  0
LINE
  5
2BF
100
AcDbEntity
  8
レイヤ2
  6
CONTINUOUS
 62
     3
100
AcDbLine
 10
450.0993903513
 20
230.496877879
 11
450.0993903513
 21
228.496876879
  0
LINE
  5
2C0
100
AcDbEntity
  8
レイヤ2
  6
CONTINUOUS
 62
     3
100
AcDbLine
 10
435.7993893513
 20
236.996878879
 11
434.5593903513
 21
236.295700879
  0
LINE
  5
2C1
100
AcDbEntity
  8
レイヤ2
  6
CONTINUOUS
 62
     3
100
AcDbLine
 10
435.7993893513
 20
236.996878879
 11
448.9993893513
 21
236.996878879
  0
LINE
  5
2C2
100
AcDbEntity
  8
レイヤ2
  6
CONTINUOUS
 62
     3
100
AcDbLine
 10
448.9993893513
 20
236.996878879
 11
450.2393913513
 21
236.280961879
  0
LINE
  5
2C3
100
AcDbEntity
  8
レイヤ2
  6
CONTINUOUS
 62
     3
100
AcDbLine
 10
442.3993893513
 20
230.496877879
 11
440.3993913513
 21
228.496876879
  0
LINE
  5
2C4
100
AcDbEntity
  8
レイヤ2
  6
CONTINUOUS
 62
     3
100
AcDbLine
 10
442.3993893513
 20
228.496876879
 11
444.3993903513
 21
230.496877879
  0
LINE
  5
2C5
100
AcDbEntity
  8
レイヤ2
  6
CONTINUOUS
 62
     3
100
AcDbLine
 10
434.5593903513
 20
236.240206879
 11
434.5593903513
 21
230.496877879
  0
LINE
  5
2C6
100
AcDbEntity
  8
レイヤ2
  6
CONTINUOUS
 62
     3
100
AcDbLine
 10
450.2393913513
 20
230.496877879
 11
450.2393913513
 21
236.225467879
  0
LINE
  5
2C7
100
AcDbEntity
  8
レイヤ2
  6
CONTINUOUS
 62
     3
100
AcDbLine
 10
450.2393913513
 20
230.496877879
 11
434.5593903513
 21
230.496877879
  0
LINE
  5
2C8
100
AcDbEntity
  8
レイヤ2
  6
CONTINUOUS
 62
     3
100
AcDbLine
 10
446.3993913513
 20
236.295700879
 11
446.3993913513
 21
230.496877879
  0
LINE
  5
2C9
100
AcDbEntity
  8
レイヤ2
  6
CONTINUOUS
 62
     3
100
AcDbLine
 10
438.3993903513
 20
230.496877879
 11
438.3993903513
 21
236.295700879
  0
ARC
  5
2CA
100
AcDbEntity
  8
レイヤ2
  6
CONTINUOUS
 62
     3
100
AcDbCircle
 10
442.3993893513
 20
225.236878879
 40
11.76
100
AcDbArc
 50
70.114837
 51
109.885163
  0
ARC
  5
2CB
100
AcDbEntity
  8
レイヤ2
  6
CONTINUOUS
 62
     3
100
AcDbCircle
 10
436.4029143513
 20
234.063709879
 40
2.994615
100
AcDbArc
 50
48.187928
 51
78.373205
  0
ARC
  5
2CC
100
AcDbEntity
  8
レイヤ2
  6
CONTINUOUS
 62
     3
100
AcDbCircle
 10
448.3958673513
 20
234.063709879
 40
2.994615
100
AcDbArc
 50
101.626795
 51
131.812072
  0
LINE
  5
2CD
100
AcDbEntity
  8
レイヤ2
  6
CONTINUOUS
 62
     3
100
AcDbLine
 10
438.3993903513
 20
242.647276879
 11
438.3993903513
 21
236.996878879
  0
LINE
  5
2CE
100
AcDbEntity
  8
レイヤ2
  6
CONTINUOUS
 62
     3
100
AcDbLine
 10
446.3993913513
 20
242.647276879
 11
446.3993913513
 21
236.996878879
  0
LINE
  5
2CF
100
AcDbEntity
  8
レイヤ2
  6
CONTINUOUS
 62
     3
100
AcDbLine
 10
433.8993903513
 20
228.496876879
 11
450.8993913513
 21
228.496876879
  0
LINE
  5
2D0
100
AcDbEntity
  8
レイヤ2
  6
CONTINUOUS
 62
     3
100
AcDbLine
 10
433.8993903513
 20
228.496876879
 11
433.8993903513
 21
226.896877879
  0
LINE
  5
2D1
100
AcDbEntity
  8
レイヤ2
  6
CONTINUOUS
 62
     3
100
AcDbLine
 10
433.8993903513
 20
226.896877879
 11
450.8993913513
 21
226.896877879
  0
LINE
  5
2D2
100
AcDbEntity
  8
レイヤ2
  6
CONTINUOUS
 62
     3
100
AcDbLine
 10
450.8993913513
 20
226.896877879
 11
450.8993913513
 21
228.496876879
  0
LINE
  5
2D3
100
AcDbEntity
  8
レイヤ2
  6
CONTINUOUS
 62
     3
100
AcDbLine
 10
417.9993903513
 20
261.396877879
 11
416.3993913513
 21
261.396877879
  0
LINE
  5
2D4
100
AcDbEntity
  8
レイヤ2
  6
CONTINUOUS
 62
     3
100
AcDbLine
 10
417.9993903513
 20
261.396877879
 11
417.9993903513
 21
244.396876879
  0
LINE
  5
2D5
100
AcDbEntity
  8
レイヤ2
  6
CONTINUOUS
 62
     3
100
AcDbLine
 10
416.3993913513
 20
244.396876879
 11
417.9993903513
 21
244.396876879
  0
LINE
  5
2D6
100
AcDbEntity
  8
レイヤ2
  6
CONTINUOUS
 62
     3
100
AcDbLine
 10
271.9283223513
 20
-73.82351812105
 11
271.9283223513
 21
-80.52459112105
  0
LINE
  5
2D7
100
AcDbEntity
  8
レイヤ2
  6
CONTINUOUS
 62
     3
100
AcDbLine
 10
272.5779213513
 20
-81.17419012105
 11
271.9283223513
 21
-80.52459112105
  0
LINE
  5
2D8
100
AcDbEntity
  8
レイヤ2
  6
CONTINUOUS
 62
     3
100
AcDbLine
 10
271.9283223513
 20
-73.82379112105
 11
272.5779213513
 21
-73.17418912105
  0
LINE
  5
2D9
100
AcDbEntity
  8
レイヤ2
  6
CONTINUOUS
 62
     3
100
AcDbLine
 10
284.7283233513
 20
-69.47419012105
 11
286.7283213513
 21
-69.47419012105
  0
LINE
  5
2DA
100
AcDbEntity
  8
レイヤ2
  6
CONTINUOUS
 62
     3
100
AcDbLine
 10
284.7283233513
 20
-84.87418912105
 11
286.7283213513
 21
-84.87418912105
  0
LINE
  5
2DB
100
AcDbEntity
  8
レイヤ2
  6
CONTINUOUS
 62
     3
100
AcDbLine
 10
278.2283223513
 20
-70.57419112105
 11
278.9294973513
 21
-69.33418912105
  0
LINE
  5
2DC
100
AcDbEntity
  8
レイヤ2
  6
CONTINUOUS
 62
     3
100
AcDbLine
 10
278.2283223513
 20
-70.57419112105
 11
278.2283223513
 21
-83.77419112105
  0
LINE
  5
2DD
100
AcDbEntity
  8
レイヤ2
  6
CONTINUOUS
 62
     3
100
AcDbLine
 10
278.2283223513
 20
-83.77419112105
 11
278.9442363513
 21
-85.01419012105
  0
LINE
  5
2DE
100
AcDbEntity
  8
レイヤ2
  6
CONTINUOUS
 62
     3
100
AcDbLine
 10
284.7283233513
 20
-77.17419112105
 11
286.7283213513
 21
-75.17419012105
  0
LINE
  5
2DF
100
AcDbEntity
  8
レイヤ2
  6
CONTINUOUS
 62
     3
100
AcDbLine
 10
286.7283213513
 20
-77.17419112105
 11
284.7283233513
 21
-79.17418912105
  0
LINE
  5
2E0
100
AcDbEntity
  8
レイヤ2
  6
CONTINUOUS
 62
     3
100
AcDbLine
 10
278.9849913513
 20
-69.33418912105
 11
284.7283233513
 21
-69.33418912105
  0
LINE
  5
2E1
100
AcDbEntity
  8
レイヤ2
  6
CONTINUOUS
 62
     3
100
AcDbLine
 10
284.7283233513
 20
-85.01419012105
 11
278.9997303513
 21
-85.01419012105
  0
LINE
  5
2E2
100
AcDbEntity
  8
レイヤ2
  6
CONTINUOUS
 62
     3
100
AcDbLine
 10
284.7283233513
 20
-85.01419012105
 11
284.7283233513
 21
-69.33418912105
  0
LINE
  5
2E3
100
AcDbEntity
  8
レイヤ2
  6
CONTINUOUS
 62
     3
100
AcDbLine
 10
278.9294973513
 20
-81.17419012105
 11
284.7283233513
 21
-81.17419012105
  0
LINE
  5
2E4
100
AcDbEntity
  8
レイヤ2
  6
CONTINUOUS
 62
     3
100
AcDbLine
 10
284.7283233513
 20
-73.17418912105
 11
278.9294973513
 21
-73.17418912105
  0
ARC
  5
2E5
100
AcDbEntity
  8
レイヤ2
  6
CONTINUOUS
 62
     3
100
AcDbCircle
 10
289.9883223513
 20
-77.17419112105
 40
11.76
100
AcDbArc
 50
160.114837
 51
199.885163
  0
ARC
  5
2E6
100
AcDbEntity
  8
レイヤ2
  6
CONTINUOUS
 62
     3
100
AcDbCircle
 10
281.1614913513
 20
-71.17771312105
 40
2.994615
100
AcDbArc
 50
-168.373205
 51
-138.187928
  0
ARC
  5
2E7
100
AcDbEntity
  8
レイヤ2
  6
CONTINUOUS
 62
     3
100
AcDbCircle
 10
281.1614913513
 20
-83.17066912105
 40
2.994615
100
AcDbArc
 50
138.187928
 51
168.373205
  0
LINE
  5
2E8
100
AcDbEntity
  8
レイヤ2
  6
CONTINUOUS
 62
     3
100
AcDbLine
 10
272.5779213513
 20
-73.17418912105
 11
278.2283223513
 21
-73.17418912105
  0
LINE
  5
2E9
100
AcDbEntity
  8
レイヤ2
  6
CONTINUOUS
 62
     3
100
AcDbLine
 10
272.5779213513
 20
-81.17419012105
 11
278.2283223513
 21
-81.17419012105
  0
LINE
  5
2EA
100
AcDbEntity
  8
レイヤ2
  6
CONTINUOUS
 62
     3
100
AcDbLine
 10
286.7283213513
 20
-68.67418912105
 11
286.7283213513
 21
-85.67419012105
  0
LINE
  5
2EB
100
AcDbEntity
  8
レイヤ2
  6
CONTINUOUS
 62
     3
100
AcDbLine
 10
286.7283213513
 20
-68.67418912105
 11
288.3283233513
 21
-68.67418912105
  0
LINE
  5
2EC
100
AcDbEntity
  8
レイヤ2
  6
CONTINUOUS
 62
     3
100
AcDbLine
 10
288.3283233513
 20
-68.67418912105
 11
288.3283233513
 21
-85.67419012105
  0
LINE
  5
2ED
100
AcDbEntity
  8
レイヤ2
  6
CONTINUOUS
 62
     3
100
AcDbLine
 10
288.3283233513
 20
-85.67419012105
 11
286.7283213513
 21
-85.67419012105
  0
LINE
  5
2EE
100
AcDbEntity
  8
レイヤ2
  6
CONTINUOUS
 62
     3
100
AcDbLine
 10
258.9779223513
 20
-66.57418912109
 11
258.3283233513
 21
-65.92459012109
  0
LINE
  5
2EF
100
AcDbEntity
  8
レイヤ2
  6
CONTINUOUS
 62
     3
100
AcDbLine
 10
265.6787223513
 20
-66.57418912109
 11
258.9779223513
 21
-66.57418912109
  0
LINE
  5
2F0
100
AcDbEntity
  8
レイヤ2
  6
CONTINUOUS
 62
     3
100
AcDbLine
 10
266.3283213513
 20
-65.92459012109
 11
265.6787223513
 21
-66.57418912109
  0
LINE
  5
2F1
100
AcDbEntity
  8
レイヤ2
  6
CONTINUOUS
 62
     3
100
AcDbLine
 10
270.0283233513
 20
-52.77418912109
 11
270.0283233513
 21
-54.77419012109
  0
LINE
  5
2F2
100
AcDbEntity
  8
レイヤ2
  6
CONTINUOUS
 62
     3
100
AcDbLine
 10
254.6283213513
 20
-52.77418912109
 11
254.6283213513
 21
-54.77419012109
  0
LINE
  5
2F3
100
AcDbEntity
  8
レイヤ2
  6
CONTINUOUS
 62
     3
100
AcDbLine
 10
264.3283233513
 20
-54.77419012109
 11
262.3283223513
 21
-52.77418912109
  0
LINE
  5
2F4
100
AcDbEntity
  8
レイヤ2
  6
CONTINUOUS
 62
     3
100
AcDbLine
 10
260.3283213513
 20
-52.77418912109
 11
262.3283223513
 21
-54.77419012109
  0
LINE
  5
2F5
100
AcDbEntity
  8
レイヤ2
  6
CONTINUOUS
 62
     3
100
AcDbLine
 10
270.1683213513
 20
-60.45827512109
 11
268.9283223513
 21
-61.17418912109
  0
LINE
  5
2F6
100
AcDbEntity
  8
レイヤ2
  6
CONTINUOUS
 62
     3
100
AcDbLine
 10
268.9283223513
 20
-61.17418912109
 11
255.7283223513
 21
-61.17418912109
  0
LINE
  5
2F7
100
AcDbEntity
  8
レイヤ2
  6
CONTINUOUS
 62
     3
100
AcDbLine
 10
258.3283233513
 20
-65.92459012109
 11
258.3283233513
 21
-61.17418912109
  0
LINE
  5
2F8
100
AcDbEntity
  8
レイヤ2
  6
CONTINUOUS
 62
     3
100
AcDbLine
 10
266.3283213513
 20
-61.17418912109
 11
266.3283213513
 21
-65.92459012109
  0
LINE
  5
2F9
100
AcDbEntity
  8
レイヤ2
  6
CONTINUOUS
 62
     3
100
AcDbLine
 10
254.4883233513
 20
-60.47301412109
 11
254.4883233513
 21
-54.77419012109
  0
LINE
  5
2FA
100
AcDbEntity
  8
レイヤ2
  6
CONTINUOUS
 62
     3
100
AcDbLine
 10
258.3283233513
 20
-54.77419012109
 11
258.3283233513
 21
-60.47301412109
  0
LINE
  5
2FB
100
AcDbEntity
  8
レイヤ2
  6
CONTINUOUS
 62
     3
100
AcDbLine
 10
266.3283213513
 20
-60.47301412109
 11
266.3283213513
 21
-54.77419012109
  0
LINE
  5
2FC
100
AcDbEntity
  8
レイヤ2
  6
CONTINUOUS
 62
     3
100
AcDbLine
 10
270.1683213513
 20
-54.77419012109
 11
270.1683213513
 21
-60.45827512109
  0
LINE
  5
2FD
100
AcDbEntity
  8
レイヤ2
  6
CONTINUOUS
 62
     3
100
AcDbLine
 10
270.1683213513
 20
-54.77419012109
 11
254.4883233513
 21
-54.77419012109
  0
ARC
  5
2FE
100
AcDbEntity
  8
レイヤ2
  6
CONTINUOUS
 62
     3
100
AcDbCircle
 10
262.3283223513
 20
-49.41418912109
 40
11.76
100
AcDbArc
 50
-109.885163
 51
-70.114837
  0
ARC
  5
2FF
100
AcDbEntity
  8
レイヤ2
  6
CONTINUOUS
 62
     3
100
AcDbCircle
 10
256.3318443513
 20
-58.24102312109
 40
2.994615
100
AcDbArc
 50
-78.373205
 51
-48.187928
  0
ARC
  5
300
100
AcDbEntity
  8
レイヤ2
  6
CONTINUOUS
 62
     3
100
AcDbCircle
 10
268.3248003513
 20
-58.24102312109
 40
2.994615
100
AcDbArc
 50
-131.812072
 51
-101.626795
  0
LINE
  5
301
100
AcDbEntity
  8
レイヤ2
  6
CONTINUOUS
 62
     3
100
AcDbLine
 10
255.7283223513
 20
-61.17418912109
 11
254.4883233513
 21
-60.47301412109
  0
LINE
  5
302
100
AcDbEntity
  8
レイヤ2
  6
CONTINUOUS
 62
     3
100
AcDbLine
 10
270.8283213513
 20
-52.77418912109
 11
270.8283213513
 21
-51.17419012109
  0
LINE
  5
303
100
AcDbEntity
  8
レイヤ2
  6
CONTINUOUS
 62
     3
100
AcDbLine
 10
270.8283213513
 20
-52.77418912109
 11
253.8283233513
 21
-52.77418912109
  0
LINE
  5
304
100
AcDbEntity
  8
レイヤ2
  6
CONTINUOUS
 62
     3
100
AcDbLine
 10
253.8283233513
 20
-51.17419012109
 11
253.8283233513
 21
-52.77418912109
  0
LINE
  5
305
100
AcDbEntity
  8
レイヤ2
  6
CONTINUOUS
 62
     3
100
AcDbLine
 10
271.9283223513
 20
76.17648187891
 11
271.9283223513
 21
69.47540887891
  0
LINE
  5
306
100
AcDbEntity
  8
レイヤ2
  6
CONTINUOUS
 62
     3
100
AcDbLine
 10
272.5779213513
 20
68.82580987891
 11
271.9283223513
 21
69.47540887891
  0
LINE
  5
307
100
AcDbEntity
  8
レイヤ2
  6
CONTINUOUS
 62
     3
100
AcDbLine
 10
271.9283223513
 20
76.17620887891
 11
272.5779213513
 21
76.82581087891
  0
LINE
  5
308
100
AcDbEntity
  8
レイヤ2
  6
CONTINUOUS
 62
     3
100
AcDbLine
 10
284.7283233513
 20
80.52580987891
 11
286.7283213513
 21
80.52580987891
  0
LINE
  5
309
100
AcDbEntity
  8
レイヤ2
  6
CONTINUOUS
 62
     3
100
AcDbLine
 10
284.7283233513
 20
65.12581087891
 11
286.7283213513
 21
65.12581087891
  0
LINE
  5
30A
100
AcDbEntity
  8
レイヤ2
  6
CONTINUOUS
 62
     3
100
AcDbLine
 10
278.2283223513
 20
79.42580887891
 11
278.9294973513
 21
80.66581087891
  0
LINE
  5
30B
100
AcDbEntity
  8
レイヤ2
  6
CONTINUOUS
 62
     3
100
AcDbLine
 10
278.2283223513
 20
79.42580887891
 11
278.2283223513
 21
66.22580887891
  0
LINE
  5
30C
100
AcDbEntity
  8
レイヤ2
  6
CONTINUOUS
 62
     3
100
AcDbLine
 10
278.2283223513
 20
66.22580887891
 11
278.9442363513
 21
64.98580987891
  0
LINE
  5
30D
100
AcDbEntity
  8
レイヤ2
  6
CONTINUOUS
 62
     3
100
AcDbLine
 10
284.7283233513
 20
72.82580887891
 11
286.7283213513
 21
74.82580987891
  0
LINE
  5
30E
100
AcDbEntity
  8
レイヤ2
  6
CONTINUOUS
 62
     3
100
AcDbLine
 10
286.7283213513
 20
72.82580887891
 11
284.7283233513
 21
70.82581087891
  0
LINE
  5
30F
100
AcDbEntity
  8
レイヤ2
  6
CONTINUOUS
 62
     3
100
AcDbLine
 10
278.9849913513
 20
80.66581087891
 11
284.7283233513
 21
80.66581087891
  0
LINE
  5
310
100
AcDbEntity
  8
レイヤ2
  6
CONTINUOUS
 62
     3
100
AcDbLine
 10
284.7283233513
 20
64.98580987891
 11
278.9997303513
 21
64.98580987891
  0
LINE
  5
311
100
AcDbEntity
  8
レイヤ2
  6
CONTINUOUS
 62
     3
100
AcDbLine
 10
284.7283233513
 20
64.98580987891
 11
284.7283233513
 21
80.66581087891
  0
LINE
  5
312
100
AcDbEntity
  8
レイヤ2
  6
CONTINUOUS
 62
     3
100
AcDbLine
 10
278.9294973513
 20
68.82580987891
 11
284.7283233513
 21
68.82580987891
  0
LINE
  5
313
100
AcDbEntity
  8
レイヤ2
  6
CONTINUOUS
 62
     3
100
AcDbLine
 10
284.7283233513
 20
76.82581087891
 11
278.9294973513
 21
76.82581087891
  0
ARC
  5
314
100
AcDbEntity
  8
レイヤ2
  6
CONTINUOUS
 62
     3
100
AcDbCircle
 10
289.9883223513
 20
72.82580887891
 40
11.76
100
AcDbArc
 50
160.114837
 51
199.885163
  0
ARC
  5
315
100
AcDbEntity
  8
レイヤ2
  6
CONTINUOUS
 62
     3
100
AcDbCircle
 10
281.1614913513
 20
78.82228687891
 40
2.994615
100
AcDbArc
 50
-168.373205
 51
-138.187928
  0
ARC
  5
316
100
AcDbEntity
  8
レイヤ2
  6
CONTINUOUS
 62
     3
100
AcDbCircle
 10
281.1614913513
 20
66.82933087891
 40
2.994615
100
AcDbArc
 50
138.187928
 51
168.373205
  0
LINE
  5
317
100
AcDbEntity
  8
レイヤ2
  6
CONTINUOUS
 62
     3
100
AcDbLine
 10
272.5779213513
 20
76.82581087891
 11
278.2283223513
 21
76.82581087891
  0
LINE
  5
318
100
AcDbEntity
  8
レイヤ2
  6
CONTINUOUS
 62
     3
100
AcDbLine
 10
272.5779213513
 20
68.82580987891
 11
278.2283223513
 21
68.82580987891
  0
LINE
  5
319
100
AcDbEntity
  8
レイヤ2
  6
CONTINUOUS
 62
     3
100
AcDbLine
 10
286.7283213513
 20
81.32581087891
 11
286.7283213513
 21
64.32580987891
  0
LINE
  5
31A
100
AcDbEntity
  8
レイヤ2
  6
CONTINUOUS
 62
     3
100
AcDbLine
 10
286.7283213513
 20
81.32581087891
 11
288.3283233513
 21
81.32581087891
  0
LINE
  5
31B
100
AcDbEntity
  8
レイヤ2
  6
CONTINUOUS
 62
     3
100
AcDbLine
 10
288.3283233513
 20
81.32581087891
 11
288.3283233513
 21
64.32580987891
  0
LINE
  5
31C
100
AcDbEntity
  8
レイヤ2
  6
CONTINUOUS
 62
     3
100
AcDbLine
 10
288.3283233513
 20
64.32580987891
 11
286.7283213513
 21
64.32580987891
  0
LINE
  5
31D
100
AcDbEntity
  8
レイヤ2
  6
CONTINUOUS
 62
     3
100
AcDbLine
 10
258.9779223513
 20
83.42581087891
 11
258.3283233513
 21
84.07540987891
  0
LINE
  5
31E
100
AcDbEntity
  8
レイヤ2
  6
CONTINUOUS
 62
     3
100
AcDbLine
 10
265.6787223513
 20
83.42581087891
 11
258.9779223513
 21
83.42581087891
  0
LINE
  5
31F
100
AcDbEntity
  8
レイヤ2
  6
CONTINUOUS
 62
     3
100
AcDbLine
 10
266.3283213513
 20
84.07540987891
 11
265.6787223513
 21
83.42581087891
  0
LINE
  5
320
100
AcDbEntity
  8
レイヤ2
  6
CONTINUOUS
 62
     3
100
AcDbLine
 10
270.0283233513
 20
97.22581087891
 11
270.0283233513
 21
95.22580987891
  0
LINE
  5
321
100
AcDbEntity
  8
レイヤ2
  6
CONTINUOUS
 62
     3
100
AcDbLine
 10
254.6283213513
 20
97.22581087891
 11
254.6283213513
 21
95.22580987891
  0
LINE
  5
322
100
AcDbEntity
  8
レイヤ2
  6
CONTINUOUS
 62
     3
100
AcDbLine
 10
264.3283233513
 20
95.22580987891
 11
262.3283223513
 21
97.22581087891
  0
LINE
  5
323
100
AcDbEntity
  8
レイヤ2
  6
CONTINUOUS
 62
     3
100
AcDbLine
 10
260.3283213513
 20
97.22581087891
 11
262.3283223513
 21
95.22580987891
  0
LINE
  5
324
100
AcDbEntity
  8
レイヤ2
  6
CONTINUOUS
 62
     3
100
AcDbLine
 10
270.1683213513
 20
89.54172487891
 11
268.9283223513
 21
88.82581087891
  0
LINE
  5
325
100
AcDbEntity
  8
レイヤ2
  6
CONTINUOUS
 62
     3
100
AcDbLine
 10
268.9283223513
 20
88.82581087891
 11
255.7283223513
 21
88.82581087891
  0
LINE
  5
326
100
AcDbEntity
  8
レイヤ2
  6
CONTINUOUS
 62
     3
100
AcDbLine
 10
258.3283233513
 20
84.07540987891
 11
258.3283233513
 21
88.82581087891
  0
LINE
  5
327
100
AcDbEntity
  8
レイヤ2
  6
CONTINUOUS
 62
     3
100
AcDbLine
 10
266.3283213513
 20
88.82581087891
 11
266.3283213513
 21
84.07540987891
  0
LINE
  5
328
100
AcDbEntity
  8
レイヤ2
  6
CONTINUOUS
 62
     3
100
AcDbLine
 10
254.4883233513
 20
89.52698587891
 11
254.4883233513
 21
95.22580987891
  0
LINE
  5
329
100
AcDbEntity
  8
レイヤ2
  6
CONTINUOUS
 62
     3
100
AcDbLine
 10
258.3283233513
 20
95.22580987891
 11
258.3283233513
 21
89.52698587891
  0
LINE
  5
32A
100
AcDbEntity
  8
レイヤ2
  6
CONTINUOUS
 62
     3
100
AcDbLine
 10
266.3283213513
 20
89.52698587891
 11
266.3283213513
 21
95.22580987891
  0
LINE
  5
32B
100
AcDbEntity
  8
レイヤ2
  6
CONTINUOUS
 62
     3
100
AcDbLine
 10
270.1683213513
 20
95.22580987891
 11
270.1683213513
 21
89.54172487891
  0
LINE
  5
32C
100
AcDbEntity
  8
レイヤ2
  6
CONTINUOUS
 62
     3
100
AcDbLine
 10
270.1683213513
 20
95.22580987891
 11
254.4883233513
 21
95.22580987891
  0
ARC
  5
32D
100
AcDbEntity
  8
レイヤ2
  6
CONTINUOUS
 62
     3
100
AcDbCircle
 10
262.3283223513
 20
100.5858108789
 40
11.76
100
AcDbArc
 50
-109.885163
 51
-70.114837
  0
ARC
  5
32E
100
AcDbEntity
  8
レイヤ2
  6
CONTINUOUS
 62
     3
100
AcDbCircle
 10
256.3318443513
 20
91.75897687891
 40
2.994615
100
AcDbArc
 50
-78.373205
 51
-48.187928
  0
ARC
  5
32F
100
AcDbEntity
  8
レイヤ2
  6
CONTINUOUS
 62
     3
100
AcDbCircle
 10
268.3248003513
 20
91.75897687891
 40
2.994615
100
AcDbArc
 50
-131.812072
 51
-101.626795
  0
LINE
  5
330
100
AcDbEntity
  8
レイヤ2
  6
CONTINUOUS
 62
     3
100
AcDbLine
 10
255.7283223513
 20
88.82581087891
 11
254.4883233513
 21
89.52698587891
  0
LINE
  5
331
100
AcDbEntity
  8
レイヤ2
  6
CONTINUOUS
 62
     3
100
AcDbLine
 10
270.8283213513
 20
97.22581087891
 11
270.8283213513
 21
98.82580987891
  0
LINE
  5
332
100
AcDbEntity
  8
レイヤ2
  6
CONTINUOUS
 62
     3
100
AcDbLine
 10
270.8283213513
 20
97.22581087891
 11
253.8283233513
 21
97.22581087891
  0
LINE
  5
333
100
AcDbEntity
  8
レイヤ2
  6
CONTINUOUS
 62
     3
100
AcDbLine
 10
253.8283233513
 20
98.82580987891
 11
253.8283233513
 21
97.22581087891
  0
LINE
  5
334
100
AcDbEntity
  8
レイヤ2
  6
CONTINUOUS
 62
     4
100
AcDbLine
 10
292.3283223513
 20
122.8968768789
 11
601.3868481476
 21
122.8968768789
  0
LINE
  5
335
100
AcDbEntity
  8
レイヤ2
  6
CONTINUOUS
 62
     3
100
AcDbLine
 10
292.3283223513
 20
219.896878879
 11
612.3993903513
 21
219.896878879
  0
LINE
  5
336
100
AcDbEntity
  8
レイヤ2
  6
CONTINUOUS
 62
     3
100
AcDbLine
 10
562.3993893513
 20
222.896878879
 11
612.3993903513
 21
222.896878879
  0
LINE
  5
337
100
AcDbEntity
  8
レイヤ2
  6
CONTINUOUS
 62
     4
100
AcDbLine
 10
292.3283223513
 20
222.896878879
 11
612.3993903513
 21
222.896878879
  0
LINE
  5
338
100
AcDbEntity
  8
レイヤ2
  6
CONTINUOUS
 62
     3
100
AcDbLine
 10
298.7124093513
 20
-85.01419012105
 11
293.9283213513
 21
-85.01419012105
  0
LINE
  5
339
100
AcDbEntity
  8
レイヤ2
  6
CONTINUOUS
 62
     3
100
AcDbLine
 10
298.7271483513
 20
-69.33418912105
 11
293.9283213513
 21
-69.33418912105
  0
LINE
  5
33A
100
AcDbEntity
  8
レイヤ2
  6
CONTINUOUS
 62
     3
100
AcDbLine
 10
298.7271483513
 20
-81.17419012105
 11
293.9283213513
 21
-81.17419012105
  0
LINE
  5
33B
100
AcDbEntity
  8
レイヤ2
  6
CONTINUOUS
 62
     3
100
AcDbLine
 10
298.7271483513
 20
-73.17418912105
 11
293.9283213513
 21
-73.17418912105
  0
LINE
  5
33C
100
AcDbEntity
  8
レイヤ2
  6
CONTINUOUS
 62
     3
100
AcDbLine
 10
299.4283233513
 20
-83.77419112105
 11
299.4283233513
 21
-70.57419112105
  0
LINE
  5
33D
100
AcDbEntity
  8
レイヤ2
  6
CONTINUOUS
 62
     3
100
AcDbLine
 10
298.7124093513
 20
-85.01419012105
 11
299.4283233513
 21
-83.77419112105
  0
LINE
  5
33E
100
AcDbEntity
  8
レイヤ2
  6
CONTINUOUS
 62
     3
100
AcDbLine
 10
299.4283233513
 20
-70.57419112105
 11
298.7271483513
 21
-69.33418912105
  0
ARC
  5
33F
100
AcDbEntity
  8
レイヤ2
  6
CONTINUOUS
 62
     3
100
AcDbCircle
 10
296.4951543513
 20
-83.17066912105
 40
2.994615
100
AcDbArc
 50
11.626795
 51
41.812072
  0
ARC
  5
340
100
AcDbEntity
  8
レイヤ2
  6
CONTINUOUS
 62
     3
100
AcDbCircle
 10
296.4951543513
 20
-71.17771312105
 40
2.994615
100
AcDbArc
 50
-41.812072
 51
-11.626795
  0
ARC
  5
341
100
AcDbEntity
  8
レイヤ2
  6
CONTINUOUS
 62
     3
100
AcDbCircle
 10
287.6683233513
 20
-77.17419112105
 40
11.76
100
AcDbArc
 50
-19.885163
 51
19.885163
  0
LINE
  5
342
100
AcDbEntity
  8
レイヤ2
  6
CONTINUOUS
 62
     3
100
AcDbLine
 10
293.9283213513
 20
-85.67419012105
 11
292.3283223513
 21
-85.67419012105
  0
LINE
  5
343
100
AcDbEntity
  8
レイヤ2
  6
CONTINUOUS
 62
     3
100
AcDbLine
 10
293.9283213513
 20
-68.67418912105
 11
293.9283213513
 21
-85.67419012105
  0
LINE
  5
344
100
AcDbEntity
  8
レイヤ2
  6
CONTINUOUS
 62
     3
100
AcDbLine
 10
292.3283223513
 20
-68.67418912105
 11
293.9283213513
 21
-68.67418912105
  0
LINE
  5
345
100
AcDbEntity
  8
レイヤ2
  6
CONTINUOUS
 62
     3
100
AcDbLine
 10
292.3283223513
 20
-68.67418912105
 11
292.3283223513
 21
-85.67419012105
  0
LINE
  5
346
100
AcDbEntity
  8
レイヤ2
  6
CONTINUOUS
 62
     3
100
AcDbLine
 10
298.7124093513
 20
64.98580987891
 11
293.9283213513
 21
64.98580987891
  0
LINE
  5
347
100
AcDbEntity
  8
レイヤ2
  6
CONTINUOUS
 62
     3
100
AcDbLine
 10
298.7271483513
 20
80.66581087891
 11
293.9283213513
 21
80.66581087891
  0
LINE
  5
348
100
AcDbEntity
  8
レイヤ2
  6
CONTINUOUS
 62
     3
100
AcDbLine
 10
298.7271483513
 20
68.82580987891
 11
293.9283213513
 21
68.82580987891
  0
LINE
  5
349
100
AcDbEntity
  8
レイヤ2
  6
CONTINUOUS
 62
     3
100
AcDbLine
 10
298.7271483513
 20
76.82581087891
 11
293.9283213513
 21
76.82581087891
  0
LINE
  5
34A
100
AcDbEntity
  8
レイヤ2
  6
CONTINUOUS
 62
     3
100
AcDbLine
 10
299.4283233513
 20
66.22580887891
 11
299.4283233513
 21
79.42580887891
  0
LINE
  5
34B
100
AcDbEntity
  8
レイヤ2
  6
CONTINUOUS
 62
     3
100
AcDbLine
 10
298.7124093513
 20
64.98580987891
 11
299.4283233513
 21
66.22580887891
  0
LINE
  5
34C
100
AcDbEntity
  8
レイヤ2
  6
CONTINUOUS
 62
     3
100
AcDbLine
 10
299.4283233513
 20
79.42580887891
 11
298.7271483513
 21
80.66581087891
  0
ARC
  5
34D
100
AcDbEntity
  8
レイヤ2
  6
CONTINUOUS
 62
     3
100
AcDbCircle
 10
296.4951543513
 20
66.82933087891
 40
2.994615
100
AcDbArc
 50
11.626795
 51
41.81207199999
  0
ARC
  5
34E
100
AcDbEntity
  8
レイヤ2
  6
CONTINUOUS
 62
     3
100
AcDbCircle
 10
296.4951543513
 20
78.82228687891
 40
2.994615
100
AcDbArc
 50
-41.812072
 51
-11.626795
  0
ARC
  5
34F
100
AcDbEntity
  8
レイヤ2
  6
CONTINUOUS
 62
     3
100
AcDbCircle
 10
287.6683233513
 20
72.82580887891
 40
11.76
100
AcDbArc
 50
-19.885163
 51
19.885163
  0
LINE
  5
350
100
AcDbEntity
  8
レイヤ2
  6
CONTINUOUS
 62
     3
100
AcDbLine
 10
293.9283213513
 20
64.32580987891
 11
292.3283223513
 21
64.32580987891
  0
LINE
  5
351
100
AcDbEntity
  8
レイヤ2
  6
CONTINUOUS
 62
     3
100
AcDbLine
 10
293.9283213513
 20
81.32581087891
 11
293.9283213513
 21
64.32580987891
  0
LINE
  5
352
100
AcDbEntity
  8
レイヤ2
  6
CONTINUOUS
 62
     3
100
AcDbLine
 10
292.3283223513
 20
81.32581087891
 11
293.9283213513
 21
81.32581087891
  0
LINE
  5
353
100
AcDbEntity
  8
レイヤ2
  6
CONTINUOUS
 62
     3
100
AcDbLine
 10
292.3283223513
 20
81.32581087891
 11
292.3283223513
 21
64.32580987891
  0
LINE
  5
354
100
AcDbEntity
  8
レイヤ2
  6
CONTINUOUS
 62
     3
100
AcDbLine
 10
282.3283233513
 20
-46.67419012109
 11
282.3283233513
 21
-112.7596018916
  0
LINE
  5
355
100
AcDbEntity
  8
レイヤ2
  6
CONTINUOUS
 62
     4
100
AcDbLine
 10
242.3283223513
 20
327.896878879
 11
601.3554074333
 21
327.896878879
  0
LINE
  5
356
100
AcDbEntity
  8
レイヤ2
  6
CONTINUOUS
 62
     4
100
AcDbLine
 10
242.3283223513
 20
327.896878879
 11
598.5263266396
 21
327.896878879
  0
LINE
  5
357
100
AcDbEntity
  8
レイヤ2
  6
CONTINUOUS
 62
     4
100
AcDbLine
 10
242.3283223513
 20
327.896878879
 11
601.3554074333
 21
327.896878879
  0
LINE
  5
358
100
AcDbEntity
  8
レイヤ2
  6
CONTINUOUS
 62
     4
100
AcDbLine
 10
190.8638562572
 20
327.896878879
 11
601.3554074333
 21
327.896878879
  0
LINE
  5
359
100
AcDbEntity
  8
レイヤ2
  6
CONTINUOUS
 62
     4
100
AcDbLine
 10
190.8638562572
 20
327.896878879
 11
235.8638562572
 21
282.896878879
  0
LINE
  5
35A
100
AcDbEntity
  8
レイヤ2
  6
CONTINUOUS
 62
     4
100
AcDbLine
 10
235.8638562572
 20
282.896878879
 11
601.3554074333
 21
282.896878879
  0
LINE
  5
35B
100
AcDbEntity
  8
レイヤ2
  6
CONTINUOUS
 62
     4
100
AcDbLine
 10
232.3283223513
 20
279.361344973
 11
232.3283223513
 21
-125.667694121
  0
LINE
  5
35C
100
AcDbEntity
  8
レイヤ2
  6
CONTINUOUS
 62
     4
100
AcDbLine
 10
187.3283223513
 20
324.361344973
 11
232.3283223513
 21
279.361344973
  0
LINE
  5
35D
100
AcDbEntity
  8
レイヤ2
  6
CONTINUOUS
 62
     0
100
AcDbLine
 10
187.3283223513
 20
324.361344973
 11
187.3283223513
 21
-125.667694121
  0
LINE
  5
35E
100
AcDbEntity
  8
レイヤ2
  6
CONTINUOUS
 62
     4
100
AcDbLine
 10
187.3283223513
 20
324.361344973
 11
187.3283223513
 21
-125.667694121
  0
LINE
  5
35F
100
AcDbEntity
  8
レイヤ2
  6
CONTINUOUS
 62
     3
100
AcDbLine
 10
229.3283223513
 20
282.361344973
 11
229.3283223513
 21
-125.667694121
  0
LINE
  5
360
100
AcDbEntity
  8
レイヤ2
  6
CONTINUOUS
 62
     3
100
AcDbLine
 10
232.8638562572
 20
285.896878879
 11
601.3554074333
 21
285.896878879
  0
LINE
  5
361
100
AcDbEntity
  8
レイヤ2
  6
CONTINUOUS
 62
     4
100
AcDbLine
 10
-84.30822868547
 20
-58.68474460672
 11
-84.30822868547
 21
340.4481223933
  0
LINE
  5
362
100
AcDbEntity
  8
レイヤ2
  6
CONTINUOUS
 62
     3
100
AcDbLine
 10
-72.95015668547
 20
284.4481213933
 11
-72.40823068547
 21
285.3867673933
  0
LINE
  5
363
100
AcDbEntity
  8
レイヤ2
  6
CONTINUOUS
 62
     3
100
AcDbLine
 10
-72.95015668547
 20
284.4481213933
 11
-77.20823068547
 21
284.4481213933
  0
ARC
  5
364
100
AcDbEntity
  8
レイヤ2
  6
CONTINUOUS
 62
     3
100
AcDbCircle
 10
-74.70023068547
 20
186.0008713933
 40
2.292
100
AcDbArc
 50
0
 51
39.156132
  0
ARC
  5
365
100
AcDbEntity
  8
レイヤ2
  6
CONTINUOUS
 62
     3
100
AcDbCircle
 10
-81.40823068547
 20
190.4481223933
 40
9
100
AcDbArc
 50
-19.471221
 51
0
  0
LINE
  5
366
100
AcDbEntity
  8
レイヤ2
  6
CONTINUOUS
 62
     3
100
AcDbLine
 10
-72.95015668547
 20
184.4481223933
 11
-72.40823068547
 21
185.3867683933
  0
LINE
  5
367
100
AcDbEntity
  8
レイヤ2
  6
CONTINUOUS
 62
     3
100
AcDbLine
 10
-72.95015668547
 20
184.4481223933
 11
-77.20823068547
 21
184.4481223933
  0
LINE
  5
368
100
AcDbEntity
  8
レイヤ2
  6
CONTINUOUS
 62
     3
100
AcDbLine
 10
-72.92294968547
 20
187.4481223933
 11
-77.20823068547
 21
187.4481223933
  0
ARC
  5
369
100
AcDbEntity
  8
レイヤ2
  6
CONTINUOUS
 62
     3
100
AcDbCircle
 10
-74.70023068547
 20
194.8953733933
 40
2.292
100
AcDbArc
 50
-39.156132
 51
0
  0
ARC
  5
36A
100
AcDbEntity
  8
レイヤ2
  6
CONTINUOUS
 62
     3
100
AcDbCircle
 10
-81.40823068547
 20
190.4481223933
 40
9
100
AcDbArc
 50
0
 51
19.471221
  0
LINE
  5
36B
100
AcDbEntity
  8
レイヤ2
  6
CONTINUOUS
 62
     3
100
AcDbLine
 10
-72.95015668547
 20
196.4481223933
 11
-77.20823068547
 21
196.4481223933
  0
LINE
  5
36C
100
AcDbEntity
  8
レイヤ2
  6
CONTINUOUS
 62
     3
100
AcDbLine
 10
-72.92294968547
 20
193.4481223933
 11
-77.20823068547
 21
193.4481223933
  0
LINE
  5
36D
100
AcDbEntity
  8
レイヤ2
  6
CONTINUOUS
 62
     3
100
AcDbLine
 10
-59.80823068547
 20
187.9481233933
 11
-60.30822868547
 21
187.4481223933
  0
LINE
  5
36E
100
AcDbEntity
  8
レイヤ2
  6
CONTINUOUS
 62
     3
100
AcDbLine
 10
-72.40823068547
 20
195.5094763933
 11
-72.95015668547
 21
196.4481223933
  0
LINE
  5
36F
100
AcDbEntity
  8
レイヤ2
  6
CONTINUOUS
 62
     3
100
AcDbLine
 10
-72.40823068547
 20
185.3867683933
 11
-72.40823068547
 21
195.5094763933
  0
LINE
  5
370
100
AcDbEntity
  8
レイヤ2
  6
CONTINUOUS
 62
     3
100
AcDbLine
 10
-60.30822868547
 20
187.4481223933
 11
-72.40823068547
 21
187.4481223933
  0
LINE
  5
371
100
AcDbEntity
  8
レイヤ2
  6
CONTINUOUS
 62
     3
100
AcDbLine
 10
-59.80823068547
 20
192.9481213933
 11
-59.80823068547
 21
187.9481233933
  0
LINE
  5
372
100
AcDbEntity
  8
レイヤ2
  6
CONTINUOUS
 62
     3
100
AcDbLine
 10
-60.30822868547
 20
193.4481223933
 11
-59.80823068547
 21
192.9481213933
  0
LINE
  5
373
100
AcDbEntity
  8
レイヤ2
  6
CONTINUOUS
 62
     3
100
AcDbLine
 10
-72.40823068547
 20
193.4481223933
 11
-60.30822868547
 21
193.4481223933
  0
ARC
  5
374
100
AcDbEntity
  8
レイヤ2
  6
CONTINUOUS
 62
     3
100
AcDbCircle
 10
-74.70023068547
 20
86.00087239328
 40
2.292
100
AcDbArc
 50
0
 51
39.156132
  0
ARC
  5
375
100
AcDbEntity
  8
レイヤ2
  6
CONTINUOUS
 62
     3
100
AcDbCircle
 10
-81.40823068547
 20
90.44812339328
 40
9
100
AcDbArc
 50
-19.471221
 51
0
  0
LINE
  5
376
100
AcDbEntity
  8
レイヤ2
  6
CONTINUOUS
 62
     3
100
AcDbLine
 10
-72.92294968547
 20
87.44812339328
 11
-77.20823068547
 21
87.44812339328
  0
ARC
  5
377
100
AcDbEntity
  8
レイヤ2
  6
CONTINUOUS
 62
     3
100
AcDbCircle
 10
-74.70023068547
 20
94.89537439328
 40
2.292
100
AcDbArc
 50
-39.156132
 51
0
  0
ARC
  5
378
100
AcDbEntity
  8
レイヤ2
  6
CONTINUOUS
 62
     3
100
AcDbCircle
 10
-81.40823068547
 20
90.44812339328
 40
9
100
AcDbArc
 50
0
 51
19.471221
  0
LINE
  5
379
100
AcDbEntity
  8
レイヤ2
  6
CONTINUOUS
 62
     3
100
AcDbLine
 10
-72.95015668547
 20
96.44812339328
 11
-77.20823068547
 21
96.44812339328
  0
LINE
  5
37A
100
AcDbEntity
  8
レイヤ2
  6
CONTINUOUS
 62
     3
100
AcDbLine
 10
-72.92294968547
 20
93.44812339328
 11
-77.20823068547
 21
93.44812339328
  0
LINE
  5
37B
100
AcDbEntity
  8
レイヤ2
  6
CONTINUOUS
 62
     3
100
AcDbLine
 10
-59.80823068547
 20
87.94812139328
 11
-60.30822868547
 21
87.44812339328
  0
LINE
  5
37C
100
AcDbEntity
  8
レイヤ2
  6
CONTINUOUS
 62
     3
100
AcDbLine
 10
-72.40823068547
 20
95.50947739328
 11
-72.95015668547
 21
96.44812339328
  0
LINE
  5
37D
100
AcDbEntity
  8
レイヤ2
  6
CONTINUOUS
 62
     3
100
AcDbLine
 10
-72.40823068547
 20
85.38676939328
 11
-72.40823068547
 21
95.50947739328
  0
LINE
  5
37E
100
AcDbEntity
  8
レイヤ2
  6
CONTINUOUS
 62
     3
100
AcDbLine
 10
-60.30822868547
 20
87.44812339328
 11
-72.40823068547
 21
87.44812339328
  0
LINE
  5
37F
100
AcDbEntity
  8
レイヤ2
  6
CONTINUOUS
 62
     3
100
AcDbLine
 10
-59.80823068547
 20
92.94812239328
 11
-59.80823068547
 21
87.94812139328
  0
LINE
  5
380
100
AcDbEntity
  8
レイヤ2
  6
CONTINUOUS
 62
     3
100
AcDbLine
 10
-60.30822868547
 20
93.44812339328
 11
-59.80823068547
 21
92.94812239328
  0
LINE
  5
381
100
AcDbEntity
  8
レイヤ2
  6
CONTINUOUS
 62
     3
100
AcDbLine
 10
-72.40823068547
 20
93.44812339328
 11
-60.30822868547
 21
93.44812339328
  0
LINE
  5
382
100
AcDbEntity
  8
レイヤ2
  6
CONTINUOUS
 62
     3
100
AcDbLine
 10
-72.95015668547
 20
84.44812339328
 11
-72.40823068547
 21
85.38676939328
  0
LINE
  5
383
100
AcDbEntity
  8
レイヤ2
  6
CONTINUOUS
 62
     3
100
AcDbLine
 10
-72.95015668547
 20
84.44812339328
 11
-77.20823068547
 21
84.44812339328
  0
ARC
  5
384
100
AcDbEntity
  8
レイヤ2
  6
CONTINUOUS
 62
     3
100
AcDbCircle
 10
-74.70023068547
 20
286.0008703933
 40
2.292
100
AcDbArc
 50
0
 51
39.156132
  0
ARC
  5
385
100
AcDbEntity
  8
レイヤ2
  6
CONTINUOUS
 62
     3
100
AcDbCircle
 10
-81.40823068547
 20
290.4481213933
 40
9
100
AcDbArc
 50
-19.471221
 51
0
  0
LINE
  5
386
100
AcDbEntity
  8
レイヤ2
  6
CONTINUOUS
 62
     3
100
AcDbLine
 10
-72.92294968547
 20
287.4481213933
 11
-77.20823068547
 21
287.4481213933
  0
ARC
  5
387
100
AcDbEntity
  8
レイヤ2
  6
CONTINUOUS
 62
     3
100
AcDbCircle
 10
-74.70023068547
 20
294.8953723933
 40
2.292
100
AcDbArc
 50
-39.156132
 51
0
  0
ARC
  5
388
100
AcDbEntity
  8
レイヤ2
  6
CONTINUOUS
 62
     3
100
AcDbCircle
 10
-81.40823068547
 20
290.4481213933
 40
9
100
AcDbArc
 50
0
 51
19.471221
  0
LINE
  5
389
100
AcDbEntity
  8
レイヤ2
  6
CONTINUOUS
 62
     3
100
AcDbLine
 10
-72.95015668547
 20
296.4481213933
 11
-77.20823068547
 21
296.4481213933
  0
LINE
  5
38A
100
AcDbEntity
  8
レイヤ2
  6
CONTINUOUS
 62
     3
100
AcDbLine
 10
-72.92294968547
 20
293.4481213933
 11
-77.20823068547
 21
293.4481213933
  0
LINE
  5
38B
100
AcDbEntity
  8
レイヤ2
  6
CONTINUOUS
 62
     3
100
AcDbLine
 10
-59.80823068547
 20
287.9481223933
 11
-60.30822868547
 21
287.4481213933
  0
LINE
  5
38C
100
AcDbEntity
  8
レイヤ2
  6
CONTINUOUS
 62
     3
100
AcDbLine
 10
-72.40823068547
 20
295.5094783932
 11
-72.95015668547
 21
296.4481213933
  0
LINE
  5
38D
100
AcDbEntity
  8
レイヤ2
  6
CONTINUOUS
 62
     3
100
AcDbLine
 10
-72.40823068547
 20
285.3867673933
 11
-72.40823068547
 21
295.5094783932
  0
LINE
  5
38E
100
AcDbEntity
  8
レイヤ2
  6
CONTINUOUS
 62
     3
100
AcDbLine
 10
-60.30822868547
 20
287.4481213933
 11
-72.40823068547
 21
287.4481213933
  0
LINE
  5
38F
100
AcDbEntity
  8
レイヤ2
  6
CONTINUOUS
 62
     3
100
AcDbLine
 10
-59.80823068547
 20
292.9481233933
 11
-59.80823068547
 21
287.9481223933
  0
LINE
  5
390
100
AcDbEntity
  8
レイヤ2
  6
CONTINUOUS
 62
     3
100
AcDbLine
 10
-60.30822868547
 20
293.4481213933
 11
-59.80823068547
 21
292.9481233933
  0
LINE
  5
391
100
AcDbEntity
  8
レイヤ2
  6
CONTINUOUS
 62
     3
100
AcDbLine
 10
-72.40823068547
 20
293.4481213933
 11
-60.30822868547
 21
293.4481213933
  0
LINE
  5
392
100
AcDbEntity
  8
レイヤ2
  6
CONTINUOUS
 62
     4
100
AcDbLine
 10
-34.30823068547
 20
-58.68474460672
 11
-34.30823068547
 21
340.4481223933
  0
LINE
  5
393
100
AcDbEntity
  8
レイヤ2
  6
CONTINUOUS
 62
     3
100
AcDbLine
 10
-26.80823068547
 20
304.3868353933
 11
-26.80823068547
 21
254.3868343933
  0
ARC
  5
394
100
AcDbEntity
  8
レイヤ2
  6
CONTINUOUS
 62
     3
100
AcDbCircle
 10
-53.80823068547
 20
288.8868343932
 40
5.499999
100
AcDbArc
 50
0
 51
180
  0
LINE
  5
395
100
AcDbEntity
  8
レイヤ2
  6
CONTINUOUS
 62
     3
100
AcDbLine
 10
-28.80822868547
 20
287.2268353932
 11
-28.80822868547
 21
271.5468343933
  0
LINE
  5
396
100
AcDbEntity
  8
レイヤ2
  6
CONTINUOUS
 62
     3
100
AcDbLine
 10
-28.80822868547
 20
279.3868363933
 11
-26.80823068547
 21
280.5415363933
  0
LINE
  5
397
100
AcDbEntity
  8
レイヤ2
  6
CONTINUOUS
 62
     3
100
AcDbLine
 10
-28.80822868547
 20
278.2321333933
 11
-26.80823068547
 21
279.3868363933
  0
CIRCLE
  5
398
100
AcDbEntity
  8
レイヤ2
  6
CONTINUOUS
 62
     3
100
AcDbCircle
 10
-53.80823068547
 20
279.3868363933
 40
6.500001
  0
LINE
  5
399
100
AcDbEntity
  8
レイヤ2
  6
CONTINUOUS
 62
     3
100
AcDbLine
 10
-46.30267768547
 20
279.3868363933
 11
-50.05545268547
 21
285.8868343933
  0
LINE
  5
39A
100
AcDbEntity
  8
レイヤ2
  6
CONTINUOUS
 62
     3
100
AcDbLine
 10
-50.05545268547
 20
285.8868343933
 11
-57.56100568547
 21
285.8868343933
  0
LINE
  5
39B
100
AcDbEntity
  8
レイヤ2
  6
CONTINUOUS
 62
     3
100
AcDbLine
 10
-57.56100568547
 20
285.8868343933
 11
-61.31378368547
 21
279.3868363933
  0
LINE
  5
39C
100
AcDbEntity
  8
レイヤ2
  6
CONTINUOUS
 62
     3
100
AcDbLine
 10
-61.31378368547
 20
279.3868363933
 11
-57.56100568547
 21
272.8868353933
  0
LINE
  5
39D
100
AcDbEntity
  8
レイヤ2
  6
CONTINUOUS
 62
     3
100
AcDbLine
 10
-57.56100568547
 20
272.8868353933
 11
-50.05545268547
 21
272.8868353933
  0
LINE
  5
39E
100
AcDbEntity
  8
レイヤ2
  6
CONTINUOUS
 62
     3
100
AcDbLine
 10
-50.05545268547
 20
272.8868353933
 11
-46.30267768547
 21
279.3868363933
  0
CIRCLE
  5
39F
100
AcDbEntity
  8
レイヤ2
  6
CONTINUOUS
 62
     3
100
AcDbCircle
 10
-53.80823068547
 20
279.3868363933
 40
8.499999
  0
LINE
  5
3A0
100
AcDbEntity
  8
レイヤ2
  6
CONTINUOUS
 62
     3
100
AcDbLine
 10
-72.80822968547
 20
254.3868343933
 11
-33.80822968547
 21
254.3868343933
  0
LINE
  5
3A1
100
AcDbEntity
  8
レイヤ2
  6
CONTINUOUS
 62
     3
100
AcDbLine
 10
-28.80822868547
 20
287.0868343933
 11
-26.80823068547
 21
287.0868343933
  0
LINE
  5
3A2
100
AcDbEntity
  8
レイヤ2
  6
CONTINUOUS
 62
     3
100
AcDbLine
 10
-28.80822868547
 20
271.6868353933
 11
-26.80823068547
 21
271.6868353933
  0
LINE
  5
3A3
100
AcDbEntity
  8
レイヤ2
  6
CONTINUOUS
 62
     4
100
AcDbLine
 10
-33.80822968547
 20
254.3868343933
 11
-22.80822868547
 21
254.3868343933
  0
ARC
  5
3A4
100
AcDbEntity
  8
レイヤ2
  6
CONTINUOUS
 62
     3
100
AcDbCircle
 10
-53.80823068547
 20
269.8868353933
 40
5.499999
100
AcDbArc
 50
180
 51
360
  0
LINE
  5
3A5
100
AcDbEntity
  8
レイヤ2
  6
CONTINUOUS
 62
     3
100
AcDbLine
 10
-59.30822968547
 20
288.8868343932
 11
-59.30822968547
 21
285.8675743933
  0
LINE
  5
3A6
100
AcDbEntity
  8
レイヤ2
  6
CONTINUOUS
 62
     3
100
AcDbLine
 10
-48.30822868547
 20
288.8868343932
 11
-48.30822868547
 21
285.8675743933
  0
LINE
  5
3A7
100
AcDbEntity
  8
レイヤ2
  6
CONTINUOUS
 62
     3
100
AcDbLine
 10
-48.30822868547
 20
272.9060953932
 11
-48.30822868547
 21
269.8868353933
  0
LINE
  5
3A8
100
AcDbEntity
  8
レイヤ2
  6
CONTINUOUS
 62
     3
100
AcDbLine
 10
-59.30822968547
 20
272.9060953932
 11
-59.30822968547
 21
269.8868353933
  0
LINE
  5
3A9
100
AcDbEntity
  8
レイヤ2
  6
CONTINUOUS
 62
     3
100
AcDbLine
 10
-34.60705468547
 20
287.2268353932
 11
-28.80822868547
 21
287.2268353932
  0
LINE
  5
3AA
100
AcDbEntity
  8
レイヤ2
  6
CONTINUOUS
 62
     3
100
AcDbLine
 10
-28.80822868547
 20
283.3868353933
 11
-34.60705468547
 21
283.3868353933
  0
LINE
  5
3AB
100
AcDbEntity
  8
レイヤ2
  6
CONTINUOUS
 62
     3
100
AcDbLine
 10
-34.60705468547
 20
275.3868343933
 11
-28.80822868547
 21
275.3868343933
  0
LINE
  5
3AC
100
AcDbEntity
  8
レイヤ2
  6
CONTINUOUS
 62
     3
100
AcDbLine
 10
-28.80822868547
 20
271.5468343933
 11
-34.59231568547
 21
271.5468343933
  0
ARC
  5
3AD
100
AcDbEntity
  8
レイヤ2
  6
CONTINUOUS
 62
     3
100
AcDbCircle
 10
-23.54822968547
 20
279.3868363933
 40
11.76
100
AcDbArc
 50
160.114837
 51
199.885163
  0
ARC
  5
3AE
100
AcDbEntity
  8
レイヤ2
  6
CONTINUOUS
 62
     3
100
AcDbCircle
 10
-32.37506368547
 20
285.3833113932
 40
2.994615
100
AcDbArc
 50
-168.373205
 51
-138.187928
  0
ARC
  5
3AF
100
AcDbEntity
  8
レイヤ2
  6
CONTINUOUS
 62
     3
100
AcDbCircle
 10
-32.37506368547
 20
273.3903583933
 40
2.994615
100
AcDbArc
 50
138.187928
 51
168.373205
  0
LINE
  5
3B0
100
AcDbEntity
  8
レイヤ2
  6
CONTINUOUS
 62
     3
100
AcDbLine
 10
-35.30822968547
 20
285.9868363932
 11
-34.60705468547
 21
287.2268353932
  0
LINE
  5
3B1
100
AcDbEntity
  8
レイヤ2
  6
CONTINUOUS
 62
     3
100
AcDbLine
 10
-34.59231568547
 20
271.5468343933
 11
-35.30822968547
 21
272.7868363933
  0
LINE
  5
3B2
100
AcDbEntity
  8
レイヤ2
  6
CONTINUOUS
 62
     3
100
AcDbLine
 10
-35.30822968547
 20
272.7868363933
 11
-35.30822968547
 21
285.9868363932
  0
LINE
  5
3B3
100
AcDbEntity
  8
レイヤ2
  6
CONTINUOUS
 62
     3
100
AcDbLine
 10
-72.80822968547
 20
304.3868353933
 11
-33.80822968547
 21
304.3868353933
  0
LINE
  5
3B4
100
AcDbEntity
  8
レイヤ2
  6
CONTINUOUS
 62
     4
100
AcDbLine
 10
-22.80822868547
 20
304.3868353933
 11
-33.80822968547
 21
304.3868353933
  0
LINE
  5
3B5
100
AcDbEntity
  8
レイヤ2
  6
CONTINUOUS
 62
     4
100
AcDbLine
 10
-22.80822868547
 20
304.3868353933
 11
-22.80822868547
 21
254.6774533933
  0
LINE
  5
3B6
100
AcDbEntity
  8
レイヤ2
  6
CONTINUOUS
 62
     3
100
AcDbLine
 10
-19.60823068547
 20
288.1368343932
 11
-18.00822868547
 21
288.1368343932
  0
LINE
  5
3B7
100
AcDbEntity
  8
レイヤ2
  6
CONTINUOUS
 62
     3
100
AcDbLine
 10
-18.00822868547
 20
288.1368343932
 11
-18.00822868547
 21
271.1368363933
  0
LINE
  5
3B8
100
AcDbEntity
  8
レイヤ2
  6
CONTINUOUS
 62
     3
100
AcDbLine
 10
-18.00822868547
 20
271.1368363933
 11
-19.60823068547
 21
271.1368363933
  0
ARC
  5
3B9
100
AcDbEntity
  8
レイヤ2
  6
CONTINUOUS
 62
     3
100
AcDbCircle
 10
-24.26822968547
 20
279.6368353933
 40
11.76
100
AcDbArc
 50
-19.885163
 51
19.885163
  0
ARC
  5
3BA
100
AcDbEntity
  8
レイヤ2
  6
CONTINUOUS
 62
     3
100
AcDbCircle
 10
-15.44139868547
 20
285.6333133932
 40
2.994615
100
AcDbArc
 50
-41.81207199999
 51
-11.626795
  0
ARC
  5
3BB
100
AcDbEntity
  8
レイヤ2
  6
CONTINUOUS
 62
     3
100
AcDbCircle
 10
-15.44139868547
 20
273.6403573933
 40
2.994615
100
AcDbArc
 50
11.626795
 51
41.812072
  0
LINE
  5
3BC
100
AcDbEntity
  8
レイヤ2
  6
CONTINUOUS
 62
     3
100
AcDbLine
 10
-12.50822968547
 20
286.2368353932
 11
-13.20940468547
 21
287.4768343932
  0
LINE
  5
3BD
100
AcDbEntity
  8
レイヤ2
  6
CONTINUOUS
 62
     3
100
AcDbLine
 10
-13.22414368547
 20
271.7968363933
 11
-12.50822968547
 21
273.0368353933
  0
LINE
  5
3BE
100
AcDbEntity
  8
レイヤ2
  6
CONTINUOUS
 62
     3
100
AcDbLine
 10
-12.50822968547
 20
273.0368353933
 11
-12.50822968547
 21
286.2368353932
  0
LINE
  5
3BF
100
AcDbEntity
  8
レイヤ2
  6
CONTINUOUS
 62
     3
100
AcDbLine
 10
-13.20940468547
 20
283.6368343933
 11
-18.00822868547
 21
283.6368343933
  0
LINE
  5
3C0
100
AcDbEntity
  8
レイヤ2
  6
CONTINUOUS
 62
     3
100
AcDbLine
 10
-13.20940468547
 20
275.6368363933
 11
-18.00822868547
 21
275.6368363933
  0
LINE
  5
3C1
100
AcDbEntity
  8
レイヤ2
  6
CONTINUOUS
 62
     3
100
AcDbLine
 10
-13.20940468547
 20
287.4768343932
 11
-18.00822868547
 21
287.4768343932
  0
LINE
  5
3C2
100
AcDbEntity
  8
レイヤ2
  6
CONTINUOUS
 62
     3
100
AcDbLine
 10
-13.22414368547
 20
271.7968363933
 11
-18.00822868547
 21
271.7968363933
  0
LINE
  5
3C3
100
AcDbEntity
  8
レイヤ2
  6
CONTINUOUS
 62
     4
100
AcDbLine
 10
-2.80823068547
 20
258.1242103933
 11
-2.80823068547
 21
254.9242093933
  0
ARC
  5
3C4
100
AcDbEntity
  8
レイヤ2
  6
CONTINUOUS
 62
     4
100
AcDbCircle
 10
74.1917703145
 20
301.9242103933
 40
3
100
AcDbArc
 50
0
 51
90
  0
LINE
  5
3C5
100
AcDbEntity
  8
レイヤ2
  6
CONTINUOUS
 62
     4
100
AcDbLine
 10
77.1917703145
 20
301.9242103933
 11
77.1917703145
 21
257.4242083933
  0
ARC
  5
3C6
100
AcDbEntity
  8
レイヤ2
  6
CONTINUOUS
 62
     4
100
AcDbCircle
 10
74.6917713145
 20
257.4242083933
 40
2.499999
100
AcDbArc
 50
-90
 51
0
  0
LINE
  5
3C7
100
AcDbEntity
  8
レイヤ2
  6
CONTINUOUS
 62
     4
100
AcDbLine
 10
74.6917713145
 20
254.9242093933
 11
57.1917693145
 21
254.9242093933
  0
LINE
  5
3C8
100
AcDbEntity
  8
レイヤ2
  6
CONTINUOUS
 62
     4
100
AcDbLine
 10
57.1917693145
 20
258.1242103933
 11
57.1917693145
 21
254.9242093933
  0
ARC
  5
3C9
100
AcDbEntity
  8
レイヤ2
  6
CONTINUOUS
 62
     4
100
AcDbCircle
 10
-18.80822968547
 20
300.9242083932
 40
0.800001
100
AcDbArc
 50
90
 51
180
  0
LINE
  5
3CA
100
AcDbEntity
  8
レイヤ2
  6
CONTINUOUS
 62
     4
100
AcDbLine
 10
-18.80822968547
 20
301.7242093933
 11
73.1917713145
 21
301.7242093933
  0
LINE
  5
3CB
100
AcDbEntity
  8
レイヤ2
  6
CONTINUOUS
 62
     4
100
AcDbLine
 10
-19.60823068547
 20
258.9242083933
 11
-19.60823068547
 21
300.9242083932
  0
ARC
  5
3CC
100
AcDbEntity
  8
レイヤ2
  6
CONTINUOUS
 62
     4
100
AcDbCircle
 10
-18.80822968547
 20
258.9242083933
 40
0.800001
100
AcDbArc
 50
180
 51
270
  0
LINE
  5
3CD
100
AcDbEntity
  8
レイヤ2
  6
CONTINUOUS
 62
     4
100
AcDbLine
 10
-18.80822968547
 20
258.1242103933
 11
-2.80823068547
 21
258.1242103933
  0
ARC
  5
3CE
100
AcDbEntity
  8
レイヤ2
  6
CONTINUOUS
 62
     4
100
AcDbCircle
 10
-20.30822968547
 20
257.4242083933
 40
2.499999
100
AcDbArc
 50
180
 51
270
  0
LINE
  5
3CF
100
AcDbEntity
  8
レイヤ2
  6
CONTINUOUS
 62
     4
100
AcDbLine
 10
-20.30822968547
 20
254.9242093933
 11
-2.80823068547
 21
254.9242093933
  0
ARC
  5
3D0
100
AcDbEntity
  8
レイヤ2
  6
CONTINUOUS
 62
     4
100
AcDbCircle
 10
-20.30822968547
 20
302.4242083932
 40
2.499999
100
AcDbArc
 50
90
 51
180
  0
LINE
  5
3D1
100
AcDbEntity
  8
レイヤ2
  6
CONTINUOUS
 62
     4
100
AcDbLine
 10
73.1917713145
 20
258.1242103933
 11
57.1917693145
 21
258.1242103933
  0
ARC
  5
3D2
100
AcDbEntity
  8
レイヤ2
  6
CONTINUOUS
 62
     4
100
AcDbCircle
 10
73.1917713145
 20
300.9242083932
 40
0.800001
100
AcDbArc
 50
0
 51
90
  0
LINE
  5
3D3
100
AcDbEntity
  8
レイヤ2
  6
CONTINUOUS
 62
     4
100
AcDbLine
 10
73.9917693145
 20
258.9242083933
 11
73.9917693145
 21
300.9242083932
  0
ARC
  5
3D4
100
AcDbEntity
  8
レイヤ2
  6
CONTINUOUS
 62
     4
100
AcDbCircle
 10
73.1917713145
 20
258.9242083933
 40
0.800001
100
AcDbArc
 50
-90
 51
0
  0
LINE
  5
3D5
100
AcDbEntity
  8
レイヤ2
  6
CONTINUOUS
 62
     4
100
AcDbLine
 10
-20.30822968547
 20
304.9242103933
 11
74.1917703145
 21
304.9242103933
  0
LINE
  5
3D6
100
AcDbEntity
  8
レイヤ2
  6
CONTINUOUS
 62
     3
100
AcDbLine
 10
-26.80823068547
 20
54.38683639328
 11
-26.80823068547
 21
4.38683539328
  0
LINE
  5
3D7
100
AcDbEntity
  8
レイヤ2
  6
CONTINUOUS
 62
     3
100
AcDbLine
 10
-72.80822968547
 20
54.38683639328
 11
-72.80822968547
 21
4.38683539328
  0
ARC
  5
3D8
100
AcDbEntity
  8
レイヤ2
  6
CONTINUOUS
 62
     3
100
AcDbCircle
 10
-53.80823068547
 20
38.88683539328
 40
5.499999
100
AcDbArc
 50
0
 51
180
  0
LINE
  5
3D9
100
AcDbEntity
  8
レイヤ2
  6
CONTINUOUS
 62
     3
100
AcDbLine
 10
-28.80822868547
 20
37.22683639328
 11
-28.80822868547
 21
21.54683539328
  0
LINE
  5
3DA
100
AcDbEntity
  8
レイヤ2
  6
CONTINUOUS
 62
     3
100
AcDbLine
 10
-28.80822868547
 20
29.38683439328
 11
-26.80823068547
 21
30.54153439328
  0
LINE
  5
3DB
100
AcDbEntity
  8
レイヤ2
  6
CONTINUOUS
 62
     3
100
AcDbLine
 10
-28.80822868547
 20
28.23213439328
 11
-26.80823068547
 21
29.38683439328
  0
CIRCLE
  5
3DC
100
AcDbEntity
  8
レイヤ2
  6
CONTINUOUS
 62
     3
100
AcDbCircle
 10
-53.80823068547
 20
29.38683439328
 40
6.500001
  0
LINE
  5
3DD
100
AcDbEntity
  8
レイヤ2
  6
CONTINUOUS
 62
     3
100
AcDbLine
 10
-46.30267768547
 20
29.38683439328
 11
-50.05545268547
 21
35.88683539328
  0
LINE
  5
3DE
100
AcDbEntity
  8
レイヤ2
  6
CONTINUOUS
 62
     3
100
AcDbLine
 10
-50.05545268547
 20
35.88683539328
 11
-57.56100568547
 21
35.88683539328
  0
LINE
  5
3DF
100
AcDbEntity
  8
レイヤ2
  6
CONTINUOUS
 62
     3
100
AcDbLine
 10
-57.56100568547
 20
35.88683539328
 11
-61.31378368547
 21
29.38683439328
  0
LINE
  5
3E0
100
AcDbEntity
  8
レイヤ2
  6
CONTINUOUS
 62
     3
100
AcDbLine
 10
-61.31378368547
 20
29.38683439328
 11
-57.56100568547
 21
22.88683639328
  0
LINE
  5
3E1
100
AcDbEntity
  8
レイヤ2
  6
CONTINUOUS
 62
     3
100
AcDbLine
 10
-57.56100568547
 20
22.88683639328
 11
-50.05545268547
 21
22.88683639328
  0
LINE
  5
3E2
100
AcDbEntity
  8
レイヤ2
  6
CONTINUOUS
 62
     3
100
AcDbLine
 10
-50.05545268547
 20
22.88683639328
 11
-46.30267768547
 21
29.38683439328
  0
CIRCLE
  5
3E3
100
AcDbEntity
  8
レイヤ2
  6
CONTINUOUS
 62
     3
100
AcDbCircle
 10
-53.80823068547
 20
29.38683439328
 40
8.499999
  0
LINE
  5
3E4
100
AcDbEntity
  8
レイヤ2
  6
CONTINUOUS
 62
     3
100
AcDbLine
 10
-72.80822968547
 20
4.38683539328
 11
-33.80822968547
 21
4.38683539328
  0
LINE
  5
3E5
100
AcDbEntity
  8
レイヤ2
  6
CONTINUOUS
 62
     3
100
AcDbLine
 10
-28.80822868547
 20
37.08683539328
 11
-26.80823068547
 21
37.08683539328
  0
LINE
  5
3E6
100
AcDbEntity
  8
レイヤ2
  6
CONTINUOUS
 62
     3
100
AcDbLine
 10
-28.80822868547
 20
21.68683639328
 11
-26.80823068547
 21
21.68683639328
  0
LINE
  5
3E7
100
AcDbEntity
  8
レイヤ2
  6
CONTINUOUS
 62
     3
100
AcDbLine
 10
-43.00823068547
 20
32.73723439328
 11
-42.35862868547
 21
33.38683639328
  0
LINE
  5
3E8
100
AcDbEntity
  8
レイヤ2
  6
CONTINUOUS
 62
     3
100
AcDbLine
 10
-42.35862868547
 20
33.38683639328
 11
-35.30822968547
 21
33.38683639328
  0
LINE
  5
3E9
100
AcDbEntity
  8
レイヤ2
  6
CONTINUOUS
 62
     3
100
AcDbLine
 10
-43.00823068547
 20
26.03643439328
 11
-42.35862868547
 21
25.38683539328
  0
LINE
  5
3EA
100
AcDbEntity
  8
レイヤ2
  6
CONTINUOUS
 62
     3
100
AcDbLine
 10
-42.35862868547
 20
25.38683539328
 11
-35.30822968547
 21
25.38683539328
  0
LINE
  5
3EB
100
AcDbEntity
  8
レイヤ2
  6
CONTINUOUS
 62
     4
100
AcDbLine
 10
-33.80822968547
 20
4.38683539328
 11
-22.80822868547
 21
4.38683539328
  0
ARC
  5
3EC
100
AcDbEntity
  8
レイヤ2
  6
CONTINUOUS
 62
     3
100
AcDbCircle
 10
-53.80823068547
 20
19.88683639328
 40
5.499999
100
AcDbArc
 50
180
 51
360
  0
LINE
  5
3ED
100
AcDbEntity
  8
レイヤ2
  6
CONTINUOUS
 62
     3
100
AcDbLine
 10
-59.30822968547
 20
38.88683539328
 11
-59.30822968547
 21
35.86757539328
  0
LINE
  5
3EE
100
AcDbEntity
  8
レイヤ2
  6
CONTINUOUS
 62
     3
100
AcDbLine
 10
-48.30822868547
 20
38.88683539328
 11
-48.30822868547
 21
35.86757539328
  0
LINE
  5
3EF
100
AcDbEntity
  8
レイヤ2
  6
CONTINUOUS
 62
     3
100
AcDbLine
 10
-48.30822868547
 20
22.90609339328
 11
-48.30822868547
 21
19.88683639328
  0
LINE
  5
3F0
100
AcDbEntity
  8
レイヤ2
  6
CONTINUOUS
 62
     3
100
AcDbLine
 10
-59.30822968547
 20
22.90609339328
 11
-59.30822968547
 21
19.88683639328
  0
LINE
  5
3F1
100
AcDbEntity
  8
レイヤ2
  6
CONTINUOUS
 62
     3
100
AcDbLine
 10
-34.60705468547
 20
37.22683639328
 11
-28.80822868547
 21
37.22683639328
  0
LINE
  5
3F2
100
AcDbEntity
  8
レイヤ2
  6
CONTINUOUS
 62
     3
100
AcDbLine
 10
-28.80822868547
 20
33.38683639328
 11
-34.60705468547
 21
33.38683639328
  0
LINE
  5
3F3
100
AcDbEntity
  8
レイヤ2
  6
CONTINUOUS
 62
     3
100
AcDbLine
 10
-34.60705468547
 20
25.38683539328
 11
-28.80822868547
 21
25.38683539328
  0
LINE
  5
3F4
100
AcDbEntity
  8
レイヤ2
  6
CONTINUOUS
 62
     3
100
AcDbLine
 10
-28.80822868547
 20
21.54683539328
 11
-34.59231568547
 21
21.54683539328
  0
ARC
  5
3F5
100
AcDbEntity
  8
レイヤ2
  6
CONTINUOUS
 62
     3
100
AcDbCircle
 10
-23.54822968547
 20
29.38683439328
 40
11.76
100
AcDbArc
 50
160.114837
 51
199.885163
  0
ARC
  5
3F6
100
AcDbEntity
  8
レイヤ2
  6
CONTINUOUS
 62
     3
100
AcDbCircle
 10
-32.37506368547
 20
35.38331239328
 40
2.994615
100
AcDbArc
 50
-168.373205
 51
-138.187928
  0
ARC
  5
3F7
100
AcDbEntity
  8
レイヤ2
  6
CONTINUOUS
 62
     3
100
AcDbCircle
 10
-32.37506368547
 20
23.39035639328
 40
2.994615
100
AcDbArc
 50
138.187928
 51
168.373205
  0
LINE
  5
3F8
100
AcDbEntity
  8
レイヤ2
  6
CONTINUOUS
 62
     3
100
AcDbLine
 10
-35.30822968547
 20
35.98683439328
 11
-34.60705468547
 21
37.22683639328
  0
LINE
  5
3F9
100
AcDbEntity
  8
レイヤ2
  6
CONTINUOUS
 62
     3
100
AcDbLine
 10
-34.59231568547
 20
21.54683539328
 11
-35.30822968547
 21
22.78683439328
  0
LINE
  5
3FA
100
AcDbEntity
  8
レイヤ2
  6
CONTINUOUS
 62
     3
100
AcDbLine
 10
-35.30822968547
 20
22.78683439328
 11
-35.30822968547
 21
35.98683439328
  0
LINE
  5
3FB
100
AcDbEntity
  8
レイヤ2
  6
CONTINUOUS
 62
     3
100
AcDbLine
 10
-43.00823068547
 20
26.03643439328
 11
-43.00823068547
 21
32.73723439328
  0
LINE
  5
3FC
100
AcDbEntity
  8
レイヤ2
  6
CONTINUOUS
 62
     3
100
AcDbLine
 10
-72.80822968547
 20
54.38683639328
 11
-33.80822968547
 21
54.38683639328
  0
LINE
  5
3FD
100
AcDbEntity
  8
レイヤ2
  6
CONTINUOUS
 62
     4
100
AcDbLine
 10
-22.80822868547
 20
54.38683639328
 11
-33.80822968547
 21
54.38683639328
  0
LINE
  5
3FE
100
AcDbEntity
  8
レイヤ2
  6
CONTINUOUS
 62
     4
100
AcDbLine
 10
-22.80822868547
 20
54.38683639328
 11
-22.80822868547
 21
4.67745439328
  0
LINE
  5
3FF
100
AcDbEntity
  8
レイヤ2
  6
CONTINUOUS
 62
     3
100
AcDbLine
 10
-19.60823068547
 20
38.13683539328
 11
-18.00822868547
 21
38.13683539328
  0
LINE
  5
400
100
AcDbEntity
  8
レイヤ2
  6
CONTINUOUS
 62
     3
100
AcDbLine
 10
-18.00822868547
 20
38.13683539328
 11
-18.00822868547
 21
21.13683439328
  0
LINE
  5
401
100
AcDbEntity
  8
レイヤ2
  6
CONTINUOUS
 62
     3
100
AcDbLine
 10
-18.00822868547
 20
21.13683439328
 11
-19.60823068547
 21
21.13683439328
  0
ARC
  5
402
100
AcDbEntity
  8
レイヤ2
  6
CONTINUOUS
 62
     3
100
AcDbCircle
 10
-24.26822968547
 20
29.63683639328
 40
11.76
100
AcDbArc
 50
-19.885163
 51
19.885163
  0
ARC
  5
403
100
AcDbEntity
  8
レイヤ2
  6
CONTINUOUS
 62
     3
100
AcDbCircle
 10
-15.44139868547
 20
35.63331139328
 40
2.994615
100
AcDbArc
 50
-41.812072
 51
-11.626795
  0
ARC
  5
404
100
AcDbEntity
  8
レイヤ2
  6
CONTINUOUS
 62
     3
100
AcDbCircle
 10
-15.44139868547
 20
23.64035839328
 40
2.994615
100
AcDbArc
 50
11.626795
 51
41.812072
  0
LINE
  5
405
100
AcDbEntity
  8
レイヤ2
  6
CONTINUOUS
 62
     3
100
AcDbLine
 10
-12.50822968547
 20
36.23683639328
 11
-13.20940468547
 21
37.47683539328
  0
LINE
  5
406
100
AcDbEntity
  8
レイヤ2
  6
CONTINUOUS
 62
     3
100
AcDbLine
 10
-13.22414368547
 20
21.79683439328
 11
-12.50822968547
 21
23.03683639328
  0
LINE
  5
407
100
AcDbEntity
  8
レイヤ2
  6
CONTINUOUS
 62
     3
100
AcDbLine
 10
-12.50822968547
 20
23.03683639328
 11
-12.50822968547
 21
36.23683639328
  0
LINE
  5
408
100
AcDbEntity
  8
レイヤ2
  6
CONTINUOUS
 62
     3
100
AcDbLine
 10
-13.20940468547
 20
33.63683539328
 11
-18.00822868547
 21
33.63683539328
  0
LINE
  5
409
100
AcDbEntity
  8
レイヤ2
  6
CONTINUOUS
 62
     3
100
AcDbLine
 10
-13.20940468547
 20
25.63683439328
 11
-18.00822868547
 21
25.63683439328
  0
LINE
  5
40A
100
AcDbEntity
  8
レイヤ2
  6
CONTINUOUS
 62
     3
100
AcDbLine
 10
-13.20940468547
 20
37.47683539328
 11
-18.00822868547
 21
37.47683539328
  0
LINE
  5
40B
100
AcDbEntity
  8
レイヤ2
  6
CONTINUOUS
 62
     3
100
AcDbLine
 10
-13.22414368547
 20
21.79683439328
 11
-18.00822868547
 21
21.79683439328
  0
LINE
  5
40C
100
AcDbEntity
  8
レイヤ2
  6
CONTINUOUS
 62
     4
100
AcDbLine
 10
-2.80823068547
 20
8.12420839328
 11
-2.80823068547
 21
4.92421039328
  0
ARC
  5
40D
100
AcDbEntity
  8
レイヤ2
  6
CONTINUOUS
 62
     4
100
AcDbCircle
 10
74.1917703145
 20
51.92420839328
 40
3
100
AcDbArc
 50
0
 51
90
  0
LINE
  5
40E
100
AcDbEntity
  8
レイヤ2
  6
CONTINUOUS
 62
     4
100
AcDbLine
 10
77.1917703145
 20
51.92420839328
 11
77.1917703145
 21
7.42420939328
  0
ARC
  5
40F
100
AcDbEntity
  8
レイヤ2
  6
CONTINUOUS
 62
     4
100
AcDbCircle
 10
74.6917713145
 20
7.42420939328
 40
2.499999
100
AcDbArc
 50
-90
 51
0
  0
LINE
  5
410
100
AcDbEntity
  8
レイヤ2
  6
CONTINUOUS
 62
     4
100
AcDbLine
 10
74.6917713145
 20
4.92421039328
 11
57.1917693145
 21
4.92421039328
  0
LINE
  5
411
100
AcDbEntity
  8
レイヤ2
  6
CONTINUOUS
 62
     4
100
AcDbLine
 10
57.1917693145
 20
8.12420839328
 11
57.1917693145
 21
4.92421039328
  0
ARC
  5
412
100
AcDbEntity
  8
レイヤ2
  6
CONTINUOUS
 62
     4
100
AcDbCircle
 10
-18.80822968547
 20
50.92420939328
 40
0.800001
100
AcDbArc
 50
90
 51
180
  0
LINE
  5
413
100
AcDbEntity
  8
レイヤ2
  6
CONTINUOUS
 62
     4
100
AcDbLine
 10
-18.80822968547
 20
51.72421039328
 11
73.1917713145
 21
51.72421039328
  0
LINE
  5
414
100
AcDbEntity
  8
レイヤ2
  6
CONTINUOUS
 62
     4
100
AcDbLine
 10
-19.60823068547
 20
8.92420939328
 11
-19.60823068547
 21
50.92420939328
  0
ARC
  5
415
100
AcDbEntity
  8
レイヤ2
  6
CONTINUOUS
 62
     4
100
AcDbCircle
 10
-18.80822968547
 20
8.92420939328
 40
0.800001
100
AcDbArc
 50
180
 51
270
  0
LINE
  5
416
100
AcDbEntity
  8
レイヤ2
  6
CONTINUOUS
 62
     4
100
AcDbLine
 10
-18.80822968547
 20
8.12420839328
 11
-2.80823068547
 21
8.12420839328
  0
ARC
  5
417
100
AcDbEntity
  8
レイヤ2
  6
CONTINUOUS
 62
     4
100
AcDbCircle
 10
-20.30822968547
 20
7.42420939328
 40
2.499999
100
AcDbArc
 50
180
 51
270
  0
LINE
  5
418
100
AcDbEntity
  8
レイヤ2
  6
CONTINUOUS
 62
     4
100
AcDbLine
 10
-20.30822968547
 20
4.92421039328
 11
-2.80823068547
 21
4.92421039328
  0
ARC
  5
419
100
AcDbEntity
  8
レイヤ2
  6
CONTINUOUS
 62
     4
100
AcDbCircle
 10
-20.30822968547
 20
52.42420939328
 40
2.499999
100
AcDbArc
 50
90
 51
180
  0
LINE
  5
41A
100
AcDbEntity
  8
レイヤ2
  6
CONTINUOUS
 62
     4
100
AcDbLine
 10
73.1917713145
 20
8.12420839328
 11
57.1917693145
 21
8.12420839328
  0
ARC
  5
41B
100
AcDbEntity
  8
レイヤ2
  6
CONTINUOUS
 62
     4
100
AcDbCircle
 10
73.1917713145
 20
50.92420939328
 40
0.800001
100
AcDbArc
 50
0
 51
90
  0
LINE
  5
41C
100
AcDbEntity
  8
レイヤ2
  6
CONTINUOUS
 62
     4
100
AcDbLine
 10
73.9917693145
 20
8.92420939328
 11
73.9917693145
 21
50.92420939328
  0
ARC
  5
41D
100
AcDbEntity
  8
レイヤ2
  6
CONTINUOUS
 62
     4
100
AcDbCircle
 10
73.1917713145
 20
8.92420939328
 40
0.800001
100
AcDbArc
 50
-90
 51
0
  0
LINE
  5
41E
100
AcDbEntity
  8
レイヤ2
  6
CONTINUOUS
 62
     4
100
AcDbLine
 10
-20.30822968547
 20
54.92420839328
 11
74.1917703145
 21
54.92420839328
  0
ARC
  5
41F
100
AcDbEntity
  8
レイヤ2
  6
CONTINUOUS
 62
     3
100
AcDbCircle
 10
-74.70023068547
 20
-13.99912960672
 40
2.292
100
AcDbArc
 50
0
 51
39.156132
  0
ARC
  5
420
100
AcDbEntity
  8
レイヤ2
  6
CONTINUOUS
 62
     3
100
AcDbCircle
 10
-81.40823068547
 20
-9.55187860672
 40
9
100
AcDbArc
 50
-19.471221
 51
0
  0
LINE
  5
421
100
AcDbEntity
  8
レイヤ2
  6
CONTINUOUS
 62
     3
100
AcDbLine
 10
-72.92294968547
 20
-12.55187860672
 11
-77.20823068547
 21
-12.55187860672
  0
ARC
  5
422
100
AcDbEntity
  8
レイヤ2
  6
CONTINUOUS
 62
     3
100
AcDbCircle
 10
-74.70023068547
 20
-5.10462760672
 40
2.292
100
AcDbArc
 50
-39.156132
 51
0
  0
ARC
  5
423
100
AcDbEntity
  8
レイヤ2
  6
CONTINUOUS
 62
     3
100
AcDbCircle
 10
-81.40823068547
 20
-9.55187860672
 40
9
100
AcDbArc
 50
0
 51
19.471221
  0
LINE
  5
424
100
AcDbEntity
  8
レイヤ2
  6
CONTINUOUS
 62
     3
100
AcDbLine
 10
-72.95015668547
 20
-3.55187860672
 11
-77.20823068547
 21
-3.55187860672
  0
LINE
  5
425
100
AcDbEntity
  8
レイヤ2
  6
CONTINUOUS
 62
     3
100
AcDbLine
 10
-72.92294968547
 20
-6.55187860672
 11
-77.20823068547
 21
-6.55187860672
  0
LINE
  5
426
100
AcDbEntity
  8
レイヤ2
  6
CONTINUOUS
 62
     3
100
AcDbLine
 10
-59.80823068547
 20
-12.05187760672
 11
-60.30822868547
 21
-12.55187860672
  0
LINE
  5
427
100
AcDbEntity
  8
レイヤ2
  6
CONTINUOUS
 62
     3
100
AcDbLine
 10
-72.40823068547
 20
-4.49052160672
 11
-72.95015668547
 21
-3.55187860672
  0
LINE
  5
428
100
AcDbEntity
  8
レイヤ2
  6
CONTINUOUS
 62
     3
100
AcDbLine
 10
-72.40823068547
 20
-14.61323260672
 11
-72.40823068547
 21
-4.49052160672
  0
LINE
  5
429
100
AcDbEntity
  8
レイヤ2
  6
CONTINUOUS
 62
     3
100
AcDbLine
 10
-60.30822868547
 20
-12.55187860672
 11
-72.40823068547
 21
-12.55187860672
  0
LINE
  5
42A
100
AcDbEntity
  8
レイヤ2
  6
CONTINUOUS
 62
     3
100
AcDbLine
 10
-59.80823068547
 20
-7.05187660672
 11
-59.80823068547
 21
-12.05187760672
  0
LINE
  5
42B
100
AcDbEntity
  8
レイヤ2
  6
CONTINUOUS
 62
     3
100
AcDbLine
 10
-60.30822868547
 20
-6.55187860672
 11
-59.80823068547
 21
-7.05187660672
  0
LINE
  5
42C
100
AcDbEntity
  8
レイヤ2
  6
CONTINUOUS
 62
     3
100
AcDbLine
 10
-72.40823068547
 20
-6.55187860672
 11
-60.30822868547
 21
-6.55187860672
  0
LINE
  5
42D
100
AcDbEntity
  8
レイヤ2
  6
CONTINUOUS
 62
     3
100
AcDbLine
 10
-72.95015668547
 20
-15.55187860672
 11
-72.40823068547
 21
-14.61323260672
  0
LINE
  5
42E
100
AcDbEntity
  8
レイヤ2
  6
CONTINUOUS
 62
     3
100
AcDbLine
 10
-72.95015668547
 20
-15.55187860672
 11
-77.20823068547
 21
-15.55187860672
  0
ARC
  5
42F
100
AcDbEntity
  8
レイヤ2
  6
CONTINUOUS
 62
     3
100
AcDbCircle
 10
-74.70023068547
 20
236.0008713933
 40
2.292
100
AcDbArc
 50
0
 51
39.156132
  0
ARC
  5
430
100
AcDbEntity
  8
レイヤ2
  6
CONTINUOUS
 62
     3
100
AcDbCircle
 10
-81.40823068547
 20
240.4481223933
 40
9
100
AcDbArc
 50
-19.471221
 51
0
  0
LINE
  5
431
100
AcDbEntity
  8
レイヤ2
  6
CONTINUOUS
 62
     3
100
AcDbLine
 10
-72.95015668547
 20
234.4481223933
 11
-72.40823068547
 21
235.3867683933
  0
LINE
  5
432
100
AcDbEntity
  8
レイヤ2
  6
CONTINUOUS
 62
     3
100
AcDbLine
 10
-72.95015668547
 20
234.4481223933
 11
-77.20823068547
 21
234.4481223933
  0
LINE
  5
433
100
AcDbEntity
  8
レイヤ2
  6
CONTINUOUS
 62
     3
100
AcDbLine
 10
-72.92294968547
 20
237.4481223933
 11
-77.20823068547
 21
237.4481223933
  0
ARC
  5
434
100
AcDbEntity
  8
レイヤ2
  6
CONTINUOUS
 62
     3
100
AcDbCircle
 10
-74.70023068547
 20
244.8953733933
 40
2.292
100
AcDbArc
 50
-39.156132
 51
0
  0
ARC
  5
435
100
AcDbEntity
  8
レイヤ2
  6
CONTINUOUS
 62
     3
100
AcDbCircle
 10
-81.40823068547
 20
240.4481223933
 40
9
100
AcDbArc
 50
0
 51
19.471221
  0
LINE
  5
436
100
AcDbEntity
  8
レイヤ2
  6
CONTINUOUS
 62
     3
100
AcDbLine
 10
-72.95015668547
 20
246.4481223933
 11
-77.20823068547
 21
246.4481223933
  0
LINE
  5
437
100
AcDbEntity
  8
レイヤ2
  6
CONTINUOUS
 62
     3
100
AcDbLine
 10
-72.92294968547
 20
243.4481223933
 11
-77.20823068547
 21
243.4481223933
  0
LINE
  5
438
100
AcDbEntity
  8
レイヤ2
  6
CONTINUOUS
 62
     3
100
AcDbLine
 10
-59.80823068547
 20
237.9481233933
 11
-60.30822868547
 21
237.4481223933
  0
LINE
  5
439
100
AcDbEntity
  8
レイヤ2
  6
CONTINUOUS
 62
     3
100
AcDbLine
 10
-72.40823068547
 20
245.5094763933
 11
-72.95015668547
 21
246.4481223933
  0
LINE
  5
43A
100
AcDbEntity
  8
レイヤ2
  6
CONTINUOUS
 62
     3
100
AcDbLine
 10
-72.40823068547
 20
235.3867683933
 11
-72.40823068547
 21
245.5094763933
  0
LINE
  5
43B
100
AcDbEntity
  8
レイヤ2
  6
CONTINUOUS
 62
     3
100
AcDbLine
 10
-60.30822868547
 20
237.4481223933
 11
-72.40823068547
 21
237.4481223933
  0
LINE
  5
43C
100
AcDbEntity
  8
レイヤ2
  6
CONTINUOUS
 62
     3
100
AcDbLine
 10
-59.80823068547
 20
242.9481213933
 11
-59.80823068547
 21
237.9481233933
  0
LINE
  5
43D
100
AcDbEntity
  8
レイヤ2
  6
CONTINUOUS
 62
     3
100
AcDbLine
 10
-60.30822868547
 20
243.4481223933
 11
-59.80823068547
 21
242.9481213933
  0
LINE
  5
43E
100
AcDbEntity
  8
レイヤ2
  6
CONTINUOUS
 62
     3
100
AcDbLine
 10
-72.40823068547
 20
243.4481223933
 11
-60.30822868547
 21
243.4481223933
  0
ARC
  5
43F
100
AcDbEntity
  8
レイヤ2
  6
CONTINUOUS
 62
     3
100
AcDbCircle
 10
-74.70023068547
 20
136.0008713933
 40
2.292
100
AcDbArc
 50
0
 51
39.156132
  0
ARC
  5
440
100
AcDbEntity
  8
レイヤ2
  6
CONTINUOUS
 62
     3
100
AcDbCircle
 10
-81.40823068547
 20
140.4481223933
 40
9
100
AcDbArc
 50
-19.471221
 51
0
  0
LINE
  5
441
100
AcDbEntity
  8
レイヤ2
  6
CONTINUOUS
 62
     3
100
AcDbLine
 10
-72.95015668547
 20
134.4481223933
 11
-72.40823068547
 21
135.3867683933
  0
LINE
  5
442
100
AcDbEntity
  8
レイヤ2
  6
CONTINUOUS
 62
     3
100
AcDbLine
 10
-72.95015668547
 20
134.4481223933
 11
-77.20823068547
 21
134.4481223933
  0
LINE
  5
443
100
AcDbEntity
  8
レイヤ2
  6
CONTINUOUS
 62
     3
100
AcDbLine
 10
-72.92294968547
 20
137.4481223933
 11
-77.20823068547
 21
137.4481223933
  0
ARC
  5
444
100
AcDbEntity
  8
レイヤ2
  6
CONTINUOUS
 62
     3
100
AcDbCircle
 10
-74.70023068547
 20
144.8953733933
 40
2.292
100
AcDbArc
 50
-39.156132
 51
0
  0
ARC
  5
445
100
AcDbEntity
  8
レイヤ2
  6
CONTINUOUS
 62
     3
100
AcDbCircle
 10
-81.40823068547
 20
140.4481223933
 40
9
100
AcDbArc
 50
0
 51
19.471221
  0
LINE
  5
446
100
AcDbEntity
  8
レイヤ2
  6
CONTINUOUS
 62
     3
100
AcDbLine
 10
-72.95015668547
 20
146.4481223933
 11
-77.20823068547
 21
146.4481223933
  0
LINE
  5
447
100
AcDbEntity
  8
レイヤ2
  6
CONTINUOUS
 62
     3
100
AcDbLine
 10
-72.92294968547
 20
143.4481223933
 11
-77.20823068547
 21
143.4481223933
  0
LINE
  5
448
100
AcDbEntity
  8
レイヤ2
  6
CONTINUOUS
 62
     3
100
AcDbLine
 10
-59.80823068547
 20
137.9481233933
 11
-60.30822868547
 21
137.4481223933
  0
LINE
  5
449
100
AcDbEntity
  8
レイヤ2
  6
CONTINUOUS
 62
     3
100
AcDbLine
 10
-72.40823068547
 20
145.5094763933
 11
-72.95015668547
 21
146.4481223933
  0
LINE
  5
44A
100
AcDbEntity
  8
レイヤ2
  6
CONTINUOUS
 62
     3
100
AcDbLine
 10
-72.40823068547
 20
135.3867683933
 11
-72.40823068547
 21
145.5094763933
  0
LINE
  5
44B
100
AcDbEntity
  8
レイヤ2
  6
CONTINUOUS
 62
     3
100
AcDbLine
 10
-60.30822868547
 20
137.4481223933
 11
-72.40823068547
 21
137.4481223933
  0
LINE
  5
44C
100
AcDbEntity
  8
レイヤ2
  6
CONTINUOUS
 62
     3
100
AcDbLine
 10
-59.80823068547
 20
142.9481213933
 11
-59.80823068547
 21
137.9481233933
  0
LINE
  5
44D
100
AcDbEntity
  8
レイヤ2
  6
CONTINUOUS
 62
     3
100
AcDbLine
 10
-60.30822868547
 20
143.4481223933
 11
-59.80823068547
 21
142.9481213933
  0
LINE
  5
44E
100
AcDbEntity
  8
レイヤ2
  6
CONTINUOUS
 62
     3
100
AcDbLine
 10
-72.40823068547
 20
143.4481223933
 11
-60.30822868547
 21
143.4481223933
  0
ARC
  5
44F
100
AcDbEntity
  8
レイヤ2
  6
CONTINUOUS
 62
     3
100
AcDbCircle
 10
-74.70023068547
 20
36.00087139328
 40
2.292
100
AcDbArc
 50
0
 51
39.156132
  0
ARC
  5
450
100
AcDbEntity
  8
レイヤ2
  6
CONTINUOUS
 62
     3
100
AcDbCircle
 10
-81.40823068547
 20
40.44812239328
 40
9
100
AcDbArc
 50
-19.471221
 51
0
  0
LINE
  5
451
100
AcDbEntity
  8
レイヤ2
  6
CONTINUOUS
 62
     3
100
AcDbLine
 10
-72.95015668547
 20
34.44812239328
 11
-72.40823068547
 21
35.38676839328
  0
LINE
  5
452
100
AcDbEntity
  8
レイヤ2
  6
CONTINUOUS
 62
     3
100
AcDbLine
 10
-72.95015668547
 20
34.44812239328
 11
-77.20823068547
 21
34.44812239328
  0
LINE
  5
453
100
AcDbEntity
  8
レイヤ2
  6
CONTINUOUS
 62
     3
100
AcDbLine
 10
-72.92294968547
 20
37.44812239328
 11
-77.20823068547
 21
37.44812239328
  0
ARC
  5
454
100
AcDbEntity
  8
レイヤ2
  6
CONTINUOUS
 62
     3
100
AcDbCircle
 10
-74.70023068547
 20
44.89537339328
 40
2.292
100
AcDbArc
 50
-39.156132
 51
0
  0
ARC
  5
455
100
AcDbEntity
  8
レイヤ2
  6
CONTINUOUS
 62
     3
100
AcDbCircle
 10
-81.40823068547
 20
40.44812239328
 40
9
100
AcDbArc
 50
0
 51
19.471221
  0
LINE
  5
456
100
AcDbEntity
  8
レイヤ2
  6
CONTINUOUS
 62
     3
100
AcDbLine
 10
-72.95015668547
 20
46.44812239328
 11
-77.20823068547
 21
46.44812239328
  0
LINE
  5
457
100
AcDbEntity
  8
レイヤ2
  6
CONTINUOUS
 62
     3
100
AcDbLine
 10
-72.92294968547
 20
43.44812239328
 11
-77.20823068547
 21
43.44812239328
  0
LINE
  5
458
100
AcDbEntity
  8
レイヤ2
  6
CONTINUOUS
 62
     3
100
AcDbLine
 10
-59.80823068547
 20
37.94812339328
 11
-60.30822868547
 21
37.44812239328
  0
LINE
  5
459
100
AcDbEntity
  8
レイヤ2
  6
CONTINUOUS
 62
     3
100
AcDbLine
 10
-72.40823068547
 20
45.50947639328
 11
-72.95015668547
 21
46.44812239328
  0
LINE
  5
45A
100
AcDbEntity
  8
レイヤ2
  6
CONTINUOUS
 62
     3
100
AcDbLine
 10
-72.40823068547
 20
35.38676839328
 11
-72.40823068547
 21
45.50947639328
  0
LINE
  5
45B
100
AcDbEntity
  8
レイヤ2
  6
CONTINUOUS
 62
     3
100
AcDbLine
 10
-60.30822868547
 20
37.44812239328
 11
-72.40823068547
 21
37.44812239328
  0
LINE
  5
45C
100
AcDbEntity
  8
レイヤ2
  6
CONTINUOUS
 62
     3
100
AcDbLine
 10
-59.80823068547
 20
42.94812139328
 11
-59.80823068547
 21
37.94812339328
  0
LINE
  5
45D
100
AcDbEntity
  8
レイヤ2
  6
CONTINUOUS
 62
     3
100
AcDbLine
 10
-60.30822868547
 20
43.44812239328
 11
-59.80823068547
 21
42.94812139328
  0
LINE
  5
45E
100
AcDbEntity
  8
レイヤ2
  6
CONTINUOUS
 62
     3
100
AcDbLine
 10
-72.40823068547
 20
43.44812239328
 11
-60.30822868547
 21
43.44812239328
  0
LINE
  5
45F
100
AcDbEntity
  8
レイヤ2
  6
CONTINUOUS
 62
     4
100
AcDbLine
 10
-84.30822868547
 20
321.7018709674
 11
-84.30822868547
 21
309.3259591938
  0
LINE
  5
460
100
AcDbEntity
  8
レイヤ2
  6
CONTINUOUS
 62
     4
100
AcDbLine
 10
-78.70823068547
 20
296.6981233933
 11
-78.70823068547
 21
284.1981223933
  0
LINE
  5
461
100
AcDbEntity
  8
レイヤ2
  6
CONTINUOUS
 62
     4
100
AcDbLine
 10
-77.20823068547
 20
284.3481223933
 11
-77.20823068547
 21
296.5481233932
  0
LINE
  5
462
100
AcDbEntity
  8
レイヤ2
  6
CONTINUOUS
 62
     4
100
AcDbLine
 10
-78.70823068547
 20
284.3481223933
 11
-77.20823068547
 21
284.3481223933
  0
LINE
  5
463
100
AcDbEntity
  8
レイヤ2
  6
CONTINUOUS
 62
     4
100
AcDbLine
 10
-78.70823068547
 20
284.1981223933
 11
-80.30822968547
 21
284.1981223933
  0
LINE
  5
464
100
AcDbEntity
  8
レイヤ2
  6
CONTINUOUS
 62
     4
100
AcDbLine
 10
-77.20823068547
 20
190.4481223933
 11
-78.70823068547
 21
188.9481223933
  0
LINE
  5
465
100
AcDbEntity
  8
レイヤ2
  6
CONTINUOUS
 62
     4
100
AcDbLine
 10
-78.70823068547
 20
190.4481223933
 11
-77.20823068547
 21
191.9481223933
  0
LINE
  5
466
100
AcDbEntity
  8
レイヤ2
  6
CONTINUOUS
 62
     4
100
AcDbLine
 10
-78.70823068547
 20
184.3481233933
 11
-77.20823068547
 21
184.3481233933
  0
LINE
  5
467
100
AcDbEntity
  8
レイヤ2
  6
CONTINUOUS
 62
     4
100
AcDbLine
 10
-78.70823068547
 20
196.6981213933
 11
-80.30822968547
 21
196.6981213933
  0
LINE
  5
468
100
AcDbEntity
  8
レイヤ2
  6
CONTINUOUS
 62
     4
100
AcDbLine
 10
-78.70823068547
 20
184.1981233933
 11
-80.30822968547
 21
184.1981233933
  0
LINE
  5
469
100
AcDbEntity
  8
レイヤ2
  6
CONTINUOUS
 62
     4
100
AcDbLine
 10
-78.70823068547
 20
196.6981213933
 11
-78.70823068547
 21
184.1981233933
  0
LINE
  5
46A
100
AcDbEntity
  8
レイヤ2
  6
CONTINUOUS
 62
     4
100
AcDbLine
 10
-84.80822968547
 20
193.4481223933
 11
-80.30822968547
 21
193.4481223933
  0
LINE
  5
46B
100
AcDbEntity
  8
レイヤ2
  6
CONTINUOUS
 62
     4
100
AcDbLine
 10
-84.80822968547
 20
187.4481223933
 11
-80.30822968547
 21
187.4481223933
  0
LINE
  5
46C
100
AcDbEntity
  8
レイヤ2
  6
CONTINUOUS
 62
     4
100
AcDbLine
 10
-77.20823068547
 20
196.5481213933
 11
-78.70823068547
 21
196.5481213933
  0
LINE
  5
46D
100
AcDbEntity
  8
レイヤ2
  6
CONTINUOUS
 62
     4
100
AcDbLine
 10
-77.20823068547
 20
184.3481233933
 11
-77.20823068547
 21
196.5481213933
  0
LINE
  5
46E
100
AcDbEntity
  8
レイヤ2
  6
CONTINUOUS
 62
     4
100
AcDbLine
 10
-77.20823068547
 20
90.44812339328
 11
-78.70823068547
 21
88.94812339328
  0
LINE
  5
46F
100
AcDbEntity
  8
レイヤ2
  6
CONTINUOUS
 62
     4
100
AcDbLine
 10
-78.70823068547
 20
90.44812339328
 11
-77.20823068547
 21
91.94812339328
  0
LINE
  5
470
100
AcDbEntity
  8
レイヤ2
  6
CONTINUOUS
 62
     4
100
AcDbLine
 10
-78.70823068547
 20
96.69812239328
 11
-80.30822968547
 21
96.69812239328
  0
LINE
  5
471
100
AcDbEntity
  8
レイヤ2
  6
CONTINUOUS
 62
     4
100
AcDbLine
 10
-84.80822968547
 20
93.44812339328
 11
-80.30822968547
 21
93.44812339328
  0
LINE
  5
472
100
AcDbEntity
  8
レイヤ2
  6
CONTINUOUS
 62
     4
100
AcDbLine
 10
-84.80822968547
 20
87.44812339328
 11
-80.30822968547
 21
87.44812339328
  0
LINE
  5
473
100
AcDbEntity
  8
レイヤ2
  6
CONTINUOUS
 62
     4
100
AcDbLine
 10
-77.20823068547
 20
96.54812239328
 11
-78.70823068547
 21
96.54812239328
  0
LINE
  5
474
100
AcDbEntity
  8
レイヤ2
  6
CONTINUOUS
 62
     4
100
AcDbLine
 10
-78.70823068547
 20
96.69812239328
 11
-78.70823068547
 21
84.19812139328
  0
LINE
  5
475
100
AcDbEntity
  8
レイヤ2
  6
CONTINUOUS
 62
     4
100
AcDbLine
 10
-77.20823068547
 20
84.34812139328
 11
-77.20823068547
 21
96.54812239328
  0
LINE
  5
476
100
AcDbEntity
  8
レイヤ2
  6
CONTINUOUS
 62
     4
100
AcDbLine
 10
-78.70823068547
 20
84.34812139328
 11
-77.20823068547
 21
84.34812139328
  0
LINE
  5
477
100
AcDbEntity
  8
レイヤ2
  6
CONTINUOUS
 62
     4
100
AcDbLine
 10
-78.70823068547
 20
84.19812139328
 11
-80.30822968547
 21
84.19812139328
  0
LINE
  5
478
100
AcDbEntity
  8
レイヤ2
  6
CONTINUOUS
 62
     4
100
AcDbLine
 10
-77.20823068547
 20
290.4481213933
 11
-78.70823068547
 21
288.9481213933
  0
LINE
  5
479
100
AcDbEntity
  8
レイヤ2
  6
CONTINUOUS
 62
     4
100
AcDbLine
 10
-78.70823068547
 20
290.4481213933
 11
-77.20823068547
 21
291.9481213933
  0
LINE
  5
47A
100
AcDbEntity
  8
レイヤ2
  6
CONTINUOUS
 62
     4
100
AcDbLine
 10
-78.70823068547
 20
296.6981233933
 11
-80.30822968547
 21
296.6981233933
  0
LINE
  5
47B
100
AcDbEntity
  8
レイヤ2
  6
CONTINUOUS
 62
     4
100
AcDbLine
 10
-77.20823068547
 20
296.5481233932
 11
-78.70823068547
 21
296.5481233932
  0
LINE
  5
47C
100
AcDbEntity
  8
レイヤ2
  6
CONTINUOUS
 62
     4
100
AcDbLine
 10
-77.20823068547
 20
-9.55187860672
 11
-78.70823068547
 21
-11.05187860672
  0
LINE
  5
47D
100
AcDbEntity
  8
レイヤ2
  6
CONTINUOUS
 62
     4
100
AcDbLine
 10
-78.70823068547
 20
-9.55187860672
 11
-77.20823068547
 21
-8.05187860672
  0
LINE
  5
47E
100
AcDbEntity
  8
レイヤ2
  6
CONTINUOUS
 62
     4
100
AcDbLine
 10
-78.70823068547
 20
-3.30187660672
 11
-80.30822968547
 21
-3.30187660672
  0
LINE
  5
47F
100
AcDbEntity
  8
レイヤ2
  6
CONTINUOUS
 62
     4
100
AcDbLine
 10
-84.80822968547
 20
-6.55187860672
 11
-80.30822968547
 21
-6.55187860672
  0
LINE
  5
480
100
AcDbEntity
  8
レイヤ2
  6
CONTINUOUS
 62
     4
100
AcDbLine
 10
-84.80822968547
 20
-12.55187860672
 11
-80.30822968547
 21
-12.55187860672
  0
LINE
  5
481
100
AcDbEntity
  8
レイヤ2
  6
CONTINUOUS
 62
     4
100
AcDbLine
 10
-77.20823068547
 20
-3.45187660672
 11
-78.70823068547
 21
-3.45187660672
  0
LINE
  5
482
100
AcDbEntity
  8
レイヤ2
  6
CONTINUOUS
 62
     4
100
AcDbLine
 10
-78.70823068547
 20
-3.30187660672
 11
-78.70823068547
 21
-15.80187760672
  0
LINE
  5
483
100
AcDbEntity
  8
レイヤ2
  6
CONTINUOUS
 62
     4
100
AcDbLine
 10
-77.20823068547
 20
-15.65187760672
 11
-77.20823068547
 21
-3.45187660672
  0
LINE
  5
484
100
AcDbEntity
  8
レイヤ2
  6
CONTINUOUS
 62
     4
100
AcDbLine
 10
-78.70823068547
 20
-15.65187760672
 11
-77.20823068547
 21
-15.65187760672
  0
LINE
  5
485
100
AcDbEntity
  8
レイヤ2
  6
CONTINUOUS
 62
     4
100
AcDbLine
 10
-78.70823068547
 20
-15.80187760672
 11
-80.30822968547
 21
-15.80187760672
  0
LINE
  5
486
100
AcDbEntity
  8
レイヤ2
  6
CONTINUOUS
 62
     4
100
AcDbLine
 10
-77.20823068547
 20
240.4481223933
 11
-78.70823068547
 21
238.9481223933
  0
LINE
  5
487
100
AcDbEntity
  8
レイヤ2
  6
CONTINUOUS
 62
     4
100
AcDbLine
 10
-78.70823068547
 20
240.4481223933
 11
-77.20823068547
 21
241.9481223933
  0
LINE
  5
488
100
AcDbEntity
  8
レイヤ2
  6
CONTINUOUS
 62
     4
100
AcDbLine
 10
-78.70823068547
 20
234.3481233933
 11
-77.20823068547
 21
234.3481233933
  0
LINE
  5
489
100
AcDbEntity
  8
レイヤ2
  6
CONTINUOUS
 62
     4
100
AcDbLine
 10
-78.70823068547
 20
246.6981213933
 11
-80.30822968547
 21
246.6981213933
  0
LINE
  5
48A
100
AcDbEntity
  8
レイヤ2
  6
CONTINUOUS
 62
     4
100
AcDbLine
 10
-78.70823068547
 20
234.1981233933
 11
-80.30822968547
 21
234.1981233933
  0
LINE
  5
48B
100
AcDbEntity
  8
レイヤ2
  6
CONTINUOUS
 62
     4
100
AcDbLine
 10
-78.70823068547
 20
246.6981213933
 11
-78.70823068547
 21
234.1981233933
  0
LINE
  5
48C
100
AcDbEntity
  8
レイヤ2
  6
CONTINUOUS
 62
     4
100
AcDbLine
 10
-77.20823068547
 20
246.5481213933
 11
-78.70823068547
 21
246.5481213933
  0
LINE
  5
48D
100
AcDbEntity
  8
レイヤ2
  6
CONTINUOUS
 62
     4
100
AcDbLine
 10
-77.20823068547
 20
234.3481233933
 11
-77.20823068547
 21
246.5481213933
  0
LINE
  5
48E
100
AcDbEntity
  8
レイヤ2
  6
CONTINUOUS
 62
     4
100
AcDbLine
 10
-77.20823068547
 20
140.4481223933
 11
-78.70823068547
 21
138.9481223933
  0
LINE
  5
48F
100
AcDbEntity
  8
レイヤ2
  6
CONTINUOUS
 62
     4
100
AcDbLine
 10
-78.70823068547
 20
140.4481223933
 11
-77.20823068547
 21
141.9481223933
  0
LINE
  5
490
100
AcDbEntity
  8
レイヤ2
  6
CONTINUOUS
 62
     4
100
AcDbLine
 10
-78.70823068547
 20
134.3481233933
 11
-77.20823068547
 21
134.3481233933
  0
LINE
  5
491
100
AcDbEntity
  8
レイヤ2
  6
CONTINUOUS
 62
     4
100
AcDbLine
 10
-78.70823068547
 20
146.6981213933
 11
-80.30822968547
 21
146.6981213933
  0
LINE
  5
492
100
AcDbEntity
  8
レイヤ2
  6
CONTINUOUS
 62
     4
100
AcDbLine
 10
-78.70823068547
 20
134.1981233933
 11
-80.30822968547
 21
134.1981233933
  0
LINE
  5
493
100
AcDbEntity
  8
レイヤ2
  6
CONTINUOUS
 62
     4
100
AcDbLine
 10
-78.70823068547
 20
146.6981213933
 11
-78.70823068547
 21
134.1981233933
  0
LINE
  5
494
100
AcDbEntity
  8
レイヤ2
  6
CONTINUOUS
 62
     4
100
AcDbLine
 10
-77.20823068547
 20
146.5481213933
 11
-78.70823068547
 21
146.5481213933
  0
LINE
  5
495
100
AcDbEntity
  8
レイヤ2
  6
CONTINUOUS
 62
     4
100
AcDbLine
 10
-77.20823068547
 20
134.3481233933
 11
-77.20823068547
 21
146.5481213933
  0
LINE
  5
496
100
AcDbEntity
  8
レイヤ2
  6
CONTINUOUS
 62
     4
100
AcDbLine
 10
-77.20823068547
 20
40.44812239328
 11
-78.70823068547
 21
38.94812239328
  0
LINE
  5
497
100
AcDbEntity
  8
レイヤ2
  6
CONTINUOUS
 62
     4
100
AcDbLine
 10
-78.70823068547
 20
40.44812239328
 11
-77.20823068547
 21
41.94812239328
  0
LINE
  5
498
100
AcDbEntity
  8
レイヤ2
  6
CONTINUOUS
 62
     4
100
AcDbLine
 10
-78.70823068547
 20
34.34812339328
 11
-77.20823068547
 21
34.34812339328
  0
LINE
  5
499
100
AcDbEntity
  8
レイヤ2
  6
CONTINUOUS
 62
     4
100
AcDbLine
 10
-78.70823068547
 20
46.69812139328
 11
-80.30822968547
 21
46.69812139328
  0
LINE
  5
49A
100
AcDbEntity
  8
レイヤ2
  6
CONTINUOUS
 62
     4
100
AcDbLine
 10
-78.70823068547
 20
34.19812339328
 11
-80.30822968547
 21
34.19812339328
  0
LINE
  5
49B
100
AcDbEntity
  8
レイヤ2
  6
CONTINUOUS
 62
     4
100
AcDbLine
 10
-78.70823068547
 20
46.69812139328
 11
-78.70823068547
 21
34.19812339328
  0
LINE
  5
49C
100
AcDbEntity
  8
レイヤ2
  6
CONTINUOUS
 62
     4
100
AcDbLine
 10
-77.20823068547
 20
46.54812139328
 11
-78.70823068547
 21
46.54812139328
  0
LINE
  5
49D
100
AcDbEntity
  8
レイヤ2
  6
CONTINUOUS
 62
     4
100
AcDbLine
 10
-77.20823068547
 20
34.34812339328
 11
-77.20823068547
 21
46.54812139328
  0
LINE
  5
49E
100
AcDbEntity
  8
レイヤ2
  6
CONTINUOUS
 62
     4
100
AcDbLine
 10
-85.87920953392
 20
293.4481213933
 11
-80.30822968547
 21
293.4481213933
  0
LINE
  5
49F
100
AcDbEntity
  8
レイヤ2
  6
CONTINUOUS
 62
     4
100
AcDbLine
 10
-85.87920953392
 20
287.4481213933
 11
-80.30822968547
 21
287.4481213933
  0
LINE
  5
4A0
100
AcDbEntity
  8
レイヤ2
  6
CONTINUOUS
 62
     4
100
AcDbLine
 10
-85.87920953392
 20
243.4481213933
 11
-80.30822968547
 21
243.4481213933
  0
LINE
  5
4A1
100
AcDbEntity
  8
レイヤ2
  6
CONTINUOUS
 62
     4
100
AcDbLine
 10
-85.87920953392
 20
237.4481213933
 11
-80.30822968547
 21
237.4481213933
  0
LINE
  5
4A2
100
AcDbEntity
  8
レイヤ2
  6
CONTINUOUS
 62
     4
100
AcDbLine
 10
-85.87920953392
 20
193.4481213933
 11
-80.30822968547
 21
193.4481213933
  0
LINE
  5
4A3
100
AcDbEntity
  8
レイヤ2
  6
CONTINUOUS
 62
     4
100
AcDbLine
 10
-85.87920953392
 20
187.4481213933
 11
-80.30822968547
 21
187.4481213933
  0
LINE
  5
4A4
100
AcDbEntity
  8
レイヤ2
  6
CONTINUOUS
 62
     4
100
AcDbLine
 10
-85.87920953392
 20
143.4481213933
 11
-80.30822968547
 21
143.4481213933
  0
LINE
  5
4A5
100
AcDbEntity
  8
レイヤ2
  6
CONTINUOUS
 62
     4
100
AcDbLine
 10
-85.87920953392
 20
137.4481213933
 11
-80.30822968547
 21
137.4481213933
  0
LINE
  5
4A6
100
AcDbEntity
  8
レイヤ2
  6
CONTINUOUS
 62
     4
100
AcDbLine
 10
-85.87920953392
 20
93.44812139328
 11
-80.30822968547
 21
93.44812139328
  0
LINE
  5
4A7
100
AcDbEntity
  8
レイヤ2
  6
CONTINUOUS
 62
     4
100
AcDbLine
 10
-85.87920953392
 20
87.44812139328
 11
-80.30822968547
 21
87.44812139328
  0
LINE
  5
4A8
100
AcDbEntity
  8
レイヤ2
  6
CONTINUOUS
 62
     4
100
AcDbLine
 10
-85.87920953392
 20
43.44812139328
 11
-80.30822968547
 21
43.44812139328
  0
LINE
  5
4A9
100
AcDbEntity
  8
レイヤ2
  6
CONTINUOUS
 62
     4
100
AcDbLine
 10
-85.87920953392
 20
37.44812139328
 11
-80.30822968547
 21
37.44812139328
  0
LINE
  5
4AA
100
AcDbEntity
  8
レイヤ2
  6
CONTINUOUS
 62
     4
100
AcDbLine
 10
-85.87920953392
 20
-6.55187860672
 11
-80.30822968547
 21
-6.55187860672
  0
LINE
  5
4AB
100
AcDbEntity
  8
レイヤ2
  6
CONTINUOUS
 62
     4
100
AcDbLine
 10
-85.87920953392
 20
-12.55187860672
 11
-80.30822968547
 21
-12.55187860672
  0
LINE
  5
4AC
100
AcDbEntity
  8
レイヤ2
  6
CONTINUOUS
 62
     4
100
AcDbLine
 10
-84.30822868547
 20
265.4481483932
 11
-84.30822868547
 21
274.0217527347
  0
LINE
  5
4AD
100
AcDbEntity
  8
レイヤ2
  6
CONTINUOUS
 62
     4
100
AcDbLine
 10
-84.30822868547
 20
255.4481583933
 11
-84.30822868547
 21
265.4481483932
  0
LINE
  5
4AE
100
AcDbEntity
  8
レイヤ2
  6
CONTINUOUS
 62
     4
100
AcDbLine
 10
-84.30822868547
 20
286.1981276433
 11
-84.30822868547
 21
275.9481378933
  0
LINE
  5
4AF
100
AcDbEntity
  8
レイヤ2
  6
CONTINUOUS
 62
     4
100
AcDbLine
 10
-84.30822868547
 20
294.6981191432
 11
-84.30822868547
 21
304.9481088933
  0
LINE
  5
4B0
100
AcDbEntity
  8
レイヤ2
  6
CONTINUOUS
 62
     4
100
AcDbLine
 10
-87.87920953392
 20
295.4308235447
 11
-87.87920953392
 21
285.4308235447
  0
LINE
  5
4B1
100
AcDbEntity
  8
レイヤ2
  6
CONTINUOUS
 62
     4
100
AcDbLine
 10
-85.87920953392
 20
285.4308235447
 11
-87.87920953392
 21
285.4308235447
  0
LINE
  5
4B2
100
AcDbEntity
  8
レイヤ2
  6
CONTINUOUS
 62
     4
100
AcDbLine
 10
-85.87920953392
 20
295.4308235447
 11
-85.87920953392
 21
285.4308235447
  0
LINE
  5
4B3
100
AcDbEntity
  8
レイヤ2
  6
CONTINUOUS
 62
     4
100
AcDbLine
 10
-85.87920953392
 20
295.4308235447
 11
-87.87920953392
 21
295.4308235447
  0
LINE
  5
4B4
100
AcDbEntity
  8
レイヤ2
  6
CONTINUOUS
 62
     4
100
AcDbLine
 10
-84.30822868547
 20
304.9481233933
 11
-84.30822868547
 21
294.6981233933
  0
LINE
  5
4B5
100
AcDbEntity
  8
レイヤ2
  6
CONTINUOUS
 62
     4
100
AcDbLine
 10
-84.30822868547
 20
275.9481233933
 11
-84.30822868547
 21
286.1981233933
  0
LINE
  5
4B6
100
AcDbEntity
  8
レイヤ2
  6
CONTINUOUS
 62
     4
100
AcDbLine
 10
-84.30822868547
 20
294.6981233933
 11
-84.30822868547
 21
288.0351788377
  0
LINE
  5
4B7
100
AcDbEntity
  8
レイヤ2
  6
CONTINUOUS
 62
     4
100
AcDbLine
 10
-94.93707824673
 20
284.7255010697
 11
-126.450529563
 21
258.2825756931
  0
LINE
  5
4B8
100
AcDbEntity
  8
レイヤ2
  6
CONTINUOUS
 62
     4
100
AcDbLine
 10
-125.6791844313
 20
257.3633223612
 11
-94.23542013266
 21
283.7477733872
  0
LINE
  5
4B9
100
AcDbEntity
  8
レイヤ2
  6
CONTINUOUS
 62
     4
100
AcDbLine
 10
-84.30822868547
 20
286.1981233933
 11
-84.30822868547
 21
281.7481233933
  0
LINE
  5
4BA
100
AcDbEntity
  8
レイヤ2
  6
CONTINUOUS
 62
     4
100
AcDbLine
 10
-85.80822868547
 20
286.1981233933
 11
-85.80822868547
 21
282.9481233933
  0
LINE
  5
4BB
100
AcDbEntity
  8
レイヤ2
  6
CONTINUOUS
 62
     4
100
AcDbLine
 10
-88.30822868547
 20
284.9479483903
 11
-92.30822868547
 21
284.9479483903
  0
LINE
  5
4BC
100
AcDbEntity
  8
レイヤ2
  6
CONTINUOUS
 62
     4
100
AcDbLine
 10
-89.00822868547
 20
283.7477733872
 11
-94.23542013266
 21
283.7477733872
  0
LINE
  5
4BD
100
AcDbEntity
  8
レイヤ2
  6
CONTINUOUS
 62
     4
100
AcDbLine
 10
-89.00822868547
 20
281.7481233933
 11
-89.00822868547
 21
283.7477733872
  0
LINE
  5
4BE
100
AcDbEntity
  8
レイヤ2
  6
CONTINUOUS
 62
     4
100
AcDbLine
 10
-87.80822868547
 20
284.4479483903
 11
-87.80822868547
 21
282.9481233933
  0
ARC
  5
4BF
100
AcDbEntity
  8
レイヤ2
  6
CONTINUOUS
 62
     4
100
AcDbCircle
 10
-88.30822868547
 20
284.4479483903
 40
0.5
100
AcDbArc
 50
0
 51
90
  0
LINE
  5
4C0
100
AcDbEntity
  8
レイヤ2
  6
CONTINUOUS
 62
     4
100
AcDbLine
 10
-87.80822868547
 20
297.9481233933
 11
-85.80822868547
 21
297.9481233933
  0
LINE
  5
4C1
100
AcDbEntity
  8
レイヤ2
  6
CONTINUOUS
 62
     4
100
AcDbLine
 10
-84.30822868547
 20
294.6981233933
 11
-84.30822868547
 21
299.1481233932
  0
LINE
  5
4C2
100
AcDbEntity
  8
レイヤ2
  6
CONTINUOUS
 62
     4
100
AcDbLine
 10
-85.80822868547
 20
294.6981233933
 11
-85.80822868547
 21
297.9481233933
  0
LINE
  5
4C3
100
AcDbEntity
  8
レイヤ2
  6
CONTINUOUS
 62
     4
100
AcDbLine
 10
-88.30822868547
 20
295.9479483902
 11
-92.30822868547
 21
295.9479483902
  0
LINE
  5
4C4
100
AcDbEntity
  8
レイヤ2
  6
CONTINUOUS
 62
     4
100
AcDbLine
 10
-87.80822868547
 20
296.4479483902
 11
-87.80822868547
 21
297.9481233933
  0
ARC
  5
4C5
100
AcDbEntity
  8
レイヤ2
  6
CONTINUOUS
 62
     4
100
AcDbCircle
 10
-88.30822868547
 20
296.4479483902
 40
0.5
100
AcDbArc
 50
-90
 51
0
  0
ARC
  5
4C6
100
AcDbEntity
  8
レイヤ2
  6
CONTINUOUS
 62
     4
100
AcDbCircle
 10
-121.3082286855
 20
252.1542201481
 40
6.8
100
AcDbArc
 50
130
 51
180
  0
ARC
  5
4C7
100
AcDbEntity
  8
レイヤ2
  6
CONTINUOUS
 62
     4
100
AcDbCircle
 10
-121.3082286855
 20
252.1542201481
 40
8
100
AcDbArc
 50
130
 51
180
  0
ARC
  5
4C8
100
AcDbEntity
  8
レイヤ2
  6
CONTINUOUS
 62
     4
100
AcDbCircle
 10
-128.7082286855
 20
249.7481233933
 40
0.6
100
AcDbArc
 50
-90
 51
0
  0
ARC
  5
4C9
100
AcDbEntity
  8
レイヤ2
  6
CONTINUOUS
 62
     4
100
AcDbCircle
 10
-128.7082286855
 20
249.7481233933
 40
0.6
100
AcDbArc
 50
180
 51
270
  0
LINE
  5
4CA
100
AcDbEntity
  8
レイヤ2
  6
CONTINUOUS
 62
     4
100
AcDbLine
 10
-128.1082286855
 20
249.7481233933
 11
-128.1082286855
 21
252.1542201481
  0
LINE
  5
4CB
100
AcDbEntity
  8
レイヤ2
  6
CONTINUOUS
 62
     4
100
AcDbLine
 10
-129.3082286855
 20
249.7481233933
 11
-129.3082286855
 21
252.1542201481
  0
LINE
  5
4CC
100
AcDbEntity
  8
レイヤ2
  6
CONTINUOUS
 62
     4
100
AcDbLine
 10
-93.50822868547
 20
287.7896788421
 11
-93.50822868547
 21
296.4982503042
  0
LINE
  5
4CD
100
AcDbEntity
  8
レイヤ2
  6
CONTINUOUS
 62
     4
100
AcDbLine
 10
-92.30822868547
 20
284.9479483903
 11
-92.30822868547
 21
295.9479483902
  0
ARC
  5
4CE
100
AcDbEntity
  8
レイヤ2
  6
CONTINUOUS
 62
     4
100
AcDbCircle
 10
-97.50822868547
 20
287.7896788421
 40
4
100
AcDbArc
 50
-50
 51
0
  0
LINE
  5
4CF
100
AcDbEntity
  8
レイヤ2
  6
CONTINUOUS
 62
     4
100
AcDbLine
 10
-87.80822868547
 20
282.9481233933
 11
-85.80822868547
 21
282.9481233933
  0
LINE
  5
4D0
100
AcDbEntity
  8
レイヤ2
  6
CONTINUOUS
 62
     4
100
AcDbLine
 10
-89.00822868547
 20
281.7481233933
 11
-84.30822868547
 21
281.7481233933
  0
ARC
  5
4D1
100
AcDbEntity
  8
レイヤ2
  6
CONTINUOUS
 62
     4
100
AcDbCircle
 10
-85.05822868547
 20
294.6981233933
 40
0.75
100
AcDbArc
 50
180
 51
360
  0
ARC
  5
4D2
100
AcDbEntity
  8
レイヤ2
  6
CONTINUOUS
 62
     4
100
AcDbCircle
 10
-85.05822868547
 20
286.1981233933
 40
0.75
100
AcDbArc
 50
0
 51
180
  0
LINE
  5
4D3
100
AcDbEntity
  8
レイヤ2
  6
CONTINUOUS
 62
     4
100
AcDbLine
 10
-88.58379978458
 20
299.1481233932
 11
-84.30822868547
 21
299.1481233932
  0
LINE
  5
4D4
100
AcDbEntity
  8
レイヤ2
  6
CONTINUOUS
 62
     4
100
AcDbLine
 10
-89.39607671668
 20
298.9757464906
 11
-92.91436715153
 21
297.4120618529
  0
ARC
  5
4D5
100
AcDbEntity
  8
レイヤ2
  6
CONTINUOUS
 62
     4
100
AcDbCircle
 10
-88.58379978458
 20
297.1481233932
 40
2
100
AcDbArc
 50
90
 51
113.9624889746
  0
ARC
  5
4D6
100
AcDbEntity
  8
レイヤ2
  6
CONTINUOUS
 62
     4
100
AcDbCircle
 10
-92.50822868547
 20
296.4982503042
 40
1
100
AcDbArc
 50
113.9624889746
 51
180
  0
LINE
  5
4D7
100
AcDbEntity
  8
レイヤ3
  6
DOT
 62
     4
100
AcDbLine
 10
-84.30822868547
 20
249.1481233933
 11
-84.30822868547
 21
299.1481233932
  0
LINE
  5
4D8
100
AcDbEntity
  8
レイヤ3
  6
DOT
 62
     4
100
AcDbLine
 10
-88.58379978458
 20
293.9481233933
 11
-84.30822868547
 21
293.9481233933
  0
LINE
  5
4D9
100
AcDbEntity
  8
レイヤ3
  6
DOT
 62
     4
100
AcDbLine
 10
-88.58379978458
 20
286.9481233933
 11
-84.30822868547
 21
286.9481233933
  0
LINE
  5
4DA
100
AcDbEntity
  8
レイヤ2
  6
CONTINUOUS
 62
     4
100
AcDbLine
 10
-84.30822868547
 20
306.3625325116
 11
-84.30822868547
 21
299.9952961717
  0
LINE
  5
4DB
100
AcDbEntity
  8
レイヤ2
  6
CONTINUOUS
 62
     4
100
AcDbLine
 10
-84.30822868547
 20
215.4481483933
 11
-84.30822868547
 21
224.0217527347
  0
LINE
  5
4DC
100
AcDbEntity
  8
レイヤ2
  6
CONTINUOUS
 62
     4
100
AcDbLine
 10
-84.30822868547
 20
205.4481583933
 11
-84.30822868547
 21
215.4481483933
  0
LINE
  5
4DD
100
AcDbEntity
  8
レイヤ2
  6
CONTINUOUS
 62
     4
100
AcDbLine
 10
-84.30822868547
 20
236.1981276433
 11
-84.30822868547
 21
225.9481378933
  0
LINE
  5
4DE
100
AcDbEntity
  8
レイヤ2
  6
CONTINUOUS
 62
     4
100
AcDbLine
 10
-87.87920953392
 20
245.4308235447
 11
-87.87920953392
 21
235.4308235447
  0
LINE
  5
4DF
100
AcDbEntity
  8
レイヤ2
  6
CONTINUOUS
 62
     4
100
AcDbLine
 10
-85.87920953392
 20
235.4308235447
 11
-87.87920953392
 21
235.4308235447
  0
LINE
  5
4E0
100
AcDbEntity
  8
レイヤ2
  6
CONTINUOUS
 62
     4
100
AcDbLine
 10
-85.87920953392
 20
245.4308235447
 11
-85.87920953392
 21
235.4308235447
  0
LINE
  5
4E1
100
AcDbEntity
  8
レイヤ2
  6
CONTINUOUS
 62
     4
100
AcDbLine
 10
-85.87920953392
 20
245.4308235447
 11
-87.87920953392
 21
245.4308235447
  0
LINE
  5
4E2
100
AcDbEntity
  8
レイヤ2
  6
CONTINUOUS
 62
     4
100
AcDbLine
 10
-84.30822868547
 20
225.9481233933
 11
-84.30822868547
 21
236.1981233933
  0
LINE
  5
4E3
100
AcDbEntity
  8
レイヤ2
  6
CONTINUOUS
 62
     4
100
AcDbLine
 10
-84.30822868547
 20
244.6981233933
 11
-84.30822868547
 21
238.0351788377
  0
LINE
  5
4E4
100
AcDbEntity
  8
レイヤ2
  6
CONTINUOUS
 62
     4
100
AcDbLine
 10
-94.93707824673
 20
234.7255010697
 11
-126.450529563
 21
208.2825756931
  0
LINE
  5
4E5
100
AcDbEntity
  8
レイヤ2
  6
CONTINUOUS
 62
     4
100
AcDbLine
 10
-125.6791844313
 20
207.3633223613
 11
-94.23542013266
 21
233.7477733872
  0
LINE
  5
4E6
100
AcDbEntity
  8
レイヤ2
  6
CONTINUOUS
 62
     4
100
AcDbLine
 10
-84.30822868547
 20
236.1981233933
 11
-84.30822868547
 21
231.7481233933
  0
LINE
  5
4E7
100
AcDbEntity
  8
レイヤ2
  6
CONTINUOUS
 62
     4
100
AcDbLine
 10
-85.80822868547
 20
236.1981233933
 11
-85.80822868547
 21
232.9481233933
  0
LINE
  5
4E8
100
AcDbEntity
  8
レイヤ2
  6
CONTINUOUS
 62
     4
100
AcDbLine
 10
-88.30822868547
 20
234.9479483903
 11
-92.30822868547
 21
234.9479483903
  0
LINE
  5
4E9
100
AcDbEntity
  8
レイヤ2
  6
CONTINUOUS
 62
     4
100
AcDbLine
 10
-89.00822868547
 20
233.7477733872
 11
-94.23542013266
 21
233.7477733872
  0
LINE
  5
4EA
100
AcDbEntity
  8
レイヤ2
  6
CONTINUOUS
 62
     4
100
AcDbLine
 10
-89.00822868547
 20
231.7481233933
 11
-89.00822868547
 21
233.7477733872
  0
LINE
  5
4EB
100
AcDbEntity
  8
レイヤ2
  6
CONTINUOUS
 62
     4
100
AcDbLine
 10
-87.80822868547
 20
234.4479483903
 11
-87.80822868547
 21
232.9481233933
  0
ARC
  5
4EC
100
AcDbEntity
  8
レイヤ2
  6
CONTINUOUS
 62
     4
100
AcDbCircle
 10
-88.30822868547
 20
234.4479483903
 40
0.5
100
AcDbArc
 50
0
 51
90
  0
LINE
  5
4ED
100
AcDbEntity
  8
レイヤ2
  6
CONTINUOUS
 62
     4
100
AcDbLine
 10
-87.80822868547
 20
247.9481233933
 11
-85.80822868547
 21
247.9481233933
  0
LINE
  5
4EE
100
AcDbEntity
  8
レイヤ2
  6
CONTINUOUS
 62
     4
100
AcDbLine
 10
-84.30822868547
 20
244.6981233933
 11
-84.30822868547
 21
249.1481233933
  0
LINE
  5
4EF
100
AcDbEntity
  8
レイヤ2
  6
CONTINUOUS
 62
     4
100
AcDbLine
 10
-85.80822868547
 20
244.6981233933
 11
-85.80822868547
 21
247.9481233933
  0
LINE
  5
4F0
100
AcDbEntity
  8
レイヤ2
  6
CONTINUOUS
 62
     4
100
AcDbLine
 10
-88.30822868547
 20
245.9479483903
 11
-92.30822868547
 21
245.9479483903
  0
LINE
  5
4F1
100
AcDbEntity
  8
レイヤ2
  6
CONTINUOUS
 62
     4
100
AcDbLine
 10
-87.80822868547
 20
246.4479483903
 11
-87.80822868547
 21
247.9481233933
  0
ARC
  5
4F2
100
AcDbEntity
  8
レイヤ2
  6
CONTINUOUS
 62
     4
100
AcDbCircle
 10
-88.30822868547
 20
246.4479483903
 40
0.5
100
AcDbArc
 50
-90
 51
0
  0
ARC
  5
4F3
100
AcDbEntity
  8
レイヤ2
  6
CONTINUOUS
 62
     4
100
AcDbCircle
 10
-121.3082286855
 20
202.1542201481
 40
6.8
100
AcDbArc
 50
130
 51
180
  0
ARC
  5
4F4
100
AcDbEntity
  8
レイヤ2
  6
CONTINUOUS
 62
     4
100
AcDbCircle
 10
-121.3082286855
 20
202.1542201481
 40
8
100
AcDbArc
 50
130
 51
180
  0
ARC
  5
4F5
100
AcDbEntity
  8
レイヤ2
  6
CONTINUOUS
 62
     4
100
AcDbCircle
 10
-128.7082286855
 20
199.7481233933
 40
0.6
100
AcDbArc
 50
-90
 51
0
  0
ARC
  5
4F6
100
AcDbEntity
  8
レイヤ2
  6
CONTINUOUS
 62
     4
100
AcDbCircle
 10
-128.7082286855
 20
199.7481233933
 40
0.6
100
AcDbArc
 50
180
 51
270
  0
LINE
  5
4F7
100
AcDbEntity
  8
レイヤ2
  6
CONTINUOUS
 62
     4
100
AcDbLine
 10
-128.1082286855
 20
199.7481233933
 11
-128.1082286855
 21
202.1542201481
  0
LINE
  5
4F8
100
AcDbEntity
  8
レイヤ2
  6
CONTINUOUS
 62
     4
100
AcDbLine
 10
-129.3082286855
 20
199.7481233933
 11
-129.3082286855
 21
202.1542201481
  0
LINE
  5
4F9
100
AcDbEntity
  8
レイヤ2
  6
CONTINUOUS
 62
     4
100
AcDbLine
 10
-93.50822868547
 20
237.7896788421
 11
-93.50822868547
 21
246.4982503042
  0
LINE
  5
4FA
100
AcDbEntity
  8
レイヤ2
  6
CONTINUOUS
 62
     4
100
AcDbLine
 10
-92.30822868547
 20
234.9479483903
 11
-92.30822868547
 21
245.9479483903
  0
ARC
  5
4FB
100
AcDbEntity
  8
レイヤ2
  6
CONTINUOUS
 62
     4
100
AcDbCircle
 10
-97.50822868547
 20
237.7896788421
 40
4
100
AcDbArc
 50
-50
 51
0
  0
LINE
  5
4FC
100
AcDbEntity
  8
レイヤ2
  6
CONTINUOUS
 62
     4
100
AcDbLine
 10
-87.80822868547
 20
232.9481233933
 11
-85.80822868547
 21
232.9481233933
  0
LINE
  5
4FD
100
AcDbEntity
  8
レイヤ2
  6
CONTINUOUS
 62
     4
100
AcDbLine
 10
-89.00822868547
 20
231.7481233933
 11
-84.30822868547
 21
231.7481233933
  0
ARC
  5
4FE
100
AcDbEntity
  8
レイヤ2
  6
CONTINUOUS
 62
     4
100
AcDbCircle
 10
-85.05822868547
 20
244.6981233933
 40
0.75
100
AcDbArc
 50
180
 51
360
  0
ARC
  5
4FF
100
AcDbEntity
  8
レイヤ2
  6
CONTINUOUS
 62
     4
100
AcDbCircle
 10
-85.05822868547
 20
236.1981233933
 40
0.75
100
AcDbArc
 50
0
 51
180
  0
LINE
  5
500
100
AcDbEntity
  8
レイヤ2
  6
CONTINUOUS
 62
     4
100
AcDbLine
 10
-88.58379978458
 20
249.1481233933
 11
-84.30822868547
 21
249.1481233933
  0
LINE
  5
501
100
AcDbEntity
  8
レイヤ2
  6
CONTINUOUS
 62
     4
100
AcDbLine
 10
-89.39607671668
 20
248.9757464906
 11
-92.91436715153
 21
247.4120618529
  0
ARC
  5
502
100
AcDbEntity
  8
レイヤ2
  6
CONTINUOUS
 62
     4
100
AcDbCircle
 10
-88.58379978458
 20
247.1481233933
 40
2
100
AcDbArc
 50
90
 51
113.9624889746
  0
ARC
  5
503
100
AcDbEntity
  8
レイヤ2
  6
CONTINUOUS
 62
     4
100
AcDbCircle
 10
-92.50822868547
 20
246.4982503042
 40
1
100
AcDbArc
 50
113.9624889746
 51
180
  0
LINE
  5
504
100
AcDbEntity
  8
レイヤ3
  6
DOT
 62
     4
100
AcDbLine
 10
-84.30822868547
 20
199.1481233933
 11
-84.30822868547
 21
249.1481233933
  0
LINE
  5
505
100
AcDbEntity
  8
レイヤ3
  6
DOT
 62
     4
100
AcDbLine
 10
-88.58379978458
 20
243.9481233933
 11
-84.30822868547
 21
243.9481233933
  0
LINE
  5
506
100
AcDbEntity
  8
レイヤ3
  6
DOT
 62
     4
100
AcDbLine
 10
-88.58379978458
 20
236.9481233933
 11
-84.30822868547
 21
236.9481233933
  0
LINE
  5
507
100
AcDbEntity
  8
レイヤ2
  6
CONTINUOUS
 62
     4
100
AcDbLine
 10
-84.30822868547
 20
165.4481483933
 11
-84.30822868547
 21
174.0217527347
  0
LINE
  5
508
100
AcDbEntity
  8
レイヤ2
  6
CONTINUOUS
 62
     4
100
AcDbLine
 10
-84.30822868547
 20
155.4481583933
 11
-84.30822868547
 21
165.4481483933
  0
LINE
  5
509
100
AcDbEntity
  8
レイヤ2
  6
CONTINUOUS
 62
     4
100
AcDbLine
 10
-84.30822868547
 20
186.1981276433
 11
-84.30822868547
 21
175.9481378933
  0
LINE
  5
50A
100
AcDbEntity
  8
レイヤ2
  6
CONTINUOUS
 62
     4
100
AcDbLine
 10
-87.87920953392
 20
195.4308235447
 11
-87.87920953392
 21
185.4308235447
  0
LINE
  5
50B
100
AcDbEntity
  8
レイヤ2
  6
CONTINUOUS
 62
     4
100
AcDbLine
 10
-85.87920953392
 20
185.4308235447
 11
-87.87920953392
 21
185.4308235447
  0
LINE
  5
50C
100
AcDbEntity
  8
レイヤ2
  6
CONTINUOUS
 62
     4
100
AcDbLine
 10
-85.87920953392
 20
195.4308235447
 11
-85.87920953392
 21
185.4308235447
  0
LINE
  5
50D
100
AcDbEntity
  8
レイヤ2
  6
CONTINUOUS
 62
     4
100
AcDbLine
 10
-85.87920953392
 20
195.4308235447
 11
-87.87920953392
 21
195.4308235447
  0
LINE
  5
50E
100
AcDbEntity
  8
レイヤ2
  6
CONTINUOUS
 62
     4
100
AcDbLine
 10
-84.30822868547
 20
175.9481233933
 11
-84.30822868547
 21
186.1981233933
  0
LINE
  5
50F
100
AcDbEntity
  8
レイヤ2
  6
CONTINUOUS
 62
     4
100
AcDbLine
 10
-84.30822868547
 20
194.6981233933
 11
-84.30822868547
 21
188.0351788377
  0
LINE
  5
510
100
AcDbEntity
  8
レイヤ2
  6
CONTINUOUS
 62
     4
100
AcDbLine
 10
-94.93707824673
 20
184.7255010697
 11
-126.450529563
 21
158.2825756931
  0
LINE
  5
511
100
AcDbEntity
  8
レイヤ2
  6
CONTINUOUS
 62
     4
100
AcDbLine
 10
-125.6791844313
 20
157.3633223613
 11
-94.23542013266
 21
183.7477733872
  0
LINE
  5
512
100
AcDbEntity
  8
レイヤ2
  6
CONTINUOUS
 62
     4
100
AcDbLine
 10
-84.30822868547
 20
186.1981233933
 11
-84.30822868547
 21
181.7481233933
  0
LINE
  5
513
100
AcDbEntity
  8
レイヤ2
  6
CONTINUOUS
 62
     4
100
AcDbLine
 10
-85.80822868547
 20
186.1981233933
 11
-85.80822868547
 21
182.9481233933
  0
LINE
  5
514
100
AcDbEntity
  8
レイヤ2
  6
CONTINUOUS
 62
     4
100
AcDbLine
 10
-88.30822868547
 20
184.9479483903
 11
-92.30822868547
 21
184.9479483903
  0
LINE
  5
515
100
AcDbEntity
  8
レイヤ2
  6
CONTINUOUS
 62
     4
100
AcDbLine
 10
-89.00822868547
 20
183.7477733872
 11
-94.23542013266
 21
183.7477733872
  0
LINE
  5
516
100
AcDbEntity
  8
レイヤ2
  6
CONTINUOUS
 62
     4
100
AcDbLine
 10
-89.00822868547
 20
181.7481233933
 11
-89.00822868547
 21
183.7477733872
  0
LINE
  5
517
100
AcDbEntity
  8
レイヤ2
  6
CONTINUOUS
 62
     4
100
AcDbLine
 10
-87.80822868547
 20
184.4479483903
 11
-87.80822868547
 21
182.9481233933
  0
ARC
  5
518
100
AcDbEntity
  8
レイヤ2
  6
CONTINUOUS
 62
     4
100
AcDbCircle
 10
-88.30822868547
 20
184.4479483903
 40
0.5
100
AcDbArc
 50
0
 51
90
  0
LINE
  5
519
100
AcDbEntity
  8
レイヤ2
  6
CONTINUOUS
 62
     4
100
AcDbLine
 10
-87.80822868547
 20
197.9481233933
 11
-85.80822868547
 21
197.9481233933
  0
LINE
  5
51A
100
AcDbEntity
  8
レイヤ2
  6
CONTINUOUS
 62
     4
100
AcDbLine
 10
-84.30822868547
 20
194.6981233933
 11
-84.30822868547
 21
199.1481233933
  0
LINE
  5
51B
100
AcDbEntity
  8
レイヤ2
  6
CONTINUOUS
 62
     4
100
AcDbLine
 10
-85.80822868547
 20
194.6981233933
 11
-85.80822868547
 21
197.9481233933
  0
LINE
  5
51C
100
AcDbEntity
  8
レイヤ2
  6
CONTINUOUS
 62
     4
100
AcDbLine
 10
-88.30822868547
 20
195.9479483903
 11
-92.30822868547
 21
195.9479483903
  0
LINE
  5
51D
100
AcDbEntity
  8
レイヤ2
  6
CONTINUOUS
 62
     4
100
AcDbLine
 10
-87.80822868547
 20
196.4479483903
 11
-87.80822868547
 21
197.9481233933
  0
ARC
  5
51E
100
AcDbEntity
  8
レイヤ2
  6
CONTINUOUS
 62
     4
100
AcDbCircle
 10
-88.30822868547
 20
196.4479483903
 40
0.5
100
AcDbArc
 50
-90
 51
0
  0
ARC
  5
51F
100
AcDbEntity
  8
レイヤ2
  6
CONTINUOUS
 62
     4
100
AcDbCircle
 10
-121.3082286855
 20
152.1542201481
 40
6.8
100
AcDbArc
 50
130
 51
180
  0
ARC
  5
520
100
AcDbEntity
  8
レイヤ2
  6
CONTINUOUS
 62
     4
100
AcDbCircle
 10
-121.3082286855
 20
152.1542201481
 40
8
100
AcDbArc
 50
130
 51
180
  0
ARC
  5
521
100
AcDbEntity
  8
レイヤ2
  6
CONTINUOUS
 62
     4
100
AcDbCircle
 10
-128.7082286855
 20
149.7481233933
 40
0.6
100
AcDbArc
 50
-90
 51
0
  0
ARC
  5
522
100
AcDbEntity
  8
レイヤ2
  6
CONTINUOUS
 62
     4
100
AcDbCircle
 10
-128.7082286855
 20
149.7481233933
 40
0.6
100
AcDbArc
 50
180
 51
270
  0
LINE
  5
523
100
AcDbEntity
  8
レイヤ2
  6
CONTINUOUS
 62
     4
100
AcDbLine
 10
-128.1082286855
 20
149.7481233933
 11
-128.1082286855
 21
152.1542201481
  0
LINE
  5
524
100
AcDbEntity
  8
レイヤ2
  6
CONTINUOUS
 62
     4
100
AcDbLine
 10
-129.3082286855
 20
149.7481233933
 11
-129.3082286855
 21
152.1542201481
  0
LINE
  5
525
100
AcDbEntity
  8
レイヤ2
  6
CONTINUOUS
 62
     4
100
AcDbLine
 10
-93.50822868547
 20
187.7896788421
 11
-93.50822868547
 21
196.4982503042
  0
LINE
  5
526
100
AcDbEntity
  8
レイヤ2
  6
CONTINUOUS
 62
     4
100
AcDbLine
 10
-92.30822868547
 20
184.9479483903
 11
-92.30822868547
 21
195.9479483903
  0
ARC
  5
527
100
AcDbEntity
  8
レイヤ2
  6
CONTINUOUS
 62
     4
100
AcDbCircle
 10
-97.50822868547
 20
187.7896788421
 40
4
100
AcDbArc
 50
-50
 51
0
  0
LINE
  5
528
100
AcDbEntity
  8
レイヤ2
  6
CONTINUOUS
 62
     4
100
AcDbLine
 10
-87.80822868547
 20
182.9481233933
 11
-85.80822868547
 21
182.9481233933
  0
LINE
  5
529
100
AcDbEntity
  8
レイヤ2
  6
CONTINUOUS
 62
     4
100
AcDbLine
 10
-89.00822868547
 20
181.7481233933
 11
-84.30822868547
 21
181.7481233933
  0
ARC
  5
52A
100
AcDbEntity
  8
レイヤ2
  6
CONTINUOUS
 62
     4
100
AcDbCircle
 10
-85.05822868547
 20
194.6981233933
 40
0.75
100
AcDbArc
 50
180
 51
360
  0
ARC
  5
52B
100
AcDbEntity
  8
レイヤ2
  6
CONTINUOUS
 62
     4
100
AcDbCircle
 10
-85.05822868547
 20
186.1981233933
 40
0.75
100
AcDbArc
 50
0
 51
180
  0
LINE
  5
52C
100
AcDbEntity
  8
レイヤ2
  6
CONTINUOUS
 62
     4
100
AcDbLine
 10
-88.58379978458
 20
199.1481233933
 11
-84.30822868547
 21
199.1481233933
  0
LINE
  5
52D
100
AcDbEntity
  8
レイヤ2
  6
CONTINUOUS
 62
     4
100
AcDbLine
 10
-89.39607671668
 20
198.9757464906
 11
-92.91436715153
 21
197.4120618529
  0
ARC
  5
52E
100
AcDbEntity
  8
レイヤ2
  6
CONTINUOUS
 62
     4
100
AcDbCircle
 10
-88.58379978458
 20
197.1481233933
 40
2
100
AcDbArc
 50
90
 51
113.9624889746
  0
ARC
  5
52F
100
AcDbEntity
  8
レイヤ2
  6
CONTINUOUS
 62
     4
100
AcDbCircle
 10
-92.50822868547
 20
196.4982503042
 40
1
100
AcDbArc
 50
113.9624889746
 51
180
  0
LINE
  5
530
100
AcDbEntity
  8
レイヤ3
  6
DOT
 62
     4
100
AcDbLine
 10
-84.30822868547
 20
149.1481233933
 11
-84.30822868547
 21
199.1481233933
  0
LINE
  5
531
100
AcDbEntity
  8
レイヤ3
  6
DOT
 62
     4
100
AcDbLine
 10
-88.58379978458
 20
193.9481233933
 11
-84.30822868547
 21
193.9481233933
  0
LINE
  5
532
100
AcDbEntity
  8
レイヤ3
  6
DOT
 62
     4
100
AcDbLine
 10
-88.58379978458
 20
186.9481233933
 11
-84.30822868547
 21
186.9481233933
  0
LINE
  5
533
100
AcDbEntity
  8
レイヤ2
  6
CONTINUOUS
 62
     4
100
AcDbLine
 10
-84.30822868547
 20
115.4481483933
 11
-84.30822868547
 21
124.0217527347
  0
LINE
  5
534
100
AcDbEntity
  8
レイヤ2
  6
CONTINUOUS
 62
     4
100
AcDbLine
 10
-84.30822868547
 20
105.4481583933
 11
-84.30822868547
 21
115.4481483933
  0
LINE
  5
535
100
AcDbEntity
  8
レイヤ2
  6
CONTINUOUS
 62
     4
100
AcDbLine
 10
-84.30822868547
 20
136.1981276433
 11
-84.30822868547
 21
125.9481378933
  0
LINE
  5
536
100
AcDbEntity
  8
レイヤ2
  6
CONTINUOUS
 62
     4
100
AcDbLine
 10
-87.87920953392
 20
145.4308235447
 11
-87.87920953392
 21
135.4308235447
  0
LINE
  5
537
100
AcDbEntity
  8
レイヤ2
  6
CONTINUOUS
 62
     4
100
AcDbLine
 10
-85.87920953392
 20
135.4308235447
 11
-87.87920953392
 21
135.4308235447
  0
LINE
  5
538
100
AcDbEntity
  8
レイヤ2
  6
CONTINUOUS
 62
     4
100
AcDbLine
 10
-85.87920953392
 20
145.4308235447
 11
-85.87920953392
 21
135.4308235447
  0
LINE
  5
539
100
AcDbEntity
  8
レイヤ2
  6
CONTINUOUS
 62
     4
100
AcDbLine
 10
-85.87920953392
 20
145.4308235447
 11
-87.87920953392
 21
145.4308235447
  0
LINE
  5
53A
100
AcDbEntity
  8
レイヤ2
  6
CONTINUOUS
 62
     4
100
AcDbLine
 10
-84.30822868547
 20
125.9481233933
 11
-84.30822868547
 21
136.1981233933
  0
LINE
  5
53B
100
AcDbEntity
  8
レイヤ2
  6
CONTINUOUS
 62
     4
100
AcDbLine
 10
-84.30822868547
 20
144.6981233933
 11
-84.30822868547
 21
138.0351788376
  0
LINE
  5
53C
100
AcDbEntity
  8
レイヤ2
  6
CONTINUOUS
 62
     4
100
AcDbLine
 10
-94.93707824673
 20
134.7255010697
 11
-126.450529563
 21
108.282575693
  0
LINE
  5
53D
100
AcDbEntity
  8
レイヤ2
  6
CONTINUOUS
 62
     4
100
AcDbLine
 10
-125.6791844313
 20
107.3633223613
 11
-94.23542013266
 21
133.7477733872
  0
LINE
  5
53E
100
AcDbEntity
  8
レイヤ2
  6
CONTINUOUS
 62
     4
100
AcDbLine
 10
-84.30822868547
 20
136.1981233933
 11
-84.30822868547
 21
131.7481233933
  0
LINE
  5
53F
100
AcDbEntity
  8
レイヤ2
  6
CONTINUOUS
 62
     4
100
AcDbLine
 10
-85.80822868547
 20
136.1981233933
 11
-85.80822868547
 21
132.9481233933
  0
LINE
  5
540
100
AcDbEntity
  8
レイヤ2
  6
CONTINUOUS
 62
     4
100
AcDbLine
 10
-88.30822868547
 20
134.9479483903
 11
-92.30822868547
 21
134.9479483903
  0
LINE
  5
541
100
AcDbEntity
  8
レイヤ2
  6
CONTINUOUS
 62
     4
100
AcDbLine
 10
-89.00822868547
 20
133.7477733872
 11
-94.23542013266
 21
133.7477733872
  0
LINE
  5
542
100
AcDbEntity
  8
レイヤ2
  6
CONTINUOUS
 62
     4
100
AcDbLine
 10
-89.00822868547
 20
131.7481233933
 11
-89.00822868547
 21
133.7477733872
  0
LINE
  5
543
100
AcDbEntity
  8
レイヤ2
  6
CONTINUOUS
 62
     4
100
AcDbLine
 10
-87.80822868547
 20
134.4479483903
 11
-87.80822868547
 21
132.9481233933
  0
ARC
  5
544
100
AcDbEntity
  8
レイヤ2
  6
CONTINUOUS
 62
     4
100
AcDbCircle
 10
-88.30822868547
 20
134.4479483903
 40
0.5
100
AcDbArc
 50
0
 51
90
  0
LINE
  5
545
100
AcDbEntity
  8
レイヤ2
  6
CONTINUOUS
 62
     4
100
AcDbLine
 10
-87.80822868547
 20
147.9481233933
 11
-85.80822868547
 21
147.9481233933
  0
LINE
  5
546
100
AcDbEntity
  8
レイヤ2
  6
CONTINUOUS
 62
     4
100
AcDbLine
 10
-84.30822868547
 20
144.6981233933
 11
-84.30822868547
 21
149.1481233933
  0
LINE
  5
547
100
AcDbEntity
  8
レイヤ2
  6
CONTINUOUS
 62
     4
100
AcDbLine
 10
-85.80822868547
 20
144.6981233933
 11
-85.80822868547
 21
147.9481233933
  0
LINE
  5
548
100
AcDbEntity
  8
レイヤ2
  6
CONTINUOUS
 62
     4
100
AcDbLine
 10
-88.30822868547
 20
145.9479483903
 11
-92.30822868547
 21
145.9479483903
  0
LINE
  5
549
100
AcDbEntity
  8
レイヤ2
  6
CONTINUOUS
 62
     4
100
AcDbLine
 10
-87.80822868547
 20
146.4479483903
 11
-87.80822868547
 21
147.9481233933
  0
ARC
  5
54A
100
AcDbEntity
  8
レイヤ2
  6
CONTINUOUS
 62
     4
100
AcDbCircle
 10
-88.30822868547
 20
146.4479483903
 40
0.5
100
AcDbArc
 50
-90
 51
0
  0
ARC
  5
54B
100
AcDbEntity
  8
レイヤ2
  6
CONTINUOUS
 62
     4
100
AcDbCircle
 10
-121.3082286855
 20
102.1542201481
 40
6.8
100
AcDbArc
 50
130
 51
180
  0
ARC
  5
54C
100
AcDbEntity
  8
レイヤ2
  6
CONTINUOUS
 62
     4
100
AcDbCircle
 10
-121.3082286855
 20
102.1542201481
 40
8
100
AcDbArc
 50
130
 51
180
  0
ARC
  5
54D
100
AcDbEntity
  8
レイヤ2
  6
CONTINUOUS
 62
     4
100
AcDbCircle
 10
-128.7082286855
 20
99.7481233933
 40
0.6
100
AcDbArc
 50
-90
 51
0
  0
ARC
  5
54E
100
AcDbEntity
  8
レイヤ2
  6
CONTINUOUS
 62
     4
100
AcDbCircle
 10
-128.7082286855
 20
99.7481233933
 40
0.6
100
AcDbArc
 50
180
 51
270
  0
LINE
  5
54F
100
AcDbEntity
  8
レイヤ2
  6
CONTINUOUS
 62
     4
100
AcDbLine
 10
-128.1082286855
 20
99.7481233933
 11
-128.1082286855
 21
102.1542201481
  0
LINE
  5
550
100
AcDbEntity
  8
レイヤ2
  6
CONTINUOUS
 62
     4
100
AcDbLine
 10
-129.3082286855
 20
99.7481233933
 11
-129.3082286855
 21
102.1542201481
  0
LINE
  5
551
100
AcDbEntity
  8
レイヤ2
  6
CONTINUOUS
 62
     4
100
AcDbLine
 10
-93.50822868547
 20
137.7896788421
 11
-93.50822868547
 21
146.4982503042
  0
LINE
  5
552
100
AcDbEntity
  8
レイヤ2
  6
CONTINUOUS
 62
     4
100
AcDbLine
 10
-92.30822868547
 20
134.9479483903
 11
-92.30822868547
 21
145.9479483903
  0
ARC
  5
553
100
AcDbEntity
  8
レイヤ2
  6
CONTINUOUS
 62
     4
100
AcDbCircle
 10
-97.50822868547
 20
137.7896788421
 40
4
100
AcDbArc
 50
-50
 51
0
  0
LINE
  5
554
100
AcDbEntity
  8
レイヤ2
  6
CONTINUOUS
 62
     4
100
AcDbLine
 10
-87.80822868547
 20
132.9481233933
 11
-85.80822868547
 21
132.9481233933
  0
LINE
  5
555
100
AcDbEntity
  8
レイヤ2
  6
CONTINUOUS
 62
     4
100
AcDbLine
 10
-89.00822868547
 20
131.7481233933
 11
-84.30822868547
 21
131.7481233933
  0
ARC
  5
556
100
AcDbEntity
  8
レイヤ2
  6
CONTINUOUS
 62
     4
100
AcDbCircle
 10
-85.05822868547
 20
144.6981233933
 40
0.75
100
AcDbArc
 50
180
 51
360
  0
ARC
  5
557
100
AcDbEntity
  8
レイヤ2
  6
CONTINUOUS
 62
     4
100
AcDbCircle
 10
-85.05822868547
 20
136.1981233933
 40
0.75
100
AcDbArc
 50
0
 51
180
  0
LINE
  5
558
100
AcDbEntity
  8
レイヤ2
  6
CONTINUOUS
 62
     4
100
AcDbLine
 10
-88.58379978458
 20
149.1481233933
 11
-84.30822868547
 21
149.1481233933
  0
LINE
  5
559
100
AcDbEntity
  8
レイヤ2
  6
CONTINUOUS
 62
     4
100
AcDbLine
 10
-89.39607671668
 20
148.9757464906
 11
-92.91436715153
 21
147.4120618529
  0
ARC
  5
55A
100
AcDbEntity
  8
レイヤ2
  6
CONTINUOUS
 62
     4
100
AcDbCircle
 10
-88.58379978458
 20
147.1481233933
 40
2
100
AcDbArc
 50
90
 51
113.9624889746
  0
ARC
  5
55B
100
AcDbEntity
  8
レイヤ2
  6
CONTINUOUS
 62
     4
100
AcDbCircle
 10
-92.50822868547
 20
146.4982503042
 40
1
100
AcDbArc
 50
113.9624889746
 51
180
  0
LINE
  5
55C
100
AcDbEntity
  8
レイヤ3
  6
DOT
 62
     4
100
AcDbLine
 10
-84.30822868547
 20
99.14812339328
 11
-84.30822868547
 21
149.1481233933
  0
LINE
  5
55D
100
AcDbEntity
  8
レイヤ3
  6
DOT
 62
     4
100
AcDbLine
 10
-88.58379978458
 20
143.9481233933
 11
-84.30822868547
 21
143.9481233933
  0
LINE
  5
55E
100
AcDbEntity
  8
レイヤ3
  6
DOT
 62
     4
100
AcDbLine
 10
-88.58379978458
 20
136.9481233933
 11
-84.30822868547
 21
136.9481233933
  0
LINE
  5
55F
100
AcDbEntity
  8
レイヤ2
  6
CONTINUOUS
 62
     4
100
AcDbLine
 10
-84.30822868547
 20
65.44814839328
 11
-84.30822868547
 21
74.02175273467
  0
LINE
  5
560
100
AcDbEntity
  8
レイヤ2
  6
CONTINUOUS
 62
     4
100
AcDbLine
 10
-84.30822868547
 20
55.44815839328
 11
-84.30822868547
 21
65.44814839328
  0
LINE
  5
561
100
AcDbEntity
  8
レイヤ2
  6
CONTINUOUS
 62
     4
100
AcDbLine
 10
-84.30822868547
 20
86.19812764328
 11
-84.30822868547
 21
75.94813789328
  0
LINE
  5
562
100
AcDbEntity
  8
レイヤ2
  6
CONTINUOUS
 62
     4
100
AcDbLine
 10
-87.87920953392
 20
95.43082354468
 11
-87.87920953392
 21
85.43082354468
  0
LINE
  5
563
100
AcDbEntity
  8
レイヤ2
  6
CONTINUOUS
 62
     4
100
AcDbLine
 10
-85.87920953392
 20
85.43082354468
 11
-87.87920953392
 21
85.43082354468
  0
LINE
  5
564
100
AcDbEntity
  8
レイヤ2
  6
CONTINUOUS
 62
     4
100
AcDbLine
 10
-85.87920953392
 20
95.43082354468
 11
-85.87920953392
 21
85.43082354468
  0
LINE
  5
565
100
AcDbEntity
  8
レイヤ2
  6
CONTINUOUS
 62
     4
100
AcDbLine
 10
-85.87920953392
 20
95.43082354468
 11
-87.87920953392
 21
95.43082354468
  0
LINE
  5
566
100
AcDbEntity
  8
レイヤ2
  6
CONTINUOUS
 62
     4
100
AcDbLine
 10
-84.30822868547
 20
75.94812339328
 11
-84.30822868547
 21
86.19812339328
  0
LINE
  5
567
100
AcDbEntity
  8
レイヤ2
  6
CONTINUOUS
 62
     4
100
AcDbLine
 10
-84.30822868547
 20
94.69812339328
 11
-84.30822868547
 21
88.03517883764
  0
LINE
  5
568
100
AcDbEntity
  8
レイヤ2
  6
CONTINUOUS
 62
     4
100
AcDbLine
 10
-94.93707824673
 20
84.72550106961
 11
-126.450529563
 21
58.28257569304
  0
LINE
  5
569
100
AcDbEntity
  8
レイヤ2
  6
CONTINUOUS
 62
     4
100
AcDbLine
 10
-125.6791844313
 20
57.36332236129
 11
-94.23542013266
 21
83.74777338714
  0
LINE
  5
56A
100
AcDbEntity
  8
レイヤ2
  6
CONTINUOUS
 62
     4
100
AcDbLine
 10
-84.30822868547
 20
86.19812339328
 11
-84.30822868547
 21
81.74812339328
  0
LINE
  5
56B
100
AcDbEntity
  8
レイヤ2
  6
CONTINUOUS
 62
     4
100
AcDbLine
 10
-85.80822868547
 20
86.19812339328
 11
-85.80822868547
 21
82.94812339328
  0
LINE
  5
56C
100
AcDbEntity
  8
レイヤ2
  6
CONTINUOUS
 62
     4
100
AcDbLine
 10
-88.30822868547
 20
84.94794839021
 11
-92.30822868547
 21
84.94794839021
  0
LINE
  5
56D
100
AcDbEntity
  8
レイヤ2
  6
CONTINUOUS
 62
     4
100
AcDbLine
 10
-89.00822868547
 20
83.74777338714
 11
-94.23542013266
 21
83.74777338714
  0
LINE
  5
56E
100
AcDbEntity
  8
レイヤ2
  6
CONTINUOUS
 62
     4
100
AcDbLine
 10
-89.00822868547
 20
81.74812339328
 11
-89.00822868547
 21
83.74777338714
  0
LINE
  5
56F
100
AcDbEntity
  8
レイヤ2
  6
CONTINUOUS
 62
     4
100
AcDbLine
 10
-87.80822868547
 20
84.44794839021
 11
-87.80822868547
 21
82.94812339328
  0
ARC
  5
570
100
AcDbEntity
  8
レイヤ2
  6
CONTINUOUS
 62
     4
100
AcDbCircle
 10
-88.30822868547
 20
84.44794839021
 40
0.5
100
AcDbArc
 50
0
 51
90
  0
LINE
  5
571
100
AcDbEntity
  8
レイヤ2
  6
CONTINUOUS
 62
     4
100
AcDbLine
 10
-87.80822868547
 20
97.94812339328
 11
-85.80822868547
 21
97.94812339328
  0
LINE
  5
572
100
AcDbEntity
  8
レイヤ2
  6
CONTINUOUS
 62
     4
100
AcDbLine
 10
-84.30822868547
 20
94.69812339328
 11
-84.30822868547
 21
99.14812339328
  0
LINE
  5
573
100
AcDbEntity
  8
レイヤ2
  6
CONTINUOUS
 62
     4
100
AcDbLine
 10
-85.80822868547
 20
94.69812339328
 11
-85.80822868547
 21
97.94812339328
  0
LINE
  5
574
100
AcDbEntity
  8
レイヤ2
  6
CONTINUOUS
 62
     4
100
AcDbLine
 10
-88.30822868547
 20
95.94794839021
 11
-92.30822868547
 21
95.94794839021
  0
LINE
  5
575
100
AcDbEntity
  8
レイヤ2
  6
CONTINUOUS
 62
     4
100
AcDbLine
 10
-87.80822868547
 20
96.44794839021
 11
-87.80822868547
 21
97.94812339328
  0
ARC
  5
576
100
AcDbEntity
  8
レイヤ2
  6
CONTINUOUS
 62
     4
100
AcDbCircle
 10
-88.30822868547
 20
96.44794839021
 40
0.5
100
AcDbArc
 50
-90
 51
0
  0
ARC
  5
577
100
AcDbEntity
  8
レイヤ2
  6
CONTINUOUS
 62
     4
100
AcDbCircle
 10
-121.3082286855
 20
52.15422014808
 40
6.8
100
AcDbArc
 50
130
 51
180
  0
ARC
  5
578
100
AcDbEntity
  8
レイヤ2
  6
CONTINUOUS
 62
     4
100
AcDbCircle
 10
-121.3082286855
 20
52.15422014808
 40
8
100
AcDbArc
 50
130
 51
180
  0
ARC
  5
579
100
AcDbEntity
  8
レイヤ2
  6
CONTINUOUS
 62
     4
100
AcDbCircle
 10
-128.7082286855
 20
49.74812339328
 40
0.6
100
AcDbArc
 50
-90
 51
0
  0
ARC
  5
57A
100
AcDbEntity
  8
レイヤ2
  6
CONTINUOUS
 62
     4
100
AcDbCircle
 10
-128.7082286855
 20
49.74812339328
 40
0.6
100
AcDbArc
 50
180
 51
270
  0
LINE
  5
57B
100
AcDbEntity
  8
レイヤ2
  6
CONTINUOUS
 62
     4
100
AcDbLine
 10
-128.1082286855
 20
49.74812339328
 11
-128.1082286855
 21
52.15422014808
  0
LINE
  5
57C
100
AcDbEntity
  8
レイヤ2
  6
CONTINUOUS
 62
     4
100
AcDbLine
 10
-129.3082286855
 20
49.74812339328
 11
-129.3082286855
 21
52.15422014808
  0
LINE
  5
57D
100
AcDbEntity
  8
レイヤ2
  6
CONTINUOUS
 62
     4
100
AcDbLine
 10
-93.50822868547
 20
87.78967884209
 11
-93.50822868547
 21
96.4982503042
  0
LINE
  5
57E
100
AcDbEntity
  8
レイヤ2
  6
CONTINUOUS
 62
     4
100
AcDbLine
 10
-92.30822868547
 20
84.94794839021
 11
-92.30822868547
 21
95.94794839021
  0
ARC
  5
57F
100
AcDbEntity
  8
レイヤ2
  6
CONTINUOUS
 62
     4
100
AcDbCircle
 10
-97.50822868547
 20
87.78967884209
 40
4
100
AcDbArc
 50
-50
 51
0
  0
LINE
  5
580
100
AcDbEntity
  8
レイヤ2
  6
CONTINUOUS
 62
     4
100
AcDbLine
 10
-87.80822868547
 20
82.94812339328
 11
-85.80822868547
 21
82.94812339328
  0
LINE
  5
581
100
AcDbEntity
  8
レイヤ2
  6
CONTINUOUS
 62
     4
100
AcDbLine
 10
-89.00822868547
 20
81.74812339328
 11
-84.30822868547
 21
81.74812339328
  0
ARC
  5
582
100
AcDbEntity
  8
レイヤ2
  6
CONTINUOUS
 62
     4
100
AcDbCircle
 10
-85.05822868547
 20
94.69812339328
 40
0.75
100
AcDbArc
 50
180
 51
360
  0
ARC
  5
583
100
AcDbEntity
  8
レイヤ2
  6
CONTINUOUS
 62
     4
100
AcDbCircle
 10
-85.05822868547
 20
86.19812339328
 40
0.75
100
AcDbArc
 50
0
 51
180
  0
LINE
  5
584
100
AcDbEntity
  8
レイヤ2
  6
CONTINUOUS
 62
     4
100
AcDbLine
 10
-88.58379978458
 20
99.14812339328
 11
-84.30822868547
 21
99.14812339328
  0
LINE
  5
585
100
AcDbEntity
  8
レイヤ2
  6
CONTINUOUS
 62
     4
100
AcDbLine
 10
-89.39607671668
 20
98.97574649052
 11
-92.91436715153
 21
97.41206185282
  0
ARC
  5
586
100
AcDbEntity
  8
レイヤ2
  6
CONTINUOUS
 62
     4
100
AcDbCircle
 10
-88.58379978458
 20
97.14812339328
 40
2
100
AcDbArc
 50
90
 51
113.9624889746
  0
ARC
  5
587
100
AcDbEntity
  8
レイヤ2
  6
CONTINUOUS
 62
     4
100
AcDbCircle
 10
-92.50822868547
 20
96.4982503042
 40
1
100
AcDbArc
 50
113.9624889746
 51
180
  0
LINE
  5
588
100
AcDbEntity
  8
レイヤ3
  6
DOT
 62
     4
100
AcDbLine
 10
-84.30822868547
 20
49.14812339328
 11
-84.30822868547
 21
99.14812339328
  0
LINE
  5
589
100
AcDbEntity
  8
レイヤ3
  6
DOT
 62
     4
100
AcDbLine
 10
-88.58379978458
 20
93.94812339328
 11
-84.30822868547
 21
93.94812339328
  0
LINE
  5
58A
100
AcDbEntity
  8
レイヤ3
  6
DOT
 62
     4
100
AcDbLine
 10
-88.58379978458
 20
86.94812339328
 11
-84.30822868547
 21
86.94812339328
  0
LINE
  5
58B
100
AcDbEntity
  8
レイヤ2
  6
CONTINUOUS
 62
     4
100
AcDbLine
 10
-84.30822868547
 20
15.44814839328
 11
-84.30822868547
 21
24.02175273467
  0
LINE
  5
58C
100
AcDbEntity
  8
レイヤ2
  6
CONTINUOUS
 62
     4
100
AcDbLine
 10
-84.30822868547
 20
5.44815839328
 11
-84.30822868547
 21
15.44814839328
  0
LINE
  5
58D
100
AcDbEntity
  8
レイヤ2
  6
CONTINUOUS
 62
     4
100
AcDbLine
 10
-84.30822868547
 20
36.19812764328
 11
-84.30822868547
 21
25.94813789328
  0
LINE
  5
58E
100
AcDbEntity
  8
レイヤ2
  6
CONTINUOUS
 62
     4
100
AcDbLine
 10
-87.87920953392
 20
45.43082354468
 11
-87.87920953392
 21
35.43082354468
  0
LINE
  5
58F
100
AcDbEntity
  8
レイヤ2
  6
CONTINUOUS
 62
     4
100
AcDbLine
 10
-85.87920953392
 20
35.43082354468
 11
-87.87920953392
 21
35.43082354468
  0
LINE
  5
590
100
AcDbEntity
  8
レイヤ2
  6
CONTINUOUS
 62
     4
100
AcDbLine
 10
-85.87920953392
 20
45.43082354468
 11
-85.87920953392
 21
35.43082354468
  0
LINE
  5
591
100
AcDbEntity
  8
レイヤ2
  6
CONTINUOUS
 62
     4
100
AcDbLine
 10
-85.87920953392
 20
45.43082354468
 11
-87.87920953392
 21
45.43082354468
  0
LINE
  5
592
100
AcDbEntity
  8
レイヤ2
  6
CONTINUOUS
 62
     4
100
AcDbLine
 10
-84.30822868547
 20
25.94812339328
 11
-84.30822868547
 21
36.19812339328
  0
LINE
  5
593
100
AcDbEntity
  8
レイヤ2
  6
CONTINUOUS
 62
     4
100
AcDbLine
 10
-84.30822868547
 20
44.69812339328
 11
-84.30822868547
 21
38.03517883764
  0
LINE
  5
594
100
AcDbEntity
  8
レイヤ2
  6
CONTINUOUS
 62
     4
100
AcDbLine
 10
-94.93707824673
 20
34.72550106962
 11
-126.450529563
 21
8.28257569304
  0
LINE
  5
595
100
AcDbEntity
  8
レイヤ2
  6
CONTINUOUS
 62
     4
100
AcDbLine
 10
-125.6791844313
 20
7.36332236129
 11
-94.23542013266
 21
33.74777338715
  0
LINE
  5
596
100
AcDbEntity
  8
レイヤ2
  6
CONTINUOUS
 62
     4
100
AcDbLine
 10
-84.30822868547
 20
36.19812339328
 11
-84.30822868547
 21
31.74812339328
  0
LINE
  5
597
100
AcDbEntity
  8
レイヤ2
  6
CONTINUOUS
 62
     4
100
AcDbLine
 10
-85.80822868547
 20
36.19812339328
 11
-85.80822868547
 21
32.94812339328
  0
LINE
  5
598
100
AcDbEntity
  8
レイヤ2
  6
CONTINUOUS
 62
     4
100
AcDbLine
 10
-88.30822868547
 20
34.94794839021
 11
-92.30822868547
 21
34.94794839021
  0
LINE
  5
599
100
AcDbEntity
  8
レイヤ2
  6
CONTINUOUS
 62
     4
100
AcDbLine
 10
-89.00822868547
 20
33.74777338715
 11
-94.23542013266
 21
33.74777338715
  0
LINE
  5
59A
100
AcDbEntity
  8
レイヤ2
  6
CONTINUOUS
 62
     4
100
AcDbLine
 10
-89.00822868547
 20
31.74812339328
 11
-89.00822868547
 21
33.74777338715
  0
LINE
  5
59B
100
AcDbEntity
  8
レイヤ2
  6
CONTINUOUS
 62
     4
100
AcDbLine
 10
-87.80822868547
 20
34.44794839021
 11
-87.80822868547
 21
32.94812339328
  0
ARC
  5
59C
100
AcDbEntity
  8
レイヤ2
  6
CONTINUOUS
 62
     4
100
AcDbCircle
 10
-88.30822868547
 20
34.44794839021
 40
0.5
100
AcDbArc
 50
0
 51
90
  0
LINE
  5
59D
100
AcDbEntity
  8
レイヤ2
  6
CONTINUOUS
 62
     4
100
AcDbLine
 10
-87.80822868547
 20
47.94812339328
 11
-85.80822868547
 21
47.94812339328
  0
LINE
  5
59E
100
AcDbEntity
  8
レイヤ2
  6
CONTINUOUS
 62
     4
100
AcDbLine
 10
-84.30822868547
 20
44.69812339328
 11
-84.30822868547
 21
49.14812339328
  0
LINE
  5
59F
100
AcDbEntity
  8
レイヤ2
  6
CONTINUOUS
 62
     4
100
AcDbLine
 10
-85.80822868547
 20
44.69812339328
 11
-85.80822868547
 21
47.94812339328
  0
LINE
  5
5A0
100
AcDbEntity
  8
レイヤ2
  6
CONTINUOUS
 62
     4
100
AcDbLine
 10
-88.30822868547
 20
45.94794839021
 11
-92.30822868547
 21
45.94794839021
  0
LINE
  5
5A1
100
AcDbEntity
  8
レイヤ2
  6
CONTINUOUS
 62
     4
100
AcDbLine
 10
-87.80822868547
 20
46.44794839021
 11
-87.80822868547
 21
47.94812339328
  0
ARC
  5
5A2
100
AcDbEntity
  8
レイヤ2
  6
CONTINUOUS
 62
     4
100
AcDbCircle
 10
-88.30822868547
 20
46.44794839021
 40
0.5
100
AcDbArc
 50
-90
 51
0
  0
ARC
  5
5A3
100
AcDbEntity
  8
レイヤ2
  6
CONTINUOUS
 62
     4
100
AcDbCircle
 10
-121.3082286855
 20
2.15422014808
 40
6.8
100
AcDbArc
 50
130
 51
180
  0
ARC
  5
5A4
100
AcDbEntity
  8
レイヤ2
  6
CONTINUOUS
 62
     4
100
AcDbCircle
 10
-121.3082286855
 20
2.15422014808
 40
8
100
AcDbArc
 50
130
 51
180
  0
ARC
  5
5A5
100
AcDbEntity
  8
レイヤ2
  6
CONTINUOUS
 62
     4
100
AcDbCircle
 10
-128.7082286855
 20
-0.25187660672
 40
0.6
100
AcDbArc
 50
-90
 51
0
  0
ARC
  5
5A6
100
AcDbEntity
  8
レイヤ2
  6
CONTINUOUS
 62
     4
100
AcDbCircle
 10
-128.7082286855
 20
-0.25187660672
 40
0.6
100
AcDbArc
 50
180
 51
270
  0
LINE
  5
5A7
100
AcDbEntity
  8
レイヤ2
  6
CONTINUOUS
 62
     4
100
AcDbLine
 10
-128.1082286855
 20
-0.25187660672
 11
-128.1082286855
 21
2.15422014808
  0
LINE
  5
5A8
100
AcDbEntity
  8
レイヤ2
  6
CONTINUOUS
 62
     4
100
AcDbLine
 10
-129.3082286855
 20
-0.25187660672
 11
-129.3082286855
 21
2.15422014808
  0
LINE
  5
5A9
100
AcDbEntity
  8
レイヤ2
  6
CONTINUOUS
 62
     4
100
AcDbLine
 10
-93.50822868547
 20
37.78967884209
 11
-93.50822868547
 21
46.4982503042
  0
LINE
  5
5AA
100
AcDbEntity
  8
レイヤ2
  6
CONTINUOUS
 62
     4
100
AcDbLine
 10
-92.30822868547
 20
34.94794839021
 11
-92.30822868547
 21
45.94794839021
  0
ARC
  5
5AB
100
AcDbEntity
  8
レイヤ2
  6
CONTINUOUS
 62
     4
100
AcDbCircle
 10
-97.50822868547
 20
37.78967884209
 40
4
100
AcDbArc
 50
-50
 51
0
  0
LINE
  5
5AC
100
AcDbEntity
  8
レイヤ2
  6
CONTINUOUS
 62
     4
100
AcDbLine
 10
-87.80822868547
 20
32.94812339328
 11
-85.80822868547
 21
32.94812339328
  0
LINE
  5
5AD
100
AcDbEntity
  8
レイヤ2
  6
CONTINUOUS
 62
     4
100
AcDbLine
 10
-89.00822868547
 20
31.74812339328
 11
-84.30822868547
 21
31.74812339328
  0
ARC
  5
5AE
100
AcDbEntity
  8
レイヤ2
  6
CONTINUOUS
 62
     4
100
AcDbCircle
 10
-85.05822868547
 20
44.69812339328
 40
0.75
100
AcDbArc
 50
180
 51
360
  0
ARC
  5
5AF
100
AcDbEntity
  8
レイヤ2
  6
CONTINUOUS
 62
     4
100
AcDbCircle
 10
-85.05822868547
 20
36.19812339328
 40
0.75
100
AcDbArc
 50
0
 51
180
  0
LINE
  5
5B0
100
AcDbEntity
  8
レイヤ2
  6
CONTINUOUS
 62
     4
100
AcDbLine
 10
-88.58379978458
 20
49.14812339328
 11
-84.30822868547
 21
49.14812339328
  0
LINE
  5
5B1
100
AcDbEntity
  8
レイヤ2
  6
CONTINUOUS
 62
     4
100
AcDbLine
 10
-89.39607671668
 20
48.97574649052
 11
-92.91436715153
 21
47.41206185282
  0
ARC
  5
5B2
100
AcDbEntity
  8
レイヤ2
  6
CONTINUOUS
 62
     4
100
AcDbCircle
 10
-88.58379978458
 20
47.14812339328
 40
2
100
AcDbArc
 50
90
 51
113.9624889746
  0
ARC
  5
5B3
100
AcDbEntity
  8
レイヤ2
  6
CONTINUOUS
 62
     4
100
AcDbCircle
 10
-92.50822868547
 20
46.4982503042
 40
1
100
AcDbArc
 50
113.9624889746
 51
180
  0
LINE
  5
5B4
100
AcDbEntity
  8
レイヤ3
  6
DOT
 62
     4
100
AcDbLine
 10
-84.30822868547
 20
-0.85187660672
 11
-84.30822868547
 21
49.14812339328
  0
LINE
  5
5B5
100
AcDbEntity
  8
レイヤ3
  6
DOT
 62
     4
100
AcDbLine
 10
-88.58379978458
 20
43.94812339328
 11
-84.30822868547
 21
43.94812339328
  0
LINE
  5
5B6
100
AcDbEntity
  8
レイヤ3
  6
DOT
 62
     4
100
AcDbLine
 10
-88.58379978458
 20
36.94812339328
 11
-84.30822868547
 21
36.94812339328
  0
LINE
  5
5B7
100
AcDbEntity
  8
レイヤ2
  6
CONTINUOUS
 62
     4
100
AcDbLine
 10
-84.30822868547
 20
-34.55185160672
 11
-84.30822868547
 21
-25.97824726533
  0
LINE
  5
5B8
100
AcDbEntity
  8
レイヤ2
  6
CONTINUOUS
 62
     4
100
AcDbLine
 10
-84.30822868547
 20
-44.55184160672
 11
-84.30822868547
 21
-34.55185160672
  0
LINE
  5
5B9
100
AcDbEntity
  8
レイヤ2
  6
CONTINUOUS
 62
     4
100
AcDbLine
 10
-84.30822868547
 20
-13.80187235672
 11
-84.30822868547
 21
-24.05186210672
  0
LINE
  5
5BA
100
AcDbEntity
  8
レイヤ2
  6
CONTINUOUS
 62
     4
100
AcDbLine
 10
-87.87920953392
 20
-4.56917645532
 11
-87.87920953392
 21
-14.56917645532
  0
LINE
  5
5BB
100
AcDbEntity
  8
レイヤ2
  6
CONTINUOUS
 62
     4
100
AcDbLine
 10
-85.87920953392
 20
-14.56917645532
 11
-87.87920953392
 21
-14.56917645532
  0
LINE
  5
5BC
100
AcDbEntity
  8
レイヤ2
  6
CONTINUOUS
 62
     4
100
AcDbLine
 10
-85.87920953392
 20
-4.56917645532
 11
-85.87920953392
 21
-14.56917645532
  0
LINE
  5
5BD
100
AcDbEntity
  8
レイヤ2
  6
CONTINUOUS
 62
     4
100
AcDbLine
 10
-85.87920953392
 20
-4.56917645532
 11
-87.87920953392
 21
-4.56917645532
  0
LINE
  5
5BE
100
AcDbEntity
  8
レイヤ2
  6
CONTINUOUS
 62
     4
100
AcDbLine
 10
-84.30822868547
 20
-24.05187660672
 11
-84.30822868547
 21
-13.80187660672
  0
LINE
  5
5BF
100
AcDbEntity
  8
レイヤ2
  6
CONTINUOUS
 62
     4
100
AcDbLine
 10
-84.30822868547
 20
-5.30187660672
 11
-84.30822868547
 21
-11.96482116236
  0
LINE
  5
5C0
100
AcDbEntity
  8
レイヤ2
  6
CONTINUOUS
 62
     4
100
AcDbLine
 10
-94.93707824673
 20
-15.27449893039
 11
-126.450529563
 21
-41.71742430696
  0
LINE
  5
5C1
100
AcDbEntity
  8
レイヤ2
  6
CONTINUOUS
 62
     4
100
AcDbLine
 10
-125.6791844313
 20
-42.63667763871
 11
-94.23542013266
 21
-16.25222661286
  0
LINE
  5
5C2
100
AcDbEntity
  8
レイヤ2
  6
CONTINUOUS
 62
     4
100
AcDbLine
 10
-84.30822868547
 20
-13.80187660672
 11
-84.30822868547
 21
-18.25187660672
  0
LINE
  5
5C3
100
AcDbEntity
  8
レイヤ2
  6
CONTINUOUS
 62
     4
100
AcDbLine
 10
-85.80822868547
 20
-13.80187660672
 11
-85.80822868547
 21
-17.05187660672
  0
LINE
  5
5C4
100
AcDbEntity
  8
レイヤ2
  6
CONTINUOUS
 62
     4
100
AcDbLine
 10
-88.30822868547
 20
-15.05205160979
 11
-92.30822868547
 21
-15.05205160979
  0
LINE
  5
5C5
100
AcDbEntity
  8
レイヤ2
  6
CONTINUOUS
 62
     4
100
AcDbLine
 10
-89.00822868547
 20
-16.25222661286
 11
-94.23542013266
 21
-16.25222661286
  0
LINE
  5
5C6
100
AcDbEntity
  8
レイヤ2
  6
CONTINUOUS
 62
     4
100
AcDbLine
 10
-89.00822868547
 20
-18.25187660672
 11
-89.00822868547
 21
-16.25222661286
  0
LINE
  5
5C7
100
AcDbEntity
  8
レイヤ2
  6
CONTINUOUS
 62
     4
100
AcDbLine
 10
-87.80822868547
 20
-15.55205160979
 11
-87.80822868547
 21
-17.05187660672
  0
ARC
  5
5C8
100
AcDbEntity
  8
レイヤ2
  6
CONTINUOUS
 62
     4
100
AcDbCircle
 10
-88.30822868547
 20
-15.55205160979
 40
0.5
100
AcDbArc
 50
0
 51
90
  0
LINE
  5
5C9
100
AcDbEntity
  8
レイヤ2
  6
CONTINUOUS
 62
     4
100
AcDbLine
 10
-87.80822868547
 20
-2.05187660672
 11
-85.80822868547
 21
-2.05187660672
  0
LINE
  5
5CA
100
AcDbEntity
  8
レイヤ2
  6
CONTINUOUS
 62
     4
100
AcDbLine
 10
-84.30822868547
 20
-5.30187660672
 11
-84.30822868547
 21
-0.85187660672
  0
LINE
  5
5CB
100
AcDbEntity
  8
レイヤ2
  6
CONTINUOUS
 62
     4
100
AcDbLine
 10
-85.80822868547
 20
-5.30187660672
 11
-85.80822868547
 21
-2.05187660672
  0
LINE
  5
5CC
100
AcDbEntity
  8
レイヤ2
  6
CONTINUOUS
 62
     4
100
AcDbLine
 10
-88.30822868547
 20
-4.05205160979
 11
-92.30822868547
 21
-4.05205160979
  0
LINE
  5
5CD
100
AcDbEntity
  8
レイヤ2
  6
CONTINUOUS
 62
     4
100
AcDbLine
 10
-87.80822868547
 20
-3.55205160979
 11
-87.80822868547
 21
-2.05187660672
  0
ARC
  5
5CE
100
AcDbEntity
  8
レイヤ2
  6
CONTINUOUS
 62
     4
100
AcDbCircle
 10
-88.30822868547
 20
-3.55205160979
 40
0.5
100
AcDbArc
 50
-90
 51
0
  0
ARC
  5
5CF
100
AcDbEntity
  8
レイヤ2
  6
CONTINUOUS
 62
     4
100
AcDbCircle
 10
-121.3082286855
 20
-47.84577985192
 40
6.8
100
AcDbArc
 50
130
 51
180
  0
ARC
  5
5D0
100
AcDbEntity
  8
レイヤ2
  6
CONTINUOUS
 62
     4
100
AcDbCircle
 10
-121.3082286855
 20
-47.84577985192
 40
8
100
AcDbArc
 50
130
 51
180
  0
ARC
  5
5D1
100
AcDbEntity
  8
レイヤ2
  6
CONTINUOUS
 62
     4
100
AcDbCircle
 10
-128.7082286855
 20
-50.25187660672
 40
0.6
100
AcDbArc
 50
-90
 51
0
  0
ARC
  5
5D2
100
AcDbEntity
  8
レイヤ2
  6
CONTINUOUS
 62
     4
100
AcDbCircle
 10
-128.7082286855
 20
-50.25187660672
 40
0.6
100
AcDbArc
 50
180
 51
270
  0
LINE
  5
5D3
100
AcDbEntity
  8
レイヤ2
  6
CONTINUOUS
 62
     4
100
AcDbLine
 10
-128.1082286855
 20
-50.25187660672
 11
-128.1082286855
 21
-47.84577985192
  0
LINE
  5
5D4
100
AcDbEntity
  8
レイヤ2
  6
CONTINUOUS
 62
     4
100
AcDbLine
 10
-129.3082286855
 20
-50.25187660672
 11
-129.3082286855
 21
-47.84577985192
  0
LINE
  5
5D5
100
AcDbEntity
  8
レイヤ2
  6
CONTINUOUS
 62
     4
100
AcDbLine
 10
-93.50822868547
 20
-12.21032115791
 11
-93.50822868547
 21
-3.5017496958
  0
LINE
  5
5D6
100
AcDbEntity
  8
レイヤ2
  6
CONTINUOUS
 62
     4
100
AcDbLine
 10
-92.30822868547
 20
-15.05205160979
 11
-92.30822868547
 21
-4.05205160979
  0
ARC
  5
5D7
100
AcDbEntity
  8
レイヤ2
  6
CONTINUOUS
 62
     4
100
AcDbCircle
 10
-97.50822868547
 20
-12.21032115791
 40
4
100
AcDbArc
 50
-50
 51
0
  0
LINE
  5
5D8
100
AcDbEntity
  8
レイヤ2
  6
CONTINUOUS
 62
     4
100
AcDbLine
 10
-87.80822868547
 20
-17.05187660672
 11
-85.80822868547
 21
-17.05187660672
  0
LINE
  5
5D9
100
AcDbEntity
  8
レイヤ2
  6
CONTINUOUS
 62
     4
100
AcDbLine
 10
-89.00822868547
 20
-18.25187660672
 11
-84.30822868547
 21
-18.25187660672
  0
ARC
  5
5DA
100
AcDbEntity
  8
レイヤ2
  6
CONTINUOUS
 62
     4
100
AcDbCircle
 10
-85.05822868547
 20
-5.30187660672
 40
0.75
100
AcDbArc
 50
180
 51
360
  0
ARC
  5
5DB
100
AcDbEntity
  8
レイヤ2
  6
CONTINUOUS
 62
     4
100
AcDbCircle
 10
-85.05822868547
 20
-13.80187660672
 40
0.75
100
AcDbArc
 50
0
 51
180
  0
LINE
  5
5DC
100
AcDbEntity
  8
レイヤ2
  6
CONTINUOUS
 62
     4
100
AcDbLine
 10
-88.58379978458
 20
-0.85187660672
 11
-84.30822868547
 21
-0.85187660672
  0
LINE
  5
5DD
100
AcDbEntity
  8
レイヤ2
  6
CONTINUOUS
 62
     4
100
AcDbLine
 10
-89.39607671668
 20
-1.02425350948
 11
-92.91436715153
 21
-2.58793814718
  0
ARC
  5
5DE
100
AcDbEntity
  8
レイヤ2
  6
CONTINUOUS
 62
     4
100
AcDbCircle
 10
-88.58379978458
 20
-2.85187660672
 40
2
100
AcDbArc
 50
90
 51
113.9624889746
  0
ARC
  5
5DF
100
AcDbEntity
  8
レイヤ2
  6
CONTINUOUS
 62
     4
100
AcDbCircle
 10
-92.50822868547
 20
-3.5017496958
 40
1
100
AcDbArc
 50
113.9624889746
 51
180
  0
LINE
  5
5E0
100
AcDbEntity
  8
レイヤ3
  6
DOT
 62
     4
100
AcDbLine
 10
-84.30822868547
 20
-50.85187660672
 11
-84.30822868547
 21
-0.85187660672
  0
LINE
  5
5E1
100
AcDbEntity
  8
レイヤ3
  6
DOT
 62
     4
100
AcDbLine
 10
-88.58379978458
 20
-6.05187660672
 11
-84.30822868547
 21
-6.05187660672
  0
LINE
  5
5E2
100
AcDbEntity
  8
レイヤ3
  6
DOT
 62
     4
100
AcDbLine
 10
-88.58379978458
 20
-13.05187660672
 11
-84.30822868547
 21
-13.05187660672
  0
LINE
  5
5E3
100
AcDbEntity
  8
レイヤ5
  6
CONTINUOUS
 62
     4
100
AcDbLine
 10
-84.30822868547
 20
330.3417369282
 11
-129.3082286855
 21
330.3417369282
  0
CIRCLE
  5
5E4
100
AcDbEntity
  8
レイヤ5
  6
CONTINUOUS
 62
     4
100
AcDbCircle
 10
-84.30822868547
 20
330.3417369282
 40
0.7
  0
CIRCLE
  5
5E5
100
AcDbEntity
  8
レイヤ5
  6
CONTINUOUS
 62
     4
100
AcDbCircle
 10
-129.3082286855
 20
330.3417369282
 40
0.7
  0
LINE
  5
5E6
100
AcDbEntity
  8
レイヤ5
  6
CONTINUOUS
 62
     4
100
AcDbLine
 10
-84.30822868547
 20
330.3417369282
 11
-84.30822868547
 21
301.2821906144
  0
LINE
  5
5E7
100
AcDbEntity
  8
レイヤ5
  6
CONTINUOUS
 62
     4
100
AcDbLine
 10
-129.3082286855
 20
330.3417369282
 11
-129.3082286855
 21
267.3793865816
  0
LINE
  5
5E8
100
AcDbEntity
  8
レイヤ5
  6
DOT
 62
     4
100
AcDbLine
 10
-129.3082286855
 20
299.1481233932
 11
-129.3082286855
 21
249.1481233933
  0
TEXT
  5
5E9
100
AcDbEntity
  8
レイヤ5
  6
CONTINUOUS
 62
     4
100
AcDbText
 10
-110.8082286855
 20
330.3417369282
 40
10
  1
45
 41
0.8
  7
STANDARD
100
AcDbText
  0
LINE
  5
5EA
100
AcDbEntity
  8
レイヤ2
  6
CONTINUOUS
 62
     4
100
AcDbLine
 10
-80.30822968547
 20
-36.90118398131
 11
-80.30822968547
 21
340.4481223933
  0
LINE
  5
5EB
100
AcDbEntity
  8
レイヤ2
  6
CONTINUOUS
 62
     3
100
AcDbLine
 10
-43.00823068547
 20
282.7372363932
 11
-42.35862868547
 21
283.3868383933
  0
LINE
  5
5EC
100
AcDbEntity
  8
レイヤ2
  6
CONTINUOUS
 62
     3
100
AcDbLine
 10
-42.35862868547
 20
283.3868383933
 11
-35.30822968547
 21
283.3868383933
  0
LINE
  5
5ED
100
AcDbEntity
  8
レイヤ2
  6
CONTINUOUS
 62
     3
100
AcDbLine
 10
-43.00823068547
 20
276.0364363933
 11
-42.35862868547
 21
275.3868373933
  0
LINE
  5
5EE
100
AcDbEntity
  8
レイヤ2
  6
CONTINUOUS
 62
     3
100
AcDbLine
 10
-42.35862868547
 20
275.3868373933
 11
-35.30822968547
 21
275.3868373933
  0
LINE
  5
5EF
100
AcDbEntity
  8
レイヤ2
  6
CONTINUOUS
 62
     3
100
AcDbLine
 10
-43.00823068547
 20
276.0364363933
 11
-43.00823068547
 21
282.7372363932
  0
LINE
  5
5F0
100
AcDbEntity
  8
レイヤ2
  6
CONTINUOUS
 62
     4
100
AcDbLine
 10
-7.23347876164
 20
456.0667937466
 11
-38.74693007788
 21
429.62386837
  0
LINE
  5
5F1
100
AcDbEntity
  8
レイヤ2
  6
CONTINUOUS
 62
     4
100
AcDbLine
 10
-37.97558494626
 20
428.7046150383
 11
-6.53182064757
 21
455.0890660641
  0
LINE
  5
5F2
100
AcDbEntity
  8
レイヤ2
  6
CONTINUOUS
 62
     4
100
AcDbLine
 10
3.39537079961
 20
457.5394160703
 11
3.39537079961
 21
453.0894160702
  0
LINE
  5
5F3
100
AcDbEntity
  8
レイヤ2
  6
CONTINUOUS
 62
     4
100
AcDbLine
 10
1.89537079961
 20
457.5394160703
 11
1.89537079961
 21
454.2894160703
  0
LINE
  5
5F4
100
AcDbEntity
  8
レイヤ2
  6
CONTINUOUS
 62
     4
100
AcDbLine
 10
-0.60462920039
 20
456.2892410671
 11
-4.60462920039
 21
456.2892410671
  0
LINE
  5
5F5
100
AcDbEntity
  8
レイヤ2
  6
CONTINUOUS
 62
     4
100
AcDbLine
 10
-1.30462920039
 20
455.0890660641
 11
-6.53182064757
 21
455.0890660641
  0
LINE
  5
5F6
100
AcDbEntity
  8
レイヤ2
  6
CONTINUOUS
 62
     4
100
AcDbLine
 10
-1.30462920039
 20
453.0894160702
 11
-1.30462920039
 21
455.0890660641
  0
LINE
  5
5F7
100
AcDbEntity
  8
レイヤ2
  6
CONTINUOUS
 62
     4
100
AcDbLine
 10
-0.10462920039
 20
455.7892410671
 11
-0.10462920039
 21
454.2894160703
  0
ARC
  5
5F8
100
AcDbEntity
  8
レイヤ2
  6
CONTINUOUS
 62
     4
100
AcDbCircle
 10
-0.60462920039
 20
455.7892410671
 40
0.5
100
AcDbArc
 50
0
 51
90
  0
LINE
  5
5F9
100
AcDbEntity
  8
レイヤ2
  6
CONTINUOUS
 62
     4
100
AcDbLine
 10
-0.10462920039
 20
469.2894160703
 11
1.89537079961
 21
469.2894160703
  0
LINE
  5
5FA
100
AcDbEntity
  8
レイヤ2
  6
CONTINUOUS
 62
     4
100
AcDbLine
 10
3.39537079961
 20
466.0394160703
 11
3.39537079961
 21
470.4894160703
  0
LINE
  5
5FB
100
AcDbEntity
  8
レイヤ2
  6
CONTINUOUS
 62
     4
100
AcDbLine
 10
1.89537079961
 20
466.0394160703
 11
1.89537079961
 21
469.2894160703
  0
LINE
  5
5FC
100
AcDbEntity
  8
レイヤ2
  6
CONTINUOUS
 62
     4
100
AcDbLine
 10
-0.60462920039
 20
467.2892410671
 11
-4.60462920039
 21
467.2892410671
  0
LINE
  5
5FD
100
AcDbEntity
  8
レイヤ2
  6
CONTINUOUS
 62
     4
100
AcDbLine
 10
-0.10462920039
 20
467.7892410671
 11
-0.10462920039
 21
469.2894160703
  0
ARC
  5
5FE
100
AcDbEntity
  8
レイヤ2
  6
CONTINUOUS
 62
     4
100
AcDbCircle
 10
-0.60462920039
 20
467.7892410671
 40
0.5
100
AcDbArc
 50
-90
 51
0
  0
ARC
  5
5FF
100
AcDbEntity
  8
レイヤ2
  6
CONTINUOUS
 62
     4
100
AcDbCircle
 10
-33.60462920039
 20
423.4955128251
 40
6.8
100
AcDbArc
 50
130
 51
180
  0
ARC
  5
600
100
AcDbEntity
  8
レイヤ2
  6
CONTINUOUS
 62
     4
100
AcDbCircle
 10
-33.60462920039
 20
423.4955128251
 40
8
100
AcDbArc
 50
130
 51
180
  0
ARC
  5
601
100
AcDbEntity
  8
レイヤ2
  6
CONTINUOUS
 62
     4
100
AcDbCircle
 10
-41.00462920039
 20
421.0894160702
 40
0.6
100
AcDbArc
 50
-90
 51
0
  0
ARC
  5
602
100
AcDbEntity
  8
レイヤ2
  6
CONTINUOUS
 62
     4
100
AcDbCircle
 10
-41.00462920039
 20
421.0894160702
 40
0.6
100
AcDbArc
 50
180
 51
270
  0
LINE
  5
603
100
AcDbEntity
  8
レイヤ2
  6
CONTINUOUS
 62
     4
100
AcDbLine
 10
-40.40462920039
 20
421.0894160702
 11
-40.40462920039
 21
423.4955128251
  0
LINE
  5
604
100
AcDbEntity
  8
レイヤ2
  6
CONTINUOUS
 62
     4
100
AcDbLine
 10
-41.60462920039
 20
421.0894160702
 11
-41.60462920039
 21
423.4955128251
  0
LINE
  5
605
100
AcDbEntity
  8
レイヤ2
  6
CONTINUOUS
 62
     4
100
AcDbLine
 10
-5.80462920039
 20
459.1309715191
 11
-5.80462920039
 21
467.8395429811
  0
LINE
  5
606
100
AcDbEntity
  8
レイヤ2
  6
CONTINUOUS
 62
     4
100
AcDbLine
 10
-4.60462920039
 20
456.2892410671
 11
-4.60462920039
 21
467.2892410671
  0
ARC
  5
607
100
AcDbEntity
  8
レイヤ2
  6
CONTINUOUS
 62
     4
100
AcDbCircle
 10
-9.80462920039
 20
459.1309715191
 40
4
100
AcDbArc
 50
-50
 51
0
  0
LINE
  5
608
100
AcDbEntity
  8
レイヤ2
  6
CONTINUOUS
 62
     4
100
AcDbLine
 10
-0.10462920039
 20
454.2894160703
 11
1.89537079961
 21
454.2894160703
  0
LINE
  5
609
100
AcDbEntity
  8
レイヤ2
  6
CONTINUOUS
 62
     4
100
AcDbLine
 10
-1.30462920039
 20
453.0894160702
 11
3.39537079961
 21
453.0894160702
  0
ARC
  5
60A
100
AcDbEntity
  8
レイヤ2
  6
CONTINUOUS
 62
     4
100
AcDbCircle
 10
2.64537079961
 20
466.0394160703
 40
0.75
100
AcDbArc
 50
180
 51
360
  0
ARC
  5
60B
100
AcDbEntity
  8
レイヤ2
  6
CONTINUOUS
 62
     4
100
AcDbCircle
 10
2.64537079961
 20
457.5394160703
 40
0.75
100
AcDbArc
 50
0
 51
180
  0
LINE
  5
60C
100
AcDbEntity
  8
レイヤ2
  6
CONTINUOUS
 62
     4
100
AcDbLine
 10
-0.88020029949
 20
470.4894160703
 11
3.39537079961
 21
470.4894160703
  0
LINE
  5
60D
100
AcDbEntity
  8
レイヤ2
  6
CONTINUOUS
 62
     4
100
AcDbLine
 10
-1.6924772316
 20
470.3170391675
 11
-5.21076766644
 21
468.7533545298
  0
ARC
  5
60E
100
AcDbEntity
  8
レイヤ2
  6
CONTINUOUS
 62
     4
100
AcDbCircle
 10
-0.88020029949
 20
468.4894160703
 40
2
100
AcDbArc
 50
90
 51
113.9624889746
  0
ARC
  5
60F
100
AcDbEntity
  8
レイヤ2
  6
CONTINUOUS
 62
     4
100
AcDbCircle
 10
-4.80462920039
 20
467.8395429811
 40
1
100
AcDbArc
 50
113.9624889746
 51
180
  0
LINE
  5
610
100
AcDbEntity
  8
レイヤ3
  6
DOT
 62
     4
100
AcDbLine
 10
3.39537079961
 20
470.4894160703
 11
-41.60462920039
 21
470.4894160703
  0
CIRCLE
  5
611
100
AcDbEntity
  8
レイヤ16
  6
CONTINUOUS
 62
     0
100
AcDbCircle
 10
607.1350222918
 20
282.896878879
 40
0.7
  0
LINE
  5
612
100
AcDbEntity
  8
レイヤ16
  6
CONTINUOUS
 62
     0
100
AcDbLine
 10
607.1350222918
 20
282.896878879
 11
579.8741527266
 21
282.896878879
  0
CIRCLE
  5
613
100
AcDbEntity
  8
レイヤ16
  6
CONTINUOUS
 62
     0
100
AcDbCircle
 10
607.1350222918
 20
327.896878879
 40
0.7
  0
LINE
  5
614
100
AcDbEntity
  8
レイヤ16
  6
CONTINUOUS
 62
     0
100
AcDbLine
 10
607.1350222918
 20
327.896878879
 11
579.8741527266
 21
327.896878879
  0
LINE
  5
615
100
AcDbEntity
  8
レイヤ16
  6
CONTINUOUS
 62
     0
100
AcDbLine
 10
607.1350222918
 20
327.896878879
 11
607.1350222918
 21
282.896878879
  0
TEXT
  5
616
100
AcDbEntity
  8
レイヤ16
  6
CONTINUOUS
 62
     0
100
AcDbText
 10
604.6350222918
 20
300.396878879
 40
10
  1
45
 41
0.8
 50
90
  7
STANDARD
100
AcDbText
  0
LINE
  5
617
100
AcDbEntity
  8
レイヤ16
  6
CONTINUOUS
 62
     0
100
AcDbLine
 10
601.3554074333
 20
370.7252968789
 11
529.3993893513
 21
370.7252968789
  0
LINE
  5
618
100
AcDbEntity
  8
レイヤ16
  6
CONTINUOUS
 62
     0
100
AcDbLine
 10
601.3554074333
 20
370.7252968789
 11
592.3554074333
 21
372.2252968789
  0
LINE
  5
619
100
AcDbEntity
  8
レイヤ16
  6
CONTINUOUS
 62
     0
100
AcDbLine
 10
142.4999033513
 20
-125.667694121
 11
142.4999033513
 21
-14.17419112109
  0
LINE
  5
61A
100
AcDbEntity
  8
レイヤ16
  6
CONTINUOUS
 62
     0
100
AcDbLine
 10
142.4999033513
 20
-125.667694121
 11
140.9999033513
 21
-116.667694121
  0
LINE
  5
61B
100
AcDbEntity
  8
レイヤ16
  6
CONTINUOUS
 62
     0
100
AcDbLine
 10
142.4999033513
 20
-125.667694121
 11
143.9999033513
 21
-116.667694121
  0
LINE
  5
61C
100
AcDbEntity
  8
レイヤ16
  6
CONTINUOUS
 62
     0
100
AcDbLine
 10
176.4551213513
 20
135.825808879
 11
139.4999033513
 21
135.825808879
  0
LINE
  5
61D
100
AcDbEntity
  8
レイヤ16
  6
CONTINUOUS
 62
     0
100
AcDbLine
 10
142.4999033513
 20
135.825808879
 11
140.9999033513
 21
141.825808879
  0
LINE
  5
61E
100
AcDbEntity
  8
レイヤ16
  6
CONTINUOUS
 62
     0
100
AcDbLine
 10
142.4999033513
 20
135.825808879
 11
143.9999033513
 21
141.825808879
  0
LINE
  5
61F
100
AcDbEntity
  8
レイヤ16
  6
CONTINUOUS
 62
     0
100
AcDbLine
 10
142.4999033513
 20
-14.17419112109
 11
142.4999033513
 21
135.825808879
  0
LINE
  5
620
100
AcDbEntity
  8
レイヤ16
  6
CONTINUOUS
 62
     0
100
AcDbLine
 10
176.4551213513
 20
-14.17419112109
 11
139.4999033513
 21
-14.17419112109
  0
LINE
  5
621
100
AcDbEntity
  8
レイヤ16
  6
CONTINUOUS
 62
     0
100
AcDbLine
 10
142.4999033513
 20
-14.17419112109
 11
140.9999033513
 21
-5.17419112109
  0
LINE
  5
622
100
AcDbEntity
  8
レイヤ16
  6
CONTINUOUS
 62
     0
100
AcDbLine
 10
142.4999033513
 20
-14.17419112109
 11
143.9999033513
 21
-5.17419112109
  0
LINE
  5
623
100
AcDbEntity
  8
レイヤ16
  6
CONTINUOUS
 62
     0
100
AcDbLine
 10
142.4999033513
 20
135.825808879
 11
143.9999033513
 21
126.8258088789
  0
LINE
  5
624
100
AcDbEntity
  8
レイヤ16
  6
CONTINUOUS
 62
     0
100
AcDbLine
 10
142.4999033513
 20
135.825808879
 11
140.9999033513
 21
126.8258088789
  0
LINE
  5
625
100
AcDbEntity
  8
レイヤ16
  6
CONTINUOUS
 62
     0
100
AcDbLine
 10
379.3993893513
 20
342.1225438789
 11
379.3993893513
 21
373.7252968789
  0
LINE
  5
626
100
AcDbEntity
  8
レイヤ16
  6
CONTINUOUS
 62
     0
100
AcDbLine
 10
379.3993893513
 20
370.7252968789
 11
373.3993893513
 21
369.2252968789
  0
LINE
  5
627
100
AcDbEntity
  8
レイヤ16
  6
CONTINUOUS
 62
     0
100
AcDbLine
 10
379.3993893513
 20
370.7252968789
 11
373.3993893513
 21
372.2252968789
  0
LINE
  5
628
100
AcDbEntity
  8
レイヤ16
  6
CONTINUOUS
 62
     0
100
AcDbLine
 10
379.3993893513
 20
370.7252968789
 11
529.3993893513
 21
370.7252968789
  0
LINE
  5
629
100
AcDbEntity
  8
レイヤ16
  6
CONTINUOUS
 62
     0
100
AcDbLine
 10
529.3993893513
 20
342.1225438789
 11
529.3993893513
 21
373.7252968789
  0
LINE
  5
62A
100
AcDbEntity
  8
レイヤ16
  6
CONTINUOUS
 62
     0
100
AcDbLine
 10
379.3993893513
 20
370.7252968789
 11
388.3993893513
 21
372.2252968789
  0
LINE
  5
62B
100
AcDbEntity
  8
レイヤ16
  6
CONTINUOUS
 62
     0
100
AcDbLine
 10
379.3993893513
 20
370.7252968789
 11
388.3993893513
 21
369.2252968789
  0
LINE
  5
62C
100
AcDbEntity
  8
レイヤ16
  6
CONTINUOUS
 62
     0
100
AcDbLine
 10
529.3993893513
 20
370.7252968789
 11
520.3993893513
 21
369.2252968789
  0
LINE
  5
62D
100
AcDbEntity
  8
レイヤ16
  6
CONTINUOUS
 62
     0
100
AcDbLine
 10
529.3993893513
 20
370.7252968789
 11
520.3993893513
 21
372.2252968789
  0
LINE
  5
62E
100
AcDbEntity
  8
レイヤ16
  6
CONTINUOUS
 62
     0
100
AcDbLine
 10
601.3554074333
 20
370.7252968789
 11
592.3554074333
 21
369.2252968789
  0
LINE
  5
62F
100
AcDbEntity
  8
レイヤ16
  6
CONTINUOUS
 62
     0
100
AcDbLine
 10
186.5709693513
 20
370.7252968789
 11
379.3993893513
 21
370.7252968789
  0
LINE
  5
630
100
AcDbEntity
  8
レイヤ16
  6
CONTINUOUS
 62
     0
100
AcDbLine
 10
186.5709693513
 20
342.1225438789
 11
186.5709693513
 21
372.7252978789
  0
LINE
  5
631
100
AcDbEntity
  8
レイヤ16
  6
CONTINUOUS
 62
     0
100
AcDbLine
 10
186.5709693513
 20
370.7252968789
 11
192.5709693513
 21
372.2252968789
  0
LINE
  5
632
100
AcDbEntity
  8
レイヤ16
  6
CONTINUOUS
 62
     0
100
AcDbLine
 10
186.5709693513
 20
370.7252968789
 11
192.5709693513
 21
369.2252968789
  0
LINE
  5
633
100
AcDbEntity
  8
レイヤ16
  6
CONTINUOUS
 62
     0
100
AcDbLine
 10
142.4999033513
 20
328.0121203954
 11
142.4999033513
 21
135.825808879
  0
LINE
  5
634
100
AcDbEntity
  8
レイヤ16
  6
CONTINUOUS
 62
     0
100
AcDbLine
 10
142.4999033513
 20
328.0121203954
 11
143.9999033513
 21
324.7694713954
  0
LINE
  5
635
100
AcDbEntity
  8
レイヤ16
  6
CONTINUOUS
 62
     0
100
AcDbLine
 10
142.4999033513
 20
328.0121203954
 11
140.9999033513
 21
324.7694713954
  0
LINE
  5
636
100
AcDbEntity
  8
レイヤ16
  6
CONTINUOUS
 62
     0
100
AcDbLine
 10
179.9941488522
 20
327.896878879
 11
139.9779238657
 21
327.896878879
  0
LINE
  5
637
100
AcDbEntity
  8
レイヤ16
  6
CONTINUOUS
 62
     0
100
AcDbLine
 10
170.5120101111
 20
348.2487250251
 11
166.9764762052
 21
344.7131911192
  0
CIRCLE
  5
638
100
AcDbEntity
  8
レイヤ16
  6
CONTINUOUS
 62
     0
100
AcDbCircle
 10
170.5120101111
 20
348.2487250251
 40
0.7
  0
CIRCLE
  5
639
100
AcDbEntity
  8
レイヤ16
  6
CONTINUOUS
 62
     0
100
AcDbCircle
 10
166.9764762052
 20
344.7131911192
 40
0.7
  0
LINE
  5
63A
100
AcDbEntity
  8
レイヤ16
  6
CONTINUOUS
 62
     0
100
AcDbLine
 10
170.5120101111
 20
348.2487250251
 11
188.0895561559
 21
330.6711789803
  0
LINE
  5
63B
100
AcDbEntity
  8
レイヤ16
  6
CONTINUOUS
 62
     0
100
AcDbLine
 10
166.9764762052
 20
344.7131911192
 11
184.55402225
 21
327.1356450742
  0
TEXT
  5
63C
100
AcDbEntity
  8
レイヤ16
  6
CONTINUOUS
 62
     0
100
AcDbText
 10
262.9851793513
 20
370.7252968789
 40
10
  1
３５０以内
 41
0.8
  7
STANDARD
100
AcDbText
  0
TEXT
  5
63D
100
AcDbEntity
  8
レイヤ16
  6
CONTINUOUS
 62
     0
100
AcDbText
 10
432.3993893513
 20
370.7252968789
 40
10
  1
ｽﾄﾘﾝｶﾞｰﾋﾟｯﾁ
 41
0.8
  7
STANDARD
100
AcDbText
  0
TEXT
  5
63E
100
AcDbEntity
  8
レイヤ16
  6
CONTINUOUS
 62
     0
100
AcDbText
 10
543.3773983923
 20
370.7252968789
 40
10
  1
ｽﾄﾘﾝｶﾞｰﾋﾟｯﾁ
 41
0.8
  7
STANDARD
100
AcDbText
  0
TEXT
  5
63F
100
AcDbEntity
  8
レイヤ16
  6
CONTINUOUS
 62
     0
100
AcDbText
 10
142.4999043985
 20
211.9189646372
 40
10
  1
３５０以内
 41
0.8
 50
90.000003
  7
STANDARD
100
AcDbText
  0
TEXT
  5
640
100
AcDbEntity
  8
レイヤ16
  6
CONTINUOUS
 62
     0
100
AcDbText
 10
142.4999033513
 20
38.82580887893
 40
10
  1
ｽﾄﾘﾝｶﾞｰﾋﾟｯﾁ
 41
0.8
 50
90
  7
STANDARD
100
AcDbText
  0
TEXT
  5
641
100
AcDbEntity
  8
レイヤ16
  6
CONTINUOUS
 62
     0
100
AcDbText
 10
142.4999033513
 20
-91.92094262107
 40
10
  1
ｽﾄﾘﾝｶﾞｰﾋﾟｯﾁ
 41
0.8
 50
90
  7
STANDARD
100
AcDbText
  0
TEXT
  5
642
100
AcDbEntity
  8
レイヤ16
  6
CONTINUOUS
 62
     0
100
AcDbText
 10
165.9158160334
 20
343.6525309474
 40
10
  1
10
 41
0.8
 50
45
  7
STANDARD
100
AcDbText
  0
LINE
  5
643
100
AcDbEntity
  8
レイヤ16
  6
CONTINUOUS
 62
     0
100
AcDbLine
 10
232.3283223513
 20
-110.7135251211
 11
226.3283223513
 21
-112.2135251211
  0
LINE
  5
644
100
AcDbEntity
  8
レイヤ16
  6
CONTINUOUS
 62
     0
100
AcDbLine
 10
232.3283223513
 20
-110.7135251211
 11
226.3283223513
 21
-109.2135251211
  0
LINE
  5
645
100
AcDbEntity
  8
レイヤ16
  6
CONTINUOUS
 62
     0
100
AcDbLine
 10
292.3283223513
 20
-110.7135251211
 11
392.3283213513
 21
-110.7135251211
  0
LINE
  5
646
100
AcDbEntity
  8
レイヤ16
  6
CONTINUOUS
 62
     0
100
AcDbLine
 10
292.3283223513
 20
-110.7135251211
 11
298.3283223513
 21
-109.2135251211
  0
LINE
  5
647
100
AcDbEntity
  8
レイヤ16
  6
CONTINUOUS
 62
     0
100
AcDbLine
 10
292.3283223513
 20
-110.7135251211
 11
298.3283223513
 21
-112.2135251211
  0
LINE
  5
648
100
AcDbEntity
  8
レイヤ16
  6
CONTINUOUS
 62
     0
100
AcDbLine
 10
392.3283213513
 20
-110.7135251211
 11
386.3283213513
 21
-112.2135251211
  0
LINE
  5
649
100
AcDbEntity
  8
レイヤ16
  6
CONTINUOUS
 62
     0
100
AcDbLine
 10
392.3283213513
 20
-110.7135251211
 11
386.3283213513
 21
-109.2135251211
  0
LINE
  5
64A
100
AcDbEntity
  8
レイヤ16
  6
CONTINUOUS
 62
     0
100
AcDbLine
 10
232.3283223513
 20
-110.7135251211
 11
292.3283223513
 21
-110.7135251211
  0
LINE
  5
64B
100
AcDbEntity
  8
レイヤ16
  6
CONTINUOUS
 62
     0
100
AcDbLine
 10
232.3283223513
 20
-110.7135251211
 11
238.3283223513
 21
-112.2135251211
  0
LINE
  5
64C
100
AcDbEntity
  8
レイヤ16
  6
CONTINUOUS
 62
     0
100
AcDbLine
 10
232.3283223513
 20
-110.7135251211
 11
238.3283223513
 21
-109.2135251211
  0
LINE
  5
64D
100
AcDbEntity
  8
レイヤ16
  6
CONTINUOUS
 62
     0
100
AcDbLine
 10
282.3283233513
 20
-110.7135251211
 11
276.3283233513
 21
-112.2135251211
  0
LINE
  5
64E
100
AcDbEntity
  8
レイヤ16
  6
CONTINUOUS
 62
     0
100
AcDbLine
 10
282.3283233513
 20
-110.7135251211
 11
276.3283233513
 21
-109.2135251211
  0
LINE
  5
64F
100
AcDbEntity
  8
レイヤ16
  6
CONTINUOUS
 62
     0
100
AcDbLine
 10
282.3283233513
 20
-110.7135251211
 11
288.3283233513
 21
-112.2135251211
  0
LINE
  5
650
100
AcDbEntity
  8
レイヤ16
  6
CONTINUOUS
 62
     0
100
AcDbLine
 10
282.3283233513
 20
-110.7135251211
 11
288.3283233513
 21
-109.2135251211
  0
LINE
  5
651
100
AcDbEntity
  8
レイヤ16
  6
CONTINUOUS
 62
     0
100
AcDbLine
 10
187.3283223513
 20
-110.7135251211
 11
232.3283223513
 21
-110.7135251211
  0
LINE
  5
652
100
AcDbEntity
  8
レイヤ16
  6
CONTINUOUS
 62
     0
100
AcDbLine
 10
187.3283223513
 20
-110.7135251211
 11
193.3283223513
 21
-109.2135251211
  0
LINE
  5
653
100
AcDbEntity
  8
レイヤ16
  6
CONTINUOUS
 62
     0
100
AcDbLine
 10
187.3283223513
 20
-110.7135251211
 11
193.3283223513
 21
-112.2135251211
  0
TEXT
  5
654
100
AcDbEntity
  8
レイヤ16
  6
CONTINUOUS
 62
     0
100
AcDbText
 10
202.5440295401
 20
-110.7939503462
 40
10
  1
45
 41
0.8
  7
STANDARD
100
AcDbText
  0
TEXT
  5
655
100
AcDbEntity
  8
レイヤ16
  6
CONTINUOUS
 62
     0
100
AcDbText
 10
249.3706414538
 20
-110.4393413188
 40
10
  1
50
 41
0.8
  7
STANDARD
100
AcDbText
  0
TEXT
  5
656
100
AcDbEntity
  8
レイヤ16
  6
CONTINUOUS
 62
     0
100
AcDbText
 10
330.7939142012
 20
-110.4393413188
 40
10
  1
100
 41
0.8
  7
STANDARD
100
AcDbText
  0
TEXT
  5
657
100
AcDbEntity
  8
レイヤ16
  6
CONTINUOUS
 62
     0
100
AcDbText
 10
279.1003822895
 20
-125.7608858762
 40
10
  1
11.5
 41
0.8
  7
STANDARD
100
AcDbText
  0
TEXT
  5
658
100
AcDbEntity
  8
レイヤ16
  6
CONTINUOUS
 62
     0
100
AcDbText
 10
276.51427544
 20
-138.6914201235
 40
10
  1
調整
 41
0.8
  7
STANDARD
100
AcDbText
  0
LINE
  5
659
100
AcDbEntity
  8
レイヤ16
  6
CONTINUOUS
 62
     0
100
AcDbLine
 10
-81.30823168547
 20
-9.55187660672
 11
-167.6691020775
 21
-9.55187660672
  0
LINE
  5
65A
100
AcDbEntity
  8
レイヤ16
  6
CONTINUOUS
 62
     0
100
AcDbLine
 10
-81.30823168547
 20
40.44812339328
 11
-167.6691020775
 21
40.44812339328
  0
LINE
  5
65B
100
AcDbEntity
  8
レイヤ16
  6
CONTINUOUS
 62
     0
100
AcDbLine
 10
-81.30823168547
 20
90.44812339328
 11
-167.6691020775
 21
90.44812339328
  0
LINE
  5
65C
100
AcDbEntity
  8
レイヤ16
  6
CONTINUOUS
 62
     0
100
AcDbLine
 10
-81.30823168547
 20
140.4481233933
 11
-167.6691020775
 21
140.4481233933
  0
LINE
  5
65D
100
AcDbEntity
  8
レイヤ16
  6
CONTINUOUS
 62
     0
100
AcDbLine
 10
-81.30823168547
 20
190.4481233933
 11
-167.6691020775
 21
190.4481233933
  0
LINE
  5
65E
100
AcDbEntity
  8
レイヤ16
  6
CONTINUOUS
 62
     0
100
AcDbLine
 10
-81.30823168547
 20
240.4481233933
 11
-167.6691020775
 21
240.4481233933
  0
LINE
  5
65F
100
AcDbEntity
  8
レイヤ16
  6
CONTINUOUS
 62
     0
100
AcDbLine
 10
-81.30823168547
 20
290.4481233933
 11
-167.6691020775
 21
290.4481233933
  0
LINE
  5
660
100
AcDbEntity
  8
レイヤ16
  6
CONTINUOUS
 62
     0
100
AcDbLine
 10
-152.6140157232
 20
299.1481233932
 11
-152.6140157232
 21
249.1481233933
  0
CIRCLE
  5
661
100
AcDbEntity
  8
レイヤ16
  6
CONTINUOUS
 62
     0
100
AcDbCircle
 10
-152.6140157232
 20
299.1481233932
 40
0.7
  0
CIRCLE
  5
662
100
AcDbEntity
  8
レイヤ16
  6
CONTINUOUS
 62
     0
100
AcDbCircle
 10
-152.6140157232
 20
249.1481233933
 40
0.7
  0
LINE
  5
663
100
AcDbEntity
  8
レイヤ16
  6
CONTINUOUS
 62
     0
100
AcDbLine
 10
-152.6140157232
 20
299.1481233932
 11
-102.6912053892
 21
299.1481233932
  0
LINE
  5
664
100
AcDbEntity
  8
レイヤ16
  6
CONTINUOUS
 62
     0
100
AcDbLine
 10
-152.6140157232
 20
249.1481233933
 11
-131.3781934169
 21
249.1481233933
  0
LINE
  5
665
100
AcDbEntity
  8
レイヤ16
  6
CONTINUOUS
 62
     0
100
AcDbLine
 10
-182.3993903513
 20
190.4481233933
 11
-182.3993903513
 21
140.4481233933
  0
LINE
  5
666
100
AcDbEntity
  8
レイヤ16
  6
CONTINUOUS
 62
     0
100
AcDbLine
 10
-182.3993903513
 20
290.4481233933
 11
-182.3993903513
 21
240.4481233933
  0
CIRCLE
  5
667
100
AcDbEntity
  8
レイヤ16
  6
CONTINUOUS
 62
     0
100
AcDbCircle
 10
-182.3993903513
 20
290.4481233933
 40
0.7
  0
CIRCLE
  5
668
100
AcDbEntity
  8
レイヤ16
  6
CONTINUOUS
 62
     0
100
AcDbCircle
 10
-182.3993903513
 20
240.4481233933
 40
0.7
  0
LINE
  5
669
100
AcDbEntity
  8
レイヤ16
  6
CONTINUOUS
 62
     0
100
AcDbLine
 10
-182.3993903513
 20
290.4481233933
 11
-173.1369439907
 21
290.4481233933
  0
LINE
  5
66A
100
AcDbEntity
  8
レイヤ16
  6
CONTINUOUS
 62
     0
100
AcDbLine
 10
-182.3993903513
 20
240.4481233933
 11
-173.1369439907
 21
240.4481233933
  0
LINE
  5
66B
100
AcDbEntity
  8
レイヤ16
  6
CONTINUOUS
 62
     0
100
AcDbLine
 10
-182.3993903513
 20
240.4481233933
 11
-182.3993903513
 21
190.4481233933
  0
CIRCLE
  5
66C
100
AcDbEntity
  8
レイヤ16
  6
CONTINUOUS
 62
     0
100
AcDbCircle
 10
-182.3993903513
 20
190.4481233933
 40
0.7
  0
LINE
  5
66D
100
AcDbEntity
  8
レイヤ16
  6
CONTINUOUS
 62
     0
100
AcDbLine
 10
-182.3993903513
 20
190.4481233933
 11
-173.1369439907
 21
190.4481233933
  0
CIRCLE
  5
66E
100
AcDbEntity
  8
レイヤ16
  6
CONTINUOUS
 62
     0
100
AcDbCircle
 10
-182.3993903513
 20
140.4481233933
 40
0.7
  0
LINE
  5
66F
100
AcDbEntity
  8
レイヤ16
  6
CONTINUOUS
 62
     0
100
AcDbLine
 10
-182.3993903513
 20
140.4481233933
 11
-173.1369439907
 21
140.4481233933
  0
LINE
  5
670
100
AcDbEntity
  8
レイヤ16
  6
CONTINUOUS
 62
     0
100
AcDbLine
 10
-182.3993903513
 20
140.4481233933
 11
-182.3993903513
 21
90.44812339328
  0
CIRCLE
  5
671
100
AcDbEntity
  8
レイヤ16
  6
CONTINUOUS
 62
     0
100
AcDbCircle
 10
-182.3993903513
 20
90.44812339328
 40
0.7
  0
LINE
  5
672
100
AcDbEntity
  8
レイヤ16
  6
CONTINUOUS
 62
     0
100
AcDbLine
 10
-182.3993903513
 20
90.44812339328
 11
-173.1369439907
 21
90.44812339328
  0
LINE
  5
673
100
AcDbEntity
  8
レイヤ16
  6
CONTINUOUS
 62
     0
100
AcDbLine
 10
-182.3993903513
 20
90.44812339328
 11
-182.3993903513
 21
40.44812339328
  0
CIRCLE
  5
674
100
AcDbEntity
  8
レイヤ16
  6
CONTINUOUS
 62
     0
100
AcDbCircle
 10
-182.3993903513
 20
40.44812339328
 40
0.7
  0
LINE
  5
675
100
AcDbEntity
  8
レイヤ16
  6
CONTINUOUS
 62
     0
100
AcDbLine
 10
-182.3993903513
 20
40.44812339328
 11
-173.1369439907
 21
40.44812339328
  0
LINE
  5
676
100
AcDbEntity
  8
レイヤ16
  6
CONTINUOUS
 62
     0
100
AcDbLine
 10
-182.3993903513
 20
40.44812339328
 11
-182.3993903513
 21
-9.55187660672
  0
CIRCLE
  5
677
100
AcDbEntity
  8
レイヤ16
  6
CONTINUOUS
 62
     0
100
AcDbCircle
 10
-182.3993903513
 20
-9.55187660672
 40
0.7
  0
LINE
  5
678
100
AcDbEntity
  8
レイヤ16
  6
CONTINUOUS
 62
     0
100
AcDbLine
 10
-182.3993903513
 20
-9.55187660672
 11
-173.1369439907
 21
-9.55187660672
  0
LINE
  5
679
100
AcDbEntity
  8
レイヤ16
  6
CONTINUOUS
 62
     0
100
AcDbLine
 10
-22.80822868547
 20
-16.40600260672
 11
-22.80822868547
 21
-82.58915260675
  0
LINE
  5
67A
100
AcDbEntity
  8
レイヤ16
  6
CONTINUOUS
 62
     0
100
AcDbLine
 10
-22.80822868547
 20
-79.58915260675
 11
77.1843543145
 21
-79.58915260675
  0
LINE
  5
67B
100
AcDbEntity
  8
レイヤ16
  6
CONTINUOUS
 62
     0
100
AcDbLine
 10
77.1843543145
 20
-18.71155660672
 11
77.1843543145
 21
-79.58915260675
  0
CIRCLE
  5
67C
100
AcDbEntity
  8
レイヤ16
  6
CONTINUOUS
 62
     0
100
AcDbCircle
 10
-22.80822868547
 20
-79.58915260675
 40
0.7
  0
CIRCLE
  5
67D
100
AcDbEntity
  8
レイヤ16
  6
CONTINUOUS
 62
     0
100
AcDbCircle
 10
-34.30823068547
 20
-79.58915260675
 40
0.7
  0
LINE
  5
67E
100
AcDbEntity
  8
レイヤ16
  6
CONTINUOUS
 62
     0
100
AcDbLine
 10
-22.80822868547
 20
-79.58915260675
 11
-22.80822868547
 21
-36.90118398131
  0
LINE
  5
67F
100
AcDbEntity
  8
レイヤ16
  6
CONTINUOUS
 62
     0
100
AcDbLine
 10
-34.30823068547
 20
-79.58915260675
 11
-34.30823068547
 21
-36.90118398131
  0
CIRCLE
  5
680
100
AcDbEntity
  8
レイヤ16
  6
CONTINUOUS
 62
     0
100
AcDbCircle
 10
-84.30822868547
 20
-79.58915260675
 40
0.7
  0
LINE
  5
681
100
AcDbEntity
  8
レイヤ16
  6
CONTINUOUS
 62
     0
100
AcDbLine
 10
-84.30822868547
 20
-79.58915260675
 11
-84.30822868547
 21
-36.90118398131
  0
LINE
  5
682
100
AcDbEntity
  8
レイヤ16
  6
CONTINUOUS
 62
     0
100
AcDbLine
 10
-22.80822868547
 20
-79.58915260675
 11
-34.30823068547
 21
-79.58915260675
  0
LINE
  5
683
100
AcDbEntity
  8
レイヤ16
  6
CONTINUOUS
 62
     0
100
AcDbLine
 10
-34.30823068547
 20
-79.58915260675
 11
-84.30822868547
 21
-79.58915260675
  0
CIRCLE
  5
684
100
AcDbEntity
  8
レイヤ16
  6
CONTINUOUS
 62
     0
100
AcDbCircle
 10
-84.30822868547
 20
-79.58915260675
 40
0.7
  0
LINE
  5
685
100
AcDbEntity
  8
レイヤ16
  6
CONTINUOUS
 62
     0
100
AcDbLine
 10
-84.30822868547
 20
-79.58915260675
 11
-84.30822868547
 21
-23.86830542174
  0
LINE
  5
686
100
AcDbEntity
  8
レイヤ16
  6
CONTINUOUS
 62
     0
100
AcDbLine
 10
-84.30822868547
 20
-79.58915260675
 11
-129.3082286855
 21
-79.58915260675
  0
CIRCLE
  5
687
100
AcDbEntity
  8
レイヤ16
  6
CONTINUOUS
 62
     0
100
AcDbCircle
 10
-129.3082286855
 20
-79.58915260675
 40
0.7
  0
LINE
  5
688
100
AcDbEntity
  8
レイヤ16
  6
CONTINUOUS
 62
     0
100
AcDbLine
 10
-129.3082286855
 20
-79.58915260675
 11
-129.3082286855
 21
-57.81360547494
  0
CIRCLE
  5
689
100
AcDbEntity
  8
レイヤ16
  6
CONTINUOUS
 62
     0
100
AcDbCircle
 10
77.1843543145
 20
-79.58915260675
 40
0.7
  0
TEXT
  5
68A
100
AcDbEntity
  8
レイヤ16
  6
CONTINUOUS
 62
     0
100
AcDbText
 10
-182.3993903513
 20
261.4481233933
 40
10
  1
Ｐ
 41
0.8
 50
90
  7
STANDARD
100
AcDbText
  0
TEXT
  5
68B
100
AcDbEntity
  8
レイヤ16
  6
CONTINUOUS
 62
     0
100
AcDbText
 10
-182.3993903513
 20
211.4481233933
 40
10
  1
Ｐ
 41
0.8
 50
90
  7
STANDARD
100
AcDbText
  0
TEXT
  5
68C
100
AcDbEntity
  8
レイヤ16
  6
CONTINUOUS
 62
     0
100
AcDbText
 10
-182.3993903513
 20
161.4481233933
 40
10
  1
Ｐ
 41
0.8
 50
90
  7
STANDARD
100
AcDbText
  0
TEXT
  5
68D
100
AcDbEntity
  8
レイヤ16
  6
CONTINUOUS
 62
     0
100
AcDbText
 10
-182.3993903513
 20
111.4481233933
 40
10
  1
Ｐ
 41
0.8
 50
90
  7
STANDARD
100
AcDbText
  0
TEXT
  5
68E
100
AcDbEntity
  8
レイヤ16
  6
CONTINUOUS
 62
     0
100
AcDbText
 10
-182.3993903513
 20
61.44812339328
 40
10
  1
Ｐ
 41
0.8
 50
90
  7
STANDARD
100
AcDbText
  0
TEXT
  5
68F
100
AcDbEntity
  8
レイヤ16
  6
CONTINUOUS
 62
     0
100
AcDbText
 10
-182.3993903513
 20
11.44812339328
 40
10
  1
Ｐ
 41
0.8
 50
90
  7
STANDARD
100
AcDbText
  0
TEXT
  5
690
100
AcDbEntity
  8
レイヤ16
  6
CONTINUOUS
 62
     0
100
AcDbText
 10
-153.5802323209
 20
270.4842354862
 40
10
  1
50
 41
0.8
 50
90
  7
STANDARD
100
AcDbText
  0
TEXT
  5
691
100
AcDbEntity
  8
レイヤ16
  6
CONTINUOUS
 62
     0
100
AcDbText
 10
21.18806281453
 20
-79.58915260675
 40
10
  1
100
 41
0.8
  7
STANDARD
100
AcDbText
  0
TEXT
  5
692
100
AcDbEntity
  8
レイヤ16
  6
CONTINUOUS
 62
     0
100
AcDbText
 10
-63.30822968547
 20
-79.58915260675
 40
10
  1
50
 41
0.8
  7
STANDARD
100
AcDbText
  0
TEXT
  5
693
100
AcDbEntity
  8
レイヤ16
  6
CONTINUOUS
 62
     0
100
AcDbText
 10
-110.8082286855
 20
-79.58915260675
 40
10
  1
45
 41
0.8
  7
STANDARD
100
AcDbText
  0
TEXT
  5
694
100
AcDbEntity
  8
レイヤ16
  6
CONTINUOUS
 62
     0
100
AcDbText
 10
-36.55822968547
 20
-79.58915260675
 40
10
  1
11.5
 41
0.8
  7
STANDARD
100
AcDbText
  0
LINE
  5
695
100
AcDbEntity
  8
レイヤ16
  6
CONTINUOUS
 62
     0
100
AcDbLine
 10
18.23661439669
 20
281.7481233933
 11
18.23661439669
 21
249.1481233933
  0
CIRCLE
  5
696
100
AcDbEntity
  8
レイヤ16
  6
CONTINUOUS
 62
     0
100
AcDbCircle
 10
18.23661439669
 20
281.7481233933
 40
0.7
  0
CIRCLE
  5
697
100
AcDbEntity
  8
レイヤ16
  6
CONTINUOUS
 62
     0
100
AcDbCircle
 10
18.23661439669
 20
249.1481233933
 40
0.7
  0
LINE
  5
698
100
AcDbEntity
  8
レイヤ16
  6
CONTINUOUS
 62
     0
100
AcDbLine
 10
18.23661439669
 20
281.7481233933
 11
-75.82086717611
 21
281.7481233933
  0
LINE
  5
699
100
AcDbEntity
  8
レイヤ16
  6
CONTINUOUS
 62
     0
100
AcDbLine
 10
18.23661439669
 20
249.1481233933
 11
-75.82086717611
 21
249.1481233933
  0
LINE
  5
69A
100
AcDbEntity
  8
レイヤ16
  6
CONTINUOUS
 62
     0
100
AcDbLine
 10
18.23661439669
 20
249.1481233933
 11
18.23661439669
 21
231.7481233933
  0
CIRCLE
  5
69B
100
AcDbEntity
  8
レイヤ16
  6
CONTINUOUS
 62
     0
100
AcDbCircle
 10
18.23661439669
 20
231.7481233933
 40
0.7
  0
LINE
  5
69C
100
AcDbEntity
  8
レイヤ16
  6
CONTINUOUS
 62
     0
100
AcDbLine
 10
18.23661439669
 20
231.7481233933
 11
-75.82086717611
 21
231.7481233933
  0
LINE
  5
69D
100
AcDbEntity
  8
レイヤ16
  6
CONTINUOUS
 62
     0
100
AcDbLine
 10
18.23661439669
 20
231.7481233933
 11
18.23661439669
 21
199.1481233933
  0
CIRCLE
  5
69E
100
AcDbEntity
  8
レイヤ16
  6
CONTINUOUS
 62
     0
100
AcDbCircle
 10
18.23661439669
 20
199.1481233933
 40
0.7
  0
LINE
  5
69F
100
AcDbEntity
  8
レイヤ16
  6
CONTINUOUS
 62
     0
100
AcDbLine
 10
18.23661439669
 20
199.1481233933
 11
-75.82086717611
 21
199.1481233933
  0
LINE
  5
6A0
100
AcDbEntity
  8
レイヤ16
  6
CONTINUOUS
 62
     0
100
AcDbLine
 10
18.23661439669
 20
199.1481233933
 11
18.23661439669
 21
181.7481233933
  0
CIRCLE
  5
6A1
100
AcDbEntity
  8
レイヤ16
  6
CONTINUOUS
 62
     0
100
AcDbCircle
 10
18.23661439669
 20
181.7481233933
 40
0.7
  0
LINE
  5
6A2
100
AcDbEntity
  8
レイヤ16
  6
CONTINUOUS
 62
     0
100
AcDbLine
 10
18.23661439669
 20
181.7481233933
 11
-75.82086717611
 21
181.7481233933
  0
LINE
  5
6A3
100
AcDbEntity
  8
レイヤ16
  6
CONTINUOUS
 62
     0
100
AcDbLine
 10
18.23661439669
 20
181.7481233933
 11
18.23661439669
 21
149.1481233933
  0
CIRCLE
  5
6A4
100
AcDbEntity
  8
レイヤ16
  6
CONTINUOUS
 62
     0
100
AcDbCircle
 10
18.23661439669
 20
149.1481233933
 40
0.7
  0
LINE
  5
6A5
100
AcDbEntity
  8
レイヤ16
  6
CONTINUOUS
 62
     0
100
AcDbLine
 10
18.23661439669
 20
149.1481233933
 11
-75.82086717611
 21
149.1481233933
  0
LINE
  5
6A6
100
AcDbEntity
  8
レイヤ16
  6
CONTINUOUS
 62
     0
100
AcDbLine
 10
18.23661439669
 20
149.1481233933
 11
18.23661439669
 21
131.7481233933
  0
CIRCLE
  5
6A7
100
AcDbEntity
  8
レイヤ16
  6
CONTINUOUS
 62
     0
100
AcDbCircle
 10
18.23661439669
 20
131.7481233933
 40
0.7
  0
LINE
  5
6A8
100
AcDbEntity
  8
レイヤ16
  6
CONTINUOUS
 62
     0
100
AcDbLine
 10
18.23661439669
 20
131.7481233933
 11
-75.82086717611
 21
131.7481233933
  0
LINE
  5
6A9
100
AcDbEntity
  8
レイヤ16
  6
CONTINUOUS
 62
     0
100
AcDbLine
 10
18.23661439669
 20
131.7481233933
 11
18.23661439669
 21
99.14812339328
  0
CIRCLE
  5
6AA
100
AcDbEntity
  8
レイヤ16
  6
CONTINUOUS
 62
     0
100
AcDbCircle
 10
18.23661439669
 20
99.14812339328
 40
0.7
  0
LINE
  5
6AB
100
AcDbEntity
  8
レイヤ16
  6
CONTINUOUS
 62
     0
100
AcDbLine
 10
18.23661439669
 20
99.14812339328
 11
-75.82086717611
 21
99.14812339328
  0
LINE
  5
6AC
100
AcDbEntity
  8
レイヤ16
  6
CONTINUOUS
 62
     0
100
AcDbLine
 10
18.23661439669
 20
99.14812339328
 11
18.23661439669
 21
81.74812339328
  0
CIRCLE
  5
6AD
100
AcDbEntity
  8
レイヤ16
  6
CONTINUOUS
 62
     0
100
AcDbCircle
 10
18.23661439669
 20
81.74812339328
 40
0.7
  0
LINE
  5
6AE
100
AcDbEntity
  8
レイヤ16
  6
CONTINUOUS
 62
     0
100
AcDbLine
 10
18.23661439669
 20
81.74812339328
 11
-75.82086717611
 21
81.74812339328
  0
LINE
  5
6AF
100
AcDbEntity
  8
レイヤ16
  6
CONTINUOUS
 62
     0
100
AcDbLine
 10
18.23661439669
 20
81.74812339328
 11
18.23661439669
 21
49.14812339328
  0
CIRCLE
  5
6B0
100
AcDbEntity
  8
レイヤ16
  6
CONTINUOUS
 62
     0
100
AcDbCircle
 10
18.23661439669
 20
81.74812339328
 40
0.7
  0
CIRCLE
  5
6B1
100
AcDbEntity
  8
レイヤ16
  6
CONTINUOUS
 62
     0
100
AcDbCircle
 10
18.23661439669
 20
49.14812339328
 40
0.7
  0
LINE
  5
6B2
100
AcDbEntity
  8
レイヤ16
  6
CONTINUOUS
 62
     0
100
AcDbLine
 10
18.23661439669
 20
81.74812339328
 11
-75.82086717611
 21
81.74812339328
  0
LINE
  5
6B3
100
AcDbEntity
  8
レイヤ16
  6
CONTINUOUS
 62
     0
100
AcDbLine
 10
18.23661439669
 20
49.14812339328
 11
-75.82086717611
 21
49.14812339328
  0
TEXT
  5
6B4
100
AcDbEntity
  8
レイヤ16
  6
CONTINUOUS
 62
     0
100
AcDbText
 10
18.23661439669
 20
82.44812339328
 40
10
  1
17.4
 41
0.8
 50
90
  7
STANDARD
100
AcDbText
  0
TEXT
  5
6B5
100
AcDbEntity
  8
レイヤ16
  6
CONTINUOUS
 62
     0
100
AcDbText
 10
18.23661439669
 20
132.4481233933
 40
10
  1
17.4
 41
0.8
 50
90
  7
STANDARD
100
AcDbText
  0
TEXT
  5
6B6
100
AcDbEntity
  8
レイヤ16
  6
CONTINUOUS
 62
     0
100
AcDbText
 10
18.23661439669
 20
182.4481233933
 40
10
  1
17.4
 41
0.8
 50
90
  7
STANDARD
100
AcDbText
  0
TEXT
  5
6B7
100
AcDbEntity
  8
レイヤ16
  6
CONTINUOUS
 62
     0
100
AcDbText
 10
18.23661439669
 20
232.4481233933
 40
10
  1
17.4
 41
0.8
 50
90
  7
STANDARD
100
AcDbText
  0
TEXT
  5
6B8
100
AcDbEntity
  8
レイヤ16
  6
CONTINUOUS
 62
     0
100
AcDbText
 10
18.23661439669
 20
261.4481233933
 40
10
  1
Ｃ
 41
0.8
 50
90
  7
STANDARD
100
AcDbText
  0
TEXT
  5
6B9
100
AcDbEntity
  8
レイヤ16
  6
CONTINUOUS
 62
     0
100
AcDbText
 10
18.23661439669
 20
211.4481233933
 40
10
  1
Ｃ
 41
0.8
 50
90
  7
STANDARD
100
AcDbText
  0
TEXT
  5
6BA
100
AcDbEntity
  8
レイヤ16
  6
CONTINUOUS
 62
     0
100
AcDbText
 10
18.23661439669
 20
161.4481233933
 40
10
  1
Ｃ
 41
0.8
 50
90
  7
STANDARD
100
AcDbText
  0
TEXT
  5
6BB
100
AcDbEntity
  8
レイヤ16
  6
CONTINUOUS
 62
     0
100
AcDbText
 10
18.23661439669
 20
111.4481233933
 40
10
  1
Ｃ
 41
0.8
 50
90
  7
STANDARD
100
AcDbText
  0
TEXT
  5
6BC
100
AcDbEntity
  8
レイヤ16
  6
CONTINUOUS
 62
     0
100
AcDbText
 10
18.23661439669
 20
61.44812339328
 40
10
  1
Ｃ
 41
0.8
 50
90
  7
STANDARD
100
AcDbText
  0
LINE
  5
6BD
100
AcDbEntity
  8
レイヤ16
  6
CONTINUOUS
 62
     0
100
AcDbLine
 10
3.39537079961
 20
477.7038251887
 11
-41.60462920039
 21
477.7038251887
  0
LINE
  5
6BE
100
AcDbEntity
  8
レイヤ16
  6
DOT
 62
     0
100
AcDbLine
 10
-41.60462920039
 20
470.4894160703
 11
-41.60462920039
 21
420.4894160703
  0
LINE
  5
6BF
100
AcDbEntity
  8
レイヤ16
  6
DOT
 62
     0
100
AcDbLine
 10
-41.60462920039
 20
420.4894160703
 11
3.39537079961
 21
420.4894160703
  0
LINE
  5
6C0
100
AcDbEntity
  8
レイヤ16
  6
CONTINUOUS
 62
     0
100
AcDbLine
 10
-47.65720520418
 20
470.4894160703
 11
-47.65720520418
 21
420.4894160703
  0
LINE
  5
6C1
100
AcDbEntity
  8
レイヤ16
  6
CONTINUOUS
 62
     0
100
AcDbLine
 10
-47.65720520418
 20
420.4894160703
 11
-41.77985617639
 21
420.4894160703
  0
LINE
  5
6C2
100
AcDbEntity
  8
レイヤ16
  6
CONTINUOUS
 62
     0
100
AcDbLine
 10
-47.65720520418
 20
470.4894160703
 11
-3.60872766902
 21
470.4894160703
  0
LINE
  5
6C3
100
AcDbEntity
  8
レイヤ16
  6
CONTINUOUS
 62
     0
100
AcDbLine
 10
-41.60462920039
 20
477.7038251887
 11
-41.60462920039
 21
427.7477128351
  0
LINE
  5
6C4
100
AcDbEntity
  8
レイヤ16
  6
CONTINUOUS
 62
     0
100
AcDbLine
 10
8.66098349208
 20
470.4894160703
 11
8.66098349208
 21
465.2894160703
  0
LINE
  5
6C5
100
AcDbEntity
  8
レイヤ16
  6
CONTINUOUS
 62
     0
100
AcDbLine
 10
8.66098349208
 20
470.4894160703
 11
4.23160062622
 21
470.4894160703
  0
LINE
  5
6C6
100
AcDbEntity
  8
レイヤ16
  6
CONTINUOUS
 62
     0
100
AcDbLine
 10
8.66098349208
 20
465.2894160703
 11
4.23160062622
 21
465.2894160703
  0
LINE
  5
6C7
100
AcDbEntity
  8
レイヤ16
  6
CONTINUOUS
 62
     0
100
AcDbLine
 10
8.66098349208
 20
465.2894160703
 11
8.66098349208
 21
458.2894160703
  0
LINE
  5
6C8
100
AcDbEntity
  8
レイヤ16
  6
CONTINUOUS
 62
     0
100
AcDbLine
 10
8.66098349208
 20
458.2894160703
 11
4.23160062622
 21
458.2894160703
  0
LINE
  5
6C9
100
AcDbEntity
  8
レイヤ16
  6
CONTINUOUS
 62
     0
100
AcDbLine
 10
8.66098349208
 20
458.2894160703
 11
8.66098349208
 21
453.0894160702
  0
LINE
  5
6CA
100
AcDbEntity
  8
レイヤ16
  6
CONTINUOUS
 62
     0
100
AcDbLine
 10
8.66098349208
 20
453.0894160702
 11
4.23160062622
 21
453.0894160702
  0
LINE
  5
6CB
100
AcDbEntity
  8
レイヤ16
  6
CONTINUOUS
 62
     0
100
AcDbLine
 10
8.66098349208
 20
453.0894160702
 11
8.66098349208
 21
420.4894160703
  0
LINE
  5
6CC
100
AcDbEntity
  8
レイヤ16
  6
CONTINUOUS
 62
     0
100
AcDbLine
 10
8.66098349208
 20
420.4894160703
 11
-38.98865128036
 21
420.4894160703
  0
LINE
  5
6CD
100
AcDbEntity
  8
レイヤ16
  6
CONTINUOUS
 62
     0
100
AcDbLine
 10
3.39537079961
 20
477.7038251887
 11
0.49759332075
 21
476.9273680534
  0
LINE
  5
6CE
100
AcDbEntity
  8
レイヤ16
  6
CONTINUOUS
 62
     0
100
AcDbLine
 10
3.39537079961
 20
477.7038251887
 11
0.49759332075
 21
478.480282324
  0
LINE
  5
6CF
100
AcDbEntity
  8
レイヤ16
  6
CONTINUOUS
 62
     0
100
AcDbLine
 10
-41.60462920039
 20
477.7038251887
 11
-38.70685172152
 21
478.480282324
  0
LINE
  5
6D0
100
AcDbEntity
  8
レイヤ16
  6
CONTINUOUS
 62
     0
100
AcDbLine
 10
-41.60462920039
 20
477.7038251887
 11
-38.70685172152
 21
476.9273680534
  0
LINE
  5
6D1
100
AcDbEntity
  8
レイヤ16
  6
CONTINUOUS
 62
     0
100
AcDbLine
 10
-47.65720520418
 20
470.4894160703
 11
-46.88074806887
 21
467.5916385914
  0
LINE
  5
6D2
100
AcDbEntity
  8
レイヤ16
  6
CONTINUOUS
 62
     0
100
AcDbLine
 10
-47.65720520418
 20
470.4894160703
 11
-48.43366233949
 21
467.5916385914
  0
LINE
  5
6D3
100
AcDbEntity
  8
レイヤ16
  6
CONTINUOUS
 62
     0
100
AcDbLine
 10
-47.65720520418
 20
420.4894160703
 11
-48.43366233949
 21
423.3871935491
  0
LINE
  5
6D4
100
AcDbEntity
  8
レイヤ16
  6
CONTINUOUS
 62
     0
100
AcDbLine
 10
-47.65720520418
 20
420.4894160703
 11
-46.88074806887
 21
423.3871935491
  0
LINE
  5
6D5
100
AcDbEntity
  8
レイヤ16
  6
CONTINUOUS
 62
     0
100
AcDbLine
 10
8.66098349208
 20
465.2894160703
 11
9.43744062739
 21
462.3916385913
  0
LINE
  5
6D6
100
AcDbEntity
  8
レイヤ16
  6
CONTINUOUS
 62
     0
100
AcDbLine
 10
8.66098349208
 20
465.2894160703
 11
7.88452635678
 21
462.3916385913
  0
LINE
  5
6D7
100
AcDbEntity
  8
レイヤ16
  6
CONTINUOUS
 62
     0
100
AcDbLine
 10
8.66098349208
 20
458.2894160703
 11
7.88452635678
 21
461.187193549
  0
LINE
  5
6D8
100
AcDbEntity
  8
レイヤ16
  6
CONTINUOUS
 62
     0
100
AcDbLine
 10
8.66098349208
 20
458.2894160703
 11
9.43744062739
 21
461.187193549
  0
LINE
  5
6D9
100
AcDbEntity
  8
レイヤ16
  6
CONTINUOUS
 62
     0
100
AcDbLine
 10
8.66098349208
 20
453.0894160702
 11
9.43744062739
 21
450.1916385914
  0
LINE
  5
6DA
100
AcDbEntity
  8
レイヤ16
  6
CONTINUOUS
 62
     0
100
AcDbLine
 10
8.66098349208
 20
453.0894160702
 11
7.88452635678
 21
450.1916385914
  0
LINE
  5
6DB
100
AcDbEntity
  8
レイヤ16
  6
CONTINUOUS
 62
     0
100
AcDbLine
 10
8.66098349208
 20
420.4894160703
 11
7.88452635678
 21
423.3871935491
  0
LINE
  5
6DC
100
AcDbEntity
  8
レイヤ16
  6
CONTINUOUS
 62
     0
100
AcDbLine
 10
8.66098349208
 20
420.4894160703
 11
9.43744062739
 21
423.3871935491
  0
LINE
  5
6DD
100
AcDbEntity
  8
レイヤ16
  6
CONTINUOUS
 62
     0
100
AcDbLine
 10
8.66098349208
 20
470.4894160703
 11
8.66098349208
 21
475.6273112388
  0
LINE
  5
6DE
100
AcDbEntity
  8
レイヤ16
  6
CONTINUOUS
 62
     0
100
AcDbLine
 10
8.66098349208
 20
470.4894160703
 11
7.88452635678
 21
473.3871935491
  0
LINE
  5
6DF
100
AcDbEntity
  8
レイヤ16
  6
CONTINUOUS
 62
     0
100
AcDbLine
 10
8.66098349208
 20
470.4894160703
 11
9.43744062739
 21
473.3871935491
  0
LINE
  5
6E0
100
AcDbEntity
  8
レイヤ16
  6
CONTINUOUS
 62
     0
100
AcDbLine
 10
3.39537079961
 20
477.7038251887
 11
3.39537079961
 21
471.3365888486
  0
TEXT
  5
6E1
100
AcDbEntity
  8
レイヤ16
  6
CONTINUOUS
 62
     0
100
AcDbText
 10
-47.65720520418
 20
443.9194160703
 40
4
  1
50
 41
0.785
 50
90
  7
STANDARD
100
AcDbText
  0
TEXT
  5
6E2
100
AcDbEntity
  8
レイヤ16
  6
CONTINUOUS
 62
     0
100
AcDbText
 10
-19.34238281262
 20
477.8024501265
 40
4
  1
45
 41
0.785
  7
STANDARD
100
AcDbText
  0
TEXT
  5
6E3
100
AcDbEntity
  8
レイヤ16
  6
CONTINUOUS
 62
     0
100
AcDbText
 10
8.66098349208
 20
433.6494160703
 40
4
  1
32.6
 41
0.785
 50
90
  7
STANDARD
100
AcDbText
  0
TEXT
  5
6E4
100
AcDbEntity
  8
レイヤ16
  6
CONTINUOUS
 62
     0
100
AcDbText
 10
8.66098349208
 20
453.3344160702
 40
4
  1
5.2
 41
0.785
 50
90
  7
STANDARD
100
AcDbText
  0
TEXT
  5
6E5
100
AcDbEntity
  8
レイヤ16
  6
CONTINUOUS
 62
     0
100
AcDbText
 10
8.66098349208
 20
461.0044160702
 40
4
  1
7
 41
0.785
 50
90
  7
STANDARD
100
AcDbText
  0
TEXT
  5
6E6
100
AcDbEntity
  8
レイヤ16
  6
CONTINUOUS
 62
     0
100
AcDbText
 10
8.66098349208
 20
465.5344160703
 40
4
  1
5.2
 41
0.785
 50
90
  7
STANDARD
100
AcDbText
  0
TEXT
  5
6E7
100
AcDbEntity
  8
レイヤ4
  6
CONTINUOUS
 62
     3
100
AcDbText
 10
33.66466026519
 20
-180.3864656266
 40
10
  1
ＳＫフィンパネル　FP5045横ばり
 41
0.8
  7
STANDARD
100
AcDbText
  0
ENDSEC
  0
SECTION
  2
OBJECTS
  0
DICTIONARY
  5
6E8
100
AcDbDictionary
  3
ACAD_GROUP
350
6E9
  3
ACAD_IMAGE_DICT
350
6EA
  3
ACAD_MLINESTYLE
350
6EB
  0
DICTIONARY
  5
6E9
330
6E8
100
AcDbDictionary
  0
DICTIONARY
  5
6EA
100
AcDbDictionary
  0
DICTIONARY
  5
6EB
100
AcDbDictionary
  3
STANDARD
350
6EC
  0
RASTERVARIABLES
  5
6ED
100
AcDbRasterVariables
 90
     0
 70
     1
 71
     1
 72
     0
  0
MLINESTYLE
  5
6EC
100
AcDbMlineStyle
  2
STANDARD
 70
     0
  3

 62
   256
 51
90
 52
90
 71
     0
  0
ENDSEC
  0
EOF
