  0
SECTION
  2
HEADER
  9
$ACADVER
  1
AC1009
  9
$INSBASE
 10
0
 20
0
 30
0
  9
$EXTMIN
 10
0
 20
0
  9
$EXTMAX
 10
2100
 20
1485
  9
$LIMMIN
 10
0
 20
0
  9
$LIMMAX
 10
2100
 20
1485
  9
$LTSCALE
 40
5
  0
ENDSEC
  0
SECTION
  2
TABLES
  0
TABLE
  2
LTYPE
 70
     9
  0
LTYPE
  2
CONTINUOUS
 70
    64
  3
実線
 72
    65
 73
     0
 40
0.0
  0
LTYPE
  2
DASHED1
 70
    64
  3
--  --  --  --  --  --  --  --  
 72
    65
 73
     2
 40
2.5
 49
1.25
 49
-1.25
  0
LTYPE
  2
DASHED2
 70
    64
  3
----    ----    ----    ----    
 72
    65
 73
     2
 40
5.0
 49
2.5
 49
-2.5
  0
LTYPE
  2
DASHED3
 70
    64
  3
------  ------  ------  ------  
 72
    65
 73
     2
 40
5.0
 49
3.75
 49
-1.25
  0
LTYPE
  2
CENTER1
 70
    64
  3
----- - ----- - ----- - ----- - 
 72
    65
 73
     4
 40
10.0
 49
6.25
 49
-1.25
 49
1.25
 49
-1.25
  0
LTYPE
  2
CENTER2
 70
    64
  3
----------  --  ----------  --  
 72
    65
 73
     4
 40
20.0
 49
12.5
 49
-2.5
 49
2.5
 49
-2.5
  0
LTYPE
  2
PHANTOM1
 70
    64
  3
--- - - --- - - --- - - --- - - 
 72
    65
 73
     6
 40
10.0
 49
3.25
 49
-1.25
 49
1.25
 49
-1.25
 49
1.25
 49
-1.25
  0
LTYPE
  2
PHANTOM2
 70
    64
  3
--------  -  -  --------  -  -  
 72
    65
 73
     6
 40
20.0
 49
10.0
 49
-2.5
 49
1.25
 49
-2.5
 49
1.25
 49
-2.5
  0
LTYPE
  2
DOT
 70
    64
  3
-   -   -   -   -   -   -   -   
 72
    65
 73
     2
 40
2.5
 49
0.625
 49
-1.875
  0
LTYPE
  2
DUMMY
 70
    64
  3
ダミー
 72
    65
 73
     0
 40
0.0
  0
LTYPE
  2
RAND1
 70
    64
  3
ランダム線1
 72
    65
 73
     4
 40
10.0
 49
1.0
 49
-2.0
 49
3.0
 49
-4.0
  0
LTYPE
  2
RAND2
 70
    64
  3
ランダム線2
 72
    65
 73
     4
 40
14.0
 49
2.0
 49
-3.0
 49
4.0
 49
-5.0
  0
LTYPE
  2
RAND3
 70
    64
  3
ランダム線3
 72
    65
 73
     4
 40
18.0
 49
3.0
 49
-4.0
 49
5.0
 49
-6.0
  0
LTYPE
  2
RAND4
 70
    64
  3
ランダム線4
 72
    65
 73
     4
 40
22.0
 49
4.0
 49
-5.0
 49
6.0
 49
-7.0
  0
LTYPE
  2
RAND5
 70
    64
  3
ランダム線5
 72
    65
 73
     4
 40
26.0
 49
5.0
 49
-6.0
 49
7.0
 49
-8.0
  0
LTYPE
  2
LONG1
 70
    64
  3
----------  --  ----------  --  
 72
    65
 73
     4
 40
40.0
 49
32.5
 49
-2.5
 49
2.5
 49
-2.5
  0
LTYPE
  2
LONG2
 70
    64
  3
--------  -  -  --------  -  -  
 72
    65
 73
     6
 40
40.0
 49
30.0
 49
-2.5
 49
1.25
 49
-2.5
 49
1.25
 49
-2.5
  0
LTYPE
  2
LONG3
 70
    64
  3
+++++++++++++++..+++++++++++++++
 72
    65
 73
     2
 40
40.0
 49
37.5
 49
-2.5
  0
LTYPE
  2
LONG4
 70
    64
  3
+++++++++++++++..+++++++++++++++
 72
    65
 73
     2
 40
80.0
 49
75.0
 49
-5.0
  0
LTYPE
  2
LONG5
 70
    64
  3
----------  --  ----------  --  
 72
    65
 73
     4
 40
60.0
 49
37.5
 49
-7.5
 49
7.5
 49
-7.5
  0
LTYPE
  2
dashed
 70
   64
  3
-------   -------------   ------
 72
   65
 73
    2
 40
7.5
 49
6
 49
-1.5
  0
LTYPE
  2
dashed_spaced
 70
   64
  3
----        --------        ----
 72
   65
 73
    2
 40
12
 49
6
 49
-6
  0
LTYPE
  2
long_dashed_dotted
 70
   64
  3
------------- --- --------------
 72
   65
 73
    4
 40
15.25
 49
12
 49
-1.5
 49
0.25
 49
-1.5
  0
LTYPE
  2
long_dashed_double-dotted
 70
   64
  3
----------- --- --- ------------
 72
   65
 73
    6
 40
17
 49
12
 49
-1.5
 49
0.25
 49
-1.5
 49
0.25
 49
-1.5
  0
LTYPE
  2
long_dashed_triplicate-dotted
 70
   64
  3
--------- --- --- --- ----------
 72
   65
 73
    8
 40
18.75
 49
12
 49
-1.5
 49
0.25
 49
-1.5
 49
0.25
 49
-1.5
 49
0.25
 49
-1.5
  0
LTYPE
  2
dotted
 70
   64
  3
   -       -       -       -    
 72
   65
 73
    2
 40
1.75
 49
0.25
 49
-1.5
  0
LTYPE
  2
chain
 70
   64
  3
-------------- -- --------------
 72
   65
 73
    4
 40
18.5
 49
12
 49
-1.5
 49
3.5
 49
-1.5
  0
LTYPE
  2
chain_double_dash
 70
   64
  3
------------ -- -- -------------
 72
   65
 73
    6
 40
23.5
 49
12
 49
-1.5
 49
3.5
 49
-1.5
 49
3.5
 49
-1.5
  0
LTYPE
  2
dashed_dotted
 70
   64
  3
-----------     -     ----------
 72
   65
 73
    4
 40
9.25
 49
6
 49
-1.5
 49
0.25
 49
-1.5
  0
LTYPE
  2
double-dashed_dotted
 70
   64
  3
------   -----------   -   -----
 72
   65
 73
    6
 40
16.75
 49
6
 49
-1.5
 49
6
 49
-1.5
 49
0.25
 49
-1.5
  0
LTYPE
  2
dashed_double-dotted
 70
   64
  3
---------    -    -    ---------
 72
   65
 73
    6
 40
11
 49
6
 49
-1.5
 49
0.25
 49
-1.5
 49
0.25
 49
-1.5
  0
LTYPE
  2
double-dashed_double-dotted
 70
   64
  3
-----   ---------   -   -   ----
 72
   65
 73
    8
 40
18.5
 49
6
 49
-1.5
 49
6
 49
-1.5
 49
0.25
 49
-1.5
 49
0.25
 49
-1.5
  0
LTYPE
  2
dashed_triplicate-dotted
 70
   64
  3
-------    -    -    -    ------
 72
   65
 73
    8
 40
12.75
 49
6
 49
-1.5
 49
0.25
 49
-1.5
 49
0.25
 49
-1.5
 49
0.25
 49
-1.5
  0
LTYPE
  2
double-dashed_triplicate-dotted
 70
   64
  3
-----  ---------  -  -  -  -----
 72
   65
 73
   10
 40
20.25
 49
6
 49
-1.5
 49
6
 49
-1.5
 49
0.25
 49
-1.5
 49
0.25
 49
-1.5
 49
0.25
 49
-1.5
  0
LTYPE
  2
undefined
 70
   64
  3
--------------------------------
 72
   65
 73
    0
 40
0
  0
LTYPE
  2
DOT_17
 70
   64
  3
----        --------        ----
 72
   65
 73
    2
 40
2
 49
1
 49
-1
  0
LTYPE
  2
DASHED
 70
   64
  3
----        --------        ----
 72
   65
 73
    2
 40
4
 49
2
 49
-2
  0
LTYPE
  2
DASHED2_19
 70
   64
  3
-----      ----------      -----
 72
   65
 73
    2
 40
8
 49
5
 49
-3
  0
LTYPE
  2
CENTER
 70
   64
  3
--------------- - --------------
 72
   65
 73
    4
 40
23
 49
20
 49
-1
 49
1
 49
-1
  0
LTYPE
  2
CENTERX2
 70
   64
  3
--------------- - --------------
 72
   65
 73
    4
 40
43
 49
40
 49
-1
 49
1
 49
-1
  0
LTYPE
  2
CENTER2_22
 70
   64
  3
-------------  --  -------------
 72
   65
 73
    4
 40
13
 49
10
 49
-1
 49
1
 49
-1
  0
LTYPE
  2
PHANTOM
 70
   64
  3
-------------- - - -------------
 72
   65
 73
    6
 40
25
 49
20
 49
-1
 49
1
 49
-1
 49
1
 49
-1
  0
LTYPE
  2
PHANTOMX2
 70
   64
  3
-------------- - - -------------
 72
   65
 73
    6
 40
45
 49
40
 49
-1
 49
1
 49
-1
 49
1
 49
-1
  0
LTYPE
  2
PHANTOM2_25
 70
   64
  3
-----------  --  --  -----------
 72
   65
 73
    6
 40
15
 49
10
 49
-1
 49
1
 49
-1
 49
1
 49
-1
  0
LTYPE
  2
ACAD_ISO06W100
 70
   64
  3
------------- - - - ------------
 72
   65
 73
    8
 40
47
 49
40
 49
-1
 49
1
 49
-1
 49
1
 49
-1
 49
1
 49
-1
  0
LTYPE
  2
ACAD_ISO14W100
 70
   64
  3
------------- - - - ------------
 72
   65
 73
    8
 40
27
 49
20
 49
-1
 49
1
 49
-1
 49
1
 49
-1
 49
1
 49
-1
  0
LTYPE
  2
ACAD_ISO11W100
 70
   64
  3
------- -------------- - -------
 72
   65
 73
    6
 40
44
 49
20
 49
-1
 49
20
 49
-1
 49
1
 49
-1
  0
LTYPE
  2
ACAD_ISO13W100
 70
   64
  3
------- ------------- - - ------
 72
   65
 73
    8
 40
46
 49
20
 49
-1
 49
20
 49
-1
 49
1
 49
-1
 49
1
 49
-1
  0
LTYPE
  2
HIDDEN
 70
   64
  3
------     -----------     -----
 72
   65
 73
    2
 40
1.5
 49
1
 49
-0.5
  0
ENDTAB
  0
TABLE
  2
STYLE
  5
3
100
AcDbSymbolTable
 70
     1
  0
STYLE
  5
10
100
AcDbSymbolTableRecord
100
AcDbTextStyleTableRecord
  2
STANDARD
 70
     0
 40
0.0
 41
1.0
 50
0.0
 71
     0
 42
0.2
  3
txt
  4
bigfont.shx
  0
STYLE
  5
26
100
AcDbSymbolTableRecord
100
AcDbTextStyleTableRecord
  2
TATEGAKI
 70
    68
 40
0.0
 41
1.0
 50
0.0
 71
     0
 42
1.0
  3
txt
  4
bigfont.shx
  0
ENDTAB
  0
TABLE
  2
LAYER
 70
   13
  0
LAYER
  2
_0-0_0
 70
   64
 62
    7
  6
CONTINUOUS
  0
LAYER
  2
_0-1_図面枠
 70
   64
 62
    7
  6
CONTINUOUS
  0
LAYER
  2
_0-3_躯体
 70
   64
 62
    7
  6
CONTINUOUS
  0
LAYER
  2
_0-4_止水補助板
 70
   64
 62
    7
  6
CONTINUOUS
  0
LAYER
  2
_0-5_フレ_ム
 70
   64
 62
    7
  6
CONTINUOUS
  0
LAYER
  2
_0-6_センタ_プレ_ト
 70
   64
 62
    7
  6
CONTINUOUS
  0
LAYER
  2
_0-7_サイド
 70
   64
 62
    7
  6
CONTINUOUS
  0
LAYER
  2
_0-8_小物
 70
   64
 62
    7
  6
CONTINUOUS
  0
LAYER
  2
_0-9_その他
 70
   64
 62
    7
  6
CONTINUOUS
  0
LAYER
  2
_0-a_寸法
 70
   64
 62
    7
  6
CONTINUOUS
  0
LAYER
  2
_0-b_部材名称
 70
   64
 62
    7
  6
CONTINUOUS
  0
LAYER
  2
_0-c_レイヤ8
 70
   64
 62
    7
  6
CONTINUOUS
  0
LAYER
  2
ADD_LINE
 70
   64
 62
    7
  6
CONTINUOUS
  0
ENDTAB
  0
ENDSEC
  0
SECTION
  2
BLOCKS
  0
ENDSEC
  0
SECTION
  2
ENTITIES
  0
LINE
  8
_0-1_図面枠
  6
CONTINUOUS
 62
    7
 10
418.03947444195001
 20
388.41777521099999
 11
1618.03947444195
 21
388.41777521099999
  0
LINE
  8
_0-1_図面枠
  6
CONTINUOUS
 62
    7
 10
1618.03947444195
 20
1174.4177752109999
 11
418.03947444195001
 21
1174.4177752109999
  0
LINE
  8
_0-1_図面枠
  6
CONTINUOUS
 62
    7
 10
418.03947444195001
 20
1174.4177752109999
 11
418.03947444195001
 21
388.41777521099999
  0
LINE
  8
_0-1_図面枠
  6
CONTINUOUS
 62
    7
 10
1018.03947444195
 20
1174.4177752109999
 11
1018.03947444195
 21
388.41777521099999
  0
LINE
  8
_0-1_図面枠
  6
CONTINUOUS
 62
    7
 10
1618.03947444195
 20
388.41777521099999
 11
1618.03947444195
 21
1174.4177752109999
  0
LINE
  8
_0-a_寸法
  6
CONTINUOUS
 62
    7
 10
756.91346229624992
 20
940.6074937899001
 11
741.63259929624996
 21
914.14026078989991
  0
CIRCLE
  8
_0-a_寸法
  6
CONTINUOUS
 62
    7
 10
738.63259929624996
 20
908.94410778989993
 40
6
  0
CIRCLE
  8
_0-a_寸法
  6
CONTINUOUS
 62
    7
 10
756.91346229624992
 20
940.6074937899001
 40
0.5999999999999999
  0
LINE
  8
_0-a_寸法
  6
CONTINUOUS
 62
    7
 10
705.49565829624999
 20
887.9950027898999
 11
710.20191729625003
 21
879.84352278990002
  0
CIRCLE
  8
_0-a_寸法
  6
CONTINUOUS
 62
    7
 10
713.20191729625003
 20
874.64736978990004
 40
6
  0
CIRCLE
  8
_0-a_寸法
  6
CONTINUOUS
 62
    7
 10
705.49565829624999
 20
887.9950027898999
 40
0.5999999999999999
  0
LINE
  8
_0-a_寸法
  6
CONTINUOUS
 62
    7
 10
611.91345729625004
 20
1003.7219167899001
 11
613.41346929625001
 21
1003.7219167899001
  0
LINE
  8
_0-a_寸法
  6
CONTINUOUS
 62
    7
 10
613.41346929625001
 20
961.49728278989994
 11
613.41346929625001
 21
1006.7219167899
  0
LINE
  8
_0-a_寸法
  6
CONTINUOUS
 62
    7
 10
611.91345729625004
 20
1003.7219167899001
 11
608.91345729625004
 21
1002.9719167899
  0
LINE
  8
_0-a_寸法
  6
CONTINUOUS
 62
    7
 10
611.91345729625004
 20
1003.7219167899001
 11
608.91345729625004
 21
1004.4719167899001
  0
LINE
  8
_0-a_寸法
  6
CONTINUOUS
 62
    7
 10
611.91345729625004
 20
1003.7219167899001
 11
602.91345729625004
 21
1003.7219167899001
  0
LINE
  8
_0-a_寸法
  6
CONTINUOUS
 62
    7
 10
613.41346929625001
 20
1003.7219167899001
 11
675.41346729625002
 21
1003.7219167899001
  0
LINE
  8
_0-a_寸法
  6
CONTINUOUS
 62
    7
 10
675.41346729625002
 20
960.79763178989992
 11
675.41346729625002
 21
1006.7219167899
  0
LINE
  8
_0-a_寸法
  6
CONTINUOUS
 62
    7
 10
613.41346929625001
 20
1003.7219167899001
 11
616.41346929625001
 21
1004.4719167899001
  0
LINE
  8
_0-a_寸法
  6
CONTINUOUS
 62
    7
 10
613.41346929625001
 20
1003.7219167899001
 11
616.41346929625001
 21
1002.9719167899
  0
LINE
  8
_0-a_寸法
  6
CONTINUOUS
 62
    7
 10
675.41346729625002
 20
1003.7219167899001
 11
672.41346729625002
 21
1002.9719167899
  0
LINE
  8
_0-a_寸法
  6
CONTINUOUS
 62
    7
 10
675.41346729625002
 20
1003.7219167899001
 11
672.41346729625002
 21
1004.4719167899001
  0
LINE
  8
_0-a_寸法
  6
CONTINUOUS
 62
    7
 10
675.41346729625002
 20
1003.7219167899001
 11
718.41346029625004
 21
1003.7219167899001
  0
LINE
  8
_0-a_寸法
  6
CONTINUOUS
 62
    7
 10
718.41346029625004
 20
960.79763178989992
 11
718.41346029625004
 21
1006.7219167899
  0
LINE
  8
_0-a_寸法
  6
CONTINUOUS
 62
    7
 10
675.41346729625002
 20
1003.7219167899001
 11
678.41346729625002
 21
1004.4719167899001
  0
LINE
  8
_0-a_寸法
  6
CONTINUOUS
 62
    7
 10
675.41346729625002
 20
1003.7219167899001
 11
678.41346729625002
 21
1002.9719167899
  0
LINE
  8
_0-a_寸法
  6
CONTINUOUS
 62
    7
 10
718.41346029625004
 20
1003.7219167899001
 11
715.41346029625004
 21
1002.9719167899
  0
LINE
  8
_0-a_寸法
  6
CONTINUOUS
 62
    7
 10
718.41346029625004
 20
1003.7219167899001
 11
715.41346029625004
 21
1004.4719167899001
  0
LINE
  8
_0-a_寸法
  6
CONTINUOUS
 62
    7
 10
718.41346029625004
 20
1003.7219167899001
 11
780.41345829625004
 21
1003.7219167899001
  0
LINE
  8
_0-a_寸法
  6
CONTINUOUS
 62
    7
 10
780.41345829625004
 20
961.49728278989994
 11
780.41345829625004
 21
1006.7219167899
  0
LINE
  8
_0-a_寸法
  6
CONTINUOUS
 62
    7
 10
718.41346029625004
 20
1003.7219167899001
 11
721.41346029624992
 21
1004.4719167899001
  0
LINE
  8
_0-a_寸法
  6
CONTINUOUS
 62
    7
 10
718.41346029625004
 20
1003.7219167899001
 11
721.41346029624992
 21
1002.9719167899
  0
LINE
  8
_0-a_寸法
  6
CONTINUOUS
 62
    7
 10
780.41345829625004
 20
1003.7219167899001
 11
777.41345829625004
 21
1002.9719167899
  0
LINE
  8
_0-a_寸法
  6
CONTINUOUS
 62
    7
 10
780.41345829625004
 20
1003.7219167899001
 11
777.41345829625004
 21
1004.4719167899001
  0
LINE
  8
_0-a_寸法
  6
CONTINUOUS
 62
    7
 10
780.41345829625004
 20
1003.7219167899001
 11
781.91346729625002
 21
1003.7219167899001
  0
LINE
  8
_0-a_寸法
  6
CONTINUOUS
 62
    7
 10
781.91346729625002
 20
1003.7219167899001
 11
784.91346729625002
 21
1004.4719167899001
  0
LINE
  8
_0-a_寸法
  6
CONTINUOUS
 62
    7
 10
781.91346729625002
 20
1003.7219167899001
 11
784.91346729625002
 21
1002.9719167899
  0
LINE
  8
_0-a_寸法
  6
CONTINUOUS
 62
    7
 10
781.91346729625002
 20
1003.7219167899001
 11
790.91346729625002
 21
1003.7219167899001
  0
LINE
  8
_0-a_寸法
  6
CONTINUOUS
 62
    7
 10
611.91345729625004
 20
1017.2235637899
 11
781.91346729625002
 21
1017.2235637899
  0
LINE
  8
_0-a_寸法
  6
CONTINUOUS
 62
    7
 10
611.91345729625004
 20
960.49728378989994
 11
611.91345729625004
 21
1020.2235637899
  0
LINE
  8
_0-a_寸法
  6
CONTINUOUS
 62
    7
 10
781.91346729625002
 20
960.49728378989994
 11
781.91346729625002
 21
1020.2235637899
  0
LINE
  8
_0-a_寸法
  6
CONTINUOUS
 62
    7
 10
611.91345729625004
 20
1017.2235637899
 11
614.91345729625004
 21
1017.9735637899
  0
LINE
  8
_0-a_寸法
  6
CONTINUOUS
 62
    7
 10
611.91345729625004
 20
1017.2235637899
 11
614.91345729625004
 21
1016.4735637899
  0
LINE
  8
_0-a_寸法
  6
CONTINUOUS
 62
    7
 10
781.91346729625002
 20
1017.2235637899
 11
778.91346729625002
 21
1016.4735637899
  0
LINE
  8
_0-a_寸法
  6
CONTINUOUS
 62
    7
 10
781.91346729625002
 20
1017.2235637899
 11
778.91346729625002
 21
1017.9735637899
  0
LINE
  8
_0-a_寸法
  6
CONTINUOUS
 62
    7
 10
583.14441729625003
 20
960.29726478990005
 11
583.14441729625003
 21
934.29727878989991
  0
LINE
  8
_0-a_寸法
  6
CONTINUOUS
 62
    7
 10
591.41347029625001
 20
960.29726478990005
 11
582.14441829625002
 21
960.29726478990005
  0
LINE
  8
_0-a_寸法
  6
CONTINUOUS
 62
    7
 10
591.41345829625004
 20
934.29727878989991
 11
582.14441829625002
 21
934.29727878989991
  0
LINE
  8
_0-a_寸法
  6
CONTINUOUS
 62
    7
 10
583.14441729625003
 20
960.29726478990005
 11
583.89441729625003
 21
957.29726478990005
  0
LINE
  8
_0-a_寸法
  6
CONTINUOUS
 62
    7
 10
583.14441729625003
 20
960.29726478990005
 11
582.39441729625003
 21
957.29726478990005
  0
LINE
  8
_0-a_寸法
  6
CONTINUOUS
 62
    7
 10
583.14441729625003
 20
934.29727878989991
 11
582.39441729625003
 21
937.29727878989991
  0
LINE
  8
_0-a_寸法
  6
CONTINUOUS
 62
    7
 10
583.14441729625003
 20
934.29727878989991
 11
583.89441729625003
 21
937.29727878989991
  0
LINE
  8
_0-a_寸法
  6
CONTINUOUS
 62
    7
 10
583.14441729625003
 20
934.29727878989991
 11
583.14441729625003
 21
924.29727678989991
  0
LINE
  8
_0-a_寸法
  6
CONTINUOUS
 62
    7
 10
605.41325829624998
 20
924.29727678989991
 11
582.14441829625002
 21
924.29727678989991
  0
LINE
  8
_0-a_寸法
  6
CONTINUOUS
 62
    7
 10
583.14441729625003
 20
934.29727878989991
 11
583.89441729625003
 21
931.29727878990002
  0
LINE
  8
_0-a_寸法
  6
CONTINUOUS
 62
    7
 10
583.14441729625003
 20
934.29727878989991
 11
582.39441729625003
 21
931.29727878990002
  0
LINE
  8
_0-a_寸法
  6
CONTINUOUS
 62
    7
 10
583.14441729625003
 20
924.29727678989991
 11
582.39441729625003
 21
927.29727678990002
  0
LINE
  8
_0-a_寸法
  6
CONTINUOUS
 62
    7
 10
583.14441729625003
 20
924.29727678989991
 11
583.89441729625003
 21
927.29727678990002
  0
LINE
  8
_0-a_寸法
  6
CONTINUOUS
 62
    7
 10
636.91346229625003
 20
855.1123987899
 11
671.91346329625003
 21
855.1123987899
  0
LINE
  8
_0-a_寸法
  6
CONTINUOUS
 62
    7
 10
636.91346229625003
 20
890.78569278990005
 11
636.91346229625003
 21
852.1123987899
  0
LINE
  8
_0-a_寸法
  6
CONTINUOUS
 62
    7
 10
671.91346329625003
 20
874.79727678990002
 11
671.91346329625003
 21
852.1123987899
  0
LINE
  8
_0-a_寸法
  6
CONTINUOUS
 62
    7
 10
636.91346229625003
 20
855.1123987899
 11
639.91346229625003
 21
855.8623987899
  0
LINE
  8
_0-a_寸法
  6
CONTINUOUS
 62
    7
 10
636.91346229625003
 20
855.1123987899
 11
639.91346229625003
 21
854.3623987899
  0
LINE
  8
_0-a_寸法
  6
CONTINUOUS
 62
    7
 10
671.91346329625003
 20
855.1123987899
 11
668.91346329625003
 21
854.3623987899
  0
LINE
  8
_0-a_寸法
  6
CONTINUOUS
 62
    7
 10
671.91346329625003
 20
855.1123987899
 11
668.91346329625003
 21
855.8623987899
  0
LINE
  8
_0-a_寸法
  6
CONTINUOUS
 62
    7
 10
671.91346329625003
 20
855.1123987899
 11
721.91346429625003
 21
855.1123987899
  0
LINE
  8
_0-a_寸法
  6
CONTINUOUS
 62
    7
 10
721.91346429625003
 20
874.79727678990002
 11
721.91346429625003
 21
852.1123987899
  0
LINE
  8
_0-a_寸法
  6
CONTINUOUS
 62
    7
 10
671.91346329625003
 20
855.1123987899
 11
674.91346329625003
 21
855.8623987899
  0
LINE
  8
_0-a_寸法
  6
CONTINUOUS
 62
    7
 10
671.91346329625003
 20
855.1123987899
 11
674.91346329625003
 21
854.3623987899
  0
LINE
  8
_0-a_寸法
  6
CONTINUOUS
 62
    7
 10
721.91346429625003
 20
855.1123987899
 11
718.91346429625003
 21
854.3623987899
  0
LINE
  8
_0-a_寸法
  6
CONTINUOUS
 62
    7
 10
721.91346429625003
 20
855.1123987899
 11
718.91346429625003
 21
855.8623987899
  0
LINE
  8
_0-a_寸法
  6
CONTINUOUS
 62
    7
 10
721.91346429625003
 20
855.1123987899
 11
756.91346229624992
 21
855.1123987899
  0
LINE
  8
_0-a_寸法
  6
CONTINUOUS
 62
    7
 10
756.91346229624992
 20
890.78569278990005
 11
756.91346229624992
 21
852.1123987899
  0
LINE
  8
_0-a_寸法
  6
CONTINUOUS
 62
    7
 10
721.91346429625003
 20
855.1123987899
 11
724.91346429624991
 21
855.8623987899
  0
LINE
  8
_0-a_寸法
  6
CONTINUOUS
 62
    7
 10
721.91346429625003
 20
855.1123987899
 11
724.91346429624991
 21
854.3623987899
  0
LINE
  8
_0-a_寸法
  6
CONTINUOUS
 62
    7
 10
756.91346229624992
 20
855.1123987899
 11
753.91346229625003
 21
854.3623987899
  0
LINE
  8
_0-a_寸法
  6
CONTINUOUS
 62
    7
 10
756.91346229624992
 20
855.1123987899
 11
753.91346229625003
 21
855.8623987899
  0
LINE
  8
_0-a_寸法
  6
CONTINUOUS
 62
    7
 10
1275.6958026073501
 20
1018.9016528012
 11
1277.1958116073502
 21
1018.9016528012
  0
LINE
  8
_0-a_寸法
  6
CONTINUOUS
 62
    7
 10
1277.1958116073502
 20
955.56167780120006
 11
1277.1958116073502
 21
1021.9016528012
  0
LINE
  8
_0-a_寸法
  6
CONTINUOUS
 62
    7
 10
1275.6958026073501
 20
1018.9016528012
 11
1272.6958026073501
 21
1018.1516528012
  0
LINE
  8
_0-a_寸法
  6
CONTINUOUS
 62
    7
 10
1275.6958026073501
 20
1018.9016528012
 11
1272.6958026073501
 21
1019.6516528012
  0
LINE
  8
_0-a_寸法
  6
CONTINUOUS
 62
    7
 10
1277.1958116073502
 20
1018.9016528012
 11
1339.1958096073499
 21
1018.9016528012
  0
LINE
  8
_0-a_寸法
  6
CONTINUOUS
 62
    7
 10
1339.1958096073499
 20
954.86200880120009
 11
1339.1958096073499
 21
1021.9016528012
  0
LINE
  8
_0-a_寸法
  6
CONTINUOUS
 62
    7
 10
1277.1958116073502
 20
1018.9016528012
 11
1280.1958116073502
 21
1019.6516528012
  0
LINE
  8
_0-a_寸法
  6
CONTINUOUS
 62
    7
 10
1277.1958116073502
 20
1018.9016528012
 11
1280.1958116073502
 21
1018.1516528012
  0
LINE
  8
_0-a_寸法
  6
CONTINUOUS
 62
    7
 10
1339.1958096073499
 20
1018.9016528012
 11
1336.1958096073499
 21
1018.1516528012
  0
LINE
  8
_0-a_寸法
  6
CONTINUOUS
 62
    7
 10
1339.1958096073499
 20
1018.9016528012
 11
1336.1958096073499
 21
1019.6516528012
  0
LINE
  8
_0-a_寸法
  6
CONTINUOUS
 62
    7
 10
1339.1958096073499
 20
1018.9016528012
 11
1365.69580860735
 21
1018.9016528012
  0
LINE
  8
_0-a_寸法
  6
CONTINUOUS
 62
    7
 10
1365.69580860735
 20
1008.0616718012
 11
1365.69580860735
 21
1021.9016528012
  0
LINE
  8
_0-a_寸法
  6
CONTINUOUS
 62
    7
 10
1339.1958096073499
 20
1018.9016528012
 11
1342.1958096073502
 21
1019.6516528012
  0
LINE
  8
_0-a_寸法
  6
CONTINUOUS
 62
    7
 10
1339.1958096073499
 20
1018.9016528012
 11
1342.1958096073502
 21
1018.1516528012
  0
LINE
  8
_0-a_寸法
  6
CONTINUOUS
 62
    7
 10
1365.69580860735
 20
1018.9016528012
 11
1362.69580860735
 21
1018.1516528012
  0
LINE
  8
_0-a_寸法
  6
CONTINUOUS
 62
    7
 10
1365.69580860735
 20
1018.9016528012
 11
1362.69580860735
 21
1019.6516528012
  0
LINE
  8
_0-a_寸法
  6
CONTINUOUS
 62
    7
 10
1365.69580860735
 20
1018.9016528012
 11
1385.6958066073501
 21
1018.9016528012
  0
LINE
  8
_0-a_寸法
  6
CONTINUOUS
 62
    7
 10
1365.69580860735
 20
1018.9016528012
 11
1368.69580860735
 21
1019.6516528012
  0
LINE
  8
_0-a_寸法
  6
CONTINUOUS
 62
    7
 10
1365.69580860735
 20
1018.9016528012
 11
1368.69580860735
 21
1018.1516528012
  0
LINE
  8
_0-a_寸法
  6
CONTINUOUS
 62
    7
 10
1385.6958066073501
 20
1018.9016528012
 11
1382.6958066073503
 21
1018.1516528012
  0
LINE
  8
_0-a_寸法
  6
CONTINUOUS
 62
    7
 10
1385.6958066073501
 20
1018.9016528012
 11
1382.6958066073503
 21
1019.6516528012
  0
LINE
  8
_0-a_寸法
  6
CONTINUOUS
 62
    7
 10
1365.69580860735
 20
978.08022080119997
 11
1358.94193860735
 21
989.77826780119995
  0
CIRCLE
  8
_0-a_寸法
  6
CONTINUOUS
 62
    7
 10
1355.94193860735
 20
994.97442080119993
 40
6
  0
CIRCLE
  8
_0-a_寸法
  6
CONTINUOUS
 62
    7
 10
1365.69580860735
 20
978.08022080119997
 40
0.5999999999999999
  0
LINE
  8
_0-a_寸法
  6
CONTINUOUS
 62
    7
 10
1380.16011960735
 20
977.36167280120003
 11
1395.4292646069503
 21
1003.8086078012
  0
CIRCLE
  8
_0-a_寸法
  6
CONTINUOUS
 62
    7
 10
1398.42926460695
 20
1009.0047608012001
 40
6
  0
CIRCLE
  8
_0-a_寸法
  6
CONTINUOUS
 62
    7
 10
1380.16011960735
 20
977.36167280120003
 40
0.5999999999999999
  0
LINE
  8
_0-a_寸法
  6
CONTINUOUS
 62
    7
 10
1300.6958076073499
 20
934.56868880119998
 11
1284.0662196073501
 21
905.76539780120004
  0
CIRCLE
  8
_0-a_寸法
  6
CONTINUOUS
 62
    7
 10
1281.0662196073499
 20
900.56924480120006
 40
6
  0
CIRCLE
  8
_0-a_寸法
  6
CONTINUOUS
 62
    7
 10
1300.6958076073499
 20
934.56868880119998
 40
0.5999999999999999
  0
LINE
  8
_0-a_寸法
  6
CONTINUOUS
 62
    7
 10
1307.3641296073502
 20
932.17929980120005
 11
1319.0976846073499
 21
911.8561898012
  0
CIRCLE
  8
_0-a_寸法
  6
CONTINUOUS
 62
    7
 10
1322.0976846073499
 20
906.66003680120002
 40
6
  0
CIRCLE
  8
_0-a_寸法
  6
CONTINUOUS
 62
    7
 10
1307.3641296073502
 20
932.17929980120005
 40
0.5999999999999999
  0
LINE
  8
_0-a_寸法
  6
CONTINUOUS
 62
    7
 10
1335.69580860735
 20
869.36167280120003
 11
1335.69580860735
 21
928.36167380120003
  0
LINE
  8
_0-a_寸法
  6
CONTINUOUS
 62
    7
 10
1275.6958026073501
 20
1032.9752048012001
 11
1385.6958066073501
 21
1032.9752048012001
  0
LINE
  8
_0-a_寸法
  6
CONTINUOUS
 62
    7
 10
1275.6958026073501
 20
954.86166080120006
 11
1275.6958026073501
 21
1035.9752048011999
  0
LINE
  8
_0-a_寸法
  6
CONTINUOUS
 62
    7
 10
1385.6958066073501
 20
1017.7512908012
 11
1385.6958066073501
 21
1035.9752048011999
  0
LINE
  8
_0-a_寸法
  6
CONTINUOUS
 62
    7
 10
1275.6958026073501
 20
1032.9752048012001
 11
1278.6958026073501
 21
1033.7252048011999
  0
LINE
  8
_0-a_寸法
  6
CONTINUOUS
 62
    7
 10
1275.6958026073501
 20
1032.9752048012001
 11
1278.6958026073501
 21
1032.2252048011999
  0
LINE
  8
_0-a_寸法
  6
CONTINUOUS
 62
    7
 10
1385.6958066073501
 20
1032.9752048012001
 11
1382.6958066073503
 21
1032.2252048011999
  0
LINE
  8
_0-a_寸法
  6
CONTINUOUS
 62
    7
 10
1385.6958066073501
 20
1032.9752048012001
 11
1382.6958066073503
 21
1033.7252048011999
  0
LINE
  8
_0-a_寸法
  6
CONTINUOUS
 62
    7
 10
1246.8257526073498
 20
1008.7616738012
 11
1246.8257526073498
 21
954.36165980119995
  0
LINE
  8
_0-a_寸法
  6
CONTINUOUS
 62
    7
 10
1367.3958066073499
 20
1008.7616738012
 11
1245.82575360735
 21
1008.7616738012
  0
LINE
  8
_0-a_寸法
  6
CONTINUOUS
 62
    7
 10
1255.1958156073501
 20
954.36165980119995
 11
1245.82575360735
 21
954.36165980119995
  0
LINE
  8
_0-a_寸法
  6
CONTINUOUS
 62
    7
 10
1246.8257526073498
 20
1008.7616738012
 11
1247.5757526073498
 21
1005.7616738012
  0
LINE
  8
_0-a_寸法
  6
CONTINUOUS
 62
    7
 10
1246.8257526073498
 20
1008.7616738012
 11
1246.0757526073498
 21
1005.7616738012
  0
LINE
  8
_0-a_寸法
  6
CONTINUOUS
 62
    7
 10
1246.8257526073498
 20
954.36165980119995
 11
1246.0757526073498
 21
957.36165980120006
  0
LINE
  8
_0-a_寸法
  6
CONTINUOUS
 62
    7
 10
1246.8257526073498
 20
954.36165980119995
 11
1247.5757526073498
 21
957.36165980120006
  0
LINE
  8
_0-a_寸法
  6
CONTINUOUS
 62
    7
 10
1246.8257526073498
 20
954.36165980119995
 11
1246.8257526073498
 21
928.36167380120003
  0
LINE
  8
_0-a_寸法
  6
CONTINUOUS
 62
    7
 10
1255.1958036073502
 20
928.36167380120003
 11
1245.82575360735
 21
928.36167380120003
  0
LINE
  8
_0-a_寸法
  6
CONTINUOUS
 62
    7
 10
1246.8257526073498
 20
954.36165980119995
 11
1247.5757526073498
 21
951.36165980119995
  0
LINE
  8
_0-a_寸法
  6
CONTINUOUS
 62
    7
 10
1246.8257526073498
 20
954.36165980119995
 11
1246.0757526073498
 21
951.36165980119995
  0
LINE
  8
_0-a_寸法
  6
CONTINUOUS
 62
    7
 10
1246.8257526073498
 20
928.36167380120003
 11
1246.0757526073498
 21
931.36167380120003
  0
LINE
  8
_0-a_寸法
  6
CONTINUOUS
 62
    7
 10
1246.8257526073498
 20
928.36167380120003
 11
1247.5757526073498
 21
931.36167380120003
  0
LINE
  8
_0-a_寸法
  6
CONTINUOUS
 62
    7
 10
1246.8257526073498
 20
928.36167380120003
 11
1246.8257526073498
 21
918.36167180120003
  0
LINE
  8
_0-a_寸法
  6
CONTINUOUS
 62
    7
 10
1269.1956006073499
 20
918.36167180120003
 11
1245.82575360735
 21
918.36167180120003
  0
LINE
  8
_0-a_寸法
  6
CONTINUOUS
 62
    7
 10
1246.8257526073498
 20
928.36167380120003
 11
1247.5757526073498
 21
925.36167380119991
  0
LINE
  8
_0-a_寸法
  6
CONTINUOUS
 62
    7
 10
1246.8257526073498
 20
928.36167380120003
 11
1246.0757526073498
 21
925.36167380119991
  0
LINE
  8
_0-a_寸法
  6
CONTINUOUS
 62
    7
 10
1246.8257526073498
 20
918.36167180120003
 11
1246.0757526073498
 21
921.36167180119992
  0
LINE
  8
_0-a_寸法
  6
CONTINUOUS
 62
    7
 10
1246.8257526073498
 20
918.36167180120003
 11
1247.5757526073498
 21
921.36167180119992
  0
CIRCLE
  8
_0-a_寸法
  6
CONTINUOUS
 62
    7
 10
772.41349629625006
 20
944.79728878989988
 40
0.5999999999999999
  0
LINE
  8
_0-8_小物
  6
CONTINUOUS
 62
    7
 10
627.91346229625003
 20
938.79730278989996
 11
627.91346229625003
 21
937.29730278990007
  0
LINE
  8
_0-8_小物
  6
CONTINUOUS
 62
    7
 10
627.91346229625003
 20
938.79730278989996
 11
645.91346229625003
 21
938.79730278989996
  0
LINE
  8
_0-8_小物
  6
CONTINUOUS
 62
    7
 10
645.91346229625003
 20
938.79730278989996
 11
645.91346229625003
 21
937.29730278990007
  0
LINE
  8
_0-8_小物
  6
CONTINUOUS
 62
    7
 10
643.23206529624997
 20
919.15487778989996
 11
644.22442029625006
 21
925.95849978990009
  0
ARC
  8
_0-8_小物
  6
CONTINUOUS
 62
    7
 10
643.82860629624997
 20
926.01623178989996
 40
0.3999989999999999
 50
351.70153399995502
 51
81.869897999990002
  0
LINE
  8
_0-8_小物
  6
CONTINUOUS
 62
    7
 10
643.88517729624994
 20
926.41221378989997
 11
643.68835029625006
 21
926.44032978990003
  0
ARC
  8
_0-8_小物
  6
CONTINUOUS
 62
    7
 10
643.63178229624987
 20
926.04435078989991
 40
0.3999989999999999
 50
81.869897999990002
 51
171.86989800000001
  0
LINE
  8
_0-8_小物
  6
CONTINUOUS
 62
    7
 10
643.23580329624997
 20
926.10091878989988
 11
642.29237229625005
 21
919.4968987899
  0
LINE
  8
_0-8_小物
  6
CONTINUOUS
 62
    7
 10
643.23206529624997
 20
919.15487778989996
 11
644.22442029625006
 21
925.95849978990009
  0
ARC
  8
_0-8_小物
  6
CONTINUOUS
 62
    7
 10
643.82860629624997
 20
926.01623178989996
 40
0.3999989999999999
 50
351.70153399995502
 51
81.869897999990002
  0
LINE
  8
_0-8_小物
  6
CONTINUOUS
 62
    7
 10
643.88517729624994
 20
926.41221378989997
 11
643.68835029625006
 21
926.44032978990003
  0
ARC
  8
_0-8_小物
  6
CONTINUOUS
 62
    7
 10
643.63178229624987
 20
926.04435078989991
 40
0.3999989999999999
 50
81.869897999990002
 51
171.86989800000001
  0
LINE
  8
_0-8_小物
  6
CONTINUOUS
 62
    7
 10
643.23580329624997
 20
926.10091878989988
 11
642.29237229625005
 21
919.4968987899
  0
LINE
  8
_0-8_小物
  6
CONTINUOUS
 62
    7
 10
630.59486229624997
 20
919.15487778989996
 11
629.60250729625
 21
925.95849978990009
  0
ARC
  8
_0-8_小物
  6
CONTINUOUS
 62
    7
 10
629.99831829624998
 20
926.01623178989996
 40
0.3999989999999999
 50
98.130102000009998
 51
188.29846599999999
  0
LINE
  8
_0-8_小物
  6
CONTINUOUS
 62
    7
 10
629.94175029625001
 20
926.41221378989997
 11
630.13857429625
 21
926.44032978990003
  0
ARC
  8
_0-8_小物
  6
CONTINUOUS
 62
    7
 10
630.19514529624996
 20
926.04435078989991
 40
0.3999989999999999
 50
8.1301019999809991
 51
98.130101999990003
  0
LINE
  8
_0-8_小物
  6
CONTINUOUS
 62
    7
 10
630.59112429624997
 20
926.10091878989988
 11
631.53455529625001
 21
919.4968987899
  0
LINE
  8
_0-8_小物
  6
CONTINUOUS
 62
    7
 10
632.91346329625003
 20
922.29727878989991
 11
632.91346329625003
 21
926.29727778990002
  0
LINE
  8
_0-8_小物
  6
CONTINUOUS
 62
    7
 10
634.89571929625004
 20
897.33702078990007
 11
631.40051829624997
 21
897.52019778990007
  0
LINE
  8
_0-8_小物
  6
CONTINUOUS
 62
    7
 10
631.40051829624997
 20
897.52019778990007
 11
633.29310429625002
 21
895.41826578990003
  0
LINE
  8
_0-8_小物
  6
CONTINUOUS
 62
    7
 10
633.29310429625002
 20
895.41826578990003
 11
634.79104929624998
 21
895.33976178989997
  0
LINE
  8
_0-8_小物
  6
CONTINUOUS
 62
    7
 10
634.79104929624998
 20
895.33976178989997
 11
636.41346429625003
 21
926.29727778990002
  0
LINE
  8
_0-8_小物
  6
CONTINUOUS
 62
    7
 10
640.91346429625003
 20
922.29727878989991
 11
640.91346429625003
 21
926.29727778990002
  0
LINE
  8
_0-8_小物
  6
CONTINUOUS
 62
    7
 10
638.93120529625003
 20
897.33702078990007
 11
642.42640929624997
 21
897.52019778990007
  0
LINE
  8
_0-8_小物
  6
CONTINUOUS
 62
    7
 10
642.42640929624997
 20
897.52019778990007
 11
640.53382329625015
 21
895.41826578990003
  0
LINE
  8
_0-8_小物
  6
CONTINUOUS
 62
    7
 10
640.53382329625015
 20
895.41826578990003
 11
639.03587829625008
 21
895.33976178989997
  0
LINE
  8
_0-8_小物
  6
CONTINUOUS
 62
    7
 10
639.03587829625008
 20
895.33976178989997
 11
637.41346329625003
 21
926.29727778990002
  0
LINE
  8
_0-8_小物
  6
CONTINUOUS
 62
    7
 10
632.29022829625001
 20
914.49689778989989
 11
630.59486229624997
 21
919.15487778989996
  0
LINE
  8
_0-8_小物
  6
CONTINUOUS
 62
    7
 10
641.53669929624994
 20
914.49689778989989
 11
643.23206529624997
 21
919.15487778989996
  0
LINE
  8
_0-8_小物
  6
CONTINUOUS
 62
    7
 10
632.91346329625003
 20
922.29727878989991
 11
634.65383829625
 21
921.38263278989996
  0
LINE
  8
_0-8_小物
  6
CONTINUOUS
 62
    7
 10
635.04401829624999
 20
900.16672278989995
 11
636.91346229625003
 21
898.29727878990002
  0
LINE
  8
_0-8_小物
  6
CONTINUOUS
 62
    7
 10
634.65383829625
 20
921.38263278989996
 11
634.54916829624995
 21
919.38537378990009
  0
LINE
  8
_0-8_小物
  6
CONTINUOUS
 62
    7
 10
634.54916829624995
 20
919.38537378990009
 11
632.55190929624996
 21
919.49004678989991
  0
LINE
  8
_0-8_小物
  6
CONTINUOUS
 62
    7
 10
632.55190929624996
 20
919.49004678989991
 11
632.44723629625003
 21
917.49278778990004
  0
LINE
  8
_0-8_小物
  6
CONTINUOUS
 62
    7
 10
632.44723629625003
 20
917.49278778990004
 11
634.39216029625004
 21
916.38948678990005
  0
LINE
  8
_0-8_小物
  6
CONTINUOUS
 62
    7
 10
634.39216029625004
 20
916.38948678990005
 11
634.28748729624999
 21
914.39222778990006
  0
LINE
  8
_0-8_小物
  6
CONTINUOUS
 62
    7
 10
634.28748729624999
 20
914.39222778990006
 11
632.29022829625001
 21
914.49689778989989
  0
LINE
  8
_0-8_小物
  6
CONTINUOUS
 62
    7
 10
632.29022829625001
 20
914.49689778989989
 11
632.18555529624996
 21
912.49963878990002
  0
LINE
  8
_0-8_小物
  6
CONTINUOUS
 62
    7
 10
632.18555529624996
 20
912.49963878990002
 11
634.13047929624997
 21
911.39633778990003
  0
LINE
  8
_0-8_小物
  6
CONTINUOUS
 62
    7
 10
634.13047929624997
 20
911.39633778990003
 11
634.02580929625003
 21
909.39907878989993
  0
LINE
  8
_0-8_小物
  6
CONTINUOUS
 62
    7
 10
634.02580929625003
 20
909.39907878989993
 11
632.02854729625005
 21
909.50375178989998
  0
LINE
  8
_0-8_小物
  6
CONTINUOUS
 62
    7
 10
632.02854729625005
 20
909.50375178989998
 11
631.92387729625
 21
907.50649278989999
  0
LINE
  8
_0-8_小物
  6
CONTINUOUS
 62
    7
 10
631.92387729625
 20
907.50649278989999
 11
633.86880129625001
 21
906.40319178990001
  0
LINE
  8
_0-8_小物
  6
CONTINUOUS
 62
    7
 10
633.86880129625001
 20
906.40319178990001
 11
633.76412829624996
 21
904.40593278989991
  0
LINE
  8
_0-8_小物
  6
CONTINUOUS
 62
    7
 10
633.76412829624996
 20
904.40593278989991
 11
631.76686929624998
 21
904.51060278989996
  0
LINE
  8
_0-8_小物
  6
CONTINUOUS
 62
    7
 10
631.76686929624998
 20
904.51060278989996
 11
631.66219629625004
 21
902.51334378990009
  0
LINE
  8
_0-8_小物
  6
CONTINUOUS
 62
    7
 10
631.66219629625004
 20
902.51334378990009
 11
633.60712029624995
 21
901.4100427899001
  0
LINE
  8
_0-8_小物
  6
CONTINUOUS
 62
    7
 10
633.60712029624995
 20
901.4100427899001
 11
633.50244729625001
 21
899.41278378989989
  0
LINE
  8
_0-8_小物
  6
CONTINUOUS
 62
    7
 10
633.50244729625001
 20
899.41278378989989
 11
631.50518829625003
 21
899.51745678989994
  0
LINE
  8
_0-8_小物
  6
CONTINUOUS
 62
    7
 10
631.50518829625003
 20
899.51745678989994
 11
631.40051829624997
 21
897.52019778990007
  0
LINE
  8
_0-8_小物
  6
CONTINUOUS
 62
    7
 10
640.91346429625003
 20
922.29727878989991
 11
639.17308629624995
 21
921.38263278989996
  0
LINE
  8
_0-8_小物
  6
CONTINUOUS
 62
    7
 10
639.17308629624995
 20
921.38263278989996
 11
639.27775929625
 21
919.38537378990009
  0
LINE
  8
_0-8_小物
  6
CONTINUOUS
 62
    7
 10
639.27775929625
 20
919.38537378990009
 11
641.27501829624998
 21
919.49004678989991
  0
LINE
  8
_0-8_小物
  6
CONTINUOUS
 62
    7
 10
641.27501829624998
 20
919.49004678989991
 11
641.37969129625003
 21
917.49278778990004
  0
LINE
  8
_0-8_小物
  6
CONTINUOUS
 62
    7
 10
641.37969129625003
 20
917.49278778990004
 11
639.43476729625002
 21
916.38948678990005
  0
LINE
  8
_0-8_小物
  6
CONTINUOUS
 62
    7
 10
639.43476729625002
 20
916.38948678990005
 11
639.53944029624995
 21
914.39222778990006
  0
LINE
  8
_0-8_小物
  6
CONTINUOUS
 62
    7
 10
639.53944029624995
 20
914.39222778990006
 11
641.53669929624994
 21
914.49689778989989
  0
LINE
  8
_0-8_小物
  6
CONTINUOUS
 62
    7
 10
641.53669929624994
 20
914.49689778989989
 11
641.64136929624999
 21
912.49963878990002
  0
LINE
  8
_0-8_小物
  6
CONTINUOUS
 62
    7
 10
641.64136929624999
 20
912.49963878990002
 11
639.69644829624997
 21
911.39633778990003
  0
LINE
  8
_0-8_小物
  6
CONTINUOUS
 62
    7
 10
639.69644829624997
 20
911.39633778990003
 11
639.80111829625002
 21
909.39907878989993
  0
LINE
  8
_0-8_小物
  6
CONTINUOUS
 62
    7
 10
639.80111829625002
 20
909.39907878989993
 11
641.79837729625001
 21
909.50375178989998
  0
LINE
  8
_0-8_小物
  6
CONTINUOUS
 62
    7
 10
641.79837729625001
 20
909.50375178989998
 11
641.90305029624994
 21
907.50649278989999
  0
LINE
  8
_0-8_小物
  6
CONTINUOUS
 62
    7
 10
641.90305029624994
 20
907.50649278989999
 11
639.95812629625004
 21
906.40319178990001
  0
LINE
  8
_0-8_小物
  6
CONTINUOUS
 62
    7
 10
639.95812629625004
 20
906.40319178990001
 11
640.06279929624998
 21
904.40593278989991
  0
LINE
  8
_0-8_小物
  6
CONTINUOUS
 62
    7
 10
640.06279929624998
 20
904.40593278989991
 11
642.06005829624996
 21
904.51060278989996
  0
LINE
  8
_0-8_小物
  6
CONTINUOUS
 62
    7
 10
642.06005829624996
 20
904.51060278989996
 11
642.16472829625002
 21
902.51334378990009
  0
LINE
  8
_0-8_小物
  6
CONTINUOUS
 62
    7
 10
642.16472829625002
 20
902.51334378990009
 11
640.21980729625
 21
901.4100427899001
  0
LINE
  8
_0-8_小物
  6
CONTINUOUS
 62
    7
 10
640.21980729625
 20
901.4100427899001
 11
640.32447729625005
 21
899.41278378989989
  0
LINE
  8
_0-8_小物
  6
CONTINUOUS
 62
    7
 10
640.32447729625005
 20
899.41278378989989
 11
642.32173629625004
 21
899.51745678989994
  0
LINE
  8
_0-8_小物
  6
CONTINUOUS
 62
    7
 10
642.32173629625004
 20
899.51745678989994
 11
642.42640929624997
 21
897.52019778990007
  0
LINE
  8
_0-8_小物
  6
CONTINUOUS
 62
    7
 10
636.41346429625003
 20
926.29727778990002
 11
636.91346229625003
 21
926.29727778990002
  0
LINE
  8
_0-8_小物
  6
CONTINUOUS
 62
    7
 10
637.41346329625003
 20
926.29727778990002
 11
636.91346229625003
 21
926.29727778990002
  0
LINE
  8
_0-8_小物
  6
CONTINUOUS
 62
    7
 10
632.91346329625003
 20
934.29727878989991
 11
632.91346329625003
 21
926.29727778990002
  0
LINE
  8
_0-8_小物
  6
CONTINUOUS
 62
    7
 10
631.91346429625003
 20
934.29727878989991
 11
632.91346329625003
 21
929.29727778990002
  0
LINE
  8
_0-8_小物
  6
CONTINUOUS
 62
    7
 10
635.91346329625003
 20
934.29727878989991
 11
636.91346229625003
 21
929.29727778990002
  0
LINE
  8
_0-8_小物
  6
CONTINUOUS
 62
    7
 10
637.91346429625003
 20
934.29727878989991
 11
636.91346229625003
 21
929.29727778990002
  0
LINE
  8
_0-8_小物
  6
CONTINUOUS
 62
    7
 10
636.91346229625003
 20
929.29727778990002
 11
636.91346229625003
 21
934.29727878989991
  0
LINE
  8
_0-8_小物
  6
CONTINUOUS
 62
    7
 10
640.91346429625003
 20
934.29727878989991
 11
640.91346429625003
 21
926.29727778990002
  0
LINE
  8
_0-8_小物
  6
CONTINUOUS
 62
    7
 10
641.91346329625003
 20
934.29727878989991
 11
640.91346429625003
 21
929.29727778990002
  0
ARC
  8
_0-8_小物
  6
CONTINUOUS
 62
    7
 10
635.41070229624995
 20
938.6685937899
 40
3
 50
128.61463800000001
 51
177.54107400000001
  0
ARC
  8
_0-8_小物
  6
CONTINUOUS
 62
    7
 10
638.41622529624999
 20
938.6685937899
 40
3
 50
2.458925999996
 51
51.385362000000001
  0
LINE
  8
_0-8_小物
  6
CONTINUOUS
 62
    7
 10
636.91346229625003
 20
891.28569378989994
 11
636.91346229625003
 21
947.81278278989998
  0
ARC
  8
_0-8_小物
  6
CONTINUOUS
 62
    7
 10
636.91346229625003
 20
936.79730478989995
 40
5.4000000000000004
 50
90
 51
128.85106200000001
  0
ARC
  8
_0-8_小物
  6
CONTINUOUS
 62
    7
 10
636.91346229625003
 20
936.79730478989995
 40
5.4000000000000004
 50
51.317813000000001
 51
90
  0
LINE
  8
_0-8_小物
  6
CONTINUOUS
 62
    7
 10
638.78290629624996
 20
900.16672278989995
 11
636.91346229625003
 21
898.29727878990002
  0
LINE
  8
_0-8_小物
  6
CONTINUOUS
 62
    7
 10
765.91346229625003
 20
938.79730278989996
 11
765.91346229625003
 21
937.29730278990007
  0
LINE
  8
_0-8_小物
  6
CONTINUOUS
 62
    7
 10
765.91346229625003
 20
938.79730278989996
 11
747.91346229625003
 21
938.79730278989996
  0
LINE
  8
_0-8_小物
  6
CONTINUOUS
 62
    7
 10
747.91346229625003
 20
938.79730278989996
 11
747.91346229625003
 21
937.29730278990007
  0
LINE
  8
_0-8_小物
  6
CONTINUOUS
 62
    7
 10
750.59486229625008
 20
919.15487778989996
 11
749.60250729625
 21
925.95849978990009
  0
ARC
  8
_0-8_小物
  6
CONTINUOUS
 62
    7
 10
749.99831829625009
 20
926.01623178989996
 40
0.3999989999999999
 50
98.130101999979999
 51
188.29846599999999
  0
LINE
  8
_0-8_小物
  6
CONTINUOUS
 62
    7
 10
749.94175029625001
 20
926.41221378989997
 11
750.13857429625
 21
926.44032978990003
  0
ARC
  8
_0-8_小物
  6
CONTINUOUS
 62
    7
 10
750.19514529624996
 20
926.04435078989991
 40
0.3999989999999999
 50
8.1301019999809991
 51
98.130101999979999
  0
LINE
  8
_0-8_小物
  6
CONTINUOUS
 62
    7
 10
750.59112429624997
 20
926.10091878989988
 11
751.53455529625012
 21
919.4968987899
  0
LINE
  8
_0-8_小物
  6
CONTINUOUS
 62
    7
 10
750.59486229625008
 20
919.15487778989996
 11
749.60250729625
 21
925.95849978990009
  0
ARC
  8
_0-8_小物
  6
CONTINUOUS
 62
    7
 10
749.99831829625009
 20
926.01623178989996
 40
0.3999989999999999
 50
98.130101999979999
 51
188.29846599999999
  0
LINE
  8
_0-8_小物
  6
CONTINUOUS
 62
    7
 10
749.94175029625001
 20
926.41221378989997
 11
750.13857429625
 21
926.44032978990003
  0
ARC
  8
_0-8_小物
  6
CONTINUOUS
 62
    7
 10
750.19514529624996
 20
926.04435078989991
 40
0.3999989999999999
 50
8.1301019999809991
 51
98.130101999979999
  0
LINE
  8
_0-8_小物
  6
CONTINUOUS
 62
    7
 10
750.59112429624997
 20
926.10091878989988
 11
751.53455529625012
 21
919.4968987899
  0
LINE
  8
_0-8_小物
  6
CONTINUOUS
 62
    7
 10
763.23206529624997
 20
919.15487778989996
 11
764.22442029625006
 21
925.95849978990009
  0
ARC
  8
_0-8_小物
  6
CONTINUOUS
 62
    7
 10
763.82860629624997
 20
926.01623178989996
 40
0.3999989999999999
 50
351.70153399995502
 51
81.869897999990002
  0
LINE
  8
_0-8_小物
  6
CONTINUOUS
 62
    7
 10
763.88517729624994
 20
926.41221378989997
 11
763.68835029625006
 21
926.44032978990003
  0
ARC
  8
_0-8_小物
  6
CONTINUOUS
 62
    7
 10
763.63178229624987
 20
926.04435078989991
 40
0.3999989999999999
 50
81.869897999990002
 51
171.86989800000001
  0
LINE
  8
_0-8_小物
  6
CONTINUOUS
 62
    7
 10
763.23580329624997
 20
926.10091878989988
 11
762.29237229625005
 21
919.4968987899
  0
LINE
  8
_0-8_小物
  6
CONTINUOUS
 62
    7
 10
760.91346429625003
 20
922.29727878989991
 11
760.91346429625003
 21
926.29727778990002
  0
LINE
  8
_0-8_小物
  6
CONTINUOUS
 62
    7
 10
758.93120529625003
 20
897.33702078990007
 11
762.42640929624997
 21
897.52019778990007
  0
LINE
  8
_0-8_小物
  6
CONTINUOUS
 62
    7
 10
762.42640929624997
 20
897.52019778990007
 11
760.53382329624992
 21
895.41826578990003
  0
LINE
  8
_0-8_小物
  6
CONTINUOUS
 62
    7
 10
760.53382329624992
 20
895.41826578990003
 11
759.03587829624996
 21
895.33976178989997
  0
LINE
  8
_0-8_小物
  6
CONTINUOUS
 62
    7
 10
759.03587829624996
 20
895.33976178989997
 11
757.41346329625003
 21
926.29727778990002
  0
LINE
  8
_0-8_小物
  6
CONTINUOUS
 62
    7
 10
752.91346329625003
 20
922.29727878989991
 11
752.91346329625003
 21
926.29727778990002
  0
LINE
  8
_0-8_小物
  6
CONTINUOUS
 62
    7
 10
754.89571929625004
 20
897.33702078990007
 11
751.40051829625008
 21
897.52019778990007
  0
LINE
  8
_0-8_小物
  6
CONTINUOUS
 62
    7
 10
751.40051829625008
 20
897.52019778990007
 11
753.29310429625002
 21
895.41826578990003
  0
LINE
  8
_0-8_小物
  6
CONTINUOUS
 62
    7
 10
753.29310429625002
 20
895.41826578990003
 11
754.79104929624998
 21
895.33976178989997
  0
LINE
  8
_0-8_小物
  6
CONTINUOUS
 62
    7
 10
754.79104929624998
 20
895.33976178989997
 11
756.41346429625003
 21
926.29727778990002
  0
LINE
  8
_0-8_小物
  6
CONTINUOUS
 62
    7
 10
760.47252129625008
 20
914.49689778989989
 11
762.29237229625005
 21
919.4968987899
  0
LINE
  8
_0-8_小物
  6
CONTINUOUS
 62
    7
 10
761.53669929624994
 20
914.49689778989989
 11
763.23206529624997
 21
919.15487778989996
  0
LINE
  8
_0-8_小物
  6
CONTINUOUS
 62
    7
 10
753.35440629624998
 20
914.49689778989989
 11
751.53455529625012
 21
919.4968987899
  0
LINE
  8
_0-8_小物
  6
CONTINUOUS
 62
    7
 10
752.29022829625001
 20
914.49689778989989
 11
750.59486229625008
 21
919.15487778989996
  0
LINE
  8
_0-8_小物
  6
CONTINUOUS
 62
    7
 10
760.91346429625003
 20
922.29727878989991
 11
759.17308629624995
 21
921.38263278989996
  0
LINE
  8
_0-8_小物
  6
CONTINUOUS
 62
    7
 10
758.78290629624996
 20
900.16672278989995
 11
756.91346229624992
 21
898.29727878990002
  0
LINE
  8
_0-8_小物
  6
CONTINUOUS
 62
    7
 10
759.17308629624995
 20
921.38263278989996
 11
759.27775929625
 21
919.38537378990009
  0
LINE
  8
_0-8_小物
  6
CONTINUOUS
 62
    7
 10
759.27775929625
 20
919.38537378990009
 11
761.27501829624998
 21
919.49004678989991
  0
LINE
  8
_0-8_小物
  6
CONTINUOUS
 62
    7
 10
761.27501829624998
 20
919.49004678989991
 11
761.37969129625003
 21
917.49278778990004
  0
LINE
  8
_0-8_小物
  6
CONTINUOUS
 62
    7
 10
761.37969129625003
 20
917.49278778990004
 11
759.43476729625002
 21
916.38948678990005
  0
LINE
  8
_0-8_小物
  6
CONTINUOUS
 62
    7
 10
759.43476729625002
 20
916.38948678990005
 11
759.53944029625006
 21
914.39222778990006
  0
LINE
  8
_0-8_小物
  6
CONTINUOUS
 62
    7
 10
759.53944029625006
 20
914.39222778990006
 11
761.53669929624994
 21
914.49689778989989
  0
LINE
  8
_0-8_小物
  6
CONTINUOUS
 62
    7
 10
761.53669929624994
 20
914.49689778989989
 11
761.64136929624999
 21
912.49963878990002
  0
LINE
  8
_0-8_小物
  6
CONTINUOUS
 62
    7
 10
761.64136929624999
 20
912.49963878990002
 11
759.69644829624997
 21
911.39633778990003
  0
LINE
  8
_0-8_小物
  6
CONTINUOUS
 62
    7
 10
759.69644829624997
 20
911.39633778990003
 11
759.80111829625002
 21
909.39907878989993
  0
LINE
  8
_0-8_小物
  6
CONTINUOUS
 62
    7
 10
759.80111829625002
 20
909.39907878989993
 11
761.79837729625001
 21
909.50375178989998
  0
LINE
  8
_0-8_小物
  6
CONTINUOUS
 62
    7
 10
761.79837729625001
 20
909.50375178989998
 11
761.90305029624994
 21
907.50649278989999
  0
LINE
  8
_0-8_小物
  6
CONTINUOUS
 62
    7
 10
761.90305029624994
 20
907.50649278989999
 11
759.95812629624993
 21
906.40319178990001
  0
LINE
  8
_0-8_小物
  6
CONTINUOUS
 62
    7
 10
759.95812629624993
 20
906.40319178990001
 11
760.06279929624998
 21
904.40593278989991
  0
LINE
  8
_0-8_小物
  6
CONTINUOUS
 62
    7
 10
760.06279929624998
 20
904.40593278989991
 11
762.06005829624996
 21
904.51060278989996
  0
LINE
  8
_0-8_小物
  6
CONTINUOUS
 62
    7
 10
762.06005829624996
 20
904.51060278989996
 11
762.16472829625002
 21
902.51334378990009
  0
LINE
  8
_0-8_小物
  6
CONTINUOUS
 62
    7
 10
762.16472829625002
 20
902.51334378990009
 11
760.21980729625
 21
901.4100427899001
  0
LINE
  8
_0-8_小物
  6
CONTINUOUS
 62
    7
 10
760.21980729625
 20
901.4100427899001
 11
760.32447729625005
 21
899.41278378989989
  0
LINE
  8
_0-8_小物
  6
CONTINUOUS
 62
    7
 10
760.32447729625005
 20
899.41278378989989
 11
762.32173629624992
 21
899.51745678989994
  0
LINE
  8
_0-8_小物
  6
CONTINUOUS
 62
    7
 10
762.32173629624992
 20
899.51745678989994
 11
762.42640929624997
 21
897.52019778990007
  0
LINE
  8
_0-8_小物
  6
CONTINUOUS
 62
    7
 10
752.91346329625003
 20
922.29727878989991
 11
754.65383829625
 21
921.38263278989996
  0
LINE
  8
_0-8_小物
  6
CONTINUOUS
 62
    7
 10
754.65383829625
 20
921.38263278989996
 11
754.54916829625006
 21
919.38537378990009
  0
LINE
  8
_0-8_小物
  6
CONTINUOUS
 62
    7
 10
754.54916829625006
 20
919.38537378990009
 11
752.55190929624996
 21
919.49004678989991
  0
LINE
  8
_0-8_小物
  6
CONTINUOUS
 62
    7
 10
752.55190929624996
 20
919.49004678989991
 11
752.44723629625003
 21
917.49278778990004
  0
LINE
  8
_0-8_小物
  6
CONTINUOUS
 62
    7
 10
752.44723629625003
 20
917.49278778990004
 11
754.39216029625004
 21
916.38948678990005
  0
LINE
  8
_0-8_小物
  6
CONTINUOUS
 62
    7
 10
754.39216029625004
 20
916.38948678990005
 11
754.28748729624999
 21
914.39222778990006
  0
LINE
  8
_0-8_小物
  6
CONTINUOUS
 62
    7
 10
754.28748729624999
 20
914.39222778990006
 11
752.29022829625001
 21
914.49689778989989
  0
LINE
  8
_0-8_小物
  6
CONTINUOUS
 62
    7
 10
752.29022829625001
 20
914.49689778989989
 11
752.18555529625007
 21
912.49963878990002
  0
LINE
  8
_0-8_小物
  6
CONTINUOUS
 62
    7
 10
752.18555529625007
 20
912.49963878990002
 11
754.13047929625009
 21
911.39633778990003
  0
LINE
  8
_0-8_小物
  6
CONTINUOUS
 62
    7
 10
754.13047929625009
 20
911.39633778990003
 11
754.02580929625003
 21
909.39907878989993
  0
LINE
  8
_0-8_小物
  6
CONTINUOUS
 62
    7
 10
754.02580929625003
 20
909.39907878989993
 11
752.02854729625005
 21
909.50375178989998
  0
LINE
  8
_0-8_小物
  6
CONTINUOUS
 62
    7
 10
752.02854729625005
 20
909.50375178989998
 11
751.92387729625
 21
907.50649278989999
  0
LINE
  8
_0-8_小物
  6
CONTINUOUS
 62
    7
 10
751.92387729625
 20
907.50649278989999
 11
753.86880129625001
 21
906.40319178990001
  0
LINE
  8
_0-8_小物
  6
CONTINUOUS
 62
    7
 10
753.86880129625001
 20
906.40319178990001
 11
753.76412829624996
 21
904.40593278989991
  0
LINE
  8
_0-8_小物
  6
CONTINUOUS
 62
    7
 10
753.76412829624996
 20
904.40593278989991
 11
751.76686929624998
 21
904.51060278989996
  0
LINE
  8
_0-8_小物
  6
CONTINUOUS
 62
    7
 10
751.76686929624998
 20
904.51060278989996
 11
751.66219629625004
 21
902.51334378990009
  0
LINE
  8
_0-8_小物
  6
CONTINUOUS
 62
    7
 10
751.66219629625004
 20
902.51334378990009
 11
753.60712029625006
 21
901.4100427899001
  0
LINE
  8
_0-8_小物
  6
CONTINUOUS
 62
    7
 10
753.60712029625006
 20
901.4100427899001
 11
753.50244729625001
 21
899.41278378989989
  0
LINE
  8
_0-8_小物
  6
CONTINUOUS
 62
    7
 10
753.50244729625001
 20
899.41278378989989
 11
751.50518829625003
 21
899.51745678989994
  0
LINE
  8
_0-8_小物
  6
CONTINUOUS
 62
    7
 10
751.50518829625003
 20
899.51745678989994
 11
751.40051829625008
 21
897.52019778990007
  0
LINE
  8
_0-8_小物
  6
CONTINUOUS
 62
    7
 10
757.41346329625003
 20
926.29727778990002
 11
756.91346229624992
 21
926.29727778990002
  0
LINE
  8
_0-8_小物
  6
CONTINUOUS
 62
    7
 10
756.41346429625003
 20
926.29727778990002
 11
756.91346229624992
 21
926.29727778990002
  0
LINE
  8
_0-8_小物
  6
CONTINUOUS
 62
    7
 10
760.91346429625003
 20
934.29727878989991
 11
760.91346429625003
 21
926.29727778990002
  0
LINE
  8
_0-8_小物
  6
CONTINUOUS
 62
    7
 10
761.91346329625003
 20
934.29727878989991
 11
760.91346429625003
 21
929.29727778990002
  0
LINE
  8
_0-8_小物
  6
CONTINUOUS
 62
    7
 10
757.91346429625014
 20
934.29727878989991
 11
756.91346229624992
 21
929.29727778990002
  0
LINE
  8
_0-8_小物
  6
CONTINUOUS
 62
    7
 10
755.91346329625003
 20
934.29727878989991
 11
756.91346229624992
 21
929.29727778990002
  0
LINE
  8
_0-8_小物
  6
CONTINUOUS
 62
    7
 10
756.91346229624992
 20
929.29727778990002
 11
756.91346229624992
 21
934.29727878989991
  0
LINE
  8
_0-8_小物
  6
CONTINUOUS
 62
    7
 10
752.91346329625003
 20
934.29727878989991
 11
752.91346329625003
 21
926.29727778990002
  0
LINE
  8
_0-8_小物
  6
CONTINUOUS
 62
    7
 10
751.91346429625003
 20
934.29727878989991
 11
752.91346329625003
 21
929.29727778990002
  0
ARC
  8
_0-8_小物
  6
CONTINUOUS
 62
    7
 10
758.41622529624999
 20
938.6685937899
 40
3
 50
2.458925999996
 51
51.385362000000001
  0
ARC
  8
_0-8_小物
  6
CONTINUOUS
 62
    7
 10
755.41070229625007
 20
938.6685937899
 40
3
 50
128.61463800000001
 51
177.54107400000001
  0
ARC
  8
_0-8_小物
  6
CONTINUOUS
 62
    7
 10
756.91346229624992
 20
936.79730478989995
 40
5.4000000000000004
 50
51.148938000000001
 51
90
  0
ARC
  8
_0-8_小物
  6
CONTINUOUS
 62
    7
 10
756.91346229624992
 20
936.79730478989995
 40
5.4000000000000004
 50
90
 51
128.682187
  0
LINE
  8
_0-8_小物
  6
CONTINUOUS
 62
    7
 10
755.04401829624999
 20
900.16672278989995
 11
756.91346229624992
 21
898.29727878990002
  0
LINE
  8
_0-8_小物
  6
CONTINUOUS
 62
    7
 10
756.91346229624992
 20
891.28569378989994
 11
756.91346229624992
 21
947.81278278989998
  0
ARC
  8
_0-4_止水補助板
  6
CONTINUOUS
 62
    7
 10
696.91346229624992
 20
900.29727678990002
 40
14.000000999999999
 50
195.506764
 51
344.49323599999997
  0
ARC
  8
_0-4_止水補助板
  6
CONTINUOUS
 62
    7
 10
696.91346229624992
 20
900.29727678990002
 40
15
 50
195.506764
 51
344.49323599999997
  0
LINE
  8
_0-4_止水補助板
  6
CONTINUOUS
 62
    7
 10
616.91334729624998
 20
935.29727778989991
 11
672.67378929624999
 21
935.29727778989991
  0
LINE
  8
_0-4_止水補助板
  6
CONTINUOUS
 62
    7
 10
616.91334729624998
 20
935.29727778989991
 11
616.91334729624998
 21
934.29727878989991
  0
LINE
  8
_0-4_止水補助板
  6
CONTINUOUS
 62
    7
 10
682.45948029624992
 20
896.28699678990006
 11
671.91346329625003
 21
934.29727878989991
  0
LINE
  8
_0-4_止水補助板
  6
CONTINUOUS
 62
    7
 10
683.42307729625009
 20
896.55434778990002
 11
672.67378929624999
 21
935.29727778989991
  0
LINE
  8
_0-4_止水補助板
  6
CONTINUOUS
 62
    7
 10
711.36744729625002
 20
896.28699678990006
 11
721.91346429625003
 21
934.29727878989991
  0
LINE
  8
_0-4_止水補助板
  6
CONTINUOUS
 62
    7
 10
710.40384729624998
 20
896.55434778990002
 11
721.15313829624995
 21
935.29727778989991
  0
LINE
  8
_0-4_止水補助板
  6
CONTINUOUS
 62
    7
 10
776.91358029625007
 20
935.29727778989991
 11
721.15313829624995
 21
935.29727778989991
  0
LINE
  8
_0-4_止水補助板
  6
CONTINUOUS
 62
    7
 10
776.91358029625007
 20
935.29727778989991
 11
776.91358029625007
 21
934.29727878989991
  0
LINE
  8
_0-3_躯体
  6
CONTINUOUS
 62
    7
 10
671.91346329625003
 20
875.29727778989991
 11
671.91346329625003
 21
934.29727878989991
  0
LINE
  8
_0-3_躯体
  6
CONTINUOUS
 62
    7
 10
605.91334029625
 20
934.29727878989991
 11
605.91325629624998
 21
924.29727678989991
  0
LINE
  8
_0-3_躯体
  6
CONTINUOUS
 62
    7
 10
605.91325629624998
 20
924.29727678989991
 11
671.91346329625003
 21
924.29727678989991
  0
LINE
  8
_0-3_躯体
  6
CONTINUOUS
 62
    7
 10
591.91345929625004
 20
934.29727878989991
 11
671.91346329625003
 21
934.29727878989991
  0
LINE
  8
_0-3_躯体
  6
CONTINUOUS
 62
    7
 10
591.91347129625001
 20
960.29726478990005
 11
611.91346929625001
 21
960.29726478990005
  0
LINE
  8
_0-3_躯体
  6
CONTINUOUS
 62
    7
 10
787.91358729625006
 20
934.29727878989991
 11
787.91366829625008
 21
924.29727678989991
  0
LINE
  8
_0-3_躯体
  6
CONTINUOUS
 62
    7
 10
787.91366829625008
 20
924.29727678989991
 11
721.91346429625003
 21
924.29727678989991
  0
LINE
  8
_0-3_躯体
  6
CONTINUOUS
 62
    7
 10
801.91346829625002
 20
934.29727878989991
 11
721.91346429625003
 21
934.29727878989991
  0
LINE
  8
_0-3_躯体
  6
CONTINUOUS
 62
    7
 10
801.91345629625005
 20
960.29726478990005
 11
781.91345529624994
 21
960.29726478990005
  0
LINE
  8
_0-3_躯体
  6
CONTINUOUS
 62
    7
 10
721.91346429625003
 20
875.29727778989991
 11
721.91346429625003
 21
934.29727878989991
  0
LINE
  8
_0-8_小物
  6
CONTINUOUS
 62
    7
 10
631.91346429625003
 20
934.29727878989991
 11
641.91346329625003
 21
934.29727878989991
  0
LINE
  8
_0-8_小物
  6
CONTINUOUS
 62
    7
 10
761.91346329625003
 20
934.29727878989991
 11
751.91346429625003
 21
934.29727878989991
  0
ARC
  8
_0-5_フレ_ム
  6
CONTINUOUS
 62
    7
 10
612.21345729625
 20
959.99728278990005
 40
0.2999999999999999
 50
90
 51
180
  0
LINE
  8
_0-5_フレ_ム
  6
CONTINUOUS
 62
    7
 10
612.21345729625
 20
960.2972827898999
 11
613.11346929625006
 21
960.2972827898999
  0
ARC
  8
_0-5_フレ_ム
  6
CONTINUOUS
 62
    7
 10
616.41346329625003
 20
957.79728378990001
 40
0.500001
 50
90
 51
180
  0
LINE
  8
_0-5_フレ_ム
  6
CONTINUOUS
 62
    7
 10
621.71345829625
 20
957.29727678990002
 11
621.41345829625004
 21
956.99727678990007
  0
LINE
  8
_0-5_フレ_ム
  6
CONTINUOUS
 62
    7
 10
617.91355629625002
 20
957.29727678990002
 11
621.11345829624997
 21
957.29727678990002
  0
LINE
  8
_0-5_フレ_ム
  6
CONTINUOUS
 62
    7
 10
621.71345829625
 20
957.29727678990002
 11
624.41345829625004
 21
957.29727678990002
  0
LINE
  8
_0-5_フレ_ム
  6
CONTINUOUS
 62
    7
 10
624.91147629625004
 20
958.29726678990005
 11
625.41673029624997
 21
958.29726678990005
  0
LINE
  8
_0-5_フレ_ム
  6
CONTINUOUS
 62
    7
 10
618.41342529625001
 20
937.29728178990001
 11
636.61346229624996
 21
937.29730278990007
  0
ARC
  8
_0-5_フレ_ム
  6
CONTINUOUS
 62
    7
 10
616.91334729624998
 20
936.29727678989991
 40
0.999999
 50
179.99918400000001
 51
270
  0
LINE
  8
_0-5_フレ_ム
  6
CONTINUOUS
 62
    7
 10
615.91334829624998
 20
936.2972917899001
 11
615.91346529625002
 21
950.79727578990003
  0
LINE
  8
_0-5_フレ_ム
  6
CONTINUOUS
 62
    7
 10
636.91346229625003
 20
936.99730278989989
 11
637.21343529625005
 21
937.29727878989991
  0
LINE
  8
_0-5_フレ_ム
  6
CONTINUOUS
 62
    7
 10
636.91346229625003
 20
936.99730278989989
 11
636.61346229624996
 21
937.29730278990007
  0
ARC
  8
_0-5_フレ_ム
  6
CONTINUOUS
 62
    7
 10
668.91339729624997
 20
937.79727678990002
 40
0.500001
 50
270
 51
0
  0
LINE
  8
_0-5_フレ_ム
  6
CONTINUOUS
 62
    7
 10
637.21343529625005
 20
937.29727878989991
 11
668.91339729624997
 21
937.29727878989991
  0
LINE
  8
_0-5_フレ_ム
  6
CONTINUOUS
 62
    7
 10
669.41339829625008
 20
950.09728578990007
 11
669.41339829625008
 21
937.79727678990002
  0
ARC
  8
_0-5_フレ_ム
  6
CONTINUOUS
 62
    7
 10
670.41339129624998
 20
936.29727678989991
 40
0.999999
 50
270
 51
0
  0
LINE
  8
_0-5_フレ_ム
  6
CONTINUOUS
 62
    7
 10
671.41339029624999
 20
950.09728578990007
 11
671.41339029624999
 21
936.29727678989991
  0
ARC
  8
_0-5_フレ_ム
  6
CONTINUOUS
 62
    7
 10
618.41342529625001
 20
937.7972827898999
 40
0.500001
 50
180
 51
270
  0
ARC
  8
_0-5_フレ_ム
  6
CONTINUOUS
 62
    7
 10
618.91346229625003
 20
953.79726978989993
 40
0.999999
 50
90.001149999999996
 51
180
  0
LINE
  8
_0-5_フレ_ム
  6
CONTINUOUS
 62
    7
 10
617.91342429625001
 20
937.7972827898999
 11
617.91346029625004
 21
953.79727278990003
  0
ARC
  8
_0-5_フレ_ム
  6
CONTINUOUS
 62
    7
 10
615.41341629625003
 20
953.29727778989991
 40
0.500001
 50
270
 51
359.99947500002008
  0
LINE
  8
_0-5_フレ_ム
  6
CONTINUOUS
 62
    7
 10
615.41341329625004
 20
952.79727678990002
 11
613.91345529625005
 21
952.79728578989989
  0
ARC
  8
_0-5_フレ_ム
  6
CONTINUOUS
 62
    7
 10
612.91345929625004
 20
952.29727278990003
 40
0.999999
 50
180
 51
270
  0
ARC
  8
_0-5_フレ_ム
  6
CONTINUOUS
 62
    7
 10
615.41346429625003
 20
950.79727878990002
 40
0.500001
 50
359.99953299997247
 51
90
  0
LINE
  8
_0-5_フレ_ム
  6
CONTINUOUS
 62
    7
 10
612.91346229625003
 20
951.29727078990004
 11
615.41346429625003
 21
951.2972797898999
  0
LINE
  8
_0-5_フレ_ム
  6
CONTINUOUS
 62
    7
 10
615.91341729625003
 20
953.29727178989992
 11
615.91345929625004
 21
957.7972807898999
  0
ARC
  8
_0-5_フレ_ム
  6
CONTINUOUS
 62
    7
 10
613.91345829625004
 20
953.29728378990001
 40
0.500001
 50
180
 51
270
  0
ARC
  8
_0-5_フレ_ム
  6
CONTINUOUS
 62
    7
 10
613.11346929625006
 20
959.99728278990005
 40
0.2999999999999999
 50
0
 51
90
  0
LINE
  8
_0-5_フレ_ム
  6
CONTINUOUS
 62
    7
 10
617.91355629625002
 20
957.29727678990002
 11
617.91355629625002
 21
957.79726578989994
  0
LINE
  8
_0-5_フレ_ム
  6
CONTINUOUS
 62
    7
 10
624.41345829625004
 20
957.29727678990002
 11
624.41345829625004
 21
957.79726878990004
  0
ARC
  8
_0-5_フレ_ム
  6
CONTINUOUS
 62
    7
 10
625.41350529625004
 20
957.79727478990003
 40
0.500001
 50
359.99744000001527
 51
90
  0
LINE
  8
_0-5_フレ_ム
  6
CONTINUOUS
 62
    7
 10
625.91343729624998
 20
956.79723678990001
 11
625.91350629625003
 21
957.79725378990008
  0
ARC
  8
_0-5_フレ_ム
  6
CONTINUOUS
 62
    7
 10
623.91343929624998
 20
956.79736878990002
 40
2.0000010000000001
 50
270.00115
 51
359.9961600000064
  0
LINE
  8
_0-5_フレ_ム
  6
CONTINUOUS
 62
    7
 10
623.91347829624999
 20
954.79737078990001
 11
618.91344129624997
 21
954.79726878989993
  0
ARC
  8
_0-5_フレ_ム
  6
CONTINUOUS
 62
    7
 10
624.91345929625004
 20
957.79726878990004
 40
0.500001
 50
90.000849000000002
 51
180
  0
ARC
  8
_0-5_フレ_ム
  6
CONTINUOUS
 62
    7
 10
617.41355529625002
 20
957.79726578989994
 40
0.500001
 50
0
 51
89.999351000009995
  0
LINE
  8
_0-5_フレ_ム
  6
CONTINUOUS
 62
    7
 10
617.41356129625001
 20
958.29726678990005
 11
616.41346329625003
 21
958.29727578990003
  0
LINE
  8
_0-5_フレ_ム
  6
CONTINUOUS
 62
    7
 10
621.11345829624997
 20
957.29727678990002
 11
621.41345829625004
 21
956.99727678990007
  0
LINE
  8
_0-5_フレ_ム
  6
CONTINUOUS
 62
    7
 10
671.91340029624996
 20
953.09728578990007
 11
671.91339429625009
 21
950.09728578990007
  0
LINE
  8
_0-5_フレ_ム
  6
CONTINUOUS
 62
    7
 10
668.91340029624996
 20
953.09728578990007
 11
668.91340029624996
 21
950.09728578990007
  0
ARC
  8
_0-5_フレ_ム
  6
CONTINUOUS
 62
    7
 10
670.41339129624998
 20
953.09728578990007
 40
1.499994
 50
0
 51
180
  0
LINE
  8
_0-5_フレ_ム
  6
CONTINUOUS
 62
    7
 10
671.91339429625009
 20
950.09728578990007
 11
671.41339329624998
 21
950.09728578990007
  0
LINE
  8
_0-5_フレ_ム
  6
CONTINUOUS
 62
    7
 10
668.91340029624996
 20
950.09728578990007
 11
669.41340129625007
 21
950.09728578990007
  0
ARC
  8
_0-5_フレ_ム
  6
CONTINUOUS
 62
    7
 10
616.41343629624998
 20
957.79726578989994
 40
0.500001
 50
90
 51
180
  0
LINE
  8
_0-5_フレ_ム
  6
CONTINUOUS
 62
    7
 10
673.41339729625008
 20
952.89727578989994
 11
673.41339729625008
 21
947.89727778990004
  0
LINE
  8
_0-5_フレ_ム
  6
CONTINUOUS
 62
    7
 10
673.41339729625008
 20
947.89727778990004
 11
671.91339729624997
 21
947.89727778990004
  0
LINE
  8
_0-5_フレ_ム
  6
CONTINUOUS
 62
    7
 10
668.91339729624997
 20
947.89727778990004
 11
667.41339729624997
 21
947.89727778990004
  0
LINE
  8
_0-5_フレ_ム
  6
CONTINUOUS
 62
    7
 10
667.41339729624997
 20
947.89727778990004
 11
667.41339729624997
 21
952.89727578989994
  0
ARC
  8
_0-5_フレ_ム
  6
CONTINUOUS
 62
    7
 10
670.41339729625008
 20
952.89727578989994
 40
1.7000010000000001
 50
0
 51
180
  0
ARC
  8
_0-5_フレ_ム
  6
CONTINUOUS
 62
    7
 10
670.41339729625008
 20
952.89727578989994
 40
3
 50
0
 51
180
  0
LINE
  8
_0-5_フレ_ム
  6
CONTINUOUS
 62
    7
 10
668.91340329624995
 20
949.89727578990005
 11
669.15724629625004
 21
949.89727578990005
  0
ARC
  8
_0-5_フレ_ム
  6
CONTINUOUS
 62
    7
 10
669.15724629625004
 20
949.69727778989989
 40
0.2000009999999999
 50
345.96359799991001
 51
90
  0
LINE
  8
_0-5_フレ_ム
  6
CONTINUOUS
 62
    7
 10
668.91339729624997
 20
947.89727778990004
 11
669.35127429625004
 21
949.64877078990003
  0
LINE
  8
_0-5_フレ_ム
  6
CONTINUOUS
 62
    7
 10
671.91339729624997
 20
949.89727578990005
 11
671.66955129624989
 21
949.89727578990005
  0
ARC
  8
_0-5_フレ_ム
  6
CONTINUOUS
 62
    7
 10
671.66955129624989
 20
949.69727778989989
 40
0.2000009999999999
 50
90
 51
194.036192
  0
LINE
  8
_0-5_フレ_ム
  6
CONTINUOUS
 62
    7
 10
671.91339429625009
 20
947.89727778990004
 11
671.47552329625
 21
949.64877078990003
  0
LINE
  8
_0-5_フレ_ム
  6
CONTINUOUS
 62
    7
 10
668.91340329624995
 20
949.89727578990005
 11
668.71340229625002
 21
949.89727578990005
  0
LINE
  8
_0-5_フレ_ム
  6
CONTINUOUS
 62
    7
 10
668.71340229625002
 20
949.89727578990005
 11
668.71339629625004
 21
952.89727578989994
  0
LINE
  8
_0-5_フレ_ム
  6
CONTINUOUS
 62
    7
 10
671.91339429625009
 20
949.89727578990005
 11
672.11339829625001
 21
949.89727578990005
  0
LINE
  8
_0-5_フレ_ム
  6
CONTINUOUS
 62
    7
 10
672.11339829625001
 20
949.89727578990005
 11
672.11339829625001
 21
952.89727578989994
  0
LINE
  8
_0-5_フレ_ム
  6
CONTINUOUS
 62
    7
 10
627.91346229625003
 20
937.29730278990007
 11
645.91346229625003
 21
937.29730278990007
  0
ARC
  8
_0-5_フレ_ム
  6
CONTINUOUS
 62
    7
 10
781.61346729624995
 20
959.99728278990005
 40
0.2999999999999999
 50
0
 51
90
  0
LINE
  8
_0-5_フレ_ム
  6
CONTINUOUS
 62
    7
 10
781.61346729624995
 20
960.2972827898999
 11
780.71345829625
 21
960.2972827898999
  0
ARC
  8
_0-5_フレ_ム
  6
CONTINUOUS
 62
    7
 10
777.41346429624991
 20
957.79728378990001
 40
0.500001
 50
0
 51
90
  0
LINE
  8
_0-5_フレ_ム
  6
CONTINUOUS
 62
    7
 10
772.11346929624995
 20
957.29727678990002
 11
772.41346929625001
 21
956.99727678990007
  0
LINE
  8
_0-5_フレ_ム
  6
CONTINUOUS
 62
    7
 10
775.91337129625003
 20
957.29727678990002
 11
772.71346929624997
 21
957.29727678990002
  0
LINE
  8
_0-5_フレ_ム
  6
CONTINUOUS
 62
    7
 10
772.11346929624995
 20
957.29727678990002
 11
769.41346929625001
 21
957.29727678990002
  0
LINE
  8
_0-5_フレ_ム
  6
CONTINUOUS
 62
    7
 10
768.91545129625001
 20
958.29726678990005
 11
768.41019729625009
 21
958.29726678990005
  0
LINE
  8
_0-5_フレ_ム
  6
CONTINUOUS
 62
    7
 10
775.41350229624993
 20
937.29728178990001
 11
757.21346229624999
 21
937.29730278990007
  0
ARC
  8
_0-5_フレ_ム
  6
CONTINUOUS
 62
    7
 10
776.91358029625007
 20
936.29727678989991
 40
0.999999
 50
270
 51
0.0008159999875145
  0
LINE
  8
_0-5_フレ_ム
  6
CONTINUOUS
 62
    7
 10
777.91357929625008
 20
936.2972917899001
 11
777.91346229625003
 21
950.79727578990003
  0
LINE
  8
_0-5_フレ_ム
  6
CONTINUOUS
 62
    7
 10
756.91346229624992
 20
936.99730278989989
 11
756.61348929625001
 21
937.29727878989991
  0
LINE
  8
_0-5_フレ_ム
  6
CONTINUOUS
 62
    7
 10
756.91346229624992
 20
936.99730278989989
 11
757.21346229624999
 21
937.29730278990007
  0
ARC
  8
_0-5_フレ_ム
  6
CONTINUOUS
 62
    7
 10
724.91353029624997
 20
937.79727678990002
 40
0.500001
 50
180
 51
270
  0
LINE
  8
_0-5_フレ_ム
  6
CONTINUOUS
 62
    7
 10
756.61348929625001
 20
937.29727878989991
 11
724.91353029624997
 21
937.29727878989991
  0
LINE
  8
_0-5_フレ_ム
  6
CONTINUOUS
 62
    7
 10
724.41352929624998
 20
950.09728578990007
 11
724.41352929624998
 21
937.79727678990002
  0
ARC
  8
_0-5_フレ_ム
  6
CONTINUOUS
 62
    7
 10
723.41353629625007
 20
936.29727678989991
 40
0.999999
 50
180
 51
270
  0
LINE
  8
_0-5_フレ_ム
  6
CONTINUOUS
 62
    7
 10
722.41353429625008
 20
950.09728578990007
 11
722.41353429625008
 21
936.29727678989991
  0
ARC
  8
_0-5_フレ_ム
  6
CONTINUOUS
 62
    7
 10
775.41350229624993
 20
937.7972827898999
 40
0.500001
 50
270
 51
0
  0
ARC
  8
_0-5_フレ_ム
  6
CONTINUOUS
 62
    7
 10
774.91346529625002
 20
953.79726978989993
 40
0.999999
 50
0
 51
89.99884999999
  0
LINE
  8
_0-5_フレ_ム
  6
CONTINUOUS
 62
    7
 10
775.91350329625004
 20
937.7972827898999
 11
775.91346429625003
 21
953.79727278990003
  0
ARC
  8
_0-5_フレ_ム
  6
CONTINUOUS
 62
    7
 10
778.41350829625003
 20
953.29727778989991
 40
0.500001
 50
180.00052500000001
 51
270
  0
LINE
  8
_0-5_フレ_ム
  6
CONTINUOUS
 62
    7
 10
778.41351129624991
 20
952.79727678990002
 11
779.91346929625001
 21
952.79728578989989
  0
ARC
  8
_0-5_フレ_ム
  6
CONTINUOUS
 62
    7
 10
780.9134682962499
 20
952.29727278990003
 40
0.999999
 50
270
 51
0
  0
ARC
  8
_0-5_フレ_ム
  6
CONTINUOUS
 62
    7
 10
778.41346029625004
 20
950.79727878990002
 40
0.500001
 50
90
 51
180.00046699999999
  0
LINE
  8
_0-5_フレ_ム
  6
CONTINUOUS
 62
    7
 10
780.91346529625002
 20
951.29727078990004
 11
778.41346329625003
 21
951.2972797898999
  0
LINE
  8
_0-5_フレ_ム
  6
CONTINUOUS
 62
    7
 10
777.91351029625002
 20
953.29727178989992
 11
777.91346829625002
 21
957.7972807898999
  0
ARC
  8
_0-5_フレ_ム
  6
CONTINUOUS
 62
    7
 10
779.91346929625001
 20
953.29728378990001
 40
0.500001
 50
270
 51
0
  0
ARC
  8
_0-5_フレ_ム
  6
CONTINUOUS
 62
    7
 10
780.71345829625
 20
959.99728278990005
 40
0.2999999999999999
 50
90
 51
180
  0
LINE
  8
_0-5_フレ_ム
  6
CONTINUOUS
 62
    7
 10
775.91337129625003
 20
957.29727678990002
 11
775.91337129625003
 21
957.79726578989994
  0
LINE
  8
_0-5_フレ_ム
  6
CONTINUOUS
 62
    7
 10
769.41346929625001
 20
957.29727678990002
 11
769.41346929625001
 21
957.79726878990004
  0
ARC
  8
_0-5_フレ_ム
  6
CONTINUOUS
 62
    7
 10
768.41342229625002
 20
957.79727478990003
 40
0.500001
 50
90
 51
180.00255999999999
  0
LINE
  8
_0-5_フレ_ム
  6
CONTINUOUS
 62
    7
 10
767.91348729624997
 20
956.79723678990001
 11
767.91342129625014
 21
957.79725378990008
  0
ARC
  8
_0-5_フレ_ム
  6
CONTINUOUS
 62
    7
 10
769.91348829624997
 20
956.79736878990002
 40
2.0000010000000001
 50
180.00384
 51
269.99885
  0
LINE
  8
_0-5_フレ_ム
  6
CONTINUOUS
 62
    7
 10
769.91344929625006
 20
954.79737078990001
 11
774.91348629625008
 21
954.79726878989993
  0
ARC
  8
_0-5_フレ_ム
  6
CONTINUOUS
 62
    7
 10
768.91346829625013
 20
957.79726878990004
 40
0.500001
 50
0
 51
89.999150999999998
  0
ARC
  8
_0-5_フレ_ム
  6
CONTINUOUS
 62
    7
 10
776.41336929625004
 20
957.79726578989994
 40
0.500001
 50
90.00064900001
 51
180
  0
LINE
  8
_0-5_フレ_ム
  6
CONTINUOUS
 62
    7
 10
776.41336329625005
 20
958.29726678990005
 11
777.41346429624991
 21
958.29727578990003
  0
LINE
  8
_0-5_フレ_ム
  6
CONTINUOUS
 62
    7
 10
772.71346929624997
 20
957.29727678990002
 11
772.41346929625001
 21
956.99727678990007
  0
LINE
  8
_0-5_フレ_ム
  6
CONTINUOUS
 62
    7
 10
721.91352729624998
 20
953.09728578990007
 11
721.91353329625008
 21
950.09728578990007
  0
LINE
  8
_0-5_フレ_ム
  6
CONTINUOUS
 62
    7
 10
724.91352729624987
 20
953.09728578990007
 11
724.91352729624987
 21
950.09728578990007
  0
ARC
  8
_0-5_フレ_ム
  6
CONTINUOUS
 62
    7
 10
723.41353329625008
 20
953.09728578990007
 40
1.499994
 50
0
 51
180
  0
LINE
  8
_0-5_フレ_ム
  6
CONTINUOUS
 62
    7
 10
721.91353329625008
 20
950.09728578990007
 11
722.41353129624997
 21
950.09728578990007
  0
LINE
  8
_0-5_フレ_ム
  6
CONTINUOUS
 62
    7
 10
724.91352729624987
 20
950.09728578990007
 11
724.41352629624998
 21
950.09728578990007
  0
ARC
  8
_0-5_フレ_ム
  6
CONTINUOUS
 62
    7
 10
777.41349129625007
 20
957.79726578989994
 40
0.500001
 50
0
 51
90
  0
LINE
  8
_0-5_フレ_ム
  6
CONTINUOUS
 62
    7
 10
720.41353029624997
 20
952.89727578989994
 11
720.41353029624997
 21
947.89727778990004
  0
LINE
  8
_0-5_フレ_ム
  6
CONTINUOUS
 62
    7
 10
720.41353029624997
 20
947.89727778990004
 11
721.91353029625009
 21
947.89727778990004
  0
LINE
  8
_0-5_フレ_ム
  6
CONTINUOUS
 62
    7
 10
724.91353029624997
 20
947.89727778990004
 11
726.41353029625009
 21
947.89727778990004
  0
LINE
  8
_0-5_フレ_ム
  6
CONTINUOUS
 62
    7
 10
726.41353029625009
 20
947.89727778990004
 11
726.41353029625009
 21
952.89727578989994
  0
ARC
  8
_0-5_フレ_ム
  6
CONTINUOUS
 62
    7
 10
723.41353029624997
 20
952.89727578989994
 40
1.7000010000000001
 50
0
 51
180
  0
ARC
  8
_0-5_フレ_ム
  6
CONTINUOUS
 62
    7
 10
723.41353029624997
 20
952.89727578989994
 40
3
 50
0
 51
180
  0
LINE
  8
_0-5_フレ_ム
  6
CONTINUOUS
 62
    7
 10
724.91352429624999
 20
949.89727578990005
 11
724.66967829625003
 21
949.89727578990005
  0
ARC
  8
_0-5_フレ_ム
  6
CONTINUOUS
 62
    7
 10
724.66967829625003
 20
949.69727778989989
 40
0.2000009999999999
 50
90
 51
194.0364020001
  0
LINE
  8
_0-5_フレ_ム
  6
CONTINUOUS
 62
    7
 10
724.91353029624997
 20
947.89727778990004
 11
724.47565029625002
 21
949.64877078990003
  0
LINE
  8
_0-5_フレ_ム
  6
CONTINUOUS
 62
    7
 10
721.91353029625009
 20
949.89727578990005
 11
722.15737329624994
 21
949.89727578990005
  0
ARC
  8
_0-5_フレ_ム
  6
CONTINUOUS
 62
    7
 10
722.15737329624994
 20
949.69727778989989
 40
0.2000009999999999
 50
345.96380799996001
 51
90.000000000000014
  0
LINE
  8
_0-5_フレ_ム
  6
CONTINUOUS
 62
    7
 10
721.91353029625009
 20
947.89727778990004
 11
722.35140429625005
 21
949.64877078990003
  0
LINE
  8
_0-5_フレ_ム
  6
CONTINUOUS
 62
    7
 10
724.91352429624999
 20
949.89727578990005
 11
725.11352229625004
 21
949.89727578990005
  0
LINE
  8
_0-5_フレ_ム
  6
CONTINUOUS
 62
    7
 10
725.11352229625004
 20
949.89727578990005
 11
725.11352829625002
 21
952.89727578989994
  0
LINE
  8
_0-5_フレ_ム
  6
CONTINUOUS
 62
    7
 10
721.91353029625009
 20
949.89727578990005
 11
721.71352929625004
 21
949.89727578990005
  0
LINE
  8
_0-5_フレ_ム
  6
CONTINUOUS
 62
    7
 10
721.71352929625004
 20
949.89727578990005
 11
721.71352929625004
 21
952.89727578989994
  0
LINE
  8
_0-5_フレ_ム
  6
CONTINUOUS
 62
    7
 10
765.91346229625003
 20
937.29730278990007
 11
747.91346229625003
 21
937.29730278990007
  0
LINE
  8
_0-5_フレ_ム
  6
CONTINUOUS
 62
    7
 10
613.41346029625004
 20
953.29728378990001
 11
613.41346891055002
 21
959.99728278990005
  0
LINE
  8
_0-5_フレ_ム
  6
CONTINUOUS
 62
    7
 10
611.91345729625004
 20
959.99728278990005
 11
611.91345729625004
 21
952.29727278990003
  0
LINE
  8
_0-3_躯体
  6
HIDDEN
 62
    7
 10
591.91345929625004
 20
934.29727878989991
 11
591.91345929625004
 21
875.29727778989991
  0
LINE
  8
_0-3_躯体
  6
HIDDEN
 62
    7
 10
671.91346329625003
 20
875.29727778989991
 11
591.91345929625004
 21
875.29727778989991
  0
LINE
  8
_0-3_躯体
  6
HIDDEN
 62
    7
 10
801.91346529625002
 20
934.29727878989991
 11
801.91346529625002
 21
875.29727778989991
  0
LINE
  8
_0-3_躯体
  6
HIDDEN
 62
    7
 10
721.91346129625003
 20
875.29727778989991
 11
801.91346529625002
 21
875.29727778989991
  0
LINE
  8
_0-3_躯体
  6
HIDDEN
 62
    9
 10
591.91347129625001
 20
960.29726478990005
 11
591.91347129625001
 21
934.29727878989991
  0
LINE
  8
_0-3_躯体
  6
HIDDEN
 62
    9
 10
801.91345629625005
 20
960.29726478990005
 11
801.91345629625005
 21
934.29727878989991
  0
LINE
  8
_0-3_躯体
  6
CONTINUOUS
 62
    7
 10
615.98405751254995
 20
935.92792804150008
 11
614.35340826095
 21
934.29727878989991
  0
LINE
  8
_0-3_躯体
  6
CONTINUOUS
 62
    7
 10
615.91337897924996
 20
940.09989019540001
 11
610.11076757385001
 21
934.29727878989991
  0
LINE
  8
_0-3_躯体
  6
CONTINUOUS
 62
    7
 10
615.91341321335005
 20
944.3425651166001
 11
605.86812688675002
 21
934.29727878989991
  0
LINE
  8
_0-3_躯体
  6
CONTINUOUS
 62
    7
 10
615.91344744734999
 20
948.58524003770003
 11
601.62548619954998
 21
934.29727878989991
  0
LINE
  8
_0-3_躯体
  6
CONTINUOUS
 62
    7
 10
614.38284280225002
 20
951.29727607969994
 11
597.38284551244999
 21
934.29727878989991
  0
LINE
  8
_0-3_躯体
  6
CONTINUOUS
 62
    7
 10
611.91346000625003
 20
953.07053397079994
 11
593.14020482535
 21
934.29727878989991
  0
LINE
  8
_0-3_躯体
  6
CONTINUOUS
 62
    7
 10
611.91345841525003
 20
957.31317306700009
 11
591.91347129625001
 21
937.31318594789991
  0
LINE
  8
_0-3_躯体
  6
CONTINUOUS
 62
    7
 10
610.65490945115005
 20
960.29726478990005
 11
591.91347129625001
 21
941.55582663500002
  0
LINE
  8
_0-3_躯体
  6
CONTINUOUS
 62
    7
 10
606.41226876395001
 20
960.29726478990005
 11
591.91347129625001
 21
945.79846732220005
  0
LINE
  8
_0-3_躯体
  6
CONTINUOUS
 62
    7
 10
602.16962807685002
 20
960.29726478990005
 11
591.91347129625001
 21
950.04110800929993
  0
LINE
  8
_0-3_躯体
  6
CONTINUOUS
 62
    7
 10
597.92698738975002
 20
960.29726478990005
 11
591.91347129625001
 21
954.28374869639993
  0
LINE
  8
_0-3_躯体
  6
CONTINUOUS
 62
    7
 10
593.68434670265003
 20
960.29726478990005
 11
591.91347129625001
 21
958.52638938349992
  0
LINE
  8
_0-3_躯体
  6
CONTINUOUS
 62
    7
 10
801.91345629625005
 20
935.18113659200003
 11
801.02959849415004
 21
934.29727878989991
  0
LINE
  8
_0-3_躯体
  6
CONTINUOUS
 62
    7
 10
801.91345629625005
 20
939.42377727910002
 11
796.78695780704993
 21
934.29727878989991
  0
LINE
  8
_0-3_躯体
  6
CONTINUOUS
 62
    7
 10
801.91345629625005
 20
943.66641796620002
 11
792.54431711994994
 21
934.29727878989991
  0
LINE
  8
_0-3_躯体
  6
CONTINUOUS
 62
    7
 10
801.91345629625005
 20
947.90905865329989
 11
788.30167643284994
 21
934.29727878989991
  0
LINE
  8
_0-3_躯体
  6
CONTINUOUS
 62
    7
 10
801.91345629625005
 20
952.15169934039989
 11
784.05903574575007
 21
934.29727878989991
  0
LINE
  8
_0-3_躯体
  6
CONTINUOUS
 62
    7
 10
801.91345629625005
 20
956.39434002760004
 11
779.81639505855003
 21
934.29727878989991
  0
LINE
  8
_0-3_躯体
  6
CONTINUOUS
 62
    7
 10
801.57374037145007
 20
960.29726478990005
 11
777.91357655425008
 21
936.63710097279989
  0
LINE
  8
_0-3_躯体
  6
CONTINUOUS
 62
    7
 10
797.33109968434997
 20
960.29726478990005
 11
777.91354232084996
 21
940.87970742639993
  0
LINE
  8
_0-3_躯体
  6
CONTINUOUS
 62
    7
 10
793.08845899724997
 20
960.29726478990005
 11
777.91350808735001
 21
945.12231388000009
  0
LINE
  8
_0-3_躯体
  6
CONTINUOUS
 62
    7
 10
788.84581831014998
 20
960.29726478990005
 11
781.91346729625002
 21
953.36491377599998
  0
LINE
  8
_0-3_躯体
  6
CONTINUOUS
 62
    7
 10
779.84582815365002
 20
951.29727463340009
 11
777.91347385384995
 21
949.36492033369996
  0
LINE
  8
_0-3_躯体
  6
CONTINUOUS
 62
    7
 10
784.60317762295006
 20
960.29726478990005
 11
781.91346729625002
 21
957.6075544631999
  0
CIRCLE
  8
_0-a_寸法
  6
CONTINUOUS
 62
    7
 10
612.96003009845003
 20
926.67562029309988
 40
0.5999999999999999
  0
LINE
  8
_0-a_寸法
  6
CONTINUOUS
 62
    7
 10
612.96003009845003
 20
926.67562029309988
 11
589.46765486795005
 21
885.98563160419997
  0
TEXT
  8
_0-a_寸法
 62
    7
 10
473.96765486792003
 20
885.98563160419997
 40
10.5
 41
1
 50
0
  1
ならしモルタル（別途）
  0
LINE
  8
_0-a_寸法
  6
CONTINUOUS
 62
    7
 10
589.46765486795005
 20
885.98563160419997
 11
472.7747623253
 21
885.98563160419997
  0
TEXT
  8
_0-a_寸法
 62
    7
 10
583.14441757104998
 20
924.04727778989991
 40
10.5
 41
1
 50
90.000003000000191
  1
10
  0
TEXT
  8
_0-a_寸法
 62
    7
 10
583.14441757104998
 20
942.04727178989992
 40
10.5
 41
1
 50
90.000003000000191
  1
26
  0
TEXT
  8
_0-a_寸法
 62
    7
 10
591.66345729625004
 20
1003.7219167899001
 40
10.5
 41
1
 50
0
  1
1.5
  0
TEXT
  8
_0-a_寸法
 62
    7
 10
786.41346729625002
 20
1003.7219167899001
 40
10.5
 41
1
 50
0
  1
1.5
  0
TEXT
  8
_0-a_寸法
 62
    7
 10
744.16345929624993
 20
1003.7219167899001
 40
10.5
 41
1
 50
0
  1
62
  0
TEXT
  8
_0-a_寸法
 62
    7
 10
639.16346829625002
 20
1003.7219167899001
 40
10.5
 41
1
 50
0
  1
62
  0
TEXT
  8
_0-a_寸法
 62
    7
 10
691.66346379624997
 20
1003.7219167899001
 40
10.5
 41
1
 50
0
  1
43
  0
TEXT
  8
_0-a_寸法
 62
    7
 10
689.03846229625003
 20
1017.2235637899
 40
10.5
 41
1
 50
0
  1
170
  0
TEXT
  8
_0-a_寸法
 62
    7
 10
691.66346379624997
 20
855.1123987899
 40
10.5
 41
1
 50
0
  1
50
  0
TEXT
  8
_0-a_寸法
 62
    7
 10
734.16346329625003
 20
855.1123987899
 40
10.5
 41
1
 50
0
  1
35
  0
TEXT
  8
_0-a_寸法
 62
    7
 10
649.16346279625009
 20
855.1123987899
 40
10.5
 41
1
 50
0
  1
35
  0
TEXT
  8
_0-a_寸法
 62
    7
 10
710.80191729624994
 20
869.84736978989997
 40
9.5999999999999996
 41
1
 50
0
  1
4
  0
TEXT
  8
_0-a_寸法
 62
    7
 10
736.23259929624987
 20
904.14410778990009
 40
9.5999999999999996
 41
1
 50
0
  1
7
  0
LINE
  8
_0-8_小物
  6
CONTINUOUS
 62
    7
 10
633.37509969544999
 20
914.44004312589993
 11
631.53455529625001
 21
919.4968987899
  0
LINE
  8
_0-8_小物
  6
CONTINUOUS
 62
    7
 10
640.45182789695002
 20
914.44004312589993
 11
642.29237229625005
 21
919.4968987899
  0
LINE
  8
_0-3_躯体
  6
CONTINUOUS
 62
    7
 10
611.91345729625004
 20
959.99728278990005
 11
611.91345729625004
 21
960.29726478990005
  0
LINE
  8
_0-5_フレ_ム
  6
CONTINUOUS
 62
    7
 10
780.41345829625004
 20
959.99728278990005
 11
780.41345829625004
 21
953.30302031029998
  0
LINE
  8
_0-5_フレ_ム
  6
CONTINUOUS
 62
    7
 10
781.91346729625002
 20
959.99728278990005
 11
781.91346729625002
 21
952.29727278990003
  0
LINE
  8
_0-3_躯体
  6
CONTINUOUS
 62
    7
 10
781.91345529624994
 20
960.29726478990005
 11
781.91345529624994
 21
959.99728278990005
  0
LINE
  8
_0-3_躯体
  6
CONTINUOUS
 62
    7
 10
1269.6956826073501
 20
928.36167380120003
 11
1269.69560160735
 21
918.36167180120003
  0
LINE
  8
_0-3_躯体
  6
CONTINUOUS
 62
    7
 10
1269.69560160735
 20
918.36167180120003
 11
1335.69580860735
 21
918.36167180120003
  0
LINE
  8
_0-3_躯体
  6
CONTINUOUS
 62
    7
 10
1335.69580860735
 20
928.36167380120003
 11
1255.6958016073499
 21
928.36167380120003
  0
LINE
  8
_0-3_躯体
  6
CONTINUOUS
 62
    7
 10
1255.6958136073499
 20
954.36165980119995
 11
1275.69581460735
 21
954.36165980119995
  0
LINE
  8
_0-4_止水補助板
  6
CONTINUOUS
 62
    7
 10
1280.6956896073502
 20
929.36167280120003
 11
1336.4706036073499
 21
929.36167280120003
  0
LINE
  8
_0-8_小物
  6
CONTINUOUS
 62
    7
 10
1283.92910760735
 20
943.69636280120005
 11
1283.92910760735
 21
943.36166180120006
  0
LINE
  8
_0-8_小物
  6
CONTINUOUS
 62
    7
 10
1281.5957766073502
 20
954.36165980119995
 11
1281.5957766073502
 21
954.06165980119999
  0
LINE
  8
_0-8_小物
  6
CONTINUOUS
 62
    7
 10
1281.5957766073502
 20
954.06165980119999
 11
1283.92910760735
 21
952.0616618012001
  0
LINE
  8
_0-8_小物
  6
CONTINUOUS
 62
    7
 10
1283.92910760735
 20
952.0616618012001
 11
1286.4624426073499
 21
952.0616618012001
  0
LINE
  8
_0-8_小物
  6
CONTINUOUS
 62
    7
 10
1281.5957766073502
 20
954.06165980119999
 11
1288.79577660735
 21
954.06165980119999
  0
LINE
  8
_0-8_小物
  6
CONTINUOUS
 62
    7
 10
1288.79577660735
 20
954.36165980119995
 11
1288.79577660735
 21
954.06165980119999
  0
LINE
  8
_0-8_小物
  6
CONTINUOUS
 62
    7
 10
1288.79577660735
 20
954.06165980119999
 11
1286.4624426073499
 21
952.0616618012001
  0
LINE
  8
_0-8_小物
  6
CONTINUOUS
 62
    7
 10
1283.92910760735
 20
951.80094380119999
 11
1285.1957766073499
 21
951.84792380120007
  0
LINE
  8
_0-8_小物
  6
CONTINUOUS
 62
    7
 10
1283.92910760735
 20
950.95416380120002
 11
1285.1957766073499
 21
951.84792380120007
  0
LINE
  8
_0-8_小物
  6
CONTINUOUS
 62
    7
 10
1283.92910760735
 20
943.36166180120006
 11
1283.92910760735
 21
939.28542080119996
  0
LINE
  8
_0-8_小物
  6
CONTINUOUS
 62
    7
 10
1286.4624426073499
 20
944.63710280119994
 11
1286.4624426073499
 21
939.28542080119996
  0
LINE
  8
_0-8_小物
  6
CONTINUOUS
 62
    7
 10
1283.92910760735
 20
945.57784280120006
 11
1283.92910760735
 21
944.54314280120002
  0
LINE
  8
_0-8_小物
  6
CONTINUOUS
 62
    7
 10
1286.4624426073499
 20
945.48388280119991
 11
1286.4624426073499
 21
946.51858280119995
  0
LINE
  8
_0-8_小物
  6
CONTINUOUS
 62
    7
 10
1283.92910760735
 20
943.69636280120005
 11
1286.4624426073499
 21
944.63710280119994
  0
LINE
  8
_0-8_小物
  6
CONTINUOUS
 62
    7
 10
1283.92910760735
 20
944.54314280120002
 11
1286.4624426073499
 21
945.48388280119991
  0
LINE
  8
_0-8_小物
  6
CONTINUOUS
 62
    7
 10
1283.1957756073502
 20
944.11975280120009
 11
1287.1957746073499
 21
945.0604928012001
  0
LINE
  8
_0-8_小物
  6
CONTINUOUS
 62
    7
 10
1283.1957756073502
 20
944.11975280120009
 11
1283.92910760735
 21
943.69636280120005
  0
LINE
  8
_0-8_小物
  6
CONTINUOUS
 62
    7
 10
1283.1957756073502
 20
944.11975280120009
 11
1283.92910760735
 21
944.54314280120002
  0
LINE
  8
_0-8_小物
  6
CONTINUOUS
 62
    7
 10
1287.1957746073499
 20
945.0604928012001
 11
1286.4624426073499
 21
944.63710280119994
  0
LINE
  8
_0-8_小物
  6
CONTINUOUS
 62
    7
 10
1286.4624426073499
 20
945.48388280119991
 11
1287.1957746073499
 21
945.0604928012001
  0
LINE
  8
_0-8_小物
  6
CONTINUOUS
 62
    7
 10
1283.92910760735
 20
947.45932580119995
 11
1283.92910760735
 21
946.42462280120003
  0
LINE
  8
_0-8_小物
  6
CONTINUOUS
 62
    7
 10
1286.4624426073499
 20
947.36536580120003
 11
1286.4624426073499
 21
948.40006580120007
  0
LINE
  8
_0-8_小物
  6
CONTINUOUS
 62
    7
 10
1283.92910760735
 20
945.57784280120006
 11
1286.4624426073499
 21
946.51858280119995
  0
LINE
  8
_0-8_小物
  6
CONTINUOUS
 62
    7
 10
1283.92910760735
 20
946.42462280120003
 11
1286.4624426073499
 21
947.36536580120003
  0
LINE
  8
_0-8_小物
  6
CONTINUOUS
 62
    7
 10
1283.1957756073502
 20
946.00123280119999
 11
1287.1957746073499
 21
946.94197280119988
  0
LINE
  8
_0-8_小物
  6
CONTINUOUS
 62
    7
 10
1283.1957756073502
 20
946.00123280119999
 11
1283.92910760735
 21
945.57784280120006
  0
LINE
  8
_0-8_小物
  6
CONTINUOUS
 62
    7
 10
1283.1957756073502
 20
946.00123280119999
 11
1283.92910760735
 21
946.42462280120003
  0
LINE
  8
_0-8_小物
  6
CONTINUOUS
 62
    7
 10
1287.1957746073499
 20
946.94197280119988
 11
1286.4624426073499
 21
946.51858280119995
  0
LINE
  8
_0-8_小物
  6
CONTINUOUS
 62
    7
 10
1286.4624426073499
 20
947.36536580120003
 11
1287.1957746073499
 21
946.94197280119988
  0
LINE
  8
_0-8_小物
  6
CONTINUOUS
 62
    7
 10
1283.92910760735
 20
949.34080580119996
 11
1283.92910760735
 21
948.30610580119992
  0
LINE
  8
_0-8_小物
  6
CONTINUOUS
 62
    7
 10
1286.4624426073499
 20
949.24684580120004
 11
1286.4624426073499
 21
950.28154580120008
  0
LINE
  8
_0-8_小物
  6
CONTINUOUS
 62
    7
 10
1283.92910760735
 20
947.45932580119995
 11
1286.4624426073499
 21
948.40006580120007
  0
LINE
  8
_0-8_小物
  6
CONTINUOUS
 62
    7
 10
1283.92910760735
 20
948.30610580119992
 11
1286.4624426073499
 21
949.24684580120004
  0
LINE
  8
_0-8_小物
  6
CONTINUOUS
 62
    7
 10
1283.1957756073502
 20
947.88271580119999
 11
1287.1957746073499
 21
948.82345580119988
  0
LINE
  8
_0-8_小物
  6
CONTINUOUS
 62
    7
 10
1283.1957756073502
 20
947.88271580119999
 11
1283.92910760735
 21
947.45932580119995
  0
LINE
  8
_0-8_小物
  6
CONTINUOUS
 62
    7
 10
1283.1957756073502
 20
947.88271580119999
 11
1283.92910760735
 21
948.30610580119992
  0
LINE
  8
_0-8_小物
  6
CONTINUOUS
 62
    7
 10
1287.1957746073499
 20
948.82345580119988
 11
1286.4624426073499
 21
948.40006580120007
  0
LINE
  8
_0-8_小物
  6
CONTINUOUS
 62
    7
 10
1286.4624426073499
 20
949.24684580120004
 11
1287.1957746073499
 21
948.82345580119988
  0
LINE
  8
_0-8_小物
  6
CONTINUOUS
 62
    7
 10
1283.92910760735
 20
950.42559980120006
 11
1283.92910760735
 21
950.18758580119993
  0
LINE
  8
_0-8_小物
  6
CONTINUOUS
 62
    7
 10
1286.4624426073499
 20
952.0616618012001
 11
1286.4624426073499
 21
951.12832880119993
  0
LINE
  8
_0-8_小物
  6
CONTINUOUS
 62
    7
 10
1283.92910760735
 20
949.34080580119996
 11
1286.4624426073499
 21
950.28154580120008
  0
LINE
  8
_0-8_小物
  6
CONTINUOUS
 62
    7
 10
1283.92910760735
 20
950.18758580119993
 11
1286.4624426073499
 21
951.12832880119993
  0
LINE
  8
_0-8_小物
  6
CONTINUOUS
 62
    7
 10
1283.1957756073502
 20
949.7641958012
 11
1287.1957746073499
 21
950.70493580120001
  0
LINE
  8
_0-8_小物
  6
CONTINUOUS
 62
    7
 10
1283.1957756073502
 20
949.7641958012
 11
1283.92910760735
 21
949.34080580119996
  0
LINE
  8
_0-8_小物
  6
CONTINUOUS
 62
    7
 10
1283.1957756073502
 20
949.7641958012
 11
1283.92910760735
 21
950.18758580119993
  0
LINE
  8
_0-8_小物
  6
CONTINUOUS
 62
    7
 10
1286.4624426073499
 20
950.28154580120008
 11
1287.1957746073499
 21
950.70493580120001
  0
LINE
  8
_0-8_小物
  6
CONTINUOUS
 62
    7
 10
1286.4624426073499
 20
951.12832880119993
 11
1287.1957746073499
 21
950.70493580120001
  0
LINE
  8
_0-8_小物
  6
CONTINUOUS
 62
    7
 10
1283.92910760735
 20
952.0616618012001
 11
1283.92910760735
 21
951.80094380119999
  0
LINE
  8
_0-8_小物
  6
CONTINUOUS
 62
    7
 10
1285.1957766073499
 20
951.84792380120007
 11
1283.1957756073502
 21
951.37755380119995
  0
LINE
  8
_0-8_小物
  6
CONTINUOUS
 62
    7
 10
1283.1957756073502
 20
951.37755380119995
 11
1283.92910760735
 21
950.95416380120002
  0
LINE
  8
_0-8_小物
  6
CONTINUOUS
 62
    7
 10
1283.1957756073502
 20
951.37755380119995
 11
1283.92910760735
 21
951.80094380119999
  0
LINE
  8
_0-8_小物
  6
CONTINUOUS
 62
    7
 10
1283.92910760735
 20
950.95416380120002
 11
1283.92910760735
 21
950.42559980120006
  0
LINE
  8
_0-8_小物
  6
CONTINUOUS
 62
    7
 10
1285.1957766073499
 20
940.36166180120006
 11
1285.1957766073499
 21
938.36166080119995
  0
LINE
  8
_0-8_小物
  6
CONTINUOUS
 62
    7
 10
1286.4624426073499
 20
943.36166180120006
 11
1283.9291226073499
 21
943.36166180120006
  0
LINE
  8
_0-8_小物
  6
CONTINUOUS
 62
    7
 10
1285.1957766073499
 20
938.36166080119995
 11
1283.9291106073501
 21
939.28542080119996
  0
LINE
  8
_0-8_小物
  6
CONTINUOUS
 62
    7
 10
1285.1957766073499
 20
938.36166080119995
 11
1286.4624426073499
 21
939.28542080119996
  0
ARC
  8
_0-8_小物
  6
CONTINUOUS
 62
    7
 10
1285.57054860735
 20
938.63706380119993
 40
1.7648489999999999
 50
102.260329
 51
158.446304
  0
ARC
  8
_0-8_小物
  6
CONTINUOUS
 62
    7
 10
1291.20205860735
 20
939.59308280120001
 40
6.0552600000000005
 50
141.51097799999997
 51
172.70791799999998
  0
LINE
  8
_0-8_小物
  6
CONTINUOUS
 62
    7
 10
1295.6958066073501
 20
928.36167380120003
 11
1305.69580860735
 21
928.36167380120003
  0
LINE
  8
_0-8_小物
  6
CONTINUOUS
 62
    7
 10
1291.6958076073502
 20
932.86169780120008
 11
1291.6958076073502
 21
931.36169780119997
  0
LINE
  8
_0-8_小物
  6
CONTINUOUS
 62
    7
 10
1291.6958076073502
 20
932.86169780120008
 11
1309.6958076073499
 21
932.86169780120008
  0
LINE
  8
_0-8_小物
  6
CONTINUOUS
 62
    7
 10
1309.6958076073499
 20
932.86169780120008
 11
1309.6958076073499
 21
931.36169780119997
  0
LINE
  8
_0-8_小物
  6
CONTINUOUS
 62
    7
 10
1307.0144076073502
 20
913.21927280120008
 11
1308.0067626073501
 21
920.02289480119998
  0
ARC
  8
_0-8_小物
  6
CONTINUOUS
 62
    7
 10
1307.6109516073502
 20
920.08062680120008
 40
0.3999989999999999
 50
351.70153399995502
 51
81.869898000020001
  0
LINE
  8
_0-8_小物
  6
CONTINUOUS
 62
    7
 10
1307.6675196073502
 20
920.47660880120009
 11
1307.4706956073499
 21
920.50472480119993
  0
ARC
  8
_0-8_小物
  6
CONTINUOUS
 62
    7
 10
1307.4141276073499
 20
920.10874580120003
 40
0.3999989999999999
 50
81.869898000020001
 51
171.86989800000001
  0
LINE
  8
_0-8_小物
  6
CONTINUOUS
 62
    7
 10
1307.0181456073499
 20
920.1653138012
 11
1306.07471460735
 21
913.56129380120001
  0
LINE
  8
_0-8_小物
  6
CONTINUOUS
 62
    7
 10
1307.0144076073502
 20
913.21927280120008
 11
1308.0067626073501
 21
920.02289480119998
  0
ARC
  8
_0-8_小物
  6
CONTINUOUS
 62
    7
 10
1307.6109516073502
 20
920.08062680120008
 40
0.3999989999999999
 50
351.70153399995502
 51
81.869898000020001
  0
LINE
  8
_0-8_小物
  6
CONTINUOUS
 62
    7
 10
1307.6675196073502
 20
920.47660880120009
 11
1307.4706956073499
 21
920.50472480119993
  0
ARC
  8
_0-8_小物
  6
CONTINUOUS
 62
    7
 10
1307.4141276073499
 20
920.10874580120003
 40
0.3999989999999999
 50
81.869898000020001
 51
171.86989800000001
  0
LINE
  8
_0-8_小物
  6
CONTINUOUS
 62
    7
 10
1307.0181456073499
 20
920.1653138012
 11
1306.07471460735
 21
913.56129380120001
  0
LINE
  8
_0-8_小物
  6
CONTINUOUS
 62
    7
 10
1294.3772076073501
 20
913.21927280120008
 11
1293.3848526073502
 21
920.02289480119998
  0
ARC
  8
_0-8_小物
  6
CONTINUOUS
 62
    7
 10
1293.7806636073501
 20
920.08062680120008
 40
0.3999989999999999
 50
98.130102000030007
 51
188.29846599999999
  0
LINE
  8
_0-8_小物
  6
CONTINUOUS
 62
    7
 10
1293.7240956073501
 20
920.47660880120009
 11
1293.92091960735
 21
920.50472480119993
  0
ARC
  8
_0-8_小物
  6
CONTINUOUS
 62
    7
 10
1293.97748760735
 20
920.10874580120003
 40
0.3999989999999999
 50
8.1301019999790007
 51
98.130102000029993
  0
LINE
  8
_0-8_小物
  6
CONTINUOUS
 62
    7
 10
1294.3734666073499
 20
920.1653138012
 11
1295.3168976073498
 21
913.56129380120001
  0
LINE
  8
_0-8_小物
  6
CONTINUOUS
 62
    7
 10
1296.69580860735
 20
916.36167380120003
 11
1296.69580860735
 21
920.36167280120003
  0
LINE
  8
_0-8_小物
  6
CONTINUOUS
 62
    7
 10
1298.6780646073501
 20
891.40141580120007
 11
1295.18286060735
 21
891.58459280119996
  0
LINE
  8
_0-8_小物
  6
CONTINUOUS
 62
    7
 10
1295.18286060735
 20
891.58459280119996
 11
1297.07544960735
 21
889.48266080119993
  0
LINE
  8
_0-8_小物
  6
CONTINUOUS
 62
    7
 10
1297.07544960735
 20
889.48266080119993
 11
1298.57339160735
 21
889.40415680119997
  0
LINE
  8
_0-8_小物
  6
CONTINUOUS
 62
    7
 10
1298.57339160735
 20
889.40415680119997
 11
1300.1958066073503
 21
920.36167280120003
  0
LINE
  8
_0-8_小物
  6
CONTINUOUS
 62
    7
 10
1304.6958066073501
 20
916.36167380120003
 11
1304.6958066073501
 21
920.36167280120003
  0
LINE
  8
_0-8_小物
  6
CONTINUOUS
 62
    7
 10
1302.71355060735
 20
891.40141580120007
 11
1306.2087546073499
 21
891.58459280119996
  0
LINE
  8
_0-8_小物
  6
CONTINUOUS
 62
    7
 10
1306.2087546073499
 20
891.58459280119996
 11
1304.3161656073498
 21
889.48266080119993
  0
LINE
  8
_0-8_小物
  6
CONTINUOUS
 62
    7
 10
1304.3161656073498
 20
889.48266080119993
 11
1302.8182206073502
 21
889.40415680119997
  0
LINE
  8
_0-8_小物
  6
CONTINUOUS
 62
    7
 10
1302.8182206073502
 20
889.40415680119997
 11
1301.19580860735
 21
920.36167280120003
  0
LINE
  8
_0-8_小物
  6
CONTINUOUS
 62
    7
 10
1297.1367516073499
 20
908.56129280120001
 11
1295.3168976073498
 21
913.56129380120001
  0
LINE
  8
_0-8_小物
  6
CONTINUOUS
 62
    7
 10
1296.07257360735
 20
908.56129280120001
 11
1294.3772076073501
 21
913.21927280120008
  0
LINE
  8
_0-8_小物
  6
CONTINUOUS
 62
    7
 10
1304.25486360735
 20
908.56129280120001
 11
1306.07471460735
 21
913.56129380120001
  0
LINE
  8
_0-8_小物
  6
CONTINUOUS
 62
    7
 10
1305.3190416073498
 20
908.56129280120001
 11
1307.0144076073502
 21
913.21927280120008
  0
LINE
  8
_0-8_小物
  6
CONTINUOUS
 62
    7
 10
1296.69580860735
 20
916.36167380120003
 11
1298.4361836073501
 21
915.44702780120008
  0
LINE
  8
_0-8_小物
  6
CONTINUOUS
 62
    7
 10
1298.82636360735
 20
894.23111780119996
 11
1300.6958076073499
 21
892.36167380119991
  0
LINE
  8
_0-8_小物
  6
CONTINUOUS
 62
    7
 10
1298.4361836073501
 20
915.44702780120008
 11
1298.3315106073499
 21
913.44976880119998
  0
LINE
  8
_0-8_小物
  6
CONTINUOUS
 62
    7
 10
1298.3315106073499
 20
913.44976880119998
 11
1296.3342516073499
 21
913.55444180120003
  0
LINE
  8
_0-8_小物
  6
CONTINUOUS
 62
    7
 10
1296.3342516073499
 20
913.55444180120003
 11
1296.2295816073502
 21
911.55718280120004
  0
LINE
  8
_0-8_小物
  6
CONTINUOUS
 62
    7
 10
1296.2295816073502
 20
911.55718280120004
 11
1298.17450260735
 21
910.45388180119994
  0
LINE
  8
_0-8_小物
  6
CONTINUOUS
 62
    7
 10
1298.17450260735
 20
910.45388180119994
 11
1298.06983260735
 21
908.45662280119996
  0
LINE
  8
_0-8_小物
  6
CONTINUOUS
 62
    7
 10
1298.06983260735
 20
908.45662280119996
 11
1296.07257360735
 21
908.56129280120001
  0
LINE
  8
_0-8_小物
  6
CONTINUOUS
 62
    7
 10
1296.07257360735
 20
908.56129280120001
 11
1295.96790060735
 21
906.56403380119991
  0
LINE
  8
_0-8_小物
  6
CONTINUOUS
 62
    7
 10
1295.96790060735
 20
906.56403380119991
 11
1297.9128246073501
 21
905.46073280120004
  0
LINE
  8
_0-8_小物
  6
CONTINUOUS
 62
    7
 10
1297.9128246073501
 20
905.46073280120004
 11
1297.8081516073503
 21
903.46347380119994
  0
LINE
  8
_0-8_小物
  6
CONTINUOUS
 62
    7
 10
1297.8081516073503
 20
903.46347380119994
 11
1295.8108926073498
 21
903.5681468012001
  0
LINE
  8
_0-8_小物
  6
CONTINUOUS
 62
    7
 10
1295.8108926073498
 20
903.5681468012001
 11
1295.70621960735
 21
901.57088780119989
  0
LINE
  8
_0-8_小物
  6
CONTINUOUS
 62
    7
 10
1295.70621960735
 20
901.57088780119989
 11
1297.6511436073499
 21
900.4675868011999
  0
LINE
  8
_0-8_小物
  6
CONTINUOUS
 62
    7
 10
1297.6511436073499
 20
900.4675868011999
 11
1297.5464706073501
 21
898.47032780120003
  0
LINE
  8
_0-8_小物
  6
CONTINUOUS
 62
    7
 10
1297.5464706073501
 20
898.47032780120003
 11
1295.5492116073501
 21
898.57499780120008
  0
LINE
  8
_0-8_小物
  6
CONTINUOUS
 62
    7
 10
1295.5492116073501
 20
898.57499780120008
 11
1295.4445416073499
 21
896.57773880119998
  0
LINE
  8
_0-8_小物
  6
CONTINUOUS
 62
    7
 10
1295.4445416073499
 20
896.57773880119998
 11
1297.38946260735
 21
895.47443780119988
  0
LINE
  8
_0-8_小物
  6
CONTINUOUS
 62
    7
 10
1297.38946260735
 20
895.47443780119988
 11
1297.28479260735
 21
893.47717880120001
  0
LINE
  8
_0-8_小物
  6
CONTINUOUS
 62
    7
 10
1297.28479260735
 20
893.47717880120001
 11
1295.28753360735
 21
893.58185180120006
  0
LINE
  8
_0-8_小物
  6
CONTINUOUS
 62
    7
 10
1295.28753360735
 20
893.58185180120006
 11
1295.18286060735
 21
891.58459280119996
  0
LINE
  8
_0-8_小物
  6
CONTINUOUS
 62
    7
 10
1304.6958066073501
 20
916.36167380120003
 11
1302.95543160735
 21
915.44702780120008
  0
LINE
  8
_0-8_小物
  6
CONTINUOUS
 62
    7
 10
1302.95543160735
 20
915.44702780120008
 11
1303.06010460735
 21
913.44976880119998
  0
LINE
  8
_0-8_小物
  6
CONTINUOUS
 62
    7
 10
1303.06010460735
 20
913.44976880119998
 11
1305.05736360735
 21
913.55444180120003
  0
LINE
  8
_0-8_小物
  6
CONTINUOUS
 62
    7
 10
1305.05736360735
 20
913.55444180120003
 11
1305.1620336073502
 21
911.55718280120004
  0
LINE
  8
_0-8_小物
  6
CONTINUOUS
 62
    7
 10
1305.1620336073502
 20
911.55718280120004
 11
1303.21710960735
 21
910.45388180119994
  0
LINE
  8
_0-8_小物
  6
CONTINUOUS
 62
    7
 10
1303.21710960735
 20
910.45388180119994
 11
1303.3217826073499
 21
908.45662280119996
  0
LINE
  8
_0-8_小物
  6
CONTINUOUS
 62
    7
 10
1303.3217826073499
 20
908.45662280119996
 11
1305.3190416073498
 21
908.56129280120001
  0
LINE
  8
_0-8_小物
  6
CONTINUOUS
 62
    7
 10
1305.3190416073498
 20
908.56129280120001
 11
1305.4237146073501
 21
906.56403380119991
  0
LINE
  8
_0-8_小物
  6
CONTINUOUS
 62
    7
 10
1305.4237146073501
 20
906.56403380119991
 11
1303.4787906073502
 21
905.46073280120004
  0
LINE
  8
_0-8_小物
  6
CONTINUOUS
 62
    7
 10
1303.4787906073502
 20
905.46073280120004
 11
1303.58346360735
 21
903.46347380119994
  0
LINE
  8
_0-8_小物
  6
CONTINUOUS
 62
    7
 10
1303.58346360735
 20
903.46347380119994
 11
1305.58072260735
 21
903.5681468012001
  0
LINE
  8
_0-8_小物
  6
CONTINUOUS
 62
    7
 10
1305.58072260735
 20
903.5681468012001
 11
1305.68539260735
 21
901.57088780119989
  0
LINE
  8
_0-8_小物
  6
CONTINUOUS
 62
    7
 10
1305.68539260735
 20
901.57088780119989
 11
1303.7404716073502
 21
900.4675868011999
  0
LINE
  8
_0-8_小物
  6
CONTINUOUS
 62
    7
 10
1303.7404716073502
 20
900.4675868011999
 11
1303.8451416073499
 21
898.47032780120003
  0
LINE
  8
_0-8_小物
  6
CONTINUOUS
 62
    7
 10
1303.8451416073499
 20
898.47032780120003
 11
1305.8424006073501
 21
898.57499780120008
  0
LINE
  8
_0-8_小物
  6
CONTINUOUS
 62
    7
 10
1305.8424006073501
 20
898.57499780120008
 11
1305.9470736073501
 21
896.57773880119998
  0
LINE
  8
_0-8_小物
  6
CONTINUOUS
 62
    7
 10
1305.9470736073501
 20
896.57773880119998
 11
1304.00214960735
 21
895.47443780119988
  0
LINE
  8
_0-8_小物
  6
CONTINUOUS
 62
    7
 10
1304.00214960735
 20
895.47443780119988
 11
1304.1068226073501
 21
893.47717880120001
  0
LINE
  8
_0-8_小物
  6
CONTINUOUS
 62
    7
 10
1304.1068226073501
 20
893.47717880120001
 11
1306.1040816073501
 21
893.58185180120006
  0
LINE
  8
_0-8_小物
  6
CONTINUOUS
 62
    7
 10
1306.1040816073501
 20
893.58185180120006
 11
1306.2087546073499
 21
891.58459280119996
  0
LINE
  8
_0-8_小物
  6
CONTINUOUS
 62
    7
 10
1300.1958066073503
 20
920.36167280120003
 11
1300.6958076073499
 21
920.36167280120003
  0
LINE
  8
_0-8_小物
  6
CONTINUOUS
 62
    7
 10
1301.19580860735
 20
920.36167280120003
 11
1300.6958076073499
 21
920.36167280120003
  0
LINE
  8
_0-8_小物
  6
CONTINUOUS
 62
    7
 10
1296.69580860735
 20
928.36167380120003
 11
1296.69580860735
 21
920.36167280120003
  0
LINE
  8
_0-8_小物
  6
CONTINUOUS
 62
    7
 10
1295.6958066073501
 20
928.36167380120003
 11
1296.69580860735
 21
923.36167280119992
  0
LINE
  8
_0-8_小物
  6
CONTINUOUS
 62
    7
 10
1299.69580860735
 20
928.36167380120003
 11
1300.6958076073499
 21
923.36167280119992
  0
LINE
  8
_0-8_小物
  6
CONTINUOUS
 62
    7
 10
1301.6958066073498
 20
928.36167380120003
 11
1300.6958076073499
 21
923.36167280119992
  0
LINE
  8
_0-8_小物
  6
CONTINUOUS
 62
    7
 10
1300.6958076073499
 20
923.36167280119992
 11
1300.6958076073499
 21
928.36167380120003
  0
LINE
  8
_0-8_小物
  6
CONTINUOUS
 62
    7
 10
1304.6958066073501
 20
928.36167380120003
 11
1304.6958066073501
 21
920.36167280120003
  0
LINE
  8
_0-8_小物
  6
CONTINUOUS
 62
    7
 10
1305.69580860735
 20
928.36167380120003
 11
1304.6958066073501
 21
923.36167280119992
  0
ARC
  8
_0-8_小物
  6
CONTINUOUS
 62
    7
 10
1299.19304460735
 20
932.73298880120001
 40
3
 50
128.61463800000001
 51
177.54107400000001
  0
ARC
  8
_0-8_小物
  6
CONTINUOUS
 62
    7
 10
1302.1985706073499
 20
932.73298880120001
 40
3
 50
2.458925999996
 51
51.385362000000001
  0
LINE
  8
_0-8_小物
  6
CONTINUOUS
 62
    7
 10
1300.6958076073499
 20
884.35008980120006
 11
1300.6958076073499
 21
941.87717780120011
  0
ARC
  8
_0-8_小物
  6
CONTINUOUS
 62
    7
 10
1300.6958076073499
 20
930.86169980120007
 40
5.4000000000000004
 50
90
 51
128.85106200000001
  0
ARC
  8
_0-8_小物
  6
CONTINUOUS
 62
    7
 10
1300.6958076073499
 20
930.86169980120007
 40
5.4000000000000004
 50
51.317813000000001
 51
90
  0
LINE
  8
_0-8_小物
  6
CONTINUOUS
 62
    7
 10
1302.5652516073501
 20
894.23111780119996
 11
1300.6958076073499
 21
892.36167380119991
  0
LINE
  8
_0-8_小物
  6
CONTINUOUS
 62
    7
 10
1381.19577960735
 20
968.36167280119992
 11
1382.69577960735
 21
968.36167280119992
  0
LINE
  8
_0-8_小物
  6
CONTINUOUS
 62
    7
 10
1381.19577960735
 20
968.36167280119992
 11
1381.19577960735
 21
986.36167280119992
  0
LINE
  8
_0-8_小物
  6
CONTINUOUS
 62
    7
 10
1381.19577960735
 20
986.36167280119992
 11
1382.69577960735
 21
986.36167280119992
  0
LINE
  8
_0-8_小物
  6
CONTINUOUS
 62
    7
 10
1400.8382046069501
 20
983.68027280120009
 11
1394.0345826069502
 21
984.67262780119995
  0
ARC
  8
_0-8_小物
  6
CONTINUOUS
 62
    7
 10
1393.9768506069502
 20
984.27681680120008
 40
0.3999989999999999
 50
81.701533999999995
 51
171.86989800000001
  0
LINE
  8
_0-8_小物
  6
CONTINUOUS
 62
    7
 10
1393.58087160695
 20
984.33338480120005
 11
1393.5527556069499
 21
984.13656080120006
  0
ARC
  8
_0-8_小物
  6
CONTINUOUS
 62
    7
 10
1393.94873460695
 20
984.07999280120009
 40
0.3999989999999999
 50
171.86989800000001
 51
261.86989799999998
  0
LINE
  8
_0-8_小物
  6
CONTINUOUS
 62
    7
 10
1393.89216660695
 20
983.68401080120009
 11
1400.4961866069498
 21
982.74057980120006
  0
LINE
  8
_0-8_小物
  6
CONTINUOUS
 62
    7
 10
1400.8382046069501
 20
983.68027280120009
 11
1394.0345826069502
 21
984.67262780119995
  0
ARC
  8
_0-8_小物
  6
CONTINUOUS
 62
    7
 10
1393.9768506069502
 20
984.27681680120008
 40
0.3999989999999999
 50
81.701533999999995
 51
171.86989800000001
  0
LINE
  8
_0-8_小物
  6
CONTINUOUS
 62
    7
 10
1393.58087160695
 20
984.33338480120005
 11
1393.5527556069499
 21
984.13656080120006
  0
ARC
  8
_0-8_小物
  6
CONTINUOUS
 62
    7
 10
1393.94873460695
 20
984.07999280120009
 40
0.3999989999999999
 50
171.86989800000001
 51
261.86989799999998
  0
LINE
  8
_0-8_小物
  6
CONTINUOUS
 62
    7
 10
1393.89216660695
 20
983.68401080120009
 11
1400.4961866069498
 21
982.74057980120006
  0
LINE
  8
_0-8_小物
  6
CONTINUOUS
 62
    7
 10
1400.8382046069501
 20
971.04307280119997
 11
1394.0345826069502
 21
970.05071780119988
  0
ARC
  8
_0-8_小物
  6
CONTINUOUS
 62
    7
 10
1393.9768506069502
 20
970.44652880119997
 40
0.3999989999999999
 50
188.13010199999999
 51
278.29846600000002
  0
LINE
  8
_0-8_小物
  6
CONTINUOUS
 62
    7
 10
1393.58087160695
 20
970.3899608012
 11
1393.5527556069499
 21
970.58678480119988
  0
ARC
  8
_0-8_小物
  6
CONTINUOUS
 62
    7
 10
1393.94873460695
 20
970.64335280120008
 40
0.3999989999999999
 50
98.130101999979999
 51
188.13010199999999
  0
LINE
  8
_0-8_小物
  6
CONTINUOUS
 62
    7
 10
1393.89216660695
 20
971.03933180120009
 11
1400.4961866069498
 21
971.98276280120001
  0
LINE
  8
_0-8_小物
  6
CONTINUOUS
 62
    7
 10
1397.6958066069501
 20
973.36167380120003
 11
1393.69580760695
 21
973.36167380120003
  0
LINE
  8
_0-8_小物
  6
CONTINUOUS
 62
    7
 10
1422.6560646069497
 20
975.34392980120003
 11
1422.4728876069501
 21
971.84872580119998
  0
LINE
  8
_0-8_小物
  6
CONTINUOUS
 62
    7
 10
1422.4728876069501
 20
971.84872580119998
 11
1424.5748196069503
 21
973.74131480120002
  0
LINE
  8
_0-8_小物
  6
CONTINUOUS
 62
    7
 10
1424.5748196069503
 20
973.74131480120002
 11
1424.6533236069499
 21
975.23925680119999
  0
LINE
  8
_0-8_小物
  6
CONTINUOUS
 62
    7
 10
1424.6533236069499
 20
975.23925680119999
 11
1393.69580760695
 21
976.86167180119992
  0
LINE
  8
_0-8_小物
  6
CONTINUOUS
 62
    7
 10
1397.6958066069501
 20
981.36167180119992
 11
1393.69580760695
 21
981.36167180119992
  0
LINE
  8
_0-8_小物
  6
CONTINUOUS
 62
    7
 10
1422.6560646069497
 20
979.37941580119991
 11
1422.4728876069501
 21
982.87461980119997
  0
LINE
  8
_0-8_小物
  6
CONTINUOUS
 62
    7
 10
1422.4728876069501
 20
982.87461980119997
 11
1424.5748196069503
 21
980.98203080120004
  0
LINE
  8
_0-8_小物
  6
CONTINUOUS
 62
    7
 10
1424.5748196069503
 20
980.98203080120004
 11
1424.6533236069499
 21
979.48408580120008
  0
LINE
  8
_0-8_小物
  6
CONTINUOUS
 62
    7
 10
1424.6533236069499
 20
979.48408580120008
 11
1393.69580760695
 21
977.86167380119991
  0
LINE
  8
_0-8_小物
  6
CONTINUOUS
 62
    7
 10
1405.49618460695
 20
972.7384388012
 11
1400.8382046069501
 21
971.04307280119997
  0
LINE
  8
_0-8_小物
  6
CONTINUOUS
 62
    7
 10
1405.49618460695
 20
981.98490680120005
 11
1400.8382046069501
 21
983.68027280120009
  0
LINE
  8
_0-8_小物
  6
CONTINUOUS
 62
    7
 10
1397.6958066069501
 20
973.36167380120003
 11
1398.6104496069502
 21
975.1020488012
  0
LINE
  8
_0-8_小物
  6
CONTINUOUS
 62
    7
 10
1419.8263626069499
 20
975.49222880119999
 11
1421.6958066069501
 21
977.36167280120003
  0
LINE
  8
_0-8_小物
  6
CONTINUOUS
 62
    7
 10
1398.6104496069502
 20
975.1020488012
 11
1400.6077086069502
 21
974.99737580119995
  0
LINE
  8
_0-8_小物
  6
CONTINUOUS
 62
    7
 10
1400.6077086069502
 20
974.99737580119995
 11
1400.5030386069502
 21
973.00011680120008
  0
LINE
  8
_0-8_小物
  6
CONTINUOUS
 62
    7
 10
1400.5030386069502
 20
973.00011680120008
 11
1402.50029760695
 21
972.89544680120002
  0
LINE
  8
_0-8_小物
  6
CONTINUOUS
 62
    7
 10
1402.50029760695
 20
972.89544680120002
 11
1403.6035986069498
 21
974.84036780119993
  0
LINE
  8
_0-8_小物
  6
CONTINUOUS
 62
    7
 10
1403.6035986069498
 20
974.84036780119993
 11
1405.6008576069503
 21
974.73569780119999
  0
LINE
  8
_0-8_小物
  6
CONTINUOUS
 62
    7
 10
1405.6008576069503
 20
974.73569780119999
 11
1405.49618460695
 21
972.7384388012
  0
LINE
  8
_0-8_小物
  6
CONTINUOUS
 62
    7
 10
1405.49618460695
 20
972.7384388012
 11
1407.49344360695
 21
972.63376580119996
  0
LINE
  8
_0-8_小物
  6
CONTINUOUS
 62
    7
 10
1407.49344360695
 20
972.63376580119996
 11
1408.59674760695
 21
974.57868980119997
  0
LINE
  8
_0-8_小物
  6
CONTINUOUS
 62
    7
 10
1408.59674760695
 20
974.57868980119997
 11
1410.59400660695
 21
974.47401680119992
  0
LINE
  8
_0-8_小物
  6
CONTINUOUS
 62
    7
 10
1410.59400660695
 20
974.47401680119992
 11
1410.4893336069499
 21
972.47675780120005
  0
LINE
  8
_0-8_小物
  6
CONTINUOUS
 62
    7
 10
1410.4893336069499
 20
972.47675780120005
 11
1412.4865926069497
 21
972.37208480119989
  0
LINE
  8
_0-8_小物
  6
CONTINUOUS
 62
    7
 10
1412.4865926069497
 20
972.37208480119989
 11
1413.58989360695
 21
974.3170088011999
  0
LINE
  8
_0-8_小物
  6
CONTINUOUS
 62
    7
 10
1413.58989360695
 20
974.3170088011999
 11
1415.58715260695
 21
974.21233580119997
  0
LINE
  8
_0-8_小物
  6
CONTINUOUS
 62
    7
 10
1415.58715260695
 20
974.21233580119997
 11
1415.48248260695
 21
972.21507680119998
  0
LINE
  8
_0-8_小物
  6
CONTINUOUS
 62
    7
 10
1415.48248260695
 20
972.21507680119998
 11
1417.47974160695
 21
972.11040680119993
  0
LINE
  8
_0-8_小物
  6
CONTINUOUS
 62
    7
 10
1417.47974160695
 20
972.11040680119993
 11
1418.5830426069497
 21
974.05532780119995
  0
LINE
  8
_0-8_小物
  6
CONTINUOUS
 62
    7
 10
1418.5830426069497
 20
974.05532780119995
 11
1420.5803016069501
 21
973.9506578011999
  0
LINE
  8
_0-8_小物
  6
CONTINUOUS
 62
    7
 10
1420.5803016069501
 20
973.9506578011999
 11
1420.4756286069501
 21
971.95339880120002
  0
LINE
  8
_0-8_小物
  6
CONTINUOUS
 62
    7
 10
1420.4756286069501
 20
971.95339880120002
 11
1422.4728876069501
 21
971.84872580119998
  0
LINE
  8
_0-8_小物
  6
CONTINUOUS
 62
    7
 10
1397.6958066069501
 20
981.36167180119992
 11
1398.6104496069502
 21
979.62129680120006
  0
LINE
  8
_0-8_小物
  6
CONTINUOUS
 62
    7
 10
1398.6104496069502
 20
979.62129680120006
 11
1400.6077086069502
 21
979.72596980119988
  0
LINE
  8
_0-8_小物
  6
CONTINUOUS
 62
    7
 10
1400.6077086069502
 20
979.72596980119988
 11
1400.5030386069502
 21
981.72322880120009
  0
LINE
  8
_0-8_小物
  6
CONTINUOUS
 62
    7
 10
1400.5030386069502
 20
981.72322880120009
 11
1402.50029760695
 21
981.82789880120004
  0
LINE
  8
_0-8_小物
  6
CONTINUOUS
 62
    7
 10
1402.50029760695
 20
981.82789880120004
 11
1403.6035986069498
 21
979.88297480119991
  0
LINE
  8
_0-8_小物
  6
CONTINUOUS
 62
    7
 10
1403.6035986069498
 20
979.88297480119991
 11
1405.6008576069503
 21
979.98764780119996
  0
LINE
  8
_0-8_小物
  6
CONTINUOUS
 62
    7
 10
1405.6008576069503
 20
979.98764780119996
 11
1405.49618460695
 21
981.98490680120005
  0
LINE
  8
_0-8_小物
  6
CONTINUOUS
 62
    7
 10
1405.49618460695
 20
981.98490680120005
 11
1407.49344360695
 21
982.08957980119999
  0
LINE
  8
_0-8_小物
  6
CONTINUOUS
 62
    7
 10
1407.49344360695
 20
982.08957980119999
 11
1408.59674760695
 21
980.14465580120009
  0
LINE
  8
_0-8_小物
  6
CONTINUOUS
 62
    7
 10
1408.59674760695
 20
980.14465580120009
 11
1410.59400660695
 21
980.24932880119991
  0
LINE
  8
_0-8_小物
  6
CONTINUOUS
 62
    7
 10
1410.59400660695
 20
980.24932880119991
 11
1410.4893336069499
 21
982.24658780119989
  0
LINE
  8
_0-8_小物
  6
CONTINUOUS
 62
    7
 10
1410.4893336069499
 20
982.24658780119989
 11
1412.4865926069497
 21
982.35125780120006
  0
LINE
  8
_0-8_小物
  6
CONTINUOUS
 62
    7
 10
1412.4865926069497
 20
982.35125780120006
 11
1413.58989360695
 21
980.40633680119993
  0
LINE
  8
_0-8_小物
  6
CONTINUOUS
 62
    7
 10
1413.58989360695
 20
980.40633680119993
 11
1415.58715260695
 21
980.51100680119998
  0
LINE
  8
_0-8_小物
  6
CONTINUOUS
 62
    7
 10
1415.58715260695
 20
980.51100680119998
 11
1415.48248260695
 21
982.50826580120008
  0
LINE
  8
_0-8_小物
  6
CONTINUOUS
 62
    7
 10
1415.48248260695
 20
982.50826580120008
 11
1417.47974160695
 21
982.6129388011999
  0
LINE
  8
_0-8_小物
  6
CONTINUOUS
 62
    7
 10
1417.47974160695
 20
982.6129388011999
 11
1418.5830426069497
 21
980.66801480119989
  0
LINE
  8
_0-8_小物
  6
CONTINUOUS
 62
    7
 10
1418.5830426069497
 20
980.66801480119989
 11
1420.5803016069501
 21
980.77268780119994
  0
LINE
  8
_0-8_小物
  6
CONTINUOUS
 62
    7
 10
1420.5803016069501
 20
980.77268780119994
 11
1420.4756286069501
 21
982.76994680119992
  0
LINE
  8
_0-8_小物
  6
CONTINUOUS
 62
    7
 10
1420.4756286069501
 20
982.76994680119992
 11
1422.4728876069501
 21
982.87461980119997
  0
LINE
  8
_0-8_小物
  6
CONTINUOUS
 62
    7
 10
1393.69580760695
 20
976.86167180119992
 11
1393.69580760695
 21
977.36167280120003
  0
LINE
  8
_0-8_小物
  6
CONTINUOUS
 62
    7
 10
1393.69580760695
 20
977.86167380119991
 11
1393.69580760695
 21
977.36167280120003
  0
LINE
  8
_0-8_小物
  6
CONTINUOUS
 62
    7
 10
1385.6958066073501
 20
973.36167380120003
 11
1393.69580760695
 21
973.36167380120003
  0
LINE
  8
_0-8_小物
  6
CONTINUOUS
 62
    7
 10
1385.6958066073501
 20
972.36167180119992
 11
1390.69580760695
 21
973.36167380120003
  0
LINE
  8
_0-8_小物
  6
CONTINUOUS
 62
    7
 10
1385.6958066073501
 20
976.36167380120003
 11
1390.69580760695
 21
977.36167280120003
  0
LINE
  8
_0-8_小物
  6
CONTINUOUS
 62
    7
 10
1385.6958066073501
 20
978.36167180120003
 11
1390.69580760695
 21
977.36167280120003
  0
LINE
  8
_0-8_小物
  6
CONTINUOUS
 62
    7
 10
1390.69580760695
 20
977.36167280120003
 11
1385.6958066073501
 21
977.36167280120003
  0
LINE
  8
_0-8_小物
  6
CONTINUOUS
 62
    7
 10
1385.6958066073501
 20
981.36167180119992
 11
1393.69580760695
 21
981.36167180119992
  0
LINE
  8
_0-8_小物
  6
CONTINUOUS
 62
    7
 10
1385.6958066073501
 20
982.36167380119991
 11
1390.69580760695
 21
981.36167180119992
  0
ARC
  8
_0-8_小物
  6
CONTINUOUS
 62
    7
 10
1381.32449160735
 20
975.85890980119996
 40
3
 50
218.61463800000001
 51
267.54107399999998
  0
ARC
  8
_0-8_小物
  6
CONTINUOUS
 62
    7
 10
1381.32449160735
 20
978.86443580119999
 40
3
 50
92.458926000000019
 51
141.38536199999999
  0
LINE
  8
_0-8_小物
  6
CONTINUOUS
 62
    7
 10
1429.70739060695
 20
977.36167280120003
 11
1372.1803026073499
 21
977.36167280120003
  0
ARC
  8
_0-8_小物
  6
CONTINUOUS
 62
    7
 10
1383.1957806073501
 20
977.36167280120003
 40
5.4000000000000004
 50
180
 51
218.85106200000001
  0
ARC
  8
_0-8_小物
  6
CONTINUOUS
 62
    7
 10
1383.1957806073501
 20
977.36167280120003
 40
5.4000000000000004
 50
141.317813
 51
180
  0
LINE
  8
_0-8_小物
  6
CONTINUOUS
 62
    7
 10
1419.8263626069499
 20
979.23111680119996
 11
1421.6958066069501
 21
977.36167280120003
  0
ARC
  8
_0-5_フレ_ム
  6
CONTINUOUS
 62
    7
 10
1275.99580260735
 20
954.06167780119995
 40
0.2999999999999999
 50
90
 51
180
  0
LINE
  8
_0-5_フレ_ム
  6
CONTINUOUS
 62
    7
 10
1275.99580260735
 20
954.36167780120002
 11
1276.89581160735
 21
954.36167780120002
  0
ARC
  8
_0-5_フレ_ム
  6
CONTINUOUS
 62
    7
 10
1280.19580860735
 20
951.86167880120001
 40
0.500001
 50
90
 51
180
  0
LINE
  8
_0-5_フレ_ム
  6
CONTINUOUS
 62
    7
 10
1285.49580060735
 20
951.36167180119992
 11
1285.1958006073501
 21
951.06167180119996
  0
LINE
  8
_0-5_フレ_ム
  6
CONTINUOUS
 62
    7
 10
1281.6959016073499
 20
951.36167180119992
 11
1284.8958006073499
 21
951.36167180119992
  0
LINE
  8
_0-5_フレ_ム
  6
CONTINUOUS
 62
    7
 10
1285.49580060735
 20
951.36167180119992
 11
1288.1958006073501
 21
951.36167180119992
  0
LINE
  8
_0-5_フレ_ム
  6
CONTINUOUS
 62
    7
 10
1288.6938186073498
 20
952.36166180119994
 11
1289.19907260735
 21
952.36166180119994
  0
LINE
  8
_0-5_フレ_ム
  6
CONTINUOUS
 62
    7
 10
1282.19576760735
 20
931.36167680120002
 11
1300.39580760735
 21
931.36169780119997
  0
ARC
  8
_0-5_フレ_ム
  6
CONTINUOUS
 62
    7
 10
1280.6956896073502
 20
930.36167180120003
 40
0.999999
 50
179.99918400000001
 51
270
  0
LINE
  8
_0-5_フレ_ム
  6
CONTINUOUS
 62
    7
 10
1279.6956906073499
 20
930.36168680119999
 11
1279.6958076073499
 21
944.86167080120003
  0
LINE
  8
_0-5_フレ_ム
  6
CONTINUOUS
 62
    7
 10
1300.6958076073499
 20
931.06169780120001
 11
1300.9957806073498
 21
931.36167380120003
  0
LINE
  8
_0-5_フレ_ム
  6
CONTINUOUS
 62
    7
 10
1300.6958076073499
 20
931.06169780120001
 11
1300.39580760735
 21
931.36169780119997
  0
LINE
  8
_0-5_フレ_ム
  6
CONTINUOUS
 62
    7
 10
1300.9957806073498
 20
931.36167380120003
 11
1332.6957396073499
 21
931.36167380120003
  0
ARC
  8
_0-5_フレ_ム
  6
CONTINUOUS
 62
    7
 10
1332.6957396073499
 20
931.86167180119992
 40
0.500001
 50
270
 51
0
  0
LINE
  8
_0-5_フレ_ム
  6
CONTINUOUS
 62
    7
 10
1333.19574060735
 20
944.16168080119996
 11
1333.19574060735
 21
931.86167180119992
  0
LINE
  8
_0-5_フレ_ム
  6
CONTINUOUS
 62
    7
 10
1335.1957356073501
 20
944.16168080119996
 11
1335.1957356073501
 21
930.36167180120003
  0
ARC
  8
_0-5_フレ_ム
  6
CONTINUOUS
 62
    7
 10
1282.19576760735
 20
931.86167780120002
 40
0.500001
 50
180
 51
270
  0
ARC
  8
_0-5_フレ_ム
  6
CONTINUOUS
 62
    7
 10
1282.6958046073501
 20
947.86166480120005
 40
0.999999
 50
90.001149999999996
 51
180
  0
LINE
  8
_0-5_フレ_ム
  6
CONTINUOUS
 62
    7
 10
1281.6957666073499
 20
931.86167780120002
 11
1281.6958056073499
 21
947.86166780119993
  0
ARC
  8
_0-5_フレ_ム
  6
CONTINUOUS
 62
    7
 10
1279.1957616073501
 20
947.36167280120003
 40
0.500001
 50
270
 51
359.99947500002008
  0
LINE
  8
_0-5_フレ_ム
  6
CONTINUOUS
 62
    7
 10
1279.1957586073502
 20
946.86167180119992
 11
1277.6958006073501
 21
946.86168080120001
  0
ARC
  8
_0-5_フレ_ム
  6
CONTINUOUS
 62
    7
 10
1276.6958016073499
 20
946.36166780119993
 40
0.999999
 50
180
 51
270
  0
ARC
  8
_0-5_フレ_ム
  6
CONTINUOUS
 62
    7
 10
1279.1958096073499
 20
944.86167380119991
 40
0.500001
 50
359.99953299997247
 51
90
  0
LINE
  8
_0-5_フレ_ム
  6
CONTINUOUS
 62
    7
 10
1276.6958046073501
 20
945.36166580119993
 11
1279.1958066073501
 21
945.36167480120002
  0
LINE
  8
_0-5_フレ_ム
  6
CONTINUOUS
 62
    7
 10
1279.6957596073501
 20
947.36166680119993
 11
1279.6958016073499
 21
951.86167580120002
  0
ARC
  8
_0-5_フレ_ム
  6
CONTINUOUS
 62
    7
 10
1277.6958036073502
 20
947.3616788011999
 40
0.500001
 50
180
 51
270
  0
ARC
  8
_0-5_フレ_ム
  6
CONTINUOUS
 62
    7
 10
1276.89581160735
 20
954.06167780119995
 40
0.2999999999999999
 50
0
 51
90
  0
LINE
  8
_0-5_フレ_ム
  6
CONTINUOUS
 62
    7
 10
1281.6959016073499
 20
951.36167180119992
 11
1281.6959016073499
 21
951.86166080120006
  0
LINE
  8
_0-5_フレ_ム
  6
CONTINUOUS
 62
    7
 10
1288.1958006073501
 20
951.36167180119992
 11
1288.1958006073501
 21
951.86166380119994
  0
ARC
  8
_0-5_フレ_ム
  6
CONTINUOUS
 62
    7
 10
1289.1958506073502
 20
951.86166980119992
 40
0.500001
 50
359.99744000001527
 51
90
  0
LINE
  8
_0-5_フレ_ム
  6
CONTINUOUS
 62
    7
 10
1289.6957826073501
 20
950.86163180120002
 11
1289.6958486073502
 21
951.86164880120009
  0
ARC
  8
_0-5_フレ_ム
  6
CONTINUOUS
 62
    7
 10
1287.69578160735
 20
950.86176380119991
 40
2.0000010000000001
 50
270.00115
 51
359.9961600000064
  0
LINE
  8
_0-5_フレ_ム
  6
CONTINUOUS
 62
    7
 10
1287.6958236073501
 20
948.86176580119991
 11
1282.6957866073499
 21
948.86166380120005
  0
ARC
  8
_0-5_フレ_ム
  6
CONTINUOUS
 62
    7
 10
1288.6958016073499
 20
951.86166380119994
 40
0.500001
 50
90.000848999979993
 51
180
  0
ARC
  8
_0-5_フレ_ム
  6
CONTINUOUS
 62
    7
 10
1281.1959006073498
 20
951.86166080120006
 40
0.500001
 50
0
 51
89.999350999989986
  0
LINE
  8
_0-5_フレ_ム
  6
CONTINUOUS
 62
    7
 10
1281.19590660735
 20
952.36166180119994
 11
1280.19580860735
 21
952.36167080120003
  0
LINE
  8
_0-5_フレ_ム
  6
CONTINUOUS
 62
    7
 10
1284.8958006073499
 20
951.36167180119992
 11
1285.1958006073501
 21
951.06167180119996
  0
LINE
  8
_0-5_フレ_ム
  6
CONTINUOUS
 62
    7
 10
1335.69574260735
 20
947.16168080119996
 11
1335.6957366073498
 21
944.16168080119996
  0
LINE
  8
_0-5_フレ_ム
  6
CONTINUOUS
 62
    7
 10
1332.69574260735
 20
947.16168080119996
 11
1332.69574260735
 21
944.16168080119996
  0
ARC
  8
_0-5_フレ_ム
  6
CONTINUOUS
 62
    7
 10
1334.1957366073502
 20
947.16168080119996
 40
1.499994
 50
0
 51
180
  0
LINE
  8
_0-5_フレ_ム
  6
CONTINUOUS
 62
    7
 10
1335.6957366073498
 20
944.16168080119996
 11
1335.19573860735
 21
944.16168080119996
  0
LINE
  8
_0-5_フレ_ム
  6
CONTINUOUS
 62
    7
 10
1332.69574260735
 20
944.16168080119996
 11
1333.1957436073501
 21
944.16168080119996
  0
ARC
  8
_0-5_フレ_ム
  6
CONTINUOUS
 62
    7
 10
1280.19578160735
 20
951.86166080120006
 40
0.500001
 50
90
 51
180
  0
LINE
  8
_0-5_フレ_ム
  6
CONTINUOUS
 62
    7
 10
1337.1957396073501
 20
946.96167080120006
 11
1337.1957396073501
 21
941.96167280119994
  0
LINE
  8
_0-5_フレ_ム
  6
CONTINUOUS
 62
    7
 10
1337.1957396073501
 20
941.96167280119994
 11
1335.6957396073499
 21
941.96167280119994
  0
LINE
  8
_0-5_フレ_ム
  6
CONTINUOUS
 62
    7
 10
1332.6957396073499
 20
941.96167280119994
 11
1331.1957396073501
 21
941.96167280119994
  0
LINE
  8
_0-5_フレ_ム
  6
CONTINUOUS
 62
    7
 10
1331.1957396073501
 20
941.96167280119994
 11
1331.1957396073501
 21
946.96167080120006
  0
ARC
  8
_0-5_フレ_ム
  6
CONTINUOUS
 62
    7
 10
1334.1957396073499
 20
946.96167080120006
 40
1.7000010000000001
 50
0
 51
180
  0
ARC
  8
_0-5_フレ_ム
  6
CONTINUOUS
 62
    7
 10
1334.1957396073499
 20
946.96167080120006
 40
3
 50
0
 51
180
  0
LINE
  8
_0-5_フレ_ム
  6
CONTINUOUS
 62
    7
 10
1332.6957456073501
 20
943.96167080119994
 11
1332.9395916073499
 21
943.96167080119994
  0
ARC
  8
_0-5_フレ_ム
  6
CONTINUOUS
 62
    7
 10
1332.9395916073499
 20
943.76167280120001
 40
0.2000009999999999
 50
345.96359799991001
 51
90
  0
LINE
  8
_0-5_フレ_ム
  6
CONTINUOUS
 62
    7
 10
1332.6957396073499
 20
941.96167280119994
 11
1333.1336196073498
 21
943.71316580119992
  0
LINE
  8
_0-5_フレ_ム
  6
CONTINUOUS
 62
    7
 10
1335.6957396073499
 20
943.96167080119994
 11
1335.4518966073499
 21
943.96167080119994
  0
ARC
  8
_0-5_フレ_ム
  6
CONTINUOUS
 62
    7
 10
1335.4518966073499
 20
943.76167280120001
 40
0.2000009999999999
 50
90
 51
194.036192
  0
LINE
  8
_0-5_フレ_ム
  6
CONTINUOUS
 62
    7
 10
1335.6957396073499
 20
941.96167280119994
 11
1335.25786860735
 21
943.71316580119992
  0
LINE
  8
_0-5_フレ_ム
  6
CONTINUOUS
 62
    7
 10
1332.6957456073501
 20
943.96167080119994
 11
1332.49574760735
 21
943.96167080119994
  0
LINE
  8
_0-5_フレ_ム
  6
CONTINUOUS
 62
    7
 10
1332.49574760735
 20
943.96167080119994
 11
1332.4957416073498
 21
946.96167080120006
  0
LINE
  8
_0-5_フレ_ム
  6
CONTINUOUS
 62
    7
 10
1335.6957396073499
 20
943.96167080119994
 11
1335.89574060735
 21
943.96167080119994
  0
LINE
  8
_0-5_フレ_ム
  6
CONTINUOUS
 62
    7
 10
1335.89574060735
 20
943.96167080119994
 11
1335.89574060735
 21
946.96167080120006
  0
LINE
  8
_0-5_フレ_ム
  6
CONTINUOUS
 62
    7
 10
1291.6958076073502
 20
931.36169780119997
 11
1309.6958076073499
 21
931.36169780119997
  0
ARC
  8
_0-5_フレ_ム
  6
CONTINUOUS
 62
    7
 10
1334.1957336073501
 20
930.36167180120003
 40
0.999999
 50
270
 51
0
  0
LINE
  8
_0-5_フレ_ム
  6
CONTINUOUS
 62
    7
 10
1277.19581122165
 20
954.06167780119995
 11
1277.1958026073501
 21
947.3616788011999
  0
LINE
  8
_0-5_フレ_ム
  6
CONTINUOUS
 62
    7
 10
1275.6958026073501
 20
954.06167780119995
 11
1275.6958026073501
 21
946.36166780119993
  0
LINE
  8
_0-5_フレ_ム
  6
CONTINUOUS
 62
    7
 10
1275.6958026073501
 20
954.06167780119995
 11
1275.6958026073501
 21
954.36165980119995
  0
LINE
  8
_0-5_フレ_ム
  6
CONTINUOUS
 62
    7
 10
1280.6956896073502
 20
929.36167280120003
 11
1334.1957336073501
 21
929.36167280120003
  0
LINE
  8
_0-5_フレ_ム
  6
CONTINUOUS
 62
    7
 10
1369.20349860735
 20
993.73346780120005
 11
1374.8958066073499
 21
991.36167380120003
  0
LINE
  8
_0-5_フレ_ム
  6
CONTINUOUS
 62
    7
 10
1369.5881136073501
 20
995.19821180120005
 11
1375.1958066073503
 21
992.86167380119991
  0
LINE
  8
_0-5_フレ_ム
  6
CONTINUOUS
 62
    7
 10
1384.6958076073499
 20
992.86167380119991
 11
1384.6958076073499
 21
991.36167380120003
  0
LINE
  8
_0-5_フレ_ム
  6
CONTINUOUS
 62
    7
 10
1384.6958076073499
 20
937.86167180120003
 11
1384.6958076073499
 21
939.36167180119992
  0
LINE
  8
_0-5_フレ_ム
  6
CONTINUOUS
 62
    7
 10
1384.6958076073499
 20
949.86167180119992
 11
1384.6958076073499
 21
951.36167180119992
  0
LINE
  8
_0-5_フレ_ム
  6
CONTINUOUS
 62
    7
 10
1384.6958076073499
 20
961.86167180119992
 11
1384.6958076073499
 21
963.36167180120003
  0
LINE
  8
_0-5_フレ_ム
  6
CONTINUOUS
 62
    7
 10
1374.69580860735
 20
937.86167180120003
 11
1384.6958076073499
 21
937.86167180120003
  0
LINE
  8
_0-5_フレ_ム
  6
CONTINUOUS
 62
    7
 10
1384.1958066073498
 20
939.36167180119992
 11
1384.6958076073499
 21
939.36167180119992
  0
LINE
  8
_0-5_フレ_ム
  6
CONTINUOUS
 62
    7
 10
1384.1958066073498
 20
939.36167180119992
 11
1384.1958066073498
 21
949.86167180119992
  0
LINE
  8
_0-5_フレ_ム
  6
CONTINUOUS
 62
    7
 10
1376.19580860735
 20
963.36167180120003
 11
1379.19580860735
 21
964.36167380119991
  0
LINE
  8
_0-5_フレ_ム
  6
CONTINUOUS
 62
    7
 10
1379.19580860735
 20
963.36167180120003
 11
1379.19580860735
 21
964.36167380119991
  0
LINE
  8
_0-5_フレ_ム
  6
CONTINUOUS
 62
    7
 10
1384.1958066073498
 20
961.86167180119992
 11
1384.6958076073499
 21
961.86167180119992
  0
LINE
  8
_0-5_フレ_ム
  6
CONTINUOUS
 62
    7
 10
1384.1958066073498
 20
961.86167180119992
 11
1384.1958066073498
 21
951.36167180119992
  0
LINE
  8
_0-5_フレ_ム
  6
CONTINUOUS
 62
    7
 10
1384.1958066073498
 20
963.36167180120003
 11
1384.6958076073499
 21
963.36167180120003
  0
ARC
  8
_0-5_フレ_ム
  6
CONTINUOUS
 62
    7
 10
1382.1958146073503
 20
963.86166980119992
 40
0.500001
 50
270
 51
0
  0
LINE
  8
_0-5_フレ_ム
  6
CONTINUOUS
 62
    7
 10
1368.8958066073499
 20
961.86167180119992
 11
1382.19580860735
 21
961.86167180119992
  0
ARC
  8
_0-5_フレ_ム
  6
CONTINUOUS
 62
    7
 10
1382.19580860735
 20
961.36167380120003
 40
0.500001
 50
0
 51
90
  0
LINE
  8
_0-5_フレ_ム
  6
CONTINUOUS
 62
    7
 10
1375.1958066073503
 20
939.86166380119994
 11
1375.1958066073503
 21
949.61167280119992
  0
ARC
  8
_0-5_フレ_ム
  6
CONTINUOUS
 62
    7
 10
1375.6958076073499
 20
939.86166380119994
 40
0.500001
 50
180
 51
270
  0
LINE
  8
_0-5_フレ_ム
  6
CONTINUOUS
 62
    7
 10
1375.6958076073499
 20
939.36166280120005
 11
1381.6958076073502
 21
939.36167180119992
  0
ARC
  8
_0-5_フレ_ム
  6
CONTINUOUS
 62
    7
 10
1381.6958076073502
 20
940.36167380119991
 40
0.999999
 50
270
 51
0
  0
LINE
  8
_0-5_フレ_ム
  6
CONTINUOUS
 62
    7
 10
1382.6958066073503
 20
940.36167380119991
 11
1382.6958066073503
 21
961.36167380120003
  0
ARC
  8
_0-5_フレ_ム
  6
CONTINUOUS
 62
    7
 10
1374.69580860735
 20
938.86167380120003
 40
0.999999
 50
180
 51
270
  0
LINE
  8
_0-5_フレ_ム
  6
CONTINUOUS
 62
    7
 10
1379.19580860735
 20
963.36167180120003
 11
1382.1958146073503
 21
963.36166880120004
  0
LINE
  8
_0-5_フレ_ム
  6
CONTINUOUS
 62
    7
 10
1383.99580860735
 20
977.36167280120003
 11
1382.6958066073503
 21
977.06166980119997
  0
LINE
  8
_0-5_フレ_ム
  6
CONTINUOUS
 62
    7
 10
1383.99580860735
 20
977.36167280120003
 11
1382.6958096073499
 21
977.66167280119998
  0
LINE
  8
_0-5_フレ_ム
  6
CONTINUOUS
 62
    7
 10
1384.1958066073498
 20
981.36167180119992
 11
1384.6958076073499
 21
981.36167180119992
  0
LINE
  8
_0-5_フレ_ム
  6
CONTINUOUS
 62
    7
 10
1376.19580860735
 20
991.36167380120003
 11
1379.19580860735
 21
990.36167180120003
  0
LINE
  8
_0-5_フレ_ム
  6
CONTINUOUS
 62
    7
 10
1379.19580860735
 20
991.36167380120003
 11
1379.19580860735
 21
990.36167180120003
  0
LINE
  8
_0-5_フレ_ム
  6
CONTINUOUS
 62
    7
 10
1384.1958066073498
 20
991.36167380120003
 11
1384.6958076073499
 21
991.36167380120003
  0
ARC
  8
_0-5_フレ_ム
  6
CONTINUOUS
 62
    7
 10
1382.19582060735
 20
990.86167280119992
 40
0.500001
 50
0
 51
90
  0
LINE
  8
_0-5_フレ_ム
  6
CONTINUOUS
 62
    7
 10
1384.1958066073498
 20
991.36167380120003
 11
1384.1958066073498
 21
981.36167180119992
  0
LINE
  8
_0-5_フレ_ム
  6
CONTINUOUS
 62
    7
 10
1379.19580860735
 20
991.36167380120003
 11
1382.19582060735
 21
991.36167380120003
  0
LINE
  8
_0-5_フレ_ム
  6
CONTINUOUS
 62
    7
 10
1376.19580860735
 20
991.36167380120003
 11
1374.8958066073499
 21
991.36167380120003
  0
LINE
  8
_0-5_フレ_ム
  6
CONTINUOUS
 62
    7
 10
1384.1958066073498
 20
973.36167380120003
 11
1384.1958066073498
 21
963.36167180120003
  0
LINE
  8
_0-5_フレ_ム
  6
CONTINUOUS
 62
    7
 10
1382.6958216073501
 20
990.86167280119992
 11
1382.6958096073499
 21
977.66167280119998
  0
LINE
  8
_0-5_フレ_ム
  6
CONTINUOUS
 62
    7
 10
1382.6958156073499
 20
963.86166980119992
 11
1382.6958066073503
 21
977.06166980119997
  0
ARC
  8
_0-5_フレ_ム
  6
CONTINUOUS
 62
    7
 10
1369.39580760735
 20
994.73667380119991
 40
0.500001
 50
67.380134999980001
 51
180
  0
ARC
  8
_0-5_フレ_ム
  6
CONTINUOUS
 62
    7
 10
1370.3958066073501
 20
961.86167180119992
 40
1.5
 50
90
 51
180
  0
LINE
  8
_0-5_フレ_ム
  6
CONTINUOUS
 62
    7
 10
1384.1958066073498
 20
951.36167180119992
 11
1384.6958076073499
 21
951.36167180119992
  0
LINE
  8
_0-5_フレ_ム
  6
CONTINUOUS
 62
    7
 10
1384.1958066073498
 20
949.86167180119992
 11
1384.6958076073499
 21
949.86167180119992
  0
LINE
  8
_0-5_フレ_ム
  6
CONTINUOUS
 62
    7
 10
1370.3958066073501
 20
963.36167180120003
 11
1376.19580860735
 21
963.36167180120003
  0
LINE
  8
_0-5_フレ_ム
  6
CONTINUOUS
 62
    7
 10
1382.69577960735
 20
968.36167280119992
 11
1382.69577960735
 21
986.36167280119992
  0
LINE
  8
_0-5_フレ_ム
  6
CONTINUOUS
 62
    7
 10
1384.1958066073498
 20
973.36167380120003
 11
1384.6958046073501
 21
973.36167380120003
  0
LINE
  8
_0-5_フレ_ム
  6
CONTINUOUS
 62
    7
 10
1384.6958046073501
 20
973.36167380120003
 11
1384.6958046073501
 21
981.36167180119992
  0
LINE
  8
_0-5_フレ_ム
  6
CONTINUOUS
 62
    7
 10
1384.6958046073501
 20
973.36167380120003
 11
1384.6958046073501
 21
981.36167180119992
  0
ARC
  8
_0-7_サイド
  6
CONTINUOUS
 62
    7
 10
1377.99580860735
 20
1004.7616718012
 40
0.500001
 50
0
 51
180
  0
LINE
  8
_0-7_サイド
  6
CONTINUOUS
 62
    7
 10
1367.89580760735
 20
954.76167380119989
 11
1375.6958076073499
 21
954.76167380119989
  0
ARC
  8
_0-7_サイド
  6
CONTINUOUS
 62
    7
 10
1367.89580760735
 20
956.96167280119994
 40
2.199999
 50
180
 51
270
  0
ARC
  8
_0-7_サイド
  6
CONTINUOUS
 62
    7
 10
1367.89580760735
 20
956.96167280119994
 40
0.999999
 50
180
 51
270
  0
LINE
  8
_0-7_サイド
  6
CONTINUOUS
 62
    7
 10
1367.89580760735
 20
955.96167380119994
 11
1375.6958076073499
 21
955.96167380119994
  0
LINE
  8
_0-7_サイド
  6
CONTINUOUS
 62
    7
 10
1375.6958076073499
 20
955.96167380119994
 11
1375.6958076073499
 21
954.76167380119989
  0
LINE
  8
_0-7_サイド
  6
CONTINUOUS
 62
    7
 10
1379.6958066073501
 20
1006.5616718012001
 11
1379.6958066073501
 21
998.7616718011999
  0
ARC
  8
_0-7_サイド
  6
CONTINUOUS
 62
    7
 10
1377.4958076073499
 20
1006.5616718012001
 40
2.199999
 50
0
 51
90
  0
LINE
  8
_0-7_サイド
  6
CONTINUOUS
 62
    7
 10
1377.4958076073499
 20
1008.7616738012
 11
1367.89580760735
 21
1008.7616738012
  0
ARC
  8
_0-7_サイド
  6
CONTINUOUS
 62
    7
 10
1367.89580760735
 20
1006.5616718012001
 40
2.199999
 50
90
 51
180
  0
LINE
  8
_0-7_サイド
  6
CONTINUOUS
 62
    7
 10
1378.49580660735
 20
1006.5616718012001
 11
1378.49580660735
 21
998.7616718011999
  0
ARC
  8
_0-7_サイド
  6
CONTINUOUS
 62
    7
 10
1377.4958076073499
 20
1006.5616718012001
 40
0.999999
 50
0
 51
90
  0
LINE
  8
_0-7_サイド
  6
CONTINUOUS
 62
    7
 10
1377.4958076073499
 20
1007.5616738012001
 11
1367.89580760735
 21
1007.5616738012001
  0
ARC
  8
_0-7_サイド
  6
CONTINUOUS
 62
    7
 10
1367.89580760735
 20
1006.5616718012001
 40
0.999999
 50
90
 51
180
  0
LINE
  8
_0-7_サイド
  6
CONTINUOUS
 62
    7
 10
1379.6958066073501
 20
998.7616718011999
 11
1378.49580660735
 21
998.7616718011999
  0
ARC
  8
_0-7_サイド
  6
CONTINUOUS
 62
    7
 10
1385.19580860735
 20
1003.2616718012
 40
0.500001
 50
0
 51
180
  0
LINE
  8
_0-7_サイド
  6
CONTINUOUS
 62
    7
 10
1379.99580660735
 20
997.76167280119989
 11
1378.49580660735
 21
997.76167280119989
  0
ARC
  8
_0-7_サイド
  6
CONTINUOUS
 62
    7
 10
1379.99580660735
 20
998.7616718011999
 40
0.999999
 50
270
 51
0
  0
LINE
  8
_0-7_サイド
  6
CONTINUOUS
 62
    7
 10
1380.9958086073498
 20
998.7616718011999
 11
1380.9958086073498
 21
1000.7616728011999
  0
LINE
  8
_0-7_サイド
  6
CONTINUOUS
 62
    7
 10
1377.4958076073499
 20
998.7616718011999
 11
1377.4958076073499
 21
1004.7616718012
  0
ARC
  8
_0-7_サイド
  6
CONTINUOUS
 62
    7
 10
1378.49580660735
 20
998.7616718011999
 40
0.999999
 50
180
 51
270
  0
LINE
  8
_0-7_サイド
  6
CONTINUOUS
 62
    7
 10
1384.6958076073499
 20
1002.7616738012
 11
1384.6958076073499
 21
1003.2616718012
  0
ARC
  8
_0-7_サイド
  6
CONTINUOUS
 62
    7
 10
1383.69580860735
 20
1002.7616738012
 40
0.999999
 50
270
 51
0
  0
LINE
  8
_0-7_サイド
  6
CONTINUOUS
 62
    7
 10
1383.69580860735
 20
1001.7616718011999
 11
1380.9958086073498
 21
1001.7616718011999
  0
LINE
  8
_0-7_サイド
  6
CONTINUOUS
 62
    7
 10
1383.69580860735
 20
1005.7616738012
 11
1380.9958086073498
 21
1005.7616738012
  0
ARC
  8
_0-7_サイド
  6
CONTINUOUS
 62
    7
 10
1383.69580860735
 20
1004.7616718012
 40
0.999999
 50
0
 51
90
  0
LINE
  8
_0-7_サイド
  6
CONTINUOUS
 62
    7
 10
1384.6958076073499
 20
1004.7616718012
 11
1384.6958076073499
 21
1004.2616738011999
  0
LINE
  8
_0-7_サイド
  6
CONTINUOUS
 62
    7
 10
1380.9958086073498
 20
1000.7616728011999
 11
1383.69580860735
 21
1000.7616728011999
  0
ARC
  8
_0-7_サイド
  6
CONTINUOUS
 62
    7
 10
1383.69580860735
 20
1002.7616738012
 40
2.0000010000000001
 50
270
 51
0
  0
LINE
  8
_0-7_サイド
  6
CONTINUOUS
 62
    7
 10
1380.9958086073498
 20
1005.7616738012
 11
1380.9958086073498
 21
1001.7616718011999
  0
ARC
  8
_0-7_サイド
  6
CONTINUOUS
 62
    7
 10
1385.19580860735
 20
1004.2616738011999
 40
0.500001
 50
180
 51
0
  0
ARC
  8
_0-7_サイド
  6
CONTINUOUS
 62
    7
 10
1383.69580860735
 20
1004.7616718012
 40
2.0000010000000001
 50
0
 51
90
  0
LINE
  8
_0-7_サイド
  6
CONTINUOUS
 62
    7
 10
1379.6866986073499
 20
1006.7616728012
 11
1383.69580860735
 21
1006.7616728012
  0
LINE
  8
_0-7_サイド
  6
CONTINUOUS
 62
    7
 10
1365.69580860735
 20
1006.5616718012001
 11
1365.69580860735
 21
956.96167280119994
  0
LINE
  8
_0-7_サイド
  6
CONTINUOUS
 62
    7
 10
1366.8958086073499
 20
1006.5616718012001
 11
1366.8958086073499
 21
956.96167280119994
  0
LINE
  8
_0-7_サイド
  6
CONTINUOUS
 62
    7
 10
1368.8958066073499
 20
963.86167280119992
 11
1368.8958066073499
 21
956.56167380119996
  0
ARC
  8
_0-7_サイド
  6
CONTINUOUS
 62
    7
 10
1368.8958066073499
 20
958.06167380119996
 40
1.5
 50
180
 51
270
  0
LINE
  8
_0-7_サイド
  6
CONTINUOUS
 62
    7
 10
1368.8958066073499
 20
990.86167280119992
 11
1368.8958066073499
 21
1001.2261388012
  0
LINE
  8
_0-7_サイド
  6
CONTINUOUS
 62
    7
 10
1368.5958066073499
 20
977.36167280120003
 11
1368.8958066073499
 21
977.66167280119998
  0
ARC
  8
_0-7_サイド
  6
CONTINUOUS
 62
    7
 10
1369.39580760735
 20
990.86167280119992
 40
0.500001
 50
180
 51
270
  0
ARC
  8
_0-7_サイド
  6
CONTINUOUS
 62
    7
 10
1369.39580760735
 20
988.86167180119992
 40
0.500001
 50
90
 51
180
  0
LINE
  8
_0-7_サイド
  6
CONTINUOUS
 62
    7
 10
1368.8958066073499
 20
965.86167380120003
 11
1368.8958066073499
 21
977.06167280119996
  0
LINE
  8
_0-7_サイド
  6
CONTINUOUS
 62
    7
 10
1368.8958066073499
 20
977.66167280119998
 11
1368.8958066073499
 21
988.86167180119992
  0
LINE
  8
_0-7_サイド
  6
CONTINUOUS
 62
    7
 10
1368.5958066073499
 20
977.36167280120003
 11
1368.8958066073499
 21
977.06167280119996
  0
LINE
  8
_0-7_サイド
  6
CONTINUOUS
 62
    7
 10
1377.69580860735
 20
1006.3616738012
 11
1374.03134160735
 21
1006.3616738012
  0
LINE
  8
_0-7_サイド
  6
CONTINUOUS
 62
    7
 10
1377.69580860735
 20
1006.3616738012
 11
1377.69580860735
 21
1006.8616718011999
  0
LINE
  8
_0-7_サイド
  6
CONTINUOUS
 62
    7
 10
1375.6958076073499
 20
1007.5616738012001
 11
1377.69580860735
 21
1006.8616718011999
  0
LINE
  8
_0-7_サイド
  6
CONTINUOUS
 62
    7
 10
1379.6958066073501
 20
964.36167380119991
 11
1379.6958066073501
 21
963.86167280119992
  0
LINE
  8
_0-7_サイド
  6
CONTINUOUS
 62
    7
 10
1381.6958076073502
 20
965.06167280119996
 11
1381.6958076073502
 21
964.75206080120006
  0
ARC
  8
_0-7_サイド
  6
CONTINUOUS
 62
    7
 10
1381.39580760735
 20
965.06167280119996
 40
0.2999999999999999
 50
0
 51
90
  0
ARC
  8
_0-7_サイド
  6
CONTINUOUS
 62
    7
 10
1381.1958066073501
 20
964.75206080120006
 40
0.500001
 50
284.03624300001002
 51
0
  0
LINE
  8
_0-7_サイド
  6
CONTINUOUS
 62
    7
 10
1381.31707560735
 20
964.26699080119988
 11
1379.6958066073501
 21
963.86167280119992
  0
ARC
  8
_0-7_サイド
  6
CONTINUOUS
 62
    7
 10
1369.39580760735
 20
963.86167280119992
 40
0.500001
 50
90
 51
180
  0
ARC
  8
_0-7_サイド
  6
CONTINUOUS
 62
    7
 10
1369.39580760735
 20
965.86167380120003
 40
0.500001
 50
180
 51
270
  0
LINE
  8
_0-7_サイド
  6
CONTINUOUS
 62
    7
 10
1379.6958066073501
 20
964.36167380119991
 11
1369.39580760735
 21
964.36167380119991
  0
LINE
  8
_0-7_サイド
  6
CONTINUOUS
 62
    7
 10
1381.39580760735
 20
965.36167280120003
 11
1369.39580760735
 21
965.36167280120003
  0
ARC
  8
_0-7_サイド
  6
CONTINUOUS
 62
    7
 10
1373.52423360735
 20
1005.5616728012001
 40
2.0000010000000001
 50
90
 51
135
  0
LINE
  8
_0-7_サイド
  6
CONTINUOUS
 62
    7
 10
1367.3958066073499
 20
1002.2616728011999
 11
1372.1100216073501
 21
1006.9758848012
  0
ARC
  8
_0-7_サイド
  6
CONTINUOUS
 62
    7
 10
1369.8958086073501
 20
1001.2261388012
 40
0.999999
 50
135
 51
180
  0
ARC
  8
_0-7_サイド
  6
CONTINUOUS
 62
    7
 10
1374.03134160735
 20
1005.3616718012
 40
0.999999
 50
90
 51
135
  0
LINE
  8
_0-7_サイド
  6
CONTINUOUS
 62
    7
 10
1369.1886996073501
 20
1001.9332448012
 11
1373.3242356073501
 21
1006.0687778012
  0
LINE
  8
_0-7_サイド
  6
CONTINUOUS
 62
    7
 10
1367.3958066073499
 20
1002.2616728011999
 11
1367.3958066073499
 21
958.06167380119996
  0
LINE
  8
_0-7_サイド
  6
CONTINUOUS
 62
    7
 10
1367.3958066073499
 20
1002.2616728011999
 11
1366.8958086073499
 21
1002.2616728011999
  0
LINE
  8
_0-7_サイド
  6
CONTINUOUS
 62
    7
 10
1367.3958066073499
 20
958.06167380119996
 11
1366.8958086073499
 21
958.06167380119996
  0
LINE
  8
_0-5_フレ_ム
  6
CONTINUOUS
 62
    7
 10
1368.8958066073499
 20
994.19500580120007
 11
1368.8958066073499
 21
994.73667380119991
  0
ARC
  8
_0-5_フレ_ム
  6
CONTINUOUS
 62
    7
 10
1369.39580760735
 20
994.19500580120007
 40
0.500001
 50
180
 51
247.38013499999997
  0
LINE
  8
_0-7_サイド
  6
CONTINUOUS
 62
    7
 10
1379.6958066073501
 20
990.36167180120003
 11
1379.6958066073501
 21
990.86167280119992
  0
LINE
  8
_0-7_サイド
  6
CONTINUOUS
 62
    7
 10
1381.6958076073502
 20
989.66167280119998
 11
1381.6958076073502
 21
989.9712848012
  0
ARC
  8
_0-7_サイド
  6
CONTINUOUS
 62
    7
 10
1381.39580760735
 20
989.66167280119998
 40
0.2999999999999999
 50
270
 51
0
  0
ARC
  8
_0-7_サイド
  6
CONTINUOUS
 62
    7
 10
1381.1958066073501
 20
989.9712848012
 40
0.500001
 50
0
 51
75.963756999990011
  0
LINE
  8
_0-7_サイド
  6
CONTINUOUS
 62
    7
 10
1381.31707560735
 20
990.45635480119995
 11
1379.6958066073501
 21
990.86167280119992
  0
LINE
  8
_0-7_サイド
  6
CONTINUOUS
 62
    7
 10
1379.6958066073501
 20
990.36167180120003
 11
1369.39580760735
 21
990.36167180120003
  0
LINE
  8
_0-7_サイド
  6
CONTINUOUS
 62
    7
 10
1381.39580760735
 20
989.36167280120003
 11
1369.39580760735
 21
989.36167280120003
  0
LINE
  8
_0-3_躯体
  6
HIDDEN
 62
    7
 10
1255.6958136073499
 20
954.36165980119995
 11
1255.6958136073499
 21
928.36167380120003
  0
LINE
  8
_0-3_躯体
  6
CONTINUOUS
 62
    7
 10
1335.69580860735
 20
928.36167380120003
 11
1335.69580860735
 21
868.36167380120003
  0
LINE
  8
_0-3_躯体
  6
HIDDEN
 62
    7
 10
1255.6958136073499
 20
928.36167380120003
 11
1255.6958136073499
 21
868.36167380120003
  0
LINE
  8
_0-3_躯体
  6
HIDDEN
 62
    7
 10
1255.6958136073499
 20
868.36167380120003
 11
1335.69580860735
 21
868.36167380120003
  0
LINE
  8
_0-3_躯体
  6
HIDDEN
 62
    9
 10
1385.6958076073499
 20
1018.7616738012
 11
1435.69580760695
 21
1018.7616738012
  0
LINE
  8
_0-3_躯体
  6
HIDDEN
 62
    9
 10
1435.69580760695
 20
1018.7616738012
 11
1435.69580760695
 21
868.36167380120003
  0
LINE
  8
_0-3_躯体
  6
CONTINUOUS
 62
    7
 10
1335.69580860735
 20
921.66284026470009
 11
1332.39464014385
 21
918.36167180120003
  0
LINE
  8
_0-3_躯体
  6
CONTINUOUS
 62
    7
 10
1335.69580860735
 20
925.90548095190002
 11
1328.15199945675
 21
918.36167180120003
  0
LINE
  8
_0-3_躯体
  6
CONTINUOUS
 62
    7
 10
1333.90936076965
 20
928.36167380120003
 11
1323.9093587696498
 21
918.36167180120003
  0
LINE
  8
_0-3_躯体
  6
CONTINUOUS
 62
    7
 10
1329.66672008245
 20
928.36167380120003
 11
1319.66671808245
 21
918.36167180120003
  0
LINE
  8
_0-3_躯体
  6
CONTINUOUS
 62
    7
 10
1325.42407939535
 20
928.36167380120003
 11
1315.4240773953502
 21
918.36167180120003
  0
LINE
  8
_0-3_躯体
  6
CONTINUOUS
 62
    7
 10
1321.18143870825
 20
928.36167380120003
 11
1311.18143670825
 21
918.36167180120003
  0
LINE
  8
_0-3_躯体
  6
CONTINUOUS
 62
    7
 10
1316.93879802115
 20
928.36167380120003
 11
1306.93879602115
 21
918.36167180120003
  0
LINE
  8
_0-3_躯体
  6
CONTINUOUS
 62
    7
 10
1312.69615733405
 20
928.36167380120003
 11
1302.6961553340498
 21
918.36167180120003
  0
LINE
  8
_0-3_躯体
  6
CONTINUOUS
 62
    7
 10
1308.45351664695
 20
928.36167380120003
 11
1298.45351464695
 21
918.36167180120003
  0
LINE
  8
_0-3_躯体
  6
CONTINUOUS
 62
    7
 10
1304.21087595975
 20
928.36167380120003
 11
1294.2108739597502
 21
918.36167180120003
  0
LINE
  8
_0-3_躯体
  6
CONTINUOUS
 62
    7
 10
1299.96823527265
 20
928.36167380120003
 11
1289.96823327265
 21
918.36167180120003
  0
LINE
  8
_0-3_躯体
  6
CONTINUOUS
 62
    7
 10
1295.72559458555
 20
928.36167380120003
 11
1285.72559258555
 21
918.36167180120003
  0
LINE
  8
_0-3_躯体
  6
CONTINUOUS
 62
    7
 10
1291.48295389845
 20
928.36167380120003
 11
1281.4829518984498
 21
918.36167180120003
  0
LINE
  8
_0-3_躯体
  6
CONTINUOUS
 62
    7
 10
1287.24031321135
 20
928.36167380120003
 11
1277.24031121135
 21
918.36167180120003
  0
LINE
  8
_0-3_躯体
  6
CONTINUOUS
 62
    7
 10
1282.9976725241499
 20
928.36167380120003
 11
1272.99767052415
 21
918.36167180120003
  0
LINE
  8
_0-3_躯体
  6
CONTINUOUS
 62
    7
 10
1280.01887640015
 20
929.62551836440002
 11
1269.69560922605
 21
919.30225119020008
  0
LINE
  8
_0-3_躯体
  6
CONTINUOUS
 62
    7
 10
1279.69571629345
 20
933.54499894469996
 11
1269.69564359175
 21
923.54492624300008
  0
LINE
  8
_0-3_躯体
  6
CONTINUOUS
 62
    7
 10
1279.6957505274499
 20
937.78767386590005
 11
1269.69567795735
 21
927.78760129580007
  0
LINE
  8
_0-3_躯体
  6
CONTINUOUS
 62
    7
 10
1279.6957847614501
 20
942.03034878700009
 11
1266.02710977575
 21
928.36167380120003
  0
LINE
  8
_0-3_躯体
  6
CONTINUOUS
 62
    7
 10
1278.7844686077501
 20
945.36167332040009
 11
1261.7844690885502
 21
928.36167380120003
  0
LINE
  8
_0-3_躯体
  6
CONTINUOUS
 62
    7
 10
1275.6958026073501
 20
946.51564800709991
 11
1257.5418284014499
 21
928.36167380120003
  0
LINE
  8
_0-3_躯体
  6
CONTINUOUS
 62
    7
 10
1275.6958026073501
 20
950.7582886941999
 11
1255.6958136073499
 21
930.75829969419999
  0
LINE
  8
_0-3_躯体
  6
CONTINUOUS
 62
    7
 10
1275.05653302725
 20
954.36165980119995
 11
1255.6958136073499
 21
935.00094038139991
  0
LINE
  8
_0-3_躯体
  6
CONTINUOUS
 62
    7
 10
1270.81389234015
 20
954.36165980119995
 11
1255.6958136073499
 21
939.24358106849991
  0
LINE
  8
_0-3_躯体
  6
CONTINUOUS
 62
    7
 10
1266.57125165295
 20
954.36165980119995
 11
1255.6958136073499
 21
943.4862217555999
  0
LINE
  8
_0-3_躯体
  6
CONTINUOUS
 62
    7
 10
1262.32861096585
 20
954.36165980119995
 11
1255.6958136073499
 21
947.72886244270001
  0
LINE
  8
_0-3_躯体
  6
CONTINUOUS
 62
    7
 10
1258.08597027875
 20
954.36165980119995
 11
1255.6958136073499
 21
951.9715031298
  0
LINE
  8
_0-4_止水補助板
  6
CONTINUOUS
 62
    7
 10
1280.6956896073502
 20
929.36167280120003
 11
1280.6956896073502
 21
928.36167380120003
  0
LINE
  8
_0-4_止水補助板
  6
CONTINUOUS
 62
    7
 10
1280.6956896073502
 20
928.36167380120003
 11
1335.69580860735
 21
928.36167380120003
  0
LINE
  8
_0-5_フレ_ム
  6
CONTINUOUS
 62
    7
 10
1384.6958076073499
 20
992.86167380119991
 11
1375.1958066073503
 21
992.86167380119991
  0
LINE
  8
_0-4_止水補助板
  6
CONTINUOUS
 62
    7
 10
1384.6958076073499
 20
992.86167380119991
 11
1384.6958076073499
 21
937.86167180120003
  0
LINE
  8
_0-4_止水補助板
  6
CONTINUOUS
 62
    7
 10
1384.6958076073499
 20
992.86167380119991
 11
1385.6958076073499
 21
992.86167380119991
  0
LINE
  8
_0-5_フレ_ム
  6
CONTINUOUS
 62
    7
 10
1373.6958066073501
 20
938.86167380120003
 11
1373.6958066073501
 21
949.61167280119992
  0
ARC
  8
_0-5_フレ_ム
  6
CONTINUOUS
 62
    7
 10
1374.4458066073501
 20
949.61167280119992
 40
0.75
 50
0
 51
180
  0
CIRCLE
  8
_0-a_寸法
  6
CONTINUOUS
 62
    7
 10
1276.74237540955
 20
920.7400153044
 40
0.5999999999999999
  0
LINE
  8
_0-a_寸法
  6
CONTINUOUS
 62
    7
 10
1276.74237540955
 20
920.7400153044
 11
1253.2500001790502
 21
880.05002661550009
  0
TEXT
  8
_0-a_寸法
 62
    7
 10
1137.7500001790499
 20
880.05002661550009
 40
10.5
 41
1
 50
0
  1
ならしモルタル（別途）
  0
LINE
  8
_0-a_寸法
  6
CONTINUOUS
 62
    7
 10
1253.2500001790502
 20
880.05002661550009
 11
1136.5571076364499
 21
880.05002661550009
  0
TEXT
  8
_0-a_寸法
 62
    7
 10
1246.8257528822501
 20
918.11167280120003
 40
10.5
 41
1
 50
90.000002999999992
  1
10
  0
TEXT
  8
_0-a_寸法
 62
    7
 10
1246.8257528822501
 20
936.11166680119993
 40
10.5
 41
1
 50
90.000002999999992
  1
26
  0
TEXT
  8
_0-a_寸法
 62
    7
 10
1246.8257531571501
 20
971.06166680119998
 40
10.5
 41
1
 50
90.000002999999992
  1
54.4
  0
TEXT
  8
_0-a_寸法
 62
    7
 10
1322.8208046073501
 20
1032.9752048012001
 40
10.5
 41
1
 50
0
  1
110
  0
TEXT
  8
_0-a_寸法
 62
    7
 10
1302.94581060735
 20
1018.9016528012
 40
10.5
 41
1
 50
0
  1
62
  0
TEXT
  8
_0-a_寸法
 62
    7
 10
1341.94580910735
 20
1018.9016528012
 40
10.5
 41
1
 50
0
  1
26.5
  0
TEXT
  8
_0-a_寸法
 62
    7
 10
1370.4458076073502
 20
1018.9016528012
 40
10.5
 41
1
 50
0
  1
20
  0
TEXT
  8
_0-a_寸法
 62
    7
 10
1255.4458026073501
 20
1018.9016528012
 40
10.5
 41
1
 50
0
  1
1.5
  0
LINE
  8
_0-a_寸法
  6
CONTINUOUS
 62
    7
 10
1275.6958026073501
 20
1018.9016528012
 11
1254.4886036468502
 21
1018.9016528012
  0
TEXT
  8
_0-a_寸法
 62
    7
 10
1353.31693860735
 20
989.72442080120004
 40
10.5
 41
1
 50
0
  1
4
  0
TEXT
  8
_0-a_寸法
 62
    7
 10
1316.8476846073499
 20
901.41003680119991
 40
10.5
 41
1
 50
0
  1
11
  0
TEXT
  8
_0-a_寸法
 62
    7
 10
1275.8162196073501
 20
895.31924480119994
 40
10.5
 41
1
 50
0
  1
10
  0
LINE
  8
_0-a_寸法
  6
CONTINUOUS
 62
    7
 10
1450.69580760695
 20
928.36167380120003
 11
1450.69580760695
 21
977.36167280120003
  0
LINE
  8
_0-a_寸法
  6
CONTINUOUS
 62
    7
 10
1450.69580760695
 20
928.36167380120003
 11
1449.94580760695
 21
931.36167380120003
  0
LINE
  8
_0-a_寸法
  6
CONTINUOUS
 62
    7
 10
1450.69580760695
 20
928.36167380120003
 11
1451.44580760695
 21
931.36167380120003
  0
LINE
  8
_0-a_寸法
  6
CONTINUOUS
 62
    7
 10
1450.69580760695
 20
977.36167280120003
 11
1451.44580760695
 21
974.36167280120003
  0
LINE
  8
_0-a_寸法
  6
CONTINUOUS
 62
    7
 10
1450.69580760695
 20
977.36167280120003
 11
1449.94580760695
 21
974.36167280120003
  0
TEXT
  8
_0-a_寸法
 62
    7
 10
1450.69580788195
 20
947.61167330119997
 40
10.5
 41
1
 50
90.000003000000191
  1
49
  0
LINE
  8
_0-a_寸法
  6
CONTINUOUS
 62
    7
 10
1429.70739060695
 20
977.36167280120003
 11
1451.6958066069501
 21
977.36167280120003
  0
LINE
  8
_0-a_寸法
  6
CONTINUOUS
 62
    7
 10
1335.69580860735
 20
928.36167380120003
 11
1451.6958066069501
 21
928.36167380120003
  0
LINE
  8
_0-a_寸法
  6
CONTINUOUS
 62
    7
 10
1300.6958076073499
 20
853.36167380120003
 11
1335.69580860735
 21
853.36167380120003
  0
LINE
  8
_0-a_寸法
  6
CONTINUOUS
 62
    7
 10
1300.6958076073499
 20
853.36167380120003
 11
1303.6958076073502
 21
854.11167380119991
  0
LINE
  8
_0-a_寸法
  6
CONTINUOUS
 62
    7
 10
1300.6958076073499
 20
853.36167380120003
 11
1303.6958076073502
 21
852.61167380120003
  0
LINE
  8
_0-a_寸法
  6
CONTINUOUS
 62
    7
 10
1335.69580860735
 20
853.36167380120003
 11
1332.69580860735
 21
852.61167380120003
  0
LINE
  8
_0-a_寸法
  6
CONTINUOUS
 62
    7
 10
1335.69580860735
 20
853.36167380120003
 11
1332.69580860735
 21
854.11167380119991
  0
LINE
  8
_0-a_寸法
  6
CONTINUOUS
 62
    7
 10
1335.69580860735
 20
853.36167380120003
 11
1385.6958066073501
 21
853.36167380120003
  0
LINE
  8
_0-a_寸法
  6
CONTINUOUS
 62
    7
 10
1335.69580860735
 20
853.36167380120003
 11
1338.69580860735
 21
854.11167380119991
  0
LINE
  8
_0-a_寸法
  6
CONTINUOUS
 62
    7
 10
1335.69580860735
 20
853.36167380120003
 11
1338.69580860735
 21
852.61167380120003
  0
LINE
  8
_0-a_寸法
  6
CONTINUOUS
 62
    7
 10
1385.6958066073501
 20
853.36167380120003
 11
1382.6958066073503
 21
852.61167380120003
  0
LINE
  8
_0-a_寸法
  6
CONTINUOUS
 62
    7
 10
1385.6958066073501
 20
853.36167380120003
 11
1382.6958066073503
 21
854.11167380119991
  0
TEXT
  8
_0-a_寸法
 62
    7
 10
1355.4458076073502
 20
853.36167380120003
 40
10.5
 41
1
 50
0
  1
50
  0
TEXT
  8
_0-a_寸法
 62
    7
 10
1312.9458081073499
 20
853.36167380120003
 40
10.5
 41
1
 50
0
  1
35
  0
LINE
  8
_0-a_寸法
  6
CONTINUOUS
 62
    7
 10
1300.6958076073499
 20
884.35008980120006
 11
1300.6958076073499
 21
852.36167480120002
  0
LINE
  8
_0-a_寸法
  6
CONTINUOUS
 62
    7
 10
1335.69580860735
 20
868.36167380120003
 11
1335.69580860735
 21
852.36167480120002
  0
LINE
  8
_0-a_寸法
  6
CONTINUOUS
 62
    7
 10
1385.6958066073501
 20
868.36167380120003
 11
1385.6958066073501
 21
852.36167480120002
  0
LINE
  8
_0-8_小物
  6
CONTINUOUS
 62
    7
 10
1405.55304077295
 20
973.82330775949993
 11
1400.4961866069498
 21
971.98276280120001
  0
LINE
  8
_0-8_小物
  6
CONTINUOUS
 62
    7
 10
1405.5530409329501
 20
980.90003478460005
 11
1400.4961866069498
 21
982.74057980120006
  0
TEXT
  8
_0-a_寸法
 62
    7
 10
1393.6292646069501
 20
1004.2047608012
 40
9.5999999999999996
 41
1
 50
0
  1
10
  0
LINE
  8
_0-3_躯体
  6
CONTINUOUS
 62
    7
 10
1385.6958076073499
 20
1018.7616738012
 11
1385.6958076073499
 21
868.36167380120003
  0
LINE
  8
_0-3_躯体
  6
CONTINUOUS
 62
    7
 10
1385.6958076073499
 20
1018.7616738012
 11
1385.6958076073499
 21
868.36167380120003
  0
LINE
  8
_0-4_止水補助板
  6
CONTINUOUS
 62
    7
 10
1385.6958076073499
 20
992.86167380119991
 11
1385.6958076073499
 21
937.86167180120003
  0
LINE
  8
_0-4_止水補助板
  6
CENTER
 62
    7
 10
696.91346229624992
 20
970.79727128989998
 11
696.91346229624992
 21
875.29727778989991
  0
ARC
  8
_0-4_止水補助板
  6
CONTINUOUS
 62
    7
 10
1360.6998275159501
 20
892.36167380119991
 40
12
 50
194.463188
 51
345.50139030107999
  0
ARC
  8
_0-4_止水補助板
  6
CONTINUOUS
 62
    7
 10
1360.6998275159501
 20
892.36167380119991
 40
12.999998999999999
 50
194.463188
 51
345.50137756692004
  0
LINE
  8
_0-6_センタ_プレ_ト
  6
CENTER
 62
    7
 10
696.91346379624997
 20
968.37463704030006
 11
696.91346379624997
 21
944.2271907039999
  0
LINE
  8
_0-4_止水補助板
  6
CONTINUOUS
 62
    7
 10
1336.4706036073499
 20
929.36167280120003
 11
1349.0801278277502
 21
889.36457868129992
  0
LINE
  8
_0-4_止水補助板
  6
CONTINUOUS
 62
    7
 10
1348.11182048875
 20
889.11482100440003
 11
1335.69580860735
 21
928.36167380120003
  0
LINE
  8
_0-4_止水補助板
  6
CONTINUOUS
 62
    7
 10
1373.28582412785
 20
889.1070366040999
 11
1385.6958076073499
 21
937.86167180120003
  0
LINE
  8
_0-4_止水補助板
  6
CONTINUOUS
 62
    7
 10
1384.6958076073499
 20
937.86167180120003
 11
1372.31767210365
 21
889.35739566249993
  0
LINE
  8
_0-4_止水補助板
  6
CENTER
 62
    7
 10
1360.6958061073499
 20
964.11166780119993
 11
1360.6958061073499
 21
868.61167430119986
  0
LINE
  8
_0-8_小物
  6
CONTINUOUS
 62
    7
 10
620.14676529625001
 20
949.61825478989999
 11
620.14676529625001
 21
949.28355378989988
  0
LINE
  8
_0-8_小物
  6
CONTINUOUS
 62
    7
 10
617.81343129624997
 20
960.2835517899
 11
617.81343129624997
 21
959.98355178989993
  0
LINE
  8
_0-8_小物
  6
CONTINUOUS
 62
    7
 10
617.81343129624997
 20
959.98355178989993
 11
620.14676529625001
 21
957.98355378989993
  0
LINE
  8
_0-8_小物
  6
CONTINUOUS
 62
    7
 10
620.14676529625001
 20
957.98355378989993
 11
622.68009729624998
 21
957.98355378989993
  0
LINE
  8
_0-8_小物
  6
CONTINUOUS
 62
    7
 10
617.81343129624997
 20
959.98355178989993
 11
625.01343129625002
 21
959.98355178989993
  0
LINE
  8
_0-8_小物
  6
CONTINUOUS
 62
    7
 10
625.01343129625002
 20
960.2835517899
 11
625.01343129625002
 21
959.98355178989993
  0
LINE
  8
_0-8_小物
  6
CONTINUOUS
 62
    7
 10
625.01343129625002
 20
959.98355178989993
 11
622.68009729624998
 21
957.98355378989993
  0
LINE
  8
_0-8_小物
  6
CONTINUOUS
 62
    7
 10
620.14676529625001
 20
957.72283578990005
 11
621.41343129625
 21
957.76981578989989
  0
LINE
  8
_0-8_小物
  6
CONTINUOUS
 62
    7
 10
620.14676529625001
 20
956.87605578989997
 11
621.41343129625
 21
957.76981578989989
  0
LINE
  8
_0-8_小物
  6
CONTINUOUS
 62
    7
 10
620.14676529625001
 20
949.28355378989988
 11
620.14676529625001
 21
945.20731278990002
  0
LINE
  8
_0-8_小物
  6
CONTINUOUS
 62
    7
 10
622.68009729624998
 20
950.5589947899
 11
622.68009729624998
 21
945.20731278990002
  0
LINE
  8
_0-8_小物
  6
CONTINUOUS
 62
    7
 10
620.14676529625001
 20
951.49973478989989
 11
620.14676529625001
 21
950.46503478990007
  0
LINE
  8
_0-8_小物
  6
CONTINUOUS
 62
    7
 10
622.68009729624998
 20
951.40577478989997
 11
622.68009729624998
 21
952.44047478990001
  0
LINE
  8
_0-8_小物
  6
CONTINUOUS
 62
    7
 10
620.14676529625001
 20
949.61825478989999
 11
622.68009729624998
 21
950.5589947899
  0
LINE
  8
_0-8_小物
  6
CONTINUOUS
 62
    7
 10
620.14676529625001
 20
950.46503478990007
 11
622.68009729624998
 21
951.40577478989997
  0
LINE
  8
_0-8_小物
  6
CONTINUOUS
 62
    7
 10
619.41343029625
 20
950.04164478989992
 11
623.41343229624999
 21
950.98238478989992
  0
LINE
  8
_0-8_小物
  6
CONTINUOUS
 62
    7
 10
619.41343029625
 20
950.04164478989992
 11
620.14676529625001
 21
949.61825478989999
  0
LINE
  8
_0-8_小物
  6
CONTINUOUS
 62
    7
 10
619.41343029625
 20
950.04164478989992
 11
620.14676529625001
 21
950.46503478990007
  0
LINE
  8
_0-8_小物
  6
CONTINUOUS
 62
    7
 10
623.41343229624999
 20
950.98238478989992
 11
622.68009729624998
 21
950.5589947899
  0
LINE
  8
_0-8_小物
  6
CONTINUOUS
 62
    7
 10
622.68009729624998
 20
951.40577478989997
 11
623.41343229624999
 21
950.98238478989992
  0
LINE
  8
_0-8_小物
  6
CONTINUOUS
 62
    7
 10
620.14676529625001
 20
953.38121778990001
 11
620.14676529625001
 21
952.34651478990008
  0
LINE
  8
_0-8_小物
  6
CONTINUOUS
 62
    7
 10
622.68009729624998
 20
953.28725778990008
 11
622.68009729624998
 21
954.3219577898999
  0
LINE
  8
_0-8_小物
  6
CONTINUOUS
 62
    7
 10
620.14676529625001
 20
951.49973478989989
 11
622.68009729624998
 21
952.44047478990001
  0
LINE
  8
_0-8_小物
  6
CONTINUOUS
 62
    7
 10
620.14676529625001
 20
952.34651478990008
 11
622.68009729624998
 21
953.28725778990008
  0
LINE
  8
_0-8_小物
  6
CONTINUOUS
 62
    7
 10
619.41343029625
 20
951.92312478990004
 11
623.41343229624999
 21
952.86386478989994
  0
LINE
  8
_0-8_小物
  6
CONTINUOUS
 62
    7
 10
619.41343029625
 20
951.92312478990004
 11
620.14676529625001
 21
951.49973478989989
  0
LINE
  8
_0-8_小物
  6
CONTINUOUS
 62
    7
 10
619.41343029625
 20
951.92312478990004
 11
620.14676529625001
 21
952.34651478990008
  0
LINE
  8
_0-8_小物
  6
CONTINUOUS
 62
    7
 10
623.41343229624999
 20
952.86386478989994
 11
622.68009729624998
 21
952.44047478990001
  0
LINE
  8
_0-8_小物
  6
CONTINUOUS
 62
    7
 10
622.68009729624998
 20
953.28725778990008
 11
623.41343229624999
 21
952.86386478989994
  0
LINE
  8
_0-8_小物
  6
CONTINUOUS
 62
    7
 10
620.14676529625001
 20
955.26269778990002
 11
620.14676529625001
 21
954.22799778989997
  0
LINE
  8
_0-8_小物
  6
CONTINUOUS
 62
    7
 10
622.68009729624998
 20
955.16873778989998
 11
622.68009729624998
 21
956.20343778989991
  0
LINE
  8
_0-8_小物
  6
CONTINUOUS
 62
    7
 10
620.14676529625001
 20
953.38121778990001
 11
622.68009729624998
 21
954.3219577898999
  0
LINE
  8
_0-8_小物
  6
CONTINUOUS
 62
    7
 10
620.14676529625001
 20
954.22799778989997
 11
622.68009729624998
 21
955.16873778989998
  0
LINE
  8
_0-8_小物
  6
CONTINUOUS
 62
    7
 10
619.41343029625
 20
953.80460778990005
 11
623.41343229624999
 21
954.74534778990005
  0
LINE
  8
_0-8_小物
  6
CONTINUOUS
 62
    7
 10
619.41343029625
 20
953.80460778990005
 11
620.14676529625001
 21
953.38121778990001
  0
LINE
  8
_0-8_小物
  6
CONTINUOUS
 62
    7
 10
619.41343029625
 20
953.80460778990005
 11
620.14676529625001
 21
954.22799778989997
  0
LINE
  8
_0-8_小物
  6
CONTINUOUS
 62
    7
 10
623.41343229624999
 20
954.74534778990005
 11
622.68009729624998
 21
954.3219577898999
  0
LINE
  8
_0-8_小物
  6
CONTINUOUS
 62
    7
 10
622.68009729624998
 20
955.16873778989998
 11
623.41343229624999
 21
954.74534778990005
  0
LINE
  8
_0-8_小物
  6
CONTINUOUS
 62
    7
 10
620.14676529625001
 20
956.34749178989989
 11
620.14676529625001
 21
956.1094777899001
  0
LINE
  8
_0-8_小物
  6
CONTINUOUS
 62
    7
 10
622.68009729624998
 20
957.98355378989993
 11
622.68009729624998
 21
957.05022078989998
  0
LINE
  8
_0-8_小物
  6
CONTINUOUS
 62
    7
 10
620.14676529625001
 20
955.26269778990002
 11
622.68009729624998
 21
956.20343778989991
  0
LINE
  8
_0-8_小物
  6
CONTINUOUS
 62
    7
 10
620.14676529625001
 20
956.1094777899001
 11
622.68009729624998
 21
957.05022078989998
  0
LINE
  8
_0-8_小物
  6
CONTINUOUS
 62
    7
 10
619.41343029625
 20
955.68608778989994
 11
623.41343229624999
 21
956.62682778990006
  0
LINE
  8
_0-8_小物
  6
CONTINUOUS
 62
    7
 10
619.41343029625
 20
955.68608778989994
 11
620.14676529625001
 21
955.26269778990002
  0
LINE
  8
_0-8_小物
  6
CONTINUOUS
 62
    7
 10
619.41343029625
 20
955.68608778989994
 11
620.14676529625001
 21
956.1094777899001
  0
LINE
  8
_0-8_小物
  6
CONTINUOUS
 62
    7
 10
622.68009729624998
 20
956.20343778989991
 11
623.41343229624999
 21
956.62682778990006
  0
LINE
  8
_0-8_小物
  6
CONTINUOUS
 62
    7
 10
622.68009729624998
 20
957.05022078989998
 11
623.41343229624999
 21
956.62682778990006
  0
LINE
  8
_0-8_小物
  6
CONTINUOUS
 62
    7
 10
620.14676529625001
 20
957.98355378989993
 11
620.14676529625001
 21
957.72283578990005
  0
LINE
  8
_0-8_小物
  6
CONTINUOUS
 62
    7
 10
621.41343129625
 20
957.76981578989989
 11
619.41343029625
 21
957.29944578990001
  0
LINE
  8
_0-8_小物
  6
CONTINUOUS
 62
    7
 10
619.41343029625
 20
957.29944578990001
 11
620.14676529625001
 21
956.87605578989997
  0
LINE
  8
_0-8_小物
  6
CONTINUOUS
 62
    7
 10
619.41343029625
 20
957.29944578990001
 11
620.14676529625001
 21
957.72283578990005
  0
LINE
  8
_0-8_小物
  6
CONTINUOUS
 62
    7
 10
620.14676529625001
 20
956.87605578989997
 11
620.14676529625001
 21
956.34749178989989
  0
LINE
  8
_0-8_小物
  6
CONTINUOUS
 62
    7
 10
621.41343129625
 20
946.2835537899
 11
621.41343129625
 21
944.2835527899
  0
LINE
  8
_0-8_小物
  6
CONTINUOUS
 62
    7
 10
622.68009729624998
 20
949.28355378989988
 11
620.14678029624997
 21
949.28355378989988
  0
LINE
  8
_0-8_小物
  6
CONTINUOUS
 62
    7
 10
621.41343129625
 20
944.2835527899
 11
620.14676529625001
 21
945.20731278990002
  0
LINE
  8
_0-8_小物
  6
CONTINUOUS
 62
    7
 10
621.41343129625
 20
944.2835527899
 11
622.68009729624998
 21
945.20731278990002
  0
ARC
  8
_0-8_小物
  6
CONTINUOUS
 62
    7
 10
621.78820329625
 20
944.5589557899001
 40
1.7648489999999999
 50
102.260329
 51
158.446304
  0
ARC
  8
_0-8_小物
  6
CONTINUOUS
 62
    7
 10
627.41971629625004
 20
945.51497478989995
 40
6.0552600000000005
 50
141.51097799999997
 51
172.70791799999998
  0
LINE
  8
_0-8_小物
  6
CONTINUOUS
 62
    7
 10
773.68016229625005
 20
949.63197428989997
 11
773.68016229625005
 21
949.29727328989998
  0
LINE
  8
_0-8_小物
  6
CONTINUOUS
 62
    7
 10
776.01349629625008
 20
960.29727128989998
 11
776.01349629625008
 21
959.99727128990003
  0
LINE
  8
_0-8_小物
  6
CONTINUOUS
 62
    7
 10
776.01349629625008
 20
959.99727128990003
 11
773.68016229625005
 21
957.99727328990002
  0
LINE
  8
_0-8_小物
  6
CONTINUOUS
 62
    7
 10
773.68016229625005
 20
957.99727328990002
 11
771.14682729624997
 21
957.99727328990002
  0
LINE
  8
_0-8_小物
  6
CONTINUOUS
 62
    7
 10
776.01349629625008
 20
959.99727128990003
 11
768.81349629624992
 21
959.99727128990003
  0
LINE
  8
_0-8_小物
  6
CONTINUOUS
 62
    7
 10
768.81349629624992
 20
960.29727128989998
 11
768.81349629624992
 21
959.99727128990003
  0
LINE
  8
_0-8_小物
  6
CONTINUOUS
 62
    7
 10
768.81349629624992
 20
959.99727128990003
 11
771.14682729624997
 21
957.99727328990002
  0
LINE
  8
_0-8_小物
  6
CONTINUOUS
 62
    7
 10
773.68016229625005
 20
956.88977528989994
 11
772.41349629625006
 21
957.7835352899001
  0
LINE
  8
_0-8_小物
  6
CONTINUOUS
 62
    7
 10
773.68016229625005
 20
949.29727328989998
 11
773.68016229625005
 21
945.22103228989988
  0
LINE
  8
_0-8_小物
  6
CONTINUOUS
 62
    7
 10
771.14682729624997
 20
950.57271428990009
 11
771.14682729624997
 21
945.22103228989988
  0
LINE
  8
_0-8_小物
  6
CONTINUOUS
 62
    7
 10
773.68016229625005
 20
951.51345428989998
 11
773.68016229625005
 21
950.47875428989994
  0
LINE
  8
_0-8_小物
  6
CONTINUOUS
 62
    7
 10
771.14682729624997
 20
951.41949428990006
 11
771.14682729624997
 21
952.45419428989999
  0
LINE
  8
_0-8_小物
  6
CONTINUOUS
 62
    7
 10
773.68016229625005
 20
949.63197428989997
 11
771.14682729624997
 21
950.57271428990009
  0
LINE
  8
_0-8_小物
  6
CONTINUOUS
 62
    7
 10
773.68016229625005
 20
950.47875428989994
 11
771.14682729624997
 21
951.41949428990006
  0
LINE
  8
_0-8_小物
  6
CONTINUOUS
 62
    7
 10
774.41349429625006
 20
950.05536428990001
 11
770.41349529624995
 21
950.9961042898999
  0
LINE
  8
_0-8_小物
  6
CONTINUOUS
 62
    7
 10
774.41349429625006
 20
950.05536428990001
 11
773.68016229625005
 21
949.63197428989997
  0
LINE
  8
_0-8_小物
  6
CONTINUOUS
 62
    7
 10
774.41349429625006
 20
950.05536428990001
 11
773.68016229625005
 21
950.47875428989994
  0
LINE
  8
_0-8_小物
  6
CONTINUOUS
 62
    7
 10
770.41349529624995
 20
950.9961042898999
 11
771.14682729624997
 21
950.57271428990009
  0
LINE
  8
_0-8_小物
  6
CONTINUOUS
 62
    7
 10
771.14682729624997
 20
951.41949428990006
 11
770.41349529624995
 21
950.9961042898999
  0
LINE
  8
_0-8_小物
  6
CONTINUOUS
 62
    7
 10
773.68016229625005
 20
953.3949372899001
 11
773.68016229625005
 21
952.36023428989995
  0
LINE
  8
_0-8_小物
  6
CONTINUOUS
 62
    7
 10
771.14682729624997
 20
953.30097728989995
 11
771.14682729624997
 21
954.33567728989999
  0
LINE
  8
_0-8_小物
  6
CONTINUOUS
 62
    7
 10
773.68016229625005
 20
951.51345428989998
 11
771.14682729624997
 21
952.45419428989999
  0
LINE
  8
_0-8_小物
  6
CONTINUOUS
 62
    7
 10
773.68016229625005
 20
952.36023428989995
 11
771.14682729624997
 21
953.30097728989995
  0
LINE
  8
_0-8_小物
  6
CONTINUOUS
 62
    7
 10
774.41349429625006
 20
951.93684428989991
 11
770.41349529624995
 21
952.87758428990003
  0
LINE
  8
_0-8_小物
  6
CONTINUOUS
 62
    7
 10
774.41349429625006
 20
951.93684428989991
 11
773.68016229625005
 21
951.51345428989998
  0
LINE
  8
_0-8_小物
  6
CONTINUOUS
 62
    7
 10
774.41349429625006
 20
951.93684428989991
 11
773.68016229625005
 21
952.36023428989995
  0
LINE
  8
_0-8_小物
  6
CONTINUOUS
 62
    7
 10
770.41349529624995
 20
952.87758428990003
 11
771.14682729624997
 21
952.45419428989999
  0
LINE
  8
_0-8_小物
  6
CONTINUOUS
 62
    7
 10
771.14682729624997
 20
953.30097728989995
 11
770.41349529624995
 21
952.87758428990003
  0
LINE
  8
_0-8_小物
  6
CONTINUOUS
 62
    7
 10
773.68016229625005
 20
955.27641728989988
 11
773.68016229625005
 21
954.24171728990007
  0
LINE
  8
_0-8_小物
  6
CONTINUOUS
 62
    7
 10
771.14682729624997
 20
955.18245728989996
 11
771.14682729624997
 21
956.2171572899
  0
LINE
  8
_0-8_小物
  6
CONTINUOUS
 62
    7
 10
773.68016229625005
 20
953.3949372899001
 11
771.14682729624997
 21
954.33567728989999
  0
LINE
  8
_0-8_小物
  6
CONTINUOUS
 62
    7
 10
773.68016229625005
 20
954.24171728990007
 11
771.14682729624997
 21
955.18245728989996
  0
LINE
  8
_0-8_小物
  6
CONTINUOUS
 62
    7
 10
774.41349429625006
 20
953.81832728989991
 11
770.41349529624995
 21
954.75906728990003
  0
LINE
  8
_0-8_小物
  6
CONTINUOUS
 62
    7
 10
774.41349429625006
 20
953.81832728989991
 11
773.68016229625005
 21
953.3949372899001
  0
LINE
  8
_0-8_小物
  6
CONTINUOUS
 62
    7
 10
774.41349429625006
 20
953.81832728989991
 11
773.68016229625005
 21
954.24171728990007
  0
LINE
  8
_0-8_小物
  6
CONTINUOUS
 62
    7
 10
770.41349529624995
 20
954.75906728990003
 11
771.14682729624997
 21
954.33567728989999
  0
LINE
  8
_0-8_小物
  6
CONTINUOUS
 62
    7
 10
771.14682729624997
 20
955.18245728989996
 11
770.41349529624995
 21
954.75906728990003
  0
LINE
  8
_0-8_小物
  6
CONTINUOUS
 62
    7
 10
773.68016229625005
 20
956.36121128989998
 11
773.68016229625005
 21
956.12319728989996
  0
LINE
  8
_0-8_小物
  6
CONTINUOUS
 62
    7
 10
771.14682729624997
 20
957.99727328990002
 11
771.14682729624997
 21
957.06394028990007
  0
LINE
  8
_0-8_小物
  6
CONTINUOUS
 62
    7
 10
773.68016229625005
 20
955.27641728989988
 11
771.14682729624997
 21
956.2171572899
  0
LINE
  8
_0-8_小物
  6
CONTINUOUS
 62
    7
 10
773.68016229625005
 20
956.12319728989996
 11
771.14682729624997
 21
957.06394028990007
  0
LINE
  8
_0-8_小物
  6
CONTINUOUS
 62
    7
 10
774.41349429625006
 20
955.69980728990004
 11
770.41349529624995
 21
956.64054728989993
  0
LINE
  8
_0-8_小物
  6
CONTINUOUS
 62
    7
 10
774.41349429625006
 20
955.69980728990004
 11
773.68016229625005
 21
955.27641728989988
  0
LINE
  8
_0-8_小物
  6
CONTINUOUS
 62
    7
 10
774.41349429625006
 20
955.69980728990004
 11
773.68016229625005
 21
956.12319728989996
  0
LINE
  8
_0-8_小物
  6
CONTINUOUS
 62
    7
 10
771.14682729624997
 20
956.2171572899
 11
770.41349529624995
 21
956.64054728989993
  0
LINE
  8
_0-8_小物
  6
CONTINUOUS
 62
    7
 10
771.14682729624997
 20
957.06394028990007
 11
770.41349529624995
 21
956.64054728989993
  0
LINE
  8
_0-8_小物
  6
CONTINUOUS
 62
    7
 10
773.68016229625005
 20
957.99727328990002
 11
773.68016229625005
 21
957.73655528989991
  0
LINE
  8
_0-8_小物
  6
CONTINUOUS
 62
    7
 10
772.41349629625006
 20
957.7835352899001
 11
774.41349429625006
 21
957.3131652899001
  0
LINE
  8
_0-8_小物
  6
CONTINUOUS
 62
    7
 10
774.41349429625006
 20
957.3131652899001
 11
773.68016229625005
 21
956.88977528989994
  0
LINE
  8
_0-8_小物
  6
CONTINUOUS
 62
    7
 10
774.41349429625006
 20
957.3131652899001
 11
773.68016229625005
 21
957.73655528989991
  0
LINE
  8
_0-8_小物
  6
CONTINUOUS
 62
    7
 10
773.68016229625005
 20
956.88977528989994
 11
773.68016229625005
 21
956.36121128989998
  0
LINE
  8
_0-8_小物
  6
CONTINUOUS
 62
    7
 10
772.41349629625006
 20
946.29727328989998
 11
772.41349629625006
 21
944.29727228990009
  0
LINE
  8
_0-8_小物
  6
CONTINUOUS
 62
    7
 10
771.14682729624997
 20
949.29727328989998
 11
773.68014729624997
 21
949.29727328989998
  0
LINE
  8
_0-8_小物
  6
CONTINUOUS
 62
    7
 10
772.41349629625006
 20
944.29727228990009
 11
773.68016229625005
 21
945.22103228989988
  0
LINE
  8
_0-8_小物
  6
CONTINUOUS
 62
    7
 10
772.41349629625006
 20
944.29727228990009
 11
771.14682729624997
 21
945.22103228989988
  0
ARC
  8
_0-8_小物
  6
CONTINUOUS
 62
    7
 10
772.03872129624995
 20
944.57267528989996
 40
1.7648489999999999
 50
21.553695999990001
 51
77.739671000000001
  0
ARC
  8
_0-8_小物
  6
CONTINUOUS
 62
    7
 10
766.40721129625013
 20
945.52869428989993
 40
6.0552600000000005
 50
7.2920819999989988
 51
38.489022000000006
  0
LINE
  8
_0-8_小物
  6
CONTINUOUS
 62
    7
 10
773.68016229625005
 20
957.73655528989991
 11
772.41349629625006
 21
957.7835352899001
  0
CIRCLE
  8
_0-a_寸法
  6
CONTINUOUS
 62
    7
 10
702.83358547975001
 20
958.28870992110001
 40
0.5999999999999999
  0
CIRCLE
  8
_0-a_寸法
  6
CONTINUOUS
 62
    7
 10
729.86716677905008
 20
959.2972712899001
 40
0.5999999999999999
  0
CIRCLE
  8
_0-a_寸法
  6
CONTINUOUS
 62
    7
 10
739.42219929625003
 20
936.29727828989996
 40
0.5999999999999999
  0
CIRCLE
  8
_0-a_寸法
  6
CONTINUOUS
 62
    7
 10
711.39498449705002
 20
973.11748731880004
 40
6
  0
TEXT
  8
_0-a_寸法
 62
    7
 10
708.99498449704993
 20
968.31748731879998
 40
9.5999999999999996
 41
1
 50
0
  1
2
  0
CIRCLE
  8
_0-a_寸法
  6
CONTINUOUS
 62
    7
 10
737.84627061704998
 20
973.11748731880004
 40
6
  0
TEXT
  8
_0-a_寸法
 62
    7
 10
735.44627061705
 20
968.31748731879998
 40
9.5999999999999996
 41
1
 50
0
  1
1
  0
CIRCLE
  8
_0-a_寸法
  6
CONTINUOUS
 62
    7
 10
760.68035958734993
 20
973.11748731880004
 40
6
  0
TEXT
  8
_0-a_寸法
 62
    7
 10
758.28035958734995
 20
968.31748731879998
 40
9.5999999999999996
 41
1
 50
0
  1
3
  0
LINE
  8
_0-a_寸法
  6
CONTINUOUS
 62
    7
 10
702.83358547975001
 20
958.28870992110001
 11
708.39498439324996
 21
967.92133495610005
  0
LINE
  8
_0-a_寸法
  6
CONTINUOUS
 62
    7
 10
729.86716677905008
 20
959.2972712899001
 11
734.84627107004997
 21
967.92133463460004
  0
LINE
  8
_0-a_寸法
  6
CONTINUOUS
 62
    7
 10
739.42219929625003
 20
936.29727828989996
 11
757.68035930184988
 21
967.92133506089999
  0
LINE
  8
_0-9_その他
  6
CONTINUOUS
 62
    7
 10
621.41343129625
 20
962.74715378989993
 11
621.41343129625
 21
941.28352478989996
  0
LINE
  8
_0-9_その他
  6
CONTINUOUS
 62
    7
 10
772.41349629625006
 20
962.76087328990002
 11
772.41349629625006
 21
941.29724428990005
  0
LINE
  8
_0-9_その他
  6
CONTINUOUS
 62
    7
 10
1285.1957766073499
 20
957.32528480119993
 11
1285.1957766073499
 21
935.86165580119996
  0
CIRCLE
  8
_0-a_寸法
  6
CONTINUOUS
 62
    7
 10
1327.7420881245503
 20
953.3616663012001
 40
0.5999999999999999
  0
CIRCLE
  8
_0-a_寸法
  6
CONTINUOUS
 62
    7
 10
1357.76244275165
 20
952.66101740079989
 40
0.5999999999999999
  0
CIRCLE
  8
_0-a_寸法
  6
CONTINUOUS
 62
    7
 10
1345.8462350022501
 20
973.30049200220003
 40
6
  0
TEXT
  8
_0-a_寸法
 62
    7
 10
1343.2212350022498
 20
968.05049200219992
 40
10.5
 41
1
 50
0
  1
2
  0
LINE
  8
_0-a_寸法
  6
CONTINUOUS
 62
    7
 10
1357.76244275165
 20
952.66101740079989
 11
1348.8462350022498
 21
968.10434200220004
  0
CIRCLE
  8
_0-a_寸法
  6
CONTINUOUS
 62
    7
 10
1327.54539973895
 20
930.36167330120009
 40
0.5999999999999999
  0
CIRCLE
  8
_0-a_寸法
  6
CONTINUOUS
 62
    7
 10
1316.23040126775
 20
973.30049200220003
 40
6
  0
TEXT
  8
_0-a_寸法
 62
    7
 10
1313.60540126775
 20
968.05049200219992
 40
10.5
 41
1
 50
0
  1
1
  0
CIRCLE
  8
_0-a_寸法
  6
CONTINUOUS
 62
    7
 10
1302.7546597292499
 20
973.3004901851001
 40
6
  0
TEXT
  8
_0-a_寸法
 62
    7
 10
1300.1296597292501
 20
968.05049018509999
 40
10.5
 41
1
 50
0
  1
3
  0
LINE
  8
_0-a_寸法
  6
CONTINUOUS
 62
    7
 10
1327.7420881245503
 20
953.3616663012001
 11
1319.2304023168501
 21
968.1043401851
  0
LINE
  8
_0-a_寸法
  6
CONTINUOUS
 62
    7
 10
1327.54539973895
 20
930.36167330120009
 11
1305.7546607782501
 21
968.10433836809989
  0
LINE
  8
_0-a_寸法
  6
CONTINUOUS
 62
    7
 10
1285.1957766073499
 20
953.21166305120005
 11
1271.2397556073502
 21
977.38419905119997
  0
CIRCLE
  8
_0-a_寸法
  6
CONTINUOUS
 62
    7
 10
1268.2397556073502
 20
982.58035205119995
 40
6
  0
CIRCLE
  8
_0-a_寸法
  6
CONTINUOUS
 62
    7
 10
1285.1957766073499
 20
953.21166305120005
 40
0.5999999999999999
  0
TEXT
  8
_0-a_寸法
 62
    7
 10
1265.6147556073502
 20
977.33035205120007
 40
10.5
 41
1
 50
0
  1
8
  0
CIRCLE
  8
_0-a_寸法
  6
CONTINUOUS
 62
    7
 10
1379.0138666627502
 20
913.60607010799993
 40
0.5999999999999999
  0
LINE
  8
_0-a_寸法
  6
CONTINUOUS
 62
    7
 10
1379.0138666627502
 20
913.60607010799993
 11
1394.17784754595
 21
887.34128692429988
  0
CIRCLE
  8
_0-a_寸法
  6
CONTINUOUS
 62
    7
 10
1397.17784770095
 20
882.14513459099999
 40
6
  0
TEXT
  8
_0-a_寸法
 62
    7
 10
1394.55284770095
 20
876.89513459099999
 40
10.5
 41
1
 50
0
  1
6
  0
LINE
  8
_0-a_寸法
  6
CONTINUOUS
 62
    7
 10
1379.19580785735
 20
938.61166955119995
 11
1395.6690238569502
 21
910.07922455120001
  0
CIRCLE
  8
_0-a_寸法
  6
CONTINUOUS
 62
    7
 10
1398.6690238569499
 20
904.88307155119992
 40
6
  0
CIRCLE
  8
_0-a_寸法
  6
CONTINUOUS
 62
    7
 10
1379.19580785735
 20
938.61166955119995
 40
0.5999999999999999
  0
TEXT
  8
_0-a_寸法
 62
    7
 10
1396.0440238569502
 20
899.63307155119992
 40
10.5
 41
1
 50
0
  1
5
  0
LINE
  8
_0-a_寸法
  6
CONTINUOUS
 62
    7
 10
1381.94579760735
 20
970.61167244940009
 11
1394.6080776069498
 21
948.67995944939992
  0
CIRCLE
  8
_0-a_寸法
  6
CONTINUOUS
 62
    7
 10
1397.60807760695
 20
943.48380944940004
 40
6
  0
CIRCLE
  8
_0-a_寸法
  6
CONTINUOUS
 62
    7
 10
1381.94579760735
 20
970.61167244940009
 40
0.5999999999999999
  0
TEXT
  8
_0-a_寸法
 62
    7
 10
1392.8080776069498
 20
938.68380944939997
 40
9.5999999999999996
 41
1
 50
0
  1
11
  0
CIRCLE
  8
_0-a_寸法
  6
CONTINUOUS
 62
    7
 10
1416.5727011169499
 20
980.81299811719998
 40
0.5999999999999999
  0
CIRCLE
  8
_0-a_寸法
  6
CONTINUOUS
 62
    7
 10
1425.8082186659501
 20
996.80938093419991
 40
6
  0
TEXT
  8
_0-a_寸法
 62
    7
 10
1423.40821866595
 20
992.00938093420007
 40
9.5999999999999996
 41
1
 50
0
  1
9
  0
LINE
  8
_0-a_寸法
  6
CONTINUOUS
 62
    7
 10
1416.5727011169499
 20
980.81299811719998
 11
1422.8082176169501
 21
991.61322911719992
  0
LINE
  8
_0-a_寸法
  6
CONTINUOUS
 62
    7
 10
1380.34580760735
 20
1003.7616728012
 11
1392.61128060695
 21
1025.0060948011999
  0
CIRCLE
  8
_0-a_寸法
  6
CONTINUOUS
 62
    7
 10
1395.61128060695
 20
1030.2022478012
 40
6
  0
CIRCLE
  8
_0-a_寸法
  6
CONTINUOUS
 62
    7
 10
1380.34580760735
 20
1003.7616728012
 40
0.5999999999999999
  0
TEXT
  8
_0-a_寸法
 62
    7
 10
1392.98628060695
 20
1024.9522478012
 40
10.5
 41
1
 50
0
  1
7
  0
CIRCLE
  8
_0-a_寸法
  6
CONTINUOUS
 62
    7
 10
760.14130329625004
 20
902.90798778989995
 40
0.5999999999999999
  0
CIRCLE
  8
_0-a_寸法
  6
CONTINUOUS
 62
    7
 10
770.55126429625011
 20
884.87740878989996
 40
6
  0
TEXT
  8
_0-a_寸法
 62
    7
 10
768.15126429625002
 20
880.07740878989989
 40
9.5999999999999996
 41
1
 50
0
  1
6
  0
LINE
  8
_0-a_寸法
  6
CONTINUOUS
 62
    7
 10
760.14130329625004
 20
902.90798778989995
 11
767.55126454614992
 21
890.0735613569999
  0
LINE
  8
_0-a_寸法
  6
CONTINUOUS
 62
    7
 10
763.66346264804997
 20
938.04730278990007
 11
775.52982464804995
 21
917.49416178990009
  0
CIRCLE
  8
_0-a_寸法
  6
CONTINUOUS
 62
    7
 10
778.52982464804995
 20
912.29800878989988
 40
6
  0
CIRCLE
  8
_0-a_寸法
  6
CONTINUOUS
 62
    7
 10
763.66346264804997
 20
938.04730278990007
 40
0.5999999999999999
  0
TEXT
  8
_0-a_寸法
 62
    7
 10
776.12982464804998
 20
907.49800878990004
 40
9.5999999999999996
 41
1
 50
0
  1
8
  0
LINE
  8
_0-a_寸法
  6
CONTINUOUS
 62
    7
 10
772.41349629625006
 20
944.79728878989988
 11
790.30260735945012
 21
913.81243617780001
  0
CIRCLE
  8
_0-a_寸法
  6
CONTINUOUS
 62
    7
 10
793.30260710955008
 20
908.61628361070007
 40
6
  0
TEXT
  8
_0-a_寸法
 62
    7
 10
790.90260710954999
 20
903.8162836107
 40
9.5999999999999996
 41
1
 50
0
  1
5
  0
CIRCLE
  8
_0-a_寸法
  6
CONTINUOUS
 62
    7
 10
1297.4679666073503
 20
896.97238280120007
 40
0.5999999999999999
  0
LINE
  8
_0-a_寸法
  6
CONTINUOUS
 62
    7
 10
1297.4679666073503
 20
896.97238280120007
 11
1289.0574560077498
 21
882.4049506250999
  0
TEXT
  8
_0-a_寸法
 62
    7
 10
1283.43245608505
 20
871.95879815780006
 40
10.5
 41
1
 50
0
  1
9
  0
CIRCLE
  8
_0-a_寸法
  6
CONTINUOUS
 62
    7
 10
1286.05745608505
 20
877.20879815779995
 40
6
  0
LINE
  8
_0-3_躯体
  6
HIDDEN
 62
    9
 10
1385.6958076073499
 20
868.36167380120003
 11
1435.69580760695
 21
868.36167380120003
  0
LINE
  8
_0-b_部材名称
  6
CONTINUOUS
 62
    7
 10
934.48947444195005
 20
524.01777521100007
 11
508.03947444195001
 21
524.01777521100007
  0
LINE
  8
_0-b_部材名称
  6
CONTINUOUS
 62
    7
 10
934.48947444195005
 20
560.01777521099996
 11
508.03947444195001
 21
560.01777521099996
  0
LINE
  8
_0-b_部材名称
  6
CONTINUOUS
 62
    7
 10
934.48947444195005
 20
542.01777521099996
 11
508.03947444195001
 21
542.01777521099996
  0
LINE
  8
_0-b_部材名称
  6
CONTINUOUS
 62
    7
 10
934.48947444195005
 20
578.01777521099996
 11
508.03947444195001
 21
578.01777521099996
  0
LINE
  8
_0-b_部材名称
  6
CONTINUOUS
 62
    7
 10
934.48947444195005
 20
686.01777521100007
 11
508.03947444195001
 21
686.01777521100007
  0
LINE
  8
_0-b_部材名称
  6
CONTINUOUS
 62
    7
 10
934.48947444195005
 20
668.01777521100007
 11
508.03947444195001
 21
668.01777521100007
  0
LINE
  8
_0-b_部材名称
  6
CONTINUOUS
 62
    7
 10
934.48947444195005
 20
650.01777521099996
 11
508.03947444195001
 21
650.01777521099996
  0
LINE
  8
_0-b_部材名称
  6
CONTINUOUS
 62
    7
 10
934.48947444195005
 20
632.01777521099996
 11
508.03947444195001
 21
632.01777521099996
  0
LINE
  8
_0-b_部材名称
  6
CONTINUOUS
 62
    7
 10
934.48947444195005
 20
614.01777521100007
 11
508.03947444195001
 21
614.01777521100007
  0
LINE
  8
_0-b_部材名称
  6
CONTINUOUS
 62
    7
 10
934.48947444195005
 20
596.01777521099996
 11
508.03947444195001
 21
596.01777521099996
  0
LINE
  8
_0-b_部材名称
  6
CONTINUOUS
 62
    7
 10
934.48947444195005
 20
718.41777521099993
 11
508.03947444195001
 21
718.41777521099993
  0
TEXT
  8
_0-b_部材名称
 62
    7
 10
509.53067844195004
 20
671.70042371099998
 40
9.5999999999999996
 41
1
 50
0
  1
　１
  0
TEXT
  8
_0-b_部材名称
 62
    7
 10
835.85090544194998
 20
671.61778721100006
 40
9.5999999999999996
 41
1
 50
0
  1
３０００
  0
TEXT
  8
_0-b_部材名称
 62
    7
 10
896.12013894195002
 20
671.76774971100008
 40
9.5999999999999996
 41
1
 50
0
  1
２
  0
TEXT
  8
_0-b_部材名称
 62
    7
 10
919.05484944194995
 20
671.61778721100006
 40
9.5999999999999996
 41
1
 50
0
  1
本
  0
TEXT
  8
_0-b_部材名称
 62
    7
 10
518.79997044194999
 20
653.70042371099998
 40
9.5999999999999996
 41
1
 50
0
  1
２
  0
TEXT
  8
_0-b_部材名称
 62
    7
 10
835.85090544194998
 20
653.61778721099995
 40
9.5999999999999996
 41
1
 50
0
  1
３０００
  0
TEXT
  8
_0-b_部材名称
 62
    7
 10
896.12013894195002
 20
653.76778421099993
 40
9.5999999999999996
 41
1
 50
0
  1
１
  0
TEXT
  8
_0-b_部材名称
 62
    7
 10
919.05484944194995
 20
653.61778721099995
 40
9.5999999999999996
 41
1
 50
0
  1
〃
  0
TEXT
  8
_0-b_部材名称
 62
    7
 10
518.79997044194999
 20
635.70042371099998
 40
9.5999999999999996
 41
1
 50
0
  1
３
  0
TEXT
  8
_0-b_部材名称
 62
    7
 10
896.12013894195002
 20
635.76774971099996
 40
9.5999999999999996
 41
1
 50
0
  1
２
  0
TEXT
  8
_0-b_部材名称
 62
    7
 10
919.05484944194995
 20
635.61778721099995
 40
9.5999999999999996
 41
1
 50
0
  1
〃
  0
TEXT
  8
_0-b_部材名称
 62
    7
 10
518.79997044194999
 20
617.70042371099998
 40
9.5999999999999996
 41
1
 50
0
  1
４
  0
TEXT
  8
_0-b_部材名称
 62
    7
 10
533.23949694194994
 20
617.61778721099995
 40
9.5999999999999996
 41
1
 50
0
  1
止水補助板
  0
TEXT
  8
_0-b_部材名称
 62
    7
 10
835.85090544194998
 20
617.61778721099995
 40
9.5999999999999996
 41
1
 50
0
  1
３１００
  0
TEXT
  8
_0-b_部材名称
 62
    7
 10
896.12013894195002
 20
617.76778421099993
 40
9.5999999999999996
 41
1
 50
0
  1
１
  0
TEXT
  8
_0-b_部材名称
 62
    7
 10
919.05484944194995
 20
617.61778721099995
 40
9.5999999999999996
 41
1
 50
0
  1
枚
  0
TEXT
  8
_0-b_部材名称
 62
    7
 10
518.79997044194999
 20
599.70045821100007
 40
9.5999999999999996
 41
1
 50
0
  1
５
  0
TEXT
  8
_0-b_部材名称
 62
    7
 10
518.79997044194999
 20
581.70045821099995
 40
9.5999999999999996
 41
1
 50
0
  1
６
  0
TEXT
  8
_0-b_部材名称
 62
    7
 10
919.05484944194995
 20
581.61778721099995
 40
9.5999999999999996
 41
1
 50
0
  1
〃
  0
TEXT
  8
_0-b_部材名称
 62
    7
 10
518.79997044194999
 20
563.70044171099994
 40
9.5999999999999996
 41
1
 50
0
  1
７
  0
TEXT
  8
_0-b_部材名称
 62
    7
 10
919.05484944194995
 20
563.617769211
 40
9.5999999999999996
 41
1
 50
0
  1
〃
  0
TEXT
  8
_0-b_部材名称
 62
    7
 10
518.79997044194999
 20
545.70044171100005
 40
9.5999999999999996
 41
1
 50
0
  1
８
  0
TEXT
  8
_0-b_部材名称
 62
    7
 10
533.23949694194994
 20
545.61780371099997
 40
9.5999999999999996
 41
1
 50
0
  1
ステンワッシャー
  0
TEXT
  8
_0-b_部材名称
 62
    7
 10
704.23954794194992
 20
545.61780371099997
 40
9.5999999999999996
 41
1
 50
0
  1
１．５×１８×５．５穴
  0
TEXT
  8
_0-b_部材名称
 62
    7
 10
919.05484944194995
 20
545.61780371099997
 40
9.5999999999999996
 41
1
 50
0
  1
枚
  0
LINE
  8
_0-b_部材名称
  6
CONTINUOUS
 62
    7
 10
1534.4894744419501
 20
686.01777521100007
 11
1108.03947444195
 21
686.01777521100007
  0
LINE
  8
_0-b_部材名称
  6
CONTINUOUS
 62
    7
 10
1534.4894744419501
 20
668.01777521100007
 11
1108.03947444195
 21
668.01777521100007
  0
LINE
  8
_0-b_部材名称
  6
CONTINUOUS
 62
    7
 10
1534.4894744419501
 20
650.01777521099996
 11
1108.03947444195
 21
650.01777521099996
  0
LINE
  8
_0-b_部材名称
  6
CONTINUOUS
 62
    7
 10
1534.4894744419501
 20
632.01777521099996
 11
1108.03947444195
 21
632.01777521099996
  0
LINE
  8
_0-b_部材名称
  6
CONTINUOUS
 62
    7
 10
1534.4894744419501
 20
614.01777521100007
 11
1108.03947444195
 21
614.01777521100007
  0
LINE
  8
_0-b_部材名称
  6
CONTINUOUS
 62
    7
 10
1534.4894744419501
 20
596.01777521099996
 11
1108.03947444195
 21
596.01777521099996
  0
LINE
  8
_0-b_部材名称
  6
CONTINUOUS
 62
    7
 10
1534.4894744419501
 20
578.01777521099996
 11
1108.03947444195
 21
578.01777521099996
  0
LINE
  8
_0-b_部材名称
  6
CONTINUOUS
 62
    7
 10
1534.4894744419501
 20
560.01777521099996
 11
1108.03947444195
 21
560.01777521099996
  0
LINE
  8
_0-b_部材名称
  6
CONTINUOUS
 62
    7
 10
1534.4894744419501
 20
542.01777521099996
 11
1108.03947444195
 21
542.01777521099996
  0
LINE
  8
_0-b_部材名称
  6
CONTINUOUS
 62
    7
 10
1534.4894744419501
 20
524.01777521100007
 11
1108.03947444195
 21
524.01777521100007
  0
LINE
  8
_0-b_部材名称
  6
CONTINUOUS
 62
    7
 10
1534.4894744419501
 20
488.01777521100001
 11
1108.03947444195
 21
488.01777521100001
  0
LINE
  8
_0-b_部材名称
  6
CONTINUOUS
 62
    7
 10
1534.4894744419501
 20
718.41777521099993
 11
1108.03947444195
 21
718.41777521099993
  0
LINE
  8
_0-b_部材名称
  6
CONTINUOUS
 62
    7
 10
1534.4894744419501
 20
506.01777521099996
 11
1108.03947444195
 21
506.01777521099996
  0
LINE
  8
_0-b_部材名称
  6
CONTINUOUS
 62
    7
 10
1534.4894744419501
 20
470.01777521099996
 11
1108.03947444195
 21
470.01777521099996
  0
TEXT
  8
_0-b_部材名称
 62
    7
 10
1109.5306259419501
 20
671.70042371099998
 40
9.5999999999999996
 41
1
 50
0
  1
　１
  0
TEXT
  8
_0-b_部材名称
 62
    7
 10
1435.8507329419499
 20
671.61778721100006
 40
9.5999999999999996
 41
1
 50
0
  1
３０００
  0
TEXT
  8
_0-b_部材名称
 62
    7
 10
1497.6201854419501
 20
671.76774971100008
 40
9.5999999999999996
 41
1
 50
0
  1
１
  0
TEXT
  8
_0-b_部材名称
 62
    7
 10
1519.05478044195
 20
671.61778721100006
 40
9.5999999999999996
 41
1
 50
0
  1
本
  0
TEXT
  8
_0-b_部材名称
 62
    7
 10
1118.7999179419498
 20
653.70042371099998
 40
9.5999999999999996
 41
1
 50
0
  1
２
  0
TEXT
  8
_0-b_部材名称
 62
    7
 10
1435.8507329419499
 20
653.61778721099995
 40
9.5999999999999996
 41
1
 50
0
  1
３０００
  0
TEXT
  8
_0-b_部材名称
 62
    7
 10
1497.6201854419501
 20
653.76778421099993
 40
9.5999999999999996
 41
1
 50
0
  1
１
  0
TEXT
  8
_0-b_部材名称
 62
    7
 10
1519.05478044195
 20
653.61778721099995
 40
9.5999999999999996
 41
1
 50
0
  1
〃
  0
TEXT
  8
_0-b_部材名称
 62
    7
 10
1118.7999179419498
 20
635.70042371099998
 40
9.5999999999999996
 41
1
 50
0
  1
３
  0
TEXT
  8
_0-b_部材名称
 62
    7
 10
1435.8507329419499
 20
635.61778721099995
 40
9.5999999999999996
 41
1
 50
0
  1
３０００
  0
TEXT
  8
_0-b_部材名称
 62
    7
 10
1497.6201854419501
 20
635.76774971099996
 40
9.5999999999999996
 41
1
 50
0
  1
１
  0
TEXT
  8
_0-b_部材名称
 62
    7
 10
1519.05478044195
 20
635.61778721099995
 40
9.5999999999999996
 41
1
 50
0
  1
〃
  0
TEXT
  8
_0-b_部材名称
 62
    7
 10
1118.7999179419498
 20
617.70042371099998
 40
9.5999999999999996
 41
1
 50
0
  1
４
  0
TEXT
  8
_0-b_部材名称
 62
    7
 10
1435.8507329419499
 20
617.61778721099995
 40
9.5999999999999996
 41
1
 50
0
  1
３０００
  0
TEXT
  8
_0-b_部材名称
 62
    7
 10
1497.6201854419501
 20
617.76778421099993
 40
9.5999999999999996
 41
1
 50
0
  1
１
  0
TEXT
  8
_0-b_部材名称
 62
    7
 10
1519.05478044195
 20
617.61778721099995
 40
9.5999999999999996
 41
1
 50
0
  1
〃
  0
TEXT
  8
_0-b_部材名称
 62
    7
 10
1118.7999179419498
 20
599.70045821100007
 40
9.5999999999999996
 41
1
 50
0
  1
５
  0
TEXT
  8
_0-b_部材名称
 62
    7
 10
1118.7999179419498
 20
581.70045821099995
 40
9.5999999999999996
 41
1
 50
0
  1
６
  0
TEXT
  8
_0-b_部材名称
 62
    7
 10
1118.7999179419498
 20
563.70045821099995
 40
9.5999999999999996
 41
1
 50
0
  1
７
  0
TEXT
  8
_0-b_部材名称
 62
    7
 10
1118.7999179419498
 20
545.70044171100005
 40
9.5999999999999996
 41
1
 50
0
  1
８
  0
TEXT
  8
_0-b_部材名称
 62
    7
 10
1118.7999179419498
 20
527.70044171099994
 40
9.5999999999999996
 41
1
 50
0
  1
９
  0
TEXT
  8
_0-b_部材名称
 62
    7
 10
1118.7999179419498
 20
473.700441711
 40
9.5999999999999996
 41
1
 50
0
  1
※
  0
TEXT
  8
_0-b_部材名称
 62
    7
 10
835.85090544194998
 20
635.61778721099995
 40
9.5999999999999996
 41
1
 50
0
  1
３０００
  0
TEXT
  8
_0-b_部材名称
 62
    7
 10
518.79997044194999
 20
527.70044171099994
 40
9.5999999999999996
 41
1
 50
0
  1
※
  0
LINE
  8
_0-b_部材名称
  6
CONTINUOUS
 62
    7
 10
508.03947444195001
 20
524.01777521100007
 11
508.03947444195001
 21
718.41777521099993
  0
LINE
  8
_0-b_部材名称
  6
CONTINUOUS
 62
    7
 10
529.63947444195003
 20
524.01777521100007
 11
529.63947444195003
 21
718.41777521099993
  0
LINE
  8
_0-b_部材名称
  6
CONTINUOUS
 62
    7
 10
700.63947444195014
 20
524.01777521100007
 11
700.63947444195014
 21
718.41777521099993
  0
LINE
  8
_0-b_部材名称
  6
CONTINUOUS
 62
    7
 10
934.48947444195005
 20
524.01777521100007
 11
934.48947444195005
 21
718.41777521099993
  0
LINE
  8
_0-b_部材名称
  6
CONTINUOUS
 62
    7
 10
876.88947444195014
 20
524.01777521100007
 11
876.88947444195014
 21
718.41777521099993
  0
LINE
  8
_0-b_部材名称
  6
CONTINUOUS
 62
    7
 10
831.88947444195014
 20
524.01777521100007
 11
831.88947444195014
 21
718.41777521099993
  0
LINE
  8
_0-b_部材名称
  6
CONTINUOUS
 62
    7
 10
912.88947444195003
 20
524.01777521100007
 11
912.88947444195003
 21
718.41777521099993
  0
LINE
  8
_0-b_部材名称
  6
CONTINUOUS
 62
    7
 10
828.88947444194991
 20
524.01777521100007
 11
828.88947444194991
 21
718.41777521099993
  0
TEXT
  8
_0-b_部材名称
 62
    7
 10
704.23954794194992
 20
599.61778721099995
 40
9.5999999999999996
 41
1
 50
0
  1
皿４×１６
  0
TEXT
  8
_0-b_部材名称
 62
    7
 10
533.23949694194994
 20
581.61778721099995
 40
9.5999999999999996
 41
1
 50
0
  1
アンカープラグ
  0
TEXT
  8
_0-b_部材名称
 62
    7
 10
704.23951344195007
 20
581.61778721099995
 40
9.5999999999999996
 41
1
 50
0
  1
フィッシャープラグＳ８
  0
TEXT
  8
_0-b_部材名称
 62
    7
 10
533.23949694194994
 20
563.61780371099997
 40
9.5999999999999996
 41
1
 50
0
  1
ステンタッピンねじ
  0
TEXT
  8
_0-b_部材名称
 62
    7
 10
704.23951344195007
 20
563.61780371099997
 40
9.5999999999999996
 41
1
 50
0
  1
なべ５×５０
  0
TEXT
  8
_0-b_部材名称
 62
    7
 10
896.12013894195002
 20
527.76778421099993
 40
9.5999999999999996
 41
1
 50
0
  1
１
  0
TEXT
  8
_0-b_部材名称
 62
    7
 10
533.23949694194994
 20
527.61778721099995
 40
9.5999999999999996
 41
1
 50
0
  1
ブチルテープ
  0
TEXT
  8
_0-b_部材名称
 62
    7
 10
704.23951344195007
 20
527.61778721099995
 40
9.5999999999999996
 41
1
 50
0
  1
ｔ１．０×ｗ３０
  0
LINE
  8
_0-b_部材名称
  6
CONTINUOUS
 62
    7
 10
1108.03947444195
 20
470.01777521099996
 11
1108.03947444195
 21
718.41777521099993
  0
LINE
  8
_0-b_部材名称
  6
CONTINUOUS
 62
    7
 10
1129.6394744419499
 20
470.01777521099996
 11
1129.6394744419499
 21
718.41777521099993
  0
LINE
  8
_0-b_部材名称
  6
CONTINUOUS
 62
    7
 10
1300.6394744419501
 20
470.01777521099996
 11
1300.6394744419501
 21
718.41777521099993
  0
LINE
  8
_0-b_部材名称
  6
CONTINUOUS
 62
    7
 10
1428.8894744419499
 20
470.01777521099996
 11
1428.8894744419499
 21
718.41777521099993
  0
LINE
  8
_0-b_部材名称
  6
CONTINUOUS
 62
    7
 10
1534.4894744419501
 20
470.01777521099996
 11
1534.4894744419501
 21
718.41777521099993
  0
LINE
  8
_0-b_部材名称
  6
CONTINUOUS
 62
    7
 10
1512.8894744419499
 20
470.01777521099996
 11
1512.8894744419499
 21
718.41777521099993
  0
LINE
  8
_0-b_部材名称
  6
CONTINUOUS
 62
    7
 10
1476.8894744419499
 20
470.01777521099996
 11
1476.8894744419499
 21
718.41777521099993
  0
LINE
  8
_0-b_部材名称
  6
CONTINUOUS
 62
    7
 10
1431.8894744419499
 20
470.01777521099996
 11
1431.8894744419499
 21
718.41777521099993
  0
TEXT
  8
_0-b_部材名称
 62
    7
 10
1109.5306259419501
 20
509.700441711
 40
9.5999999999999996
 41
1
 50
0
  1
１０
  0
TEXT
  8
_0-b_部材名称
 62
    7
 10
1109.5306259419501
 20
491.70044171100005
 40
9.5999999999999996
 41
1
 50
0
  1
１１
  0
TEXT
  8
_0-b_部材名称
 62
    7
 10
1435.8507329419499
 20
599.61778721099995
 40
9.5999999999999996
 41
1
 50
0
  1
３０００
  0
TEXT
  8
_0-b_部材名称
 62
    7
 10
1497.6201854419501
 20
599.76778421100005
 40
9.5999999999999996
 41
1
 50
0
  1
１
  0
TEXT
  8
_0-b_部材名称
 62
    7
 10
1519.05478044195
 20
599.61778721099995
 40
9.5999999999999996
 41
1
 50
0
  1
〃
  0
TEXT
  8
_0-b_部材名称
 62
    7
 10
1497.6201854419501
 20
581.76778421099993
 40
9.5999999999999996
 41
1
 50
0
  1
１
  0
TEXT
  8
_0-b_部材名称
 62
    7
 10
1133.2395134419498
 20
581.61778721099995
 40
9.5999999999999996
 41
1
 50
0
  1
止水補助板
  0
TEXT
  8
_0-b_部材名称
 62
    7
 10
1435.8507329419499
 20
581.61778721099995
 40
9.5999999999999996
 41
1
 50
0
  1
３１００
  0
TEXT
  8
_0-b_部材名称
 62
    7
 10
1519.05478044195
 20
581.61778721099995
 40
9.5999999999999996
 41
1
 50
0
  1
枚
  0
TEXT
  8
_0-b_部材名称
 62
    7
 10
1497.6201854419501
 20
563.76778421099993
 40
9.5999999999999996
 41
1
 50
0
  1
１
  0
TEXT
  8
_0-b_部材名称
 62
    7
 10
1519.05484944195
 20
545.61778721099995
 40
9.5999999999999996
 41
1
 50
0
  1
〃
  0
TEXT
  8
_0-b_部材名称
 62
    7
 10
1304.2395479419499
 20
545.61778721099995
 40
9.5999999999999996
 41
1
 50
0
  1
皿４×１６
  0
TEXT
  8
_0-b_部材名称
 62
    7
 10
1519.05478044195
 20
563.61778721099995
 40
9.5999999999999996
 41
1
 50
0
  1
本
  0
TEXT
  8
_0-b_部材名称
 62
    7
 10
1435.8508709419498
 20
563.61780371099997
 40
9.5999999999999996
 41
1
 50
0
  1
３０００
  0
TEXT
  8
_0-b_部材名称
 62
    7
 10
1519.05484944195
 20
527.61778721099995
 40
9.5999999999999996
 41
1
 50
0
  1
〃
  0
TEXT
  8
_0-b_部材名称
 62
    7
 10
1133.2394969419502
 20
527.61778721099995
 40
9.5999999999999996
 41
1
 50
0
  1
アンカープラグ
  0
TEXT
  8
_0-b_部材名称
 62
    7
 10
1304.2395134419498
 20
527.61778721099995
 40
9.5999999999999996
 41
1
 50
0
  1
フィッシャープラグＳ８
  0
TEXT
  8
_0-b_部材名称
 62
    7
 10
1519.05484944195
 20
509.61778721099995
 40
9.5999999999999996
 41
1
 50
0
  1
〃
  0
TEXT
  8
_0-b_部材名称
 62
    7
 10
1519.05478044195
 20
491.61778721100001
 40
9.5999999999999996
 41
1
 50
0
  1
枚
  0
TEXT
  8
_0-b_部材名称
 62
    7
 10
1519.05478044195
 20
473.61778721100001
 40
9.5999999999999996
 41
1
 50
0
  1
巻
  0
TEXT
  8
_0-b_部材名称
 62
    7
 10
1497.6201854419501
 20
473.76778421099999
 40
9.5999999999999996
 41
1
 50
0
  1
１
  0
TEXT
  8
_0-b_部材名称
 62
    7
 10
1435.8508709419498
 20
473.61780371099997
 40
9.5999999999999996
 41
1
 50
0
  1
６０００
  0
TEXT
  8
_0-b_部材名称
 62
    7
 10
1133.2394969419502
 20
491.61780371100002
 40
9.5999999999999996
 41
1
 50
0
  1
ステンワッシャー
  0
TEXT
  8
_0-b_部材名称
 62
    7
 10
1304.2395479419499
 20
491.61780371100002
 40
9.5999999999999996
 41
1
 50
0
  1
１．５×１８×５．５穴
  0
TEXT
  8
_0-b_部材名称
 62
    7
 10
1133.2394969419502
 20
509.61780371099997
 40
9.5999999999999996
 41
1
 50
0
  1
ステンタッピンねじ
  0
TEXT
  8
_0-b_部材名称
 62
    7
 10
1304.2395134419498
 20
509.61780371099997
 40
9.5999999999999996
 41
1
 50
0
  1
なべ５×５０
  0
TEXT
  8
_0-b_部材名称
 62
    7
 10
1133.2394969419502
 20
473.61778721100001
 40
9.5999999999999996
 41
1
 50
0
  1
ブチルテープ
  0
TEXT
  8
_0-b_部材名称
 62
    7
 10
1304.2395134419498
 20
473.61778721100001
 40
9.5999999999999996
 41
1
 50
0
  1
ｔ１．０×ｗ３０
  0
TEXT
  8
_0-b_部材名称
 62
    7
 10
919.05484944194995
 20
599.61778721099995
 40
9.5999999999999996
 41
1
 50
0
  1
本
  0
TEXT
  8
_0-b_部材名称
 62
    7
 10
919.05484944194995
 20
527.61778721099995
 40
9.5999999999999996
 41
1
 50
0
  1
巻
  0
TEXT
  8
_0-b_部材名称
 62
    7
 10
886.85084694194995
 20
581.76774971100008
 40
9.5999999999999996
 41
1
 50
0
  1
１２
  0
TEXT
  8
_0-b_部材名称
 62
    7
 10
886.85084694194995
 20
563.76774971099996
 40
9.5999999999999996
 41
1
 50
0
  1
１２
  0
TEXT
  8
_0-b_部材名称
 62
    7
 10
886.85084694194995
 20
545.76780071099995
 40
9.5999999999999996
 41
1
 50
0
  1
１２
  0
TEXT
  8
_0-b_部材名称
 62
    7
 10
835.85090544194998
 20
527.61778721099995
 40
9.5999999999999996
 41
1
 50
0
  1
６０００
  0
TEXT
  8
_0-b_部材名称
 62
    7
 10
704.23951344195007
 20
617.61778721099995
 40
9.5999999999999996
 41
1
 50
0
  1
ＦＳ２００
  0
TEXT
  8
_0-b_部材名称
 62
    7
 10
1486.8508469419501
 20
527.76774971099996
 40
9.5999999999999996
 41
1
 50
0
  1
１２
  0
TEXT
  8
_0-b_部材名称
 62
    7
 10
1486.8508469419501
 20
509.76774971099996
 40
9.5999999999999996
 41
1
 50
0
  1
１２
  0
TEXT
  8
_0-b_部材名称
 62
    7
 10
1486.8508469419501
 20
491.76774971100002
 40
9.5999999999999996
 41
1
 50
0
  1
１２
  0
TEXT
  8
_0-b_部材名称
 62
    7
 10
1304.2395134419498
 20
581.61780371099997
 40
9.5999999999999996
 41
1
 50
0
  1
ＦＳ２００
  0
TEXT
  8
_0-b_部材名称
 62
    7
 10
1133.2394444419501
 20
563.61780371099997
 40
9.5999999999999996
 41
1
 50
0
  1
ガスケットＮ
  0
TEXT
  8
_0-b_部材名称
 62
    7
 10
1133.2395134419498
 20
635.61778721099995
 40
9.5999999999999996
 41
1
 50
0
  1
ＴＴＦフレーム（Ａ）
  0
TEXT
  8
_0-b_部材名称
 62
    7
 10
1133.2395134419498
 20
617.61778721099995
 40
9.5999999999999996
 41
1
 50
0
  1
ＴＣＮサイドキャップＳ
  0
TEXT
  8
_0-b_部材名称
 62
    7
 10
1133.2395134419498
 20
599.61778721099995
 40
9.5999999999999996
 41
1
 50
0
  1
ＴＣＦ壁フレーム
  0
TEXT
  8
_0-b_部材名称
 62
    7
 10
533.23949694194994
 20
635.61778721099995
 40
9.5999999999999996
 41
1
 50
0
  1
ＴＴＦフレーム（Ａ）
  0
TEXT
  8
_0-b_部材名称
 62
    7
 10
533.23949694194994
 20
599.61778721099995
 40
9.5999999999999996
 41
1
 50
0
  1
ステンドリリングねじ
  0
TEXT
  8
_0-b_部材名称
 62
    7
 10
1133.2394969419502
 20
545.61778721099995
 40
9.5999999999999996
 41
1
 50
0
  1
ステンドリリングねじ
  0
TEXT
  8
_0-b_部材名称
 62
    7
 10
1108.03948644195
 20
450.87263147768999
 40
9.5999999999999996
 41
1
 50
0
  1
注）　ガスケットＮはＴＣＮサイドキャップＳ にセット済み。
  0
TEXT
  8
_0-b_部材名称
 62
    7
 10
886.85084694194995
 20
599.76776771100003
 40
9.5999999999999996
 41
1
 50
0
  1
２２
  0
TEXT
  8
_0-b_部材名称
 62
    7
 10
1486.8508469419501
 20
545.76774971099996
 40
9.5999999999999996
 41
1
 50
0
  1
１１
  0
TEXT
  8
_0-c_レイヤ8
 62
    7
 10
672.91346379624997
 20
800.31239878989993
 40
9.5999999999999996
 41
1
 50
0
  1
Ｓ＝１／３
  0
TEXT
  8
_0-c_レイヤ8
 62
    7
 10
1336.6958076073502
 20
798.56167380119996
 40
9.5999999999999996
 41
1
 50
0
  1
Ｓ＝１／３
  0
TEXT
  8
_0-b_部材名称
 62
    7
 10
533.23949694194994
 20
671.61778721100006
 40
9.5999999999999996
 41
1
 50
0
  1
ＴＴＦサイドプレート（Ａ）Ｓ
  0
TEXT
  8
_0-b_部材名称
 62
    7
 10
1133.2395134419498
 20
671.61778721100006
 40
9.5999999999999996
 41
1
 50
0
  1
ＴＴＦサイドプレート（Ａ）Ｓ
  0
TEXT
  8
_0-b_部材名称
 62
    7
 10
533.23949694194994
 20
653.61778721099995
 40
9.5999999999999996
 41
1
 50
0
  1
ＴＴＦセンタープレート（Ａ）ＧＰＳ
  0
TEXT
  8
_0-b_部材名称
 62
    7
 10
1133.2395134419498
 20
653.61778721099995
 40
9.5999999999999996
 41
1
 50
0
  1
ＴＣＦセンタープレート（Ａ）ＧＰＳ
  0
TEXT
  8
_0-b_部材名称
 62
    7
 10
595.93947444194998
 20
697.41777521100005
 40
9.5999999999999996
 41
1
 50
0
  1
部材名称
  0
TEXT
  8
_0-b_部材名称
 62
    7
 10
750.36447444195005
 20
697.41777521100005
 40
9.5999999999999996
 41
1
 50
0
  1
規　格
  0
TEXT
  8
_0-b_部材名称
 62
    7
 10
918.88947444194991
 20
711.81777521100003
 40
9.5999999999999996
 41
1
 50
-90
  1
単位
  0
TEXT
  8
_0-b_部材名称
 62
    7
 10
839.98947444194994
 20
705.51777521100007
 40
9.5999999999999996
 41
1
 50
0
  1
定　尺
  0
TEXT
  8
_0-b_部材名称
 62
    7
 10
835.18947444194987
 20
689.31777521100003
 40
9.5999999999999996
 41
1
 50
0
  1
（ｍｍ）
  0
TEXT
  8
_0-b_部材名称
 62
    7
 10
885.28947444195001
 20
689.31777521100003
 40
9.5999999999999996
 41
1
 50
0
  1
数量
  0
TEXT
  8
_0-b_部材名称
 62
    7
 10
885.28947444195001
 20
705.51777521100007
 40
9.5999999999999996
 41
1
 50
0
  1
使用
  0
TEXT
  8
_0-b_部材名称
 62
    7
 10
1195.9394744419499
 20
697.41777521100005
 40
9.5999999999999996
 41
1
 50
0
  1
部材名称
  0
TEXT
  8
_0-b_部材名称
 62
    7
 10
1350.3644744419501
 20
697.41777521100005
 40
9.5999999999999996
 41
1
 50
0
  1
規　格
  0
TEXT
  8
_0-b_部材名称
 62
    7
 10
1518.8894744419499
 20
711.81777521100003
 40
9.5999999999999996
 41
1
 50
-90
  1
単位
  0
TEXT
  8
_0-b_部材名称
 62
    7
 10
1439.9894744419501
 20
705.51777521100007
 40
9.5999999999999996
 41
1
 50
0
  1
定　尺
  0
TEXT
  8
_0-b_部材名称
 62
    7
 10
1435.1894744419501
 20
689.31777521100003
 40
9.5999999999999996
 41
1
 50
0
  1
（ｍｍ）
  0
TEXT
  8
_0-b_部材名称
 62
    7
 10
1485.28947444195
 20
689.31777521100003
 40
9.5999999999999996
 41
1
 50
0
  1
数量
  0
TEXT
  8
_0-b_部材名称
 62
    7
 10
1485.28947444195
 20
705.51777521100007
 40
9.5999999999999996
 41
1
 50
0
  1
使用
  0
LINE
  8
_0-3_躯体
  6
CONTINUOUS
 62
    7
 10
629.86910229625005
 20
924.29727678989991
 11
639.86910129625005
 21
934.29727878989991
  0
LINE
  8
_0-3_躯体
  6
CONTINUOUS
 62
    7
 10
634.11174129624999
 20
924.29727678989991
 11
644.11174329624998
 21
934.29727878989991
  0
LINE
  8
_0-3_躯体
  6
CONTINUOUS
 62
    7
 10
638.35438329625003
 20
924.29727678989991
 11
648.35438229624992
 21
934.29727878989991
  0
LINE
  8
_0-3_躯体
  6
CONTINUOUS
 62
    7
 10
642.59702229625009
 20
924.29727678989991
 11
652.59702429625008
 21
934.29727878989991
  0
LINE
  8
_0-3_躯体
  6
CONTINUOUS
 62
    7
 10
646.83966429625002
 20
924.29727678989991
 11
656.83966329625014
 21
934.29727878989991
  0
LINE
  8
_0-3_躯体
  6
CONTINUOUS
 62
    7
 10
651.08230629625018
 20
924.29727678989991
 11
661.08230529625007
 21
934.29727878989991
  0
LINE
  8
_0-3_躯体
  6
CONTINUOUS
 62
    7
 10
655.32494529625012
 20
924.29727678989991
 11
665.32494429625001
 21
934.29727878989991
  0
LINE
  8
_0-3_躯体
  6
CONTINUOUS
 62
    7
 10
659.56758729624994
 20
924.29727678989991
 11
669.56758629625006
 21
934.29727878989991
  0
LINE
  8
_0-3_躯体
  6
CONTINUOUS
 62
    7
 10
663.81022629624999
 20
924.29727678989991
 11
671.91346329625003
 21
932.40051378990006
  0
LINE
  8
_0-3_躯体
  6
CONTINUOUS
 62
    7
 10
668.05286829625004
 20
924.29727678989991
 11
671.91346329625003
 21
928.1578717898999
  0
LINE
  8
_0-3_躯体
  6
CONTINUOUS
 62
    7
 10
625.62646029625
 20
924.29727678989991
 11
635.62646229625
 21
934.29727878989991
  0
LINE
  8
_0-3_躯体
  6
CONTINUOUS
 62
    7
 10
621.38382129625006
 20
924.29727678989991
 11
631.38382029625006
 21
934.29727878989991
  0
LINE
  8
_0-3_躯体
  6
CONTINUOUS
 62
    7
 10
617.14117929625002
 20
924.29727678989991
 11
627.14117829625002
 21
934.29727878989991
  0
LINE
  8
_0-3_躯体
  6
CONTINUOUS
 62
    7
 10
612.89854029625008
 20
924.29727678989991
 11
622.89853929625008
 21
934.29727878989991
  0
LINE
  8
_0-3_躯体
  6
CONTINUOUS
 62
    7
 10
608.65589829625003
 20
924.29727678989991
 11
618.65589729625003
 21
934.29727878989991
  0
LINE
  8
_0-3_躯体
  6
CONTINUOUS
 62
    7
 10
605.91326829625007
 20
925.79728878989999
 11
614.41325829624998
 21
934.29727878989991
  0
LINE
  8
_0-3_躯体
  6
CONTINUOUS
 62
    7
 10
605.91330429625009
 20
930.03996378989996
 11
610.17061629625005
 21
934.29727878989991
  0
LINE
  8
_0-3_躯体
  6
CONTINUOUS
 62
    7
 10
605.91334029625
 20
934.28263878989992
 11
605.92797729624999
 21
934.29727878989991
  0
LINE
  8
_0-3_躯体
  6
CONTINUOUS
 62
    7
 10
748.51408329624996
 20
924.29727678989991
 11
758.51408229625008
 21
934.29727878989991
  0
LINE
  8
_0-3_躯体
  6
CONTINUOUS
 62
    7
 10
752.75672229625002
 20
924.29727678989991
 11
762.75672429625001
 21
934.29727878989991
  0
LINE
  8
_0-3_躯体
  6
CONTINUOUS
 62
    7
 10
756.99936429625018
 20
924.29727678989991
 11
766.99936329625007
 21
934.29727878989991
  0
LINE
  8
_0-3_躯体
  6
CONTINUOUS
 62
    7
 10
761.24200329625012
 20
924.29727678989991
 11
771.24200529625
 21
934.29727878989991
  0
LINE
  8
_0-3_躯体
  6
CONTINUOUS
 62
    7
 10
765.48464529624994
 20
924.29727678989991
 11
775.48464429625005
 21
934.29727878989991
  0
LINE
  8
_0-3_躯体
  6
CONTINUOUS
 62
    7
 10
769.72728429624999
 20
924.29727678989991
 11
779.7272862962501
 21
934.29727878989991
  0
LINE
  8
_0-3_躯体
  6
CONTINUOUS
 62
    7
 10
773.96992629625004
 20
924.29727678989991
 11
783.96992529625004
 21
934.29727878989991
  0
LINE
  8
_0-3_躯体
  6
CONTINUOUS
 62
    7
 10
778.21256829625008
 20
924.29727678989991
 11
787.91359029625005
 21
933.99830178989998
  0
LINE
  8
_0-3_躯体
  6
CONTINUOUS
 62
    7
 10
782.45520729625014
 20
924.29727678989991
 11
787.91362329625008
 21
929.75569578990007
  0
LINE
  8
_0-3_躯体
  6
CONTINUOUS
 62
    7
 10
786.69784929624996
 20
924.29727678989991
 11
787.91365929624999
 21
925.51308978989994
  0
LINE
  8
_0-3_躯体
  6
CONTINUOUS
 62
    7
 10
744.27144129625003
 20
924.29727678989991
 11
754.27144029624992
 21
934.29727878989991
  0
LINE
  8
_0-3_躯体
  6
CONTINUOUS
 62
    7
 10
740.02880229624998
 20
924.29727678989991
 11
750.02880129624998
 21
934.29727878989991
  0
LINE
  8
_0-3_躯体
  6
CONTINUOUS
 62
    7
 10
735.78616029625005
 20
924.29727678989991
 11
745.78615929625005
 21
934.29727878989991
  0
LINE
  8
_0-3_躯体
  6
CONTINUOUS
 62
    7
 10
731.54351829625
 20
924.29727678989991
 11
741.54352029624999
 21
934.29727878989991
  0
LINE
  8
_0-3_躯体
  6
CONTINUOUS
 62
    7
 10
727.30087929625006
 20
924.29727678989991
 11
737.30087829625006
 21
934.29727878989991
  0
LINE
  8
_0-3_躯体
  6
CONTINUOUS
 62
    7
 10
723.05823729625001
 20
924.29727678989991
 11
733.05823929625012
 21
934.29727878989991
  0
LINE
  8
_0-3_躯体
  6
CONTINUOUS
 62
    7
 10
721.91346429625014
 20
927.39514278989998
 11
728.81559729624996
 21
934.29727878989991
  0
LINE
  8
_0-3_躯体
  6
CONTINUOUS
 62
    7
 10
721.91346429625014
 20
931.63778478990002
 11
724.57295529625014
 21
934.29727878989991
  0
LINE
  8
_0-7_サイド
  6
CONTINUOUS
 62
    7
 10
1366.8958086073503
 20
978.77487680119998
 11
1367.3958066073499
 21
979.2748748012001
  0
LINE
  8
_0-7_サイド
  6
CONTINUOUS
 62
    7
 10
1366.8958086073503
 20
976.6535558011999
 11
1367.3958066073499
 21
977.15355680120001
  0
LINE
  8
_0-7_サイド
  6
CONTINUOUS
 62
    7
 10
1366.8958086073503
 20
974.53223480120005
 11
1367.3958066073499
 21
975.03223580119993
  0
LINE
  8
_0-7_サイド
  6
CONTINUOUS
 62
    7
 10
1366.8958086073503
 20
972.41091380119997
 11
1367.3958066073499
 21
972.91091480120008
  0
LINE
  8
_0-7_サイド
  6
CONTINUOUS
 62
    7
 10
1366.8958086073503
 20
970.28959580119988
 11
1367.3958066073499
 21
970.7895938012
  0
LINE
  8
_0-7_サイド
  6
CONTINUOUS
 62
    7
 10
1366.8958086073503
 20
968.16827480119991
 11
1367.3958066073499
 21
968.66827280119992
  0
LINE
  8
_0-7_サイド
  6
CONTINUOUS
 62
    7
 10
1366.8958086073503
 20
966.04695380120006
 11
1367.3958066073499
 21
966.54695480119994
  0
LINE
  8
_0-7_サイド
  6
CONTINUOUS
 62
    7
 10
1366.8958086073503
 20
963.92563280119998
 11
1367.3958066073499
 21
964.42563380120009
  0
LINE
  8
_0-7_サイド
  6
CONTINUOUS
 62
    7
 10
1366.8958086073503
 20
961.8043118011999
 11
1367.3958066073499
 21
962.30431280120001
  0
LINE
  8
_0-7_サイド
  6
CONTINUOUS
 62
    7
 10
1366.8958086073503
 20
959.68299380120004
 11
1367.3958066073499
 21
960.18299180119993
  0
LINE
  8
_0-7_サイド
  6
CONTINUOUS
 62
    7
 10
1366.8958086073503
 20
980.89619480120007
 11
1367.3958066073499
 21
981.39619580119995
  0
LINE
  8
_0-7_サイド
  6
CONTINUOUS
 62
    7
 10
1366.8958086073503
 20
983.01751580120003
 11
1367.3958066073499
 21
983.51751680120003
  0
LINE
  8
_0-7_サイド
  6
CONTINUOUS
 62
    7
 10
1366.8958086073503
 20
985.13883680119989
 11
1367.3958066073499
 21
985.6388378012
  0
LINE
  8
_0-7_サイド
  6
CONTINUOUS
 62
    7
 10
1366.8958086073503
 20
987.26015780120008
 11
1367.3958066073499
 21
987.76015580119997
  0
LINE
  8
_0-7_サイド
  6
CONTINUOUS
 62
    7
 10
1366.8958086073503
 20
989.38147880120005
 11
1367.3958066073499
 21
989.88147680119994
  0
LINE
  8
_0-7_サイド
  6
CONTINUOUS
 62
    7
 10
1366.8958086073503
 20
991.50279680119991
 11
1367.3958066073499
 21
992.00279780120002
  0
LINE
  8
_0-7_サイド
  6
CONTINUOUS
 62
    7
 10
1366.8958086073503
 20
993.62411780119999
 11
1367.3958066073499
 21
994.12411880119998
  0
LINE
  8
_0-7_サイド
  6
CONTINUOUS
 62
    7
 10
1366.8958086073503
 20
995.74543880120007
 11
1367.3958066073499
 21
996.24543980119995
  0
LINE
  8
_0-7_サイド
  6
CONTINUOUS
 62
    7
 10
1366.8958086073503
 20
997.86675980119992
 11
1367.3958066073499
 21
998.36675780120004
  0
LINE
  8
_0-7_サイド
  6
CONTINUOUS
 62
    7
 10
1366.8958086073503
 20
999.98807780119989
 11
1367.3958066073499
 21
1000.4880788011999
  0
LINE
  8
_0-7_サイド
  6
CONTINUOUS
 62
    7
 10
1366.8958086073503
 20
1002.1093988012001
 11
1367.0480796073502
 21
1002.2616728011999
  0
LINE
  8
_0-7_サイド
  6
CONTINUOUS
 62
    7
 10
674.41343129625011
 20
960.29727128989998
 11
675.41343129625011
 21
959.2972712899001
  0
LINE
  8
_0-7_サイド
  6
HIDDEN
 62
    7
 10
618.66343129625
 20
958.29727128989998
 11
616.66343129625011
 21
960.29727128989998
  0
LINE
  8
_0-7_サイド
  6
HIDDEN
 62
    7
 10
624.16343129625011
 20
958.29727128989998
 11
626.16343129625
 21
960.29727128989998
  0
LINE
  8
_0-7_サイド
  6
CONTINUOUS
 62
    7
 10
674.41343129625011
 20
960.29727128989998
 11
613.41343129625
 21
960.29727128989998
  0
LINE
  8
_0-7_サイド
  6
CONTINUOUS
 62
    7
 10
613.41343129625
 20
960.29727128989998
 11
613.41343129625
 21
958.29727128989998
  0
LINE
  8
_0-7_サイド
  6
CONTINUOUS
 62
    7
 10
675.41343129625011
 20
958.29727128989998
 11
675.41343129625011
 21
959.2972712899001
  0
LINE
  8
_0-7_サイド
  6
CONTINUOUS
 62
    7
 10
613.41343129625
 20
958.29727128989998
 11
675.41343129625011
 21
958.29727128989998
  0
LINE
  8
_0-7_サイド
  6
CONTINUOUS
 62
    7
 10
719.41349329625018
 20
960.29727128989998
 11
718.41349329625007
 21
959.2972712899001
  0
LINE
  8
_0-7_サイド
  6
HIDDEN
 62
    7
 10
775.16349329624995
 20
958.29727128989998
 11
777.16349329625007
 21
960.29727128989998
  0
LINE
  8
_0-7_サイド
  6
HIDDEN
 62
    7
 10
769.66349329625007
 20
958.29727128989998
 11
767.66349329624995
 21
960.29727128989998
  0
LINE
  8
_0-7_サイド
  6
CONTINUOUS
 62
    7
 10
719.41349329625018
 20
960.29727128989998
 11
780.41349329625007
 21
960.29727128989998
  0
LINE
  8
_0-7_サイド
  6
CONTINUOUS
 62
    7
 10
780.41349329625007
 20
960.29727128989998
 11
780.41349329625007
 21
958.29727128989998
  0
LINE
  8
_0-7_サイド
  6
CONTINUOUS
 62
    7
 10
718.41349329625007
 20
958.29727128989998
 11
718.41349329625007
 21
959.2972712899001
  0
LINE
  8
_0-7_サイド
  6
CONTINUOUS
 62
    7
 10
780.41349329625007
 20
958.29727128989998
 11
718.41349329625007
 21
958.29727128989998
  0
LINE
  8
_0-7_サイド
  6
CONTINUOUS
 62
    7
 10
1338.1957766073501
 20
954.36166630119999
 11
1339.1957766073501
 21
953.3616663012001
  0
LINE
  8
_0-7_サイド
  6
HIDDEN
 62
    7
 10
1282.4457766073499
 20
952.3616663012001
 11
1280.4457766073501
 21
954.36166630119999
  0
LINE
  8
_0-7_サイド
  6
HIDDEN
 62
    7
 10
1287.9457766073501
 20
952.3616663012001
 11
1289.9457766073499
 21
954.36166630119999
  0
LINE
  8
_0-7_サイド
  6
CONTINUOUS
 62
    7
 10
1338.1957766073501
 20
954.36166630119999
 11
1277.1957766073499
 21
954.36166630119999
  0
LINE
  8
_0-7_サイド
  6
CONTINUOUS
 62
    7
 10
1277.1957766073499
 20
954.36166630119999
 11
1277.1957766073499
 21
952.3616663012001
  0
LINE
  8
_0-7_サイド
  6
CONTINUOUS
 62
    7
 10
1339.1957766073501
 20
952.3616663012001
 11
1339.1957766073501
 21
953.3616663012001
  0
LINE
  8
_0-7_サイド
  6
CONTINUOUS
 62
    7
 10
1277.1957766073499
 20
952.3616663012001
 11
1339.1957766073501
 21
952.3616663012001
  0
LINE
  8
_0-3_躯体
  6
CONTINUOUS
 62
    7
 10
692.40658756844994
 20
960.25365242179998
 11
695.40099196365009
 21
960.43679804039994
  0
LINE
  8
_0-3_躯体
  6
CONTINUOUS
 62
    7
 10
689.42744530804998
 20
959.82097310360007
 11
692.42184970335006
 21
960.00411872220002
  0
LINE
  8
_0-3_躯体
  6
CONTINUOUS
 62
    7
 10
695.41625409854998
 20
960.18726434080008
 11
696.91345629625005
 21
960.27883715009989
  0
LINE
  8
_0-3_躯体
  6
CONTINUOUS
 62
    7
 10
695.40099196365009
 20
960.43679804039994
 11
695.41625409854998
 21
960.18726434080008
  0
LINE
  8
_0-3_躯体
  6
CONTINUOUS
 62
    7
 10
692.40658756844994
 20
960.25365242179998
 11
692.42184970335006
 21
960.00411872220002
  0
LINE
  8
_0-3_躯体
  6
CONTINUOUS
 62
    7
 10
689.41218317315008
 20
960.07050680319992
 11
689.42744530804998
 21
959.82097310360007
  0
LINE
  8
_0-3_躯体
  6
CONTINUOUS
 62
    7
 10
686.41777877785
 20
959.88736118459997
 11
689.41218317315008
 21
960.07050680319992
  0
LINE
  8
_0-3_躯体
  6
CONTINUOUS
 62
    7
 10
686.41777877785
 20
959.88736118459997
 11
686.43304091275013
 21
959.63782748499989
  0
LINE
  8
_0-3_躯体
  6
CONTINUOUS
 62
    7
 10
683.43863651754998
 20
959.45468186640005
 11
686.43304091275013
 21
959.63782748499989
  0
LINE
  8
_0-3_躯体
  6
CONTINUOUS
 62
    7
 10
683.42337438265008
 20
959.70421556600002
 11
683.43863651754998
 21
959.45468186640005
  0
LINE
  8
_0-3_躯体
  6
CONTINUOUS
 62
    7
 10
680.42896998735
 20
959.52106994740006
 11
683.42337438265008
 21
959.70421556600002
  0
LINE
  8
_0-3_躯体
  6
CONTINUOUS
 62
    7
 10
680.42896998735
 20
959.52106994740006
 11
680.44423212225013
 21
959.27153624779999
  0
LINE
  8
_0-3_躯体
  6
CONTINUOUS
 62
    7
 10
677.44982772695016
 20
959.0883906291001
 11
680.44423212225013
 21
959.27153624779999
  0
LINE
  8
_0-3_躯体
  6
CONTINUOUS
 62
    7
 10
677.43456559205003
 20
959.3379243288
 11
677.44982772695016
 21
959.0883906291001
  0
LINE
  8
_0-3_躯体
  6
CONTINUOUS
 62
    7
 10
674.44016119685
 20
959.15477871020005
 11
677.43456559205003
 21
959.3379243288
  0
LINE
  8
_0-3_躯体
  6
CONTINUOUS
 62
    7
 10
674.44016119685
 20
959.15477871020005
 11
674.45542333175013
 21
958.90524501049993
  0
LINE
  8
_0-3_躯体
  6
CONTINUOUS
 62
    7
 10
671.46101893645005
 20
958.72209939189997
 11
674.45542333175013
 21
958.90524501049993
  0
LINE
  8
_0-3_躯体
  6
CONTINUOUS
 62
    7
 10
671.44575680155015
 20
958.97163309150005
 11
671.46101893645005
 21
958.72209939189997
  0
LINE
  8
_0-3_躯体
  6
CONTINUOUS
 62
    7
 10
668.45135240625018
 20
958.7884874729001
 11
671.44575680155015
 21
958.97163309150005
  0
LINE
  8
_0-3_躯体
  6
CONTINUOUS
 62
    7
 10
668.45135240625018
 20
958.7884874729001
 11
668.46661454115008
 21
958.53895377329991
  0
LINE
  8
_0-3_躯体
  6
CONTINUOUS
 62
    7
 10
665.47221014595016
 20
958.35580815469996
 11
668.46661454115008
 21
958.53895377329991
  0
LINE
  8
_0-3_躯体
  6
CONTINUOUS
 62
    7
 10
665.45694801105014
 20
958.60534185429992
 11
665.47221014595016
 21
958.35580815469996
  0
LINE
  8
_0-3_躯体
  6
CONTINUOUS
 62
    7
 10
662.46254361575006
 20
958.42219623570008
 11
665.45694801105014
 21
958.60534185429992
  0
LINE
  8
_0-3_躯体
  6
CONTINUOUS
 62
    7
 10
662.46254361575006
 20
958.42219623570008
 11
662.47780575065008
 21
958.17266253610001
  0
LINE
  8
_0-3_躯体
  6
CONTINUOUS
 62
    7
 10
659.48340135535
 20
957.98951691750005
 11
662.47780575065008
 21
958.17266253610001
  0
LINE
  8
_0-3_躯体
  6
CONTINUOUS
 62
    7
 10
659.4681392204501
 20
958.23905061709991
 11
659.48340135535
 21
957.98951691750005
  0
LINE
  8
_0-3_躯体
  6
CONTINUOUS
 62
    7
 10
656.47373482525018
 20
958.05590499849995
 11
659.4681392204501
 21
958.23905061709991
  0
LINE
  8
_0-3_躯体
  6
CONTINUOUS
 62
    7
 10
656.47373482525018
 20
958.05590499849995
 11
656.48899696015008
 21
957.8063712989001
  0
LINE
  8
_0-3_躯体
  6
CONTINUOUS
 62
    7
 10
653.49459256485011
 20
957.62322568030004
 11
656.48899696015008
 21
957.8063712989001
  0
LINE
  8
_0-3_躯体
  6
CONTINUOUS
 62
    7
 10
653.4793304299501
 20
957.87275937989989
 11
653.49459256485011
 21
957.62322568030004
  0
LINE
  8
_0-3_躯体
  6
CONTINUOUS
 62
    7
 10
650.48492603475006
 20
957.68961376129994
 11
653.4793304299501
 21
957.87275937989989
  0
LINE
  8
_0-3_躯体
  6
CONTINUOUS
 62
    7
 10
650.48492603475006
 20
957.68961376129994
 11
650.50018816955003
 21
957.44008006170009
  0
LINE
  8
_0-3_躯体
  6
CONTINUOUS
 62
    7
 10
649.00298597195001
 20
957.34850725239994
 11
650.50018816955003
 21
957.44008006170009
  0
LINE
  8
_0-3_躯体
  6
CONTINUOUS
 62
    7
 10
647.70394786625002
 20
956.59850725240005
 11
647.57894786625002
 21
956.81501360340008
  0
LINE
  8
_0-3_躯体
  6
CONTINUOUS
 62
    7
 10
639.90971923225004
 20
952.09850725240005
 11
639.78471923225004
 21
952.31501360340008
  0
LINE
  8
_0-3_躯体
  6
CONTINUOUS
 62
    7
 10
647.57894786625002
 20
956.81501360340008
 11
644.98087165495008
 21
955.31501360340008
  0
LINE
  8
_0-3_躯体
  6
CONTINUOUS
 62
    7
 10
642.38279544355009
 20
953.81501360339996
 11
639.78471923225004
 21
952.31501360340008
  0
LINE
  8
_0-3_躯体
  6
CONTINUOUS
 62
    7
 10
645.10587165494996
 20
955.09850725239994
 11
644.98087165495008
 21
955.31501360340008
  0
LINE
  8
_0-3_躯体
  6
CONTINUOUS
 62
    7
 10
642.50779544354998
 20
953.59850725239994
 11
642.38279544355009
 21
953.81501360339996
  0
LINE
  8
_0-3_躯体
  6
CONTINUOUS
 62
    7
 10
649.00298597195001
 20
957.34850725239994
 11
647.70394786625002
 21
956.59850725240005
  0
LINE
  8
_0-3_躯体
  6
CONTINUOUS
 62
    7
 10
645.10587165494996
 20
955.09850725239994
 11
642.50779544354998
 21
953.59850725239994
  0
LINE
  8
_0-3_躯体
  6
CONTINUOUS
 62
    7
 10
639.90971923225004
 20
952.09850725240005
 11
638.61068112655005
 21
951.34850725239994
  0
LINE
  8
_0-3_躯体
  6
CONTINUOUS
 62
    7
 10
701.42032502395011
 20
960.25365242179998
 11
698.42592062875019
 21
960.43679804039994
  0
LINE
  8
_0-3_躯体
  6
CONTINUOUS
 62
    7
 10
704.39946728435007
 20
959.82097310360007
 11
701.40506288904999
 21
960.00411872220002
  0
LINE
  8
_0-3_躯体
  6
CONTINUOUS
 62
    7
 10
698.41065849385006
 20
960.18726434080008
 11
696.91345629625005
 21
960.27883715009989
  0
LINE
  8
_0-3_躯体
  6
CONTINUOUS
 62
    7
 10
698.42592062875019
 20
960.43679804039994
 11
698.41065849385006
 21
960.18726434080008
  0
LINE
  8
_0-3_躯体
  6
CONTINUOUS
 62
    7
 10
701.42032502395011
 20
960.25365242179998
 11
701.40506288904999
 21
960.00411872220002
  0
LINE
  8
_0-3_躯体
  6
CONTINUOUS
 62
    7
 10
704.41472941925008
 20
960.07050680319992
 11
704.39946728435007
 21
959.82097310360007
  0
LINE
  8
_0-3_躯体
  6
CONTINUOUS
 62
    7
 10
707.40913381455005
 20
959.88736118459997
 11
704.41472941925008
 21
960.07050680319992
  0
LINE
  8
_0-3_躯体
  6
CONTINUOUS
 62
    7
 10
707.40913381455005
 20
959.88736118459997
 11
707.39387167965003
 21
959.63782748499989
  0
LINE
  8
_0-3_躯体
  6
CONTINUOUS
 62
    7
 10
710.38827607485007
 20
959.45468186640005
 11
707.39387167965003
 21
959.63782748499989
  0
LINE
  8
_0-3_躯体
  6
CONTINUOUS
 62
    7
 10
710.4035382097502
 20
959.70421556600002
 11
710.38827607485007
 21
959.45468186640005
  0
LINE
  8
_0-3_躯体
  6
CONTINUOUS
 62
    7
 10
713.39794260505005
 20
959.52106994740006
 11
710.4035382097502
 21
959.70421556600002
  0
LINE
  8
_0-3_躯体
  6
CONTINUOUS
 62
    7
 10
713.39794260505005
 20
959.52106994740006
 11
713.38268047014992
 21
959.27153624779999
  0
LINE
  8
_0-3_躯体
  6
CONTINUOUS
 62
    7
 10
716.37708486544989
 20
959.0883906291001
 11
713.38268047014992
 21
959.27153624779999
  0
LINE
  8
_0-3_躯体
  6
CONTINUOUS
 62
    7
 10
716.39234700035001
 20
959.3379243288
 11
716.37708486544989
 21
959.0883906291001
  0
LINE
  8
_0-3_躯体
  6
CONTINUOUS
 62
    7
 10
719.38675139555005
 20
959.15477871020005
 11
716.39234700035001
 21
959.3379243288
  0
LINE
  8
_0-3_躯体
  6
CONTINUOUS
 62
    7
 10
719.38675139555005
 20
959.15477871020005
 11
719.37148926064992
 21
958.90524501049993
  0
LINE
  8
_0-3_躯体
  6
CONTINUOUS
 62
    7
 10
722.36589365595
 20
958.72209939189997
 11
719.37148926064992
 21
958.90524501049993
  0
LINE
  8
_0-3_躯体
  6
CONTINUOUS
 62
    7
 10
722.38115579085002
 20
958.97163309150005
 11
722.36589365595
 21
958.72209939189997
  0
LINE
  8
_0-3_躯体
  6
CONTINUOUS
 62
    7
 10
725.37556018614987
 20
958.7884874729001
 11
722.38115579085002
 21
958.97163309150005
  0
LINE
  8
_0-3_躯体
  6
CONTINUOUS
 62
    7
 10
725.37556018614987
 20
958.7884874729001
 11
725.36029805124997
 21
958.53895377329991
  0
LINE
  8
_0-3_躯体
  6
CONTINUOUS
 62
    7
 10
728.35470244644989
 20
958.35580815469996
 11
725.36029805124997
 21
958.53895377329991
  0
LINE
  8
_0-3_躯体
  6
CONTINUOUS
 62
    7
 10
728.36996458135002
 20
958.60534185429992
 11
728.35470244644989
 21
958.35580815469996
  0
LINE
  8
_0-3_躯体
  6
CONTINUOUS
 62
    7
 10
731.36436897664998
 20
958.42219623570008
 11
728.36996458135002
 21
958.60534185429992
  0
LINE
  8
_0-3_躯体
  6
CONTINUOUS
 62
    7
 10
731.36436897664998
 20
958.42219623570008
 11
731.34910684174997
 21
958.17266253610001
  0
LINE
  8
_0-3_躯体
  6
CONTINUOUS
 62
    7
 10
734.34351123705005
 20
957.98951691750005
 11
731.34910684174997
 21
958.17266253610001
  0
LINE
  8
_0-3_躯体
  6
CONTINUOUS
 62
    7
 10
734.35877337194995
 20
958.23905061709991
 11
734.34351123705005
 21
957.98951691750005
  0
LINE
  8
_0-3_躯体
  6
CONTINUOUS
 62
    7
 10
737.35317776714987
 20
958.05590499849995
 11
734.35877337194995
 21
958.23905061709991
  0
LINE
  8
_0-3_躯体
  6
CONTINUOUS
 62
    7
 10
737.35317776714987
 20
958.05590499849995
 11
737.33791563224997
 21
957.8063712989001
  0
LINE
  8
_0-3_躯体
  6
CONTINUOUS
 62
    7
 10
740.33232002754994
 20
957.62322568030004
 11
737.33791563224997
 21
957.8063712989001
  0
LINE
  8
_0-3_躯体
  6
CONTINUOUS
 62
    7
 10
740.34758216244995
 20
957.87275937989989
 11
740.33232002754994
 21
957.62322568030004
  0
LINE
  8
_0-3_躯体
  6
CONTINUOUS
 62
    7
 10
743.34198655775003
 20
957.68961376129994
 11
740.34758216244995
 21
957.87275937989989
  0
LINE
  8
_0-3_躯体
  6
CONTINUOUS
 62
    7
 10
743.34198655775003
 20
957.68961376129994
 11
743.32672442285002
 21
957.44008006170009
  0
LINE
  8
_0-3_躯体
  6
CONTINUOUS
 62
    7
 10
744.82392662045004
 20
957.34850725239994
 11
743.32672442285002
 21
957.44008006170009
  0
LINE
  8
_0-3_躯体
  6
CONTINUOUS
 62
    7
 10
746.12296472615014
 20
956.59850725240005
 11
746.24796472615003
 21
956.81501360340008
  0
LINE
  8
_0-3_躯体
  6
CONTINUOUS
 62
    7
 10
753.91719336015001
 20
952.09850725240005
 11
754.04219336015001
 21
952.31501360340008
  0
LINE
  8
_0-3_躯体
  6
CONTINUOUS
 62
    7
 10
746.24796472615003
 20
956.81501360340008
 11
748.84604093744997
 21
955.31501360340008
  0
LINE
  8
_0-3_躯体
  6
CONTINUOUS
 62
    7
 10
751.44411714884995
 20
953.81501360339996
 11
754.04219336015001
 21
952.31501360340008
  0
LINE
  8
_0-3_躯体
  6
CONTINUOUS
 62
    7
 10
748.72104093745008
 20
955.09850725239994
 11
748.84604093744997
 21
955.31501360340008
  0
LINE
  8
_0-3_躯体
  6
CONTINUOUS
 62
    7
 10
751.31911714885007
 20
953.59850725239994
 11
751.44411714884995
 21
953.81501360339996
  0
LINE
  8
_0-3_躯体
  6
CONTINUOUS
 62
    7
 10
744.82392662045004
 20
957.34850725239994
 11
746.12296472615014
 21
956.59850725240005
  0
LINE
  8
_0-3_躯体
  6
CONTINUOUS
 62
    7
 10
748.72104093745008
 20
955.09850725239994
 11
751.31911714885007
 21
953.59850725239994
  0
LINE
  8
_0-3_躯体
  6
CONTINUOUS
 62
    7
 10
753.91719336015001
 20
952.09850725240005
 11
755.21623146585
 21
951.34850725239994
  0
LINE
  8
_0-3_躯体
  6
CONTINUOUS
 62
    7
 10
639.98568112655005
 20
948.96693739200009
 11
638.61068112655005
 21
951.34850725239994
  0
LINE
  8
_0-3_躯体
  6
CONTINUOUS
 62
    7
 10
753.84123146585011
 20
948.96693739200009
 11
755.21623146585
 21
951.34850725239994
  0
LINE
  8
_0-3_躯体
  6
CONTINUOUS
 62
    7
 10
744.00971188295
 20
954.64316786970005
 11
696.91345629625005
 21
957.52369826069992
  0
LINE
  8
_0-3_躯体
  6
CONTINUOUS
 62
    7
 10
649.81720070945005
 20
954.64316786970005
 11
639.98568112655005
 21
948.96693739200009
  0
LINE
  8
_0-3_躯体
  6
CONTINUOUS
 62
    7
 10
649.81720070945005
 20
954.64316786970005
 11
696.91345629625005
 21
957.52369826069992
  0
LINE
  8
_0-3_躯体
  6
CONTINUOUS
 62
    7
 10
744.00971188295
 20
954.64316786970005
 11
753.84123146585011
 21
948.96693739200009
  0
LINE
  8
_0-3_躯体
  6
CONTINUOUS
 62
    7
 10
1313.5995430205501
 20
948.70756288099994
 11
1360.6957986073503
 21
951.58809327200004
  0
LINE
  8
_0-3_躯体
  6
CONTINUOUS
 62
    7
 10
1376.5183173473501
 20
950.62034656840001
 11
1360.6957986073503
 21
951.58809327200004
  0
LINE
  8
_0-3_躯体
  6
CONTINUOUS
 62
    7
 10
1379.0504533977503
 20
951.79547026569992
 11
1379.2919348543501
 21
951.86017502699997
  0
LINE
  8
_0-3_躯体
  6
CONTINUOUS
 62
    7
 10
1379.2919348543501
 20
951.86017502699997
 11
1380.0683919896501
 21
948.96239754819999
  0
LINE
  8
_0-3_躯体
  6
CONTINUOUS
 62
    7
 10
1379.8269105330501
 20
948.89769278689994
 11
1380.0683919896501
 21
948.96239754819999
  0
LINE
  8
_0-3_躯体
  6
CONTINUOUS
 62
    7
 10
1379.8269105330501
 20
948.89769278689994
 11
1380.6033676683501
 21
945.99991530800003
  0
LINE
  8
_0-3_躯体
  6
CONTINUOUS
 62
    7
 10
1380.6033676683501
 20
945.99991530800003
 11
1380.8448491249499
 21
946.06462006929996
  0
LINE
  8
_0-3_躯体
  6
CONTINUOUS
 62
    7
 10
1380.8448491249499
 20
946.06462006929996
 11
1381.6213062602501
 21
943.16684259040005
  0
LINE
  8
_0-3_躯体
  6
CONTINUOUS
 62
    7
 10
1381.3798248037501
 20
943.1021378291
 11
1381.6213062602501
 21
943.16684259040005
  0
LINE
  8
_0-3_躯体
  6
CONTINUOUS
 62
    7
 10
1381.3798248037501
 20
943.1021378291
 11
1381.7680533713501
 21
941.6532490896999
  0
LINE
  8
_0-3_躯体
  6
CONTINUOUS
 62
    7
 10
1356.18892987955
 20
954.31804743310011
 11
1359.18333427485
 21
954.50119305170006
  0
LINE
  8
_0-3_躯体
  6
CONTINUOUS
 62
    7
 10
1353.2097876191501
 20
953.88536811479992
 11
1356.20419201445
 21
954.06851373349991
  0
LINE
  8
_0-3_躯体
  6
CONTINUOUS
 62
    7
 10
1359.1985964097501
 20
954.25165935209998
 11
1360.6957986073503
 21
954.34323216140001
  0
LINE
  8
_0-3_躯体
  6
CONTINUOUS
 62
    7
 10
1359.18333427485
 20
954.50119305170006
 11
1359.1985964097501
 21
954.25165935209998
  0
LINE
  8
_0-3_躯体
  6
CONTINUOUS
 62
    7
 10
1356.18892987955
 20
954.31804743310011
 11
1356.20419201445
 21
954.06851373349991
  0
LINE
  8
_0-3_躯体
  6
CONTINUOUS
 62
    7
 10
1353.1945254843502
 20
954.13490181450004
 11
1353.2097876191501
 21
953.88536811479992
  0
LINE
  8
_0-3_躯体
  6
CONTINUOUS
 62
    7
 10
1350.2001210890501
 20
953.95175619580004
 11
1353.1945254843502
 21
954.13490181450004
  0
LINE
  8
_0-3_躯体
  6
CONTINUOUS
 62
    7
 10
1350.2001210890501
 20
953.95175619580004
 11
1350.2153832239501
 21
953.70222249619997
  0
LINE
  8
_0-3_躯体
  6
CONTINUOUS
 62
    7
 10
1347.22097882865
 20
953.5190768775999
 11
1350.2153832239501
 21
953.70222249619997
  0
LINE
  8
_0-3_躯体
  6
CONTINUOUS
 62
    7
 10
1347.20571669375
 20
953.76861057720009
 11
1347.22097882865
 21
953.5190768775999
  0
LINE
  8
_0-3_躯体
  6
CONTINUOUS
 62
    7
 10
1344.2113122985502
 20
953.58546495859991
 11
1347.20571669375
 21
953.76861057720009
  0
LINE
  8
_0-3_躯体
  6
CONTINUOUS
 62
    7
 10
1344.2113122985502
 20
953.58546495859991
 11
1344.22657443345
 21
953.33593125899995
  0
LINE
  8
_0-3_躯体
  6
CONTINUOUS
 62
    7
 10
1341.2321700381499
 20
953.1527856404
 11
1344.22657443345
 21
953.33593125899995
  0
LINE
  8
_0-3_躯体
  6
CONTINUOUS
 62
    7
 10
1341.2169079032501
 20
953.40231934000008
 11
1341.2321700381499
 21
953.1527856404
  0
LINE
  8
_0-3_躯体
  6
CONTINUOUS
 62
    7
 10
1338.22250350795
 20
953.2191737213999
 11
1341.2169079032501
 21
953.40231934000008
  0
LINE
  8
_0-3_躯体
  6
CONTINUOUS
 62
    7
 10
1338.22250350795
 20
953.2191737213999
 11
1338.2377656428503
 21
952.96964002180005
  0
LINE
  8
_0-3_躯体
  6
CONTINUOUS
 62
    7
 10
1335.24336124765
 20
952.78649440320009
 11
1338.2377656428503
 21
952.96964002180005
  0
LINE
  8
_0-3_躯体
  6
CONTINUOUS
 62
    7
 10
1335.22809911275
 20
953.03602810279995
 11
1335.24336124765
 21
952.78649440320009
  0
LINE
  8
_0-3_躯体
  6
CONTINUOUS
 62
    7
 10
1332.2336947174499
 20
952.85288248419988
 11
1335.22809911275
 21
953.03602810279995
  0
LINE
  8
_0-3_躯体
  6
CONTINUOUS
 62
    7
 10
1332.2336947174499
 20
952.85288248419988
 11
1332.2489568523501
 21
952.60334878460003
  0
LINE
  8
_0-3_躯体
  6
CONTINUOUS
 62
    7
 10
1329.2545524570501
 20
952.42020316600008
 11
1332.2489568523501
 21
952.60334878460003
  0
LINE
  8
_0-3_躯体
  6
CONTINUOUS
 62
    7
 10
1329.2392903221503
 20
952.66973686559993
 11
1329.2545524570501
 21
952.42020316600008
  0
LINE
  8
_0-3_躯体
  6
CONTINUOUS
 62
    7
 10
1326.24488592695
 20
952.48659124699998
 11
1329.2392903221503
 21
952.66973686559993
  0
LINE
  8
_0-3_躯体
  6
CONTINUOUS
 62
    7
 10
1326.24488592695
 20
952.48659124699998
 11
1326.2601480618503
 21
952.2370575473999
  0
LINE
  8
_0-3_躯体
  6
CONTINUOUS
 62
    7
 10
1323.26574366655
 20
952.05391192880006
 11
1326.2601480618503
 21
952.2370575473999
  0
LINE
  8
_0-3_躯体
  6
CONTINUOUS
 62
    7
 10
1323.2504815316502
 20
952.30344562840003
 11
1323.26574366655
 21
952.05391192880006
  0
LINE
  8
_0-3_躯体
  6
CONTINUOUS
 62
    7
 10
1320.2560771363501
 20
952.12030000980008
 11
1323.2504815316502
 21
952.30344562840003
  0
LINE
  8
_0-3_躯体
  6
CONTINUOUS
 62
    7
 10
1320.2560771363501
 20
952.12030000980008
 11
1320.2713392712503
 21
951.87076631019988
  0
LINE
  8
_0-3_躯体
  6
CONTINUOUS
 62
    7
 10
1317.2769348760498
 20
951.68762069159993
 11
1320.2713392712503
 21
951.87076631019988
  0
LINE
  8
_0-3_躯体
  6
CONTINUOUS
 62
    7
 10
1317.2616727411503
 20
951.93715439120001
 11
1317.2769348760498
 21
951.68762069159993
  0
LINE
  8
_0-3_躯体
  6
CONTINUOUS
 62
    7
 10
1314.26726834585
 20
951.75400877260006
 11
1317.2616727411503
 21
951.93715439120001
  0
LINE
  8
_0-3_躯体
  6
CONTINUOUS
 62
    7
 10
1314.26726834585
 20
951.75400877260006
 11
1314.2825304807502
 21
951.50447507299998
  0
LINE
  8
_0-3_躯体
  6
CONTINUOUS
 62
    7
 10
1312.7853282831502
 20
951.41290226370006
 11
1314.2825304807502
 21
951.50447507299998
  0
LINE
  8
_0-3_躯体
  6
CONTINUOUS
 62
    7
 10
1311.48629017745
 20
950.66290226370006
 11
1311.3612901774502
 21
950.87940861459992
  0
LINE
  8
_0-3_躯体
  6
CONTINUOUS
 62
    7
 10
1303.6920615433501
 20
946.16290226369995
 11
1303.5670615433501
 21
946.37940861459992
  0
LINE
  8
_0-3_躯体
  6
CONTINUOUS
 62
    7
 10
1311.3612901774502
 20
950.87940861459992
 11
1308.7632139660502
 21
949.37940861459992
  0
LINE
  8
_0-3_躯体
  6
CONTINUOUS
 62
    7
 10
1306.1651377547503
 20
947.87940861460004
 11
1303.5670615433501
 21
946.37940861459992
  0
LINE
  8
_0-3_躯体
  6
CONTINUOUS
 62
    7
 10
1308.88821396605
 20
949.16290226369995
 11
1308.7632139660502
 21
949.37940861459992
  0
LINE
  8
_0-3_躯体
  6
CONTINUOUS
 62
    7
 10
1306.29013775475
 20
947.66290226370006
 11
1306.1651377547503
 21
947.87940861460004
  0
LINE
  8
_0-3_躯体
  6
CONTINUOUS
 62
    7
 10
1312.7853282831502
 20
951.41290226370006
 11
1311.48629017745
 21
950.66290226370006
  0
LINE
  8
_0-3_躯体
  6
CONTINUOUS
 62
    7
 10
1308.88821396605
 20
949.16290226369995
 11
1306.29013775475
 21
947.66290226370006
  0
LINE
  8
_0-3_躯体
  6
CONTINUOUS
 62
    7
 10
1303.6920615433501
 20
946.16290226369995
 11
1302.3930234377503
 21
945.41290226369995
  0
LINE
  8
_0-3_躯体
  6
CONTINUOUS
 62
    7
 10
1365.20266733515
 20
954.31804743310011
 11
1362.2082629398501
 21
954.50119305170006
  0
LINE
  8
_0-3_躯体
  6
CONTINUOUS
 62
    7
 10
1368.18180959555
 20
953.88536811479992
 11
1365.1874052002499
 21
954.06851373349991
  0
LINE
  8
_0-3_躯体
  6
CONTINUOUS
 62
    7
 10
1362.1930008049501
 20
954.25165935209998
 11
1360.6957986073503
 21
954.34323216140001
  0
LINE
  8
_0-3_躯体
  6
CONTINUOUS
 62
    7
 10
1362.2082629398501
 20
954.50119305170006
 11
1362.1930008049501
 21
954.25165935209998
  0
LINE
  8
_0-3_躯体
  6
CONTINUOUS
 62
    7
 10
1365.20266733515
 20
954.31804743310011
 11
1365.1874052002499
 21
954.06851373349991
  0
LINE
  8
_0-3_躯体
  6
CONTINUOUS
 62
    7
 10
1368.19707173045
 20
954.13490181450004
 11
1368.18180959555
 21
953.88536811479992
  0
LINE
  8
_0-3_躯体
  6
CONTINUOUS
 62
    7
 10
1371.1914761256501
 20
953.95175619580004
 11
1368.19707173045
 21
954.13490181450004
  0
LINE
  8
_0-3_躯体
  6
CONTINUOUS
 62
    7
 10
1371.1914761256501
 20
953.95175619580004
 11
1371.1762139907501
 21
953.70222249619997
  0
LINE
  8
_0-3_躯体
  6
CONTINUOUS
 62
    7
 10
1374.1706183860501
 20
953.5190768775999
 11
1371.1762139907501
 21
953.70222249619997
  0
LINE
  8
_0-3_躯体
  6
CONTINUOUS
 62
    7
 10
1374.1858805209499
 20
953.76861057720009
 11
1374.1706183860501
 21
953.5190768775999
  0
LINE
  8
_0-3_躯体
  6
CONTINUOUS
 62
    7
 10
1377.18028491625
 20
953.58546495859991
 11
1374.1858805209499
 21
953.76861057720009
  0
LINE
  8
_0-3_躯体
  6
CONTINUOUS
 62
    7
 10
1377.18028491625
 20
953.58546495859991
 11
1377.1650227813502
 21
953.33593125899995
  0
LINE
  8
_0-3_躯体
  6
CONTINUOUS
 62
    7
 10
1378.6622249789502
 20
953.24435844970003
 11
1377.1650227813502
 21
953.33593125899995
  0
LINE
  8
_0-3_躯体
  6
CONTINUOUS
 62
    7
 10
1378.6622249789502
 20
953.24435844970003
 11
1379.0504533977503
 21
951.79547026569992
  0
LINE
  8
_0-3_躯体
  6
CONTINUOUS
 62
    7
 10
1376.5183173473501
 20
950.62034656840001
 11
1379.1117573490499
 21
940.94149671569994
  0
LINE
  8
_0-3_躯体
  6
CONTINUOUS
 62
    7
 10
1379.1117573490499
 20
940.94149671569994
 11
1381.7680533713501
 21
941.6532490896999
  0
LINE
  8
_0-3_躯体
  6
CONTINUOUS
 62
    7
 10
1303.7680234377501
 20
943.03133240329998
 11
1302.3930234377503
 21
945.41290226369995
  0
LINE
  8
_0-3_躯体
  6
CONTINUOUS
 62
    7
 10
1313.5995430205501
 20
948.70756288099994
 11
1303.7680234377501
 21
943.03133240329998
  0
TEXT
  8
_0-0_0
 62
    7
 10
432.02954599800205
 20
1111.5703448903919
 40
17.499999999999993
 41
0.8025180000000009
 50
0
  1
◇床－床（５０ＴＴＦ－ＧＰＳ）　Ｓ＝１／３
  0
TEXT
  8
_0-0_0
 62
    7
 10
563.95977029800201
 20
1145.8209598903918
 40
14.000000000000002
 41
0.7365159999999997
 50
0
  1
（ステンレス５０タイプ）
  0
TEXT
  8
_0-0_0
 62
    7
 10
1178.6124398122406
 20
1150.7784721781809
 40
13.999999999999989
 41
0.7365160000000002
 50
0
  1
（ステンレス５０タイプ）
  0
TEXT
  8
_0-0_0
 62
    7
 10
1028.2755342622399
 20
1113.4568671781808
 40
17.500000000000004
 41
0.8032109999999996
 50
0
  1
◇床コーナー（５０ＴＣＦ－ＧＰＳ）　Ｓ＝１／３
  0
ENDSEC
  0
EOF
