  0
SECTION
  2
HEADER
  9
$ACADVER
  1
AC1009
  9
$INSBASE
 10
0
 20
0
 30
0
  9
$EXTMIN
 10
0
 20
0
  9
$EXTMAX
 10
1680
 20
1188
  9
$LIMMIN
 10
0
 20
0
  9
$LIMMAX
 10
1680
 20
1188
  9
$LTSCALE
 40
4
  0
ENDSEC
  0
SECTION
  2
TABLES
  0
TABLE
  2
LTYPE
 70
     9
  0
LTYPE
  2
CONTINUOUS
 70
    64
  3
実線
 72
    65
 73
     0
 40
0.0
  0
LTYPE
  2
DASHED1
 70
    64
  3
--  --  --  --  --  --  --  --  
 72
    65
 73
     2
 40
2.5
 49
1.25
 49
-1.25
  0
LTYPE
  2
DASHED2
 70
    64
  3
----    ----    ----    ----    
 72
    65
 73
     2
 40
5.0
 49
2.5
 49
-2.5
  0
LTYPE
  2
DASHED3
 70
    64
  3
------  ------  ------  ------  
 72
    65
 73
     2
 40
5.0
 49
3.75
 49
-1.25
  0
LTYPE
  2
CENTER1
 70
    64
  3
----- - ----- - ----- - ----- - 
 72
    65
 73
     4
 40
10.0
 49
6.25
 49
-1.25
 49
1.25
 49
-1.25
  0
LTYPE
  2
CENTER2
 70
    64
  3
----------  --  ----------  --  
 72
    65
 73
     4
 40
20.0
 49
12.5
 49
-2.5
 49
2.5
 49
-2.5
  0
LTYPE
  2
PHANTOM1
 70
    64
  3
--- - - --- - - --- - - --- - - 
 72
    65
 73
     6
 40
10.0
 49
3.25
 49
-1.25
 49
1.25
 49
-1.25
 49
1.25
 49
-1.25
  0
LTYPE
  2
PHANTOM2
 70
    64
  3
--------  -  -  --------  -  -  
 72
    65
 73
     6
 40
20.0
 49
10.0
 49
-2.5
 49
1.25
 49
-2.5
 49
1.25
 49
-2.5
  0
LTYPE
  2
DOT
 70
    64
  3
-   -   -   -   -   -   -   -   
 72
    65
 73
     2
 40
2.5
 49
0.625
 49
-1.875
  0
LTYPE
  2
DUMMY
 70
    64
  3
ダミー
 72
    65
 73
     0
 40
0.0
  0
LTYPE
  2
RAND1
 70
    64
  3
ランダム線1
 72
    65
 73
     4
 40
10.0
 49
1.0
 49
-2.0
 49
3.0
 49
-4.0
  0
LTYPE
  2
RAND2
 70
    64
  3
ランダム線2
 72
    65
 73
     4
 40
14.0
 49
2.0
 49
-3.0
 49
4.0
 49
-5.0
  0
LTYPE
  2
RAND3
 70
    64
  3
ランダム線3
 72
    65
 73
     4
 40
18.0
 49
3.0
 49
-4.0
 49
5.0
 49
-6.0
  0
LTYPE
  2
RAND4
 70
    64
  3
ランダム線4
 72
    65
 73
     4
 40
22.0
 49
4.0
 49
-5.0
 49
6.0
 49
-7.0
  0
LTYPE
  2
RAND5
 70
    64
  3
ランダム線5
 72
    65
 73
     4
 40
26.0
 49
5.0
 49
-6.0
 49
7.0
 49
-8.0
  0
LTYPE
  2
LONG1
 70
    64
  3
----------  --  ----------  --  
 72
    65
 73
     4
 40
40.0
 49
32.5
 49
-2.5
 49
2.5
 49
-2.5
  0
LTYPE
  2
LONG2
 70
    64
  3
--------  -  -  --------  -  -  
 72
    65
 73
     6
 40
40.0
 49
30.0
 49
-2.5
 49
1.25
 49
-2.5
 49
1.25
 49
-2.5
  0
LTYPE
  2
LONG3
 70
    64
  3
+++++++++++++++..+++++++++++++++
 72
    65
 73
     2
 40
40.0
 49
37.5
 49
-2.5
  0
LTYPE
  2
LONG4
 70
    64
  3
+++++++++++++++..+++++++++++++++
 72
    65
 73
     2
 40
80.0
 49
75.0
 49
-5.0
  0
LTYPE
  2
LONG5
 70
    64
  3
----------  --  ----------  --  
 72
    65
 73
     4
 40
60.0
 49
37.5
 49
-7.5
 49
7.5
 49
-7.5
  0
LTYPE
  2
dashed
 70
   64
  3
-------   -------------   ------
 72
   65
 73
    2
 40
7.5
 49
6
 49
-1.5
  0
LTYPE
  2
dashed_spaced
 70
   64
  3
----        --------        ----
 72
   65
 73
    2
 40
12
 49
6
 49
-6
  0
LTYPE
  2
long_dashed_dotted
 70
   64
  3
------------- --- --------------
 72
   65
 73
    4
 40
15.25
 49
12
 49
-1.5
 49
0.25
 49
-1.5
  0
LTYPE
  2
long_dashed_double-dotted
 70
   64
  3
----------- --- --- ------------
 72
   65
 73
    6
 40
17
 49
12
 49
-1.5
 49
0.25
 49
-1.5
 49
0.25
 49
-1.5
  0
LTYPE
  2
long_dashed_triplicate-dotted
 70
   64
  3
--------- --- --- --- ----------
 72
   65
 73
    8
 40
18.75
 49
12
 49
-1.5
 49
0.25
 49
-1.5
 49
0.25
 49
-1.5
 49
0.25
 49
-1.5
  0
LTYPE
  2
dotted
 70
   64
  3
   -       -       -       -    
 72
   65
 73
    2
 40
1.75
 49
0.25
 49
-1.5
  0
LTYPE
  2
chain
 70
   64
  3
-------------- -- --------------
 72
   65
 73
    4
 40
18.5
 49
12
 49
-1.5
 49
3.5
 49
-1.5
  0
LTYPE
  2
chain_double_dash
 70
   64
  3
------------ -- -- -------------
 72
   65
 73
    6
 40
23.5
 49
12
 49
-1.5
 49
3.5
 49
-1.5
 49
3.5
 49
-1.5
  0
LTYPE
  2
dashed_dotted
 70
   64
  3
-----------     -     ----------
 72
   65
 73
    4
 40
9.25
 49
6
 49
-1.5
 49
0.25
 49
-1.5
  0
LTYPE
  2
double-dashed_dotted
 70
   64
  3
------   -----------   -   -----
 72
   65
 73
    6
 40
16.75
 49
6
 49
-1.5
 49
6
 49
-1.5
 49
0.25
 49
-1.5
  0
LTYPE
  2
dashed_double-dotted
 70
   64
  3
---------    -    -    ---------
 72
   65
 73
    6
 40
11
 49
6
 49
-1.5
 49
0.25
 49
-1.5
 49
0.25
 49
-1.5
  0
LTYPE
  2
double-dashed_double-dotted
 70
   64
  3
-----   ---------   -   -   ----
 72
   65
 73
    8
 40
18.5
 49
6
 49
-1.5
 49
6
 49
-1.5
 49
0.25
 49
-1.5
 49
0.25
 49
-1.5
  0
LTYPE
  2
dashed_triplicate-dotted
 70
   64
  3
-------    -    -    -    ------
 72
   65
 73
    8
 40
12.75
 49
6
 49
-1.5
 49
0.25
 49
-1.5
 49
0.25
 49
-1.5
 49
0.25
 49
-1.5
  0
LTYPE
  2
double-dashed_triplicate-dotted
 70
   64
  3
-----  ---------  -  -  -  -----
 72
   65
 73
   10
 40
20.25
 49
6
 49
-1.5
 49
6
 49
-1.5
 49
0.25
 49
-1.5
 49
0.25
 49
-1.5
 49
0.25
 49
-1.5
  0
LTYPE
  2
undefined
 70
   64
  3
--------------------------------
 72
   65
 73
    0
 40
0
  0
LTYPE
  2
DOT_17
 70
   64
  3
----        --------        ----
 72
   65
 73
    2
 40
2
 49
1
 49
-1
  0
LTYPE
  2
DASHED
 70
   64
  3
----        --------        ----
 72
   65
 73
    2
 40
4
 49
2
 49
-2
  0
LTYPE
  2
DASHED2_19
 70
   64
  3
-----      ----------      -----
 72
   65
 73
    2
 40
8
 49
5
 49
-3
  0
LTYPE
  2
CENTER
 70
   64
  3
--------------- - --------------
 72
   65
 73
    4
 40
23
 49
20
 49
-1
 49
1
 49
-1
  0
LTYPE
  2
CENTERX2
 70
   64
  3
--------------- - --------------
 72
   65
 73
    4
 40
43
 49
40
 49
-1
 49
1
 49
-1
  0
LTYPE
  2
CENTER2_22
 70
   64
  3
-------------  --  -------------
 72
   65
 73
    4
 40
13
 49
10
 49
-1
 49
1
 49
-1
  0
LTYPE
  2
PHANTOM
 70
   64
  3
-------------- - - -------------
 72
   65
 73
    6
 40
25
 49
20
 49
-1
 49
1
 49
-1
 49
1
 49
-1
  0
LTYPE
  2
PHANTOMX2
 70
   64
  3
-------------- - - -------------
 72
   65
 73
    6
 40
45
 49
40
 49
-1
 49
1
 49
-1
 49
1
 49
-1
  0
LTYPE
  2
PHANTOM2_25
 70
   64
  3
-----------  --  --  -----------
 72
   65
 73
    6
 40
15
 49
10
 49
-1
 49
1
 49
-1
 49
1
 49
-1
  0
LTYPE
  2
ACAD_ISO06W100
 70
   64
  3
------------- - - - ------------
 72
   65
 73
    8
 40
47
 49
40
 49
-1
 49
1
 49
-1
 49
1
 49
-1
 49
1
 49
-1
  0
LTYPE
  2
ACAD_ISO14W100
 70
   64
  3
------------- - - - ------------
 72
   65
 73
    8
 40
27
 49
20
 49
-1
 49
1
 49
-1
 49
1
 49
-1
 49
1
 49
-1
  0
LTYPE
  2
ACAD_ISO11W100
 70
   64
  3
------- -------------- - -------
 72
   65
 73
    6
 40
44
 49
20
 49
-1
 49
20
 49
-1
 49
1
 49
-1
  0
LTYPE
  2
ACAD_ISO13W100
 70
   64
  3
------- ------------- - - ------
 72
   65
 73
    8
 40
46
 49
20
 49
-1
 49
20
 49
-1
 49
1
 49
-1
 49
1
 49
-1
  0
LTYPE
  2
HIDDEN
 70
   64
  3
------     -----------     -----
 72
   65
 73
    2
 40
1.5
 49
1
 49
-0.5
  0
ENDTAB
  0
TABLE
  2
STYLE
  5
3
100
AcDbSymbolTable
 70
     1
  0
STYLE
  5
10
100
AcDbSymbolTableRecord
100
AcDbTextStyleTableRecord
  2
STANDARD
 70
     0
 40
0.0
 41
1.0
 50
0.0
 71
     0
 42
0.2
  3
txt
  4
bigfont.shx
  0
STYLE
  5
26
100
AcDbSymbolTableRecord
100
AcDbTextStyleTableRecord
  2
TATEGAKI
 70
    68
 40
0.0
 41
1.0
 50
0.0
 71
     0
 42
1.0
  3
txt
  4
bigfont.shx
  0
ENDTAB
  0
TABLE
  2
LAYER
 70
   12
  0
LAYER
  2
_0-0_0
 70
   64
 62
    7
  6
CONTINUOUS
  0
LAYER
  2
_0-1_図面枠
 70
   64
 62
    7
  6
CONTINUOUS
  0
LAYER
  2
_0-3_躯体
 70
   64
 62
    7
  6
CONTINUOUS
  0
LAYER
  2
_0-4_フレ_ム
 70
   64
 62
    7
  6
CONTINUOUS
  0
LAYER
  2
_0-5_止水補助板
 70
   64
 62
    7
  6
CONTINUOUS
  0
LAYER
  2
_0-6_センタ_プレ_ト
 70
   64
 62
    7
  6
CONTINUOUS
  0
LAYER
  2
_0-7_サイド
 70
   64
 62
    7
  6
CONTINUOUS
  0
LAYER
  2
_0-8_小物
 70
   64
 62
    7
  6
CONTINUOUS
  0
LAYER
  2
_0-9_レイヤ7
 70
   64
 62
    7
  6
CONTINUOUS
  0
LAYER
  2
_0-a_寸法
 70
   64
 62
    7
  6
CONTINUOUS
  0
LAYER
  2
_0-b_レイヤ1
 70
   64
 62
    7
  6
CONTINUOUS
  0
LAYER
  2
ADD_LINE
 70
   64
 62
    7
  6
CONTINUOUS
  0
ENDTAB
  0
ENDSEC
  0
SECTION
  2
BLOCKS
  0
ENDSEC
  0
SECTION
  2
ENTITIES
  0
LINE
  8
_0-1_図面枠
  6
CONTINUOUS
 62
    7
 10
96.522452499999986
 20
170.96250500000002
 11
1696.5224524999999
 21
170.96250500000002
  0
LINE
  8
_0-1_図面枠
  6
CONTINUOUS
 62
    7
 10
1696.5224524999999
 20
1218.962505
 11
96.522452499999986
 21
1218.962505
  0
LINE
  8
_0-1_図面枠
  6
CONTINUOUS
 62
    7
 10
1696.5224524999999
 20
170.96250500000002
 11
1696.5224524999999
 21
1218.962505
  0
LINE
  8
_0-1_図面枠
  6
CONTINUOUS
 62
    7
 10
96.522452499999986
 20
1218.962505
 11
96.522452499999986
 21
170.96250500000002
  0
LINE
  8
_0-1_図面枠
  6
CONTINUOUS
 62
    7
 10
896.52245249999999
 20
1218.962505
 11
896.52245249999999
 21
170.96250500000002
  0
LINE
  8
_0-a_寸法
  6
CONTINUOUS
 62
    7
 10
221.52245249999999
 20
802.24225000000001
 11
261.58175749999998
 21
802.24225000000001
  0
LINE
  8
_0-a_寸法
  6
CONTINUOUS
 62
    7
 10
221.52245249999999
 20
862.27877000000012
 11
221.52245249999999
 21
798.24225000000001
  0
LINE
  8
_0-a_寸法
  6
CONTINUOUS
 62
    7
 10
261.58175749999998
 20
862.22614999999996
 11
261.58175749999998
 21
798.24225000000001
  0
LINE
  8
_0-a_寸法
  6
CONTINUOUS
 62
    7
 10
221.52245249999999
 20
802.24225000000001
 11
226.52245249999999
 21
803.49225000000001
  0
LINE
  8
_0-a_寸法
  6
CONTINUOUS
 62
    7
 10
221.52245249999999
 20
802.24225000000001
 11
226.52245249999999
 21
800.99225000000001
  0
LINE
  8
_0-a_寸法
  6
CONTINUOUS
 62
    7
 10
261.58175749999998
 20
802.24225000000001
 11
256.58175749999998
 21
800.99225000000001
  0
LINE
  8
_0-a_寸法
  6
CONTINUOUS
 62
    7
 10
261.58175749999998
 20
802.24225000000001
 11
256.58175749999998
 21
803.49225000000001
  0
LINE
  8
_0-a_寸法
  6
CONTINUOUS
 62
    7
 10
261.58175749999998
 20
802.24225000000001
 11
266.58175749999998
 21
803.49225000000001
  0
LINE
  8
_0-a_寸法
  6
CONTINUOUS
 62
    7
 10
261.58175749999998
 20
802.24225000000001
 11
266.58175749999998
 21
800.99225000000001
  0
LINE
  8
_0-a_寸法
  6
CONTINUOUS
 62
    7
 10
331.52245249999999
 20
907.96250499999996
 11
331.52245249999999
 21
823.38290000000006
  0
LINE
  8
_0-a_寸法
  6
CONTINUOUS
 62
    7
 10
331.52245249999999
 20
827.38290000000006
 11
336.52245249999999
 21
828.63290000000006
  0
LINE
  8
_0-a_寸法
  6
CONTINUOUS
 62
    7
 10
331.52245249999999
 20
827.38290000000006
 11
336.52245249999999
 21
826.13290000000006
  0
LINE
  8
_0-a_寸法
  6
CONTINUOUS
 62
    7
 10
331.52245249999999
 20
827.38290000000006
 11
346.52245249999999
 21
827.38290000000006
  0
LINE
  8
_0-a_寸法
  6
CONTINUOUS
 62
    7
 10
231.52245249999999
 20
933.71250499999996
 11
231.52245249999999
 21
993.78955999999994
  0
LINE
  8
_0-a_寸法
  6
CONTINUOUS
 62
    7
 10
231.52245249999999
 20
988.78955999999994
 11
236.52245249999999
 21
990.03955999999994
  0
LINE
  8
_0-a_寸法
  6
CONTINUOUS
 62
    7
 10
231.52245249999999
 20
988.78955999999994
 11
236.52245249999999
 21
987.53955999999994
  0
LINE
  8
_0-a_寸法
  6
CONTINUOUS
 62
    7
 10
231.52245249999999
 20
965.06582500000013
 11
331.52245249999999
 21
965.06582500000013
  0
LINE
  8
_0-a_寸法
  6
CONTINUOUS
 62
    7
 10
331.52245249999999
 20
932.96250499999996
 11
331.52245249999999
 21
969.06582500000013
  0
LINE
  8
_0-a_寸法
  6
CONTINUOUS
 62
    7
 10
231.52245249999999
 20
965.06582500000013
 11
236.52245249999999
 21
966.31582500000013
  0
LINE
  8
_0-a_寸法
  6
CONTINUOUS
 62
    7
 10
231.52245249999999
 20
965.06582500000013
 11
236.52245249999999
 21
963.81582500000013
  0
LINE
  8
_0-a_寸法
  6
CONTINUOUS
 62
    7
 10
331.52245249999999
 20
965.06582500000013
 11
326.52245249999999
 21
963.81582500000013
  0
LINE
  8
_0-a_寸法
  6
CONTINUOUS
 62
    7
 10
331.52245249999999
 20
965.06582500000013
 11
326.52245249999999
 21
966.31582500000013
  0
LINE
  8
_0-a_寸法
  6
CONTINUOUS
 62
    7
 10
331.52245249999999
 20
965.06582500000013
 11
336.52245249999999
 21
966.31582500000013
  0
LINE
  8
_0-a_寸法
  6
CONTINUOUS
 62
    7
 10
331.52245249999999
 20
965.06582500000013
 11
336.52245249999999
 21
963.81582500000013
  0
LINE
  8
_0-a_寸法
  6
CONTINUOUS
 62
    7
 10
167.33069249999994
 20
932.46250499999996
 11
167.33069249999994
 21
907.96250499999996
  0
LINE
  8
_0-a_寸法
  6
CONTINUOUS
 62
    7
 10
184.52245249999999
 20
932.46250499999996
 11
163.33069249999994
 21
932.46250499999996
  0
LINE
  8
_0-a_寸法
  6
CONTINUOUS
 62
    7
 10
184.52245249999999
 20
907.96250499999996
 11
163.33069249999994
 21
907.96250499999996
  0
LINE
  8
_0-a_寸法
  6
CONTINUOUS
 62
    7
 10
167.33069249999994
 20
932.46250499999996
 11
168.58069249999994
 21
927.46250499999996
  0
LINE
  8
_0-a_寸法
  6
CONTINUOUS
 62
    7
 10
167.33069249999994
 20
932.46250499999996
 11
166.08069249999994
 21
927.46250499999996
  0
LINE
  8
_0-a_寸法
  6
CONTINUOUS
 62
    7
 10
167.33069249999994
 20
907.96250499999996
 11
166.08069249999994
 21
912.96250499999996
  0
LINE
  8
_0-a_寸法
  6
CONTINUOUS
 62
    7
 10
167.33069249999994
 20
907.96250499999996
 11
168.58069249999994
 21
912.96250499999996
  0
LINE
  8
_0-a_寸法
  6
CONTINUOUS
 62
    7
 10
167.33069249999994
 20
907.96250499999996
 11
167.33069249999994
 21
897.96250499999996
  0
LINE
  8
_0-a_寸法
  6
CONTINUOUS
 62
    7
 10
199.52244250000001
 20
897.96250499999996
 11
163.33069249999994
 21
897.96250499999996
  0
LINE
  8
_0-a_寸法
  6
CONTINUOUS
 62
    7
 10
167.33069249999994
 20
897.96250499999996
 11
168.58069249999994
 21
892.96250499999996
  0
LINE
  8
_0-a_寸法
  6
CONTINUOUS
 62
    7
 10
167.33069249999994
 20
897.96250499999996
 11
166.08069249999994
 21
892.96250499999996
  0
LINE
  8
_0-a_寸法
  6
CONTINUOUS
 62
    7
 10
167.33069249999994
 20
897.96250499999996
 11
167.33069249999994
 21
882.96250499999996
  0
LINE
  8
_0-a_寸法
  6
CONTINUOUS
 62
    7
 10
242.66928250000001
 20
931.28127500000005
 11
249.13293249999992
 21
942.47664499999996
  0
CIRCLE
  8
_0-a_寸法
  6
CONTINUOUS
 62
    7
 10
252.88293249999992
 20
948.97183500000006
 40
7.5
  0
LINE
  8
_0-a_寸法
  6
CONTINUOUS
 62
    7
 10
631.52245249999999
 20
862.27877000000012
 11
631.52245249999999
 21
798.24225000000001
  0
LINE
  8
_0-a_寸法
  6
CONTINUOUS
 62
    7
 10
631.52245249999999
 20
802.24225000000001
 11
626.52245249999999
 21
800.99225000000001
  0
LINE
  8
_0-a_寸法
  6
CONTINUOUS
 62
    7
 10
631.52245249999999
 20
802.24225000000001
 11
626.52245249999999
 21
803.49225000000001
  0
LINE
  8
_0-a_寸法
  6
CONTINUOUS
 62
    7
 10
631.52245249999999
 20
802.24225000000001
 11
671.52245249999999
 21
802.24225000000001
  0
LINE
  8
_0-a_寸法
  6
CONTINUOUS
 62
    7
 10
671.52245249999999
 20
862.27877000000012
 11
671.52245249999999
 21
798.24225000000001
  0
LINE
  8
_0-a_寸法
  6
CONTINUOUS
 62
    7
 10
631.52245249999999
 20
802.24225000000001
 11
636.52245249999999
 21
803.49225000000001
  0
LINE
  8
_0-a_寸法
  6
CONTINUOUS
 62
    7
 10
631.52245249999999
 20
802.24225000000001
 11
636.52245249999999
 21
800.99225000000001
  0
LINE
  8
_0-a_寸法
  6
CONTINUOUS
 62
    7
 10
671.52245249999999
 20
802.24225000000001
 11
666.52245249999999
 21
800.99225000000001
  0
LINE
  8
_0-a_寸法
  6
CONTINUOUS
 62
    7
 10
671.52245249999999
 20
802.24225000000001
 11
666.52245249999999
 21
803.49225000000001
  0
LINE
  8
_0-a_寸法
  6
CONTINUOUS
 62
    7
 10
661.52245249999999
 20
933.71250499999996
 11
661.52245249999999
 21
993.78955999999994
  0
LINE
  8
_0-a_寸法
  6
CONTINUOUS
 62
    7
 10
661.52245249999999
 20
988.78955999999994
 11
656.52245249999999
 21
987.53955999999994
  0
LINE
  8
_0-a_寸法
  6
CONTINUOUS
 62
    7
 10
661.52245249999999
 20
988.78955999999994
 11
656.52245249999999
 21
990.03955999999994
  0
LINE
  8
_0-a_寸法
  6
CONTINUOUS
 62
    7
 10
561.52245249999999
 20
932.96250499999996
 11
561.52245249999999
 21
969.06582500000013
  0
LINE
  8
_0-a_寸法
  6
CONTINUOUS
 62
    7
 10
561.52245249999999
 20
965.06582500000013
 11
556.52245249999999
 21
963.81582500000013
  0
LINE
  8
_0-a_寸法
  6
CONTINUOUS
 62
    7
 10
561.52245249999999
 20
965.06582500000013
 11
556.52245249999999
 21
966.31582500000013
  0
LINE
  8
_0-a_寸法
  6
CONTINUOUS
 62
    7
 10
561.52245249999999
 20
965.06582500000013
 11
661.52245249999999
 21
965.06582500000013
  0
LINE
  8
_0-a_寸法
  6
CONTINUOUS
 62
    7
 10
561.52245249999999
 20
965.06582500000013
 11
566.52245249999999
 21
966.31582500000013
  0
LINE
  8
_0-a_寸法
  6
CONTINUOUS
 62
    7
 10
561.52245249999999
 20
965.06582500000013
 11
566.52245249999999
 21
963.81582500000013
  0
LINE
  8
_0-a_寸法
  6
CONTINUOUS
 62
    7
 10
661.52245249999999
 20
965.06582500000013
 11
656.52245249999999
 21
963.81582500000013
  0
LINE
  8
_0-a_寸法
  6
CONTINUOUS
 62
    7
 10
661.52245249999999
 20
965.06582500000013
 11
656.52245249999999
 21
966.31582500000013
  0
LINE
  8
_0-a_寸法
  6
CONTINUOUS
 62
    7
 10
561.52245249999999
 20
907.96250499999996
 11
561.52245249999999
 21
823.38290000000006
  0
LINE
  8
_0-a_寸法
  6
CONTINUOUS
 62
    7
 10
561.52245249999999
 20
827.38290000000006
 11
556.52245249999999
 21
826.13290000000006
  0
LINE
  8
_0-a_寸法
  6
CONTINUOUS
 62
    7
 10
561.52245249999999
 20
827.38290000000006
 11
556.52245249999999
 21
828.63290000000006
  0
LINE
  8
_0-a_寸法
  6
CONTINUOUS
 62
    7
 10
561.52245249999999
 20
827.38290000000006
 11
546.52245249999999
 21
827.38290000000006
  0
LINE
  8
_0-a_寸法
  6
CONTINUOUS
 62
    7
 10
231.52245249999999
 20
988.78955999999994
 11
661.52245249999999
 21
988.78955999999994
  0
LINE
  8
_0-a_寸法
  6
CONTINUOUS
 62
    7
 10
331.52245249999999
 20
965.06582500000013
 11
561.52245249999999
 21
965.06582500000013
  0
LINE
  8
_0-a_寸法
  6
CONTINUOUS
 62
    7
 10
681.21950249999998
 20
903.42088000000012
 11
706.47857750000003
 21
859.67088000000012
  0
TEXT
  8
_0-a_寸法
 62
    7
 10
271.02245249999999
 20
965.06582500000013
 40
14
 41
1
 50
0
  1
100
  0
TEXT
  8
_0-a_寸法
 62
    7
 10
436.02245249999999
 20
965.06582500000013
 40
14
 41
1
 50
0
  1
230
  0
TEXT
  8
_0-a_寸法
 62
    7
 10
601.02245249999999
 20
965.06582500000013
 40
14
 41
1
 50
0
  1
100
  0
TEXT
  8
_0-a_寸法
 62
    7
 10
234.55210499999998
 20
802.24225000000001
 40
14
 41
1
 50
0
  1
40
  0
TEXT
  8
_0-a_寸法
 62
    7
 10
644.49279999999999
 20
802.24225000000001
 40
14
 41
1
 50
0
  1
40
  0
TEXT
  8
_0-a_寸法
 62
    7
 10
706.47857750000003
 20
859.67088000000012
 40
14
 41
1
 50
0
  1
ならしモルタル（別途）
  0
LINE
  8
_0-a_寸法
  6
CONTINUOUS
 62
    7
 10
706.47857750000003
 20
859.67088000000012
 11
855.15776112339995
 21
859.67088000000012
  0
TEXT
  8
_0-a_寸法
 62
    7
 10
436.02245249999999
 20
988.78955999999994
 40
14
 41
1
 50
0
  1
430
  0
CIRCLE
  8
_0-a_寸法
  6
CONTINUOUS
 62
    7
 10
242.66928250000001
 20
931.28127500000005
 40
1
  0
CIRCLE
  8
_0-a_寸法
  6
CONTINUOUS
 62
    7
 10
681.21950249999998
 20
903.42088000000012
 40
1.5
  0
CIRCLE
  8
_0-a_寸法
  6
CONTINUOUS
 62
    7
 10
675.14281249999999
 20
869.08349500000008
 40
1.5
  0
LINE
  8
_0-3_躯体
  6
CONTINUOUS
 62
    7
 10
201.52244250000001
 20
907.96250499999996
 11
201.52244250000001
 21
897.96250499999996
  0
LINE
  8
_0-3_躯体
  6
CONTINUOUS
 62
    7
 10
186.52245249999999
 20
932.46250499999996
 11
232.12391749999995
 21
932.46250499999996
  0
LINE
  8
_0-3_躯体
  6
CONTINUOUS
 62
    7
 10
691.52246249999996
 20
907.96250499999996
 11
691.52246249999996
 21
897.96250499999996
  0
LINE
  8
_0-3_躯体
  6
HIDDEN
 62
    7
 10
186.52245249999999
 20
932.46250499999996
 11
186.52245249999999
 21
907.96250499999996
  0
LINE
  8
_0-3_躯体
  6
CONTINUOUS
 62
    7
 10
235.52245249999999
 20
914.64286517320011
 11
232.34209232679996
 21
911.46250499999996
  0
LINE
  8
_0-3_躯体
  6
CONTINUOUS
 62
    7
 10
235.52245249999999
 20
921.71393298509997
 11
226.77102451489998
 21
912.96250499999996
  0
LINE
  8
_0-3_躯体
  6
CONTINUOUS
 62
    7
 10
231.52245249999999
 20
924.78500079690002
 11
222.91682579439998
 21
916.17937409130013
  0
LINE
  8
_0-3_躯体
  6
CONTINUOUS
 62
    7
 10
232.12888889119995
 20
932.46250499999996
 11
232.11139087209995
 21
932.44500698089996
  0
LINE
  8
_0-3_躯体
  6
CONTINUOUS
 62
    7
 10
231.53995051909999
 20
931.87356662790012
 11
212.62888889119995
 21
912.96250499999996
  0
LINE
  8
_0-3_躯体
  6
CONTINUOUS
 62
    7
 10
212.52245249999999
 20
912.85606860880011
 11
211.12888889119995
 21
911.46250499999996
  0
LINE
  8
_0-3_躯体
  6
CONTINUOUS
 62
    7
 10
225.05782107929997
 20
932.46250499999996
 11
200.55782107929997
 21
907.96250499999996
  0
LINE
  8
_0-3_躯体
  6
CONTINUOUS
 62
    7
 10
217.98675326750003
 20
932.46250499999996
 11
193.48675326750003
 21
907.96250499999996
  0
LINE
  8
_0-3_躯体
  6
CONTINUOUS
 62
    7
 10
210.91568545559994
 20
932.46250499999996
 11
186.52245249999999
 21
908.06927204440012
  0
LINE
  8
_0-3_躯体
  6
CONTINUOUS
 62
    7
 10
203.84461764369996
 20
932.46250499999996
 11
186.52245249999999
 21
915.14033985629999
  0
LINE
  8
_0-3_躯体
  6
CONTINUOUS
 62
    7
 10
196.77354983190003
 20
932.46250499999996
 11
186.52245249999999
 21
922.21140766810004
  0
LINE
  8
_0-3_躯体
  6
CONTINUOUS
 62
    7
 10
189.70248201999993
 20
932.46250499999996
 11
186.52245249999999
 21
929.28247548000013
  0
LINE
  8
_0-3_躯体
  6
CONTINUOUS
 62
    7
 10
706.52245249999999
 20
911.88132177820012
 11
702.60363572179995
 21
907.96250499999996
  0
LINE
  8
_0-3_躯体
  6
CONTINUOUS
 62
    7
 10
706.52245249999999
 20
918.95238959009998
 11
695.53256790989997
 21
907.96250499999996
  0
LINE
  8
_0-3_躯体
  6
CONTINUOUS
 62
    7
 10
706.52245249999999
 20
926.02345740200008
 11
688.46150009799999
 21
907.96250499999996
  0
LINE
  8
_0-3_躯体
  6
CONTINUOUS
 62
    7
 10
705.89043228619994
 20
932.46250499999996
 11
684.89043228619994
 21
911.46250499999996
  0
LINE
  8
_0-3_躯体
  6
CONTINUOUS
 62
    7
 10
698.81936447429996
 20
932.46250499999996
 11
679.31936447429996
 21
912.96250499999996
  0
LINE
  8
_0-3_躯体
  6
CONTINUOUS
 62
    7
 10
691.74829666239998
 20
932.46250499999996
 11
674.65022938920004
 21
915.36443772680013
  0
LINE
  8
_0-3_躯体
  6
CONTINUOUS
 62
    7
 10
684.67722885059993
 20
932.46250499999996
 11
665.17722885059993
 21
912.96250499999996
  0
LINE
  8
_0-3_躯体
  6
CONTINUOUS
 62
    7
 10
677.60616103869995
 20
932.46250499999996
 11
657.72635965179995
 21
912.58270361299992
  0
LINE
  8
_0-3_躯体
  6
CONTINUOUS
 62
    7
 10
670.53509322679997
 20
932.46250499999996
 11
657.52245249999999
 21
919.44986427320009
  0
LINE
  8
_0-3_躯体
  6
CONTINUOUS
 62
    7
 10
663.46402541500004
 20
932.46250499999996
 11
661.52245249999999
 21
930.52093208499991
  0
LINE
  8
_0-4_フレ_ム
  6
CONTINUOUS
 62
    7
 10
262.02245249999999
 20
911.46250499999996
 11
281.52245249999999
 21
911.46250499999996
  0
ARC
  8
_0-4_フレ_ム
  6
CONTINUOUS
 62
    7
 10
240.02245249999999
 20
913.46250499999996
 40
2
 50
180
 51
270
  0
LINE
  8
_0-4_フレ_ム
  6
CONTINUOUS
 62
    7
 10
261.02245249999999
 20
911.46250499999996
 11
240.02245249999999
 21
911.46250499999996
  0
LINE
  8
_0-4_フレ_ム
  6
CONTINUOUS
 62
    7
 10
238.02245249999999
 20
913.46250499999996
 11
238.02245249999999
 21
924.96250499999996
  0
ARC
  8
_0-4_フレ_ム
  6
CONTINUOUS
 62
    7
 10
235.02245249999999
 20
925.46250499999996
 40
0.5
 50
270
 51
0
  0
LINE
  8
_0-4_フレ_ム
  6
CONTINUOUS
 62
    7
 10
235.02245249999999
 20
924.96250499999996
 11
233.52245249999999
 21
924.96250499999996
  0
LINE
  8
_0-4_フレ_ム
  6
CONTINUOUS
 62
    7
 10
232.02245249999999
 20
923.46250499999996
 11
234.52245249999999
 21
923.46250499999996
  0
ARC
  8
_0-4_フレ_ム
  6
CONTINUOUS
 62
    7
 10
234.52245249999999
 20
922.46250499999996
 40
1
 50
0
 51
90
  0
LINE
  8
_0-4_フレ_ム
  6
CONTINUOUS
 62
    7
 10
235.52245249999999
 20
922.46250499999996
 11
235.52245249999999
 21
913.46250499999996
  0
LINE
  8
_0-4_フレ_ム
  6
CONTINUOUS
 62
    7
 10
235.52245249999999
 20
925.46250499999996
 11
235.52245249999999
 21
929.46250499999996
  0
ARC
  8
_0-4_フレ_ム
  6
CONTINUOUS
 62
    7
 10
325.52245249999999
 20
915.46250499999996
 40
3
 50
270
 51
0
  0
LINE
  8
_0-4_フレ_ム
  6
CONTINUOUS
 62
    7
 10
250.02245249999999
 20
908.96250499999996
 11
250.02245249999999
 21
909.46250499999996
  0
LINE
  8
_0-4_フレ_ム
  6
CONTINUOUS
 62
    7
 10
250.02245249999999
 20
909.46250499999996
 11
255.02245249999999
 21
909.46250499999996
  0
LINE
  8
_0-4_フレ_ム
  6
CONTINUOUS
 62
    7
 10
255.02245249999999
 20
909.46250499999996
 11
255.02245249999999
 21
908.96250499999996
  0
LINE
  8
_0-4_フレ_ム
  6
CONTINUOUS
 62
    7
 10
268.02245249999999
 20
908.96250499999996
 11
268.02245249999999
 21
909.46250499999996
  0
LINE
  8
_0-4_フレ_ム
  6
CONTINUOUS
 62
    7
 10
268.02245249999999
 20
909.46250499999996
 11
273.02245249999999
 21
909.46250499999996
  0
LINE
  8
_0-4_フレ_ム
  6
CONTINUOUS
 62
    7
 10
273.02245249999999
 20
909.46250499999996
 11
273.02245249999999
 21
908.96250499999996
  0
LINE
  8
_0-4_フレ_ム
  6
CONTINUOUS
 62
    7
 10
250.02245249999999
 20
908.96250499999996
 11
233.02245249999999
 21
908.96250499999996
  0
LINE
  8
_0-4_フレ_ム
  6
CONTINUOUS
 62
    7
 10
210.02245249999999
 20
908.96250499999996
 11
207.02245249999999
 21
908.96250499999996
  0
LINE
  8
_0-4_フレ_ム
  6
CONTINUOUS
 62
    7
 10
262.02245249999999
 20
911.46250499999996
 11
261.52245249999999
 21
910.96250499999996
  0
LINE
  8
_0-4_フレ_ム
  6
CONTINUOUS
 62
    7
 10
261.02245249999999
 20
911.46250499999996
 11
261.52245249999999
 21
910.96250499999996
  0
ARC
  8
_0-4_フレ_ム
  6
CONTINUOUS
 62
    7
 10
330.52245249999999
 20
909.96250499999996
 40
1
 50
270
 51
0
  0
LINE
  8
_0-4_フレ_ム
  6
CONTINUOUS
 62
    7
 10
331.52245249999999
 20
918.71250499999996
 11
331.52245249999999
 21
909.96250499999996
  0
ARC
  8
_0-4_フレ_ム
  6
CONTINUOUS
 62
    7
 10
232.02245249999999
 20
923.96250499999996
 40
0.5
 50
180
 51
270
  0
LINE
  8
_0-4_フレ_ム
  6
CONTINUOUS
 62
    7
 10
231.52245249999999
 20
931.71250499999996
 11
231.52245249999999
 21
923.96250499999996
  0
ARC
  8
_0-4_フレ_ム
  6
CONTINUOUS
 62
    7
 10
233.52245249999999
 20
925.46250499999996
 40
0.5
 50
180
 51
270
  0
LINE
  8
_0-4_フレ_ム
  6
CONTINUOUS
 62
    7
 10
233.02245249999999
 20
931.71250499999996
 11
233.02245249999999
 21
925.46250499999996
  0
LINE
  8
_0-4_フレ_ム
  6
CONTINUOUS
 62
    7
 10
239.02245249999999
 20
928.46250499999996
 11
239.02245249999999
 21
929.46250499999996
  0
LINE
  8
_0-4_フレ_ム
  6
CONTINUOUS
 62
    7
 10
247.02245249999999
 20
928.46250499999996
 11
243.52245249999999
 21
928.46250499999996
  0
LINE
  8
_0-4_フレ_ム
  6
CONTINUOUS
 62
    7
 10
239.02245249999999
 20
928.46250499999996
 11
242.52245249999999
 21
928.46250499999996
  0
LINE
  8
_0-4_フレ_ム
  6
CONTINUOUS
 62
    7
 10
247.02245249999999
 20
928.46250499999996
 11
247.02245249999999
 21
929.46250499999996
  0
ARC
  8
_0-4_フレ_ム
  6
CONTINUOUS
 62
    7
 10
247.52245249999999
 20
929.46250499999996
 40
0.5
 50
90
 51
180
  0
ARC
  8
_0-4_フレ_ム
  6
CONTINUOUS
 62
    7
 10
250.02245249999999
 20
929.46250499999996
 40
0.5
 50
0
 51
90
  0
LINE
  8
_0-4_フレ_ム
  6
CONTINUOUS
 62
    7
 10
247.52245249999999
 20
929.96250499999996
 11
250.02245249999999
 21
929.96250499999996
  0
ARC
  8
_0-4_フレ_ム
  6
CONTINUOUS
 62
    7
 10
236.02245249999999
 20
929.46250499999996
 40
0.5
 50
90
 51
180
  0
ARC
  8
_0-4_フレ_ム
  6
CONTINUOUS
 62
    7
 10
238.52245249999999
 20
929.46250499999996
 40
0.5
 50
0
 51
90
  0
LINE
  8
_0-4_フレ_ム
  6
CONTINUOUS
 62
    7
 10
250.52245249999999
 20
927.96250499999996
 11
250.52245249999999
 21
929.46250499999996
  0
ARC
  8
_0-4_フレ_ム
  6
CONTINUOUS
 62
    7
 10
248.52245249999999
 20
927.96250499999996
 40
2
 50
270
 51
0
  0
ARC
  8
_0-4_フレ_ム
  6
CONTINUOUS
 62
    7
 10
239.02245249999999
 20
924.96250499999996
 40
1
 50
90
 51
180
  0
LINE
  8
_0-4_フレ_ム
  6
CONTINUOUS
 62
    7
 10
248.52245249999999
 20
925.96250499999996
 11
239.02245249999999
 21
925.96250499999996
  0
ARC
  8
_0-4_フレ_ム
  6
CONTINUOUS
 62
    7
 10
232.27245249999999
 20
931.71250499999996
 40
0.75
 50
0
 51
180
  0
LINE
  8
_0-4_フレ_ム
  6
CONTINUOUS
 62
    7
 10
243.52245249999999
 20
928.46250499999996
 11
243.02245249999999
 21
927.96250499999996
  0
LINE
  8
_0-4_フレ_ム
  6
CONTINUOUS
 62
    7
 10
242.52245249999999
 20
928.46250499999996
 11
243.02245249999999
 21
927.96250499999996
  0
LINE
  8
_0-4_フレ_ム
  6
CONTINUOUS
 62
    7
 10
247.52245249999999
 20
929.96250499999996
 11
250.02245249999999
 21
929.96250499999996
  0
LINE
  8
_0-4_フレ_ム
  6
CONTINUOUS
 62
    7
 10
210.02245249999999
 20
908.96250499999996
 11
210.02245249999999
 21
909.46250499999996
  0
LINE
  8
_0-4_フレ_ム
  6
CONTINUOUS
 62
    7
 10
210.02245249999999
 20
909.46250499999996
 11
215.02245249999999
 21
909.46250499999996
  0
LINE
  8
_0-4_フレ_ム
  6
CONTINUOUS
 62
    7
 10
215.02245249999999
 20
909.46250499999996
 11
215.02245249999999
 21
908.96250499999996
  0
LINE
  8
_0-4_フレ_ム
  6
CONTINUOUS
 62
    7
 10
228.02245249999999
 20
908.96250499999996
 11
228.02245249999999
 21
909.46250499999996
  0
LINE
  8
_0-4_フレ_ム
  6
CONTINUOUS
 62
    7
 10
228.02245249999999
 20
909.46250499999996
 11
233.02245249999999
 21
909.46250499999996
  0
LINE
  8
_0-4_フレ_ム
  6
CONTINUOUS
 62
    7
 10
233.02245249999999
 20
909.46250499999996
 11
233.02245249999999
 21
908.96250499999996
  0
ARC
  8
_0-4_フレ_ム
  6
CONTINUOUS
 62
    7
 10
233.52245249999999
 20
913.46250499999996
 40
2
 50
270
 51
0
  0
ARC
  8
_0-4_フレ_ム
  6
CONTINUOUS
 62
    7
 10
207.02245249999999
 20
909.46250499999996
 40
0.5
 50
180
 51
270
  0
ARC
  8
_0-4_フレ_ム
  6
CONTINUOUS
 62
    7
 10
207.02245249999999
 20
910.96250499999996
 40
0.5
 50
90
 51
180
  0
LINE
  8
_0-4_フレ_ム
  6
CONTINUOUS
 62
    7
 10
233.52245249999999
 20
911.46250499999996
 11
207.02245249999999
 21
911.46250499999996
  0
LINE
  8
_0-4_フレ_ム
  6
CONTINUOUS
 62
    7
 10
206.52245249999999
 20
910.96250499999996
 11
206.52245249999999
 21
909.46250499999996
  0
LINE
  8
_0-4_フレ_ム
  6
CONTINUOUS
 62
    7
 10
236.02245249999999
 20
929.96250499999996
 11
238.52245249999999
 21
929.96250499999996
  0
LINE
  8
_0-4_フレ_ム
  6
CONTINUOUS
 62
    7
 10
281.52245249999999
 20
911.46250499999996
 11
286.52245249999999
 21
912.46250499999996
  0
LINE
  8
_0-4_フレ_ム
  6
CONTINUOUS
 62
    7
 10
286.52245249999999
 20
912.46250499999996
 11
325.52245249999999
 21
912.46250499999996
  0
LINE
  8
_0-4_フレ_ム
  6
CONTINUOUS
 62
    7
 10
333.02245249999999
 20
923.71250499999996
 11
333.02245249999999
 21
918.71250499999996
  0
LINE
  8
_0-4_フレ_ム
  6
CONTINUOUS
 62
    7
 10
333.02245249999999
 20
918.71250499999996
 11
331.52245249999999
 21
918.71250499999996
  0
LINE
  8
_0-4_フレ_ム
  6
CONTINUOUS
 62
    7
 10
328.52245249999999
 20
918.71250499999996
 11
327.02245249999999
 21
918.71250499999996
  0
LINE
  8
_0-4_フレ_ム
  6
CONTINUOUS
 62
    7
 10
327.02245249999999
 20
918.71250499999996
 11
327.02245249999999
 21
923.71250499999996
  0
LINE
  8
_0-4_フレ_ム
  6
CONTINUOUS
 62
    7
 10
328.52245249999999
 20
923.71250499999996
 11
328.52245749999997
 21
920.71250499999996
  0
LINE
  8
_0-4_フレ_ム
  6
CONTINUOUS
 62
    7
 10
328.52245749999997
 20
918.71250499999996
 11
328.52245249999999
 21
915.46250000000009
  0
LINE
  8
_0-4_フレ_ム
  6
CONTINUOUS
 62
    7
 10
331.52245249999999
 20
923.71250499999996
 11
331.52245249999999
 21
920.71250499999996
  0
ARC
  8
_0-4_フレ_ム
  6
CONTINUOUS
 62
    7
 10
330.02245249999999
 20
923.71250499999996
 40
1.7
 50
0
 51
180
  0
ARC
  8
_0-4_フレ_ム
  6
CONTINUOUS
 62
    7
 10
330.02246249999996
 20
923.71250499999996
 40
1.499995
 50
0
 51
180
  0
ARC
  8
_0-4_フレ_ム
  6
CONTINUOUS
 62
    7
 10
330.02245249999999
 20
923.71250499999996
 40
3
 50
0
 51
180
  0
LINE
  8
_0-4_フレ_ム
  6
CONTINUOUS
 62
    7
 10
328.52245749999997
 20
920.71250499999996
 11
329.02245749999997
 21
920.71250499999996
  0
LINE
  8
_0-4_フレ_ム
  6
CONTINUOUS
 62
    7
 10
329.02245749999997
 20
920.71250499999996
 11
328.52245249999999
 21
918.71250499999996
  0
LINE
  8
_0-4_フレ_ム
  6
CONTINUOUS
 62
    7
 10
331.52245249999999
 20
920.71250499999996
 11
331.02245249999999
 21
920.71250499999996
  0
LINE
  8
_0-4_フレ_ム
  6
CONTINUOUS
 62
    7
 10
331.02245249999999
 20
920.71250499999996
 11
331.52245249999999
 21
918.71250499999996
  0
LINE
  8
_0-4_フレ_ム
  6
CONTINUOUS
 62
    7
 10
328.52245749999997
 20
920.71250499999996
 11
328.32245749999998
 21
920.71250499999996
  0
LINE
  8
_0-4_フレ_ム
  6
CONTINUOUS
 62
    7
 10
328.32245749999998
 20
920.71250499999996
 11
328.3224525
 21
923.71250499999996
  0
LINE
  8
_0-4_フレ_ム
  6
CONTINUOUS
 62
    7
 10
331.52245249999999
 20
920.71250499999996
 11
331.72245249999997
 21
920.71250499999996
  0
LINE
  8
_0-4_フレ_ム
  6
CONTINUOUS
 62
    7
 10
331.72245249999997
 20
920.71250499999996
 11
331.72245249999997
 21
923.71250499999996
  0
LINE
  8
_0-4_フレ_ム
  6
CONTINUOUS
 62
    7
 10
639.02245249999999
 20
911.46250499999996
 11
639.02245249999999
 21
909.46250499999996
  0
LINE
  8
_0-4_フレ_ム
  6
CONTINUOUS
 62
    7
 10
624.02245249999999
 20
911.46250499999996
 11
624.02245249999999
 21
909.46250499999996
  0
LINE
  8
_0-4_フレ_ム
  6
CONTINUOUS
 62
    7
 10
631.02245249999999
 20
911.46250499999996
 11
614.02245249999999
 21
911.46250499999996
  0
ARC
  8
_0-4_フレ_ム
  6
CONTINUOUS
 62
    7
 10
653.02245249999999
 20
913.46250499999996
 40
2
 50
270
 51
0
  0
LINE
  8
_0-4_フレ_ム
  6
CONTINUOUS
 62
    7
 10
632.02245249999999
 20
911.46250499999996
 11
653.02245249999999
 21
911.46250499999996
  0
LINE
  8
_0-4_フレ_ム
  6
CONTINUOUS
 62
    7
 10
562.52245249999999
 20
908.96250499999996
 11
620.02245249999999
 21
908.96250499999996
  0
LINE
  8
_0-4_フレ_ム
  6
CONTINUOUS
 62
    7
 10
655.02245249999999
 20
913.46250499999996
 11
655.02245249999999
 21
924.96250499999996
  0
ARC
  8
_0-4_フレ_ム
  6
CONTINUOUS
 62
    7
 10
658.02245249999999
 20
925.46250499999996
 40
0.5
 50
180
 51
270
  0
LINE
  8
_0-4_フレ_ム
  6
CONTINUOUS
 62
    7
 10
658.02245249999999
 20
924.96250499999996
 11
659.52245249999999
 21
924.96250499999996
  0
LINE
  8
_0-4_フレ_ム
  6
CONTINUOUS
 62
    7
 10
661.02245249999999
 20
923.46250499999996
 11
658.52245249999999
 21
923.46250499999996
  0
ARC
  8
_0-4_フレ_ム
  6
CONTINUOUS
 62
    7
 10
658.52245249999999
 20
922.46250499999996
 40
1
 50
90
 51
180
  0
LINE
  8
_0-4_フレ_ム
  6
CONTINUOUS
 62
    7
 10
657.52245249999999
 20
922.46250499999996
 11
657.52245249999999
 21
913.46250499999996
  0
LINE
  8
_0-4_フレ_ム
  6
CONTINUOUS
 62
    7
 10
657.52245249999999
 20
925.46250499999996
 11
657.52245249999999
 21
929.46250499999996
  0
LINE
  8
_0-4_フレ_ム
  6
CONTINUOUS
 62
    7
 10
643.02245249999999
 20
908.96250499999996
 11
643.02245249999999
 21
909.46250499999996
  0
LINE
  8
_0-4_フレ_ム
  6
CONTINUOUS
 62
    7
 10
643.02245249999999
 20
909.46250499999996
 11
638.02245249999999
 21
909.46250499999996
  0
LINE
  8
_0-4_フレ_ム
  6
CONTINUOUS
 62
    7
 10
638.02245249999999
 20
909.46250499999996
 11
638.02245249999999
 21
908.96250499999996
  0
LINE
  8
_0-4_フレ_ム
  6
CONTINUOUS
 62
    7
 10
625.02245249999999
 20
908.96250499999996
 11
625.02245249999999
 21
909.46250499999996
  0
LINE
  8
_0-4_フレ_ム
  6
CONTINUOUS
 62
    7
 10
625.02245249999999
 20
909.46250499999996
 11
620.02245249999999
 21
909.46250499999996
  0
LINE
  8
_0-4_フレ_ム
  6
CONTINUOUS
 62
    7
 10
620.02245249999999
 20
909.46250499999996
 11
620.02245249999999
 21
908.96250499999996
  0
LINE
  8
_0-4_フレ_ム
  6
CONTINUOUS
 62
    7
 10
643.02245249999999
 20
908.96250499999996
 11
660.02245249999999
 21
908.96250499999996
  0
LINE
  8
_0-4_フレ_ム
  6
CONTINUOUS
 62
    7
 10
665.02245249999999
 20
908.96250499999996
 11
678.02245249999999
 21
908.96250499999996
  0
LINE
  8
_0-4_フレ_ム
  6
CONTINUOUS
 62
    7
 10
683.02245249999999
 20
908.96250499999996
 11
686.02245249999999
 21
908.96250499999996
  0
LINE
  8
_0-4_フレ_ム
  6
CONTINUOUS
 62
    7
 10
638.02245249999999
 20
908.96250499999996
 11
625.02245249999999
 21
908.96250499999996
  0
LINE
  8
_0-4_フレ_ム
  6
CONTINUOUS
 62
    7
 10
631.02245249999999
 20
911.46250499999996
 11
631.52245249999999
 21
910.96250499999996
  0
LINE
  8
_0-4_フレ_ム
  6
CONTINUOUS
 62
    7
 10
632.02245249999999
 20
911.46250499999996
 11
631.52245249999999
 21
910.96250499999996
  0
ARC
  8
_0-4_フレ_ム
  6
CONTINUOUS
 62
    7
 10
562.52245249999999
 20
909.96250499999996
 40
1
 50
180
 51
270
  0
LINE
  8
_0-4_フレ_ム
  6
CONTINUOUS
 62
    7
 10
561.52245249999999
 20
918.71250499999996
 11
561.52245249999999
 21
909.96250499999996
  0
ARC
  8
_0-4_フレ_ム
  6
CONTINUOUS
 62
    7
 10
661.02245249999999
 20
923.96250499999996
 40
0.5
 50
270
 51
0
  0
LINE
  8
_0-4_フレ_ム
  6
CONTINUOUS
 62
    7
 10
661.52245249999999
 20
931.71250499999996
 11
661.52245249999999
 21
923.96250499999996
  0
ARC
  8
_0-4_フレ_ム
  6
CONTINUOUS
 62
    7
 10
659.52245249999999
 20
925.46250499999996
 40
0.5
 50
270
 51
0
  0
LINE
  8
_0-4_フレ_ム
  6
CONTINUOUS
 62
    7
 10
660.02245249999999
 20
931.71250499999996
 11
660.02245249999999
 21
925.46250499999996
  0
LINE
  8
_0-4_フレ_ム
  6
CONTINUOUS
 62
    7
 10
654.02245249999999
 20
928.46250499999996
 11
654.02245249999999
 21
929.46250499999996
  0
LINE
  8
_0-4_フレ_ム
  6
CONTINUOUS
 62
    7
 10
646.02245249999999
 20
928.46250499999996
 11
649.52245249999999
 21
928.46250499999996
  0
LINE
  8
_0-4_フレ_ム
  6
CONTINUOUS
 62
    7
 10
654.02245249999999
 20
928.46250499999996
 11
650.52245249999999
 21
928.46250499999996
  0
LINE
  8
_0-4_フレ_ム
  6
CONTINUOUS
 62
    7
 10
646.02245249999999
 20
928.46250499999996
 11
646.02245249999999
 21
929.46250499999996
  0
ARC
  8
_0-4_フレ_ム
  6
CONTINUOUS
 62
    7
 10
645.52245249999999
 20
929.46250499999996
 40
0.5
 50
0
 51
90
  0
ARC
  8
_0-4_フレ_ム
  6
CONTINUOUS
 62
    7
 10
643.02245249999999
 20
929.46250499999996
 40
0.5
 50
90
 51
180
  0
LINE
  8
_0-4_フレ_ム
  6
CONTINUOUS
 62
    7
 10
645.52245249999999
 20
929.96250499999996
 11
643.02245249999999
 21
929.96250499999996
  0
ARC
  8
_0-4_フレ_ム
  6
CONTINUOUS
 62
    7
 10
657.02245249999999
 20
929.46250499999996
 40
0.5
 50
0
 51
90
  0
ARC
  8
_0-4_フレ_ム
  6
CONTINUOUS
 62
    7
 10
654.52245249999999
 20
929.46250499999996
 40
0.5
 50
90
 51
180
  0
LINE
  8
_0-4_フレ_ム
  6
CONTINUOUS
 62
    7
 10
642.52245249999999
 20
927.96250499999996
 11
642.52245249999999
 21
929.46250499999996
  0
ARC
  8
_0-4_フレ_ム
  6
CONTINUOUS
 62
    7
 10
644.52245249999999
 20
927.96250499999996
 40
2
 50
180
 51
270
  0
ARC
  8
_0-4_フレ_ム
  6
CONTINUOUS
 62
    7
 10
654.02245249999999
 20
924.96250499999996
 40
1
 50
0
 51
90
  0
LINE
  8
_0-4_フレ_ム
  6
CONTINUOUS
 62
    7
 10
644.52245249999999
 20
925.96250499999996
 11
654.02245249999999
 21
925.96250499999996
  0
ARC
  8
_0-4_フレ_ム
  6
CONTINUOUS
 62
    7
 10
660.77245249999999
 20
931.71250499999996
 40
0.75
 50
0
 51
180
  0
LINE
  8
_0-4_フレ_ム
  6
CONTINUOUS
 62
    7
 10
649.52245249999999
 20
928.46250499999996
 11
650.02245249999999
 21
927.96250499999996
  0
LINE
  8
_0-4_フレ_ム
  6
CONTINUOUS
 62
    7
 10
650.52245249999999
 20
928.46250499999996
 11
650.02245249999999
 21
927.96250499999996
  0
LINE
  8
_0-4_フレ_ム
  6
CONTINUOUS
 62
    7
 10
645.52245249999999
 20
929.96250499999996
 11
643.02245249999999
 21
929.96250499999996
  0
LINE
  8
_0-4_フレ_ム
  6
CONTINUOUS
 62
    7
 10
679.02245249999999
 20
911.46250499999996
 11
679.02245249999999
 21
909.46250499999996
  0
LINE
  8
_0-4_フレ_ム
  6
CONTINUOUS
 62
    7
 10
664.02245249999999
 20
911.46250499999996
 11
664.02245249999999
 21
909.46250499999996
  0
LINE
  8
_0-4_フレ_ム
  6
CONTINUOUS
 62
    7
 10
683.02245249999999
 20
908.96250499999996
 11
683.02245249999999
 21
909.46250499999996
  0
LINE
  8
_0-4_フレ_ム
  6
CONTINUOUS
 62
    7
 10
683.02245249999999
 20
909.46250499999996
 11
678.02245249999999
 21
909.46250499999996
  0
LINE
  8
_0-4_フレ_ム
  6
CONTINUOUS
 62
    7
 10
678.02245249999999
 20
909.46250499999996
 11
678.02245249999999
 21
908.96250499999996
  0
LINE
  8
_0-4_フレ_ム
  6
CONTINUOUS
 62
    7
 10
665.02245249999999
 20
908.96250499999996
 11
665.02245249999999
 21
909.46250499999996
  0
LINE
  8
_0-4_フレ_ム
  6
CONTINUOUS
 62
    7
 10
665.02245249999999
 20
909.46250499999996
 11
660.02245249999999
 21
909.46250499999996
  0
LINE
  8
_0-4_フレ_ム
  6
CONTINUOUS
 62
    7
 10
660.02245249999999
 20
909.46250499999996
 11
660.02245249999999
 21
908.96250499999996
  0
ARC
  8
_0-4_フレ_ム
  6
CONTINUOUS
 62
    7
 10
686.02245249999999
 20
909.46250499999996
 40
0.5
 50
270
 51
0
  0
ARC
  8
_0-4_フレ_ム
  6
CONTINUOUS
 62
    7
 10
659.52245249999999
 20
913.46250499999996
 40
2
 50
180
 51
270
  0
ARC
  8
_0-4_フレ_ム
  6
CONTINUOUS
 62
    7
 10
686.02245249999999
 20
910.96250499999996
 40
0.5
 50
0
 51
90
  0
LINE
  8
_0-4_フレ_ム
  6
CONTINUOUS
 62
    7
 10
659.52245249999999
 20
911.46250499999996
 11
686.02245249999999
 21
911.46250499999996
  0
LINE
  8
_0-4_フレ_ム
  6
CONTINUOUS
 62
    7
 10
686.52245249999999
 20
910.96250499999996
 11
686.52245249999999
 21
909.46250499999996
  0
LINE
  8
_0-4_フレ_ム
  6
CONTINUOUS
 62
    7
 10
657.02245249999999
 20
929.96250499999996
 11
654.52245249999999
 21
929.96250499999996
  0
LINE
  8
_0-4_フレ_ム
  6
CONTINUOUS
 62
    7
 10
657.02245249999999
 20
929.96250499999996
 11
654.52245249999999
 21
929.96250499999996
  0
LINE
  8
_0-4_フレ_ム
  6
CONTINUOUS
 62
    7
 10
614.02245249999999
 20
911.46250499999996
 11
606.52245249999999
 21
912.46250499999996
  0
LINE
  8
_0-4_フレ_ム
  6
CONTINUOUS
 62
    7
 10
606.52245249999999
 20
912.46250499999996
 11
567.02245249999999
 21
912.46250499999996
  0
ARC
  8
_0-4_フレ_ム
  6
CONTINUOUS
 62
    7
 10
567.52245249999999
 20
915.46250499999996
 40
3
 50
180
 51
270
  0
LINE
  8
_0-4_フレ_ム
  6
CONTINUOUS
 62
    7
 10
564.5224475
 20
918.71250499999996
 11
564.52245249999999
 21
915.46250000000009
  0
LINE
  8
_0-4_フレ_ム
  6
CONTINUOUS
 62
    7
 10
560.02245249999999
 20
923.71250499999996
 11
560.02245249999999
 21
918.71250499999996
  0
LINE
  8
_0-4_フレ_ム
  6
CONTINUOUS
 62
    7
 10
560.02245249999999
 20
918.71250499999996
 11
561.52245249999999
 21
918.71250499999996
  0
LINE
  8
_0-4_フレ_ム
  6
CONTINUOUS
 62
    7
 10
564.52245249999999
 20
918.71250499999996
 11
566.02245249999999
 21
918.71250499999996
  0
LINE
  8
_0-4_フレ_ム
  6
CONTINUOUS
 62
    7
 10
566.02245249999999
 20
918.71250499999996
 11
566.02245249999999
 21
923.71250499999996
  0
LINE
  8
_0-4_フレ_ム
  6
CONTINUOUS
 62
    7
 10
564.52245249999999
 20
923.71250499999996
 11
564.5224475
 21
920.71250499999996
  0
LINE
  8
_0-4_フレ_ム
  6
CONTINUOUS
 62
    7
 10
561.52245249999999
 20
923.71250499999996
 11
561.52245249999999
 21
920.71250499999996
  0
ARC
  8
_0-4_フレ_ム
  6
CONTINUOUS
 62
    7
 10
563.02245249999999
 20
923.71250499999996
 40
1.7
 50
0
 51
180
  0
ARC
  8
_0-4_フレ_ム
  6
CONTINUOUS
 62
    7
 10
563.0224475
 20
923.71250499999996
 40
1.499995
 50
0
 51
180
  0
ARC
  8
_0-4_フレ_ム
  6
CONTINUOUS
 62
    7
 10
563.02245249999999
 20
923.71250499999996
 40
3
 50
0
 51
180
  0
LINE
  8
_0-4_フレ_ム
  6
CONTINUOUS
 62
    7
 10
564.5224475
 20
920.71250499999996
 11
564.0224475
 21
920.71250499999996
  0
LINE
  8
_0-4_フレ_ム
  6
CONTINUOUS
 62
    7
 10
564.0224475
 20
920.71250499999996
 11
564.52245249999999
 21
918.71250499999996
  0
LINE
  8
_0-4_フレ_ム
  6
CONTINUOUS
 62
    7
 10
561.52245249999999
 20
920.71250499999996
 11
562.02245249999999
 21
920.71250499999996
  0
LINE
  8
_0-4_フレ_ム
  6
CONTINUOUS
 62
    7
 10
562.02245249999999
 20
920.71250499999996
 11
561.52245749999997
 21
918.71250499999996
  0
LINE
  8
_0-4_フレ_ム
  6
CONTINUOUS
 62
    7
 10
564.5224475
 20
920.71250499999996
 11
564.72244750000004
 21
920.71250499999996
  0
LINE
  8
_0-4_フレ_ム
  6
CONTINUOUS
 62
    7
 10
564.72244750000004
 20
920.71250499999996
 11
564.72245249999992
 21
923.71250499999996
  0
LINE
  8
_0-4_フレ_ム
  6
CONTINUOUS
 62
    7
 10
561.52245749999997
 20
920.71250499999996
 11
561.32245250000005
 21
920.71250499999996
  0
LINE
  8
_0-4_フレ_ム
  6
CONTINUOUS
 62
    7
 10
561.32245250000005
 20
920.71250499999996
 11
561.32245250000005
 21
923.71250499999996
  0
LINE
  8
_0-4_フレ_ム
  6
CONTINUOUS
 62
    7
 10
570.85053749999997
 20
908.96250499999996
 11
686.52245249999999
 21
908.96250499999996
  0
LINE
  8
_0-5_止水補助板
  6
CONTINUOUS
 62
    7
 10
206.52245249999999
 20
907.96250499999996
 11
206.52245249999999
 21
908.96250499999996
  0
LINE
  8
_0-5_止水補助板
  6
CONTINUOUS
 62
    7
 10
686.52245249999999
 20
908.96250499999996
 11
686.52245249999999
 21
907.96250499999996
  0
LINE
  8
_0-8_小物
  6
CONTINUOUS
 62
    7
 10
228.02245249999999
 20
908.96250499999996
 11
215.02245249999999
 21
908.96250499999996
  0
LINE
  8
_0-8_小物
  6
CONTINUOUS
 62
    7
 10
255.02245249999999
 20
908.96250499999996
 11
268.02245249999999
 21
908.96250499999996
  0
LINE
  8
_0-8_小物
  6
CONTINUOUS
 62
    7
 10
256.11417749999998
 20
873.18268499999999
 11
256.00950749999993
 21
871.18542500000012
  0
LINE
  8
_0-8_小物
  6
CONTINUOUS
 62
    7
 10
256.2711875
 20
876.17857000000004
 11
258.21610750000002
 21
875.07527000000005
  0
LINE
  8
_0-8_小物
  6
CONTINUOUS
 62
    7
 10
258.21610750000002
 20
875.07527000000005
 11
258.11143749999997
 21
873.07800999999995
  0
LINE
  8
_0-8_小物
  6
CONTINUOUS
 62
    7
 10
258.11143749999997
 20
873.07800999999995
 11
256.11417749999998
 21
873.18268499999999
  0
LINE
  8
_0-8_小物
  6
CONTINUOUS
 62
    7
 10
256.37585749999994
 20
878.17583000000013
 11
256.2711875
 21
876.17857000000004
  0
LINE
  8
_0-8_小物
  6
CONTINUOUS
 62
    7
 10
256.53286749999995
 20
881.17172000000005
 11
258.47778749999998
 21
880.06842000000006
  0
LINE
  8
_0-8_小物
  6
CONTINUOUS
 62
    7
 10
258.47778749999998
 20
880.06842000000006
 11
258.37311750000003
 21
878.07115999999996
  0
LINE
  8
_0-8_小物
  6
CONTINUOUS
 62
    7
 10
258.37311750000003
 20
878.07115999999996
 11
256.37585749999994
 21
878.17583000000013
  0
LINE
  8
_0-8_小物
  6
CONTINUOUS
 62
    7
 10
256.63753750000001
 20
883.16897999999992
 11
256.53286749999995
 21
881.17172000000005
  0
LINE
  8
_0-8_小物
  6
CONTINUOUS
 62
    7
 10
256.79454250000003
 20
886.16487000000006
 11
258.73946750000005
 21
885.06156499999997
  0
LINE
  8
_0-8_小物
  6
CONTINUOUS
 62
    7
 10
258.73946750000005
 20
885.06156499999997
 11
258.63479749999999
 21
883.0643050000001
  0
LINE
  8
_0-8_小物
  6
CONTINUOUS
 62
    7
 10
258.63479749999999
 20
883.0643050000001
 11
256.63753750000001
 21
883.16897999999992
  0
LINE
  8
_0-8_小物
  6
CONTINUOUS
 62
    7
 10
256.89921749999996
 20
888.16212500000006
 11
256.79454250000003
 21
886.16487000000006
  0
LINE
  8
_0-8_小物
  6
CONTINUOUS
 62
    7
 10
257.05622249999999
 20
891.15801499999998
 11
259.0011475
 21
890.05471499999999
  0
LINE
  8
_0-8_小物
  6
CONTINUOUS
 62
    7
 10
259.0011475
 20
890.05471499999999
 11
258.89647749999995
 21
888.05745500000012
  0
LINE
  8
_0-8_小物
  6
CONTINUOUS
 62
    7
 10
258.89647749999995
 20
888.05745500000012
 11
256.89921749999996
 21
888.16212500000006
  0
LINE
  8
_0-8_小物
  6
CONTINUOUS
 62
    7
 10
257.16089749999992
 20
893.15527500000007
 11
257.05622249999999
 21
891.15801499999998
  0
LINE
  8
_0-8_小物
  6
CONTINUOUS
 62
    7
 10
257.52245249999999
 20
895.96250499999996
 11
259.26282749999996
 21
895.04786000000013
  0
LINE
  8
_0-8_小物
  6
CONTINUOUS
 62
    7
 10
266.93072749999999
 20
873.18268499999999
 11
267.03539750000004
 21
871.18542500000012
  0
LINE
  8
_0-8_小物
  6
CONTINUOUS
 62
    7
 10
266.77371749999998
 20
876.17857000000004
 11
264.82879249999996
 21
875.07527000000005
  0
LINE
  8
_0-8_小物
  6
CONTINUOUS
 62
    7
 10
264.82879249999996
 20
875.07527000000005
 11
264.93346750000001
 21
873.07800999999995
  0
LINE
  8
_0-8_小物
  6
CONTINUOUS
 62
    7
 10
264.93346750000001
 20
873.07800999999995
 11
266.93072749999999
 21
873.18268499999999
  0
LINE
  8
_0-8_小物
  6
CONTINUOUS
 62
    7
 10
266.66904750000003
 20
878.17583000000013
 11
266.77371749999998
 21
876.17857000000004
  0
LINE
  8
_0-8_小物
  6
CONTINUOUS
 62
    7
 10
266.51203750000002
 20
881.17172000000005
 11
264.56711250000001
 21
880.06842000000006
  0
LINE
  8
_0-8_小物
  6
CONTINUOUS
 62
    7
 10
264.56711250000001
 20
880.06842000000006
 11
264.67178749999994
 21
878.07115999999996
  0
LINE
  8
_0-8_小物
  6
CONTINUOUS
 62
    7
 10
264.67178749999994
 20
878.07115999999996
 11
266.66904750000003
 21
878.17583000000013
  0
LINE
  8
_0-8_小物
  6
CONTINUOUS
 62
    7
 10
266.40736749999996
 20
883.16897999999992
 11
266.51203750000002
 21
881.17172000000005
  0
LINE
  8
_0-8_小物
  6
CONTINUOUS
 62
    7
 10
266.25035749999995
 20
886.16487000000006
 11
264.30543749999993
 21
885.06156499999997
  0
LINE
  8
_0-8_小物
  6
CONTINUOUS
 62
    7
 10
264.30543749999993
 20
885.06156499999997
 11
264.41010749999998
 21
883.0643050000001
  0
LINE
  8
_0-8_小物
  6
CONTINUOUS
 62
    7
 10
264.41010749999998
 20
883.0643050000001
 11
266.40736749999996
 21
883.16897999999992
  0
LINE
  8
_0-8_小物
  6
CONTINUOUS
 62
    7
 10
266.14568750000001
 20
888.16212500000006
 11
266.25035749999995
 21
886.16487000000006
  0
LINE
  8
_0-8_小物
  6
CONTINUOUS
 62
    7
 10
265.98867749999999
 20
891.15801499999998
 11
264.04375749999997
 21
890.05471499999999
  0
LINE
  8
_0-8_小物
  6
CONTINUOUS
 62
    7
 10
264.04375749999997
 20
890.05471499999999
 11
264.14842750000003
 21
888.05745500000012
  0
LINE
  8
_0-8_小物
  6
CONTINUOUS
 62
    7
 10
264.14842750000003
 20
888.05745500000012
 11
266.14568750000001
 21
888.16212500000006
  0
LINE
  8
_0-8_小物
  6
CONTINUOUS
 62
    7
 10
265.88400750000005
 20
893.15527500000007
 11
265.98867749999999
 21
891.15801499999998
  0
LINE
  8
_0-8_小物
  6
CONTINUOUS
 62
    7
 10
263.78207750000001
 20
895.04786000000013
 11
263.88674749999996
 21
893.05060000000003
  0
LINE
  8
_0-8_小物
  6
CONTINUOUS
 62
    7
 10
263.88674749999996
 20
893.05060000000003
 11
265.88400750000005
 21
893.15527500000007
  0
LINE
  8
_0-8_小物
  6
CONTINUOUS
 62
    7
 10
261.58175749999998
 20
872.02180999999996
 11
259.64805750000005
 21
873.73748000000001
  0
LINE
  8
_0-8_小物
  6
CONTINUOUS
 62
    7
 10
263.39189750000003
 20
873.83195000000001
 11
261.52245249999999
 21
871.96250499999996
  0
LINE
  8
_0-8_小物
  6
CONTINUOUS
 62
    7
 10
265.52245249999999
 20
895.96250499999996
 11
263.78207750000001
 21
895.04786000000013
  0
LINE
  8
_0-8_小物
  6
CONTINUOUS
 62
    7
 10
256.89921749999996
 20
888.16212500000006
 11
255.20385250000004
 21
892.82010500000001
  0
LINE
  8
_0-8_小物
  6
CONTINUOUS
 62
    7
 10
266.14568750000001
 20
888.16212500000006
 11
267.84105249999993
 21
892.82010500000001
  0
LINE
  8
_0-8_小物
  6
CONTINUOUS
 62
    7
 10
259.50470749999999
 20
871.00225
 11
256.00950749999993
 21
871.18542500000012
  0
LINE
  8
_0-8_小物
  6
CONTINUOUS
 62
    7
 10
256.00950749999993
 20
871.18542500000012
 11
257.90209249999998
 21
869.08349500000008
  0
LINE
  8
_0-8_小物
  6
CONTINUOUS
 62
    7
 10
257.90209249999998
 20
869.08349500000008
 11
259.40003750000005
 21
869.00499000000013
  0
LINE
  8
_0-8_小物
  6
CONTINUOUS
 62
    7
 10
259.40003750000005
 20
869.00499000000013
 11
261.02245249999999
 21
899.96250499999996
  0
LINE
  8
_0-8_小物
  6
CONTINUOUS
 62
    7
 10
257.52245249999999
 20
895.96250499999996
 11
257.52245249999999
 21
899.96250499999996
  0
LINE
  8
_0-8_小物
  6
CONTINUOUS
 62
    7
 10
263.54019249999999
 20
871.00225
 11
267.03539750000004
 21
871.18542500000012
  0
LINE
  8
_0-8_小物
  6
CONTINUOUS
 62
    7
 10
267.03539750000004
 20
871.18542500000012
 11
265.14281249999999
 21
869.08349500000008
  0
LINE
  8
_0-8_小物
  6
CONTINUOUS
 62
    7
 10
265.14281249999999
 20
869.08349500000008
 11
263.64486749999992
 21
869.00499000000013
  0
LINE
  8
_0-8_小物
  6
CONTINUOUS
 62
    7
 10
263.64486749999992
 20
869.00499000000013
 11
262.02245249999999
 21
899.96250499999996
  0
LINE
  8
_0-8_小物
  6
CONTINUOUS
 62
    7
 10
265.52245249999999
 20
895.96250499999996
 11
265.52245249999999
 21
899.96250499999996
  0
LINE
  8
_0-8_小物
  6
CONTINUOUS
 62
    7
 10
267.84105249999993
 20
892.82010500000001
 11
268.83340750000002
 21
899.62373000000002
  0
ARC
  8
_0-8_小物
  6
CONTINUOUS
 62
    7
 10
268.43759750000004
 20
899.68146000000002
 40
0.4
 50
351.701533999964
 51
81.869898000039981
  0
LINE
  8
_0-8_小物
  6
CONTINUOUS
 62
    7
 10
268.49416250000002
 20
900.07744000000002
 11
268.29733750000003
 21
900.10555999999997
  0
ARC
  8
_0-8_小物
  6
CONTINUOUS
 62
    7
 10
268.24077250000005
 20
899.70957999999996
 40
0.4
 50
81.869897999979997
 51
171.86989800000001
  0
LINE
  8
_0-8_小物
  6
CONTINUOUS
 62
    7
 10
267.84479250000004
 20
899.76614500000005
 11
266.90135750000002
 21
893.16212500000006
  0
LINE
  8
_0-8_小物
  6
CONTINUOUS
 62
    7
 10
255.20385250000004
 20
892.82010500000001
 11
254.21149749999995
 21
899.62373000000002
  0
ARC
  8
_0-8_小物
  6
CONTINUOUS
 62
    7
 10
254.60730749999993
 20
899.68146000000002
 40
0.4
 50
98.130101999960004
 51
188.29846599999999
  0
LINE
  8
_0-8_小物
  6
CONTINUOUS
 62
    7
 10
254.55073749999997
 20
900.07744000000002
 11
254.74756249999996
 21
900.10555999999997
  0
ARC
  8
_0-8_小物
  6
CONTINUOUS
 62
    7
 10
254.80413249999992
 20
899.70957999999996
 40
0.4
 50
8.130101999991
 51
98.130101999990003
  0
LINE
  8
_0-8_小物
  6
CONTINUOUS
 62
    7
 10
255.20011249999993
 20
899.76614500000005
 11
256.14354249999997
 21
893.16212500000006
  0
LINE
  8
_0-8_小物
  6
CONTINUOUS
 62
    7
 10
255.20385250000004
 20
892.82010500000001
 11
254.21149749999995
 21
899.62373000000002
  0
ARC
  8
_0-8_小物
  6
CONTINUOUS
 62
    7
 10
254.60730749999993
 20
899.68146000000002
 40
0.4
 50
98.130101999960004
 51
188.29846599999999
  0
LINE
  8
_0-8_小物
  6
CONTINUOUS
 62
    7
 10
254.55073749999997
 20
900.07744000000002
 11
254.74756249999996
 21
900.10555999999997
  0
ARC
  8
_0-8_小物
  6
CONTINUOUS
 62
    7
 10
254.80413249999992
 20
899.70957999999996
 40
0.4
 50
8.130101999991
 51
98.130101999990003
  0
LINE
  8
_0-8_小物
  6
CONTINUOUS
 62
    7
 10
255.20011249999993
 20
899.76614500000005
 11
256.14354249999997
 21
893.16212500000006
  0
LINE
  8
_0-8_小物
  6
CONTINUOUS
 62
    7
 10
256.52245249999999
 20
907.96250499999996
 11
257.52245249999999
 21
902.96250499999996
  0
LINE
  8
_0-8_小物
  6
CONTINUOUS
 62
    7
 10
257.52245249999999
 20
907.96250499999996
 11
257.52245249999999
 21
899.96250499999996
  0
LINE
  8
_0-8_小物
  6
CONTINUOUS
 62
    7
 10
261.02245249999999
 20
899.96250499999996
 11
261.52245249999999
 21
899.96250499999996
  0
LINE
  8
_0-8_小物
  6
CONTINUOUS
 62
    7
 10
261.52245249999999
 20
902.96250499999996
 11
261.52245249999999
 21
907.96250499999996
  0
LINE
  8
_0-8_小物
  6
CONTINUOUS
 62
    7
 10
260.52245249999999
 20
907.96250499999996
 11
261.52245249999999
 21
902.96250499999996
  0
LINE
  8
_0-8_小物
  6
CONTINUOUS
 62
    7
 10
262.52245249999999
 20
907.96250499999996
 11
261.52245249999999
 21
902.96250499999996
  0
LINE
  8
_0-8_小物
  6
CONTINUOUS
 62
    7
 10
266.52245249999999
 20
907.96250499999996
 11
265.52245249999999
 21
902.96250499999996
  0
LINE
  8
_0-8_小物
  6
CONTINUOUS
 62
    7
 10
265.52245249999999
 20
907.96250499999996
 11
265.52245249999999
 21
899.96250499999996
  0
LINE
  8
_0-8_小物
  6
CONTINUOUS
 62
    7
 10
262.02245249999999
 20
899.96250499999996
 11
261.52245249999999
 21
899.96250499999996
  0
ARC
  8
_0-8_小物
  6
CONTINUOUS
 62
    7
 10
260.01968749999992
 20
912.83379500000001
 40
3
 50
128.61463800000001
 51
177.54107400000001
  0
ARC
  8
_0-8_小物
  6
CONTINUOUS
 62
    7
 10
261.52245249999999
 20
910.96250499999996
 40
5.4000000000000004
 50
90
 51
128.682187
  0
ARC
  8
_0-8_小物
  6
CONTINUOUS
 62
    7
 10
261.52245249999999
 20
910.96250499999996
 40
5.4000000000000004
 50
51.148938000000001
 51
90
  0
ARC
  8
_0-8_小物
  6
CONTINUOUS
 62
    7
 10
263.02521249999995
 20
912.83379500000001
 40
3
 50
2.458925999996
 51
51.38536199999001
  0
LINE
  8
_0-8_小物
  6
CONTINUOUS
 62
    7
 10
270.52245249999999
 20
912.96250499999996
 11
252.52245249999999
 21
912.96250499999996
  0
LINE
  8
_0-8_小物
  6
CONTINUOUS
 62
    7
 10
252.52245249999999
 20
912.96250499999996
 11
252.52245249999999
 21
911.46250499999996
  0
LINE
  8
_0-8_小物
  6
CONTINUOUS
 62
    7
 10
270.52245249999999
 20
912.96250499999996
 11
270.52245249999999
 21
911.46250499999996
  0
LINE
  8
_0-8_小物
  6
CONTINUOUS
 62
    7
 10
221.52245249999999
 20
864.27877000000012
 11
221.52245249999999
 21
918.00141499999995
  0
LINE
  8
_0-8_小物
  6
CONTINUOUS
 62
    7
 10
216.11417749999998
 20
873.18268499999999
 11
216.00950749999993
 21
871.18542500000012
  0
LINE
  8
_0-8_小物
  6
CONTINUOUS
 62
    7
 10
216.2711875
 20
876.17857000000004
 11
218.21610750000002
 21
875.07527000000005
  0
LINE
  8
_0-8_小物
  6
CONTINUOUS
 62
    7
 10
218.21610750000002
 20
875.07527000000005
 11
218.11143749999997
 21
873.07800999999995
  0
LINE
  8
_0-8_小物
  6
CONTINUOUS
 62
    7
 10
218.11143749999997
 20
873.07800999999995
 11
216.11417749999998
 21
873.18268499999999
  0
LINE
  8
_0-8_小物
  6
CONTINUOUS
 62
    7
 10
216.37585749999994
 20
878.17583000000013
 11
216.2711875
 21
876.17857000000004
  0
LINE
  8
_0-8_小物
  6
CONTINUOUS
 62
    7
 10
216.53286749999995
 20
881.17172000000005
 11
218.47778749999998
 21
880.06842000000006
  0
LINE
  8
_0-8_小物
  6
CONTINUOUS
 62
    7
 10
218.47778749999998
 20
880.06842000000006
 11
218.37311750000003
 21
878.07115999999996
  0
LINE
  8
_0-8_小物
  6
CONTINUOUS
 62
    7
 10
218.37311750000003
 20
878.07115999999996
 11
216.37585749999994
 21
878.17583000000013
  0
LINE
  8
_0-8_小物
  6
CONTINUOUS
 62
    7
 10
216.63753750000001
 20
883.16897999999992
 11
216.53286749999995
 21
881.17172000000005
  0
LINE
  8
_0-8_小物
  6
CONTINUOUS
 62
    7
 10
216.79454250000003
 20
886.16487000000006
 11
218.73946750000005
 21
885.06156499999997
  0
LINE
  8
_0-8_小物
  6
CONTINUOUS
 62
    7
 10
218.73946750000005
 20
885.06156499999997
 11
218.63479749999999
 21
883.0643050000001
  0
LINE
  8
_0-8_小物
  6
CONTINUOUS
 62
    7
 10
218.63479749999999
 20
883.0643050000001
 11
216.63753750000001
 21
883.16897999999992
  0
LINE
  8
_0-8_小物
  6
CONTINUOUS
 62
    7
 10
216.89921749999996
 20
888.16212500000006
 11
216.79454250000003
 21
886.16487000000006
  0
LINE
  8
_0-8_小物
  6
CONTINUOUS
 62
    7
 10
217.05622249999999
 20
891.15801499999998
 11
219.0011475
 21
890.05471499999999
  0
LINE
  8
_0-8_小物
  6
CONTINUOUS
 62
    7
 10
219.0011475
 20
890.05471499999999
 11
218.89647749999995
 21
888.05745500000012
  0
LINE
  8
_0-8_小物
  6
CONTINUOUS
 62
    7
 10
218.89647749999995
 20
888.05745500000012
 11
216.89921749999996
 21
888.16212500000006
  0
LINE
  8
_0-8_小物
  6
CONTINUOUS
 62
    7
 10
217.16089749999992
 20
893.15527500000007
 11
217.05622249999999
 21
891.15801499999998
  0
LINE
  8
_0-8_小物
  6
CONTINUOUS
 62
    7
 10
219.26282749999996
 20
895.04786000000013
 11
219.15815750000002
 21
893.05060000000003
  0
LINE
  8
_0-8_小物
  6
CONTINUOUS
 62
    7
 10
219.15815750000002
 20
893.05060000000003
 11
217.16089749999992
 21
893.15527500000007
  0
LINE
  8
_0-8_小物
  6
CONTINUOUS
 62
    7
 10
217.52245249999999
 20
895.96250499999996
 11
219.26282749999996
 21
895.04786000000013
  0
LINE
  8
_0-8_小物
  6
CONTINUOUS
 62
    7
 10
226.93072749999999
 20
873.18268499999999
 11
227.03539750000004
 21
871.18542500000012
  0
LINE
  8
_0-8_小物
  6
CONTINUOUS
 62
    7
 10
226.77371749999998
 20
876.17857000000004
 11
224.82879249999996
 21
875.07527000000005
  0
LINE
  8
_0-8_小物
  6
CONTINUOUS
 62
    7
 10
224.82879249999996
 20
875.07527000000005
 11
224.93346750000001
 21
873.07800999999995
  0
LINE
  8
_0-8_小物
  6
CONTINUOUS
 62
    7
 10
224.93346750000001
 20
873.07800999999995
 11
226.93072749999999
 21
873.18268499999999
  0
LINE
  8
_0-8_小物
  6
CONTINUOUS
 62
    7
 10
226.66904750000003
 20
878.17583000000013
 11
226.77371749999998
 21
876.17857000000004
  0
LINE
  8
_0-8_小物
  6
CONTINUOUS
 62
    7
 10
226.51203750000002
 20
881.17172000000005
 11
224.56711250000001
 21
880.06842000000006
  0
LINE
  8
_0-8_小物
  6
CONTINUOUS
 62
    7
 10
224.56711250000001
 20
880.06842000000006
 11
224.67178749999994
 21
878.07115999999996
  0
LINE
  8
_0-8_小物
  6
CONTINUOUS
 62
    7
 10
224.67178749999994
 20
878.07115999999996
 11
226.66904750000003
 21
878.17583000000013
  0
LINE
  8
_0-8_小物
  6
CONTINUOUS
 62
    7
 10
226.40736749999996
 20
883.16897999999992
 11
226.51203750000002
 21
881.17172000000005
  0
LINE
  8
_0-8_小物
  6
CONTINUOUS
 62
    7
 10
226.25035749999995
 20
886.16487000000006
 11
224.30543749999993
 21
885.06156499999997
  0
LINE
  8
_0-8_小物
  6
CONTINUOUS
 62
    7
 10
224.30543749999993
 20
885.06156499999997
 11
224.41010749999998
 21
883.0643050000001
  0
LINE
  8
_0-8_小物
  6
CONTINUOUS
 62
    7
 10
224.41010749999998
 20
883.0643050000001
 11
226.40736749999996
 21
883.16897999999992
  0
LINE
  8
_0-8_小物
  6
CONTINUOUS
 62
    7
 10
226.14568750000001
 20
888.16212500000006
 11
226.25035749999995
 21
886.16487000000006
  0
LINE
  8
_0-8_小物
  6
CONTINUOUS
 62
    7
 10
225.98867749999999
 20
891.15801499999998
 11
224.04375749999997
 21
890.05471499999999
  0
LINE
  8
_0-8_小物
  6
CONTINUOUS
 62
    7
 10
224.04375749999997
 20
890.05471499999999
 11
224.14842750000003
 21
888.05745500000012
  0
LINE
  8
_0-8_小物
  6
CONTINUOUS
 62
    7
 10
224.14842750000003
 20
888.05745500000012
 11
226.14568750000001
 21
888.16212500000006
  0
LINE
  8
_0-8_小物
  6
CONTINUOUS
 62
    7
 10
225.88400750000005
 20
893.15527500000007
 11
225.98867749999999
 21
891.15801499999998
  0
LINE
  8
_0-8_小物
  6
CONTINUOUS
 62
    7
 10
223.78207750000001
 20
895.04786000000013
 11
223.88674749999996
 21
893.05060000000003
  0
LINE
  8
_0-8_小物
  6
CONTINUOUS
 62
    7
 10
223.88674749999996
 20
893.05060000000003
 11
225.88400750000005
 21
893.15527500000007
  0
LINE
  8
_0-8_小物
  6
CONTINUOUS
 62
    7
 10
221.58175749999998
 20
872.02180999999996
 11
219.64805750000005
 21
873.73748000000001
  0
LINE
  8
_0-8_小物
  6
CONTINUOUS
 62
    7
 10
223.39189750000003
 20
873.83195000000001
 11
221.52245249999999
 21
871.96250499999996
  0
LINE
  8
_0-8_小物
  6
CONTINUOUS
 62
    7
 10
225.52245249999999
 20
895.96250499999996
 11
223.78207750000001
 21
895.04786000000013
  0
LINE
  8
_0-8_小物
  6
CONTINUOUS
 62
    7
 10
216.89921749999996
 20
888.16212500000006
 11
215.20385250000004
 21
892.82010500000001
  0
LINE
  8
_0-8_小物
  6
CONTINUOUS
 62
    7
 10
217.96339250000005
 20
888.16212500000006
 11
216.14354249999997
 21
893.16212500000006
  0
LINE
  8
_0-8_小物
  6
CONTINUOUS
 62
    7
 10
226.14568750000001
 20
888.16212500000006
 11
227.84105249999993
 21
892.82010500000001
  0
LINE
  8
_0-8_小物
  6
CONTINUOUS
 62
    7
 10
219.50470749999999
 20
871.00225
 11
216.00950749999993
 21
871.18542500000012
  0
LINE
  8
_0-8_小物
  6
CONTINUOUS
 62
    7
 10
216.00950749999993
 20
871.18542500000012
 11
217.90209249999998
 21
869.08349500000008
  0
LINE
  8
_0-8_小物
  6
CONTINUOUS
 62
    7
 10
217.90209249999998
 20
869.08349500000008
 11
219.40003750000005
 21
869.00499000000013
  0
LINE
  8
_0-8_小物
  6
CONTINUOUS
 62
    7
 10
219.40003750000005
 20
869.00499000000013
 11
221.02245249999999
 21
899.96250499999996
  0
LINE
  8
_0-8_小物
  6
CONTINUOUS
 62
    7
 10
217.52245249999999
 20
895.96250499999996
 11
217.52245249999999
 21
899.96250499999996
  0
LINE
  8
_0-8_小物
  6
CONTINUOUS
 62
    7
 10
223.54019249999999
 20
871.00225
 11
227.03539750000004
 21
871.18542500000012
  0
LINE
  8
_0-8_小物
  6
CONTINUOUS
 62
    7
 10
227.03539750000004
 20
871.18542500000012
 11
225.14281249999999
 21
869.08349500000008
  0
LINE
  8
_0-8_小物
  6
CONTINUOUS
 62
    7
 10
225.14281249999999
 20
869.08349500000008
 11
223.64486749999992
 21
869.00499000000013
  0
LINE
  8
_0-8_小物
  6
CONTINUOUS
 62
    7
 10
223.64486749999992
 20
869.00499000000013
 11
222.02245249999999
 21
899.96250499999996
  0
LINE
  8
_0-8_小物
  6
CONTINUOUS
 62
    7
 10
225.52245249999999
 20
895.96250499999996
 11
225.52245249999999
 21
899.96250499999996
  0
LINE
  8
_0-8_小物
  6
CONTINUOUS
 62
    7
 10
227.84105249999993
 20
892.82010500000001
 11
228.83340750000002
 21
899.62373000000002
  0
ARC
  8
_0-8_小物
  6
CONTINUOUS
 62
    7
 10
228.43759750000004
 20
899.68146000000002
 40
0.4
 50
351.701533999996
 51
81.869897999979969
  0
LINE
  8
_0-8_小物
  6
CONTINUOUS
 62
    7
 10
228.49416250000002
 20
900.07744000000002
 11
228.29733750000003
 21
900.10555999999997
  0
ARC
  8
_0-8_小物
  6
CONTINUOUS
 62
    7
 10
228.24077250000005
 20
899.70957999999996
 40
0.4
 50
81.869897999979997
 51
171.86989800000001
  0
LINE
  8
_0-8_小物
  6
CONTINUOUS
 62
    7
 10
227.84479250000004
 20
899.76614500000005
 11
226.90135750000002
 21
893.16212500000006
  0
LINE
  8
_0-8_小物
  6
CONTINUOUS
 62
    7
 10
215.20385250000004
 20
892.82010500000001
 11
214.21149749999995
 21
899.62373000000002
  0
ARC
  8
_0-8_小物
  6
CONTINUOUS
 62
    7
 10
214.60730749999993
 20
899.68146000000002
 40
0.4
 50
98.130101999960004
 51
188.29846599999999
  0
LINE
  8
_0-8_小物
  6
CONTINUOUS
 62
    7
 10
214.55073749999997
 20
900.07744000000002
 11
214.74756249999996
 21
900.10555999999997
  0
ARC
  8
_0-8_小物
  6
CONTINUOUS
 62
    7
 10
214.80413249999992
 20
899.70957999999996
 40
0.4
 50
8.130101999991
 51
98.130101999960033
  0
LINE
  8
_0-8_小物
  6
CONTINUOUS
 62
    7
 10
215.20011249999993
 20
899.76614500000005
 11
216.14354249999997
 21
893.16212500000006
  0
LINE
  8
_0-8_小物
  6
CONTINUOUS
 62
    7
 10
215.20385250000004
 20
892.82010500000001
 11
214.21149749999995
 21
899.62373000000002
  0
ARC
  8
_0-8_小物
  6
CONTINUOUS
 62
    7
 10
214.60730749999993
 20
899.68146000000002
 40
0.4
 50
98.130101999960004
 51
188.29846599999999
  0
LINE
  8
_0-8_小物
  6
CONTINUOUS
 62
    7
 10
214.55073749999997
 20
900.07744000000002
 11
214.74756249999996
 21
900.10555999999997
  0
ARC
  8
_0-8_小物
  6
CONTINUOUS
 62
    7
 10
214.80413249999992
 20
899.70957999999996
 40
0.4
 50
8.130101999991
 51
98.130101999960033
  0
LINE
  8
_0-8_小物
  6
CONTINUOUS
 62
    7
 10
215.20011249999993
 20
899.76614500000005
 11
216.14354249999997
 21
893.16212500000006
  0
LINE
  8
_0-8_小物
  6
CONTINUOUS
 62
    7
 10
216.52245249999999
 20
907.96250499999996
 11
217.52245249999999
 21
902.96250499999996
  0
LINE
  8
_0-8_小物
  6
CONTINUOUS
 62
    7
 10
217.52245249999999
 20
907.96250499999996
 11
217.52245249999999
 21
899.96250499999996
  0
LINE
  8
_0-8_小物
  6
CONTINUOUS
 62
    7
 10
221.02245249999999
 20
899.96250499999996
 11
221.52245249999999
 21
899.96250499999996
  0
LINE
  8
_0-8_小物
  6
CONTINUOUS
 62
    7
 10
221.52245249999999
 20
902.96250499999996
 11
221.52245249999999
 21
907.96250499999996
  0
LINE
  8
_0-8_小物
  6
CONTINUOUS
 62
    7
 10
220.52245249999999
 20
907.96250499999996
 11
221.52245249999999
 21
902.96250499999996
  0
LINE
  8
_0-8_小物
  6
CONTINUOUS
 62
    7
 10
222.52245249999999
 20
907.96250499999996
 11
221.52245249999999
 21
902.96250499999996
  0
LINE
  8
_0-8_小物
  6
CONTINUOUS
 62
    7
 10
226.52245249999999
 20
907.96250499999996
 11
225.52245249999999
 21
902.96250499999996
  0
LINE
  8
_0-8_小物
  6
CONTINUOUS
 62
    7
 10
225.52245249999999
 20
907.96250499999996
 11
225.52245249999999
 21
899.96250499999996
  0
LINE
  8
_0-8_小物
  6
CONTINUOUS
 62
    7
 10
222.02245249999999
 20
899.96250499999996
 11
221.52245249999999
 21
899.96250499999996
  0
ARC
  8
_0-8_小物
  6
CONTINUOUS
 62
    7
 10
220.01968749999992
 20
912.83379500000001
 40
3
 50
128.61463800000001
 51
177.54107400000001
  0
ARC
  8
_0-8_小物
  6
CONTINUOUS
 62
    7
 10
221.52245249999999
 20
910.96250499999996
 40
5.4000000000000004
 50
90
 51
128.682187
  0
ARC
  8
_0-8_小物
  6
CONTINUOUS
 62
    7
 10
221.52245249999999
 20
910.96250499999996
 40
5.4000000000000004
 50
51.148938000000001
 51
90
  0
ARC
  8
_0-8_小物
  6
CONTINUOUS
 62
    7
 10
223.02521249999995
 20
912.83379500000001
 40
3
 50
2.458925999996
 51
51.38536199999001
  0
LINE
  8
_0-8_小物
  6
CONTINUOUS
 62
    7
 10
230.52245249999999
 20
912.96250499999996
 11
212.52245249999999
 21
912.96250499999996
  0
LINE
  8
_0-8_小物
  6
CONTINUOUS
 62
    7
 10
212.52245249999999
 20
912.96250499999996
 11
212.52245249999999
 21
911.46250499999996
  0
LINE
  8
_0-8_小物
  6
CONTINUOUS
 62
    7
 10
230.52245249999999
 20
912.96250499999996
 11
230.52245249999999
 21
911.46250499999996
  0
LINE
  8
_0-8_小物
  6
CONTINUOUS
 62
    7
 10
631.52245249999999
 20
864.27877000000012
 11
631.52245249999999
 21
918.00141499999995
  0
LINE
  8
_0-8_小物
  6
CONTINUOUS
 62
    7
 10
636.93072749999999
 20
873.18268499999999
 11
637.03539749999993
 21
871.18542500000012
  0
LINE
  8
_0-8_小物
  6
CONTINUOUS
 62
    7
 10
636.77371749999998
 20
876.17857000000004
 11
634.82879249999996
 21
875.07527000000005
  0
LINE
  8
_0-8_小物
  6
CONTINUOUS
 62
    7
 10
634.82879249999996
 20
875.07527000000005
 11
634.93346750000001
 21
873.07800999999995
  0
LINE
  8
_0-8_小物
  6
CONTINUOUS
 62
    7
 10
634.93346750000001
 20
873.07800999999995
 11
636.93072749999999
 21
873.18268499999999
  0
LINE
  8
_0-8_小物
  6
CONTINUOUS
 62
    7
 10
636.66904750000003
 20
878.17583000000013
 11
636.77371749999998
 21
876.17857000000004
  0
LINE
  8
_0-8_小物
  6
CONTINUOUS
 62
    7
 10
636.51203750000002
 20
881.17172000000005
 11
634.56711250000001
 21
880.06842000000006
  0
LINE
  8
_0-8_小物
  6
CONTINUOUS
 62
    7
 10
634.56711250000001
 20
880.06842000000006
 11
634.67178749999994
 21
878.07115999999996
  0
LINE
  8
_0-8_小物
  6
CONTINUOUS
 62
    7
 10
634.67178749999994
 20
878.07115999999996
 11
636.66904750000003
 21
878.17583000000013
  0
LINE
  8
_0-8_小物
  6
CONTINUOUS
 62
    7
 10
636.40736749999996
 20
883.16897999999992
 11
636.51203750000002
 21
881.17172000000005
  0
LINE
  8
_0-8_小物
  6
CONTINUOUS
 62
    7
 10
636.25035749999995
 20
886.16487000000006
 11
634.30543750000004
 21
885.06156499999997
  0
LINE
  8
_0-8_小物
  6
CONTINUOUS
 62
    7
 10
634.30543750000004
 20
885.06156499999997
 11
634.41010749999998
 21
883.0643050000001
  0
LINE
  8
_0-8_小物
  6
CONTINUOUS
 62
    7
 10
634.41010749999998
 20
883.0643050000001
 11
636.40736749999996
 21
883.16897999999992
  0
LINE
  8
_0-8_小物
  6
CONTINUOUS
 62
    7
 10
636.14568750000001
 20
888.16212500000006
 11
636.25035749999995
 21
886.16487000000006
  0
LINE
  8
_0-8_小物
  6
CONTINUOUS
 62
    7
 10
635.98867749999999
 20
891.15801499999998
 11
634.04375749999997
 21
890.05471499999999
  0
LINE
  8
_0-8_小物
  6
CONTINUOUS
 62
    7
 10
634.04375749999997
 20
890.05471499999999
 11
634.14842750000003
 21
888.05745500000012
  0
LINE
  8
_0-8_小物
  6
CONTINUOUS
 62
    7
 10
634.14842750000003
 20
888.05745500000012
 11
636.14568750000001
 21
888.16212500000006
  0
LINE
  8
_0-8_小物
  6
CONTINUOUS
 62
    7
 10
635.88400749999994
 20
893.15527500000007
 11
635.98867749999999
 21
891.15801499999998
  0
LINE
  8
_0-8_小物
  6
CONTINUOUS
 62
    7
 10
633.78207750000001
 20
895.04786000000013
 11
633.88674749999996
 21
893.05060000000003
  0
LINE
  8
_0-8_小物
  6
CONTINUOUS
 62
    7
 10
633.88674749999996
 20
893.05060000000003
 11
635.88400749999994
 21
893.15527500000007
  0
LINE
  8
_0-8_小物
  6
CONTINUOUS
 62
    7
 10
635.52245249999999
 20
895.96250499999996
 11
633.78207750000001
 21
895.04786000000013
  0
LINE
  8
_0-8_小物
  6
CONTINUOUS
 62
    7
 10
626.11417749999998
 20
873.18268499999999
 11
626.00950750000004
 21
871.18542500000012
  0
LINE
  8
_0-8_小物
  6
CONTINUOUS
 62
    7
 10
626.2711875
 20
876.17857000000004
 11
628.21610750000002
 21
875.07527000000005
  0
LINE
  8
_0-8_小物
  6
CONTINUOUS
 62
    7
 10
628.21610750000002
 20
875.07527000000005
 11
628.11143749999997
 21
873.07800999999995
  0
LINE
  8
_0-8_小物
  6
CONTINUOUS
 62
    7
 10
628.11143749999997
 20
873.07800999999995
 11
626.11417749999998
 21
873.18268499999999
  0
LINE
  8
_0-8_小物
  6
CONTINUOUS
 62
    7
 10
626.37585749999994
 20
878.17583000000013
 11
626.2711875
 21
876.17857000000004
  0
LINE
  8
_0-8_小物
  6
CONTINUOUS
 62
    7
 10
626.53286749999995
 20
881.17172000000005
 11
628.47778749999998
 21
880.06842000000006
  0
LINE
  8
_0-8_小物
  6
CONTINUOUS
 62
    7
 10
628.47778749999998
 20
880.06842000000006
 11
628.37311750000003
 21
878.07115999999996
  0
LINE
  8
_0-8_小物
  6
CONTINUOUS
 62
    7
 10
628.37311750000003
 20
878.07115999999996
 11
626.37585749999994
 21
878.17583000000013
  0
LINE
  8
_0-8_小物
  6
CONTINUOUS
 62
    7
 10
626.63753750000001
 20
883.16897999999992
 11
626.53286749999995
 21
881.17172000000005
  0
LINE
  8
_0-8_小物
  6
CONTINUOUS
 62
    7
 10
626.79454250000003
 20
886.16487000000006
 11
628.73946749999993
 21
885.06156499999997
  0
LINE
  8
_0-8_小物
  6
CONTINUOUS
 62
    7
 10
628.73946749999993
 20
885.06156499999997
 11
628.63479749999999
 21
883.0643050000001
  0
LINE
  8
_0-8_小物
  6
CONTINUOUS
 62
    7
 10
628.63479749999999
 20
883.0643050000001
 11
626.63753750000001
 21
883.16897999999992
  0
LINE
  8
_0-8_小物
  6
CONTINUOUS
 62
    7
 10
626.89921749999996
 20
888.16212500000006
 11
626.79454250000003
 21
886.16487000000006
  0
LINE
  8
_0-8_小物
  6
CONTINUOUS
 62
    7
 10
627.05622249999999
 20
891.15801499999998
 11
629.0011475
 21
890.05471499999999
  0
LINE
  8
_0-8_小物
  6
CONTINUOUS
 62
    7
 10
629.0011475
 20
890.05471499999999
 11
628.89647749999995
 21
888.05745500000012
  0
LINE
  8
_0-8_小物
  6
CONTINUOUS
 62
    7
 10
628.89647749999995
 20
888.05745500000012
 11
626.89921749999996
 21
888.16212500000006
  0
LINE
  8
_0-8_小物
  6
CONTINUOUS
 62
    7
 10
627.16089750000003
 20
893.15527500000007
 11
627.05622249999999
 21
891.15801499999998
  0
LINE
  8
_0-8_小物
  6
CONTINUOUS
 62
    7
 10
629.26282749999996
 20
895.04786000000013
 11
629.15815750000002
 21
893.05060000000003
  0
LINE
  8
_0-8_小物
  6
CONTINUOUS
 62
    7
 10
629.15815750000002
 20
893.05060000000003
 11
627.16089750000003
 21
893.15527500000007
  0
LINE
  8
_0-8_小物
  6
CONTINUOUS
 62
    7
 10
631.46314749999999
 20
872.02180999999996
 11
633.39684750000004
 21
873.73748000000001
  0
LINE
  8
_0-8_小物
  6
CONTINUOUS
 62
    7
 10
629.65300749999994
 20
873.83195000000001
 11
631.52245249999999
 21
871.96250499999996
  0
LINE
  8
_0-8_小物
  6
CONTINUOUS
 62
    7
 10
627.52245249999999
 20
895.96250499999996
 11
629.26282749999996
 21
895.04786000000013
  0
LINE
  8
_0-8_小物
  6
CONTINUOUS
 62
    7
 10
636.14568750000001
 20
888.16212500000006
 11
637.84105249999993
 21
892.82010500000001
  0
LINE
  8
_0-8_小物
  6
CONTINUOUS
 62
    7
 10
626.89921749999996
 20
888.16212500000006
 11
625.20385250000004
 21
892.82010500000001
  0
LINE
  8
_0-8_小物
  6
CONTINUOUS
 62
    7
 10
633.54019249999999
 20
871.00225
 11
637.03539749999993
 21
871.18542500000012
  0
LINE
  8
_0-8_小物
  6
CONTINUOUS
 62
    7
 10
637.03539749999993
 20
871.18542500000012
 11
635.14281249999999
 21
869.08349500000008
  0
LINE
  8
_0-8_小物
  6
CONTINUOUS
 62
    7
 10
635.14281249999999
 20
869.08349500000008
 11
633.64486750000003
 21
869.00499000000013
  0
LINE
  8
_0-8_小物
  6
CONTINUOUS
 62
    7
 10
633.64486750000003
 20
869.00499000000013
 11
632.02245249999999
 21
899.96250499999996
  0
LINE
  8
_0-8_小物
  6
CONTINUOUS
 62
    7
 10
635.52245249999999
 20
895.96250499999996
 11
635.52245249999999
 21
899.96250499999996
  0
LINE
  8
_0-8_小物
  6
CONTINUOUS
 62
    7
 10
629.50470749999999
 20
871.00225
 11
626.00950750000004
 21
871.18542500000012
  0
LINE
  8
_0-8_小物
  6
CONTINUOUS
 62
    7
 10
626.00950750000004
 20
871.18542500000012
 11
627.90209249999998
 21
869.08349500000008
  0
LINE
  8
_0-8_小物
  6
CONTINUOUS
 62
    7
 10
627.90209249999998
 20
869.08349500000008
 11
629.40003749999994
 21
869.00499000000013
  0
LINE
  8
_0-8_小物
  6
CONTINUOUS
 62
    7
 10
629.40003749999994
 20
869.00499000000013
 11
631.02245249999999
 21
899.96250499999996
  0
LINE
  8
_0-8_小物
  6
CONTINUOUS
 62
    7
 10
627.52245249999999
 20
895.96250499999996
 11
627.52245249999999
 21
899.96250499999996
  0
LINE
  8
_0-8_小物
  6
CONTINUOUS
 62
    7
 10
625.20385250000004
 20
892.82010500000001
 11
624.21149749999995
 21
899.62373000000002
  0
ARC
  8
_0-8_小物
  6
CONTINUOUS
 62
    7
 10
624.60730749999993
 20
899.68146000000002
 40
0.4
 50
98.130101999990003
 51
188.29846599999999
  0
LINE
  8
_0-8_小物
  6
CONTINUOUS
 62
    7
 10
624.55073749999997
 20
900.07744000000002
 11
624.74756249999996
 21
900.10555999999997
  0
ARC
  8
_0-8_小物
  6
CONTINUOUS
 62
    7
 10
624.80413250000004
 20
899.70957999999996
 40
0.4
 50
8.1301019999549986
 51
98.130101999989989
  0
LINE
  8
_0-8_小物
  6
CONTINUOUS
 62
    7
 10
625.20011249999993
 20
899.76614500000005
 11
626.14354249999997
 21
893.16212500000006
  0
LINE
  8
_0-8_小物
  6
CONTINUOUS
 62
    7
 10
637.84105249999993
 20
892.82010500000001
 11
638.83340750000002
 21
899.62373000000002
  0
ARC
  8
_0-8_小物
  6
CONTINUOUS
 62
    7
 10
638.43759750000004
 20
899.68146000000002
 40
0.4
 50
351.70153399999401
 51
81.869898000009982
  0
LINE
  8
_0-8_小物
  6
CONTINUOUS
 62
    7
 10
638.49416250000002
 20
900.07744000000002
 11
638.29733750000003
 21
900.10555999999997
  0
ARC
  8
_0-8_小物
  6
CONTINUOUS
 62
    7
 10
638.24077249999993
 20
899.70957999999996
 40
0.4
 50
81.869898000009982
 51
171.86989800000001
  0
LINE
  8
_0-8_小物
  6
CONTINUOUS
 62
    7
 10
637.84479250000004
 20
899.76614500000005
 11
636.90135750000002
 21
893.16212500000006
  0
LINE
  8
_0-8_小物
  6
CONTINUOUS
 62
    7
 10
637.84105249999993
 20
892.82010500000001
 11
638.83340750000002
 21
899.62373000000002
  0
ARC
  8
_0-8_小物
  6
CONTINUOUS
 62
    7
 10
638.43759750000004
 20
899.68146000000002
 40
0.4
 50
351.70153399999401
 51
81.869898000009982
  0
LINE
  8
_0-8_小物
  6
CONTINUOUS
 62
    7
 10
638.49416250000002
 20
900.07744000000002
 11
638.29733750000003
 21
900.10555999999997
  0
ARC
  8
_0-8_小物
  6
CONTINUOUS
 62
    7
 10
638.24077249999993
 20
899.70957999999996
 40
0.4
 50
81.869898000009982
 51
171.86989800000001
  0
LINE
  8
_0-8_小物
  6
CONTINUOUS
 62
    7
 10
637.84479250000004
 20
899.76614500000005
 11
636.90135750000002
 21
893.16212500000006
  0
LINE
  8
_0-8_小物
  6
CONTINUOUS
 62
    7
 10
636.52245249999999
 20
907.96250499999996
 11
635.52245249999999
 21
902.96250499999996
  0
LINE
  8
_0-8_小物
  6
CONTINUOUS
 62
    7
 10
635.52245249999999
 20
907.96250499999996
 11
635.52245249999999
 21
899.96250499999996
  0
LINE
  8
_0-8_小物
  6
CONTINUOUS
 62
    7
 10
632.02245249999999
 20
899.96250499999996
 11
631.52245249999999
 21
899.96250499999996
  0
LINE
  8
_0-8_小物
  6
CONTINUOUS
 62
    7
 10
631.52245249999999
 20
902.96250499999996
 11
631.52245249999999
 21
907.96250499999996
  0
LINE
  8
_0-8_小物
  6
CONTINUOUS
 62
    7
 10
632.52245249999999
 20
907.96250499999996
 11
631.52245249999999
 21
902.96250499999996
  0
LINE
  8
_0-8_小物
  6
CONTINUOUS
 62
    7
 10
630.52245249999999
 20
907.96250499999996
 11
631.52245249999999
 21
902.96250499999996
  0
LINE
  8
_0-8_小物
  6
CONTINUOUS
 62
    7
 10
626.52245249999999
 20
907.96250499999996
 11
627.52245249999999
 21
902.96250499999996
  0
LINE
  8
_0-8_小物
  6
CONTINUOUS
 62
    7
 10
627.52245249999999
 20
907.96250499999996
 11
627.52245249999999
 21
899.96250499999996
  0
LINE
  8
_0-8_小物
  6
CONTINUOUS
 62
    7
 10
631.02245249999999
 20
899.96250499999996
 11
631.52245249999999
 21
899.96250499999996
  0
ARC
  8
_0-8_小物
  6
CONTINUOUS
 62
    7
 10
633.02521249999995
 20
912.83379500000001
 40
3
 50
2.458925999996
 51
51.38536199999001
  0
ARC
  8
_0-8_小物
  6
CONTINUOUS
 62
    7
 10
631.52245249999999
 20
910.96250499999996
 40
5.4000000000000004
 50
51.317813000000001
 51
90
  0
ARC
  8
_0-8_小物
  6
CONTINUOUS
 62
    7
 10
631.52245249999999
 20
910.96250499999996
 40
5.4000000000000004
 50
90
 51
128.85106200000001
  0
ARC
  8
_0-8_小物
  6
CONTINUOUS
 62
    7
 10
630.01968750000003
 20
912.83379500000001
 40
3
 50
128.61463800000001
 51
177.54107400000001
  0
LINE
  8
_0-8_小物
  6
CONTINUOUS
 62
    7
 10
622.52245249999999
 20
912.96250499999996
 11
640.52245249999999
 21
912.96250499999996
  0
LINE
  8
_0-8_小物
  6
CONTINUOUS
 62
    7
 10
640.52245249999999
 20
912.96250499999996
 11
640.52245249999999
 21
911.46250499999996
  0
LINE
  8
_0-8_小物
  6
CONTINUOUS
 62
    7
 10
622.52245249999999
 20
912.96250499999996
 11
622.52245249999999
 21
911.46250499999996
  0
LINE
  8
_0-8_小物
  6
CONTINUOUS
 62
    7
 10
671.52245249999999
 20
864.27877000000012
 11
671.52245249999999
 21
918.00141499999995
  0
LINE
  8
_0-8_小物
  6
CONTINUOUS
 62
    7
 10
676.93072749999999
 20
873.18268499999999
 11
677.03539749999993
 21
871.18542500000012
  0
LINE
  8
_0-8_小物
  6
CONTINUOUS
 62
    7
 10
676.77371749999998
 20
876.17857000000004
 11
674.82879249999996
 21
875.07527000000005
  0
LINE
  8
_0-8_小物
  6
CONTINUOUS
 62
    7
 10
674.82879249999996
 20
875.07527000000005
 11
674.93346750000001
 21
873.07800999999995
  0
LINE
  8
_0-8_小物
  6
CONTINUOUS
 62
    7
 10
674.93346750000001
 20
873.07800999999995
 11
676.93072749999999
 21
873.18268499999999
  0
LINE
  8
_0-8_小物
  6
CONTINUOUS
 62
    7
 10
676.66904750000003
 20
878.17583000000013
 11
676.77371749999998
 21
876.17857000000004
  0
LINE
  8
_0-8_小物
  6
CONTINUOUS
 62
    7
 10
676.51203750000002
 20
881.17172000000005
 11
674.56711250000001
 21
880.06842000000006
  0
LINE
  8
_0-8_小物
  6
CONTINUOUS
 62
    7
 10
674.56711250000001
 20
880.06842000000006
 11
674.67178749999994
 21
878.07115999999996
  0
LINE
  8
_0-8_小物
  6
CONTINUOUS
 62
    7
 10
674.67178749999994
 20
878.07115999999996
 11
676.66904750000003
 21
878.17583000000013
  0
LINE
  8
_0-8_小物
  6
CONTINUOUS
 62
    7
 10
676.40736749999996
 20
883.16897999999992
 11
676.51203750000002
 21
881.17172000000005
  0
LINE
  8
_0-8_小物
  6
CONTINUOUS
 62
    7
 10
676.25035749999995
 20
886.16487000000006
 11
674.30543750000004
 21
885.06156499999997
  0
LINE
  8
_0-8_小物
  6
CONTINUOUS
 62
    7
 10
674.30543750000004
 20
885.06156499999997
 11
674.41010749999998
 21
883.0643050000001
  0
LINE
  8
_0-8_小物
  6
CONTINUOUS
 62
    7
 10
674.41010749999998
 20
883.0643050000001
 11
676.40736749999996
 21
883.16897999999992
  0
LINE
  8
_0-8_小物
  6
CONTINUOUS
 62
    7
 10
676.14568750000001
 20
888.16212500000006
 11
676.25035749999995
 21
886.16487000000006
  0
LINE
  8
_0-8_小物
  6
CONTINUOUS
 62
    7
 10
675.98867749999999
 20
891.15801499999998
 11
674.04375749999997
 21
890.05471499999999
  0
LINE
  8
_0-8_小物
  6
CONTINUOUS
 62
    7
 10
674.04375749999997
 20
890.05471499999999
 11
674.14842750000003
 21
888.05745500000012
  0
LINE
  8
_0-8_小物
  6
CONTINUOUS
 62
    7
 10
674.14842750000003
 20
888.05745500000012
 11
676.14568750000001
 21
888.16212500000006
  0
LINE
  8
_0-8_小物
  6
CONTINUOUS
 62
    7
 10
675.88400749999994
 20
893.15527500000007
 11
675.98867749999999
 21
891.15801499999998
  0
LINE
  8
_0-8_小物
  6
CONTINUOUS
 62
    7
 10
673.78207750000001
 20
895.04786000000013
 11
673.88674749999996
 21
893.05060000000003
  0
LINE
  8
_0-8_小物
  6
CONTINUOUS
 62
    7
 10
673.88674749999996
 20
893.05060000000003
 11
675.88400749999994
 21
893.15527500000007
  0
LINE
  8
_0-8_小物
  6
CONTINUOUS
 62
    7
 10
675.52245249999999
 20
895.96250499999996
 11
673.78207750000001
 21
895.04786000000013
  0
LINE
  8
_0-8_小物
  6
CONTINUOUS
 62
    7
 10
666.11417749999998
 20
873.18268499999999
 11
666.00950750000004
 21
871.18542500000012
  0
LINE
  8
_0-8_小物
  6
CONTINUOUS
 62
    7
 10
666.2711875
 20
876.17857000000004
 11
668.21610750000002
 21
875.07527000000005
  0
LINE
  8
_0-8_小物
  6
CONTINUOUS
 62
    7
 10
668.21610750000002
 20
875.07527000000005
 11
668.11143749999997
 21
873.07800999999995
  0
LINE
  8
_0-8_小物
  6
CONTINUOUS
 62
    7
 10
668.11143749999997
 20
873.07800999999995
 11
666.11417749999998
 21
873.18268499999999
  0
LINE
  8
_0-8_小物
  6
CONTINUOUS
 62
    7
 10
666.37585749999994
 20
878.17583000000013
 11
666.2711875
 21
876.17857000000004
  0
LINE
  8
_0-8_小物
  6
CONTINUOUS
 62
    7
 10
666.53286749999995
 20
881.17172000000005
 11
668.47778749999998
 21
880.06842000000006
  0
LINE
  8
_0-8_小物
  6
CONTINUOUS
 62
    7
 10
668.47778749999998
 20
880.06842000000006
 11
668.37311750000003
 21
878.07115999999996
  0
LINE
  8
_0-8_小物
  6
CONTINUOUS
 62
    7
 10
668.37311750000003
 20
878.07115999999996
 11
666.37585749999994
 21
878.17583000000013
  0
LINE
  8
_0-8_小物
  6
CONTINUOUS
 62
    7
 10
666.63753750000001
 20
883.16897999999992
 11
666.53286749999995
 21
881.17172000000005
  0
LINE
  8
_0-8_小物
  6
CONTINUOUS
 62
    7
 10
666.79454250000003
 20
886.16487000000006
 11
668.73946749999993
 21
885.06156499999997
  0
LINE
  8
_0-8_小物
  6
CONTINUOUS
 62
    7
 10
668.73946749999993
 20
885.06156499999997
 11
668.63479749999999
 21
883.0643050000001
  0
LINE
  8
_0-8_小物
  6
CONTINUOUS
 62
    7
 10
668.63479749999999
 20
883.0643050000001
 11
666.63753750000001
 21
883.16897999999992
  0
LINE
  8
_0-8_小物
  6
CONTINUOUS
 62
    7
 10
666.89921749999996
 20
888.16212500000006
 11
666.79454250000003
 21
886.16487000000006
  0
LINE
  8
_0-8_小物
  6
CONTINUOUS
 62
    7
 10
667.05622249999999
 20
891.15801499999998
 11
669.0011475
 21
890.05471499999999
  0
LINE
  8
_0-8_小物
  6
CONTINUOUS
 62
    7
 10
669.0011475
 20
890.05471499999999
 11
668.89647749999995
 21
888.05745500000012
  0
LINE
  8
_0-8_小物
  6
CONTINUOUS
 62
    7
 10
668.89647749999995
 20
888.05745500000012
 11
666.89921749999996
 21
888.16212500000006
  0
LINE
  8
_0-8_小物
  6
CONTINUOUS
 62
    7
 10
667.16089750000003
 20
893.15527500000007
 11
667.05622249999999
 21
891.15801499999998
  0
LINE
  8
_0-8_小物
  6
CONTINUOUS
 62
    7
 10
669.26282749999996
 20
895.04786000000013
 11
669.15815750000002
 21
893.05060000000003
  0
LINE
  8
_0-8_小物
  6
CONTINUOUS
 62
    7
 10
669.15815750000002
 20
893.05060000000003
 11
667.16089750000003
 21
893.15527500000007
  0
LINE
  8
_0-8_小物
  6
CONTINUOUS
 62
    7
 10
671.46314749999999
 20
872.02180999999996
 11
673.39684750000004
 21
873.73748000000001
  0
LINE
  8
_0-8_小物
  6
CONTINUOUS
 62
    7
 10
669.65300749999994
 20
873.83195000000001
 11
671.52245249999999
 21
871.96250499999996
  0
LINE
  8
_0-8_小物
  6
CONTINUOUS
 62
    7
 10
667.52245249999999
 20
895.96250499999996
 11
669.26282749999996
 21
895.04786000000013
  0
LINE
  8
_0-8_小物
  6
CONTINUOUS
 62
    7
 10
676.14568750000001
 20
888.16212500000006
 11
677.84105249999993
 21
892.82010500000001
  0
LINE
  8
_0-8_小物
  6
CONTINUOUS
 62
    7
 10
666.89921749999996
 20
888.16212500000006
 11
665.20385250000004
 21
892.82010500000001
  0
LINE
  8
_0-8_小物
  6
CONTINUOUS
 62
    7
 10
673.54019249999999
 20
871.00225
 11
677.03539749999993
 21
871.18542500000012
  0
LINE
  8
_0-8_小物
  6
CONTINUOUS
 62
    7
 10
677.03539749999993
 20
871.18542500000012
 11
675.14281249999999
 21
869.08349500000008
  0
LINE
  8
_0-8_小物
  6
CONTINUOUS
 62
    7
 10
675.14281249999999
 20
869.08349500000008
 11
673.64486750000003
 21
869.00499000000013
  0
LINE
  8
_0-8_小物
  6
CONTINUOUS
 62
    7
 10
673.64486750000003
 20
869.00499000000013
 11
672.02245249999999
 21
899.96250499999996
  0
LINE
  8
_0-8_小物
  6
CONTINUOUS
 62
    7
 10
675.52245249999999
 20
895.96250499999996
 11
675.52245249999999
 21
899.96250499999996
  0
LINE
  8
_0-8_小物
  6
CONTINUOUS
 62
    7
 10
669.50470749999999
 20
871.00225
 11
666.00950750000004
 21
871.18542500000012
  0
LINE
  8
_0-8_小物
  6
CONTINUOUS
 62
    7
 10
666.00950750000004
 20
871.18542500000012
 11
667.90209249999998
 21
869.08349500000008
  0
LINE
  8
_0-8_小物
  6
CONTINUOUS
 62
    7
 10
667.90209249999998
 20
869.08349500000008
 11
669.40003749999994
 21
869.00499000000013
  0
LINE
  8
_0-8_小物
  6
CONTINUOUS
 62
    7
 10
669.40003749999994
 20
869.00499000000013
 11
671.02245249999999
 21
899.96250499999996
  0
LINE
  8
_0-8_小物
  6
CONTINUOUS
 62
    7
 10
667.52245249999999
 20
895.96250499999996
 11
667.52245249999999
 21
899.96250499999996
  0
LINE
  8
_0-8_小物
  6
CONTINUOUS
 62
    7
 10
665.20385250000004
 20
892.82010500000001
 11
664.21149749999995
 21
899.62373000000002
  0
ARC
  8
_0-8_小物
  6
CONTINUOUS
 62
    7
 10
664.60730749999993
 20
899.68146000000002
 40
0.4
 50
98.130101999960004
 51
188.29846599999999
  0
LINE
  8
_0-8_小物
  6
CONTINUOUS
 62
    7
 10
664.55073749999997
 20
900.07744000000002
 11
664.74756249999996
 21
900.10555999999997
  0
ARC
  8
_0-8_小物
  6
CONTINUOUS
 62
    7
 10
664.80413250000004
 20
899.70957999999996
 40
0.4
 50
8.1301019999549986
 51
98.130101999989989
  0
LINE
  8
_0-8_小物
  6
CONTINUOUS
 62
    7
 10
665.20011249999993
 20
899.76614500000005
 11
666.14354249999997
 21
893.16212500000006
  0
LINE
  8
_0-8_小物
  6
CONTINUOUS
 62
    7
 10
677.84105249999993
 20
892.82010500000001
 11
678.83340750000002
 21
899.62373000000002
  0
ARC
  8
_0-8_小物
  6
CONTINUOUS
 62
    7
 10
678.43759750000004
 20
899.68146000000002
 40
0.4
 50
351.70153399999901
 51
81.869898000009968
  0
LINE
  8
_0-8_小物
  6
CONTINUOUS
 62
    7
 10
678.49416250000002
 20
900.07744000000002
 11
678.29733750000003
 21
900.10555999999997
  0
ARC
  8
_0-8_小物
  6
CONTINUOUS
 62
    7
 10
678.24077249999993
 20
899.70957999999996
 40
0.4
 50
81.869898000009982
 51
171.86989800000001
  0
LINE
  8
_0-8_小物
  6
CONTINUOUS
 62
    7
 10
677.84479250000004
 20
899.76614500000005
 11
676.90135750000002
 21
893.16212500000006
  0
LINE
  8
_0-8_小物
  6
CONTINUOUS
 62
    7
 10
677.84105249999993
 20
892.82010500000001
 11
678.83340750000002
 21
899.62373000000002
  0
ARC
  8
_0-8_小物
  6
CONTINUOUS
 62
    7
 10
678.43759750000004
 20
899.68146000000002
 40
0.4
 50
351.70153399999901
 51
81.869898000009968
  0
LINE
  8
_0-8_小物
  6
CONTINUOUS
 62
    7
 10
678.49416250000002
 20
900.07744000000002
 11
678.29733750000003
 21
900.10555999999997
  0
ARC
  8
_0-8_小物
  6
CONTINUOUS
 62
    7
 10
678.24077249999993
 20
899.70957999999996
 40
0.4
 50
81.869898000009982
 51
171.86989800000001
  0
LINE
  8
_0-8_小物
  6
CONTINUOUS
 62
    7
 10
677.84479250000004
 20
899.76614500000005
 11
676.90135750000002
 21
893.16212500000006
  0
LINE
  8
_0-8_小物
  6
CONTINUOUS
 62
    7
 10
676.52245249999999
 20
907.96250499999996
 11
675.52245249999999
 21
902.96250499999996
  0
LINE
  8
_0-8_小物
  6
CONTINUOUS
 62
    7
 10
675.52245249999999
 20
907.96250499999996
 11
675.52245249999999
 21
899.96250499999996
  0
LINE
  8
_0-8_小物
  6
CONTINUOUS
 62
    7
 10
672.02245249999999
 20
899.96250499999996
 11
671.52245249999999
 21
899.96250499999996
  0
LINE
  8
_0-8_小物
  6
CONTINUOUS
 62
    7
 10
671.52245249999999
 20
902.96250499999996
 11
671.52245249999999
 21
907.96250499999996
  0
LINE
  8
_0-8_小物
  6
CONTINUOUS
 62
    7
 10
672.52245249999999
 20
907.96250499999996
 11
671.52245249999999
 21
902.96250499999996
  0
LINE
  8
_0-8_小物
  6
CONTINUOUS
 62
    7
 10
670.52245249999999
 20
907.96250499999996
 11
671.52245249999999
 21
902.96250499999996
  0
LINE
  8
_0-8_小物
  6
CONTINUOUS
 62
    7
 10
666.52245249999999
 20
907.96250499999996
 11
667.52245249999999
 21
902.96250499999996
  0
LINE
  8
_0-8_小物
  6
CONTINUOUS
 62
    7
 10
667.52245249999999
 20
907.96250499999996
 11
667.52245249999999
 21
899.96250499999996
  0
LINE
  8
_0-8_小物
  6
CONTINUOUS
 62
    7
 10
671.02245249999999
 20
899.96250499999996
 11
671.52245249999999
 21
899.96250499999996
  0
ARC
  8
_0-8_小物
  6
CONTINUOUS
 62
    7
 10
673.02521249999995
 20
912.83379500000001
 40
3
 50
2.458925999996
 51
51.385362000000001
  0
ARC
  8
_0-8_小物
  6
CONTINUOUS
 62
    7
 10
671.52245249999999
 20
910.96250499999996
 40
5.4000000000000004
 50
51.317813000000001
 51
90
  0
ARC
  8
_0-8_小物
  6
CONTINUOUS
 62
    7
 10
671.52245249999999
 20
910.96250499999996
 40
5.4000000000000004
 50
90
 51
128.85106200000001
  0
ARC
  8
_0-8_小物
  6
CONTINUOUS
 62
    7
 10
670.01968750000003
 20
912.83379500000001
 40
3
 50
128.61463800000001
 51
177.54107400000001
  0
LINE
  8
_0-8_小物
  6
CONTINUOUS
 62
    7
 10
662.52245249999999
 20
912.96250499999996
 11
680.52245249999999
 21
912.96250499999996
  0
LINE
  8
_0-8_小物
  6
CONTINUOUS
 62
    7
 10
680.52245249999999
 20
912.96250499999996
 11
680.52245249999999
 21
911.46250499999996
  0
LINE
  8
_0-8_小物
  6
CONTINUOUS
 62
    7
 10
662.52245249999999
 20
912.96250499999996
 11
662.52245249999999
 21
911.46250499999996
  0
LINE
  8
_0-8_小物
  6
CONTINUOUS
 62
    7
 10
259.26282749999996
 20
895.04786000000013
 11
259.15815750000002
 21
893.05060000000003
  0
LINE
  8
_0-8_小物
  6
CONTINUOUS
 62
    7
 10
259.15815750000002
 20
893.05060000000003
 11
257.16089749999992
 21
893.15527500000007
  0
LINE
  8
_0-8_小物
  6
CONTINUOUS
 62
    7
 10
225.06081407980002
 20
888.10527025860006
 11
226.90135750000002
 21
893.16212500000006
  0
LINE
  8
_0-8_小物
  6
CONTINUOUS
 62
    7
 10
257.98408582299999
 20
888.10527052570001
 11
256.14354249999997
 21
893.16212500000006
  0
LINE
  8
_0-8_小物
  6
CONTINUOUS
 62
    7
 10
265.06081407980002
 20
888.10527025860006
 11
266.90135750000002
 21
893.16212500000006
  0
LINE
  8
_0-8_小物
  6
CONTINUOUS
 62
    7
 10
627.98408582299999
 20
888.10527052570001
 11
626.14354249999997
 21
893.16212500000006
  0
LINE
  8
_0-8_小物
  6
CONTINUOUS
 62
    7
 10
635.06081407980002
 20
888.10527025860006
 11
636.90135750000002
 21
893.16212500000006
  0
LINE
  8
_0-8_小物
  6
CONTINUOUS
 62
    7
 10
667.98408582299999
 20
888.10527052570001
 11
666.14354249999997
 21
893.16212500000006
  0
LINE
  8
_0-8_小物
  6
CONTINUOUS
 62
    7
 10
675.06081407980002
 20
888.10527025860006
 11
676.90135750000002
 21
893.16212500000006
  0
LINE
  8
_0-3_躯体
  6
CONTINUOUS
 62
    7
 10
706.52245249999999
 20
932.46250499999996
 11
660.92098750000002
 21
932.46250499999996
  0
LINE
  8
_0-8_小物
  6
CONTINUOUS
 62
    7
 10
261.58175749999998
 20
864.22614999999996
 11
261.58175749999998
 21
917.94879500000002
  0
LINE
  8
_0-4_フレ_ム
  6
HIDDEN
 62
    7
 10
254.02245249999999
 20
911.46250499999996
 11
254.02245249999999
 21
909.46250499999996
  0
LINE
  8
_0-4_フレ_ム
  6
HIDDEN
 62
    7
 10
269.02245249999999
 20
911.46250499999996
 11
269.02245249999999
 21
909.46250499999996
  0
LINE
  8
_0-4_フレ_ム
  6
HIDDEN
 62
    7
 10
214.02245249999999
 20
911.46250499999996
 11
214.02245249999999
 21
909.46250499999996
  0
LINE
  8
_0-4_フレ_ム
  6
HIDDEN
 62
    7
 10
229.02245249999999
 20
911.46250499999996
 11
229.02245249999999
 21
909.46250499999996
  0
LINE
  8
_0-3_躯体
  6
HIDDEN
 62
    7
 10
706.52245249999999
 20
932.46250499999996
 11
706.52245249999999
 21
907.96250499999996
  0
LINE
  8
_0-3_躯体
  6
HIDDEN
 62
    7
 10
706.52245249999999
 20
907.96250499999996
 11
706.52245249999999
 21
827.02216500000009
  0
LINE
  8
_0-3_躯体
  6
HIDDEN
 62
    7
 10
186.52245249999999
 20
907.96250499999996
 11
186.52245249999999
 21
827.02216500000009
  0
TEXT
  8
_0-a_寸法
 62
    7
 10
249.68293249999999
 20
942.57183499999996
 40
12.800000000000001
 41
1
 50
0
  1
5
  0
LINE
  8
_0-a_寸法
  6
CONTINUOUS
 62
    7
 10
296.52244250000001
 20
827.38290000000006
 11
291.52244250000001
 21
826.13290000000006
  0
LINE
  8
_0-a_寸法
  6
CONTINUOUS
 62
    7
 10
296.52244250000001
 20
827.38290000000006
 11
291.52244250000001
 21
828.63290000000006
  0
LINE
  8
_0-a_寸法
  6
CONTINUOUS
 62
    7
 10
296.52244250000001
 20
827.38290000000006
 11
281.52244250000001
 21
827.38290000000006
  0
LINE
  8
_0-3_躯体
  6
CONTINUOUS
 62
    7
 10
296.52245249999999
 20
827.02216500000009
 11
296.52245249999999
 21
907.96250499999996
  0
LINE
  8
_0-a_寸法
  6
CONTINUOUS
 62
    7
 10
296.52244250000001
 20
827.38290000000006
 11
331.52245249999999
 21
827.38290000000006
  0
TEXT
  8
_0-a_寸法
 62
    7
 10
307.02245249999999
 20
827.20253249999996
 40
14
 41
1
 50
0
  1
35
  0
LINE
  8
_0-a_寸法
  6
CONTINUOUS
 62
    7
 10
296.52245249999999
 20
825.02216500000009
 11
296.52245249999999
 21
798.24225000000001
  0
LINE
  8
_0-a_寸法
  6
CONTINUOUS
 62
    7
 10
261.58175749999998
 20
802.24225000000001
 11
296.52245249999999
 21
802.24225000000001
  0
LINE
  8
_0-a_寸法
  6
CONTINUOUS
 62
    7
 10
296.52245249999999
 20
802.24225000000001
 11
291.52245249999999
 21
800.99225000000001
  0
LINE
  8
_0-a_寸法
  6
CONTINUOUS
 62
    7
 10
296.52245249999999
 20
802.24225000000001
 11
291.52245249999999
 21
803.49225000000001
  0
LINE
  8
_0-a_寸法
  6
CONTINUOUS
 62
    7
 10
296.52245249999999
 20
802.24225000000001
 11
301.52245249999999
 21
803.49225000000001
  0
LINE
  8
_0-a_寸法
  6
CONTINUOUS
 62
    7
 10
296.52245249999999
 20
802.24225000000001
 11
301.52245249999999
 21
800.99225000000001
  0
TEXT
  8
_0-a_寸法
 62
    7
 10
272.05210499999998
 20
802.24225000000001
 40
14
 41
1
 50
0
  1
35
  0
ARC
  8
_0-5_止水補助板
  6
CONTINUOUS
 62
    7
 10
297.1943675
 20
897.96250499999996
 40
10
 50
7.6880369999990004
 51
90
  0
ARC
  8
_0-5_止水補助板
  6
CONTINUOUS
 62
    7
 10
297.1943675
 20
897.46250499999996
 40
11.5
 50
7.6880369999999996
 51
90.000000000000028
  0
LINE
  8
_0-4_フレ_ム
  6
CONTINUOUS
 62
    7
 10
297.1943675
 20
908.96250499999996
 11
273.02245249999999
 21
908.96250499999996
  0
LINE
  8
_0-4_フレ_ム
  6
CONTINUOUS
 62
    7
 10
206.52245249999999
 20
908.96250499999996
 11
330.52245249999999
 21
908.96250499999996
  0
LINE
  8
_0-5_止水補助板
  6
CONTINUOUS
 62
    7
 10
296.52245249999999
 20
907.96250499999996
 11
297.1943675
 21
907.96250499999996
  0
LINE
  8
_0-3_躯体
  6
CONTINUOUS
 62
    7
 10
186.52245249999999
 20
907.96250499999996
 11
296.52245249999999
 21
907.96250499999996
  0
LINE
  8
_0-3_躯体
  6
CONTINUOUS
 62
    7
 10
201.52244250000001
 20
897.96250499999996
 11
296.52245249999999
 21
897.96250499999996
  0
LINE
  8
_0-3_躯体
  6
CONTINUOUS
 62
    7
 10
257.88284249999992
 20
897.96250499999996
 11
267.88284249999992
 21
907.96250499999996
  0
LINE
  8
_0-3_躯体
  6
CONTINUOUS
 62
    7
 10
264.9539125
 20
897.96250499999996
 11
274.9539125
 21
907.96250499999996
  0
LINE
  8
_0-3_躯体
  6
CONTINUOUS
 62
    7
 10
272.02497749999998
 20
897.96250499999996
 11
282.02497749999998
 21
907.96250499999996
  0
LINE
  8
_0-3_躯体
  6
CONTINUOUS
 62
    7
 10
279.09604749999994
 20
897.96250499999996
 11
289.09604749999994
 21
907.96250499999996
  0
LINE
  8
_0-3_躯体
  6
CONTINUOUS
 62
    7
 10
286.16711250000003
 20
897.96250499999996
 11
296.16711250000003
 21
907.96250499999996
  0
LINE
  8
_0-3_躯体
  6
CONTINUOUS
 62
    7
 10
250.81177749999995
 20
897.96250499999996
 11
260.81177749999995
 21
907.96250499999996
  0
LINE
  8
_0-3_躯体
  6
CONTINUOUS
 62
    7
 10
243.74070749999998
 20
897.96250499999996
 11
253.74070749999998
 21
907.96250499999996
  0
LINE
  8
_0-3_躯体
  6
CONTINUOUS
 62
    7
 10
236.66963750000002
 20
897.96250499999996
 11
246.66963750000002
 21
907.96250499999996
  0
LINE
  8
_0-3_躯体
  6
CONTINUOUS
 62
    7
 10
229.59857250000005
 20
897.96250499999996
 11
239.59857250000005
 21
907.96250499999996
  0
LINE
  8
_0-3_躯体
  6
CONTINUOUS
 62
    7
 10
222.52750249999997
 20
897.96250499999996
 11
232.52750249999997
 21
907.96250499999996
  0
LINE
  8
_0-3_躯体
  6
CONTINUOUS
 62
    7
 10
215.45643749999999
 20
897.96250499999996
 11
225.45643749999999
 21
907.96250499999996
  0
LINE
  8
_0-3_躯体
  6
CONTINUOUS
 62
    7
 10
208.38536750000003
 20
897.96250499999996
 11
218.38536750000003
 21
907.96250499999996
  0
LINE
  8
_0-3_躯体
  6
CONTINUOUS
 62
    7
 10
201.52244250000001
 20
898.17065000000002
 11
211.31430249999994
 21
907.96250499999996
  0
LINE
  8
_0-3_躯体
  6
CONTINUOUS
 62
    7
 10
201.52244250000001
 20
905.24171500000011
 11
204.24323249999998
 21
907.96250499999996
  0
LINE
  8
_0-3_躯体
  6
CONTINUOUS
 62
    7
 10
293.23818249999999
 20
897.96250499999996
 11
296.52245249999999
 21
901.24677500000007
  0
LINE
  8
_0-3_躯体
  6
HIDDEN
 62
    7
 10
296.52245249999999
 20
827.02216500000009
 11
186.52245249999999
 21
827.02216500000009
  0
LINE
  8
_0-3_躯体
  6
CONTINUOUS
 62
    7
 10
596.52245749999997
 20
827.02216500000009
 11
596.52245249999999
 21
907.96250499999996
  0
LINE
  8
_0-a_寸法
  6
CONTINUOUS
 62
    7
 10
596.52246249999996
 20
827.38290000000006
 11
601.52246249999996
 21
828.63290000000006
  0
LINE
  8
_0-a_寸法
  6
CONTINUOUS
 62
    7
 10
596.52246249999996
 20
827.38290000000006
 11
601.52246249999996
 21
826.13290000000006
  0
LINE
  8
_0-a_寸法
  6
CONTINUOUS
 62
    7
 10
596.52246249999996
 20
827.38290000000006
 11
611.52246249999996
 21
827.38290000000006
  0
LINE
  8
_0-a_寸法
  6
CONTINUOUS
 62
    7
 10
596.52245749999997
 20
827.38290000000006
 11
561.52245249999999
 21
827.38290000000006
  0
LINE
  8
_0-a_寸法
  6
CONTINUOUS
 62
    7
 10
596.52245749999997
 20
825.02216500000009
 11
596.52245749999997
 21
798.24225000000001
  0
LINE
  8
_0-a_寸法
  6
CONTINUOUS
 62
    7
 10
596.52245749999997
 20
802.24225000000001
 11
601.52245749999997
 21
803.49225000000001
  0
LINE
  8
_0-a_寸法
  6
CONTINUOUS
 62
    7
 10
596.52245749999997
 20
802.24225000000001
 11
601.52245749999997
 21
800.99225000000001
  0
LINE
  8
_0-a_寸法
  6
CONTINUOUS
 62
    7
 10
596.52245749999997
 20
802.24225000000001
 11
591.52245749999997
 21
800.99225000000001
  0
LINE
  8
_0-a_寸法
  6
CONTINUOUS
 62
    7
 10
596.52245749999997
 20
802.24225000000001
 11
591.52245749999997
 21
803.49225000000001
  0
LINE
  8
_0-a_寸法
  6
CONTINUOUS
 62
    7
 10
596.52245749999997
 20
802.24225000000001
 11
631.52245249999999
 21
802.24225000000001
  0
LINE
  8
_0-a_寸法
  6
CONTINUOUS
 62
    7
 10
296.52245249999999
 20
802.24225000000001
 11
596.52245749999997
 21
802.24225000000001
  0
TEXT
  8
_0-a_寸法
 62
    7
 10
572.02245500000004
 20
827.38290000000006
 40
14
 41
1
 50
0
  1
35
  0
TEXT
  8
_0-a_寸法
 62
    7
 10
607.02245500000004
 20
802.24225000000001
 40
14
 41
1
 50
0
  1
35
  0
LINE
  8
_0-3_躯体
  6
CONTINUOUS
 62
    7
 10
706.52245249999999
 20
907.96250499999996
 11
596.52245249999999
 21
907.96250499999996
  0
LINE
  8
_0-3_躯体
  6
CONTINUOUS
 62
    7
 10
691.52246249999996
 20
897.96250499999996
 11
596.52245311770002
 21
897.96250499999996
  0
LINE
  8
_0-3_躯体
  6
CONTINUOUS
 62
    7
 10
621.01992749999999
 20
897.96250499999996
 11
631.01992749999999
 21
907.96250499999996
  0
LINE
  8
_0-3_躯体
  6
CONTINUOUS
 62
    7
 10
628.09099749999996
 20
897.96250499999996
 11
638.09099749999996
 21
907.96250499999996
  0
LINE
  8
_0-3_躯体
  6
CONTINUOUS
 62
    7
 10
635.16206249999993
 20
897.96250499999996
 11
645.16206249999993
 21
907.96250499999996
  0
LINE
  8
_0-3_躯体
  6
CONTINUOUS
 62
    7
 10
642.23313250000001
 20
897.96250499999996
 11
652.23313250000001
 21
907.96250499999996
  0
LINE
  8
_0-3_躯体
  6
CONTINUOUS
 62
    7
 10
649.30419749999999
 20
897.96250499999996
 11
659.30419749999999
 21
907.96250499999996
  0
LINE
  8
_0-3_躯体
  6
CONTINUOUS
 62
    7
 10
656.37526749999995
 20
897.96250499999996
 11
666.37526749999995
 21
907.96250499999996
  0
LINE
  8
_0-3_躯体
  6
CONTINUOUS
 62
    7
 10
663.44633750000003
 20
897.96250499999996
 11
673.44633750000003
 21
907.96250499999996
  0
LINE
  8
_0-3_躯体
  6
CONTINUOUS
 62
    7
 10
670.5174025
 20
897.96250499999996
 11
680.5174025
 21
907.96250499999996
  0
LINE
  8
_0-3_躯体
  6
CONTINUOUS
 62
    7
 10
677.58847249999997
 20
897.96250499999996
 11
687.58847249999997
 21
907.96250499999996
  0
LINE
  8
_0-3_躯体
  6
CONTINUOUS
 62
    7
 10
684.65953749999994
 20
897.96250499999996
 11
691.52246249999996
 21
904.8254300000001
  0
LINE
  8
_0-3_躯体
  6
CONTINUOUS
 62
    7
 10
613.94886250000002
 20
897.96250499999996
 11
623.94886250000002
 21
907.96250499999996
  0
LINE
  8
_0-3_躯体
  6
CONTINUOUS
 62
    7
 10
606.87779249999994
 20
897.96250499999996
 11
616.87779249999994
 21
907.96250499999996
  0
LINE
  8
_0-3_躯体
  6
CONTINUOUS
 62
    7
 10
599.80672249999998
 20
897.96250499999996
 11
609.80672249999998
 21
907.96250499999996
  0
LINE
  8
_0-3_躯体
  6
CONTINUOUS
 62
    7
 10
596.52245288380004
 20
901.74930038380012
 11
602.7356575
 21
907.96250499999996
  0
ARC
  8
_0-5_止水補助板
  6
CONTINUOUS
 62
    7
 10
595.85053749999997
 20
897.96250499999996
 40
10
 50
90
 51
172.31196299999999
  0
ARC
  8
_0-5_止水補助板
  6
CONTINUOUS
 62
    7
 10
595.85053749999997
 20
897.46250499999996
 40
11.5
 50
90
 51
172.31196299999999
  0
LINE
  8
_0-5_止水補助板
  6
CONTINUOUS
 62
    7
 10
596.52245249999999
 20
907.96250499999996
 11
595.85053749999997
 21
907.96250499999996
  0
LINE
  8
_0-3_躯体
  6
HIDDEN
 62
    7
 10
596.52245749999997
 20
827.02216500000009
 11
706.52245249999999
 21
827.02216500000009
  0
ARC
  8
_0-5_止水補助板
  6
CONTINUOUS
 62
    7
 10
446.52245249999999
 20
899.00096662119995
 40
137.9314567337
 50
180
 51
0
  0
ARC
  8
_0-5_止水補助板
  6
CONTINUOUS
 62
    7
 10
446.52245249999999
 20
899.48760918030007
 40
139.41809929280001
 50
180.07697823850003
 51
359.92302176150707
  0
LINE
  8
_0-a_寸法
  6
CONTINUOUS
 62
    7
 10
310.37213990299995
 20
874.4199164309
 11
320.14649990299995
 21
891.34960143090007
  0
CIRCLE
  8
_0-a_寸法
  6
CONTINUOUS
 62
    7
 10
323.89649990299995
 20
897.84479643090003
 40
7.5
  0
CIRCLE
  8
_0-a_寸法
  6
CONTINUOUS
 62
    7
 10
310.37213990299995
 20
874.4199164309
 40
1
  0
TEXT
  8
_0-a_寸法
 62
    7
 10
320.6964999029999
 20
891.44479643089994
 40
12.800000000000001
 41
1
 50
0
  1
4
  0
TEXT
  8
_0-a_寸法
 62
    7
 10
436.02245499999998
 20
802.24225000000001
 40
14
 41
1
 50
0
  1
300
  0
TEXT
  8
_0-a_寸法
 62
    7
 10
167.33069286649993
 20
913.21250499999996
 40
14
 41
1
 50
90.000003000000035
  1
25
  0
TEXT
  8
_0-a_寸法
 62
    7
 10
167.33069286649993
 20
883.46250499999996
 40
14
 41
1
 50
90.000003000000035
  1
10
  0
LINE
  8
_0-a_寸法
  6
CENTER
 62
    7
 10
446.52244998890001
 20
948.16193780970002
 11
446.52244998890001
 21
829.11450511990006
  0
LINE
  8
_0-a_寸法
  6
CONTINUOUS
 62
    7
 10
1541.5224625000001
 20
1002.2193600000001
 11
1541.5224625000001
 21
1038.037495
  0
LINE
  8
_0-a_寸法
  6
CONTINUOUS
 62
    7
 10
1541.5224625000001
 20
1033.037495
 11
1536.5224625000001
 21
1031.787495
  0
LINE
  8
_0-a_寸法
  6
CONTINUOUS
 62
    7
 10
1541.5224625000001
 20
1033.037495
 11
1536.5224625000001
 21
1034.287495
  0
LINE
  8
_0-a_寸法
  6
CONTINUOUS
 62
    7
 10
1521.5224674999999
 20
992.96250499999996
 11
1521.5224674999999
 21
1015.1758750000001
  0
LINE
  8
_0-a_寸法
  6
CONTINUOUS
 62
    7
 10
1521.5224674999999
 20
1010.1758750000001
 11
1516.5224674999999
 21
1008.9258750000001
  0
LINE
  8
_0-a_寸法
  6
CONTINUOUS
 62
    7
 10
1521.5224674999999
 20
1010.1758750000001
 11
1516.5224674999999
 21
1011.4258750000001
  0
LINE
  8
_0-a_寸法
  6
CONTINUOUS
 62
    7
 10
1521.5224674999999
 20
1010.1758750000001
 11
1541.5224625000001
 21
1010.1758750000001
  0
LINE
  8
_0-a_寸法
  6
CONTINUOUS
 62
    7
 10
1541.5224625000001
 20
1010.1758750000001
 11
1546.5224625000001
 21
1011.4258750000001
  0
LINE
  8
_0-a_寸法
  6
CONTINUOUS
 62
    7
 10
1541.5224625000001
 20
1010.1758750000001
 11
1546.5224625000001
 21
1008.9258750000001
  0
LINE
  8
_0-a_寸法
  6
CONTINUOUS
 62
    7
 10
1541.5224625000001
 20
1010.1758750000001
 11
1556.5224625000001
 21
1010.1758750000001
  0
LINE
  8
_0-a_寸法
  6
CONTINUOUS
 62
    7
 10
1608.4775475000001
 20
935.96250499999996
 11
1608.4775475000001
 21
907.96250499999996
  0
LINE
  8
_0-a_寸法
  6
CONTINUOUS
 62
    7
 10
1588.4061975
 20
935.96250499999996
 11
1613.4775475000001
 21
935.96250499999996
  0
LINE
  8
_0-a_寸法
  6
CONTINUOUS
 62
    7
 10
1608.4775475000001
 20
935.96250499999996
 11
1609.7275475000001
 21
930.96250499999996
  0
LINE
  8
_0-a_寸法
  6
CONTINUOUS
 62
    7
 10
1608.4775475000001
 20
935.96250499999996
 11
1607.2275475000001
 21
930.96250499999996
  0
LINE
  8
_0-a_寸法
  6
CONTINUOUS
 62
    7
 10
1608.4775475000001
 20
907.96250499999996
 11
1607.2275475000001
 21
912.96250499999996
  0
LINE
  8
_0-a_寸法
  6
CONTINUOUS
 62
    7
 10
1608.4775475000001
 20
907.96250499999996
 11
1609.7275475000001
 21
912.96250499999996
  0
TEXT
  8
_0-a_寸法
 62
    7
 10
1524.522465
 20
1010.1758750000001
 40
14
 41
1
 50
0
  1
20
  0
TEXT
  8
_0-a_寸法
 62
    7
 10
1608.4775478669999
 20
914.96250499999996
 40
14
 41
1
 50
90.000003000000035
  1
28
  0
LINE
  8
_0-a_寸法
  6
CONTINUOUS
 62
    7
 10
1541.5224625000001
 20
817.77321000000006
 11
1541.5224625000001
 21
793.74267499999996
  0
LINE
  8
_0-a_寸法
  6
CONTINUOUS
 62
    7
 10
1541.5224625000001
 20
798.74267499999996
 11
1536.5224625000001
 21
797.49267499999996
  0
LINE
  8
_0-a_寸法
  6
CONTINUOUS
 62
    7
 10
1541.5224625000001
 20
798.74267499999996
 11
1536.5224625000001
 21
799.99267499999996
  0
LINE
  8
_0-3_躯体
  6
CONTINUOUS
 62
    7
 10
1541.5224625000001
 20
820.27321000000006
 11
1541.5224625000001
 21
999.71936000000005
  0
LINE
  8
_0-3_躯体
  6
DOT_17
 62
    7
 10
1541.5224625000001
 20
999.71936000000005
 11
1591.5224625000001
 21
999.71936000000005
  0
LINE
  8
_0-3_躯体
  6
DOT_17
 62
    7
 10
1591.5224625000001
 20
820.27321000000006
 11
1591.5224625000001
 21
999.71936000000005
  0
LINE
  8
_0-3_躯体
  6
DOT_17
 62
    7
 10
1541.5224625000001
 20
820.27321000000006
 11
1591.5224625000001
 21
820.27321000000006
  0
LINE
  8
_0-5_止水補助板
  6
CONTINUOUS
 62
    7
 10
1540.5224625000001
 20
904.99155999999994
 11
1540.5224625000001
 21
976.96250499999996
  0
LINE
  8
_0-5_止水補助板
  6
CONTINUOUS
 62
    7
 10
1541.5224625000001
 20
904.93959999999993
 11
1541.5224625000001
 21
976.96250499999996
  0
LINE
  8
_0-5_止水補助板
  6
CONTINUOUS
 62
    7
 10
1540.5224625000001
 20
976.96250499999996
 11
1541.5224625000001
 21
976.96250499999996
  0
ARC
  8
_0-5_止水補助板
  6
CONTINUOUS
 62
    7
 10
1521.5224625000001
 20
904.99155999999994
 40
19
 50
341.62141334028001
 51
0
  0
ARC
  8
_0-5_止水補助板
  6
CONTINUOUS
 62
    7
 10
1521.5224625000001
 20
904.93959999999993
 40
20
 50
342.72659508998998
 51
0.0000000000000222
  0
LINE
  8
_0-7_サイド
  6
CONTINUOUS
 62
    7
 10
1585.9061975
 20
935.96250499999996
 11
1531.8389124999999
 21
935.96250499999996
  0
LINE
  8
_0-7_サイド
  6
CONTINUOUS
 62
    7
 10
1533.4448975
 20
982.96268000000009
 11
1533.4448975
 21
989.46268000000009
  0
LINE
  8
_0-7_サイド
  6
CONTINUOUS
 62
    7
 10
1534.4448975
 20
983.26268000000005
 11
1534.4448975
 21
989.46268000000009
  0
ARC
  8
_0-7_サイド
  6
CONTINUOUS
 62
    7
 10
1533.9448975
 20
989.46268000000009
 40
0.5
 50
0
 51
180
  0
LINE
  8
_0-7_サイド
  6
CONTINUOUS
 62
    7
 10
1535.8000375000001
 20
982.96268000000009
 11
1534.7448975000002
 21
982.96268000000009
  0
ARC
  8
_0-7_サイド
  6
CONTINUOUS
 62
    7
 10
1535.8000375000001
 20
983.26268000000005
 40
0.2999999999999998
 50
270
 51
0
  0
LINE
  8
_0-7_サイド
  6
CONTINUOUS
 62
    7
 10
1536.1000374999999
 20
990.25146500000005
 11
1536.1000374999999
 21
983.26268000000005
  0
ARC
  8
_0-7_サイド
  6
CONTINUOUS
 62
    7
 10
1536.1000374999999
 20
982.96268000000009
 40
1
 50
270
 51
0
  0
LINE
  8
_0-7_サイド
  6
CONTINUOUS
 62
    7
 10
1537.1000374999999
 20
990.25146500000005
 11
1537.1000374999999
 21
982.96268000000009
  0
LINE
  8
_0-7_サイド
  6
CONTINUOUS
 62
    7
 10
1536.1000374999999
 20
981.96268000000009
 11
1534.4448975
 21
981.96268000000009
  0
ARC
  8
_0-7_サイド
  6
CONTINUOUS
 62
    7
 10
1534.7448975000002
 20
983.26268000000005
 40
0.2999999999999998
 50
180
 51
270
  0
ARC
  8
_0-7_サイド
  6
CONTINUOUS
 62
    7
 10
1534.4448975
 20
982.96268000000009
 40
1
 50
180
 51
270
  0
ARC
  8
_0-7_サイド
  6
CONTINUOUS
 62
    7
 10
1538.8112525000001
 20
990.25146500000005
 40
1.7112149999999999
 50
0
 51
180
  0
ARC
  8
_0-7_サイド
  6
CONTINUOUS
 62
    7
 10
1538.8112525000001
 20
990.25146500000005
 40
2.7112150000000002
 50
0
 51
180
  0
LINE
  8
_0-7_サイド
  6
CONTINUOUS
 62
    7
 10
1540.5224625000001
 20
990.25146500000005
 11
1540.5224625000001
 21
982.34634000000005
  0
ARC
  8
_0-7_サイド
  6
CONTINUOUS
 62
    7
 10
1540.0224625000001
 20
982.34634000000005
 40
0.5
 50
284.99999999996999
 51
359.99999999999994
  0
LINE
  8
_0-7_サイド
  6
CONTINUOUS
 62
    7
 10
1539.2942125
 20
981.63356999999996
 11
1540.1518725000001
 21
981.86338000000001
  0
LINE
  8
_0-7_サイド
  6
CONTINUOUS
 62
    7
 10
1539.5530325
 20
980.66764499999999
 11
1540.4106925000001
 21
980.89744999999994
  0
LINE
  8
_0-7_サイド
  6
CONTINUOUS
 62
    7
 10
1541.5224625000001
 20
990.25146500000005
 11
1541.5224625000001
 21
982.34634000000005
  0
ARC
  8
_0-7_サイド
  6
CONTINUOUS
 62
    7
 10
1539.4236225
 20
981.15060500000004
 40
0.5
 50
105.00000000000001
 51
285
  0
ARC
  8
_0-7_サイド
  6
CONTINUOUS
 62
    7
 10
1540.0224625000001
 20
982.34634000000005
 40
1.5
 50
284.99999999999
 51
0.0000000000000127
  0
LINE
  8
_0-7_サイド
  6
CONTINUOUS
 62
    7
 10
1534.5224524999999
 20
982.96250499999996
 11
1536.0224625000001
 21
982.96250499999996
  0
ARC
  8
_0-7_サイド
  6
CONTINUOUS
 62
    7
 10
1533.5224674999999
 20
990.46250499999996
 40
2.5
 50
0
 51
90
  0
LINE
  8
_0-7_サイド
  6
CONTINUOUS
 62
    7
 10
1536.0224674999999
 20
982.96250499999996
 11
1536.0224674999999
 21
990.46250499999996
  0
LINE
  8
_0-7_サイド
  6
CONTINUOUS
 62
    7
 10
1534.5224674999999
 20
982.96250499999996
 11
1534.5224674999999
 21
990.46250499999996
  0
ARC
  8
_0-7_サイド
  6
CONTINUOUS
 62
    7
 10
1524.0224674999999
 20
932.96247500000004
 40
2.5
 50
180
 51
270.00060200000001
  0
LINE
  8
_0-7_サイド
  6
CONTINUOUS
 62
    7
 10
1521.5224674999999
 20
932.96247500000004
 11
1521.5224674999999
 21
990.46250499999996
  0
ARC
  8
_0-7_サイド
  6
CONTINUOUS
 62
    7
 10
1524.0224625000001
 20
990.46250499999996
 40
1
 50
90
 51
180
  0
ARC
  8
_0-7_サイド
  6
CONTINUOUS
 62
    7
 10
1533.5224674999999
 20
990.46250499999996
 40
1
 50
0
 51
90
  0
LINE
  8
_0-7_サイド
  6
CONTINUOUS
 62
    7
 10
1524.0224625000001
 20
991.46250499999996
 11
1533.5224674999999
 21
991.46250499999996
  0
ARC
  8
_0-7_サイド
  6
CONTINUOUS
 62
    7
 10
1524.0224674999999
 20
990.46250499999996
 40
2.5
 50
90
 51
180
  0
LINE
  8
_0-7_サイド
  6
CONTINUOUS
 62
    7
 10
1524.0224674999999
 20
992.96250499999996
 11
1533.5224674999999
 21
992.96250499999996
  0
LINE
  8
_0-7_サイド
  6
CONTINUOUS
 62
    7
 10
1531.5224674999999
 20
930.46254500000009
 11
1531.5224674999999
 21
931.96254500000009
  0
ARC
  8
_0-7_サイド
  6
CONTINUOUS
 62
    7
 10
1524.0224625000001
 20
932.96247500000004
 40
1
 50
180
 51
270.00060200000001
  0
LINE
  8
_0-7_サイド
  6
CONTINUOUS
 62
    7
 10
1531.5224674999999
 20
931.96254500000009
 11
1524.0224724999998
 21
931.96247500000004
  0
LINE
  8
_0-7_サイド
  6
CONTINUOUS
 62
    7
 10
1523.0224625000001
 20
932.96247500000004
 11
1523.0224625000001
 21
990.46250499999996
  0
LINE
  8
_0-7_サイド
  6
CONTINUOUS
 62
    7
 10
1531.5224674999999
 20
930.46254500000009
 11
1524.0224924999998
 21
930.46247500000004
  0
LINE
  8
_0-7_サイド
  6
CONTINUOUS
 62
    7
 10
1516.3262275000002
 20
969.46250499999996
 11
1541.5224625000001
 21
969.46250499999996
  0
LINE
  8
_0-4_フレ_ム
  6
CONTINUOUS
 62
    7
 10
1540.2224624999999
 20
920.96250499999996
 11
1540.2224624999999
 21
930.96250499999996
  0
ARC
  8
_0-4_フレ_ム
  6
CONTINUOUS
 62
    7
 10
1527.0224625000001
 20
963.38871999999992
 40
0.5
 50
180
 51
257.21094599999998
  0
ARC
  8
_0-4_フレ_ム
  6
CONTINUOUS
 62
    7
 10
1527.0224625000001
 20
965.96250499999996
 40
0.5
 50
90
 51
180
  0
LINE
  8
_0-4_フレ_ム
  6
CONTINUOUS
 62
    7
 10
1526.5224625000001
 20
963.38871999999992
 11
1526.5224625000001
 21
965.96250499999996
  0
LINE
  8
_0-4_フレ_ム
  6
CONTINUOUS
 62
    7
 10
1526.5224625000001
 20
974.96250499999996
 11
1526.5224625000001
 21
972.96250499999996
  0
LINE
  8
_0-4_フレ_ム
  6
CONTINUOUS
 62
    7
 10
1540.5224625000001
 20
920.96250499999996
 11
1540.5224625000001
 21
909.96250499999996
  0
ARC
  8
_0-4_フレ_ム
  6
CONTINUOUS
 62
    7
 10
1526.5224674999999
 20
913.46250499999996
 40
2
 50
180
 51
270
  0
LINE
  8
_0-4_フレ_ム
  6
CONTINUOUS
 62
    7
 10
1536.7224624999999
 20
911.46250499999996
 11
1526.5224674999999
 21
911.46250499999996
  0
LINE
  8
_0-4_フレ_ム
  6
CONTINUOUS
 62
    7
 10
1538.7224624999999
 20
913.46250499999996
 11
1538.7224624999999
 21
937.46250499999996
  0
ARC
  8
_0-4_フレ_ム
  6
CONTINUOUS
 62
    7
 10
1539.5224625000001
 20
909.96250499999996
 40
1
 50
270
 51
0
  0
ARC
  8
_0-4_フレ_ム
  6
CONTINUOUS
 62
    7
 10
1536.7224624999999
 20
913.46250499999996
 40
2
 50
270
 51
0
  0
LINE
  8
_0-4_フレ_ム
  6
CONTINUOUS
 62
    7
 10
1539.5224625000001
 20
908.96250499999996
 11
1522.5224674999999
 21
908.96250499999996
  0
LINE
  8
_0-4_フレ_ム
  6
CONTINUOUS
 62
    7
 10
1520.0224674999999
 20
923.71250499999996
 11
1520.0224674999999
 21
918.71250499999996
  0
LINE
  8
_0-4_フレ_ム
  6
CONTINUOUS
 62
    7
 10
1520.0224674999999
 20
918.71250499999996
 11
1521.5224674999999
 21
918.71250499999996
  0
LINE
  8
_0-4_フレ_ム
  6
CONTINUOUS
 62
    7
 10
1524.5224674999999
 20
918.71250499999996
 11
1526.0224674999999
 21
918.71250499999996
  0
LINE
  8
_0-4_フレ_ム
  6
CONTINUOUS
 62
    7
 10
1526.0224674999999
 20
918.71250499999996
 11
1526.0224674999999
 21
923.71250499999996
  0
LINE
  8
_0-4_フレ_ム
  6
CONTINUOUS
 62
    7
 10
1524.5224674999999
 20
923.71250499999996
 11
1524.5224625000001
 21
920.71250499999996
  0
LINE
  8
_0-4_フレ_ム
  6
CONTINUOUS
 62
    7
 10
1524.5224625000001
 20
918.71250499999996
 11
1524.5224674999999
 21
913.46250000000009
  0
ARC
  8
_0-4_フレ_ム
  6
CONTINUOUS
 62
    7
 10
1522.5224674999999
 20
909.96250499999996
 40
1
 50
180
 51
270
  0
LINE
  8
_0-4_フレ_ム
  6
CONTINUOUS
 62
    7
 10
1521.5224674999999
 20
923.71250499999996
 11
1521.5224674999999
 21
920.71250499999996
  0
LINE
  8
_0-4_フレ_ム
  6
CONTINUOUS
 62
    7
 10
1521.5224674999999
 20
918.71250499999996
 11
1521.5224674999999
 21
909.96250499999996
  0
ARC
  8
_0-4_フレ_ム
  6
CONTINUOUS
 62
    7
 10
1523.0224674999999
 20
923.71250499999996
 40
1.7
 50
0
 51
180
  0
ARC
  8
_0-4_フレ_ム
  6
CONTINUOUS
 62
    7
 10
1523.0224575000002
 20
923.71250499999996
 40
1.499995
 50
0
 51
180
  0
ARC
  8
_0-4_フレ_ム
  6
CONTINUOUS
 62
    7
 10
1523.0224674999999
 20
923.71250499999996
 40
3
 50
0
 51
180
  0
LINE
  8
_0-4_フレ_ム
  6
CONTINUOUS
 62
    7
 10
1524.5224625000001
 20
920.71250499999996
 11
1524.0224625000001
 21
920.71250499999996
  0
LINE
  8
_0-4_フレ_ム
  6
CONTINUOUS
 62
    7
 10
1524.0224625000001
 20
920.71250499999996
 11
1524.5224674999999
 21
918.71250499999996
  0
LINE
  8
_0-4_フレ_ム
  6
CONTINUOUS
 62
    7
 10
1521.5224674999999
 20
920.71250499999996
 11
1522.0224674999999
 21
920.71250499999996
  0
LINE
  8
_0-4_フレ_ム
  6
CONTINUOUS
 62
    7
 10
1522.0224674999999
 20
920.71250499999996
 11
1521.5224674999999
 21
918.71250499999996
  0
LINE
  8
_0-4_フレ_ム
  6
CONTINUOUS
 62
    7
 10
1524.5224625000001
 20
920.71250499999996
 11
1524.7224624999999
 21
920.71250499999996
  0
LINE
  8
_0-4_フレ_ム
  6
CONTINUOUS
 62
    7
 10
1524.7224624999999
 20
920.71250499999996
 11
1524.7224674999998
 21
923.71250499999996
  0
LINE
  8
_0-4_フレ_ム
  6
CONTINUOUS
 62
    7
 10
1521.5224674999999
 20
920.71250499999996
 11
1521.3224675000001
 21
920.71250499999996
  0
LINE
  8
_0-4_フレ_ム
  6
CONTINUOUS
 62
    7
 10
1521.3224675000001
 20
920.71250499999996
 11
1521.3224675000001
 21
923.71250499999996
  0
LINE
  8
_0-4_フレ_ム
  6
CONTINUOUS
 62
    7
 10
1518.5875675000002
 20
955.46250499999996
 11
1544.0851075
 21
955.46250499999996
  0
ARC
  8
_0-4_フレ_ム
  6
CONTINUOUS
 62
    7
 10
1539.5224625000001
 20
975.96250499999996
 40
1
 50
0
 51
90
  0
LINE
  8
_0-4_フレ_ム
  6
CONTINUOUS
 62
    7
 10
1540.5224625000001
 20
930.96250499999996
 11
1540.5224625000001
 21
940.96250499999996
  0
LINE
  8
_0-4_フレ_ム
  6
CONTINUOUS
 62
    7
 10
1540.5224625000001
 20
950.46250499999996
 11
1540.5224625000001
 21
960.46250499999996
  0
LINE
  8
_0-4_フレ_ム
  6
CONTINUOUS
 62
    7
 10
1540.5224625000001
 20
975.96250499999996
 11
1540.5224625000001
 21
966.96250499999996
  0
LINE
  8
_0-4_フレ_ム
  6
CONTINUOUS
 62
    7
 10
1539.5224625000001
 20
976.96250499999996
 11
1523.5224625000001
 21
976.96250499999996
  0
LINE
  8
_0-4_フレ_ム
  6
CONTINUOUS
 62
    7
 10
1538.7224575
 20
949.96250499999996
 11
1538.7224624999999
 21
960.96250499999996
  0
ARC
  8
_0-4_フレ_ム
  6
CONTINUOUS
 62
    7
 10
1538.2224624999999
 20
947.96250499999996
 40
0.5
 50
0
 51
90
  0
LINE
  8
_0-4_フレ_ム
  6
CONTINUOUS
 62
    7
 10
1538.7224624999999
 20
947.96250499999996
 11
1538.7224474999998
 21
936.26250499999992
  0
ARC
  8
_0-4_フレ_ム
  6
CONTINUOUS
 62
    7
 10
1538.2224624999999
 20
963.26250499999992
 40
0.5
 50
270
 51
0
  0
ARC
  8
_0-4_フレ_ム
  6
CONTINUOUS
 62
    7
 10
1538.2225225000002
 20
974.96250499999996
 40
0.5
 50
0
 51
90
  0
LINE
  8
_0-4_フレ_ム
  6
CONTINUOUS
 62
    7
 10
1538.7224624999999
 20
963.26106499999992
 11
1538.7225225000002
 21
974.96250499999996
  0
ARC
  8
_0-4_フレ_ム
  6
CONTINUOUS
 62
    7
 10
1538.2224624999999
 20
960.96250499999996
 40
0.5
 50
0
 51
90
  0
LINE
  8
_0-4_フレ_ム
  6
CONTINUOUS
 62
    7
 10
1532.5224625000001
 20
961.46250499999996
 11
1538.2224624999999
 21
961.46250499999996
  0
LINE
  8
_0-4_フレ_ム
  6
CONTINUOUS
 62
    7
 10
1530.5224625000001
 20
961.46250499999996
 11
1527.5224625000001
 21
961.46250499999996
  0
LINE
  8
_0-4_フレ_ム
  6
CONTINUOUS
 62
    7
 10
1530.5224625000001
 20
961.46250499999996
 11
1532.5224625000001
 21
960.46250499999996
  0
LINE
  8
_0-4_フレ_ム
  6
CONTINUOUS
 62
    7
 10
1527.5224625000001
 20
962.76250499999992
 11
1538.2224624999999
 21
962.76250499999992
  0
ARC
  8
_0-4_フレ_ム
  6
CONTINUOUS
 62
    7
 10
1538.2224575
 20
949.96250499999996
 40
0.5
 50
270
 51
0
  0
LINE
  8
_0-4_フレ_ム
  6
CONTINUOUS
 62
    7
 10
1532.5224625000001
 20
949.46250499999996
 11
1538.2224575
 21
949.46250499999996
  0
LINE
  8
_0-4_フレ_ム
  6
CONTINUOUS
 62
    7
 10
1530.5224625000001
 20
949.46250499999996
 11
1527.5224625000001
 21
949.46250499999996
  0
LINE
  8
_0-4_フレ_ム
  6
CONTINUOUS
 62
    7
 10
1532.5224625000001
 20
950.46250499999996
 11
1532.5224625000001
 21
949.46250499999996
  0
LINE
  8
_0-4_フレ_ム
  6
CONTINUOUS
 62
    7
 10
1530.5224625000001
 20
949.46250499999996
 11
1532.5224625000001
 21
950.46250499999996
  0
LINE
  8
_0-4_フレ_ム
  6
CONTINUOUS
 62
    7
 10
1527.5224625000001
 20
948.46250499999996
 11
1538.2224624999999
 21
948.46250499999996
  0
LINE
  8
_0-4_フレ_ム
  6
CONTINUOUS
 62
    7
 10
1532.5224625000001
 20
960.46250499999996
 11
1532.5224625000001
 21
961.46250499999996
  0
LINE
  8
_0-4_フレ_ム
  6
CONTINUOUS
 62
    7
 10
1527.5224625000001
 20
949.46250499999996
 11
1523.2573824999999
 21
948.51470999999992
  0
ARC
  8
_0-4_フレ_ム
  6
CONTINUOUS
 62
    7
 10
1523.3224624999998
 20
948.22185500000001
 40
0.2999999999999998
 50
102.528808
 51
180
  0
ARC
  8
_0-4_フレ_ム
  6
CONTINUOUS
 62
    7
 10
1523.3224624999998
 20
947.81676500000003
 40
0.2999999999999998
 50
180
 51
282.78905400000002
  0
LINE
  8
_0-4_フレ_ム
  6
CONTINUOUS
 62
    7
 10
1523.0224625000001
 20
948.22185500000001
 11
1523.0224625000001
 21
947.81676500000003
  0
LINE
  8
_0-4_フレ_ム
  6
CONTINUOUS
 62
    7
 10
1527.5224625000001
 20
948.46250499999996
 11
1523.3888725000002
 21
947.52420499999994
  0
ARC
  8
_0-4_フレ_ム
  6
CONTINUOUS
 62
    7
 10
1523.5224625000001
 20
962.86358999999993
 40
0.5
 50
180
 51
257.47119199999992
  0
LINE
  8
_0-4_フレ_ム
  6
CONTINUOUS
 62
    7
 10
1527.5224625000001
 20
961.46250499999996
 11
1523.4139974999998
 21
962.3755000000001
  0
LINE
  8
_0-4_フレ_ム
  6
CONTINUOUS
 62
    7
 10
1527.5224625000001
 20
962.76250499999992
 11
1526.9117824999998
 21
962.90112500000009
  0
ARC
  8
_0-4_フレ_ム
  6
CONTINUOUS
 62
    7
 10
1523.5224625000001
 20
964.96250499999996
 40
0.5
 50
90
 51
180
  0
LINE
  8
_0-4_フレ_ム
  6
CONTINUOUS
 62
    7
 10
1523.0224625000001
 20
964.96250499999996
 11
1523.0224625000001
 21
962.86358999999993
  0
ARC
  8
_0-4_フレ_ム
  6
CONTINUOUS
 62
    7
 10
1523.5224625000001
 20
976.46250499999996
 40
0.5
 50
90
 51
180
  0
LINE
  8
_0-4_フレ_ム
  6
CONTINUOUS
 62
    7
 10
1523.0224625000001
 20
976.46250499999996
 11
1523.0224625000001
 21
973.96250499999996
  0
ARC
  8
_0-4_フレ_ム
  6
CONTINUOUS
 62
    7
 10
1523.5224625000001
 20
973.96250499999996
 40
0.5
 50
180
 51
270
  0
LINE
  8
_0-4_フレ_ム
  6
CONTINUOUS
 62
    7
 10
1525.0224625000001
 20
973.46250499999996
 11
1523.5224625000001
 21
973.46250499999996
  0
LINE
  8
_0-4_フレ_ム
  6
CONTINUOUS
 62
    7
 10
1525.0224625000001
 20
965.46250499999996
 11
1523.5224625000001
 21
965.46250499999996
  0
LINE
  8
_0-4_フレ_ム
  6
CONTINUOUS
 62
    7
 10
1528.0224625000001
 20
972.46250499999996
 11
1528.0224625000001
 21
966.46250499999996
  0
LINE
  8
_0-4_フレ_ム
  6
CONTINUOUS
 62
    7
 10
1539.0224475
 20
935.96250499999996
 11
1538.7224474999998
 21
936.26250499999992
  0
LINE
  8
_0-4_フレ_ム
  6
CONTINUOUS
 62
    7
 10
1539.0224475
 20
935.96250499999996
 11
1538.7224624999999
 21
935.66252000000009
  0
LINE
  8
_0-4_フレ_ム
  6
CONTINUOUS
 62
    7
 10
1540.5224625000001
 20
950.46250499999996
 11
1540.2224624999999
 21
950.46250499999996
  0
LINE
  8
_0-4_フレ_ム
  6
CONTINUOUS
 62
    7
 10
1540.2224624999999
 20
950.46250499999996
 11
1540.2224624999999
 21
940.96250499999996
  0
LINE
  8
_0-4_フレ_ム
  6
CONTINUOUS
 62
    7
 10
1540.2224624999999
 20
940.96250499999996
 11
1540.5224625000001
 21
940.96250499999996
  0
LINE
  8
_0-4_フレ_ム
  6
CONTINUOUS
 62
    7
 10
1540.5224625000001
 20
960.46250499999996
 11
1540.2224624999999
 21
960.46250499999996
  0
LINE
  8
_0-4_フレ_ム
  6
CONTINUOUS
 62
    7
 10
1540.2224624999999
 20
960.46250499999996
 11
1540.2224624999999
 21
966.96250499999996
  0
LINE
  8
_0-4_フレ_ム
  6
CONTINUOUS
 62
    7
 10
1540.2224624999999
 20
966.96250499999996
 11
1540.5224625000001
 21
966.96250499999996
  0
LINE
  8
_0-4_フレ_ム
  6
CONTINUOUS
 62
    7
 10
1540.5224625000001
 20
930.96250499999996
 11
1540.2224624999999
 21
930.96250499999996
  0
LINE
  8
_0-4_フレ_ム
  6
CONTINUOUS
 62
    7
 10
1540.2224624999999
 20
920.96250499999996
 11
1540.5224625000001
 21
920.96250499999996
  0
ARC
  8
_0-4_フレ_ム
  6
CONTINUOUS
 62
    7
 10
1527.0224625000001
 20
972.96250499999996
 40
0.5
 50
180
 51
270
  0
LINE
  8
_0-4_フレ_ム
  6
CONTINUOUS
 62
    7
 10
1528.0224625000001
 20
972.46250499999996
 11
1527.0224625000001
 21
972.46250499999996
  0
ARC
  8
_0-4_フレ_ム
  6
CONTINUOUS
 62
    7
 10
1527.0224625000001
 20
974.96250499999996
 40
0.5
 50
90
 51
180
  0
LINE
  8
_0-4_フレ_ム
  6
CONTINUOUS
 62
    7
 10
1538.2225225000002
 20
975.46250499999996
 11
1527.0224625000001
 21
975.46250499999996
  0
LINE
  8
_0-4_フレ_ム
  6
CONTINUOUS
 62
    7
 10
1528.0224625000001
 20
966.46250499999996
 11
1527.0224625000001
 21
966.46250499999996
  0
LINE
  8
_0-8_小物
  6
CONTINUOUS
 62
    7
 10
1576.3022875000001
 20
930.55422999999996
 11
1578.2995424999999
 21
930.44956000000002
  0
LINE
  8
_0-8_小物
  6
CONTINUOUS
 62
    7
 10
1573.3063975
 20
930.71124000000009
 11
1574.4096974999998
 21
932.65616
  0
LINE
  8
_0-8_小物
  6
CONTINUOUS
 62
    7
 10
1574.4096974999998
 20
932.65616
 11
1576.4069574999999
 21
932.55149000000006
  0
LINE
  8
_0-8_小物
  6
CONTINUOUS
 62
    7
 10
1576.4069574999999
 20
932.55149000000006
 11
1576.3022875000001
 21
930.55422999999996
  0
LINE
  8
_0-8_小物
  6
CONTINUOUS
 62
    7
 10
1571.3091374999999
 20
930.81591000000003
 11
1573.3063975
 21
930.71124000000009
  0
LINE
  8
_0-8_小物
  6
CONTINUOUS
 62
    7
 10
1568.3132474999998
 20
930.97291999999993
 11
1569.4165524999999
 21
932.91784000000007
  0
LINE
  8
_0-8_小物
  6
CONTINUOUS
 62
    7
 10
1569.4165524999999
 20
932.91784000000007
 11
1571.4138075000001
 21
932.81317000000013
  0
LINE
  8
_0-8_小物
  6
CONTINUOUS
 62
    7
 10
1571.4138075000001
 20
932.81317000000013
 11
1571.3091374999999
 21
930.81591000000003
  0
LINE
  8
_0-8_小物
  6
CONTINUOUS
 62
    7
 10
1566.3159925
 20
931.0775900000001
 11
1568.3132474999998
 21
930.97291999999993
  0
LINE
  8
_0-8_小物
  6
CONTINUOUS
 62
    7
 10
1563.3201024999998
 20
931.2346
 11
1564.4234025000001
 21
933.17951999999991
  0
LINE
  8
_0-8_小物
  6
CONTINUOUS
 62
    7
 10
1564.4234025000001
 20
933.17951999999991
 11
1566.4206625000002
 21
933.07484999999997
  0
LINE
  8
_0-8_小物
  6
CONTINUOUS
 62
    7
 10
1566.4206625000002
 20
933.07484999999997
 11
1566.3159925
 21
931.0775900000001
  0
LINE
  8
_0-8_小物
  6
CONTINUOUS
 62
    7
 10
1561.3228425000002
 20
931.33926999999994
 11
1563.3201024999998
 21
931.2346
  0
LINE
  8
_0-8_小物
  6
CONTINUOUS
 62
    7
 10
1558.3269525000001
 20
931.49628000000007
 11
1559.4302575000002
 21
933.44119999999998
  0
LINE
  8
_0-8_小物
  6
CONTINUOUS
 62
    7
 10
1559.4302575000002
 20
933.44119999999998
 11
1561.4275124999999
 21
933.33653000000004
  0
LINE
  8
_0-8_小物
  6
CONTINUOUS
 62
    7
 10
1561.4275124999999
 20
933.33653000000004
 11
1561.3228425000002
 21
931.33926999999994
  0
LINE
  8
_0-8_小物
  6
CONTINUOUS
 62
    7
 10
1556.3296925
 20
931.60095000000001
 11
1558.3269525000001
 21
931.49628000000007
  0
LINE
  8
_0-8_小物
  6
CONTINUOUS
 62
    7
 10
1554.4371074999999
 20
933.70288000000005
 11
1556.4343675
 21
933.59821000000011
  0
LINE
  8
_0-8_小物
  6
CONTINUOUS
 62
    7
 10
1556.4343675
 20
933.59821000000011
 11
1556.3296925
 21
931.60095000000001
  0
LINE
  8
_0-8_小物
  6
CONTINUOUS
 62
    7
 10
1553.5224625000001
 20
931.96250499999996
 11
1554.4371074999999
 21
933.70288000000005
  0
LINE
  8
_0-8_小物
  6
CONTINUOUS
 62
    7
 10
1576.3022875000001
 20
941.37077999999997
 11
1578.2995424999999
 21
941.47544999999991
  0
LINE
  8
_0-8_小物
  6
CONTINUOUS
 62
    7
 10
1573.3063975
 20
941.21377000000007
 11
1574.4096974999998
 21
939.26884999999993
  0
LINE
  8
_0-8_小物
  6
CONTINUOUS
 62
    7
 10
1574.4096974999998
 20
939.26884999999993
 11
1576.4069574999999
 21
939.3735200000001
  0
LINE
  8
_0-8_小物
  6
CONTINUOUS
 62
    7
 10
1576.4069574999999
 20
939.3735200000001
 11
1576.3022875000001
 21
941.37077999999997
  0
LINE
  8
_0-8_小物
  6
CONTINUOUS
 62
    7
 10
1571.3091374999999
 20
941.10910000000013
 11
1573.3063975
 21
941.21377000000007
  0
LINE
  8
_0-8_小物
  6
CONTINUOUS
 62
    7
 10
1568.3132474999998
 20
940.95209
 11
1569.4165524999999
 21
939.00717000000009
  0
LINE
  8
_0-8_小物
  6
CONTINUOUS
 62
    7
 10
1569.4165524999999
 20
939.00717000000009
 11
1571.4138075000001
 21
939.11184000000003
  0
LINE
  8
_0-8_小物
  6
CONTINUOUS
 62
    7
 10
1571.4138075000001
 20
939.11184000000003
 11
1571.3091374999999
 21
941.10910000000013
  0
LINE
  8
_0-8_小物
  6
CONTINUOUS
 62
    7
 10
1566.3159925
 20
940.84742000000006
 11
1568.3132474999998
 21
940.95209
  0
LINE
  8
_0-8_小物
  6
CONTINUOUS
 62
    7
 10
1563.3201024999998
 20
940.69040999999993
 11
1564.4234025000001
 21
938.74549000000002
  0
LINE
  8
_0-8_小物
  6
CONTINUOUS
 62
    7
 10
1564.4234025000001
 20
938.74549000000002
 11
1566.4206625000002
 21
938.85015999999996
  0
LINE
  8
_0-8_小物
  6
CONTINUOUS
 62
    7
 10
1566.4206625000002
 20
938.85015999999996
 11
1566.3159925
 21
940.84742000000006
  0
LINE
  8
_0-8_小物
  6
CONTINUOUS
 62
    7
 10
1561.3228425000002
 20
940.58573999999999
 11
1563.3201024999998
 21
940.69040999999993
  0
LINE
  8
_0-8_小物
  6
CONTINUOUS
 62
    7
 10
1558.3269525000001
 20
940.42873000000009
 11
1559.4302575000002
 21
938.48380999999995
  0
LINE
  8
_0-8_小物
  6
CONTINUOUS
 62
    7
 10
1559.4302575000002
 20
938.48380999999995
 11
1561.4275124999999
 21
938.58848000000012
  0
LINE
  8
_0-8_小物
  6
CONTINUOUS
 62
    7
 10
1561.4275124999999
 20
938.58848000000012
 11
1561.3228425000002
 21
940.58573999999999
  0
LINE
  8
_0-8_小物
  6
CONTINUOUS
 62
    7
 10
1556.3296925
 20
940.32405999999992
 11
1558.3269525000001
 21
940.42873000000009
  0
LINE
  8
_0-8_小物
  6
CONTINUOUS
 62
    7
 10
1554.4371074999999
 20
938.22213000000011
 11
1556.4343675
 21
938.32680000000005
  0
LINE
  8
_0-8_小物
  6
CONTINUOUS
 62
    7
 10
1556.4343675
 20
938.32680000000005
 11
1556.3296925
 21
940.32405999999992
  0
LINE
  8
_0-8_小物
  6
CONTINUOUS
 62
    7
 10
1577.4631574999999
 20
936.02180999999996
 11
1575.7474874999998
 21
934.08810999999992
  0
LINE
  8
_0-8_小物
  6
CONTINUOUS
 62
    7
 10
1575.6530174999998
 20
937.83195000000001
 11
1577.5224625000001
 21
935.96250499999996
  0
LINE
  8
_0-8_小物
  6
CONTINUOUS
 62
    7
 10
1553.5224625000001
 20
939.96250499999996
 11
1554.4371074999999
 21
938.22213000000011
  0
LINE
  8
_0-8_小物
  6
CONTINUOUS
 62
    7
 10
1561.3228425000002
 20
931.33926999999994
 11
1556.6648624999998
 21
929.64390500000013
  0
LINE
  8
_0-8_小物
  6
CONTINUOUS
 62
    7
 10
1561.3228425000002
 20
940.58573999999999
 11
1556.6648624999998
 21
942.28110500000003
  0
LINE
  8
_0-8_小物
  6
CONTINUOUS
 62
    7
 10
1578.4827224999999
 20
933.94476499999996
 11
1578.2995424999999
 21
930.44956000000002
  0
LINE
  8
_0-8_小物
  6
CONTINUOUS
 62
    7
 10
1578.2995424999999
 20
930.44956000000002
 11
1580.4014775000001
 21
932.34214500000007
  0
LINE
  8
_0-8_小物
  6
CONTINUOUS
 62
    7
 10
1580.4014775000001
 20
932.34214500000007
 11
1580.4799775000001
 21
933.84008999999992
  0
LINE
  8
_0-8_小物
  6
CONTINUOUS
 62
    7
 10
1580.4799775000001
 20
933.84008999999992
 11
1549.5224625000001
 21
935.46250499999996
  0
LINE
  8
_0-8_小物
  6
CONTINUOUS
 62
    7
 10
1553.5224625000001
 20
931.96250499999996
 11
1549.5224625000001
 21
931.96250499999996
  0
LINE
  8
_0-8_小物
  6
CONTINUOUS
 62
    7
 10
1578.4827224999999
 20
937.98025000000007
 11
1578.2995424999999
 21
941.47544999999991
  0
LINE
  8
_0-8_小物
  6
CONTINUOUS
 62
    7
 10
1578.2995424999999
 20
941.47544999999991
 11
1580.4014775000001
 21
939.58286500000008
  0
LINE
  8
_0-8_小物
  6
CONTINUOUS
 62
    7
 10
1580.4014775000001
 20
939.58286500000008
 11
1580.4799775000001
 21
938.08492000000001
  0
LINE
  8
_0-8_小物
  6
CONTINUOUS
 62
    7
 10
1580.4799775000001
 20
938.08492000000001
 11
1549.5224625000001
 21
936.46250499999996
  0
LINE
  8
_0-8_小物
  6
CONTINUOUS
 62
    7
 10
1553.5224625000001
 20
939.96250499999996
 11
1549.5224625000001
 21
939.96250499999996
  0
LINE
  8
_0-8_小物
  6
CONTINUOUS
 62
    7
 10
1556.6648624999998
 20
942.28110500000003
 11
1549.8612425000001
 21
943.27346000000011
  0
ARC
  8
_0-8_小物
  6
CONTINUOUS
 62
    7
 10
1549.8035074999998
 20
942.87765000000013
 40
0.4
 50
81.701533999999995
 51
171.86989800000001
  0
LINE
  8
_0-8_小物
  6
CONTINUOUS
 62
    7
 10
1549.4075275
 20
942.9342200000001
 11
1549.3794124999999
 21
942.73739500000011
  0
ARC
  8
_0-8_小物
  6
CONTINUOUS
 62
    7
 10
1549.7753925000002
 20
942.68082499999991
 40
0.4
 50
171.86989800000001
 51
261.86989799999998
  0
LINE
  8
_0-8_小物
  6
CONTINUOUS
 62
    7
 10
1549.7188225
 20
942.28484500000013
 11
1556.3228425000002
 21
941.3414150000001
  0
LINE
  8
_0-8_小物
  6
CONTINUOUS
 62
    7
 10
1556.6648624999998
 20
929.64390500000013
 11
1549.8612425000001
 21
928.65155000000004
  0
ARC
  8
_0-8_小物
  6
CONTINUOUS
 62
    7
 10
1549.8035074999998
 20
929.04736000000003
 40
0.4
 50
188.13010199999999
 51
278.29846600000002
  0
LINE
  8
_0-8_小物
  6
CONTINUOUS
 62
    7
 10
1549.4075275
 20
928.99079499999993
 11
1549.3794124999999
 21
929.18761500000005
  0
ARC
  8
_0-8_小物
  6
CONTINUOUS
 62
    7
 10
1549.7753925000002
 20
929.24418500000002
 40
0.4
 50
98.130102000020003
 51
188.13010199999999
  0
LINE
  8
_0-8_小物
  6
CONTINUOUS
 62
    7
 10
1549.7188225
 20
929.64016500000002
 11
1556.3228425000002
 21
930.58359500000006
  0
LINE
  8
_0-8_小物
  6
CONTINUOUS
 62
    7
 10
1556.6648624999998
 20
929.64390500000013
 11
1549.8612425000001
 21
928.65155000000004
  0
ARC
  8
_0-8_小物
  6
CONTINUOUS
 62
    7
 10
1549.8035074999998
 20
929.04736000000003
 40
0.4
 50
188.13010199999999
 51
278.29846600000002
  0
LINE
  8
_0-8_小物
  6
CONTINUOUS
 62
    7
 10
1549.4075275
 20
928.99079499999993
 11
1549.3794124999999
 21
929.18761500000005
  0
ARC
  8
_0-8_小物
  6
CONTINUOUS
 62
    7
 10
1549.7753925000002
 20
929.24418500000002
 40
0.4
 50
98.130102000020003
 51
188.13010199999999
  0
LINE
  8
_0-8_小物
  6
CONTINUOUS
 62
    7
 10
1549.7188225
 20
929.64016500000002
 11
1556.3228425000002
 21
930.58359500000006
  0
LINE
  8
_0-8_小物
  6
CONTINUOUS
 62
    7
 10
1541.5224625000001
 20
930.96250499999996
 11
1546.5224625000001
 21
931.96250499999996
  0
LINE
  8
_0-8_小物
  6
CONTINUOUS
 62
    7
 10
1541.5224625000001
 20
931.96250499999996
 11
1549.5224625000001
 21
931.96250499999996
  0
LINE
  8
_0-8_小物
  6
CONTINUOUS
 62
    7
 10
1549.5224625000001
 20
935.46250499999996
 11
1549.5224625000001
 21
935.96250499999996
  0
LINE
  8
_0-8_小物
  6
CONTINUOUS
 62
    7
 10
1546.5224625000001
 20
935.96250499999996
 11
1541.5224625000001
 21
935.96250499999996
  0
LINE
  8
_0-8_小物
  6
CONTINUOUS
 62
    7
 10
1541.5224625000001
 20
934.96250499999996
 11
1546.5224625000001
 21
935.96250499999996
  0
LINE
  8
_0-8_小物
  6
CONTINUOUS
 62
    7
 10
1541.5224625000001
 20
936.96250499999996
 11
1546.5224625000001
 21
935.96250499999996
  0
LINE
  8
_0-8_小物
  6
CONTINUOUS
 62
    7
 10
1541.5224625000001
 20
940.96250499999996
 11
1546.5224625000001
 21
939.96250499999996
  0
LINE
  8
_0-8_小物
  6
CONTINUOUS
 62
    7
 10
1541.5224625000001
 20
939.96250499999996
 11
1549.5224625000001
 21
939.96250499999996
  0
LINE
  8
_0-8_小物
  6
CONTINUOUS
 62
    7
 10
1549.5224625000001
 20
936.46250499999996
 11
1549.5224625000001
 21
935.96250499999996
  0
ARC
  8
_0-8_小物
  6
CONTINUOUS
 62
    7
 10
1537.3511724999998
 20
934.45974500000011
 40
3
 50
218.61463800000001
 51
267.54107399999998
  0
ARC
  8
_0-8_小物
  6
CONTINUOUS
 62
    7
 10
1539.2224624999999
 20
935.96250499999996
 40
5.4000000000000004
 50
180
 51
218.682187
  0
ARC
  8
_0-8_小物
  6
CONTINUOUS
 62
    7
 10
1539.2224624999999
 20
935.96250499999996
 40
5.4000000000000004
 50
141.14893799999996
 51
180.00000000000003
  0
ARC
  8
_0-8_小物
  6
CONTINUOUS
 62
    7
 10
1537.3511724999998
 20
937.46526999999992
 40
3
 50
92.458926000000019
 51
141.38536199999999
  0
LINE
  8
_0-8_小物
  6
CONTINUOUS
 62
    7
 10
1537.2224624999999
 20
944.96250499999996
 11
1537.2224624999999
 21
926.96250499999996
  0
LINE
  8
_0-8_小物
  6
CONTINUOUS
 62
    7
 10
1537.2224624999999
 20
926.96250499999996
 11
1538.7224624999999
 21
926.96250499999996
  0
LINE
  8
_0-8_小物
  6
CONTINUOUS
 62
    7
 10
1537.2224624999999
 20
944.96250499999996
 11
1538.7224624999999
 21
944.96250499999996
  0
LINE
  8
_0-8_小物
  6
CONTINUOUS
 62
    7
 10
1561.379697244
 20
939.50086652179994
 11
1556.3228425000002
 21
941.3414150000001
  0
LINE
  8
_0-8_小物
  6
CONTINUOUS
 62
    7
 10
1561.379697244
 20
932.42414347819999
 11
1556.3228425000002
 21
930.58359500000006
  0
LINE
  8
_0-a_寸法
  6
CONTINUOUS
 62
    7
 10
1166.5224625000001
 20
798.74267499999996
 11
1206.5224625000001
 21
798.74267499999996
  0
LINE
  8
_0-a_寸法
  6
CONTINUOUS
 62
    7
 10
1166.5224625000001
 20
861.77877000000012
 11
1166.5224625000001
 21
793.74267499999996
  0
LINE
  8
_0-a_寸法
  6
CONTINUOUS
 62
    7
 10
1206.5224625000001
 20
861.77877000000012
 11
1206.5224625000001
 21
793.74267499999996
  0
LINE
  8
_0-a_寸法
  6
CONTINUOUS
 62
    7
 10
1166.5224625000001
 20
798.74267499999996
 11
1171.5224625000001
 21
799.99267499999996
  0
LINE
  8
_0-a_寸法
  6
CONTINUOUS
 62
    7
 10
1166.5224625000001
 20
798.74267499999996
 11
1171.5224625000001
 21
797.49267499999996
  0
LINE
  8
_0-a_寸法
  6
CONTINUOUS
 62
    7
 10
1206.5224625000001
 20
798.74267499999996
 11
1201.5224625000001
 21
797.49267499999996
  0
LINE
  8
_0-a_寸法
  6
CONTINUOUS
 62
    7
 10
1206.5224625000001
 20
798.74267499999996
 11
1201.5224625000001
 21
799.99267499999996
  0
LINE
  8
_0-a_寸法
  6
CONTINUOUS
 62
    7
 10
1206.5224625000001
 20
798.74267499999996
 11
1211.5224625000001
 21
799.99267499999996
  0
LINE
  8
_0-a_寸法
  6
CONTINUOUS
 62
    7
 10
1206.5224625000001
 20
798.74267499999996
 11
1211.5224625000001
 21
797.49267499999996
  0
LINE
  8
_0-a_寸法
  6
CONTINUOUS
 62
    7
 10
1276.5224625000001
 20
907.46250499999996
 11
1276.5224625000001
 21
815.27321000000006
  0
LINE
  8
_0-a_寸法
  6
CONTINUOUS
 62
    7
 10
1276.5224625000001
 20
820.27321000000006
 11
1281.5224625000001
 21
821.52321000000006
  0
LINE
  8
_0-a_寸法
  6
CONTINUOUS
 62
    7
 10
1276.5224625000001
 20
820.27321000000006
 11
1281.5224625000001
 21
819.02321000000006
  0
LINE
  8
_0-a_寸法
  6
CONTINUOUS
 62
    7
 10
1276.5224625000001
 20
820.27321000000006
 11
1291.5224625000001
 21
820.27321000000006
  0
LINE
  8
_0-a_寸法
  6
CONTINUOUS
 62
    7
 10
1102.7989124999999
 20
992.96250499999996
 11
1102.7989124999999
 21
932.46250499999996
  0
LINE
  8
_0-a_寸法
  6
CONTINUOUS
 62
    7
 10
1121.4865875
 20
932.46250499999996
 11
1097.7989124999999
 21
932.46250499999996
  0
LINE
  8
_0-a_寸法
  6
CONTINUOUS
 62
    7
 10
1102.7989124999999
 20
992.96250499999996
 11
1104.0489124999999
 21
987.96250499999996
  0
LINE
  8
_0-a_寸法
  6
CONTINUOUS
 62
    7
 10
1102.7989124999999
 20
992.96250499999996
 11
1101.5489124999999
 21
987.96250499999996
  0
LINE
  8
_0-a_寸法
  6
CONTINUOUS
 62
    7
 10
1102.7989124999999
 20
932.46250499999996
 11
1101.5489124999999
 21
937.46250499999996
  0
LINE
  8
_0-a_寸法
  6
CONTINUOUS
 62
    7
 10
1102.7989124999999
 20
932.46250499999996
 11
1104.0489124999999
 21
937.46250499999996
  0
LINE
  8
_0-a_寸法
  6
CONTINUOUS
 62
    7
 10
1102.7989124999999
 20
932.46250499999996
 11
1102.7989124999999
 21
907.96250499999996
  0
LINE
  8
_0-a_寸法
  6
CONTINUOUS
 62
    7
 10
1121.4865875
 20
907.96250499999996
 11
1097.7989124999999
 21
907.96250499999996
  0
LINE
  8
_0-a_寸法
  6
CONTINUOUS
 62
    7
 10
1102.7989124999999
 20
932.46250499999996
 11
1104.0489124999999
 21
927.46250499999996
  0
LINE
  8
_0-a_寸法
  6
CONTINUOUS
 62
    7
 10
1102.7989124999999
 20
932.46250499999996
 11
1101.5489124999999
 21
927.46250499999996
  0
LINE
  8
_0-a_寸法
  6
CONTINUOUS
 62
    7
 10
1102.7989124999999
 20
907.96250499999996
 11
1101.5489124999999
 21
912.96250499999996
  0
LINE
  8
_0-a_寸法
  6
CONTINUOUS
 62
    7
 10
1102.7989124999999
 20
907.96250499999996
 11
1104.0489124999999
 21
912.96250499999996
  0
LINE
  8
_0-a_寸法
  6
CONTINUOUS
 62
    7
 10
1102.7989124999999
 20
907.96250499999996
 11
1102.7989124999999
 21
897.96250499999996
  0
LINE
  8
_0-a_寸法
  6
CONTINUOUS
 62
    7
 10
1144.0224625000001
 20
897.96250499999996
 11
1097.7989124999999
 21
897.96250499999996
  0
LINE
  8
_0-a_寸法
  6
CONTINUOUS
 62
    7
 10
1102.7989124999999
 20
897.96250499999996
 11
1104.0489124999999
 21
892.96250499999996
  0
LINE
  8
_0-a_寸法
  6
CONTINUOUS
 62
    7
 10
1102.7989124999999
 20
897.96250499999996
 11
1101.5489124999999
 21
892.96250499999996
  0
LINE
  8
_0-a_寸法
  6
CONTINUOUS
 62
    7
 10
1102.7989124999999
 20
897.96250499999996
 11
1102.7989124999999
 21
882.96250499999996
  0
LINE
  8
_0-a_寸法
  6
CONTINUOUS
 62
    7
 10
1176.5224625000001
 20
934.21250499999996
 11
1176.5224625000001
 21
1038.037495
  0
LINE
  8
_0-a_寸法
  6
CONTINUOUS
 62
    7
 10
1176.5224625000001
 20
1033.037495
 11
1181.5224625000001
 21
1034.287495
  0
LINE
  8
_0-a_寸法
  6
CONTINUOUS
 62
    7
 10
1176.5224625000001
 20
1033.037495
 11
1181.5224625000001
 21
1031.787495
  0
LINE
  8
_0-a_寸法
  6
CONTINUOUS
 62
    7
 10
1176.5224625000001
 20
1010.1758750000001
 11
1276.5224625000001
 21
1010.1758750000001
  0
LINE
  8
_0-a_寸法
  6
CONTINUOUS
 62
    7
 10
1276.5224625000001
 20
933.46250499999996
 11
1276.5224625000001
 21
1015.1758750000001
  0
LINE
  8
_0-a_寸法
  6
CONTINUOUS
 62
    7
 10
1176.5224625000001
 20
1010.1758750000001
 11
1181.5224625000001
 21
1011.4258750000001
  0
LINE
  8
_0-a_寸法
  6
CONTINUOUS
 62
    7
 10
1176.5224625000001
 20
1010.1758750000001
 11
1181.5224625000001
 21
1008.9258750000001
  0
LINE
  8
_0-a_寸法
  6
CONTINUOUS
 62
    7
 10
1276.5224625000001
 20
1010.1758750000001
 11
1271.5224625000001
 21
1008.9258750000001
  0
LINE
  8
_0-a_寸法
  6
CONTINUOUS
 62
    7
 10
1276.5224625000001
 20
1010.1758750000001
 11
1271.5224625000001
 21
1011.4258750000001
  0
LINE
  8
_0-a_寸法
  6
CONTINUOUS
 62
    7
 10
1276.5224625000001
 20
1010.1758750000001
 11
1281.5224625000001
 21
1011.4258750000001
  0
LINE
  8
_0-a_寸法
  6
CONTINUOUS
 62
    7
 10
1276.5224625000001
 20
1010.1758750000001
 11
1281.5224625000001
 21
1008.9258750000001
  0
LINE
  8
_0-a_寸法
  6
CONTINUOUS
 62
    7
 10
1152.6121825
 20
901.93309999999997
 11
1126.2705725000001
 21
856.30809999999997
  0
TEXT
  8
_0-a_寸法
 62
    7
 10
1216.0224625000001
 20
1010.1758750000001
 40
14
 41
1
 50
0
  1
100
  0
TEXT
  8
_0-a_寸法
 62
    7
 10
1102.7989128670001
 20
955.71250499999996
 40
14
 41
1
 50
90.000003000000035
  1
60
  0
TEXT
  8
_0-a_寸法
 62
    7
 10
1102.7989128670001
 20
913.21250499999996
 40
14
 41
1
 50
90.000003000000035
  1
25
  0
TEXT
  8
_0-a_寸法
 62
    7
 10
1102.7989128670001
 20
883.46250499999996
 40
14
 41
1
 50
90.000003000000035
  1
10
  0
TEXT
  8
_0-a_寸法
 62
    7
 10
1179.5224625000001
 20
798.74267499999996
 40
14
 41
1
 50
0
  1
40
  0
TEXT
  8
_0-a_寸法
 62
    7
 10
972.27057249999996
 20
856.30809999999997
 40
14
 41
1
 50
0
  1
ならしモルタル（別途）
  0
LINE
  8
_0-a_寸法
  6
CONTINUOUS
 62
    7
 10
1126.2705725000001
 20
856.30809999999997
 11
970.23856917369994
 21
856.30809999999997
  0
CIRCLE
  8
_0-a_寸法
  6
CONTINUOUS
 62
    7
 10
1213.0391024999999
 20
912.22886500000004
 40
1
  0
CIRCLE
  8
_0-a_寸法
  6
CONTINUOUS
 62
    7
 10
1152.6121825
 20
901.93309999999997
 40
1.5
  0
CIRCLE
  8
_0-a_寸法
  6
CONTINUOUS
 62
    7
 10
1161.5328774999998
 20
881.17172000000005
 40
1.5
  0
LINE
  8
_0-3_躯体
  6
CONTINUOUS
 62
    7
 10
1146.5224625000001
 20
907.96250499999996
 11
1146.5224625000001
 21
897.96250499999996
  0
LINE
  8
_0-3_躯体
  6
CONTINUOUS
 62
    7
 10
1202.8828524999999
 20
897.96250499999996
 11
1212.8828524999999
 21
907.96250499999996
  0
LINE
  8
_0-3_躯体
  6
CONTINUOUS
 62
    7
 10
1209.9539224999999
 20
897.96250499999996
 11
1219.9539224999999
 21
907.96250499999996
  0
LINE
  8
_0-3_躯体
  6
CONTINUOUS
 62
    7
 10
1217.0249875
 20
897.96250499999996
 11
1227.0249875
 21
907.96250499999996
  0
LINE
  8
_0-3_躯体
  6
CONTINUOUS
 62
    7
 10
1224.0960574999999
 20
897.96250499999996
 11
1234.0960574999999
 21
907.96250499999996
  0
LINE
  8
_0-3_躯体
  6
CONTINUOUS
 62
    7
 10
1231.1671274999999
 20
897.96250499999996
 11
1241.1671274999999
 21
907.96250499999996
  0
LINE
  8
_0-3_躯体
  6
CONTINUOUS
 62
    7
 10
1195.8117874999998
 20
897.96250499999996
 11
1205.8117874999998
 21
907.96250499999996
  0
LINE
  8
_0-3_躯体
  6
CONTINUOUS
 62
    7
 10
1188.7407174999998
 20
897.96250499999996
 11
1198.7407174999998
 21
907.96250499999996
  0
LINE
  8
_0-3_躯体
  6
CONTINUOUS
 62
    7
 10
1181.6696525000002
 20
897.96250499999996
 11
1191.6696525000002
 21
907.96250499999996
  0
LINE
  8
_0-3_躯体
  6
CONTINUOUS
 62
    7
 10
1174.5985824999998
 20
897.96250499999996
 11
1184.5985824999998
 21
907.96250499999996
  0
LINE
  8
_0-3_躯体
  6
CONTINUOUS
 62
    7
 10
1167.5275124999998
 20
897.96250499999996
 11
1177.5275124999998
 21
907.96250499999996
  0
LINE
  8
_0-3_躯体
  6
CONTINUOUS
 62
    7
 10
1160.4564475000002
 20
897.96250499999996
 11
1170.4564475000002
 21
907.96250499999996
  0
LINE
  8
_0-3_躯体
  6
CONTINUOUS
 62
    7
 10
1153.3853774999998
 20
897.96250499999996
 11
1163.3853774999998
 21
907.96250499999996
  0
LINE
  8
_0-3_躯体
  6
CONTINUOUS
 62
    7
 10
1146.5224625000001
 20
898.17066
 11
1156.3143125000001
 21
907.96250499999996
  0
LINE
  8
_0-3_躯体
  6
CONTINUOUS
 62
    7
 10
1146.5224625000001
 20
905.24172500000009
 11
1149.2432425000002
 21
907.96250499999996
  0
LINE
  8
_0-3_躯体
  6
DOT_17
 62
    7
 10
1123.9865875
 20
932.46250499999996
 11
1123.9865875
 21
820.27321000000006
  0
LINE
  8
_0-3_躯体
  6
CONTINUOUS
 62
    7
 10
1180.5224625000001
 20
919.19084619509999
 11
1174.2941213049999
 21
912.96250499999996
  0
LINE
  8
_0-3_躯体
  6
CONTINUOUS
 62
    7
 10
1177.723053493
 20
923.46250499999996
 11
1169.6354543779998
 21
915.3749058848
  0
LINE
  8
_0-3_躯体
  6
CONTINUOUS
 62
    7
 10
1176.5224625000001
 20
929.33298181879991
 11
1160.151985681
 21
912.96250499999996
  0
LINE
  8
_0-3_躯体
  6
CONTINUOUS
 62
    7
 10
1172.5809178690001
 20
932.46250499999996
 11
1148.0809178690001
 21
907.96250499999996
  0
LINE
  8
_0-3_躯体
  6
CONTINUOUS
 62
    7
 10
1165.5098500569998
 20
932.46250499999996
 11
1141.0098500569998
 21
907.96250499999996
  0
LINE
  8
_0-3_躯体
  6
CONTINUOUS
 62
    7
 10
1158.4387822459998
 20
932.46250499999996
 11
1133.9387822459998
 21
907.96250499999996
  0
LINE
  8
_0-3_躯体
  6
CONTINUOUS
 62
    7
 10
1151.3677144339999
 20
932.46250499999996
 11
1126.8677144339999
 21
907.96250499999996
  0
LINE
  8
_0-3_躯体
  6
CONTINUOUS
 62
    7
 10
1144.296646622
 20
932.46250499999996
 11
1123.9865875
 21
912.15244587820007
  0
LINE
  8
_0-3_躯体
  6
CONTINUOUS
 62
    7
 10
1137.2255788100001
 20
932.46250499999996
 11
1123.9865875
 21
919.22351369000012
  0
LINE
  8
_0-3_躯体
  6
CONTINUOUS
 62
    7
 10
1130.1545109980002
 20
932.46250499999996
 11
1123.9865875
 21
926.29458150189998
  0
LINE
  8
_0-3_躯体
  6
CONTINUOUS
 62
    7
 10
1177.2724674999999
 20
932.46250499999996
 11
1123.9865875
 21
932.46250499999996
  0
LINE
  8
_0-4_フレ_ム
  6
CONTINUOUS
 62
    7
 10
1206.5224625000001
 20
915.14699999999993
 11
1206.5224625000001
 21
864.27877000000012
  0
LINE
  8
_0-4_フレ_ム
  6
CONTINUOUS
 62
    7
 10
1278.0224625000001
 20
923.71250499999996
 11
1278.0224625000001
 21
918.71250499999996
  0
LINE
  8
_0-4_フレ_ム
  6
CONTINUOUS
 62
    7
 10
1278.0224625000001
 20
918.71250499999996
 11
1276.5224625000001
 21
918.71250499999996
  0
LINE
  8
_0-4_フレ_ム
  6
CONTINUOUS
 62
    7
 10
1273.5224625000001
 20
918.71250499999996
 11
1272.0224625000001
 21
918.71250499999996
  0
LINE
  8
_0-4_フレ_ム
  6
CONTINUOUS
 62
    7
 10
1272.0224625000001
 20
918.71250499999996
 11
1272.0224625000001
 21
923.71250499999996
  0
LINE
  8
_0-4_フレ_ム
  6
CONTINUOUS
 62
    7
 10
1207.0224625000001
 20
911.46250499999996
 11
1226.5224625000001
 21
911.46250499999996
  0
ARC
  8
_0-4_フレ_ム
  6
CONTINUOUS
 62
    7
 10
1185.0224625000001
 20
913.46250499999996
 40
2
 50
180
 51
270
  0
LINE
  8
_0-4_フレ_ム
  6
CONTINUOUS
 62
    7
 10
1206.0224625000001
 20
911.46250499999996
 11
1185.0224625000001
 21
911.46250499999996
  0
LINE
  8
_0-4_フレ_ム
  6
CONTINUOUS
 62
    7
 10
1275.5224625000001
 20
908.96250499999996
 11
1218.0224625000001
 21
908.96250499999996
  0
LINE
  8
_0-4_フレ_ム
  6
CONTINUOUS
 62
    7
 10
1183.0224625000001
 20
913.46250499999996
 11
1183.0224625000001
 21
924.96250499999996
  0
ARC
  8
_0-4_フレ_ム
  6
CONTINUOUS
 62
    7
 10
1180.0224625000001
 20
925.46250499999996
 40
0.5
 50
270
 51
0
  0
LINE
  8
_0-4_フレ_ム
  6
CONTINUOUS
 62
    7
 10
1180.0224625000001
 20
924.96250499999996
 11
1178.5224625000001
 21
924.96250499999996
  0
LINE
  8
_0-4_フレ_ム
  6
CONTINUOUS
 62
    7
 10
1177.0224625000001
 20
923.46250499999996
 11
1179.5224625000001
 21
923.46250499999996
  0
ARC
  8
_0-4_フレ_ム
  6
CONTINUOUS
 62
    7
 10
1179.5224625000001
 20
922.46250499999996
 40
1
 50
0
 51
90
  0
LINE
  8
_0-4_フレ_ム
  6
CONTINUOUS
 62
    7
 10
1180.5224625000001
 20
922.46250499999996
 11
1180.5224625000001
 21
913.46250499999996
  0
LINE
  8
_0-4_フレ_ム
  6
CONTINUOUS
 62
    7
 10
1180.5224625000001
 20
925.46250499999996
 11
1180.5224625000001
 21
929.46250499999996
  0
LINE
  8
_0-4_フレ_ム
  6
CONTINUOUS
 62
    7
 10
1273.5224625000001
 20
923.71250499999996
 11
1273.5224724999998
 21
920.71250499999996
  0
ARC
  8
_0-4_フレ_ム
  6
CONTINUOUS
 62
    7
 10
1270.5224625000001
 20
915.46250499999996
 40
3
 50
270
 51
0
  0
LINE
  8
_0-4_フレ_ム
  6
CONTINUOUS
 62
    7
 10
1273.5224724999998
 20
918.71250499999996
 11
1273.5224625000001
 21
915.46250000000009
  0
LINE
  8
_0-4_フレ_ム
  6
CONTINUOUS
 62
    7
 10
1195.0224625000001
 20
908.96250499999996
 11
1195.0224625000001
 21
909.46250499999996
  0
LINE
  8
_0-4_フレ_ム
  6
CONTINUOUS
 62
    7
 10
1195.0224625000001
 20
909.46250499999996
 11
1200.0224625000001
 21
909.46250499999996
  0
LINE
  8
_0-4_フレ_ム
  6
CONTINUOUS
 62
    7
 10
1200.0224625000001
 20
909.46250499999996
 11
1200.0224625000001
 21
908.96250499999996
  0
LINE
  8
_0-4_フレ_ム
  6
CONTINUOUS
 62
    7
 10
1213.0224625000001
 20
908.96250499999996
 11
1213.0224625000001
 21
909.46250499999996
  0
LINE
  8
_0-4_フレ_ム
  6
CONTINUOUS
 62
    7
 10
1213.0224625000001
 20
909.46250499999996
 11
1218.0224625000001
 21
909.46250499999996
  0
LINE
  8
_0-4_フレ_ム
  6
CONTINUOUS
 62
    7
 10
1218.0224625000001
 20
909.46250499999996
 11
1218.0224625000001
 21
908.96250499999996
  0
LINE
  8
_0-4_フレ_ム
  6
CONTINUOUS
 62
    7
 10
1195.0224625000001
 20
908.96250499999996
 11
1178.0224625000001
 21
908.96250499999996
  0
LINE
  8
_0-4_フレ_ム
  6
CONTINUOUS
 62
    7
 10
1207.0224625000001
 20
911.46250499999996
 11
1206.5224625000001
 21
910.96250499999996
  0
LINE
  8
_0-4_フレ_ム
  6
CONTINUOUS
 62
    7
 10
1206.0224625000001
 20
911.46250499999996
 11
1206.5224625000001
 21
910.96250499999996
  0
ARC
  8
_0-4_フレ_ム
  6
CONTINUOUS
 62
    7
 10
1275.5224625000001
 20
909.96250499999996
 40
1
 50
270
 51
0
  0
LINE
  8
_0-4_フレ_ム
  6
CONTINUOUS
 62
    7
 10
1276.5224625000001
 20
923.71250499999996
 11
1276.5224625000001
 21
920.71250499999996
  0
LINE
  8
_0-4_フレ_ム
  6
CONTINUOUS
 62
    7
 10
1276.5224625000001
 20
918.71250499999996
 11
1276.5224625000001
 21
909.96250499999996
  0
ARC
  8
_0-4_フレ_ム
  6
CONTINUOUS
 62
    7
 10
1177.0224625000001
 20
923.96250499999996
 40
0.5
 50
180
 51
270
  0
LINE
  8
_0-4_フレ_ム
  6
CONTINUOUS
 62
    7
 10
1176.5224625000001
 20
931.71250499999996
 11
1176.5224625000001
 21
923.96250499999996
  0
ARC
  8
_0-4_フレ_ム
  6
CONTINUOUS
 62
    7
 10
1178.5224625000001
 20
925.46250499999996
 40
0.5
 50
180
 51
270
  0
LINE
  8
_0-4_フレ_ム
  6
CONTINUOUS
 62
    7
 10
1178.0224625000001
 20
931.71250499999996
 11
1178.0224625000001
 21
925.46250499999996
  0
LINE
  8
_0-4_フレ_ム
  6
CONTINUOUS
 62
    7
 10
1184.0224625000001
 20
928.46250499999996
 11
1184.0224625000001
 21
929.46250499999996
  0
LINE
  8
_0-4_フレ_ム
  6
CONTINUOUS
 62
    7
 10
1192.0224625000001
 20
928.46250499999996
 11
1188.5224625000001
 21
928.46250499999996
  0
LINE
  8
_0-4_フレ_ム
  6
CONTINUOUS
 62
    7
 10
1184.0224625000001
 20
928.46250499999996
 11
1187.5224625000001
 21
928.46250499999996
  0
LINE
  8
_0-4_フレ_ム
  6
CONTINUOUS
 62
    7
 10
1192.0224625000001
 20
928.46250499999996
 11
1192.0224625000001
 21
929.46250499999996
  0
ARC
  8
_0-4_フレ_ム
  6
CONTINUOUS
 62
    7
 10
1192.5224625000001
 20
929.46250499999996
 40
0.5
 50
90
 51
180
  0
ARC
  8
_0-4_フレ_ム
  6
CONTINUOUS
 62
    7
 10
1195.0224625000001
 20
929.46250499999996
 40
0.5
 50
0
 51
90
  0
ARC
  8
_0-4_フレ_ム
  6
CONTINUOUS
 62
    7
 10
1183.5224625000001
 20
929.46250499999996
 40
0.5
 50
0
 51
90
  0
LINE
  8
_0-4_フレ_ム
  6
CONTINUOUS
 62
    7
 10
1195.5224625000001
 20
927.96250499999996
 11
1195.5224625000001
 21
929.46250499999996
  0
ARC
  8
_0-4_フレ_ム
  6
CONTINUOUS
 62
    7
 10
1193.5224625000001
 20
927.96250499999996
 40
2
 50
270
 51
0
  0
ARC
  8
_0-4_フレ_ム
  6
CONTINUOUS
 62
    7
 10
1184.0224625000001
 20
924.96250499999996
 40
1
 50
90
 51
180
  0
LINE
  8
_0-4_フレ_ム
  6
CONTINUOUS
 62
    7
 10
1193.5224625000001
 20
925.96250499999996
 11
1184.0224625000001
 21
925.96250499999996
  0
ARC
  8
_0-4_フレ_ム
  6
CONTINUOUS
 62
    7
 10
1177.2724625000001
 20
931.71250499999996
 40
0.75
 50
0
 51
180
  0
LINE
  8
_0-4_フレ_ム
  6
CONTINUOUS
 62
    7
 10
1188.5224625000001
 20
928.46250499999996
 11
1188.0224625000001
 21
927.96250499999996
  0
LINE
  8
_0-4_フレ_ム
  6
CONTINUOUS
 62
    7
 10
1187.5224625000001
 20
928.46250499999996
 11
1188.0224625000001
 21
927.96250499999996
  0
LINE
  8
_0-4_フレ_ム
  6
CONTINUOUS
 62
    7
 10
1155.0224625000001
 20
908.96250499999996
 11
1155.0224625000001
 21
909.46250499999996
  0
LINE
  8
_0-4_フレ_ム
  6
CONTINUOUS
 62
    7
 10
1155.0224625000001
 20
909.46250499999996
 11
1160.0224625000001
 21
909.46250499999996
  0
LINE
  8
_0-4_フレ_ム
  6
CONTINUOUS
 62
    7
 10
1160.0224625000001
 20
909.46250499999996
 11
1160.0224625000001
 21
908.96250499999996
  0
LINE
  8
_0-4_フレ_ム
  6
CONTINUOUS
 62
    7
 10
1173.0224625000001
 20
908.96250499999996
 11
1173.0224625000001
 21
909.46250499999996
  0
LINE
  8
_0-4_フレ_ム
  6
CONTINUOUS
 62
    7
 10
1173.0224625000001
 20
909.46250499999996
 11
1178.0224625000001
 21
909.46250499999996
  0
LINE
  8
_0-4_フレ_ム
  6
CONTINUOUS
 62
    7
 10
1178.0224625000001
 20
909.46250499999996
 11
1178.0224625000001
 21
908.96250499999996
  0
ARC
  8
_0-4_フレ_ム
  6
CONTINUOUS
 62
    7
 10
1178.5224625000001
 20
913.46250499999996
 40
2
 50
270
 51
0
  0
ARC
  8
_0-4_フレ_ム
  6
CONTINUOUS
 62
    7
 10
1152.0224625000001
 20
909.46250499999996
 40
0.5
 50
180
 51
270
  0
ARC
  8
_0-4_フレ_ム
  6
CONTINUOUS
 62
    7
 10
1152.0224625000001
 20
910.96250499999996
 40
0.5
 50
90
 51
180
  0
LINE
  8
_0-4_フレ_ム
  6
CONTINUOUS
 62
    7
 10
1178.5224625000001
 20
911.46250499999996
 11
1152.0224625000001
 21
911.46250499999996
  0
LINE
  8
_0-4_フレ_ム
  6
CONTINUOUS
 62
    7
 10
1151.5224625000001
 20
910.96250499999996
 11
1151.5224625000001
 21
909.46250499999996
  0
LINE
  8
_0-4_フレ_ム
  6
CONTINUOUS
 62
    7
 10
1226.5224625000001
 20
911.46250499999996
 11
1231.5224625000001
 21
912.46250499999996
  0
LINE
  8
_0-4_フレ_ム
  6
CONTINUOUS
 62
    7
 10
1231.5224625000001
 20
912.46250499999996
 11
1270.5224625000001
 21
912.46250499999996
  0
ARC
  8
_0-4_フレ_ム
  6
CONTINUOUS
 62
    7
 10
1275.0224625000001
 20
923.71250499999996
 40
1.7
 50
0
 51
180
  0
ARC
  8
_0-4_フレ_ム
  6
CONTINUOUS
 62
    7
 10
1275.0224724999998
 20
923.71250499999996
 40
1.499995
 50
0
 51
180
  0
ARC
  8
_0-4_フレ_ム
  6
CONTINUOUS
 62
    7
 10
1275.0224625000001
 20
923.71250499999996
 40
3
 50
0
 51
180
  0
LINE
  8
_0-4_フレ_ム
  6
CONTINUOUS
 62
    7
 10
1206.5224625000001
 20
864.27877000000012
 11
1206.5224625000001
 21
919.96254500000009
  0
LINE
  8
_0-4_フレ_ム
  6
CONTINUOUS
 62
    7
 10
1166.5224625000001
 20
864.27877000000012
 11
1166.5224625000001
 21
919.96254500000009
  0
LINE
  8
_0-4_フレ_ム
  6
CONTINUOUS
 62
    7
 10
1273.5224724999998
 20
920.71250499999996
 11
1274.0224724999998
 21
920.71250499999996
  0
LINE
  8
_0-4_フレ_ム
  6
CONTINUOUS
 62
    7
 10
1274.0224724999998
 20
920.71250499999996
 11
1273.5224625000001
 21
918.71250499999996
  0
LINE
  8
_0-4_フレ_ム
  6
CONTINUOUS
 62
    7
 10
1276.5224625000001
 20
920.71250499999996
 11
1276.0224625000001
 21
920.71250499999996
  0
LINE
  8
_0-4_フレ_ム
  6
CONTINUOUS
 62
    7
 10
1276.0224625000001
 20
920.71250499999996
 11
1276.5224625000001
 21
918.71250499999996
  0
LINE
  8
_0-4_フレ_ム
  6
CONTINUOUS
 62
    7
 10
1273.5224724999998
 20
920.71250499999996
 11
1273.3224725
 21
920.71250499999996
  0
LINE
  8
_0-4_フレ_ム
  6
CONTINUOUS
 62
    7
 10
1273.3224725
 20
920.71250499999996
 11
1273.3224624999998
 21
923.71250499999996
  0
LINE
  8
_0-4_フレ_ム
  6
CONTINUOUS
 62
    7
 10
1276.5224625000001
 20
920.71250499999996
 11
1276.7224624999999
 21
920.71250499999996
  0
LINE
  8
_0-4_フレ_ム
  6
CONTINUOUS
 62
    7
 10
1276.7224624999999
 20
920.71250499999996
 11
1276.7224624999999
 21
923.71250499999996
  0
LINE
  8
_0-4_フレ_ム
  6
CONTINUOUS
 62
    7
 10
1267.1943824999998
 20
908.96250499999996
 11
1151.5224674999999
 21
908.96250499999996
  0
ARC
  8
_0-4_フレ_ム
  6
CONTINUOUS
 62
    7
 10
1181.0224625000001
 20
929.46250499999996
 40
0.5
 50
90
 51
180
  0
ARC
  8
_0-8_小物
  6
CONTINUOUS
 62
    7
 10
1205.0196974999999
 20
912.83379500000001
 40
3
 50
128.61463800000001
 51
177.54107400000001
  0
ARC
  8
_0-8_小物
  6
CONTINUOUS
 62
    7
 10
1206.5224625000001
 20
910.96250499999996
 40
5.4000000000000004
 50
90
 51
128.682187
  0
ARC
  8
_0-8_小物
  6
CONTINUOUS
 62
    7
 10
1206.5224625000001
 20
910.96250499999996
 40
5.4000000000000004
 50
51.148938000000001
 51
90
  0
ARC
  8
_0-8_小物
  6
CONTINUOUS
 62
    7
 10
1208.0252224999999
 20
912.83379500000001
 40
3
 50
2.458925999996
 51
51.385362000000001
  0
LINE
  8
_0-8_小物
  6
CONTINUOUS
 62
    7
 10
1215.5224625000001
 20
912.96250499999996
 11
1197.5224625000001
 21
912.96250499999996
  0
LINE
  8
_0-8_小物
  6
CONTINUOUS
 62
    7
 10
1197.5224625000001
 20
912.96250499999996
 11
1197.5224625000001
 21
911.46250499999996
  0
LINE
  8
_0-8_小物
  6
CONTINUOUS
 62
    7
 10
1215.5224625000001
 20
912.96250499999996
 11
1215.5224625000001
 21
911.46250499999996
  0
ARC
  8
_0-8_小物
  6
CONTINUOUS
 62
    7
 10
1165.0196974999999
 20
912.83379500000001
 40
3
 50
128.61463800000001
 51
177.54107400000001
  0
ARC
  8
_0-8_小物
  6
CONTINUOUS
 62
    7
 10
1166.5224625000001
 20
910.96250499999996
 40
5.4000000000000004
 50
90
 51
128.682187
  0
ARC
  8
_0-8_小物
  6
CONTINUOUS
 62
    7
 10
1166.5224625000001
 20
910.96250499999996
 40
5.4000000000000004
 50
51.148938000000001
 51
90
  0
ARC
  8
_0-8_小物
  6
CONTINUOUS
 62
    7
 10
1168.0252224999999
 20
912.83379500000001
 40
3
 50
2.458925999996
 51
51.385362000000001
  0
LINE
  8
_0-8_小物
  6
CONTINUOUS
 62
    7
 10
1175.5224625000001
 20
912.96250499999996
 11
1157.5224625000001
 21
912.96250499999996
  0
LINE
  8
_0-8_小物
  6
CONTINUOUS
 62
    7
 10
1157.5224625000001
 20
912.96250499999996
 11
1157.5224625000001
 21
911.46250499999996
  0
LINE
  8
_0-8_小物
  6
CONTINUOUS
 62
    7
 10
1175.5224625000001
 20
912.96250499999996
 11
1175.5224625000001
 21
911.46250499999996
  0
LINE
  8
_0-5_止水補助板
  6
CONTINUOUS
 62
    7
 10
1155.0224625000001
 20
908.96250499999996
 11
1152.0224625000001
 21
908.96250499999996
  0
LINE
  8
_0-5_止水補助板
  6
CONTINUOUS
 62
    7
 10
1151.5224674999999
 20
908.96250499999996
 11
1151.5224674999999
 21
907.96250499999996
  0
LINE
  8
_0-3_躯体
  6
CONTINUOUS
 62
    7
 10
1267.1943824999998
 20
907.96250499999996
 11
1151.5224674999999
 21
907.96250499999996
  0
LINE
  8
_0-4_フレ_ム
  6
CONTINUOUS
 62
    7
 10
1173.0224625000001
 20
908.96250499999996
 11
1160.0224625000001
 21
908.96250499999996
  0
LINE
  8
_0-4_フレ_ム
  6
CONTINUOUS
 62
    7
 10
1200.0224625000001
 20
908.96250499999996
 11
1213.0224625000001
 21
908.96250499999996
  0
LINE
  8
_0-4_フレ_ム
  6
CONTINUOUS
 62
    7
 10
1192.5224625000001
 20
929.96250499999996
 11
1195.0224625000001
 21
929.96250499999996
  0
LINE
  8
_0-4_フレ_ム
  6
CONTINUOUS
 62
    7
 10
1192.5224625000001
 20
929.96250499999996
 11
1195.0224625000001
 21
929.96250499999996
  0
LINE
  8
_0-4_フレ_ム
  6
CONTINUOUS
 62
    7
 10
1181.0224625000001
 20
929.96250499999996
 11
1183.5224625000001
 21
929.96250499999996
  0
LINE
  8
_0-4_フレ_ム
  6
CONTINUOUS
 62
    7
 10
1181.0224625000001
 20
929.96250499999996
 11
1183.5224625000001
 21
929.96250499999996
  0
LINE
  8
_0-3_躯体
  6
CONTINUOUS
 62
    7
 10
1146.5224625000001
 20
907.96250499999996
 11
1123.9865875
 21
907.96250499999996
  0
LINE
  8
_0-3_躯体
  6
CONTINUOUS
 62
    7
 10
1151.5224674999999
 20
907.96250499999996
 11
1146.5224625000001
 21
907.96250499999996
  0
LINE
  8
_0-8_小物
  6
CONTINUOUS
 62
    7
 10
1201.1141874999998
 20
873.18268499999999
 11
1201.0095175000001
 21
871.18542500000012
  0
LINE
  8
_0-8_小物
  6
CONTINUOUS
 62
    7
 10
1201.2711975000002
 20
876.17857000000004
 11
1203.2161175000001
 21
875.07527000000005
  0
LINE
  8
_0-8_小物
  6
CONTINUOUS
 62
    7
 10
1203.2161175000001
 20
875.07527000000005
 11
1203.1114474999999
 21
873.07800999999995
  0
LINE
  8
_0-8_小物
  6
CONTINUOUS
 62
    7
 10
1203.1114474999999
 20
873.07800999999995
 11
1201.1141874999998
 21
873.18268499999999
  0
LINE
  8
_0-8_小物
  6
CONTINUOUS
 62
    7
 10
1201.3758674999999
 20
878.17583000000013
 11
1201.2711975000002
 21
876.17857000000004
  0
LINE
  8
_0-8_小物
  6
CONTINUOUS
 62
    7
 10
1201.5328774999998
 20
881.17172000000005
 11
1203.4777975000002
 21
880.06842000000006
  0
LINE
  8
_0-8_小物
  6
CONTINUOUS
 62
    7
 10
1203.4777975000002
 20
880.06842000000006
 11
1203.3731275
 21
878.07115999999996
  0
LINE
  8
_0-8_小物
  6
CONTINUOUS
 62
    7
 10
1203.3731275
 20
878.07115999999996
 11
1201.3758674999999
 21
878.17583000000013
  0
LINE
  8
_0-8_小物
  6
CONTINUOUS
 62
    7
 10
1201.6375475
 20
883.16897999999992
 11
1201.5328774999998
 21
881.17172000000005
  0
LINE
  8
_0-8_小物
  6
CONTINUOUS
 62
    7
 10
1201.7945574999999
 20
886.16487000000006
 11
1203.7394774999998
 21
885.06156499999997
  0
LINE
  8
_0-8_小物
  6
CONTINUOUS
 62
    7
 10
1203.7394774999998
 20
885.06156499999997
 11
1203.6348075000001
 21
883.0643050000001
  0
LINE
  8
_0-8_小物
  6
CONTINUOUS
 62
    7
 10
1203.6348075000001
 20
883.0643050000001
 11
1201.6375475
 21
883.16897999999992
  0
LINE
  8
_0-8_小物
  6
CONTINUOUS
 62
    7
 10
1201.8992275000001
 20
888.16212500000006
 11
1201.7945574999999
 21
886.16487000000006
  0
LINE
  8
_0-8_小物
  6
CONTINUOUS
 62
    7
 10
1202.0562375
 20
891.15801499999998
 11
1204.0011574999999
 21
890.05471499999999
  0
LINE
  8
_0-8_小物
  6
CONTINUOUS
 62
    7
 10
1204.0011574999999
 20
890.05471499999999
 11
1203.8964875000001
 21
888.05745500000012
  0
LINE
  8
_0-8_小物
  6
CONTINUOUS
 62
    7
 10
1203.8964875000001
 20
888.05745500000012
 11
1201.8992275000001
 21
888.16212500000006
  0
LINE
  8
_0-8_小物
  6
CONTINUOUS
 62
    7
 10
1202.1609075000001
 20
893.15527500000007
 11
1202.0562375
 21
891.15801499999998
  0
LINE
  8
_0-8_小物
  6
CONTINUOUS
 62
    7
 10
1204.2628374999999
 20
895.04786000000013
 11
1204.1581674999998
 21
893.05060000000003
  0
LINE
  8
_0-8_小物
  6
CONTINUOUS
 62
    7
 10
1204.1581674999998
 20
893.05060000000003
 11
1202.1609075000001
 21
893.15527500000007
  0
LINE
  8
_0-8_小物
  6
CONTINUOUS
 62
    7
 10
1202.5224625000001
 20
895.96250499999996
 11
1204.2628374999999
 21
895.04786000000013
  0
LINE
  8
_0-8_小物
  6
CONTINUOUS
 62
    7
 10
1211.9307374999999
 20
873.18268499999999
 11
1212.0354075
 21
871.18542500000012
  0
LINE
  8
_0-8_小物
  6
CONTINUOUS
 62
    7
 10
1211.7737274999999
 20
876.17857000000004
 11
1209.8288075
 21
875.07527000000005
  0
LINE
  8
_0-8_小物
  6
CONTINUOUS
 62
    7
 10
1209.8288075
 20
875.07527000000005
 11
1209.9334775000002
 21
873.07800999999995
  0
LINE
  8
_0-8_小物
  6
CONTINUOUS
 62
    7
 10
1209.9334775000002
 20
873.07800999999995
 11
1211.9307374999999
 21
873.18268499999999
  0
LINE
  8
_0-8_小物
  6
CONTINUOUS
 62
    7
 10
1211.6690574999998
 20
878.17583000000013
 11
1211.7737274999999
 21
876.17857000000004
  0
LINE
  8
_0-8_小物
  6
CONTINUOUS
 62
    7
 10
1211.5120474999999
 20
881.17172000000005
 11
1209.5671275
 21
880.06842000000006
  0
LINE
  8
_0-8_小物
  6
CONTINUOUS
 62
    7
 10
1209.5671275
 20
880.06842000000006
 11
1209.6717975000001
 21
878.07115999999996
  0
LINE
  8
_0-8_小物
  6
CONTINUOUS
 62
    7
 10
1209.6717975000001
 20
878.07115999999996
 11
1211.6690574999998
 21
878.17583000000013
  0
LINE
  8
_0-8_小物
  6
CONTINUOUS
 62
    7
 10
1211.4073775000002
 20
883.16897999999992
 11
1211.5120474999999
 21
881.17172000000005
  0
LINE
  8
_0-8_小物
  6
CONTINUOUS
 62
    7
 10
1211.2503674999998
 20
886.16487000000006
 11
1209.3054474999999
 21
885.06156499999997
  0
LINE
  8
_0-8_小物
  6
CONTINUOUS
 62
    7
 10
1209.3054474999999
 20
885.06156499999997
 11
1209.4101175000001
 21
883.0643050000001
  0
LINE
  8
_0-8_小物
  6
CONTINUOUS
 62
    7
 10
1209.4101175000001
 20
883.0643050000001
 11
1211.4073775000002
 21
883.16897999999992
  0
LINE
  8
_0-8_小物
  6
CONTINUOUS
 62
    7
 10
1211.1456975000001
 20
888.16212500000006
 11
1211.2503674999998
 21
886.16487000000006
  0
LINE
  8
_0-8_小物
  6
CONTINUOUS
 62
    7
 10
1210.9886875000002
 20
891.15801499999998
 11
1209.0437674999998
 21
890.05471499999999
  0
LINE
  8
_0-8_小物
  6
CONTINUOUS
 62
    7
 10
1209.0437674999998
 20
890.05471499999999
 11
1209.1484375
 21
888.05745500000012
  0
LINE
  8
_0-8_小物
  6
CONTINUOUS
 62
    7
 10
1209.1484375
 20
888.05745500000012
 11
1211.1456975000001
 21
888.16212500000006
  0
LINE
  8
_0-8_小物
  6
CONTINUOUS
 62
    7
 10
1210.8840175
 20
893.15527500000007
 11
1210.9886875000002
 21
891.15801499999998
  0
LINE
  8
_0-8_小物
  6
CONTINUOUS
 62
    7
 10
1208.7820874999998
 20
895.04786000000013
 11
1208.8867574999999
 21
893.05060000000003
  0
LINE
  8
_0-8_小物
  6
CONTINUOUS
 62
    7
 10
1208.8867574999999
 20
893.05060000000003
 11
1210.8840175
 21
893.15527500000007
  0
LINE
  8
_0-8_小物
  6
CONTINUOUS
 62
    7
 10
1206.5817674999998
 20
872.02180999999996
 11
1204.6480674999998
 21
873.73748000000001
  0
LINE
  8
_0-8_小物
  6
CONTINUOUS
 62
    7
 10
1208.3919074999999
 20
873.83195000000001
 11
1206.5224625000001
 21
871.96250499999996
  0
LINE
  8
_0-8_小物
  6
CONTINUOUS
 62
    7
 10
1210.5224625000001
 20
895.96250499999996
 11
1208.7820874999998
 21
895.04786000000013
  0
LINE
  8
_0-8_小物
  6
CONTINUOUS
 62
    7
 10
1201.8992275000001
 20
888.16212500000006
 11
1200.2038625
 21
892.82010500000001
  0
LINE
  8
_0-8_小物
  6
CONTINUOUS
 62
    7
 10
1211.1456975000001
 20
888.16212500000006
 11
1212.8410625000001
 21
892.82010500000001
  0
LINE
  8
_0-8_小物
  6
CONTINUOUS
 62
    7
 10
1204.5047175
 20
871.00225
 11
1201.0095175000001
 21
871.18542500000012
  0
LINE
  8
_0-8_小物
  6
CONTINUOUS
 62
    7
 10
1201.0095175000001
 20
871.18542500000012
 11
1202.9021025000002
 21
869.08349500000008
  0
LINE
  8
_0-8_小物
  6
CONTINUOUS
 62
    7
 10
1202.9021025000002
 20
869.08349500000008
 11
1204.4000474999998
 21
869.00499000000013
  0
LINE
  8
_0-8_小物
  6
CONTINUOUS
 62
    7
 10
1204.4000474999998
 20
869.00499000000013
 11
1206.0224625000001
 21
899.96250499999996
  0
LINE
  8
_0-8_小物
  6
CONTINUOUS
 62
    7
 10
1202.5224625000001
 20
895.96250499999996
 11
1202.5224625000001
 21
899.96250499999996
  0
LINE
  8
_0-8_小物
  6
CONTINUOUS
 62
    7
 10
1208.5402024999999
 20
871.00225
 11
1212.0354075
 21
871.18542500000012
  0
LINE
  8
_0-8_小物
  6
CONTINUOUS
 62
    7
 10
1212.0354075
 20
871.18542500000012
 11
1210.1428225
 21
869.08349500000008
  0
LINE
  8
_0-8_小物
  6
CONTINUOUS
 62
    7
 10
1210.1428225
 20
869.08349500000008
 11
1208.6448774999999
 21
869.00499000000013
  0
LINE
  8
_0-8_小物
  6
CONTINUOUS
 62
    7
 10
1208.6448774999999
 20
869.00499000000013
 11
1207.0224625000001
 21
899.96250499999996
  0
LINE
  8
_0-8_小物
  6
CONTINUOUS
 62
    7
 10
1210.5224625000001
 20
895.96250499999996
 11
1210.5224625000001
 21
899.96250499999996
  0
LINE
  8
_0-8_小物
  6
CONTINUOUS
 62
    7
 10
1212.8410625000001
 20
892.82010500000001
 11
1213.8334175
 21
899.62373000000002
  0
ARC
  8
_0-8_小物
  6
CONTINUOUS
 62
    7
 10
1213.4376075
 20
899.68146000000002
 40
0.4
 50
351.70153399999901
 51
81.869897999980012
  0
LINE
  8
_0-8_小物
  6
CONTINUOUS
 62
    7
 10
1213.4941724999999
 20
900.07744000000002
 11
1213.2973524999998
 21
900.10555999999997
  0
ARC
  8
_0-8_小物
  6
CONTINUOUS
 62
    7
 10
1213.2407825
 20
899.70957999999996
 40
0.4
 50
81.869897999979997
 51
171.86989800000001
  0
LINE
  8
_0-8_小物
  6
CONTINUOUS
 62
    7
 10
1212.8448024999998
 20
899.76614500000005
 11
1211.9013725
 21
893.16212500000006
  0
LINE
  8
_0-8_小物
  6
CONTINUOUS
 62
    7
 10
1200.2038625
 20
892.82010500000001
 11
1199.2115075000002
 21
899.62373000000002
  0
ARC
  8
_0-8_小物
  6
CONTINUOUS
 62
    7
 10
1199.6073175000001
 20
899.68146000000002
 40
0.4
 50
98.130101999990003
 51
188.29846599999999
  0
LINE
  8
_0-8_小物
  6
CONTINUOUS
 62
    7
 10
1199.5507474999999
 20
900.07744000000002
 11
1199.7475724999999
 21
900.10555999999997
  0
ARC
  8
_0-8_小物
  6
CONTINUOUS
 62
    7
 10
1199.8041425000001
 20
899.70957999999996
 40
0.4
 50
8.1301019999600008
 51
98.130101999990003
  0
LINE
  8
_0-8_小物
  6
CONTINUOUS
 62
    7
 10
1200.2001224999999
 20
899.76614500000005
 11
1201.1435525000002
 21
893.16212500000006
  0
LINE
  8
_0-8_小物
  6
CONTINUOUS
 62
    7
 10
1200.2038625
 20
892.82010500000001
 11
1199.2115075000002
 21
899.62373000000002
  0
ARC
  8
_0-8_小物
  6
CONTINUOUS
 62
    7
 10
1199.6073175000001
 20
899.68146000000002
 40
0.4
 50
98.130101999990003
 51
188.29846599999999
  0
LINE
  8
_0-8_小物
  6
CONTINUOUS
 62
    7
 10
1199.5507474999999
 20
900.07744000000002
 11
1199.7475724999999
 21
900.10555999999997
  0
ARC
  8
_0-8_小物
  6
CONTINUOUS
 62
    7
 10
1199.8041425000001
 20
899.70957999999996
 40
0.4
 50
8.1301019999600008
 51
98.130101999990003
  0
LINE
  8
_0-8_小物
  6
CONTINUOUS
 62
    7
 10
1200.2001224999999
 20
899.76614500000005
 11
1201.1435525000002
 21
893.16212500000006
  0
LINE
  8
_0-8_小物
  6
CONTINUOUS
 62
    7
 10
1201.5224625000001
 20
907.96250499999996
 11
1202.5224625000001
 21
902.96250499999996
  0
LINE
  8
_0-8_小物
  6
CONTINUOUS
 62
    7
 10
1202.5224625000001
 20
907.96250499999996
 11
1202.5224625000001
 21
899.96250499999996
  0
LINE
  8
_0-8_小物
  6
CONTINUOUS
 62
    7
 10
1206.0224625000001
 20
899.96250499999996
 11
1206.5224625000001
 21
899.96250499999996
  0
LINE
  8
_0-8_小物
  6
CONTINUOUS
 62
    7
 10
1206.5224625000001
 20
902.96250499999996
 11
1206.5224625000001
 21
907.96250499999996
  0
LINE
  8
_0-8_小物
  6
CONTINUOUS
 62
    7
 10
1205.5224625000001
 20
907.96250499999996
 11
1206.5224625000001
 21
902.96250499999996
  0
LINE
  8
_0-8_小物
  6
CONTINUOUS
 62
    7
 10
1207.5224625000001
 20
907.96250499999996
 11
1206.5224625000001
 21
902.96250499999996
  0
LINE
  8
_0-8_小物
  6
CONTINUOUS
 62
    7
 10
1211.5224625000001
 20
907.96250499999996
 11
1210.5224625000001
 21
902.96250499999996
  0
LINE
  8
_0-8_小物
  6
CONTINUOUS
 62
    7
 10
1210.5224625000001
 20
907.96250499999996
 11
1210.5224625000001
 21
899.96250499999996
  0
LINE
  8
_0-8_小物
  6
CONTINUOUS
 62
    7
 10
1207.0224625000001
 20
899.96250499999996
 11
1206.5224625000001
 21
899.96250499999996
  0
LINE
  8
_0-8_小物
  6
CONTINUOUS
 62
    7
 10
1161.1141874999998
 20
873.18268499999999
 11
1161.0095175000001
 21
871.18542500000012
  0
LINE
  8
_0-8_小物
  6
CONTINUOUS
 62
    7
 10
1161.2711975000002
 20
876.17857000000004
 11
1163.2161175000001
 21
875.07527000000005
  0
LINE
  8
_0-8_小物
  6
CONTINUOUS
 62
    7
 10
1163.2161175000001
 20
875.07527000000005
 11
1163.1114474999999
 21
873.07800999999995
  0
LINE
  8
_0-8_小物
  6
CONTINUOUS
 62
    7
 10
1163.1114474999999
 20
873.07800999999995
 11
1161.1141874999998
 21
873.18268499999999
  0
LINE
  8
_0-8_小物
  6
CONTINUOUS
 62
    7
 10
1161.3758674999999
 20
878.17583000000013
 11
1161.2711975000002
 21
876.17857000000004
  0
LINE
  8
_0-8_小物
  6
CONTINUOUS
 62
    7
 10
1161.5328774999998
 20
881.17172000000005
 11
1163.4777975000002
 21
880.06842000000006
  0
LINE
  8
_0-8_小物
  6
CONTINUOUS
 62
    7
 10
1163.4777975000002
 20
880.06842000000006
 11
1163.3731275
 21
878.07115999999996
  0
LINE
  8
_0-8_小物
  6
CONTINUOUS
 62
    7
 10
1163.3731275
 20
878.07115999999996
 11
1161.3758674999999
 21
878.17583000000013
  0
LINE
  8
_0-8_小物
  6
CONTINUOUS
 62
    7
 10
1161.6375475
 20
883.16897999999992
 11
1161.5328774999998
 21
881.17172000000005
  0
LINE
  8
_0-8_小物
  6
CONTINUOUS
 62
    7
 10
1161.7945574999999
 20
886.16487000000006
 11
1163.7394774999998
 21
885.06156499999997
  0
LINE
  8
_0-8_小物
  6
CONTINUOUS
 62
    7
 10
1163.7394774999998
 20
885.06156499999997
 11
1163.6348075000001
 21
883.0643050000001
  0
LINE
  8
_0-8_小物
  6
CONTINUOUS
 62
    7
 10
1163.6348075000001
 20
883.0643050000001
 11
1161.6375475
 21
883.16897999999992
  0
LINE
  8
_0-8_小物
  6
CONTINUOUS
 62
    7
 10
1161.8992275000001
 20
888.16212500000006
 11
1161.7945574999999
 21
886.16487000000006
  0
LINE
  8
_0-8_小物
  6
CONTINUOUS
 62
    7
 10
1162.0562375
 20
891.15801499999998
 11
1164.0011574999999
 21
890.05471499999999
  0
LINE
  8
_0-8_小物
  6
CONTINUOUS
 62
    7
 10
1164.0011574999999
 20
890.05471499999999
 11
1163.8964875000001
 21
888.05745500000012
  0
LINE
  8
_0-8_小物
  6
CONTINUOUS
 62
    7
 10
1163.8964875000001
 20
888.05745500000012
 11
1161.8992275000001
 21
888.16212500000006
  0
LINE
  8
_0-8_小物
  6
CONTINUOUS
 62
    7
 10
1162.1609075000001
 20
893.15527500000007
 11
1162.0562375
 21
891.15801499999998
  0
LINE
  8
_0-8_小物
  6
CONTINUOUS
 62
    7
 10
1164.2628374999999
 20
895.04786000000013
 11
1164.1581674999998
 21
893.05060000000003
  0
LINE
  8
_0-8_小物
  6
CONTINUOUS
 62
    7
 10
1164.1581674999998
 20
893.05060000000003
 11
1162.1609075000001
 21
893.15527500000007
  0
LINE
  8
_0-8_小物
  6
CONTINUOUS
 62
    7
 10
1162.5224625000001
 20
895.96250499999996
 11
1164.2628374999999
 21
895.04786000000013
  0
LINE
  8
_0-8_小物
  6
CONTINUOUS
 62
    7
 10
1171.9307374999999
 20
873.18268499999999
 11
1172.0354075
 21
871.18542500000012
  0
LINE
  8
_0-8_小物
  6
CONTINUOUS
 62
    7
 10
1171.7737274999999
 20
876.17857000000004
 11
1169.8288075
 21
875.07527000000005
  0
LINE
  8
_0-8_小物
  6
CONTINUOUS
 62
    7
 10
1169.8288075
 20
875.07527000000005
 11
1169.9334775000002
 21
873.07800999999995
  0
LINE
  8
_0-8_小物
  6
CONTINUOUS
 62
    7
 10
1169.9334775000002
 20
873.07800999999995
 11
1171.9307374999999
 21
873.18268499999999
  0
LINE
  8
_0-8_小物
  6
CONTINUOUS
 62
    7
 10
1171.6690574999998
 20
878.17583000000013
 11
1171.7737274999999
 21
876.17857000000004
  0
LINE
  8
_0-8_小物
  6
CONTINUOUS
 62
    7
 10
1171.5120474999999
 20
881.17172000000005
 11
1169.5671275
 21
880.06842000000006
  0
LINE
  8
_0-8_小物
  6
CONTINUOUS
 62
    7
 10
1169.5671275
 20
880.06842000000006
 11
1169.6717975000001
 21
878.07115999999996
  0
LINE
  8
_0-8_小物
  6
CONTINUOUS
 62
    7
 10
1169.6717975000001
 20
878.07115999999996
 11
1171.6690574999998
 21
878.17583000000013
  0
LINE
  8
_0-8_小物
  6
CONTINUOUS
 62
    7
 10
1171.4073775000002
 20
883.16897999999992
 11
1171.5120474999999
 21
881.17172000000005
  0
LINE
  8
_0-8_小物
  6
CONTINUOUS
 62
    7
 10
1171.2503674999998
 20
886.16487000000006
 11
1169.3054474999999
 21
885.06156499999997
  0
LINE
  8
_0-8_小物
  6
CONTINUOUS
 62
    7
 10
1169.3054474999999
 20
885.06156499999997
 11
1169.4101175000001
 21
883.0643050000001
  0
LINE
  8
_0-8_小物
  6
CONTINUOUS
 62
    7
 10
1169.4101175000001
 20
883.0643050000001
 11
1171.4073775000002
 21
883.16897999999992
  0
LINE
  8
_0-8_小物
  6
CONTINUOUS
 62
    7
 10
1171.1456975000001
 20
888.16212500000006
 11
1171.2503674999998
 21
886.16487000000006
  0
LINE
  8
_0-8_小物
  6
CONTINUOUS
 62
    7
 10
1170.9886875000002
 20
891.15801499999998
 11
1169.0437674999998
 21
890.05471499999999
  0
LINE
  8
_0-8_小物
  6
CONTINUOUS
 62
    7
 10
1169.0437674999998
 20
890.05471499999999
 11
1169.1484375
 21
888.05745500000012
  0
LINE
  8
_0-8_小物
  6
CONTINUOUS
 62
    7
 10
1169.1484375
 20
888.05745500000012
 11
1171.1456975000001
 21
888.16212500000006
  0
LINE
  8
_0-8_小物
  6
CONTINUOUS
 62
    7
 10
1170.8840175
 20
893.15527500000007
 11
1170.9886875000002
 21
891.15801499999998
  0
LINE
  8
_0-8_小物
  6
CONTINUOUS
 62
    7
 10
1168.7820874999998
 20
895.04786000000013
 11
1168.8867574999999
 21
893.05060000000003
  0
LINE
  8
_0-8_小物
  6
CONTINUOUS
 62
    7
 10
1168.8867574999999
 20
893.05060000000003
 11
1170.8840175
 21
893.15527500000007
  0
LINE
  8
_0-8_小物
  6
CONTINUOUS
 62
    7
 10
1166.5817674999998
 20
872.02180999999996
 11
1164.6480674999998
 21
873.73748000000001
  0
LINE
  8
_0-8_小物
  6
CONTINUOUS
 62
    7
 10
1168.3919074999999
 20
873.83195000000001
 11
1166.5224625000001
 21
871.96250499999996
  0
LINE
  8
_0-8_小物
  6
CONTINUOUS
 62
    7
 10
1170.5224625000001
 20
895.96250499999996
 11
1168.7820874999998
 21
895.04786000000013
  0
LINE
  8
_0-8_小物
  6
CONTINUOUS
 62
    7
 10
1161.8992275000001
 20
888.16212500000006
 11
1160.2038625
 21
892.82010500000001
  0
LINE
  8
_0-8_小物
  6
CONTINUOUS
 62
    7
 10
1171.1456975000001
 20
888.16212500000006
 11
1172.8410625000001
 21
892.82010500000001
  0
LINE
  8
_0-8_小物
  6
CONTINUOUS
 62
    7
 10
1164.5047175
 20
871.00225
 11
1161.0095175000001
 21
871.18542500000012
  0
LINE
  8
_0-8_小物
  6
CONTINUOUS
 62
    7
 10
1161.0095175000001
 20
871.18542500000012
 11
1162.9021025000002
 21
869.08349500000008
  0
LINE
  8
_0-8_小物
  6
CONTINUOUS
 62
    7
 10
1162.9021025000002
 20
869.08349500000008
 11
1164.4000474999998
 21
869.00499000000013
  0
LINE
  8
_0-8_小物
  6
CONTINUOUS
 62
    7
 10
1164.4000474999998
 20
869.00499000000013
 11
1166.0224625000001
 21
899.96250499999996
  0
LINE
  8
_0-8_小物
  6
CONTINUOUS
 62
    7
 10
1162.5224625000001
 20
895.96250499999996
 11
1162.5224625000001
 21
899.96250499999996
  0
LINE
  8
_0-8_小物
  6
CONTINUOUS
 62
    7
 10
1168.5402024999999
 20
871.00225
 11
1172.0354075
 21
871.18542500000012
  0
LINE
  8
_0-8_小物
  6
CONTINUOUS
 62
    7
 10
1172.0354075
 20
871.18542500000012
 11
1170.1428225
 21
869.08349500000008
  0
LINE
  8
_0-8_小物
  6
CONTINUOUS
 62
    7
 10
1170.1428225
 20
869.08349500000008
 11
1168.6448774999999
 21
869.00499000000013
  0
LINE
  8
_0-8_小物
  6
CONTINUOUS
 62
    7
 10
1168.6448774999999
 20
869.00499000000013
 11
1167.0224625000001
 21
899.96250499999996
  0
LINE
  8
_0-8_小物
  6
CONTINUOUS
 62
    7
 10
1170.5224625000001
 20
895.96250499999996
 11
1170.5224625000001
 21
899.96250499999996
  0
LINE
  8
_0-8_小物
  6
CONTINUOUS
 62
    7
 10
1172.8410625000001
 20
892.82010500000001
 11
1173.8334175
 21
899.62373000000002
  0
ARC
  8
_0-8_小物
  6
CONTINUOUS
 62
    7
 10
1173.4376075
 20
899.68146000000002
 40
0.4
 50
351.70153400003102
 51
81.869897999979955
  0
LINE
  8
_0-8_小物
  6
CONTINUOUS
 62
    7
 10
1173.4941724999999
 20
900.07744000000002
 11
1173.2973524999998
 21
900.10555999999997
  0
ARC
  8
_0-8_小物
  6
CONTINUOUS
 62
    7
 10
1173.2407825
 20
899.70957999999996
 40
0.4
 50
81.869897999979997
 51
171.86989800000001
  0
LINE
  8
_0-8_小物
  6
CONTINUOUS
 62
    7
 10
1172.8448024999998
 20
899.76614500000005
 11
1171.9013725
 21
893.16212500000006
  0
LINE
  8
_0-8_小物
  6
CONTINUOUS
 62
    7
 10
1160.2038625
 20
892.82010500000001
 11
1159.2115075000002
 21
899.62373000000002
  0
ARC
  8
_0-8_小物
  6
CONTINUOUS
 62
    7
 10
1159.6073175000001
 20
899.68146000000002
 40
0.4
 50
98.130101999990003
 51
188.29846599999999
  0
LINE
  8
_0-8_小物
  6
CONTINUOUS
 62
    7
 10
1159.5507474999999
 20
900.07744000000002
 11
1159.7475724999999
 21
900.10555999999997
  0
ARC
  8
_0-8_小物
  6
CONTINUOUS
 62
    7
 10
1159.8041425000001
 20
899.70957999999996
 40
0.4
 50
8.1301019999600008
 51
98.130101999990003
  0
LINE
  8
_0-8_小物
  6
CONTINUOUS
 62
    7
 10
1160.2001224999999
 20
899.76614500000005
 11
1161.1435525000002
 21
893.16212500000006
  0
LINE
  8
_0-8_小物
  6
CONTINUOUS
 62
    7
 10
1160.2038625
 20
892.82010500000001
 11
1159.2115075000002
 21
899.62373000000002
  0
ARC
  8
_0-8_小物
  6
CONTINUOUS
 62
    7
 10
1159.6073175000001
 20
899.68146000000002
 40
0.4
 50
98.130101999990003
 51
188.29846599999999
  0
LINE
  8
_0-8_小物
  6
CONTINUOUS
 62
    7
 10
1159.5507474999999
 20
900.07744000000002
 11
1159.7475724999999
 21
900.10555999999997
  0
ARC
  8
_0-8_小物
  6
CONTINUOUS
 62
    7
 10
1159.8041425000001
 20
899.70957999999996
 40
0.4
 50
8.1301019999600008
 51
98.130101999990003
  0
LINE
  8
_0-8_小物
  6
CONTINUOUS
 62
    7
 10
1160.2001224999999
 20
899.76614500000005
 11
1161.1435525000002
 21
893.16212500000006
  0
LINE
  8
_0-8_小物
  6
CONTINUOUS
 62
    7
 10
1161.5224625000001
 20
907.96250499999996
 11
1162.5224625000001
 21
902.96250499999996
  0
LINE
  8
_0-8_小物
  6
CONTINUOUS
 62
    7
 10
1162.5224625000001
 20
907.96250499999996
 11
1162.5224625000001
 21
899.96250499999996
  0
LINE
  8
_0-8_小物
  6
CONTINUOUS
 62
    7
 10
1166.0224625000001
 20
899.96250499999996
 11
1166.5224625000001
 21
899.96250499999996
  0
LINE
  8
_0-8_小物
  6
CONTINUOUS
 62
    7
 10
1166.5224625000001
 20
902.96250499999996
 11
1166.5224625000001
 21
907.96250499999996
  0
LINE
  8
_0-8_小物
  6
CONTINUOUS
 62
    7
 10
1165.5224625000001
 20
907.96250499999996
 11
1166.5224625000001
 21
902.96250499999996
  0
LINE
  8
_0-8_小物
  6
CONTINUOUS
 62
    7
 10
1167.5224625000001
 20
907.96250499999996
 11
1166.5224625000001
 21
902.96250499999996
  0
LINE
  8
_0-8_小物
  6
CONTINUOUS
 62
    7
 10
1171.5224625000001
 20
907.96250499999996
 11
1170.5224625000001
 21
902.96250499999996
  0
LINE
  8
_0-8_小物
  6
CONTINUOUS
 62
    7
 10
1170.5224625000001
 20
907.96250499999996
 11
1170.5224625000001
 21
899.96250499999996
  0
LINE
  8
_0-8_小物
  6
CONTINUOUS
 62
    7
 10
1167.0224625000001
 20
899.96250499999996
 11
1166.5224625000001
 21
899.96250499999996
  0
LINE
  8
_0-8_小物
  6
CONTINUOUS
 62
    7
 10
1162.9841009779998
 20
888.10527025550005
 11
1161.1435525000002
 21
893.16212500000006
  0
LINE
  8
_0-8_小物
  6
CONTINUOUS
 62
    7
 10
1170.0608240219999
 20
888.10527025550005
 11
1171.9013725
 21
893.16212500000006
  0
LINE
  8
_0-8_小物
  6
CONTINUOUS
 62
    7
 10
1202.9841009779998
 20
888.10527025550005
 11
1201.1435525000002
 21
893.16212500000006
  0
LINE
  8
_0-8_小物
  6
CONTINUOUS
 62
    7
 10
1210.0608240219999
 20
888.10527025550005
 11
1211.9013725
 21
893.16212500000006
  0
LINE
  8
_0-3_躯体
  6
CONTINUOUS
 62
    7
 10
1241.5224625000001
 20
820.27321000000006
 11
1241.5224625000001
 21
907.96250499999996
  0
ARC
  8
_0-5_止水補助板
  6
CONTINUOUS
 62
    7
 10
1242.1943824999998
 20
897.96250499999996
 40
10
 50
5.9606931031090005
 51
90.000000000000028
  0
ARC
  8
_0-4_フレ_ム
  6
CONTINUOUS
 62
    7
 10
1242.1943824999998
 20
897.46250499999996
 40
11.5
 50
7.6880369999990004
 51
90
  0
LINE
  8
_0-a_寸法
  6
CONTINUOUS
 62
    7
 10
1241.5224625000001
 20
817.77321000000006
 11
1241.5224625000001
 21
793.74267499999996
  0
LINE
  8
_0-a_寸法
  6
CONTINUOUS
 62
    7
 10
1241.5224625000001
 20
798.74267499999996
 11
1236.5224625000001
 21
797.49267499999996
  0
LINE
  8
_0-a_寸法
  6
CONTINUOUS
 62
    7
 10
1241.5224625000001
 20
798.74267499999996
 11
1236.5224625000001
 21
799.99267499999996
  0
LINE
  8
_0-a_寸法
  6
CONTINUOUS
 62
    7
 10
1241.5224625000001
 20
798.74267499999996
 11
1246.5224625000001
 21
799.99267499999996
  0
LINE
  8
_0-a_寸法
  6
CONTINUOUS
 62
    7
 10
1241.5224625000001
 20
798.74267499999996
 11
1246.5224625000001
 21
797.49267499999996
  0
LINE
  8
_0-a_寸法
  6
CONTINUOUS
 62
    7
 10
1241.5224625000001
 20
820.27321000000006
 11
1236.5224625000001
 21
819.02321000000006
  0
LINE
  8
_0-a_寸法
  6
CONTINUOUS
 62
    7
 10
1241.5224625000001
 20
820.27321000000006
 11
1236.5224625000001
 21
821.52321000000006
  0
LINE
  8
_0-a_寸法
  6
CONTINUOUS
 62
    7
 10
1241.5224625000001
 20
820.27321000000006
 11
1226.5224625000001
 21
820.27321000000006
  0
LINE
  8
_0-a_寸法
  6
CONTINUOUS
 62
    7
 10
1123.9865875
 20
907.96250499999996
 11
1241.5224625000001
 21
907.96250499999996
  0
LINE
  8
_0-3_躯体
  6
CONTINUOUS
 62
    7
 10
1146.5224625000001
 20
897.96250499999996
 11
1241.5224625000001
 21
897.96250499999996
  0
LINE
  8
_0-3_躯体
  6
DOT_17
 62
    7
 10
1241.5224625000001
 20
820.27321000000006
 11
1123.9865875
 21
820.27321000000006
  0
LINE
  8
_0-a_寸法
  6
CONTINUOUS
 62
    7
 10
1241.5224625000001
 20
820.27321000000006
 11
1276.5224625000001
 21
820.27321000000006
  0
LINE
  8
_0-a_寸法
  6
CONTINUOUS
 62
    7
 10
1206.5224625000001
 20
798.74267499999996
 11
1241.5224625000001
 21
798.74267499999996
  0
LINE
  8
_0-3_躯体
  6
CONTINUOUS
 62
    7
 10
1238.2381925
 20
897.96250499999996
 11
1241.5224625000001
 21
901.24677500000007
  0
LINE
  8
_0-a_寸法
  6
CONTINUOUS
 62
    7
 10
1213.0391024999999
 20
912.22886500000004
 11
1224.3654257819999
 21
892.61109539630002
  0
CIRCLE
  8
_0-a_寸法
  6
CONTINUOUS
 62
    7
 10
1228.1154254640001
 20
886.11590468439999
 40
7.5
  0
LINE
  8
_0-a_寸法
  6
CONTINUOUS
 62
    7
 10
1176.5224625000001
 20
1033.037495
 11
1541.5224625000001
 21
1033.037495
  0
LINE
  8
_0-a_寸法
  6
CONTINUOUS
 62
    7
 10
1276.5224625000001
 20
1010.1758750000001
 11
1521.5224674999999
 21
1010.1758750000001
  0
LINE
  8
_0-a_寸法
  6
CONTINUOUS
 62
    7
 10
1521.5224674999999
 20
992.96250499999996
 11
1097.7989124999999
 21
992.96250499999996
  0
LINE
  8
_0-a_寸法
  6
CONTINUOUS
 62
    7
 10
1241.5224625000001
 20
798.74267499999996
 11
1541.5224625000001
 21
798.74267499999996
  0
LINE
  8
_0-a_寸法
  6
CONTINUOUS
 62
    7
 10
1267.1943824999998
 20
907.96250499999996
 11
1613.4775475000001
 21
907.96250499999996
  0
TEXT
  8
_0-a_寸法
 62
    7
 10
1388.522465
 20
1010.1758750000001
 40
14
 41
1
 50
0
  1
245
  0
TEXT
  8
_0-a_寸法
 62
    7
 10
1381.0224625000001
 20
798.74267499999996
 40
14
 41
1
 50
0
  1
300
  0
TEXT
  8
_0-a_寸法
 62
    7
 10
1221.715425464
 20
879.71590468440013
 40
12.800000000000001
 41
1
 50
0
  1
11
  0
ARC
  8
_0-5_止水補助板
  6
CONTINUOUS
 62
    7
 10
1396.5721788149999
 20
899.00096662119995
 40
142.98116804919999
 50
180
 51
359.99999999999972
  0
ARC
  8
_0-5_止水補助板
  6
CONTINUOUS
 62
    7
 10
1396.380376654
 20
899.25996401559996
 40
144.24029296719999
 50
180.10288016800004
 51
359.89711983196656
  0
TEXT
  8
_0-a_寸法
 62
    7
 10
1348.5224625000001
 20
1033.037495
 40
14
 41
1
 50
0
  1
365
  0
TEXT
  8
_0-a_寸法
 62
    7
 10
1217.0224625000001
 20
798.74267499999996
 40
14
 41
1
 50
0
  1
35
  0
TEXT
  8
_0-a_寸法
 62
    7
 10
1252.0224625000001
 20
820.27321000000006
 40
14
 41
1
 50
0
  1
35
  0
LINE
  8
_0-a_寸法
  6
CENTER
 62
    7
 10
1391.5224599889998
 20
948.16193780970002
 11
1391.5224599889998
 21
829.11450511990006
  0
LINE
  8
_0-a_寸法
  6
CONTINUOUS
 62
    7
 10
1289.5282659129998
 20
803.32618656160003
 11
1300.0748009129998
 21
821.59332156160008
  0
CIRCLE
  8
_0-a_寸法
  6
CONTINUOUS
 62
    7
 10
1303.8248009129998
 20
828.08851156159994
 40
7.5
  0
CIRCLE
  8
_0-a_寸法
  6
CONTINUOUS
 62
    7
 10
1289.5282659129998
 20
803.32618656160003
 40
1
  0
TEXT
  8
_0-a_寸法
 62
    7
 10
1300.6248009129999
 20
821.68851156160008
 40
12.800000000000001
 41
1
 50
0
  1
6
  0
LINE
  8
_0-a_寸法
  6
CONTINUOUS
 62
    7
 10
278.48944499999993
 20
910.21250499999996
 11
297.55016999999998
 21
943.22664499999996
  0
CIRCLE
  8
_0-a_寸法
  6
CONTINUOUS
 62
    7
 10
301.30016999999998
 20
949.72183500000006
 40
7.5
  0
CIRCLE
  8
_0-a_寸法
  6
CONTINUOUS
 62
    7
 10
278.48944499999993
 20
910.21250499999996
 40
1
  0
TEXT
  8
_0-a_寸法
 62
    7
 10
298.10016999999993
 20
943.32183499999996
 40
12.800000000000001
 41
1
 50
0
  1
3
  0
LINE
  8
_0-a_寸法
  6
CONTINUOUS
 62
    7
 10
311.56216688009999
 20
930.96250499999996
 11
318.20762188009996
 21
942.47277000000008
  0
CIRCLE
  8
_0-a_寸法
  6
CONTINUOUS
 62
    7
 10
321.95762188009996
 20
948.96795999999995
 40
7.5
  0
CIRCLE
  8
_0-a_寸法
  6
CONTINUOUS
 62
    7
 10
311.56216688009999
 20
930.96250499999996
 40
1
  0
TEXT
  8
_0-a_寸法
 62
    7
 10
318.75762188010003
 20
942.56796000000008
 40
12.800000000000001
 41
1
 50
0
  1
1
  0
LINE
  8
_0-a_寸法
  6
CONTINUOUS
 62
    7
 10
347.5890960017
 20
928.67404631520003
 11
355.3303610017
 21
943.60621131519997
  0
CIRCLE
  8
_0-a_寸法
  6
CONTINUOUS
 62
    7
 10
358.78226600170001
 20
950.2646163152001
 40
7.5
  0
CIRCLE
  8
_0-a_寸法
  6
CONTINUOUS
 62
    7
 10
347.5890960017
 20
928.67404631520003
 40
1
  0
TEXT
  8
_0-a_寸法
 62
    7
 10
355.58226600169996
 20
943.86461631520001
 40
12.800000000000001
 41
1
 50
0
  1
2
  0
LINE
  8
_0-a_寸法
  6
CONTINUOUS
 62
    7
 10
1223.4894549999999
 20
910.21250499999996
 11
1242.5501800000002
 21
943.22664499999996
  0
CIRCLE
  8
_0-a_寸法
  6
CONTINUOUS
 62
    7
 10
1246.3001800000002
 20
949.72183500000006
 40
7.5
  0
CIRCLE
  8
_0-a_寸法
  6
CONTINUOUS
 62
    7
 10
1223.4894549999999
 20
910.21250499999996
 40
1
  0
TEXT
  8
_0-a_寸法
 62
    7
 10
1243.1001799999999
 20
943.32183499999996
 40
12.800000000000001
 41
1
 50
0
  1
3
  0
LINE
  8
_0-a_寸法
  6
CONTINUOUS
 62
    7
 10
1256.5621768800002
 20
930.96250499999996
 11
1263.20763188
 21
942.47277000000008
  0
CIRCLE
  8
_0-a_寸法
  6
CONTINUOUS
 62
    7
 10
1266.95763188
 20
948.96795999999995
 40
7.5
  0
CIRCLE
  8
_0-a_寸法
  6
CONTINUOUS
 62
    7
 10
1256.5621768800002
 20
930.96250499999996
 40
1
  0
TEXT
  8
_0-a_寸法
 62
    7
 10
1263.7576318800002
 20
942.56796000000008
 40
12.800000000000001
 41
1
 50
0
  1
1
  0
LINE
  8
_0-a_寸法
  6
CONTINUOUS
 62
    7
 10
1292.5891060019999
 20
928.67404631520003
 11
1300.330371002
 21
943.60621131519997
  0
CIRCLE
  8
_0-a_寸法
  6
CONTINUOUS
 62
    7
 10
1303.7822760019999
 20
950.2646163152001
 40
7.5
  0
CIRCLE
  8
_0-a_寸法
  6
CONTINUOUS
 62
    7
 10
1292.5891060019999
 20
928.67404631520003
 40
1
  0
TEXT
  8
_0-a_寸法
 62
    7
 10
1300.5822760020001
 20
943.86461631520001
 40
12.800000000000001
 41
1
 50
0
  1
2
  0
LINE
  8
_0-9_レイヤ7
  6
CONTINUOUS
 62
    7
 10
243.02245249999999
 20
934.92613000000006
 11
243.02245249999999
 21
913.46250099999997
  0
LINE
  8
_0-9_レイヤ7
  6
CONTINUOUS
 62
    7
 10
650.02244747769998
 20
934.92613000000006
 11
650.02244747769998
 21
913.46250099999997
  0
LINE
  8
_0-9_レイヤ7
  6
CONTINUOUS
 62
    7
 10
1188.0224625000001
 20
934.92613000000006
 11
1188.0224625000001
 21
913.46250099999997
  0
LINE
  8
_0-4_フレ_ム
  6
CONTINUOUS
 62
    7
 10
1525.0224625000001
 20
965.46250499999996
 11
1525.0224625000001
 21
973.46250499999996
  0
CIRCLE
  8
_0-a_寸法
  6
CONTINUOUS
 62
    7
 10
1522.272465
 20
983.71250499999996
 40
1
  0
CIRCLE
  8
_0-a_寸法
  6
CONTINUOUS
 62
    7
 10
1508.493465
 20
972.15055000000007
 40
7.5
  0
TEXT
  8
_0-a_寸法
 62
    7
 10
1505.2934650000002
 20
965.75054999999998
 40
12.800000000000001
 41
1
 50
0
  1
4
  0
LINE
  8
_0-a_寸法
  6
CONTINUOUS
 62
    7
 10
1522.272465
 20
983.71250499999996
 11
1514.2387980809999
 21
976.97145736190009
  0
CIRCLE
  8
_0-a_寸法
  6
CONTINUOUS
 62
    7
 10
1522.8224675000001
 20
969.46250424999994
 40
1
  0
LINE
  8
_0-a_寸法
  6
CONTINUOUS
 62
    7
 10
1522.8224675000001
 20
969.46250424999994
 11
1509.0434675000001
 21
957.90055299999995
  0
CIRCLE
  8
_0-a_寸法
  6
CONTINUOUS
 62
    7
 10
1503.2981325000001
 20
953.07964300000003
 40
7.5
  0
TEXT
  8
_0-a_寸法
 62
    7
 10
1500.0981324999998
 20
946.67964299999994
 40
12.800000000000001
 41
1
 50
0
  1
8
  0
LINE
  8
_0-a_寸法
  6
CONTINUOUS
 62
    7
 10
1541.0224625000001
 20
986.29890249999994
 11
1562.7316125000002
 21
1008.0080525000001
  0
CIRCLE
  8
_0-a_寸法
  6
CONTINUOUS
 62
    7
 10
1568.0349124999998
 20
1013.3113525000001
 40
7.5
  0
CIRCLE
  8
_0-a_寸法
  6
CONTINUOUS
 62
    7
 10
1541.0224625000001
 20
986.29890249999994
 40
1
  0
TEXT
  8
_0-a_寸法
 62
    7
 10
1564.8349125
 20
1006.9113525
 40
12.800000000000001
 41
1
 50
0
  1
7
  0
LINE
  8
_0-a_寸法
  6
CONTINUOUS
 62
    7
 10
1539.6224739710001
 20
958.21250459089993
 11
1562.965328971
 21
981.55535959090003
  0
CIRCLE
  8
_0-a_寸法
  6
CONTINUOUS
 62
    7
 10
1568.268628971
 20
986.85865959090006
 40
7.5
  0
CIRCLE
  8
_0-a_寸法
  6
CONTINUOUS
 62
    7
 10
1539.6224739710001
 20
958.21250459089993
 40
1
  0
TEXT
  8
_0-a_寸法
 62
    7
 10
1565.0686289710002
 20
980.45865959089997
 40
12.800000000000001
 41
1
 50
0
  1
5
  0
LINE
  8
_0-a_寸法
  6
CONTINUOUS
 62
    7
 10
1537.9724624999999
 20
929.21250614809992
 11
1553.1827374999998
 21
902.86754114809992
  0
CIRCLE
  8
_0-a_寸法
  6
CONTINUOUS
 62
    7
 10
1556.9327374999998
 20
896.37235114810005
 40
7.5
  0
CIRCLE
  8
_0-a_寸法
  6
CONTINUOUS
 62
    7
 10
1537.9724624999999
 20
929.21250614809992
 40
1
  0
TEXT
  8
_0-a_寸法
 62
    7
 10
1550.5327375000002
 20
889.97235114809996
 40
12.800000000000001
 41
1
 50
0
  1
11
  0
LINE
  8
_0-a_寸法
  6
CONTINUOUS
 62
    7
 10
1535.5224625000001
 20
935.96250499999996
 11
1560.4885424999998
 21
960.92858500000011
  0
CIRCLE
  8
_0-a_寸法
  6
CONTINUOUS
 62
    7
 10
1565.7918424999998
 20
966.23188499999992
 40
7.5
  0
CIRCLE
  8
_0-a_寸法
  6
CONTINUOUS
 62
    7
 10
1535.5224625000001
 20
935.96250499999996
 40
1
  0
TEXT
  8
_0-a_寸法
 62
    7
 10
1559.3918425000002
 20
959.83188500000006
 40
12.800000000000001
 41
1
 50
0
  1
10
  0
CIRCLE
  8
_0-a_寸法
  6
CONTINUOUS
 62
    7
 10
1572.9117525000001
 20
932.73466499999995
 40
1
  0
CIRCLE
  8
_0-a_寸法
  6
CONTINUOUS
 62
    7
 10
1580.0406915670001
 20
920.3869816286001
 40
7.5
  0
TEXT
  8
_0-a_寸法
 62
    7
 10
1576.8406915669998
 20
913.98698162860001
 40
12.800000000000001
 41
1
 50
0
  1
9
  0
LINE
  8
_0-a_寸法
  6
CONTINUOUS
 62
    7
 10
1572.9117525000001
 20
932.73466499999995
 11
1576.2906913379998
 21
926.8821720249
  0
CIRCLE
  8
_0-a_寸法
  6
CONTINUOUS
 62
    7
 10
1207.4435275000001
 20
964.4507802907001
 40
7.5
  0
TEXT
  8
_0-a_寸法
 62
    7
 10
1204.2435274999998
 20
958.0507802907
 40
12.800000000000001
 41
1
 50
0
  1
8
  0
LINE
  8
_0-a_寸法
  6
CONTINUOUS
 62
    7
 10
1188.0224625000001
 20
930.8125050000001
 11
1203.6935275000001
 21
957.9555902907
  0
CIRCLE
  8
_0-a_寸法
  6
CONTINUOUS
 62
    7
 10
1188.0224625000001
 20
930.8125050000001
 40
1
  0
LINE
  8
_0-a_寸法
  6
CONTINUOUS
 62
    7
 10
1206.5224625000001
 20
914.66250500000001
 11
1190.3468925000002
 21
886.64559000000008
  0
CIRCLE
  8
_0-a_寸法
  6
CONTINUOUS
 62
    7
 10
1186.5968925000002
 20
880.15039999999999
 40
7.5
  0
CIRCLE
  8
_0-a_寸法
  6
CONTINUOUS
 62
    7
 10
1206.5224625000001
 20
914.66250500000001
 40
1
  0
TEXT
  8
_0-a_寸法
 62
    7
 10
1180.1968925000001
 20
873.75040000000013
 40
12.800000000000001
 41
1
 50
0
  1
10
  0
CIRCLE
  8
_0-a_寸法
  6
CONTINUOUS
 62
    7
 10
1193.0091119489998
 20
858.7581875318001
 40
7.5
  0
LINE
  8
_0-a_寸法
  6
CONTINUOUS
 62
    7
 10
1203.2946225000001
 20
876.57321500000012
 11
1196.7591118519999
 21
865.25337811589998
  0
TEXT
  8
_0-a_寸法
 62
    7
 10
1189.5091119489998
 20
851.7581875318001
 40
14
 41
1
 50
0
  1
9
  0
CIRCLE
  8
_0-a_寸法
  6
CONTINUOUS
 62
    7
 10
1203.2946225000001
 20
876.57321500000012
 40
1
  0
LINE
  8
_0-a_寸法
  6
CONTINUOUS
 62
    7
 10
258.29461249999997
 20
876.57321500000012
 11
247.96034750000001
 21
858.67374500000005
  0
CIRCLE
  8
_0-a_寸法
  6
CONTINUOUS
 62
    7
 10
244.21034750000001
 20
852.17855499999996
 40
7.5
  0
CIRCLE
  8
_0-a_寸法
  6
CONTINUOUS
 62
    7
 10
258.29461249999997
 20
876.57321500000012
 40
1
  0
TEXT
  8
_0-a_寸法
 62
    7
 10
241.01034749999997
 20
845.7785550000001
 40
12.800000000000001
 41
1
 50
0
  1
6
  0
CIRCLE
  8
_0-a_寸法
  6
CONTINUOUS
 62
    7
 10
268.27245135189992
 20
912.21250499999996
 40
1
  0
CIRCLE
  8
_0-a_寸法
  6
CONTINUOUS
 62
    7
 10
283.34877486250002
 20
886.09954500000003
 40
7.5
  0
TEXT
  8
_0-a_寸法
 62
    7
 10
280.14877486249998
 20
879.69954499999994
 40
12.800000000000001
 41
1
 50
0
  1
8
  0
LINE
  8
_0-a_寸法
  6
CONTINUOUS
 62
    7
 10
268.27245135189992
 20
912.21250499999996
 11
279.59877463370003
 21
892.59473539629994
  0
LINE
  8
_0-a_寸法
  6
CONTINUOUS
 62
    7
 10
261.58175749999998
 20
914.66234216719999
 11
245.78916749999996
 21
887.3087721672
  0
CIRCLE
  8
_0-a_寸法
  6
CONTINUOUS
 62
    7
 10
242.03916749999996
 20
880.81358216719991
 40
7.5
  0
CIRCLE
  8
_0-a_寸法
  6
CONTINUOUS
 62
    7
 10
261.58175749999998
 20
914.66234216719999
 40
1
  0
TEXT
  8
_0-a_寸法
 62
    7
 10
238.83916750000003
 20
874.41358216720005
 40
12.800000000000001
 41
1
 50
0
  1
7
  0
LINE
  8
_0-b_レイヤ1
  6
CONTINUOUS
 62
    7
 10
785.12245250000001
 20
351.76250500000003
 11
216.52245249999999
 21
351.76250500000003
  0
LINE
  8
_0-b_レイヤ1
  6
CONTINUOUS
 62
    7
 10
785.12245250000001
 20
399.76250500000003
 11
216.52245249999999
 21
399.76250500000003
  0
LINE
  8
_0-b_レイヤ1
  6
CONTINUOUS
 62
    7
 10
785.12245250000001
 20
375.76250500000003
 11
216.52245249999999
 21
375.76250500000003
  0
LINE
  8
_0-b_レイヤ1
  6
CONTINUOUS
 62
    7
 10
785.12245250000001
 20
423.76250500000003
 11
216.52245249999999
 21
423.76250500000003
  0
LINE
  8
_0-b_レイヤ1
  6
CONTINUOUS
 62
    7
 10
785.12245250000001
 20
567.76250500000003
 11
216.52245249999999
 21
567.76250500000003
  0
LINE
  8
_0-b_レイヤ1
  6
CONTINUOUS
 62
    7
 10
785.12245250000001
 20
543.76250500000003
 11
216.52245249999999
 21
543.76250500000003
  0
LINE
  8
_0-b_レイヤ1
  6
CONTINUOUS
 62
    7
 10
785.12245250000001
 20
519.76250500000003
 11
216.52245249999999
 21
519.76250500000003
  0
LINE
  8
_0-b_レイヤ1
  6
CONTINUOUS
 62
    7
 10
785.12245250000001
 20
495.76250500000003
 11
216.52245249999999
 21
495.76250500000003
  0
LINE
  8
_0-b_レイヤ1
  6
CONTINUOUS
 62
    7
 10
785.12245250000001
 20
471.76250500000003
 11
216.52245249999999
 21
471.76250500000003
  0
LINE
  8
_0-b_レイヤ1
  6
CONTINUOUS
 62
    7
 10
785.12245250000001
 20
447.76250500000003
 11
216.52245249999999
 21
447.76250500000003
  0
LINE
  8
_0-b_レイヤ1
  6
CONTINUOUS
 62
    7
 10
785.12245250000001
 20
610.96250499999996
 11
216.52245249999999
 21
610.96250499999996
  0
TEXT
  8
_0-b_レイヤ1
 62
    7
 10
218.51072449999992
 20
548.67270299999996
 40
12.800000000000001
 41
1
 50
0
  1
　１
  0
TEXT
  8
_0-b_レイヤ1
 62
    7
 10
653.60436049999998
 20
548.56252100000006
 40
12.800000000000001
 41
1
 50
0
  1
３０００
  0
TEXT
  8
_0-b_レイヤ1
 62
    7
 10
733.96333849999996
 20
548.76247100000001
 40
12.800000000000001
 41
1
 50
0
  1
２
  0
TEXT
  8
_0-b_レイヤ1
 62
    7
 10
764.54295249999996
 20
548.56252100000006
 40
12.800000000000001
 41
1
 50
0
  1
本
  0
TEXT
  8
_0-b_レイヤ1
 62
    7
 10
230.86978049999993
 20
524.67270299999996
 40
12.800000000000001
 41
1
 50
0
  1
２
  0
TEXT
  8
_0-b_レイヤ1
 62
    7
 10
653.60436049999998
 20
524.56252100000006
 40
12.800000000000001
 41
1
 50
0
  1
３０００
  0
TEXT
  8
_0-b_レイヤ1
 62
    7
 10
733.96333849999996
 20
524.762517
 40
12.800000000000001
 41
1
 50
0
  1
１
  0
TEXT
  8
_0-b_レイヤ1
 62
    7
 10
764.54295249999996
 20
524.56252100000006
 40
12.800000000000001
 41
1
 50
0
  1
〃
  0
TEXT
  8
_0-b_レイヤ1
 62
    7
 10
230.86978049999993
 20
500.67270300000001
 40
12.800000000000001
 41
1
 50
0
  1
３
  0
TEXT
  8
_0-b_レイヤ1
 62
    7
 10
733.96333849999996
 20
500.76247100000001
 40
12.800000000000001
 41
1
 50
0
  1
２
  0
TEXT
  8
_0-b_レイヤ1
 62
    7
 10
764.54295249999996
 20
500.562521
 40
12.800000000000001
 41
1
 50
0
  1
〃
  0
TEXT
  8
_0-b_レイヤ1
 62
    7
 10
230.86978049999993
 20
476.67270300000001
 40
12.800000000000001
 41
1
 50
0
  1
４
  0
TEXT
  8
_0-b_レイヤ1
 62
    7
 10
250.12248249999993
 20
476.562521
 40
12.800000000000001
 41
1
 50
0
  1
止水補助板
  0
TEXT
  8
_0-b_レイヤ1
 62
    7
 10
653.60436049999998
 20
476.562521
 40
12.800000000000001
 41
1
 50
0
  1
３１００
  0
TEXT
  8
_0-b_レイヤ1
 62
    7
 10
733.96333849999996
 20
476.762517
 40
12.800000000000001
 41
1
 50
0
  1
１
  0
TEXT
  8
_0-b_レイヤ1
 62
    7
 10
764.54295249999996
 20
476.562521
 40
12.800000000000001
 41
1
 50
0
  1
枚
  0
TEXT
  8
_0-b_レイヤ1
 62
    7
 10
230.86978049999993
 20
452.67274900000001
 40
12.800000000000001
 41
1
 50
0
  1
５
  0
TEXT
  8
_0-b_レイヤ1
 62
    7
 10
230.86978049999993
 20
428.67274900000001
 40
12.800000000000001
 41
1
 50
0
  1
６
  0
TEXT
  8
_0-b_レイヤ1
 62
    7
 10
764.54295249999996
 20
428.562521
 40
12.800000000000001
 41
1
 50
0
  1
〃
  0
TEXT
  8
_0-b_レイヤ1
 62
    7
 10
230.86978049999993
 20
404.67272700000001
 40
12.800000000000001
 41
1
 50
0
  1
７
  0
TEXT
  8
_0-b_レイヤ1
 62
    7
 10
764.54295249999996
 20
404.56249700000001
 40
12.800000000000001
 41
1
 50
0
  1
〃
  0
TEXT
  8
_0-b_レイヤ1
 62
    7
 10
230.86978049999993
 20
380.67272700000001
 40
12.800000000000001
 41
1
 50
0
  1
８
  0
TEXT
  8
_0-b_レイヤ1
 62
    7
 10
250.12248249999993
 20
380.56254300000001
 40
12.800000000000001
 41
1
 50
0
  1
ステンワッシャー
  0
TEXT
  8
_0-b_レイヤ1
 62
    7
 10
478.12255049999999
 20
380.56254300000001
 40
12.800000000000001
 41
1
 50
0
  1
１．５×１８×５．５穴
  0
TEXT
  8
_0-b_レイヤ1
 62
    7
 10
764.54295249999996
 20
380.56254300000001
 40
12.800000000000001
 41
1
 50
0
  1
枚
  0
LINE
  8
_0-b_レイヤ1
  6
CONTINUOUS
 62
    7
 10
1585.1224524999998
 20
567.76250500000003
 11
1016.5224525
 21
567.76250500000003
  0
LINE
  8
_0-b_レイヤ1
  6
CONTINUOUS
 62
    7
 10
1585.1224524999998
 20
543.76250500000003
 11
1016.5224525
 21
543.76250500000003
  0
LINE
  8
_0-b_レイヤ1
  6
CONTINUOUS
 62
    7
 10
1585.1224524999998
 20
519.76250500000003
 11
1016.5224525
 21
519.76250500000003
  0
LINE
  8
_0-b_レイヤ1
  6
CONTINUOUS
 62
    7
 10
1585.1224524999998
 20
495.76250500000003
 11
1016.5224525
 21
495.76250500000003
  0
LINE
  8
_0-b_レイヤ1
  6
CONTINUOUS
 62
    7
 10
1585.1224524999998
 20
471.76250500000003
 11
1016.5224525
 21
471.76250500000003
  0
LINE
  8
_0-b_レイヤ1
  6
CONTINUOUS
 62
    7
 10
1585.1224524999998
 20
447.76250500000003
 11
1016.5224525
 21
447.76250500000003
  0
LINE
  8
_0-b_レイヤ1
  6
CONTINUOUS
 62
    7
 10
1585.1224524999998
 20
423.76250500000003
 11
1016.5224525
 21
423.76250500000003
  0
LINE
  8
_0-b_レイヤ1
  6
CONTINUOUS
 62
    7
 10
1585.1224524999998
 20
399.76250500000003
 11
1016.5224525
 21
399.76250500000003
  0
LINE
  8
_0-b_レイヤ1
  6
CONTINUOUS
 62
    7
 10
1585.1224524999998
 20
375.76250500000003
 11
1016.5224525
 21
375.76250500000003
  0
LINE
  8
_0-b_レイヤ1
  6
CONTINUOUS
 62
    7
 10
1585.1224524999998
 20
351.76250500000003
 11
1016.5224525
 21
351.76250500000003
  0
LINE
  8
_0-b_レイヤ1
  6
CONTINUOUS
 62
    7
 10
1585.1224524999998
 20
303.76250500000003
 11
1016.5224525
 21
303.76250500000003
  0
LINE
  8
_0-b_レイヤ1
  6
CONTINUOUS
 62
    7
 10
1585.1224524999998
 20
610.96250499999996
 11
1016.5224525
 21
610.96250499999996
  0
LINE
  8
_0-b_レイヤ1
  6
CONTINUOUS
 62
    7
 10
1585.1224524999998
 20
327.76250500000003
 11
1016.5224525
 21
327.76250500000003
  0
LINE
  8
_0-b_レイヤ1
  6
CONTINUOUS
 62
    7
 10
1585.1224524999998
 20
279.76250500000003
 11
1016.5224525
 21
279.76250500000003
  0
TEXT
  8
_0-b_レイヤ1
 62
    7
 10
1018.5106545
 20
548.67270299999996
 40
12.800000000000001
 41
1
 50
0
  1
　１
  0
TEXT
  8
_0-b_レイヤ1
 62
    7
 10
1453.6041304999999
 20
548.56252100000006
 40
12.800000000000001
 41
1
 50
0
  1
３０００
  0
TEXT
  8
_0-b_レイヤ1
 62
    7
 10
1535.9634004999998
 20
548.76247100000001
 40
12.800000000000001
 41
1
 50
0
  1
１
  0
TEXT
  8
_0-b_レイヤ1
 62
    7
 10
1564.5428605000002
 20
548.56252100000006
 40
12.800000000000001
 41
1
 50
0
  1
本
  0
TEXT
  8
_0-b_レイヤ1
 62
    7
 10
1030.8697105000001
 20
524.67270299999996
 40
12.800000000000001
 41
1
 50
0
  1
２
  0
TEXT
  8
_0-b_レイヤ1
 62
    7
 10
1453.6041304999999
 20
524.56252100000006
 40
12.800000000000001
 41
1
 50
0
  1
３０００
  0
TEXT
  8
_0-b_レイヤ1
 62
    7
 10
1535.9634004999998
 20
524.762517
 40
12.800000000000001
 41
1
 50
0
  1
１
  0
TEXT
  8
_0-b_レイヤ1
 62
    7
 10
1564.5428605000002
 20
524.56252100000006
 40
12.800000000000001
 41
1
 50
0
  1
〃
  0
TEXT
  8
_0-b_レイヤ1
 62
    7
 10
1030.8697105000001
 20
500.67270300000001
 40
12.800000000000001
 41
1
 50
0
  1
３
  0
TEXT
  8
_0-b_レイヤ1
 62
    7
 10
1453.6041304999999
 20
500.562521
 40
12.800000000000001
 41
1
 50
0
  1
３０００
  0
TEXT
  8
_0-b_レイヤ1
 62
    7
 10
1535.9634004999998
 20
500.76247100000001
 40
12.800000000000001
 41
1
 50
0
  1
１
  0
TEXT
  8
_0-b_レイヤ1
 62
    7
 10
1564.5428605000002
 20
500.562521
 40
12.800000000000001
 41
1
 50
0
  1
〃
  0
TEXT
  8
_0-b_レイヤ1
 62
    7
 10
1030.8697105000001
 20
476.67270300000001
 40
12.800000000000001
 41
1
 50
0
  1
４
  0
TEXT
  8
_0-b_レイヤ1
 62
    7
 10
1453.6041304999999
 20
476.562521
 40
12.800000000000001
 41
1
 50
0
  1
３０００
  0
TEXT
  8
_0-b_レイヤ1
 62
    7
 10
1535.9634004999998
 20
476.762517
 40
12.800000000000001
 41
1
 50
0
  1
１
  0
TEXT
  8
_0-b_レイヤ1
 62
    7
 10
1564.5428605000002
 20
476.562521
 40
12.800000000000001
 41
1
 50
0
  1
〃
  0
TEXT
  8
_0-b_レイヤ1
 62
    7
 10
1030.8697105000001
 20
452.67274900000001
 40
12.800000000000001
 41
1
 50
0
  1
５
  0
TEXT
  8
_0-b_レイヤ1
 62
    7
 10
1030.8697105000001
 20
428.67274900000001
 40
12.800000000000001
 41
1
 50
0
  1
６
  0
TEXT
  8
_0-b_レイヤ1
 62
    7
 10
1030.8697105000001
 20
404.67274900000001
 40
12.800000000000001
 41
1
 50
0
  1
７
  0
TEXT
  8
_0-b_レイヤ1
 62
    7
 10
1030.8697105000001
 20
380.67272700000001
 40
12.800000000000001
 41
1
 50
0
  1
８
  0
TEXT
  8
_0-b_レイヤ1
 62
    7
 10
1030.8697105000001
 20
356.67272700000001
 40
12.800000000000001
 41
1
 50
0
  1
９
  0
TEXT
  8
_0-b_レイヤ1
 62
    7
 10
1030.8697105000001
 20
284.67272700000001
 40
12.800000000000001
 41
1
 50
0
  1
※
  0
TEXT
  8
_0-b_レイヤ1
 62
    7
 10
653.60436049999998
 20
500.562521
 40
12.800000000000001
 41
1
 50
0
  1
３０００
  0
TEXT
  8
_0-b_レイヤ1
 62
    7
 10
230.86978049999993
 20
356.67272700000001
 40
12.800000000000001
 41
1
 50
0
  1
※
  0
LINE
  8
_0-b_レイヤ1
  6
CONTINUOUS
 62
    7
 10
216.52245249999999
 20
351.76250500000003
 11
216.52245249999999
 21
610.96250499999996
  0
LINE
  8
_0-b_レイヤ1
  6
CONTINUOUS
 62
    7
 10
245.32245250000005
 20
351.76250500000003
 11
245.32245250000005
 21
610.96250499999996
  0
LINE
  8
_0-b_レイヤ1
  6
CONTINUOUS
 62
    7
 10
473.3224525
 20
351.76250500000003
 11
473.3224525
 21
610.96250499999996
  0
LINE
  8
_0-b_レイヤ1
  6
CONTINUOUS
 62
    7
 10
785.12245250000001
 20
351.76250500000003
 11
785.12245250000001
 21
610.96250499999996
  0
LINE
  8
_0-b_レイヤ1
  6
CONTINUOUS
 62
    7
 10
708.32245249999994
 20
351.76250500000003
 11
708.32245249999994
 21
610.96250499999996
  0
LINE
  8
_0-b_レイヤ1
  6
CONTINUOUS
 62
    7
 10
648.32245249999994
 20
351.76250500000003
 11
648.32245249999994
 21
610.96250499999996
  0
LINE
  8
_0-b_レイヤ1
  6
CONTINUOUS
 62
    7
 10
756.32245249999994
 20
351.76250500000003
 11
756.32245249999994
 21
610.96250499999996
  0
LINE
  8
_0-b_レイヤ1
  6
CONTINUOUS
 62
    7
 10
644.32245249999994
 20
351.76250500000003
 11
644.32245249999994
 21
610.96250499999996
  0
TEXT
  8
_0-b_レイヤ1
 62
    7
 10
250.12248249999993
 20
548.56252100000006
 40
12.800000000000001
 41
1
 50
0
  1
ＴＴサイドプレート（Ｃ）Ｓ
  0
TEXT
  8
_0-b_レイヤ1
 62
    7
 10
250.12248249999993
 20
500.562521
 40
12.800000000000001
 41
1
 50
0
  1
ＴＴフレーム（Ｃ）
  0
TEXT
  8
_0-b_レイヤ1
 62
    7
 10
478.12250449999999
 20
476.562521
 40
12.800000000000001
 41
1
 50
0
  1
ＦＳ５００
  0
TEXT
  8
_0-b_レイヤ1
 62
    7
 10
250.12248249999993
 20
452.562521
 40
12.800000000000001
 41
1
 50
0
  1
ステントリリングねじ
  0
TEXT
  8
_0-b_レイヤ1
 62
    7
 10
478.12255049999999
 20
452.562521
 40
12.800000000000001
 41
1
 50
0
  1
皿４×１６
  0
TEXT
  8
_0-b_レイヤ1
 62
    7
 10
250.12248249999993
 20
428.562521
 40
12.800000000000001
 41
1
 50
0
  1
アンカープラグ
  0
TEXT
  8
_0-b_レイヤ1
 62
    7
 10
478.12250449999999
 20
428.562521
 40
12.800000000000001
 41
1
 50
0
  1
フィッシャープラグＳ８
  0
TEXT
  8
_0-b_レイヤ1
 62
    7
 10
250.12248249999993
 20
404.56254300000001
 40
12.800000000000001
 41
1
 50
0
  1
ステンタッピンねじ
  0
TEXT
  8
_0-b_レイヤ1
 62
    7
 10
478.12250449999999
 20
404.56254300000001
 40
12.800000000000001
 41
1
 50
0
  1
なべ５×５０
  0
TEXT
  8
_0-b_レイヤ1
 62
    7
 10
733.96333849999996
 20
356.762517
 40
12.800000000000001
 41
1
 50
0
  1
１
  0
TEXT
  8
_0-b_レイヤ1
 62
    7
 10
250.12248249999993
 20
356.56252100000006
 40
12.800000000000001
 41
1
 50
0
  1
ブチルテープ
  0
TEXT
  8
_0-b_レイヤ1
 62
    7
 10
478.12250449999999
 20
356.56252100000006
 40
12.800000000000001
 41
1
 50
0
  1
ｔ１．０×ｗ３０
  0
LINE
  8
_0-b_レイヤ1
  6
CONTINUOUS
 62
    7
 10
1016.5224525
 20
279.76250500000003
 11
1016.5224525
 21
610.96250499999996
  0
LINE
  8
_0-b_レイヤ1
  6
CONTINUOUS
 62
    7
 10
1045.3224525000001
 20
279.76250500000003
 11
1045.3224525000001
 21
610.96250499999996
  0
LINE
  8
_0-b_レイヤ1
  6
CONTINUOUS
 62
    7
 10
1273.3224525000001
 20
279.76250500000003
 11
1273.3224525000001
 21
610.96250499999996
  0
LINE
  8
_0-b_レイヤ1
  6
CONTINUOUS
 62
    7
 10
1444.3224525000001
 20
279.76250500000003
 11
1444.3224525000001
 21
610.96250499999996
  0
LINE
  8
_0-b_レイヤ1
  6
CONTINUOUS
 62
    7
 10
1585.1224524999998
 20
279.76250500000003
 11
1585.1224524999998
 21
610.96250499999996
  0
LINE
  8
_0-b_レイヤ1
  6
CONTINUOUS
 62
    7
 10
1556.3224525000001
 20
279.76250500000003
 11
1556.3224525000001
 21
610.96250499999996
  0
LINE
  8
_0-b_レイヤ1
  6
CONTINUOUS
 62
    7
 10
1508.3224525000001
 20
279.76250500000003
 11
1508.3224525000001
 21
610.96250499999996
  0
LINE
  8
_0-b_レイヤ1
  6
CONTINUOUS
 62
    7
 10
1448.3224525000001
 20
279.76250500000003
 11
1448.3224525000001
 21
610.96250499999996
  0
TEXT
  8
_0-b_レイヤ1
 62
    7
 10
1018.5106545
 20
332.67272700000001
 40
12.800000000000001
 41
1
 50
0
  1
１０
  0
TEXT
  8
_0-b_レイヤ1
 62
    7
 10
1018.5106545
 20
308.67272700000001
 40
12.800000000000001
 41
1
 50
0
  1
１１
  0
TEXT
  8
_0-b_レイヤ1
 62
    7
 10
1050.1225045000001
 20
500.562521
 40
12.800000000000001
 41
1
 50
0
  1
ＴＴフレーム（Ｃ）
  0
TEXT
  8
_0-b_レイヤ1
 62
    7
 10
1453.6041304999999
 20
452.562521
 40
12.800000000000001
 41
1
 50
0
  1
３０００
  0
TEXT
  8
_0-b_レイヤ1
 62
    7
 10
1535.9634004999998
 20
452.762517
 40
12.800000000000001
 41
1
 50
0
  1
１
  0
TEXT
  8
_0-b_レイヤ1
 62
    7
 10
1564.5428605000002
 20
452.562521
 40
12.800000000000001
 41
1
 50
0
  1
〃
  0
TEXT
  8
_0-b_レイヤ1
 62
    7
 10
1050.1225045000001
 20
452.562521
 40
12.800000000000001
 41
1
 50
0
  1
ＴＣ壁フレーム（Ｃ）
  0
TEXT
  8
_0-b_レイヤ1
 62
    7
 10
1050.1225045000001
 20
476.562521
 40
12.800000000000001
 41
1
 50
0
  1
ＴＣサイドキャップ（Ｃ）Ｓ
  0
TEXT
  8
_0-b_レイヤ1
 62
    7
 10
1535.9634004999998
 20
428.762517
 40
12.800000000000001
 41
1
 50
0
  1
１
  0
TEXT
  8
_0-b_レイヤ1
 62
    7
 10
1050.1225045000001
 20
428.562521
 40
12.800000000000001
 41
1
 50
0
  1
止水補助板
  0
TEXT
  8
_0-b_レイヤ1
 62
    7
 10
1278.1225045000001
 20
428.56254300000001
 40
12.800000000000001
 41
1
 50
0
  1
ＦＳ５００
  0
TEXT
  8
_0-b_レイヤ1
 62
    7
 10
1453.6041304999999
 20
428.562521
 40
12.800000000000001
 41
1
 50
0
  1
３１００
  0
TEXT
  8
_0-b_レイヤ1
 62
    7
 10
1564.5428605000002
 20
428.562521
 40
12.800000000000001
 41
1
 50
0
  1
枚
  0
TEXT
  8
_0-b_レイヤ1
 62
    7
 10
1535.9634004999998
 20
404.762517
 40
12.800000000000001
 41
1
 50
0
  1
１
  0
TEXT
  8
_0-b_レイヤ1
 62
    7
 10
1050.1224124999999
 20
404.56254300000001
 40
12.800000000000001
 41
1
 50
0
  1
ガスケットＫ
  0
TEXT
  8
_0-b_レイヤ1
 62
    7
 10
1564.5429525
 20
380.56252100000006
 40
12.800000000000001
 41
1
 50
0
  1
〃
  0
TEXT
  8
_0-b_レイヤ1
 62
    7
 10
1050.1224824999999
 20
380.56252100000006
 40
12.800000000000001
 41
1
 50
0
  1
ステントリリングねじ
  0
TEXT
  8
_0-b_レイヤ1
 62
    7
 10
1278.1225504999998
 20
380.56252100000006
 40
12.800000000000001
 41
1
 50
0
  1
皿４×１６
  0
TEXT
  8
_0-b_レイヤ1
 62
    7
 10
1564.5428605000002
 20
404.562521
 40
12.800000000000001
 41
1
 50
0
  1
本
  0
TEXT
  8
_0-b_レイヤ1
 62
    7
 10
1453.6043144999999
 20
404.56254300000001
 40
12.800000000000001
 41
1
 50
0
  1
３０００
  0
TEXT
  8
_0-b_レイヤ1
 62
    7
 10
1564.5429525
 20
356.56252100000006
 40
12.800000000000001
 41
1
 50
0
  1
〃
  0
TEXT
  8
_0-b_レイヤ1
 62
    7
 10
1050.1224824999999
 20
356.56252100000006
 40
12.800000000000001
 41
1
 50
0
  1
アンカープラグ
  0
TEXT
  8
_0-b_レイヤ1
 62
    7
 10
1278.1225045000001
 20
356.56252100000006
 40
12.800000000000001
 41
1
 50
0
  1
フィッシャープラグＳ８
  0
TEXT
  8
_0-b_レイヤ1
 62
    7
 10
1564.5429525
 20
332.56252100000006
 40
12.800000000000001
 41
1
 50
0
  1
〃
  0
TEXT
  8
_0-b_レイヤ1
 62
    7
 10
1564.5428605000002
 20
308.56252100000006
 40
12.800000000000001
 41
1
 50
0
  1
枚
  0
TEXT
  8
_0-b_レイヤ1
 62
    7
 10
1564.5428605000002
 20
284.56252100000006
 40
12.800000000000001
 41
1
 50
0
  1
巻
  0
TEXT
  8
_0-b_レイヤ1
 62
    7
 10
1535.9634004999998
 20
284.762517
 40
12.800000000000001
 41
1
 50
0
  1
１
  0
TEXT
  8
_0-b_レイヤ1
 62
    7
 10
1453.6043144999999
 20
284.56254300000001
 40
12.800000000000001
 41
1
 50
0
  1
６０００
  0
TEXT
  8
_0-b_レイヤ1
 62
    7
 10
1050.1224824999999
 20
308.56254300000001
 40
12.800000000000001
 41
1
 50
0
  1
ステンワッシャー
  0
TEXT
  8
_0-b_レイヤ1
 62
    7
 10
1278.1225504999998
 20
308.56254300000001
 40
12.800000000000001
 41
1
 50
0
  1
１．５×１８×５．５穴
  0
TEXT
  8
_0-b_レイヤ1
 62
    7
 10
1050.1224824999999
 20
332.56254300000001
 40
12.800000000000001
 41
1
 50
0
  1
ステンタッピンねじ
  0
TEXT
  8
_0-b_レイヤ1
 62
    7
 10
1278.1225045000001
 20
332.56254300000001
 40
12.800000000000001
 41
1
 50
0
  1
なべ５×５０
  0
TEXT
  8
_0-b_レイヤ1
 62
    7
 10
1050.1224824999999
 20
284.56252100000006
 40
12.800000000000001
 41
1
 50
0
  1
ブチルテープ
  0
TEXT
  8
_0-b_レイヤ1
 62
    7
 10
1278.1225045000001
 20
284.56252100000006
 40
12.800000000000001
 41
1
 50
0
  1
ｔ１．０×ｗ３０
  0
TEXT
  8
_0-b_レイヤ1
 62
    7
 10
764.54295249999996
 20
452.562521
 40
12.800000000000001
 41
1
 50
0
  1
本
  0
TEXT
  8
_0-b_レイヤ1
 62
    7
 10
764.54295249999996
 20
356.56252100000006
 40
12.800000000000001
 41
1
 50
0
  1
巻
  0
TEXT
  8
_0-b_レイヤ1
 62
    7
 10
1016.5224684999999
 20
254.23564668890003
 40
12.800000000000001
 41
1
 50
0
  1
注）　ガスケットＫはＴＣサイドキャップ（Ｃ）Ｓ にセット済み。
  0
TEXT
  8
_0-b_レイヤ1
 62
    7
 10
721.60428249999995
 20
428.76247100000001
 40
12.800000000000001
 41
1
 50
0
  1
２４
  0
TEXT
  8
_0-b_レイヤ1
 62
    7
 10
721.60428249999995
 20
404.76247100000001
 40
12.800000000000001
 41
1
 50
0
  1
２４
  0
TEXT
  8
_0-b_レイヤ1
 62
    7
 10
721.60428249999995
 20
380.76253900000006
 40
12.800000000000001
 41
1
 50
0
  1
２４
  0
TEXT
  8
_0-b_レイヤ1
 62
    7
 10
1521.6042825
 20
356.76247100000001
 40
12.800000000000001
 41
1
 50
0
  1
１８
  0
TEXT
  8
_0-b_レイヤ1
 62
    7
 10
1521.6042825
 20
332.76247100000001
 40
12.800000000000001
 41
1
 50
0
  1
１８
  0
TEXT
  8
_0-b_レイヤ1
 62
    7
 10
1521.6042825
 20
308.76247100000001
 40
12.800000000000001
 41
1
 50
0
  1
１８
  0
TEXT
  8
_0-b_レイヤ1
 62
    7
 10
1342.4400715090001
 20
717.66809437169991
 40
12.800000000000001
 41
1
 50
0
  1
Ｓ＝１／４
  0
TEXT
  8
_0-b_レイヤ1
 62
    7
 10
457.39694642709998
 20
720.00239435660001
 40
12.800000000000001
 41
1
 50
0
  1
Ｓ＝１／４
  0
TEXT
  8
_0-b_レイヤ1
 62
    7
 10
1050.1225045000001
 20
548.56252100000006
 40
12.800000000000001
 41
1
 50
0
  1
ＴＴサイドプレート（Ｃ）Ｓ
  0
TEXT
  8
_0-b_レイヤ1
 62
    7
 10
250.12248249999993
 20
524.56252100000006
 40
12.800000000000001
 41
1
 50
0
  1
ＴＴセンタープレート（Ｅ）ＧＰＳ
  0
TEXT
  8
_0-b_レイヤ1
 62
    7
 10
1050.1225045000001
 20
524.56252100000006
 40
12.800000000000001
 41
1
 50
0
  1
ＴＣセンタープレート（Ｆ）ＧＰＳ
  0
TEXT
  8
_0-b_レイヤ1
 62
    7
 10
721.60428249999995
 20
452.762495
 40
12.800000000000001
 41
1
 50
0
  1
２２
  0
TEXT
  8
_0-b_レイヤ1
 62
    7
 10
1521.6042825
 20
380.76247100000001
 40
12.800000000000001
 41
1
 50
0
  1
１７
  0
TEXT
  8
_0-b_レイヤ1
 62
    7
 10
333.72245249999997
 20
582.96250499999996
 40
12.800000000000001
 41
1
 50
0
  1
部材名称
  0
TEXT
  8
_0-b_レイヤ1
 62
    7
 10
539.62245250000001
 20
582.96250499999996
 40
12.800000000000001
 41
1
 50
0
  1
規　格
  0
TEXT
  8
_0-b_レイヤ1
 62
    7
 10
764.32245249999994
 20
602.16250500000001
 40
12.800000000000001
 41
1
 50
-90
  1
単位
  0
TEXT
  8
_0-b_レイヤ1
 62
    7
 10
659.12245250000001
 20
593.76250500000003
 40
12.800000000000001
 41
1
 50
0
  1
定　尺
  0
TEXT
  8
_0-b_レイヤ1
 62
    7
 10
652.72245250000003
 20
572.16250500000001
 40
12.800000000000001
 41
1
 50
0
  1
（ｍｍ）
  0
TEXT
  8
_0-b_レイヤ1
 62
    7
 10
719.52245249999999
 20
572.16250500000001
 40
12.800000000000001
 41
1
 50
0
  1
数量
  0
TEXT
  8
_0-b_レイヤ1
 62
    7
 10
719.52245249999999
 20
593.76250500000003
 40
12.800000000000001
 41
1
 50
0
  1
使用
  0
TEXT
  8
_0-b_レイヤ1
 62
    7
 10
1133.7224525000001
 20
582.96250499999996
 40
12.800000000000001
 41
1
 50
0
  1
部材名称
  0
TEXT
  8
_0-b_レイヤ1
 62
    7
 10
1339.6224524999998
 20
582.96250499999996
 40
12.800000000000001
 41
1
 50
0
  1
規　格
  0
TEXT
  8
_0-b_レイヤ1
 62
    7
 10
1564.3224525000001
 20
602.16250500000001
 40
12.800000000000001
 41
1
 50
-90
  1
単位
  0
TEXT
  8
_0-b_レイヤ1
 62
    7
 10
1459.1224524999998
 20
593.76250500000003
 40
12.800000000000001
 41
1
 50
0
  1
定　尺
  0
TEXT
  8
_0-b_レイヤ1
 62
    7
 10
1452.7224525000001
 20
572.16250500000001
 40
12.800000000000001
 41
1
 50
0
  1
（ｍｍ）
  0
TEXT
  8
_0-b_レイヤ1
 62
    7
 10
1519.5224524999999
 20
572.16250500000001
 40
12.800000000000001
 41
1
 50
0
  1
数量
  0
TEXT
  8
_0-b_レイヤ1
 62
    7
 10
1519.5224524999999
 20
593.76250500000003
 40
12.800000000000001
 41
1
 50
0
  1
使用
  0
LINE
  8
_0-7_サイド
  6
CONTINUOUS
 62
    7
 10
331.52245249999999
 20
930.96250499999996
 11
331.52245249999999
 21
929.96250499999996
  0
LINE
  8
_0-7_サイド
  6
CONTINUOUS
 62
    7
 10
330.52245249999999
 20
931.96250499999996
 11
331.52245249999999
 21
930.96250499999996
  0
LINE
  8
_0-7_サイド
  6
CONTINUOUS
 62
    7
 10
233.52245249999999
 20
931.96250499999996
 11
330.52245249999999
 21
931.96250499999996
  0
LINE
  8
_0-7_サイド
  6
CONTINUOUS
 62
    7
 10
233.52245249999999
 20
931.96250499999996
 11
233.52245249999999
 21
929.96250499999996
  0
LINE
  8
_0-7_サイド
  6
CONTINUOUS
 62
    7
 10
233.52245249999999
 20
929.96250499999996
 11
331.52245249999999
 21
929.96250499999996
  0
LINE
  8
_0-7_サイド
  6
HIDDEN
 62
    7
 10
238.22245249999992
 20
931.96250499999996
 11
240.22245249999992
 21
929.96250499999996
  0
LINE
  8
_0-7_サイド
  6
HIDDEN
 62
    7
 10
245.82245250000005
 20
929.96250499999996
 11
247.82245250000005
 21
931.96250499999996
  0
LINE
  8
_0-7_サイド
  6
CONTINUOUS
 62
    7
 10
561.52244747769998
 20
930.96250499999996
 11
561.52244747769998
 21
929.96250499999996
  0
LINE
  8
_0-7_サイド
  6
CONTINUOUS
 62
    7
 10
562.52244747769998
 20
931.96250499999996
 11
561.52244747769998
 21
930.96250499999996
  0
LINE
  8
_0-7_サイド
  6
CONTINUOUS
 62
    7
 10
659.52244747769998
 20
931.96250499999996
 11
562.52244747769998
 21
931.96250499999996
  0
LINE
  8
_0-7_サイド
  6
CONTINUOUS
 62
    7
 10
659.52244747769998
 20
931.96250499999996
 11
659.52244747769998
 21
929.96250499999996
  0
LINE
  8
_0-7_サイド
  6
CONTINUOUS
 62
    7
 10
659.52244747769998
 20
929.96250499999996
 11
561.52244747769998
 21
929.96250499999996
  0
LINE
  8
_0-7_サイド
  6
HIDDEN
 62
    7
 10
654.82244747769994
 20
931.96250499999996
 11
652.82244747769994
 21
929.96250499999996
  0
LINE
  8
_0-7_サイド
  6
HIDDEN
 62
    7
 10
647.22244747770003
 20
929.96250499999996
 11
645.22244747770003
 21
931.96250499999996
  0
LINE
  8
_0-7_サイド
  6
CONTINUOUS
 62
    7
 10
1276.5224625000001
 20
930.96250499999996
 11
1276.5224625000001
 21
929.96250499999996
  0
LINE
  8
_0-7_サイド
  6
CONTINUOUS
 62
    7
 10
1275.5224625000001
 20
931.96250499999996
 11
1276.5224625000001
 21
930.96250499999996
  0
LINE
  8
_0-7_サイド
  6
CONTINUOUS
 62
    7
 10
1178.5224625000001
 20
931.96250499999996
 11
1275.5224625000001
 21
931.96250499999996
  0
LINE
  8
_0-7_サイド
  6
CONTINUOUS
 62
    7
 10
1178.5224625000001
 20
931.96250499999996
 11
1178.5224625000001
 21
929.96250499999996
  0
LINE
  8
_0-7_サイド
  6
CONTINUOUS
 62
    7
 10
1178.5224625000001
 20
929.96250499999996
 11
1276.5224625000001
 21
929.96250499999996
  0
LINE
  8
_0-7_サイド
  6
HIDDEN
 62
    7
 10
1183.2224624999999
 20
931.96250499999996
 11
1185.2224624999999
 21
929.96250499999996
  0
LINE
  8
_0-7_サイド
  6
HIDDEN
 62
    7
 10
1190.8224624999998
 20
929.96250499999996
 11
1192.8224624999998
 21
931.96250499999996
  0
LINE
  8
_0-8_小物
  6
CONTINUOUS
 62
    7
 10
241.75578350000001
 20
921.29720799999996
 11
241.75578350000001
 21
920.96250699999996
  0
LINE
  8
_0-8_小物
  6
CONTINUOUS
 62
    7
 10
239.42245249999996
 20
931.96250499999996
 11
239.42245249999996
 21
931.66250500000001
  0
LINE
  8
_0-8_小物
  6
CONTINUOUS
 62
    7
 10
239.42245249999996
 20
931.66250500000001
 11
241.75578350000001
 21
929.66250700000001
  0
LINE
  8
_0-8_小物
  6
CONTINUOUS
 62
    7
 10
241.75578350000001
 20
929.66250700000001
 11
244.28911849999997
 21
929.66250700000001
  0
LINE
  8
_0-8_小物
  6
CONTINUOUS
 62
    7
 10
239.42245249999996
 20
931.66250500000001
 11
246.62245250000001
 21
931.66250500000001
  0
LINE
  8
_0-8_小物
  6
CONTINUOUS
 62
    7
 10
246.62245250000001
 20
931.96250499999996
 11
246.62245250000001
 21
931.66250500000001
  0
LINE
  8
_0-8_小物
  6
CONTINUOUS
 62
    7
 10
246.62245250000001
 20
931.66250500000001
 11
244.28911849999997
 21
929.66250700000001
  0
LINE
  8
_0-8_小物
  6
CONTINUOUS
 62
    7
 10
241.75578350000001
 20
929.40178900000001
 11
243.02245249999999
 21
929.44876900000008
  0
LINE
  8
_0-8_小物
  6
CONTINUOUS
 62
    7
 10
241.75578350000001
 20
928.55500899999993
 11
243.02245249999999
 21
929.44876900000008
  0
LINE
  8
_0-8_小物
  6
CONTINUOUS
 62
    7
 10
241.75578350000001
 20
920.96250699999996
 11
241.75578350000001
 21
916.88626599999998
  0
LINE
  8
_0-8_小物
  6
CONTINUOUS
 62
    7
 10
244.28911849999997
 20
922.23794799999996
 11
244.28911849999997
 21
916.88626599999998
  0
LINE
  8
_0-8_小物
  6
CONTINUOUS
 62
    7
 10
241.75578350000001
 20
923.17868799999997
 11
241.75578350000001
 21
922.14398800000004
  0
LINE
  8
_0-8_小物
  6
CONTINUOUS
 62
    7
 10
244.28911849999997
 20
923.08472800000004
 11
244.28911849999997
 21
924.11942799999997
  0
LINE
  8
_0-8_小物
  6
CONTINUOUS
 62
    7
 10
241.75578350000001
 20
921.29720799999996
 11
244.28911849999997
 21
922.23794799999996
  0
LINE
  8
_0-8_小物
  6
CONTINUOUS
 62
    7
 10
241.75578350000001
 20
922.14398800000004
 11
244.28911849999997
 21
923.08472800000004
  0
LINE
  8
_0-8_小物
  6
CONTINUOUS
 62
    7
 10
241.02245149999999
 20
921.72059800000011
 11
245.02245049999999
 21
922.66133800000011
  0
LINE
  8
_0-8_小物
  6
CONTINUOUS
 62
    7
 10
241.02245149999999
 20
921.72059800000011
 11
241.75578350000001
 21
921.29720799999996
  0
LINE
  8
_0-8_小物
  6
CONTINUOUS
 62
    7
 10
241.02245149999999
 20
921.72059800000011
 11
241.75578350000001
 21
922.14398800000004
  0
LINE
  8
_0-8_小物
  6
CONTINUOUS
 62
    7
 10
245.02245049999999
 20
922.66133800000011
 11
244.28911849999997
 21
922.23794799999996
  0
LINE
  8
_0-8_小物
  6
CONTINUOUS
 62
    7
 10
244.28911849999997
 20
923.08472800000004
 11
245.02245049999999
 21
922.66133800000011
  0
LINE
  8
_0-8_小物
  6
CONTINUOUS
 62
    7
 10
241.75578350000001
 20
925.06017100000008
 11
241.75578350000001
 21
924.02546800000005
  0
LINE
  8
_0-8_小物
  6
CONTINUOUS
 62
    7
 10
244.28911849999997
 20
924.96621099999993
 11
244.28911849999997
 21
926.00091100000009
  0
LINE
  8
_0-8_小物
  6
CONTINUOUS
 62
    7
 10
241.75578350000001
 20
923.17868799999997
 11
244.28911849999997
 21
924.11942799999997
  0
LINE
  8
_0-8_小物
  6
CONTINUOUS
 62
    7
 10
241.75578350000001
 20
924.02546800000005
 11
244.28911849999997
 21
924.96621099999993
  0
LINE
  8
_0-8_小物
  6
CONTINUOUS
 62
    7
 10
241.02245149999999
 20
923.60207800000012
 11
245.02245049999999
 21
924.54281800000012
  0
LINE
  8
_0-8_小物
  6
CONTINUOUS
 62
    7
 10
241.02245149999999
 20
923.60207800000012
 11
241.75578350000001
 21
923.17868799999997
  0
LINE
  8
_0-8_小物
  6
CONTINUOUS
 62
    7
 10
241.02245149999999
 20
923.60207800000012
 11
241.75578350000001
 21
924.02546800000005
  0
LINE
  8
_0-8_小物
  6
CONTINUOUS
 62
    7
 10
245.02245049999999
 20
924.54281800000012
 11
244.28911849999997
 21
924.11942799999997
  0
LINE
  8
_0-8_小物
  6
CONTINUOUS
 62
    7
 10
244.28911849999997
 20
924.96621099999993
 11
245.02245049999999
 21
924.54281800000012
  0
LINE
  8
_0-8_小物
  6
CONTINUOUS
 62
    7
 10
241.75578350000001
 20
926.94165100000009
 11
241.75578350000001
 21
925.90695099999994
  0
LINE
  8
_0-8_小物
  6
CONTINUOUS
 62
    7
 10
244.28911849999997
 20
926.84769099999994
 11
244.28911849999997
 21
927.8823910000001
  0
LINE
  8
_0-8_小物
  6
CONTINUOUS
 62
    7
 10
241.75578350000001
 20
925.06017100000008
 11
244.28911849999997
 21
926.00091100000009
  0
LINE
  8
_0-8_小物
  6
CONTINUOUS
 62
    7
 10
241.75578350000001
 20
925.90695099999994
 11
244.28911849999997
 21
926.84769099999994
  0
LINE
  8
_0-8_小物
  6
CONTINUOUS
 62
    7
 10
241.02245149999999
 20
925.48356100000001
 11
245.02245049999999
 21
926.42430100000001
  0
LINE
  8
_0-8_小物
  6
CONTINUOUS
 62
    7
 10
241.02245149999999
 20
925.48356100000001
 11
241.75578350000001
 21
925.06017100000008
  0
LINE
  8
_0-8_小物
  6
CONTINUOUS
 62
    7
 10
241.02245149999999
 20
925.48356100000001
 11
241.75578350000001
 21
925.90695099999994
  0
LINE
  8
_0-8_小物
  6
CONTINUOUS
 62
    7
 10
245.02245049999999
 20
926.42430100000001
 11
244.28911849999997
 21
926.00091100000009
  0
LINE
  8
_0-8_小物
  6
CONTINUOUS
 62
    7
 10
244.28911849999997
 20
926.84769099999994
 11
245.02245049999999
 21
926.42430100000001
  0
LINE
  8
_0-8_小物
  6
CONTINUOUS
 62
    7
 10
241.75578350000001
 20
928.02644499999997
 11
241.75578350000001
 21
927.78843099999995
  0
LINE
  8
_0-8_小物
  6
CONTINUOUS
 62
    7
 10
244.28911849999997
 20
929.66250700000001
 11
244.28911849999997
 21
928.72917400000006
  0
LINE
  8
_0-8_小物
  6
CONTINUOUS
 62
    7
 10
241.75578350000001
 20
926.94165100000009
 11
244.28911849999997
 21
927.8823910000001
  0
LINE
  8
_0-8_小物
  6
CONTINUOUS
 62
    7
 10
241.75578350000001
 20
927.78843099999995
 11
244.28911849999997
 21
928.72917400000006
  0
LINE
  8
_0-8_小物
  6
CONTINUOUS
 62
    7
 10
241.02245149999999
 20
927.36504100000002
 11
245.02245049999999
 21
928.30578100000002
  0
LINE
  8
_0-8_小物
  6
CONTINUOUS
 62
    7
 10
241.02245149999999
 20
927.36504100000002
 11
241.75578350000001
 21
926.94165100000009
  0
LINE
  8
_0-8_小物
  6
CONTINUOUS
 62
    7
 10
241.02245149999999
 20
927.36504100000002
 11
241.75578350000001
 21
927.78843099999995
  0
LINE
  8
_0-8_小物
  6
CONTINUOUS
 62
    7
 10
244.28911849999997
 20
927.8823910000001
 11
245.02245049999999
 21
928.30578100000002
  0
LINE
  8
_0-8_小物
  6
CONTINUOUS
 62
    7
 10
244.28911849999997
 20
928.72917400000006
 11
245.02245049999999
 21
928.30578100000002
  0
LINE
  8
_0-8_小物
  6
CONTINUOUS
 62
    7
 10
241.75578350000001
 20
929.66250700000001
 11
241.75578350000001
 21
929.40178900000001
  0
LINE
  8
_0-8_小物
  6
CONTINUOUS
 62
    7
 10
243.02245249999999
 20
929.44876900000008
 11
241.02245149999999
 21
928.97839900000008
  0
LINE
  8
_0-8_小物
  6
CONTINUOUS
 62
    7
 10
241.02245149999999
 20
928.97839900000008
 11
241.75578350000001
 21
928.55500899999993
  0
LINE
  8
_0-8_小物
  6
CONTINUOUS
 62
    7
 10
241.02245149999999
 20
928.97839900000008
 11
241.75578350000001
 21
929.40178900000001
  0
LINE
  8
_0-8_小物
  6
CONTINUOUS
 62
    7
 10
241.75578350000001
 20
928.55500899999993
 11
241.75578350000001
 21
928.02644499999997
  0
LINE
  8
_0-8_小物
  6
CONTINUOUS
 62
    7
 10
243.02245249999999
 20
917.96250699999996
 11
243.02245249999999
 21
915.96250600000008
  0
LINE
  8
_0-8_小物
  6
CONTINUOUS
 62
    7
 10
244.28911849999997
 20
920.96250699999996
 11
241.75579849999997
 21
920.96250699999996
  0
LINE
  8
_0-8_小物
  6
CONTINUOUS
 62
    7
 10
243.02245249999999
 20
915.96250600000008
 11
241.7557865
 21
916.88626599999998
  0
LINE
  8
_0-8_小物
  6
CONTINUOUS
 62
    7
 10
243.02245249999999
 20
915.96250600000008
 11
244.28911849999997
 21
916.88626599999998
  0
ARC
  8
_0-8_小物
  6
CONTINUOUS
 62
    7
 10
243.39722449999999
 20
916.23790899999995
 40
1.7648489999999999
 50
102.260329
 51
158.446304
  0
ARC
  8
_0-8_小物
  6
CONTINUOUS
 62
    7
 10
249.02873449999993
 20
917.19392799999991
 40
6.0552599999999996
 50
141.51097799999997
 51
172.70791799999998
  0
LINE
  8
_0-8_小物
  6
CONTINUOUS
 62
    7
 10
239.42245249999996
 20
931.96250499999996
 11
246.62245250000001
 21
931.96250499999996
  0
LINE
  8
_0-8_小物
  6
CONTINUOUS
 62
    7
 10
648.75577847770001
 20
921.29720799999996
 11
648.75577847770001
 21
920.96250699999996
  0
LINE
  8
_0-8_小物
  6
CONTINUOUS
 62
    7
 10
646.42244747769996
 20
931.96250499999996
 11
646.42244747769996
 21
931.66250500000001
  0
LINE
  8
_0-8_小物
  6
CONTINUOUS
 62
    7
 10
646.42244747769996
 20
931.66250500000001
 11
648.75577847770001
 21
929.66250700000001
  0
LINE
  8
_0-8_小物
  6
CONTINUOUS
 62
    7
 10
648.75577847770001
 20
929.66250700000001
 11
651.28911347769997
 21
929.66250700000001
  0
LINE
  8
_0-8_小物
  6
CONTINUOUS
 62
    7
 10
646.42244747769996
 20
931.66250500000001
 11
653.62244747770001
 21
931.66250500000001
  0
LINE
  8
_0-8_小物
  6
CONTINUOUS
 62
    7
 10
653.62244747770001
 20
931.96250499999996
 11
653.62244747770001
 21
931.66250500000001
  0
LINE
  8
_0-8_小物
  6
CONTINUOUS
 62
    7
 10
653.62244747770001
 20
931.66250500000001
 11
651.28911347769997
 21
929.66250700000001
  0
LINE
  8
_0-8_小物
  6
CONTINUOUS
 62
    7
 10
648.75577847770001
 20
929.40178900000001
 11
650.02244747769998
 21
929.44876900000008
  0
LINE
  8
_0-8_小物
  6
CONTINUOUS
 62
    7
 10
648.75577847770001
 20
928.55500899999993
 11
650.02244747769998
 21
929.44876900000008
  0
LINE
  8
_0-8_小物
  6
CONTINUOUS
 62
    7
 10
648.75577847770001
 20
920.96250699999996
 11
648.75577847770001
 21
916.88626599999998
  0
LINE
  8
_0-8_小物
  6
CONTINUOUS
 62
    7
 10
651.28911347769997
 20
922.23794799999996
 11
651.28911347769997
 21
916.88626599999998
  0
LINE
  8
_0-8_小物
  6
CONTINUOUS
 62
    7
 10
648.75577847770001
 20
923.17868799999997
 11
648.75577847770001
 21
922.14398800000004
  0
LINE
  8
_0-8_小物
  6
CONTINUOUS
 62
    7
 10
651.28911347769997
 20
923.08472800000004
 11
651.28911347769997
 21
924.11942799999997
  0
LINE
  8
_0-8_小物
  6
CONTINUOUS
 62
    7
 10
648.75577847770001
 20
921.29720799999996
 11
651.28911347769997
 21
922.23794799999996
  0
LINE
  8
_0-8_小物
  6
CONTINUOUS
 62
    7
 10
648.75577847770001
 20
922.14398800000004
 11
651.28911347769997
 21
923.08472800000004
  0
LINE
  8
_0-8_小物
  6
CONTINUOUS
 62
    7
 10
648.02244647769999
 20
921.72059800000011
 11
652.02244547769999
 21
922.66133800000011
  0
LINE
  8
_0-8_小物
  6
CONTINUOUS
 62
    7
 10
648.02244647769999
 20
921.72059800000011
 11
648.75577847770001
 21
921.29720799999996
  0
LINE
  8
_0-8_小物
  6
CONTINUOUS
 62
    7
 10
648.02244647769999
 20
921.72059800000011
 11
648.75577847770001
 21
922.14398800000004
  0
LINE
  8
_0-8_小物
  6
CONTINUOUS
 62
    7
 10
652.02244547769999
 20
922.66133800000011
 11
651.28911347769997
 21
922.23794799999996
  0
LINE
  8
_0-8_小物
  6
CONTINUOUS
 62
    7
 10
651.28911347769997
 20
923.08472800000004
 11
652.02244547769999
 21
922.66133800000011
  0
LINE
  8
_0-8_小物
  6
CONTINUOUS
 62
    7
 10
648.75577847770001
 20
925.06017100000008
 11
648.75577847770001
 21
924.02546800000005
  0
LINE
  8
_0-8_小物
  6
CONTINUOUS
 62
    7
 10
651.28911347769997
 20
924.96621099999993
 11
651.28911347769997
 21
926.00091100000009
  0
LINE
  8
_0-8_小物
  6
CONTINUOUS
 62
    7
 10
648.75577847770001
 20
923.17868799999997
 11
651.28911347769997
 21
924.11942799999997
  0
LINE
  8
_0-8_小物
  6
CONTINUOUS
 62
    7
 10
648.75577847770001
 20
924.02546800000005
 11
651.28911347769997
 21
924.96621099999993
  0
LINE
  8
_0-8_小物
  6
CONTINUOUS
 62
    7
 10
648.02244647769999
 20
923.60207800000012
 11
652.02244547769999
 21
924.54281800000012
  0
LINE
  8
_0-8_小物
  6
CONTINUOUS
 62
    7
 10
648.02244647769999
 20
923.60207800000012
 11
648.75577847770001
 21
923.17868799999997
  0
LINE
  8
_0-8_小物
  6
CONTINUOUS
 62
    7
 10
648.02244647769999
 20
923.60207800000012
 11
648.75577847770001
 21
924.02546800000005
  0
LINE
  8
_0-8_小物
  6
CONTINUOUS
 62
    7
 10
652.02244547769999
 20
924.54281800000012
 11
651.28911347769997
 21
924.11942799999997
  0
LINE
  8
_0-8_小物
  6
CONTINUOUS
 62
    7
 10
651.28911347769997
 20
924.96621099999993
 11
652.02244547769999
 21
924.54281800000012
  0
LINE
  8
_0-8_小物
  6
CONTINUOUS
 62
    7
 10
648.75577847770001
 20
926.94165100000009
 11
648.75577847770001
 21
925.90695099999994
  0
LINE
  8
_0-8_小物
  6
CONTINUOUS
 62
    7
 10
651.28911347769997
 20
926.84769099999994
 11
651.28911347769997
 21
927.8823910000001
  0
LINE
  8
_0-8_小物
  6
CONTINUOUS
 62
    7
 10
648.75577847770001
 20
925.06017100000008
 11
651.28911347769997
 21
926.00091100000009
  0
LINE
  8
_0-8_小物
  6
CONTINUOUS
 62
    7
 10
648.75577847770001
 20
925.90695099999994
 11
651.28911347769997
 21
926.84769099999994
  0
LINE
  8
_0-8_小物
  6
CONTINUOUS
 62
    7
 10
648.02244647769999
 20
925.48356100000001
 11
652.02244547769999
 21
926.42430100000001
  0
LINE
  8
_0-8_小物
  6
CONTINUOUS
 62
    7
 10
648.02244647769999
 20
925.48356100000001
 11
648.75577847770001
 21
925.06017100000008
  0
LINE
  8
_0-8_小物
  6
CONTINUOUS
 62
    7
 10
648.02244647769999
 20
925.48356100000001
 11
648.75577847770001
 21
925.90695099999994
  0
LINE
  8
_0-8_小物
  6
CONTINUOUS
 62
    7
 10
652.02244547769999
 20
926.42430100000001
 11
651.28911347769997
 21
926.00091100000009
  0
LINE
  8
_0-8_小物
  6
CONTINUOUS
 62
    7
 10
651.28911347769997
 20
926.84769099999994
 11
652.02244547769999
 21
926.42430100000001
  0
LINE
  8
_0-8_小物
  6
CONTINUOUS
 62
    7
 10
648.75577847770001
 20
928.02644499999997
 11
648.75577847770001
 21
927.78843099999995
  0
LINE
  8
_0-8_小物
  6
CONTINUOUS
 62
    7
 10
651.28911347769997
 20
929.66250700000001
 11
651.28911347769997
 21
928.72917400000006
  0
LINE
  8
_0-8_小物
  6
CONTINUOUS
 62
    7
 10
648.75577847770001
 20
926.94165100000009
 11
651.28911347769997
 21
927.8823910000001
  0
LINE
  8
_0-8_小物
  6
CONTINUOUS
 62
    7
 10
648.75577847770001
 20
927.78843099999995
 11
651.28911347769997
 21
928.72917400000006
  0
LINE
  8
_0-8_小物
  6
CONTINUOUS
 62
    7
 10
648.02244647769999
 20
927.36504100000002
 11
652.02244547769999
 21
928.30578100000002
  0
LINE
  8
_0-8_小物
  6
CONTINUOUS
 62
    7
 10
648.02244647769999
 20
927.36504100000002
 11
648.75577847770001
 21
926.94165100000009
  0
LINE
  8
_0-8_小物
  6
CONTINUOUS
 62
    7
 10
648.02244647769999
 20
927.36504100000002
 11
648.75577847770001
 21
927.78843099999995
  0
LINE
  8
_0-8_小物
  6
CONTINUOUS
 62
    7
 10
651.28911347769997
 20
927.8823910000001
 11
652.02244547769999
 21
928.30578100000002
  0
LINE
  8
_0-8_小物
  6
CONTINUOUS
 62
    7
 10
651.28911347769997
 20
928.72917400000006
 11
652.02244547769999
 21
928.30578100000002
  0
LINE
  8
_0-8_小物
  6
CONTINUOUS
 62
    7
 10
648.75577847770001
 20
929.66250700000001
 11
648.75577847770001
 21
929.40178900000001
  0
LINE
  8
_0-8_小物
  6
CONTINUOUS
 62
    7
 10
650.02244747769998
 20
929.44876900000008
 11
648.02244647769999
 21
928.97839900000008
  0
LINE
  8
_0-8_小物
  6
CONTINUOUS
 62
    7
 10
648.02244647769999
 20
928.97839900000008
 11
648.75577847770001
 21
928.55500899999993
  0
LINE
  8
_0-8_小物
  6
CONTINUOUS
 62
    7
 10
648.02244647769999
 20
928.97839900000008
 11
648.75577847770001
 21
929.40178900000001
  0
LINE
  8
_0-8_小物
  6
CONTINUOUS
 62
    7
 10
648.75577847770001
 20
928.55500899999993
 11
648.75577847770001
 21
928.02644499999997
  0
LINE
  8
_0-8_小物
  6
CONTINUOUS
 62
    7
 10
650.02244747769998
 20
917.96250699999996
 11
650.02244747769998
 21
915.96250600000008
  0
LINE
  8
_0-8_小物
  6
CONTINUOUS
 62
    7
 10
651.28911347769997
 20
920.96250699999996
 11
648.75579347769997
 21
920.96250699999996
  0
LINE
  8
_0-8_小物
  6
CONTINUOUS
 62
    7
 10
650.02244747769998
 20
915.96250600000008
 11
648.7557814777
 21
916.88626599999998
  0
LINE
  8
_0-8_小物
  6
CONTINUOUS
 62
    7
 10
650.02244747769998
 20
915.96250600000008
 11
651.28911347769997
 21
916.88626599999998
  0
ARC
  8
_0-8_小物
  6
CONTINUOUS
 62
    7
 10
650.39721947769999
 20
916.23790899999995
 40
1.7648489999999999
 50
102.260329
 51
158.446304
  0
ARC
  8
_0-8_小物
  6
CONTINUOUS
 62
    7
 10
656.02872947770004
 20
917.19392799999991
 40
6.0552599999999996
 50
141.51097799999997
 51
172.70791799999998
  0
LINE
  8
_0-8_小物
  6
CONTINUOUS
 62
    7
 10
646.42244747769996
 20
931.96250499999996
 11
653.62244747770001
 21
931.96250499999996
  0
LINE
  8
_0-8_小物
  6
CONTINUOUS
 62
    7
 10
1186.7557935
 20
921.29720799999996
 11
1186.7557935
 21
920.96250699999996
  0
LINE
  8
_0-8_小物
  6
CONTINUOUS
 62
    7
 10
1184.4224625000002
 20
931.96250499999996
 11
1184.4224625000002
 21
931.66250500000001
  0
LINE
  8
_0-8_小物
  6
CONTINUOUS
 62
    7
 10
1184.4224625000002
 20
931.66250500000001
 11
1186.7557935
 21
929.66250700000001
  0
LINE
  8
_0-8_小物
  6
CONTINUOUS
 62
    7
 10
1186.7557935
 20
929.66250700000001
 11
1189.2891285000001
 21
929.66250700000001
  0
LINE
  8
_0-8_小物
  6
CONTINUOUS
 62
    7
 10
1184.4224625000002
 20
931.66250500000001
 11
1191.6224625
 21
931.66250500000001
  0
LINE
  8
_0-8_小物
  6
CONTINUOUS
 62
    7
 10
1191.6224625
 20
931.96250499999996
 11
1191.6224625
 21
931.66250500000001
  0
LINE
  8
_0-8_小物
  6
CONTINUOUS
 62
    7
 10
1191.6224625
 20
931.66250500000001
 11
1189.2891285000001
 21
929.66250700000001
  0
LINE
  8
_0-8_小物
  6
CONTINUOUS
 62
    7
 10
1186.7557935
 20
929.40178900000001
 11
1188.0224625000001
 21
929.44876900000008
  0
LINE
  8
_0-8_小物
  6
CONTINUOUS
 62
    7
 10
1186.7557935
 20
928.55500899999993
 11
1188.0224625000001
 21
929.44876900000008
  0
LINE
  8
_0-8_小物
  6
CONTINUOUS
 62
    7
 10
1186.7557935
 20
920.96250699999996
 11
1186.7557935
 21
916.88626599999998
  0
LINE
  8
_0-8_小物
  6
CONTINUOUS
 62
    7
 10
1189.2891285000001
 20
922.23794799999996
 11
1189.2891285000001
 21
916.88626599999998
  0
LINE
  8
_0-8_小物
  6
CONTINUOUS
 62
    7
 10
1186.7557935
 20
923.17868799999997
 11
1186.7557935
 21
922.14398800000004
  0
LINE
  8
_0-8_小物
  6
CONTINUOUS
 62
    7
 10
1189.2891285000001
 20
923.08472800000004
 11
1189.2891285000001
 21
924.11942799999997
  0
LINE
  8
_0-8_小物
  6
CONTINUOUS
 62
    7
 10
1186.7557935
 20
921.29720799999996
 11
1189.2891285000001
 21
922.23794799999996
  0
LINE
  8
_0-8_小物
  6
CONTINUOUS
 62
    7
 10
1186.7557935
 20
922.14398800000004
 11
1189.2891285000001
 21
923.08472800000004
  0
LINE
  8
_0-8_小物
  6
CONTINUOUS
 62
    7
 10
1186.0224615000002
 20
921.72059800000011
 11
1190.0224604999999
 21
922.66133800000011
  0
LINE
  8
_0-8_小物
  6
CONTINUOUS
 62
    7
 10
1186.0224615000002
 20
921.72059800000011
 11
1186.7557935
 21
921.29720799999996
  0
LINE
  8
_0-8_小物
  6
CONTINUOUS
 62
    7
 10
1186.0224615000002
 20
921.72059800000011
 11
1186.7557935
 21
922.14398800000004
  0
LINE
  8
_0-8_小物
  6
CONTINUOUS
 62
    7
 10
1190.0224604999999
 20
922.66133800000011
 11
1189.2891285000001
 21
922.23794799999996
  0
LINE
  8
_0-8_小物
  6
CONTINUOUS
 62
    7
 10
1189.2891285000001
 20
923.08472800000004
 11
1190.0224604999999
 21
922.66133800000011
  0
LINE
  8
_0-8_小物
  6
CONTINUOUS
 62
    7
 10
1186.7557935
 20
925.06017100000008
 11
1186.7557935
 21
924.02546800000005
  0
LINE
  8
_0-8_小物
  6
CONTINUOUS
 62
    7
 10
1189.2891285000001
 20
924.96621099999993
 11
1189.2891285000001
 21
926.00091100000009
  0
LINE
  8
_0-8_小物
  6
CONTINUOUS
 62
    7
 10
1186.7557935
 20
923.17868799999997
 11
1189.2891285000001
 21
924.11942799999997
  0
LINE
  8
_0-8_小物
  6
CONTINUOUS
 62
    7
 10
1186.7557935
 20
924.02546800000005
 11
1189.2891285000001
 21
924.96621099999993
  0
LINE
  8
_0-8_小物
  6
CONTINUOUS
 62
    7
 10
1186.0224615000002
 20
923.60207800000012
 11
1190.0224604999999
 21
924.54281800000012
  0
LINE
  8
_0-8_小物
  6
CONTINUOUS
 62
    7
 10
1186.0224615000002
 20
923.60207800000012
 11
1186.7557935
 21
923.17868799999997
  0
LINE
  8
_0-8_小物
  6
CONTINUOUS
 62
    7
 10
1186.0224615000002
 20
923.60207800000012
 11
1186.7557935
 21
924.02546800000005
  0
LINE
  8
_0-8_小物
  6
CONTINUOUS
 62
    7
 10
1190.0224604999999
 20
924.54281800000012
 11
1189.2891285000001
 21
924.11942799999997
  0
LINE
  8
_0-8_小物
  6
CONTINUOUS
 62
    7
 10
1189.2891285000001
 20
924.96621099999993
 11
1190.0224604999999
 21
924.54281800000012
  0
LINE
  8
_0-8_小物
  6
CONTINUOUS
 62
    7
 10
1186.7557935
 20
926.94165100000009
 11
1186.7557935
 21
925.90695099999994
  0
LINE
  8
_0-8_小物
  6
CONTINUOUS
 62
    7
 10
1189.2891285000001
 20
926.84769099999994
 11
1189.2891285000001
 21
927.8823910000001
  0
LINE
  8
_0-8_小物
  6
CONTINUOUS
 62
    7
 10
1186.7557935
 20
925.06017100000008
 11
1189.2891285000001
 21
926.00091100000009
  0
LINE
  8
_0-8_小物
  6
CONTINUOUS
 62
    7
 10
1186.7557935
 20
925.90695099999994
 11
1189.2891285000001
 21
926.84769099999994
  0
LINE
  8
_0-8_小物
  6
CONTINUOUS
 62
    7
 10
1186.0224615000002
 20
925.48356100000001
 11
1190.0224604999999
 21
926.42430100000001
  0
LINE
  8
_0-8_小物
  6
CONTINUOUS
 62
    7
 10
1186.0224615000002
 20
925.48356100000001
 11
1186.7557935
 21
925.06017100000008
  0
LINE
  8
_0-8_小物
  6
CONTINUOUS
 62
    7
 10
1186.0224615000002
 20
925.48356100000001
 11
1186.7557935
 21
925.90695099999994
  0
LINE
  8
_0-8_小物
  6
CONTINUOUS
 62
    7
 10
1190.0224604999999
 20
926.42430100000001
 11
1189.2891285000001
 21
926.00091100000009
  0
LINE
  8
_0-8_小物
  6
CONTINUOUS
 62
    7
 10
1189.2891285000001
 20
926.84769099999994
 11
1190.0224604999999
 21
926.42430100000001
  0
LINE
  8
_0-8_小物
  6
CONTINUOUS
 62
    7
 10
1186.7557935
 20
928.02644499999997
 11
1186.7557935
 21
927.78843099999995
  0
LINE
  8
_0-8_小物
  6
CONTINUOUS
 62
    7
 10
1189.2891285000001
 20
929.66250700000001
 11
1189.2891285000001
 21
928.72917400000006
  0
LINE
  8
_0-8_小物
  6
CONTINUOUS
 62
    7
 10
1186.7557935
 20
926.94165100000009
 11
1189.2891285000001
 21
927.8823910000001
  0
LINE
  8
_0-8_小物
  6
CONTINUOUS
 62
    7
 10
1186.7557935
 20
927.78843099999995
 11
1189.2891285000001
 21
928.72917400000006
  0
LINE
  8
_0-8_小物
  6
CONTINUOUS
 62
    7
 10
1186.0224615000002
 20
927.36504100000002
 11
1190.0224604999999
 21
928.30578100000002
  0
LINE
  8
_0-8_小物
  6
CONTINUOUS
 62
    7
 10
1186.0224615000002
 20
927.36504100000002
 11
1186.7557935
 21
926.94165100000009
  0
LINE
  8
_0-8_小物
  6
CONTINUOUS
 62
    7
 10
1186.0224615000002
 20
927.36504100000002
 11
1186.7557935
 21
927.78843099999995
  0
LINE
  8
_0-8_小物
  6
CONTINUOUS
 62
    7
 10
1189.2891285000001
 20
927.8823910000001
 11
1190.0224604999999
 21
928.30578100000002
  0
LINE
  8
_0-8_小物
  6
CONTINUOUS
 62
    7
 10
1189.2891285000001
 20
928.72917400000006
 11
1190.0224604999999
 21
928.30578100000002
  0
LINE
  8
_0-8_小物
  6
CONTINUOUS
 62
    7
 10
1186.7557935
 20
929.66250700000001
 11
1186.7557935
 21
929.40178900000001
  0
LINE
  8
_0-8_小物
  6
CONTINUOUS
 62
    7
 10
1188.0224625000001
 20
929.44876900000008
 11
1186.0224615000002
 21
928.97839900000008
  0
LINE
  8
_0-8_小物
  6
CONTINUOUS
 62
    7
 10
1186.0224615000002
 20
928.97839900000008
 11
1186.7557935
 21
928.55500899999993
  0
LINE
  8
_0-8_小物
  6
CONTINUOUS
 62
    7
 10
1186.0224615000002
 20
928.97839900000008
 11
1186.7557935
 21
929.40178900000001
  0
LINE
  8
_0-8_小物
  6
CONTINUOUS
 62
    7
 10
1186.7557935
 20
928.55500899999993
 11
1186.7557935
 21
928.02644499999997
  0
LINE
  8
_0-8_小物
  6
CONTINUOUS
 62
    7
 10
1188.0224625000001
 20
917.96250699999996
 11
1188.0224625000001
 21
915.96250600000008
  0
LINE
  8
_0-8_小物
  6
CONTINUOUS
 62
    7
 10
1189.2891285000001
 20
920.96250699999996
 11
1186.7558085000001
 21
920.96250699999996
  0
LINE
  8
_0-8_小物
  6
CONTINUOUS
 62
    7
 10
1188.0224625000001
 20
915.96250600000008
 11
1186.7557965000001
 21
916.88626599999998
  0
LINE
  8
_0-8_小物
  6
CONTINUOUS
 62
    7
 10
1188.0224625000001
 20
915.96250600000008
 11
1189.2891285000001
 21
916.88626599999998
  0
ARC
  8
_0-8_小物
  6
CONTINUOUS
 62
    7
 10
1188.3972345000002
 20
916.23790899999995
 40
1.7648489999999999
 50
102.260329
 51
158.446304
  0
ARC
  8
_0-8_小物
  6
CONTINUOUS
 62
    7
 10
1194.0287444999999
 20
917.19392799999991
 40
6.0552599999999996
 50
141.51097799999997
 51
172.70791799999998
  0
LINE
  8
_0-8_小物
  6
CONTINUOUS
 62
    7
 10
1184.4224625000002
 20
931.96250499999996
 11
1191.6224625
 21
931.96250499999996
  0
LINE
  8
_0-8_小物
  6
CONTINUOUS
 62
    7
 10
1532.1877645
 20
968.1958360000001
 11
1532.5224655000002
 21
968.1958360000001
  0
LINE
  8
_0-8_小物
  6
CONTINUOUS
 62
    7
 10
1521.5224674999999
 20
965.86250500000006
 11
1521.8224675000001
 21
965.86250500000006
  0
LINE
  8
_0-8_小物
  6
CONTINUOUS
 62
    7
 10
1521.8224675000001
 20
965.86250500000006
 11
1523.8224654999999
 21
968.1958360000001
  0
LINE
  8
_0-8_小物
  6
CONTINUOUS
 62
    7
 10
1523.8224654999999
 20
968.1958360000001
 11
1523.8224654999999
 21
970.72917099999995
  0
LINE
  8
_0-8_小物
  6
CONTINUOUS
 62
    7
 10
1521.8224675000001
 20
965.86250500000006
 11
1521.8224675000001
 21
973.0625050000001
  0
LINE
  8
_0-8_小物
  6
CONTINUOUS
 62
    7
 10
1521.5224674999999
 20
973.0625050000001
 11
1521.8224675000001
 21
973.0625050000001
  0
LINE
  8
_0-8_小物
  6
CONTINUOUS
 62
    7
 10
1521.8224675000001
 20
973.0625050000001
 11
1523.8224654999999
 21
970.72917099999995
  0
LINE
  8
_0-8_小物
  6
CONTINUOUS
 62
    7
 10
1524.0831834999999
 20
968.1958360000001
 11
1524.0362034999998
 21
969.46250499999996
  0
LINE
  8
_0-8_小物
  6
CONTINUOUS
 62
    7
 10
1524.9299635000002
 20
968.1958360000001
 11
1524.0362034999998
 21
969.46250499999996
  0
LINE
  8
_0-8_小物
  6
CONTINUOUS
 62
    7
 10
1532.5224655000002
 20
968.1958360000001
 11
1536.5987064999999
 21
968.1958360000001
  0
LINE
  8
_0-8_小物
  6
CONTINUOUS
 62
    7
 10
1531.2470245
 20
970.72917099999995
 11
1536.5987064999999
 21
970.72917099999995
  0
LINE
  8
_0-8_小物
  6
CONTINUOUS
 62
    7
 10
1530.3062844999999
 20
968.1958360000001
 11
1531.3409845000001
 21
968.1958360000001
  0
LINE
  8
_0-8_小物
  6
CONTINUOUS
 62
    7
 10
1530.4002445000001
 20
970.72917099999995
 11
1529.3655444999999
 21
970.72917099999995
  0
LINE
  8
_0-8_小物
  6
CONTINUOUS
 62
    7
 10
1532.1877645
 20
968.1958360000001
 11
1531.2470245
 21
970.72917099999995
  0
LINE
  8
_0-8_小物
  6
CONTINUOUS
 62
    7
 10
1531.3409845000001
 20
968.1958360000001
 11
1530.4002445000001
 21
970.72917099999995
  0
LINE
  8
_0-8_小物
  6
CONTINUOUS
 62
    7
 10
1531.7643745
 20
967.46250400000008
 11
1530.8236345
 21
971.46250299999997
  0
LINE
  8
_0-8_小物
  6
CONTINUOUS
 62
    7
 10
1531.7643745
 20
967.46250400000008
 11
1532.1877645
 21
968.1958360000001
  0
LINE
  8
_0-8_小物
  6
CONTINUOUS
 62
    7
 10
1531.7643745
 20
967.46250400000008
 11
1531.3409845000001
 21
968.1958360000001
  0
LINE
  8
_0-8_小物
  6
CONTINUOUS
 62
    7
 10
1530.8236345
 20
971.46250299999997
 11
1531.2470245
 21
970.72917099999995
  0
LINE
  8
_0-8_小物
  6
CONTINUOUS
 62
    7
 10
1530.4002445000001
 20
970.72917099999995
 11
1530.8236345
 21
971.46250299999997
  0
LINE
  8
_0-8_小物
  6
CONTINUOUS
 62
    7
 10
1528.4248014999998
 20
968.1958360000001
 11
1529.4595045000001
 21
968.1958360000001
  0
LINE
  8
_0-8_小物
  6
CONTINUOUS
 62
    7
 10
1528.5187615
 20
970.72917099999995
 11
1527.4840614999998
 21
970.72917099999995
  0
LINE
  8
_0-8_小物
  6
CONTINUOUS
 62
    7
 10
1530.3062844999999
 20
968.1958360000001
 11
1529.3655444999999
 21
970.72917099999995
  0
LINE
  8
_0-8_小物
  6
CONTINUOUS
 62
    7
 10
1529.4595045000001
 20
968.1958360000001
 11
1528.5187615
 21
970.72917099999995
  0
LINE
  8
_0-8_小物
  6
CONTINUOUS
 62
    7
 10
1529.8828945
 20
967.46250400000008
 11
1528.9421545
 21
971.46250299999997
  0
LINE
  8
_0-8_小物
  6
CONTINUOUS
 62
    7
 10
1529.8828945
 20
967.46250400000008
 11
1530.3062844999999
 21
968.1958360000001
  0
LINE
  8
_0-8_小物
  6
CONTINUOUS
 62
    7
 10
1529.8828945
 20
967.46250400000008
 11
1529.4595045000001
 21
968.1958360000001
  0
LINE
  8
_0-8_小物
  6
CONTINUOUS
 62
    7
 10
1528.9421545
 20
971.46250299999997
 11
1529.3655444999999
 21
970.72917099999995
  0
LINE
  8
_0-8_小物
  6
CONTINUOUS
 62
    7
 10
1528.5187615
 20
970.72917099999995
 11
1528.9421545
 21
971.46250299999997
  0
LINE
  8
_0-8_小物
  6
CONTINUOUS
 62
    7
 10
1526.5433214999998
 20
968.1958360000001
 11
1527.5780215
 21
968.1958360000001
  0
LINE
  8
_0-8_小物
  6
CONTINUOUS
 62
    7
 10
1526.6372815
 20
970.72917099999995
 11
1525.6025814999998
 21
970.72917099999995
  0
LINE
  8
_0-8_小物
  6
CONTINUOUS
 62
    7
 10
1528.4248014999998
 20
968.1958360000001
 11
1527.4840614999998
 21
970.72917099999995
  0
LINE
  8
_0-8_小物
  6
CONTINUOUS
 62
    7
 10
1527.5780215
 20
968.1958360000001
 11
1526.6372815
 21
970.72917099999995
  0
LINE
  8
_0-8_小物
  6
CONTINUOUS
 62
    7
 10
1528.0014114999999
 20
967.46250400000008
 11
1527.0606714999999
 21
971.46250299999997
  0
LINE
  8
_0-8_小物
  6
CONTINUOUS
 62
    7
 10
1528.0014114999999
 20
967.46250400000008
 11
1528.4248014999998
 21
968.1958360000001
  0
LINE
  8
_0-8_小物
  6
CONTINUOUS
 62
    7
 10
1528.0014114999999
 20
967.46250400000008
 11
1527.5780215
 21
968.1958360000001
  0
LINE
  8
_0-8_小物
  6
CONTINUOUS
 62
    7
 10
1527.0606714999999
 20
971.46250299999997
 11
1527.4840614999998
 21
970.72917099999995
  0
LINE
  8
_0-8_小物
  6
CONTINUOUS
 62
    7
 10
1526.6372815
 20
970.72917099999995
 11
1527.0606714999999
 21
971.46250299999997
  0
LINE
  8
_0-8_小物
  6
CONTINUOUS
 62
    7
 10
1525.4585274999999
 20
968.1958360000001
 11
1525.6965415
 21
968.1958360000001
  0
LINE
  8
_0-8_小物
  6
CONTINUOUS
 62
    7
 10
1523.8224654999999
 20
970.72917099999995
 11
1524.7557984999999
 21
970.72917099999995
  0
LINE
  8
_0-8_小物
  6
CONTINUOUS
 62
    7
 10
1526.5433214999998
 20
968.1958360000001
 11
1525.6025814999998
 21
970.72917099999995
  0
LINE
  8
_0-8_小物
  6
CONTINUOUS
 62
    7
 10
1525.6965415
 20
968.1958360000001
 11
1524.7557984999999
 21
970.72917099999995
  0
LINE
  8
_0-8_小物
  6
CONTINUOUS
 62
    7
 10
1526.1199314999999
 20
967.46250400000008
 11
1525.1791914999999
 21
971.46250299999997
  0
LINE
  8
_0-8_小物
  6
CONTINUOUS
 62
    7
 10
1526.1199314999999
 20
967.46250400000008
 11
1526.5433214999998
 21
968.1958360000001
  0
LINE
  8
_0-8_小物
  6
CONTINUOUS
 62
    7
 10
1526.1199314999999
 20
967.46250400000008
 11
1525.6965415
 21
968.1958360000001
  0
LINE
  8
_0-8_小物
  6
CONTINUOUS
 62
    7
 10
1525.6025814999998
 20
970.72917099999995
 11
1525.1791914999999
 21
971.46250299999997
  0
LINE
  8
_0-8_小物
  6
CONTINUOUS
 62
    7
 10
1524.7557984999999
 20
970.72917099999995
 11
1525.1791914999999
 21
971.46250299999997
  0
LINE
  8
_0-8_小物
  6
CONTINUOUS
 62
    7
 10
1523.8224654999999
 20
968.1958360000001
 11
1524.0831834999999
 21
968.1958360000001
  0
LINE
  8
_0-8_小物
  6
CONTINUOUS
 62
    7
 10
1524.0362034999998
 20
969.46250499999996
 11
1524.5065734999998
 21
967.46250400000008
  0
LINE
  8
_0-8_小物
  6
CONTINUOUS
 62
    7
 10
1524.5065734999998
 20
967.46250400000008
 11
1524.9299635000002
 21
968.1958360000001
  0
LINE
  8
_0-8_小物
  6
CONTINUOUS
 62
    7
 10
1524.5065734999998
 20
967.46250400000008
 11
1524.0831834999999
 21
968.1958360000001
  0
LINE
  8
_0-8_小物
  6
CONTINUOUS
 62
    7
 10
1524.9299635000002
 20
968.1958360000001
 11
1525.4585274999999
 21
968.1958360000001
  0
LINE
  8
_0-8_小物
  6
CONTINUOUS
 62
    7
 10
1535.5224655000002
 20
969.46250499999996
 11
1537.5224665000001
 21
969.46250499999996
  0
LINE
  8
_0-8_小物
  6
CONTINUOUS
 62
    7
 10
1532.5224655000002
 20
970.72917099999995
 11
1532.5224655000002
 21
968.19585099999995
  0
LINE
  8
_0-8_小物
  6
CONTINUOUS
 62
    7
 10
1537.5224665000001
 20
969.46250499999996
 11
1536.5987064999999
 21
968.19583899999998
  0
LINE
  8
_0-8_小物
  6
CONTINUOUS
 62
    7
 10
1537.5224665000001
 20
969.46250499999996
 11
1536.5987064999999
 21
970.72917099999995
  0
ARC
  8
_0-8_小物
  6
CONTINUOUS
 62
    7
 10
1537.2470635
 20
969.83727700000009
 40
1.7648489999999999
 50
192.26032900000004
 51
248.446304
  0
ARC
  8
_0-8_小物
  6
CONTINUOUS
 62
    7
 10
1536.2910444999998
 20
975.46878700000002
 40
6.0552599999999996
 50
231.51097799999994
 51
262.70791799999995
  0
LINE
  8
_0-8_小物
  6
CONTINUOUS
 62
    7
 10
1521.5224674999999
 20
965.86250500000006
 11
1521.5224674999999
 21
973.0625050000001
  0
LINE
  8
_0-6_センタ_プレ_ト
  6
CONTINUOUS
 62
    7
 10
448.02193597629997
 20
932.47587043139993
 11
448.02848021339997
 21
932.72578476269996
  0
LINE
  8
_0-6_センタ_プレ_ト
  6
CONTINUOUS
 62
    7
 10
446.52244998890001
 20
932.51513585390012
 11
448.02193597629997
 21
932.47587043139993
  0
LINE
  8
_0-6_センタ_プレ_ト
  6
CONTINUOUS
 62
    7
 10
451.0209079512
 20
932.39733958650004
 11
451.0274521883
 21
932.64725391770003
  0
LINE
  8
_0-6_センタ_プレ_ト
  6
CONTINUOUS
 62
    7
 10
457.01885190109999
 20
932.24027789659999
 11
457.02539613819999
 21
932.49019222790002
  0
LINE
  8
_0-6_センタ_プレ_ト
  6
CONTINUOUS
 62
    7
 10
454.01987992619996
 20
932.31880874159992
 11
454.02642416329996
 21
932.56872307279991
  0
LINE
  8
_0-6_センタ_プレ_ト
  6
CONTINUOUS
 62
    7
 10
448.02848021339997
 20
932.72578476269996
 11
451.0274521883
 21
932.64725391770003
  0
LINE
  8
_0-6_センタ_プレ_ト
  6
CONTINUOUS
 62
    7
 10
451.0209079512
 20
932.39733958650004
 11
454.01987992619996
 21
932.31880874159992
  0
LINE
  8
_0-6_センタ_プレ_ト
  6
CONTINUOUS
 62
    7
 10
460.01782387599997
 20
932.1617470517001
 11
460.02436811309997
 21
932.41166138299991
  0
LINE
  8
_0-6_センタ_プレ_ト
  6
CONTINUOUS
 62
    7
 10
466.01576782590001
 20
932.0046853619001
 11
466.02231206299996
 21
932.25459969310009
  0
LINE
  8
_0-6_センタ_プレ_ト
  6
CONTINUOUS
 62
    7
 10
463.01679585099998
 20
932.08321620679999
 11
463.023340088
 21
932.33313053799998
  0
LINE
  8
_0-6_センタ_プレ_ト
  6
CONTINUOUS
 62
    7
 10
454.02642416329996
 20
932.56872307279991
 11
457.02539613819999
 21
932.49019222790002
  0
LINE
  8
_0-6_センタ_プレ_ト
  6
CONTINUOUS
 62
    7
 10
457.01885190109999
 20
932.24027789659999
 11
460.01782387599997
 21
932.1617470517001
  0
LINE
  8
_0-6_センタ_プレ_ト
  6
CONTINUOUS
 62
    7
 10
460.02436811309997
 20
932.41166138299991
 11
463.023340088
 21
932.33313053799998
  0
LINE
  8
_0-6_センタ_プレ_ト
  6
CONTINUOUS
 62
    7
 10
469.01473980079999
 20
931.92615451699999
 11
469.02128403789999
 21
932.17606884819998
  0
LINE
  8
_0-6_センタ_プレ_ト
  6
CONTINUOUS
 62
    7
 10
472.01371177569996
 20
931.84762367200005
 11
472.02025601279996
 21
932.09753800330009
  0
LINE
  8
_0-6_センタ_プレ_ト
  6
CONTINUOUS
 62
    7
 10
475.01268375069998
 20
931.76909282709994
 11
475.01922798769999
 21
932.01900715829993
  0
LINE
  8
_0-6_センタ_プレ_ト
  6
CONTINUOUS
 62
    7
 10
478.01165572560001
 20
931.69056198220005
 11
478.01819996270001
 21
931.94047631340004
  0
LINE
  8
_0-6_センタ_プレ_ト
  6
CONTINUOUS
 62
    7
 10
484.00959967540001
 20
931.5335002923
 11
484.01614391250001
 21
931.78341462360004
  0
LINE
  8
_0-6_センタ_プレ_ト
  6
CONTINUOUS
 62
    7
 10
481.01062770049998
 20
931.61203113729994
 11
481.01717193759998
 21
931.86194546849993
  0
LINE
  8
_0-6_センタ_プレ_ト
  6
CONTINUOUS
 62
    7
 10
463.01679585099998
 20
932.08321620679999
 11
466.01576782590001
 21
932.0046853619001
  0
LINE
  8
_0-6_センタ_プレ_ト
  6
CONTINUOUS
 62
    7
 10
466.02231206299996
 20
932.25459969310009
 11
469.02128403789999
 21
932.17606884819998
  0
LINE
  8
_0-6_センタ_プレ_ト
  6
CONTINUOUS
 62
    7
 10
469.01473980079999
 20
931.92615451699999
 11
472.01371177569996
 21
931.84762367200005
  0
LINE
  8
_0-6_センタ_プレ_ト
  6
CONTINUOUS
 62
    7
 10
472.02025601279996
 20
932.09753800330009
 11
475.01922798769999
 21
932.01900715829993
  0
LINE
  8
_0-6_センタ_プレ_ト
  6
CONTINUOUS
 62
    7
 10
475.01268375069998
 20
931.76909282709994
 11
478.01165572560001
 21
931.69056198220005
  0
LINE
  8
_0-6_センタ_プレ_ト
  6
CONTINUOUS
 62
    7
 10
478.01819996270001
 20
931.94047631340004
 11
481.01717193759998
 21
931.86194546849993
  0
LINE
  8
_0-6_センタ_プレ_ト
  6
CONTINUOUS
 62
    7
 10
487.00857165039997
 20
931.45496944740012
 11
487.01511588739999
 21
931.70488377869992
  0
LINE
  8
_0-6_センタ_プレ_ト
  6
CONTINUOUS
 62
    7
 10
490.0075436253
 20
931.3764386025
 11
490.0140878624
 21
931.62635293369999
  0
LINE
  8
_0-6_センタ_プレ_ト
  6
CONTINUOUS
 62
    7
 10
493.00651560019998
 20
931.29790775760011
 11
493.01305983729998
 21
931.5478220888001
  0
LINE
  8
_0-6_センタ_プレ_ト
  6
CONTINUOUS
 62
    7
 10
496.00548757510001
 20
931.21937691259996
 11
496.01203181220001
 21
931.46929124389999
  0
LINE
  8
_0-6_センタ_プレ_ト
  6
CONTINUOUS
 62
    7
 10
499.00445955009997
 20
931.14084606770007
 11
499.01100378719997
 21
931.3907603990001
  0
LINE
  8
_0-6_センタ_プレ_ト
  6
CONTINUOUS
 62
    7
 10
502.003431525
 20
931.06231522279995
 11
502.0099757621
 21
931.31222955399994
  0
LINE
  8
_0-6_センタ_プレ_ト
  6
CONTINUOUS
 62
    7
 10
505.00240349989997
 20
930.98378437790007
 11
505.00894773699997
 21
931.23369870910005
  0
LINE
  8
_0-6_センタ_プレ_ト
  6
CONTINUOUS
 62
    7
 10
508.00137547489999
 20
930.90525353290013
 11
508.0079197119
 21
931.15516786419994
  0
LINE
  8
_0-6_センタ_プレ_ト
  6
CONTINUOUS
 62
    7
 10
513.99931942469993
 20
930.74819184310013
 11
514.00586366180005
 21
930.99810617430012
  0
LINE
  8
_0-6_センタ_プレ_ト
  6
CONTINUOUS
 62
    7
 10
511.00034744979996
 20
930.82672268800002
 11
511.00689168689996
 21
931.07663701930005
  0
LINE
  8
_0-6_センタ_プレ_ト
  6
CONTINUOUS
 62
    7
 10
481.01062770049998
 20
931.61203113729994
 11
484.00959967540001
 21
931.5335002923
  0
LINE
  8
_0-6_センタ_プレ_ト
  6
CONTINUOUS
 62
    7
 10
484.01614391250001
 20
931.78341462360004
 11
487.01511588739999
 21
931.70488377869992
  0
LINE
  8
_0-6_センタ_プレ_ト
  6
CONTINUOUS
 62
    7
 10
487.00857165039997
 20
931.45496944740012
 11
490.0075436253
 21
931.3764386025
  0
LINE
  8
_0-6_センタ_プレ_ト
  6
CONTINUOUS
 62
    7
 10
490.0140878624
 20
931.62635293369999
 11
493.01305983729998
 21
931.5478220888001
  0
LINE
  8
_0-6_センタ_プレ_ト
  6
CONTINUOUS
 62
    7
 10
493.00651560019998
 20
931.29790775760011
 11
496.00548757510001
 21
931.21937691259996
  0
LINE
  8
_0-6_センタ_プレ_ト
  6
CONTINUOUS
 62
    7
 10
496.01203181220001
 20
931.46929124389999
 11
499.01100378719997
 21
931.3907603990001
  0
LINE
  8
_0-6_センタ_プレ_ト
  6
CONTINUOUS
 62
    7
 10
499.00445955009997
 20
931.14084606770007
 11
502.003431525
 21
931.06231522279995
  0
LINE
  8
_0-6_センタ_プレ_ト
  6
CONTINUOUS
 62
    7
 10
502.0099757621
 20
931.31222955399994
 11
505.00894773699997
 21
931.23369870910005
  0
LINE
  8
_0-6_センタ_プレ_ト
  6
CONTINUOUS
 62
    7
 10
505.00240349989997
 20
930.98378437790007
 11
508.00137547489999
 21
930.90525353290013
  0
LINE
  8
_0-6_センタ_プレ_ト
  6
CONTINUOUS
 62
    7
 10
508.0079197119
 20
931.15516786419994
 11
511.00689168689996
 21
931.07663701930005
  0
LINE
  8
_0-6_センタ_プレ_ト
  6
CONTINUOUS
 62
    7
 10
516.99829139960002
 20
930.66966099820002
 11
517.00483563669991
 21
930.9195753294
  0
LINE
  8
_0-6_センタ_プレ_ト
  6
CONTINUOUS
 62
    7
 10
519.99726337459992
 20
930.59113015330013
 11
520.0038076116
 21
930.84104448450012
  0
LINE
  8
_0-6_センタ_プレ_ト
  6
CONTINUOUS
 62
    7
 10
522.99623534950001
 20
930.51259930829997
 11
523.00277958660001
 21
930.7625136396
  0
LINE
  8
_0-6_センタ_プレ_ト
  6
CONTINUOUS
 62
    7
 10
525.99520732439998
 20
930.43406846340008
 11
526.00175156149999
 21
930.68398279470011
  0
LINE
  8
_0-6_センタ_プレ_ト
  6
CONTINUOUS
 62
    7
 10
528.99417929929996
 20
930.35553761849997
 11
529.00072353639996
 21
930.60545194969995
  0
LINE
  8
_0-6_センタ_プレ_ト
  6
CONTINUOUS
 62
    7
 10
531.99315127429998
 20
930.27700677360008
 11
531.99969551129993
 21
930.52692110480007
  0
LINE
  8
_0-6_センタ_プレ_ト
  6
CONTINUOUS
 62
    7
 10
537.99109522410004
 20
930.11994508370003
 11
537.99763946119992
 21
930.36985941500006
  0
LINE
  8
_0-6_センタ_プレ_ト
  6
CONTINUOUS
 62
    7
 10
534.99212324919995
 20
930.19847592859992
 11
534.99866748630006
 21
930.44839025989995
  0
LINE
  8
_0-6_センタ_プレ_ト
  6
CONTINUOUS
 62
    7
 10
511.00034744979996
 20
930.82672268800002
 11
513.99931942469993
 21
930.74819184310013
  0
LINE
  8
_0-6_センタ_プレ_ト
  6
CONTINUOUS
 62
    7
 10
514.00586366180005
 20
930.99810617430012
 11
517.00483563669991
 21
930.9195753294
  0
LINE
  8
_0-6_センタ_プレ_ト
  6
CONTINUOUS
 62
    7
 10
516.99829139960002
 20
930.66966099820002
 11
519.99726337459992
 21
930.59113015320008
  0
LINE
  8
_0-6_センタ_プレ_ト
  6
CONTINUOUS
 62
    7
 10
520.0038076116
 20
930.84104448450012
 11
523.00277958660001
 21
930.7625136396
  0
LINE
  8
_0-6_センタ_プレ_ト
  6
CONTINUOUS
 62
    7
 10
522.99623534950001
 20
930.51259930829997
 11
525.99520732439998
 21
930.43406846340008
  0
LINE
  8
_0-6_センタ_プレ_ト
  6
CONTINUOUS
 62
    7
 10
526.00175156149999
 20
930.68398279460007
 11
529.00072353639996
 21
930.60545194969995
  0
LINE
  8
_0-6_センタ_プレ_ト
  6
CONTINUOUS
 62
    7
 10
528.99417929929996
 20
930.35553761849997
 11
531.99315127429998
 21
930.27700677360008
  0
LINE
  8
_0-6_センタ_プレ_ト
  6
CONTINUOUS
 62
    7
 10
531.99969551129993
 20
930.52692110480007
 11
534.99866748630006
 21
930.44839025989995
  0
LINE
  8
_0-6_センタ_プレ_ト
  6
CONTINUOUS
 62
    7
 10
534.99212324919995
 20
930.19847592859992
 11
537.99109522410004
 21
930.11994508370003
  0
LINE
  8
_0-6_センタ_プレ_ト
  6
CONTINUOUS
 62
    7
 10
543.98903917400003
 20
929.96288339390003
 11
543.99558341109991
 21
930.21279772510002
  0
LINE
  8
_0-6_センタ_プレ_ト
  6
CONTINUOUS
 62
    7
 10
540.99006719900001
 20
930.04141423879992
 11
540.99661143610001
 21
930.29132857000013
  0
LINE
  8
_0-6_センタ_プレ_ト
  6
CONTINUOUS
 62
    7
 10
537.99763946119992
 20
930.36985941500006
 11
540.99661143610001
 21
930.29132857000013
  0
LINE
  8
_0-6_センタ_プレ_ト
  6
CONTINUOUS
 62
    7
 10
540.99006719900001
 20
930.04141423879992
 11
543.98903917400003
 21
929.96288339390003
  0
LINE
  8
_0-6_センタ_プレ_ト
  6
CONTINUOUS
 62
    7
 10
549.98698312379997
 20
929.80582170399998
 11
549.99352736089998
 21
930.05573603530001
  0
LINE
  8
_0-6_センタ_プレ_ト
  6
CONTINUOUS
 62
    7
 10
546.9880111489
 20
929.8843525489001
 11
546.994555386
 21
930.13426688020013
  0
LINE
  8
_0-6_センタ_プレ_ト
  6
CONTINUOUS
 62
    7
 10
543.99558341109991
 20
930.21279772510002
 11
546.994555386
 21
930.13426688020013
  0
LINE
  8
_0-6_センタ_プレ_ト
  6
CONTINUOUS
 62
    7
 10
546.9880111489
 20
929.8843525489001
 11
549.98698312379997
 21
929.80582170399998
  0
LINE
  8
_0-6_センタ_プレ_ト
  6
CONTINUOUS
 62
    7
 10
555.98492707369996
 20
929.64876001419998
 11
555.99147131079997
 21
929.89867434539997
  0
LINE
  8
_0-6_センタ_プレ_ト
  6
CONTINUOUS
 62
    7
 10
552.98595509879999
 20
929.72729085910009
 11
552.99249933579995
 21
929.97720519030008
  0
LINE
  8
_0-6_センタ_プレ_ト
  6
CONTINUOUS
 62
    7
 10
549.99352736089998
 20
930.05573603530001
 11
552.99249933579995
 21
929.97720519030008
  0
LINE
  8
_0-6_センタ_プレ_ト
  6
CONTINUOUS
 62
    7
 10
552.98595509879999
 20
929.72729085910009
 11
555.98492707369996
 21
929.64876001419998
  0
LINE
  8
_0-6_センタ_プレ_ト
  6
CONTINUOUS
 62
    7
 10
561.98287102349991
 20
929.49169832429993
 11
561.98941526060003
 21
929.74161265559997
  0
LINE
  8
_0-6_センタ_プレ_ト
  6
CONTINUOUS
 62
    7
 10
558.98389904860005
 20
929.57022916930009
 11
558.99044328569994
 21
929.82014350050008
  0
LINE
  8
_0-6_センタ_プレ_ト
  6
CONTINUOUS
 62
    7
 10
555.99147131079997
 20
929.89867434539997
 11
558.99044328569994
 21
929.82014350050008
  0
LINE
  8
_0-6_センタ_プレ_ト
  6
CONTINUOUS
 62
    7
 10
558.98389904860005
 20
929.57022916920005
 11
561.98287102349991
 21
929.49169832429993
  0
LINE
  8
_0-6_センタ_プレ_ト
  6
CONTINUOUS
 62
    7
 10
567.9808149733999
 20
929.33463663449993
 11
567.98735921050002
 21
929.58455096569992
  0
LINE
  8
_0-6_センタ_プレ_ト
  6
CONTINUOUS
 62
    7
 10
564.98184299850004
 20
929.41316747940004
 11
564.9883872355
 21
929.66308181060003
  0
LINE
  8
_0-6_センタ_プレ_ト
  6
CONTINUOUS
 62
    7
 10
561.98941526060003
 20
929.74161265559997
 11
564.9883872355
 21
929.66308181060003
  0
LINE
  8
_0-6_センタ_プレ_ト
  6
CONTINUOUS
 62
    7
 10
564.98184299850004
 20
929.41316747940004
 11
567.9808149733999
 21
929.33463663449993
  0
LINE
  8
_0-6_センタ_プレ_ト
  6
CONTINUOUS
 62
    7
 10
573.97875892319996
 20
929.17757494460011
 11
573.98530316029996
 21
929.42748927589992
  0
LINE
  8
_0-6_センタ_プレ_ト
  6
CONTINUOUS
 62
    7
 10
570.97978694829999
 20
929.2561057895
 11
570.98633118539999
 21
929.50602012080003
  0
LINE
  8
_0-6_センタ_プレ_ト
  6
CONTINUOUS
 62
    7
 10
567.98735921050002
 20
929.58455096569992
 11
570.98633118539999
 21
929.50602012080003
  0
LINE
  8
_0-6_センタ_プレ_ト
  6
CONTINUOUS
 62
    7
 10
570.97978694829999
 20
929.2561057895
 11
573.97875892319996
 21
929.17757494460011
  0
LINE
  8
_0-6_センタ_プレ_ト
  6
CONTINUOUS
 62
    7
 10
579.97670287309995
 20
929.02051325480011
 11
579.98324711019995
 21
929.2704275860001
  0
LINE
  8
_0-6_センタ_プレ_ト
  6
CONTINUOUS
 62
    7
 10
576.97773089819998
 20
929.0990440997
 11
576.98427513519994
 21
929.34895843089998
  0
LINE
  8
_0-6_センタ_プレ_ト
  6
CONTINUOUS
 62
    7
 10
573.98530316029996
 20
929.42748927589992
 11
576.98427513519994
 21
929.34895843089998
  0
LINE
  8
_0-6_センタ_プレ_ト
  6
CONTINUOUS
 62
    7
 10
576.97773089819998
 20
929.0990440997
 11
579.97670287309995
 21
929.02051325480011
  0
LINE
  8
_0-6_センタ_プレ_ト
  6
CONTINUOUS
 62
    7
 10
585.97464682290001
 20
928.86345156490006
 11
585.98119106000001
 21
929.11336589620009
  0
LINE
  8
_0-6_センタ_プレ_ト
  6
CONTINUOUS
 62
    7
 10
582.97567484800004
 20
928.94198240989999
 11
582.98221908510004
 21
929.19189674109998
  0
LINE
  8
_0-6_センタ_プレ_ト
  6
CONTINUOUS
 62
    7
 10
579.98324711019995
 20
929.2704275860001
 11
582.98221908510004
 21
929.19189674109998
  0
LINE
  8
_0-6_センタ_プレ_ト
  6
CONTINUOUS
 62
    7
 10
582.97567484800004
 20
928.94198240979995
 11
585.97464682290001
 21
928.86345156490006
  0
LINE
  8
_0-6_センタ_プレ_ト
  6
CONTINUOUS
 62
    7
 10
591.9725907728
 20
928.70638987510006
 11
591.97913500990001
 21
928.95630420630005
  0
LINE
  8
_0-6_センタ_プレ_ト
  6
CONTINUOUS
 62
    7
 10
588.97361879790003
 20
928.78492071999995
 11
588.98016303500003
 21
929.03483505129998
  0
LINE
  8
_0-6_センタ_プレ_ト
  6
CONTINUOUS
 62
    7
 10
585.98119106000001
 20
929.11336589620009
 11
588.98016303500003
 21
929.03483505119993
  0
LINE
  8
_0-6_センタ_プレ_ト
  6
CONTINUOUS
 62
    7
 10
588.97361879790003
 20
928.78492071999995
 11
591.9725907728
 21
928.70638987510006
  0
LINE
  8
_0-6_センタ_プレ_ト
  6
CONTINUOUS
 62
    7
 10
594.97156274769998
 20
928.62785903019994
 11
594.97810698479998
 21
928.87777336139993
  0
LINE
  8
_0-6_センタ_プレ_ト
  6
CONTINUOUS
 62
    7
 10
591.97913500990001
 20
928.95630420630005
 11
594.97810698479998
 21
928.87777336139993
  0
LINE
  8
_0-6_センタ_プレ_ト
  6
CONTINUOUS
 62
    7
 10
594.97156274769998
 20
928.62785903010013
 11
596.47104873519993
 21
928.58859360769998
  0
LINE
  8
_0-6_センタ_プレ_ト
  6
CONTINUOUS
 62
    7
 10
445.0229640014
 20
932.47587043139993
 11
445.0164197643
 21
932.72578476269996
  0
LINE
  8
_0-6_センタ_プレ_ト
  6
CONTINUOUS
 62
    7
 10
446.52244998890001
 20
932.51513585390012
 11
445.0229640014
 21
932.47587043139993
  0
LINE
  8
_0-6_センタ_プレ_ト
  6
CONTINUOUS
 62
    7
 10
442.02399202649997
 20
932.39733958650004
 11
442.01744778939997
 21
932.64725391770003
  0
LINE
  8
_0-6_センタ_プレ_ト
  6
CONTINUOUS
 62
    7
 10
436.02604807659998
 20
932.24027789659999
 11
436.01950383949998
 21
932.49019222790002
  0
LINE
  8
_0-6_センタ_プレ_ト
  6
CONTINUOUS
 62
    7
 10
439.02502005150001
 20
932.31880874159992
 11
439.01847581449999
 21
932.56872307279991
  0
LINE
  8
_0-6_センタ_プレ_ト
  6
CONTINUOUS
 62
    7
 10
445.0164197643
 20
932.72578476269996
 11
442.01744778939997
 21
932.64725391770003
  0
LINE
  8
_0-6_センタ_プレ_ト
  6
CONTINUOUS
 62
    7
 10
442.02399202649997
 20
932.39733958650004
 11
439.02502005150001
 21
932.31880874159992
  0
LINE
  8
_0-6_センタ_プレ_ト
  6
CONTINUOUS
 62
    7
 10
433.0270761017
 20
932.1617470517001
 11
433.0205318646
 21
932.41166138299991
  0
LINE
  8
_0-6_センタ_プレ_ト
  6
CONTINUOUS
 62
    7
 10
427.02913215180001
 20
932.0046853619001
 11
427.0225879148
 21
932.25459969310009
  0
LINE
  8
_0-6_センタ_プレ_ト
  6
CONTINUOUS
 62
    7
 10
430.02810412679997
 20
932.08321620679999
 11
430.02155988969997
 21
932.33313053799998
  0
LINE
  8
_0-6_センタ_プレ_ト
  6
CONTINUOUS
 62
    7
 10
439.01847581449999
 20
932.56872307279991
 11
436.01950383949998
 21
932.49019222790002
  0
LINE
  8
_0-6_センタ_プレ_ト
  6
CONTINUOUS
 62
    7
 10
436.02604807659998
 20
932.24027789659999
 11
433.0270761017
 21
932.1617470517001
  0
LINE
  8
_0-6_センタ_プレ_ト
  6
CONTINUOUS
 62
    7
 10
433.0205318646
 20
932.41166138299991
 11
430.02155988969997
 21
932.33313053799998
  0
LINE
  8
_0-6_センタ_プレ_ト
  6
CONTINUOUS
 62
    7
 10
424.03016017689998
 20
931.92615451699999
 11
424.02361593979998
 21
932.17606884819998
  0
LINE
  8
_0-6_センタ_プレ_ト
  6
CONTINUOUS
 62
    7
 10
421.03118820200001
 20
931.84762367200005
 11
421.02464396490001
 21
932.09753800330009
  0
LINE
  8
_0-6_センタ_プレ_ト
  6
CONTINUOUS
 62
    7
 10
418.03221622709998
 20
931.76909282709994
 11
418.02567198999998
 21
932.01900715829993
  0
LINE
  8
_0-6_センタ_プレ_ト
  6
CONTINUOUS
 62
    7
 10
415.03324425209996
 20
931.69056198220005
 11
415.0267000151
 21
931.94047631340004
  0
LINE
  8
_0-6_センタ_プレ_ト
  6
CONTINUOUS
 62
    7
 10
409.03530030229996
 20
931.5335002923
 11
409.02875606520001
 21
931.78341462360004
  0
LINE
  8
_0-6_センタ_プレ_ト
  6
CONTINUOUS
 62
    7
 10
412.03427227719999
 20
931.61203113729994
 11
412.02772804009999
 21
931.86194546849993
  0
LINE
  8
_0-6_センタ_プレ_ト
  6
CONTINUOUS
 62
    7
 10
430.02810412679997
 20
932.08321620679999
 11
427.02913215180001
 21
932.0046853619001
  0
LINE
  8
_0-6_センタ_プレ_ト
  6
CONTINUOUS
 62
    7
 10
427.0225879148
 20
932.25459969310009
 11
424.02361593979998
 21
932.17606884819998
  0
LINE
  8
_0-6_センタ_プレ_ト
  6
CONTINUOUS
 62
    7
 10
424.03016017689998
 20
931.92615451699999
 11
421.03118820200001
 21
931.84762367200005
  0
LINE
  8
_0-6_センタ_プレ_ト
  6
CONTINUOUS
 62
    7
 10
421.02464396490001
 20
932.09753800330009
 11
418.02567198999998
 21
932.01900715829993
  0
LINE
  8
_0-6_センタ_プレ_ト
  6
CONTINUOUS
 62
    7
 10
418.03221622709998
 20
931.76909282709994
 11
415.03324425209996
 21
931.69056198220005
  0
LINE
  8
_0-6_センタ_プレ_ト
  6
CONTINUOUS
 62
    7
 10
415.0267000151
 20
931.94047631340004
 11
412.02772804009999
 21
931.86194546849993
  0
LINE
  8
_0-6_センタ_プレ_ト
  6
CONTINUOUS
 62
    7
 10
406.0363283273
 20
931.45496944740012
 11
406.02978409029998
 21
931.70488377869992
  0
LINE
  8
_0-6_センタ_プレ_ト
  6
CONTINUOUS
 62
    7
 10
403.03735635239997
 20
931.3764386025
 11
403.03081211529997
 21
931.62635293369999
  0
LINE
  8
_0-6_センタ_プレ_ト
  6
CONTINUOUS
 62
    7
 10
400.03838437749999
 20
931.29790775760011
 11
400.03184014039999
 21
931.5478220888001
  0
LINE
  8
_0-6_センタ_プレ_ト
  6
CONTINUOUS
 62
    7
 10
397.03941240259996
 20
931.21937691259996
 11
397.03286816549996
 21
931.46929124389999
  0
LINE
  8
_0-6_センタ_プレ_ト
  6
CONTINUOUS
 62
    7
 10
394.0404404276
 20
931.14084606770007
 11
394.03389619059999
 21
931.3907603990001
  0
LINE
  8
_0-6_センタ_プレ_ト
  6
CONTINUOUS
 62
    7
 10
391.04146845269997
 20
931.06231522279995
 11
391.03492421559997
 21
931.31222955399994
  0
LINE
  8
_0-6_センタ_プレ_ト
  6
CONTINUOUS
 62
    7
 10
388.0424964778
 20
930.98378437790007
 11
388.0359522407
 21
931.23369870910005
  0
LINE
  8
_0-6_センタ_プレ_ト
  6
CONTINUOUS
 62
    7
 10
385.04352450289997
 20
930.90525353290013
 11
385.03698026579997
 21
931.15516786419994
  0
LINE
  8
_0-6_センタ_プレ_ト
  6
CONTINUOUS
 62
    7
 10
379.04558055299998
 20
930.74819184310013
 11
379.03903631589998
 21
930.99810617430012
  0
LINE
  8
_0-6_センタ_プレ_ト
  6
CONTINUOUS
 62
    7
 10
382.04455252790001
 20
930.82672268800002
 11
382.0380082909
 21
931.07663701930005
  0
LINE
  8
_0-6_センタ_プレ_ト
  6
CONTINUOUS
 62
    7
 10
412.03427227719999
 20
931.61203113729994
 11
409.03530030229996
 21
931.5335002923
  0
LINE
  8
_0-6_センタ_プレ_ト
  6
CONTINUOUS
 62
    7
 10
409.02875606520001
 20
931.78341462360004
 11
406.02978409029998
 21
931.70488377869992
  0
LINE
  8
_0-6_センタ_プレ_ト
  6
CONTINUOUS
 62
    7
 10
406.0363283273
 20
931.45496944740012
 11
403.03735635239997
 21
931.3764386025
  0
LINE
  8
_0-6_センタ_プレ_ト
  6
CONTINUOUS
 62
    7
 10
403.03081211529997
 20
931.62635293369999
 11
400.03184014039999
 21
931.5478220888001
  0
LINE
  8
_0-6_センタ_プレ_ト
  6
CONTINUOUS
 62
    7
 10
400.03838437749999
 20
931.29790775760011
 11
397.03941240259996
 21
931.21937691259996
  0
LINE
  8
_0-6_センタ_プレ_ト
  6
CONTINUOUS
 62
    7
 10
397.03286816549996
 20
931.46929124389999
 11
394.03389619059999
 21
931.3907603990001
  0
LINE
  8
_0-6_センタ_プレ_ト
  6
CONTINUOUS
 62
    7
 10
394.0404404276
 20
931.14084606770007
 11
391.04146845269997
 21
931.06231522279995
  0
LINE
  8
_0-6_センタ_プレ_ト
  6
CONTINUOUS
 62
    7
 10
391.03492421559997
 20
931.31222955399994
 11
388.0359522407
 21
931.23369870910005
  0
LINE
  8
_0-6_センタ_プレ_ト
  6
CONTINUOUS
 62
    7
 10
388.0424964778
 20
930.98378437790007
 11
385.04352450289997
 21
930.90525353290013
  0
LINE
  8
_0-6_センタ_プレ_ト
  6
CONTINUOUS
 62
    7
 10
385.03698026579997
 20
931.15516786419994
 11
382.0380082909
 21
931.07663701930005
  0
LINE
  8
_0-6_センタ_プレ_ト
  6
CONTINUOUS
 62
    7
 10
376.04660857810001
 20
930.66966099820002
 11
376.040064341
 21
930.9195753294
  0
LINE
  8
_0-6_センタ_プレ_ト
  6
CONTINUOUS
 62
    7
 10
373.04763660319998
 20
930.59113015330013
 11
373.04109236609997
 21
930.84104448450012
  0
LINE
  8
_0-6_センタ_プレ_ト
  6
CONTINUOUS
 62
    7
 10
370.04866462819996
 20
930.51259930829997
 11
370.0421203912
 21
930.7625136396
  0
LINE
  8
_0-6_センタ_プレ_ト
  6
CONTINUOUS
 62
    7
 10
367.04969265329999
 20
930.43406846340008
 11
367.04314841619998
 21
930.68398279470011
  0
LINE
  8
_0-6_センタ_プレ_ト
  6
CONTINUOUS
 62
    7
 10
364.05072067840001
 20
930.35553761849997
 11
364.04417644130001
 21
930.60545194969995
  0
LINE
  8
_0-6_センタ_プレ_ト
  6
CONTINUOUS
 62
    7
 10
361.05174870339999
 20
930.27700677360008
 11
361.04520446639998
 21
930.52692110480007
  0
LINE
  8
_0-6_センタ_プレ_ト
  6
CONTINUOUS
 62
    7
 10
355.05380475359999
 20
930.11994508370003
 11
355.04726051649999
 21
930.36985941500006
  0
LINE
  8
_0-6_センタ_プレ_ト
  6
CONTINUOUS
 62
    7
 10
358.05277672849996
 20
930.19847592859992
 11
358.04623249139996
 21
930.44839025989995
  0
LINE
  8
_0-6_センタ_プレ_ト
  6
CONTINUOUS
 62
    7
 10
382.04455252790001
 20
930.82672268800002
 11
379.04558055299998
 21
930.74819184310013
  0
LINE
  8
_0-6_センタ_プレ_ト
  6
CONTINUOUS
 62
    7
 10
379.03903631589998
 20
930.99810617430012
 11
376.040064341
 21
930.9195753294
  0
LINE
  8
_0-6_センタ_プレ_ト
  6
CONTINUOUS
 62
    7
 10
376.04660857810001
 20
930.66966099820002
 11
373.04763660319998
 21
930.59113015320008
  0
LINE
  8
_0-6_センタ_プレ_ト
  6
CONTINUOUS
 62
    7
 10
373.04109236609997
 20
930.84104448450012
 11
370.0421203912
 21
930.7625136396
  0
LINE
  8
_0-6_センタ_プレ_ト
  6
CONTINUOUS
 62
    7
 10
370.04866462819996
 20
930.51259930829997
 11
367.04969265329999
 21
930.43406846340008
  0
LINE
  8
_0-6_センタ_プレ_ト
  6
CONTINUOUS
 62
    7
 10
367.04314841619998
 20
930.68398279460007
 11
364.04417644130001
 21
930.60545194969995
  0
LINE
  8
_0-6_センタ_プレ_ト
  6
CONTINUOUS
 62
    7
 10
364.05072067840001
 20
930.35553761849997
 11
361.05174870339999
 21
930.27700677360008
  0
LINE
  8
_0-6_センタ_プレ_ト
  6
CONTINUOUS
 62
    7
 10
361.04520446639998
 20
930.52692110480007
 11
358.04623249139996
 21
930.44839025989995
  0
LINE
  8
_0-6_センタ_プレ_ト
  6
CONTINUOUS
 62
    7
 10
358.05277672849996
 20
930.19847592859992
 11
355.05380475359999
 21
930.11994508370003
  0
LINE
  8
_0-6_センタ_プレ_ト
  6
CONTINUOUS
 62
    7
 10
349.0558608037
 20
929.96288339390003
 11
349.04931656669999
 21
930.21279772510002
  0
LINE
  8
_0-6_センタ_プレ_ト
  6
CONTINUOUS
 62
    7
 10
352.05483277869996
 20
930.04141423879992
 11
352.04828854159996
 21
930.29132857000013
  0
LINE
  8
_0-6_センタ_プレ_ト
  6
CONTINUOUS
 62
    7
 10
355.04726051649999
 20
930.36985941500006
 11
352.04828854159996
 21
930.29132857000013
  0
LINE
  8
_0-6_センタ_プレ_ト
  6
CONTINUOUS
 62
    7
 10
352.05483277869996
 20
930.04141423879992
 11
349.0558608037
 21
929.96288339390003
  0
LINE
  8
_0-6_センタ_プレ_ト
  6
CONTINUOUS
 62
    7
 10
343.0579168539
 20
929.80582170399998
 11
343.05137261679999
 21
930.05573603530001
  0
LINE
  8
_0-6_センタ_プレ_ト
  6
CONTINUOUS
 62
    7
 10
346.05688882879997
 20
929.8843525489001
 11
346.05034459169997
 21
930.13426688020013
  0
LINE
  8
_0-6_センタ_プレ_ト
  6
CONTINUOUS
 62
    7
 10
349.04931656669999
 20
930.21279772510002
 11
346.05034459169997
 21
930.13426688020013
  0
LINE
  8
_0-6_センタ_プレ_ト
  6
CONTINUOUS
 62
    7
 10
346.05688882879997
 20
929.8843525489001
 11
343.0579168539
 21
929.80582170399998
  0
LINE
  8
_0-6_センタ_プレ_ト
  6
CONTINUOUS
 62
    7
 10
337.05997290400001
 20
929.64876001419998
 11
337.05342866699999
 21
929.89867434539997
  0
LINE
  8
_0-6_センタ_プレ_ト
  6
CONTINUOUS
 62
    7
 10
340.05894487899997
 20
929.72729085910009
 11
340.05240064189996
 21
929.97720519030008
  0
LINE
  8
_0-6_センタ_プレ_ト
  6
CONTINUOUS
 62
    7
 10
343.05137261679999
 20
930.05573603530001
 11
340.05240064189996
 21
929.97720519030008
  0
LINE
  8
_0-6_センタ_プレ_ト
  6
CONTINUOUS
 62
    7
 10
340.05894487899997
 20
929.72729085910009
 11
337.05997290400001
 21
929.64876001419998
  0
LINE
  8
_0-6_センタ_プレ_ト
  6
CONTINUOUS
 62
    7
 10
331.0620289542
 20
929.49169832429993
 11
331.0554847171
 21
929.74161265559997
  0
LINE
  8
_0-6_センタ_プレ_ト
  6
CONTINUOUS
 62
    7
 10
334.06100092909998
 20
929.57022916930009
 11
334.05445669199997
 21
929.82014350050008
  0
LINE
  8
_0-6_センタ_プレ_ト
  6
CONTINUOUS
 62
    7
 10
337.05342866699999
 20
929.89867434539997
 11
334.05445669199997
 21
929.82014350050008
  0
LINE
  8
_0-6_センタ_プレ_ト
  6
CONTINUOUS
 62
    7
 10
334.06100092909998
 20
929.57022916920005
 11
331.0620289542
 21
929.49169832429993
  0
LINE
  8
_0-6_センタ_プレ_ト
  6
CONTINUOUS
 62
    7
 10
325.06408500430007
 20
929.33463663449993
 11
325.0575407673
 21
929.58455096569992
  0
LINE
  8
_0-6_センタ_プレ_ト
  6
CONTINUOUS
 62
    7
 10
328.06305697929997
 20
929.41316747940004
 11
328.05651274219997
 21
929.66308181060003
  0
LINE
  8
_0-6_センタ_プレ_ト
  6
CONTINUOUS
 62
    7
 10
331.0554847171
 20
929.74161265559997
 11
328.05651274219997
 21
929.66308181060003
  0
LINE
  8
_0-6_センタ_プレ_ト
  6
CONTINUOUS
 62
    7
 10
328.06305697929997
 20
929.41316747940004
 11
325.06408500430007
 21
929.33463663449993
  0
LINE
  8
_0-6_センタ_プレ_ト
  6
CONTINUOUS
 62
    7
 10
319.06614105450001
 20
929.17757494460011
 11
319.05959681740001
 21
929.42748927589992
  0
LINE
  8
_0-6_センタ_プレ_ト
  6
CONTINUOUS
 62
    7
 10
322.06511302939998
 20
929.2561057895
 11
322.05856879229998
 21
929.50602012080003
  0
LINE
  8
_0-6_センタ_プレ_ト
  6
CONTINUOUS
 62
    7
 10
325.0575407673
 20
929.58455096569992
 11
322.05856879229998
 21
929.50602012080003
  0
LINE
  8
_0-6_センタ_プレ_ト
  6
CONTINUOUS
 62
    7
 10
322.06511302939998
 20
929.2561057895
 11
319.06614105450001
 21
929.17757494460011
  0
LINE
  8
_0-6_センタ_プレ_ト
  6
CONTINUOUS
 62
    7
 10
313.0681971045999
 20
929.02051325480011
 11
313.06165286750002
 21
929.2704275860001
  0
LINE
  8
_0-6_センタ_プレ_ト
  6
CONTINUOUS
 62
    7
 10
316.06716907949999
 20
929.0990440997
 11
316.06062484249992
 21
929.34895843089998
  0
LINE
  8
_0-6_センタ_プレ_ト
  6
CONTINUOUS
 62
    7
 10
319.05959681740001
 20
929.42748927589992
 11
316.06062484249992
 21
929.34895843089998
  0
LINE
  8
_0-6_センタ_プレ_ト
  6
CONTINUOUS
 62
    7
 10
316.06716907949999
 20
929.0990440997
 11
313.0681971045999
 21
929.02051325480011
  0
LINE
  8
_0-6_センタ_プレ_ト
  6
CONTINUOUS
 62
    7
 10
307.07025315479996
 20
928.86345156490006
 11
307.06370891769996
 21
929.11336589620009
  0
LINE
  8
_0-6_センタ_プレ_ト
  6
CONTINUOUS
 62
    7
 10
310.06922512970004
 20
928.94198240989999
 11
310.06268089259993
 21
929.19189674109998
  0
LINE
  8
_0-6_センタ_プレ_ト
  6
CONTINUOUS
 62
    7
 10
313.06165286750002
 20
929.2704275860001
 11
310.06268089259993
 21
929.19189674109998
  0
LINE
  8
_0-6_センタ_プレ_ト
  6
CONTINUOUS
 62
    7
 10
310.06922512970004
 20
928.94198240979995
 11
307.07025315479996
 21
928.86345156490006
  0
LINE
  8
_0-6_センタ_プレ_ト
  6
CONTINUOUS
 62
    7
 10
301.07230920489997
 20
928.70638987510006
 11
301.06576496779996
 21
928.95630420630005
  0
LINE
  8
_0-6_センタ_プレ_ト
  6
CONTINUOUS
 62
    7
 10
304.07128117980005
 20
928.78492071999995
 11
304.06473694279998
 21
929.03483505129998
  0
LINE
  8
_0-6_センタ_プレ_ト
  6
CONTINUOUS
 62
    7
 10
307.06370891769996
 20
929.11336589620009
 11
304.06473694279998
 21
929.03483505119993
  0
LINE
  8
_0-6_センタ_プレ_ト
  6
CONTINUOUS
 62
    7
 10
304.07128117980005
 20
928.78492071999995
 11
301.07230920489997
 21
928.70638987510006
  0
LINE
  8
_0-6_センタ_プレ_ト
  6
CONTINUOUS
 62
    7
 10
298.07333722999999
 20
928.62785903019994
 11
298.06679299289999
 21
928.87777336139993
  0
LINE
  8
_0-6_センタ_プレ_ト
  6
CONTINUOUS
 62
    7
 10
301.06576496779996
 20
928.95630420630005
 11
298.06679299289999
 21
928.87777336139993
  0
LINE
  8
_0-6_センタ_プレ_ト
  6
CONTINUOUS
 62
    7
 10
298.07333722999999
 20
928.62785903010013
 11
296.57385124250004
 21
928.58859360769998
  0
LINE
  8
_0-6_センタ_プレ_ト
  6
CONTINUOUS
 62
    7
 10
295.27481313680005
 20
927.83859360769998
 11
295.14981313680005
 21
928.05509995860007
  0
LINE
  8
_0-6_センタ_プレ_ト
  6
CONTINUOUS
 62
    7
 10
287.48058450279996
 20
923.33859360769998
 11
287.35558450279996
 21
923.55509995860007
  0
LINE
  8
_0-6_センタ_プレ_ト
  6
CONTINUOUS
 62
    7
 10
295.14981313680005
 20
928.05509995860007
 11
292.55173692549999
 21
926.55509995860007
  0
LINE
  8
_0-6_センタ_プレ_ト
  6
CONTINUOUS
 62
    7
 10
289.95366071410001
 20
925.05509995860007
 11
287.35558450279996
 21
923.55509995860007
  0
LINE
  8
_0-6_センタ_プレ_ト
  6
CONTINUOUS
 62
    7
 10
292.67673692549999
 20
926.33859360769998
 11
292.55173692549999
 21
926.55509995860007
  0
LINE
  8
_0-6_センタ_プレ_ト
  6
CONTINUOUS
 62
    7
 10
290.07866071410001
 20
924.83859360769998
 11
289.95366071410001
 21
925.05509995860007
  0
LINE
  8
_0-6_センタ_プレ_ト
  6
CONTINUOUS
 62
    7
 10
296.57385124250004
 20
928.58859360769998
 11
295.27481313680005
 21
927.83859360769998
  0
LINE
  8
_0-6_センタ_プレ_ト
  6
CONTINUOUS
 62
    7
 10
292.67673692549999
 20
926.33859360769998
 11
290.07866071410001
 21
924.83859360769998
  0
LINE
  8
_0-6_センタ_プレ_ト
  6
CONTINUOUS
 62
    7
 10
287.48058450279996
 20
923.33859360769998
 11
286.18154639709996
 21
922.58859360769998
  0
LINE
  8
_0-6_センタ_プレ_ト
  6
CONTINUOUS
 62
    7
 10
287.55654639709996
 20
920.20702374730013
 11
286.18154639709996
 21
922.58859360769998
  0
LINE
  8
_0-6_センタ_プレ_ト
  6
CONTINUOUS
 62
    7
 10
597.77008684090003
 20
927.83859360769998
 11
597.89508684090003
 21
928.05509995860007
  0
LINE
  8
_0-6_センタ_プレ_ト
  6
CONTINUOUS
 62
    7
 10
605.56431547490001
 20
923.33859360769998
 11
605.68931547490001
 21
923.55509995860007
  0
LINE
  8
_0-6_センタ_プレ_ト
  6
CONTINUOUS
 62
    7
 10
597.89508684090003
 20
928.05509995860007
 11
600.49316305219998
 21
926.55509995860007
  0
LINE
  8
_0-6_センタ_プレ_ト
  6
CONTINUOUS
 62
    7
 10
603.09123926359996
 20
925.05509995860007
 11
605.68931547490001
 21
923.55509995860007
  0
LINE
  8
_0-6_センタ_プレ_ト
  6
CONTINUOUS
 62
    7
 10
600.36816305219998
 20
926.33859360769998
 11
600.49316305219998
 21
926.55509995860007
  0
LINE
  8
_0-6_センタ_プレ_ト
  6
CONTINUOUS
 62
    7
 10
602.96623926359996
 20
924.83859360769998
 11
603.09123926359996
 21
925.05509995860007
  0
LINE
  8
_0-6_センタ_プレ_ト
  6
CONTINUOUS
 62
    7
 10
596.47104873519993
 20
928.58859360769998
 11
597.77008684090003
 21
927.83859360769998
  0
LINE
  8
_0-6_センタ_プレ_ト
  6
CONTINUOUS
 62
    7
 10
600.36816305219998
 20
926.33859360769998
 11
602.96623926359996
 21
924.83859360769998
  0
LINE
  8
_0-6_センタ_プレ_ト
  6
CONTINUOUS
 62
    7
 10
605.56431547490001
 20
923.33859360769998
 11
606.86335358060001
 21
922.58859360769998
  0
LINE
  8
_0-6_センタ_プレ_ト
  6
CONTINUOUS
 62
    7
 10
605.48835358060001
 20
920.20702374730013
 11
606.86335358060001
 21
922.58859360769998
  0
LINE
  8
_0-6_センタ_プレ_ト
  6
CONTINUOUS
 62
    7
 10
595.70089042760003
 20
925.85781823339994
 11
605.48835358060001
 21
920.20702374730013
  0
LINE
  8
_0-6_センタ_プレ_ト
  6
CONTINUOUS
 62
    7
 10
297.34400955019998
 20
925.85781823339994
 11
287.55654639709996
 21
920.20702374730013
  0
LINE
  8
_0-6_センタ_プレ_ト
  6
CONTINUOUS
 62
    7
 10
446.52244998890001
 20
929.76419317449995
 11
297.34400955019998
 21
925.85781823339994
  0
LINE
  8
_0-6_センタ_プレ_ト
  6
CONTINUOUS
 62
    7
 10
446.52244998890001
 20
929.76419317449995
 11
595.70089042760003
 21
925.85781823339994
  0
LINE
  8
_0-6_センタ_プレ_ト
  6
CONTINUOUS
 62
    7
 10
1530.225170835
 20
927.60367888170003
 11
1530.4416771860001
 21
927.72867888170003
  0
LINE
  8
_0-6_センタ_プレ_ト
  6
CONTINUOUS
 62
    7
 10
1530.4416771860001
 20
927.72867888170003
 11
1531.9416771860001
 21
925.13060267040009
  0
LINE
  8
_0-6_センタ_プレ_ト
  6
CONTINUOUS
 62
    7
 10
1531.725170835
 20
925.00560267040009
 11
1531.9416771860001
 21
925.13060267040009
  0
LINE
  8
_0-6_センタ_プレ_ト
  6
CONTINUOUS
 62
    7
 10
1531.725170835
 20
925.00560267040009
 11
1533.225170835
 21
922.40752645900011
  0
LINE
  8
_0-6_センタ_プレ_ト
  6
CONTINUOUS
 62
    7
 10
1533.225170835
 20
922.40752645900011
 11
1533.4416771860001
 21
922.53252645900011
  0
LINE
  8
_0-6_センタ_プレ_ト
  6
CONTINUOUS
 62
    7
 10
1533.4416771860001
 20
922.53252645900011
 11
1534.9416771860001
 21
919.93445024760013
  0
LINE
  8
_0-6_センタ_プレ_ト
  6
CONTINUOUS
 62
    7
 10
1534.725170835
 20
919.80945024760013
 11
1534.9416771860001
 21
919.93445024760013
  0
LINE
  8
_0-6_センタ_プレ_ト
  6
CONTINUOUS
 62
    7
 10
1534.725170835
 20
919.80945024760013
 11
1535.475170835
 21
918.51041214199995
  0
LINE
  8
_0-6_センタ_プレ_ト
  6
CONTINUOUS
 62
    7
 10
1533.0936009749998
 20
917.13541214199995
 11
1535.475170835
 21
918.51041214199995
  0
LINE
  8
_0-6_センタ_プレ_ト
  6
CONTINUOUS
 62
    7
 10
1393.0219459760001
 20
932.47587043139993
 11
1393.0284902130002
 21
932.72578476269996
  0
LINE
  8
_0-6_センタ_プレ_ト
  6
CONTINUOUS
 62
    7
 10
1391.5224599889998
 20
932.51513585390012
 11
1393.0219459760001
 21
932.47587043139993
  0
LINE
  8
_0-6_センタ_プレ_ト
  6
CONTINUOUS
 62
    7
 10
1396.0209179509998
 20
932.39733958650004
 11
1396.0274621879998
 21
932.64725391770003
  0
LINE
  8
_0-6_センタ_プレ_ト
  6
CONTINUOUS
 62
    7
 10
1402.018861901
 20
932.24027789659999
 11
1402.0254061380001
 21
932.49019222790002
  0
LINE
  8
_0-6_センタ_プレ_ト
  6
CONTINUOUS
 62
    7
 10
1399.0198899259999
 20
932.31880874159992
 11
1399.026434163
 21
932.56872307279991
  0
LINE
  8
_0-6_センタ_プレ_ト
  6
CONTINUOUS
 62
    7
 10
1393.0284902130002
 20
932.72578476269996
 11
1396.0274621879998
 21
932.64725391770003
  0
LINE
  8
_0-6_センタ_プレ_ト
  6
CONTINUOUS
 62
    7
 10
1396.0209179509998
 20
932.39733958650004
 11
1399.0198899259999
 21
932.31880874159992
  0
LINE
  8
_0-6_センタ_プレ_ト
  6
CONTINUOUS
 62
    7
 10
1405.0178338760002
 20
932.1617470517001
 11
1405.0243781129998
 21
932.41166138299991
  0
LINE
  8
_0-6_センタ_プレ_ト
  6
CONTINUOUS
 62
    7
 10
1411.015777826
 20
932.0046853619001
 11
1411.022322063
 21
932.25459969310009
  0
LINE
  8
_0-6_センタ_プレ_ト
  6
CONTINUOUS
 62
    7
 10
1408.0168058509998
 20
932.08321620679999
 11
1408.0233500879999
 21
932.33313053799998
  0
LINE
  8
_0-6_センタ_プレ_ト
  6
CONTINUOUS
 62
    7
 10
1399.026434163
 20
932.56872307279991
 11
1402.0254061380001
 21
932.49019222790002
  0
LINE
  8
_0-6_センタ_プレ_ト
  6
CONTINUOUS
 62
    7
 10
1402.018861901
 20
932.24027789659999
 11
1405.0178338760002
 21
932.1617470517001
  0
LINE
  8
_0-6_センタ_プレ_ト
  6
CONTINUOUS
 62
    7
 10
1405.0243781129998
 20
932.41166138299991
 11
1408.0233500879999
 21
932.33313053799998
  0
LINE
  8
_0-6_センタ_プレ_ト
  6
CONTINUOUS
 62
    7
 10
1414.0147498010001
 20
931.92615451689994
 11
1414.0212940380002
 21
932.17606884819998
  0
LINE
  8
_0-6_センタ_プレ_ト
  6
CONTINUOUS
 62
    7
 10
1417.0137217759998
 20
931.84762367200005
 11
1417.0202660129999
 21
932.09753800330009
  0
LINE
  8
_0-6_センタ_プレ_ト
  6
CONTINUOUS
 62
    7
 10
1420.0126937509999
 20
931.76909282709994
 11
1420.019237988
 21
932.01900715829993
  0
LINE
  8
_0-6_センタ_プレ_ト
  6
CONTINUOUS
 62
    7
 10
1423.011665726
 20
931.69056198220005
 11
1423.0182099630001
 21
931.94047631340004
  0
LINE
  8
_0-6_センタ_プレ_ト
  6
CONTINUOUS
 62
    7
 10
1429.0096096749999
 20
931.5335002923
 11
1429.0161539129999
 21
931.78341462360004
  0
LINE
  8
_0-6_センタ_プレ_ト
  6
CONTINUOUS
 62
    7
 10
1426.0106377010002
 20
931.61203113729994
 11
1426.0171819379998
 21
931.86194546849993
  0
LINE
  8
_0-6_センタ_プレ_ト
  6
CONTINUOUS
 62
    7
 10
1408.0168058509998
 20
932.08321620679999
 11
1411.015777826
 21
932.0046853619001
  0
LINE
  8
_0-6_センタ_プレ_ト
  6
CONTINUOUS
 62
    7
 10
1411.022322063
 20
932.25459969310009
 11
1414.0212940380002
 21
932.17606884819998
  0
LINE
  8
_0-6_センタ_プレ_ト
  6
CONTINUOUS
 62
    7
 10
1414.0147498010001
 20
931.92615451689994
 11
1417.0137217759998
 21
931.84762367200005
  0
LINE
  8
_0-6_センタ_プレ_ト
  6
CONTINUOUS
 62
    7
 10
1417.0202660129999
 20
932.09753800330009
 11
1420.019237988
 21
932.01900715829993
  0
LINE
  8
_0-6_センタ_プレ_ト
  6
CONTINUOUS
 62
    7
 10
1420.0126937509999
 20
931.76909282709994
 11
1423.011665726
 21
931.69056198220005
  0
LINE
  8
_0-6_センタ_プレ_ト
  6
CONTINUOUS
 62
    7
 10
1423.0182099630001
 20
931.94047631340004
 11
1426.0171819379998
 21
931.86194546849993
  0
LINE
  8
_0-6_センタ_プレ_ト
  6
CONTINUOUS
 62
    7
 10
1432.00858165
 20
931.45496944740012
 11
1432.0151258870001
 21
931.70488377869992
  0
LINE
  8
_0-6_センタ_プレ_ト
  6
CONTINUOUS
 62
    7
 10
1435.0075536250001
 20
931.3764386025
 11
1435.0140978620002
 21
931.62635293369999
  0
LINE
  8
_0-6_センタ_プレ_ト
  6
CONTINUOUS
 62
    7
 10
1438.0065255999998
 20
931.29790775760011
 11
1438.0130698369999
 21
931.5478220888001
  0
LINE
  8
_0-6_センタ_プレ_ト
  6
CONTINUOUS
 62
    7
 10
1441.0054975749999
 20
931.21937691259996
 11
1441.012041812
 21
931.46929124389999
  0
LINE
  8
_0-6_センタ_プレ_ト
  6
CONTINUOUS
 62
    7
 10
1444.0044695500001
 20
931.14084606770007
 11
1444.0110137870001
 21
931.3907603990001
  0
LINE
  8
_0-6_センタ_プレ_ト
  6
CONTINUOUS
 62
    7
 10
1447.0034415250002
 20
931.06231522279995
 11
1447.0099857619998
 21
931.31222955399994
  0
LINE
  8
_0-6_センタ_プレ_ト
  6
CONTINUOUS
 62
    7
 10
1450.0024134999999
 20
930.98378437790007
 11
1450.0089577369999
 21
931.23369870910005
  0
LINE
  8
_0-6_センタ_プレ_ト
  6
CONTINUOUS
 62
    7
 10
1453.001385475
 20
930.90525353290013
 11
1453.0079297120001
 21
931.15516786419994
  0
LINE
  8
_0-6_センタ_プレ_ト
  6
CONTINUOUS
 62
    7
 10
1458.9993294249998
 20
930.74819184310013
 11
1459.0058736619999
 21
930.99810617430012
  0
LINE
  8
_0-6_センタ_プレ_ト
  6
CONTINUOUS
 62
    7
 10
1456.0003574500001
 20
930.82672268800002
 11
1456.0069016870002
 21
931.07663701930005
  0
LINE
  8
_0-6_センタ_プレ_ト
  6
CONTINUOUS
 62
    7
 10
1426.0106377010002
 20
931.61203113729994
 11
1429.0096096749999
 21
931.5335002923
  0
LINE
  8
_0-6_センタ_プレ_ト
  6
CONTINUOUS
 62
    7
 10
1429.0161539129999
 20
931.78341462360004
 11
1432.0151258870001
 21
931.70488377869992
  0
LINE
  8
_0-6_センタ_プレ_ト
  6
CONTINUOUS
 62
    7
 10
1432.00858165
 20
931.45496944740012
 11
1435.0075536250001
 21
931.3764386025
  0
LINE
  8
_0-6_センタ_プレ_ト
  6
CONTINUOUS
 62
    7
 10
1435.0140978620002
 20
931.62635293369999
 11
1438.0130698369999
 21
931.5478220888001
  0
LINE
  8
_0-6_センタ_プレ_ト
  6
CONTINUOUS
 62
    7
 10
1438.0065255999998
 20
931.29790775760011
 11
1441.0054975749999
 21
931.21937691259996
  0
LINE
  8
_0-6_センタ_プレ_ト
  6
CONTINUOUS
 62
    7
 10
1441.012041812
 20
931.46929124389999
 11
1444.0110137870001
 21
931.3907603990001
  0
LINE
  8
_0-6_センタ_プレ_ト
  6
CONTINUOUS
 62
    7
 10
1444.0044695500001
 20
931.14084606770007
 11
1447.0034415250002
 21
931.06231522279995
  0
LINE
  8
_0-6_センタ_プレ_ト
  6
CONTINUOUS
 62
    7
 10
1447.0099857619998
 20
931.31222955399994
 11
1450.0089577369999
 21
931.23369870910005
  0
LINE
  8
_0-6_センタ_プレ_ト
  6
CONTINUOUS
 62
    7
 10
1450.0024134999999
 20
930.98378437790007
 11
1453.001385475
 21
930.90525353290013
  0
LINE
  8
_0-6_センタ_プレ_ト
  6
CONTINUOUS
 62
    7
 10
1453.0079297120001
 20
931.15516786419994
 11
1456.0069016870002
 21
931.07663701930005
  0
LINE
  8
_0-6_センタ_プレ_ト
  6
CONTINUOUS
 62
    7
 10
1461.9983013999999
 20
930.66966099820002
 11
1462.004845637
 21
930.9195753294
  0
LINE
  8
_0-6_センタ_プレ_ト
  6
CONTINUOUS
 62
    7
 10
1464.9972733750001
 20
930.59113015330013
 11
1465.0038176120001
 21
930.84104448450012
  0
LINE
  8
_0-6_センタ_プレ_ト
  6
CONTINUOUS
 62
    7
 10
1467.9962453489998
 20
930.51259930829997
 11
1468.0027895869998
 21
930.7625136396
  0
LINE
  8
_0-6_センタ_プレ_ト
  6
CONTINUOUS
 62
    7
 10
1470.9952173239999
 20
930.43406846340008
 11
1471.001761561
 21
930.68398279470011
  0
LINE
  8
_0-6_センタ_プレ_ト
  6
CONTINUOUS
 62
    7
 10
1473.994189299
 20
930.35553761849997
 11
1474.0007335360001
 21
930.60545194969995
  0
LINE
  8
_0-6_センタ_プレ_ト
  6
CONTINUOUS
 62
    7
 10
1476.9931612740002
 20
930.27700677360008
 11
1476.9997055109998
 21
930.52692110480007
  0
LINE
  8
_0-6_センタ_プレ_ト
  6
CONTINUOUS
 62
    7
 10
1482.991105224
 20
930.11994508370003
 11
1482.997649461
 21
930.36985941500006
  0
LINE
  8
_0-6_センタ_プレ_ト
  6
CONTINUOUS
 62
    7
 10
1479.9921332489998
 20
930.19847592859992
 11
1479.9986774859999
 21
930.44839025989995
  0
LINE
  8
_0-6_センタ_プレ_ト
  6
CONTINUOUS
 62
    7
 10
1456.0003574500001
 20
930.82672268800002
 11
1458.9993294249998
 21
930.74819184310013
  0
LINE
  8
_0-6_センタ_プレ_ト
  6
CONTINUOUS
 62
    7
 10
1459.0058736619999
 20
930.99810617430012
 11
1462.004845637
 21
930.9195753294
  0
LINE
  8
_0-6_センタ_プレ_ト
  6
CONTINUOUS
 62
    7
 10
1461.9983013999999
 20
930.66966099820002
 11
1464.9972733750001
 21
930.59113015320008
  0
LINE
  8
_0-6_センタ_プレ_ト
  6
CONTINUOUS
 62
    7
 10
1465.0038176120001
 20
930.84104448450012
 11
1468.0027895869998
 21
930.7625136396
  0
LINE
  8
_0-6_センタ_プレ_ト
  6
CONTINUOUS
 62
    7
 10
1467.9962453489998
 20
930.51259930829997
 11
1470.9952173239999
 21
930.43406846340008
  0
LINE
  8
_0-6_センタ_プレ_ト
  6
CONTINUOUS
 62
    7
 10
1471.001761561
 20
930.68398279460007
 11
1474.0007335360001
 21
930.60545194969995
  0
LINE
  8
_0-6_センタ_プレ_ト
  6
CONTINUOUS
 62
    7
 10
1473.994189299
 20
930.35553761849997
 11
1476.9931612740002
 21
930.27700677360008
  0
LINE
  8
_0-6_センタ_プレ_ト
  6
CONTINUOUS
 62
    7
 10
1476.9997055109998
 20
930.52692110480007
 11
1479.9986774859999
 21
930.44839025989995
  0
LINE
  8
_0-6_センタ_プレ_ト
  6
CONTINUOUS
 62
    7
 10
1479.9921332489998
 20
930.19847592859992
 11
1482.991105224
 21
930.11994508370003
  0
LINE
  8
_0-6_センタ_プレ_ト
  6
CONTINUOUS
 62
    7
 10
1488.9890491739998
 20
929.96288339390003
 11
1488.9955934109998
 21
930.21279772510002
  0
LINE
  8
_0-6_センタ_プレ_ト
  6
CONTINUOUS
 62
    7
 10
1485.9900771990001
 20
930.04141423879992
 11
1485.9966214360002
 21
930.29132857000013
  0
LINE
  8
_0-6_センタ_プレ_ト
  6
CONTINUOUS
 62
    7
 10
1482.997649461
 20
930.36985941500006
 11
1485.9966214360002
 21
930.29132857000013
  0
LINE
  8
_0-6_センタ_プレ_ト
  6
CONTINUOUS
 62
    7
 10
1485.9900771990001
 20
930.04141423879992
 11
1488.9890491739998
 21
929.96288339390003
  0
LINE
  8
_0-6_センタ_プレ_ト
  6
CONTINUOUS
 62
    7
 10
1494.986993124
 20
929.80582170399998
 11
1494.9935373610001
 21
930.05573603530001
  0
LINE
  8
_0-6_センタ_プレ_ト
  6
CONTINUOUS
 62
    7
 10
1491.9880211489999
 20
929.8843525489001
 11
1491.994565386
 21
930.13426688020013
  0
LINE
  8
_0-6_センタ_プレ_ト
  6
CONTINUOUS
 62
    7
 10
1488.9955934109998
 20
930.21279772510002
 11
1491.994565386
 21
930.13426688020013
  0
LINE
  8
_0-6_センタ_プレ_ト
  6
CONTINUOUS
 62
    7
 10
1491.9880211489999
 20
929.8843525489001
 11
1494.986993124
 21
929.80582170399998
  0
LINE
  8
_0-6_センタ_プレ_ト
  6
CONTINUOUS
 62
    7
 10
1500.9849370739998
 20
929.64876001419998
 11
1500.9914813109999
 21
929.89867434539997
  0
LINE
  8
_0-6_センタ_プレ_ト
  6
CONTINUOUS
 62
    7
 10
1497.9859650990002
 20
929.72729085910009
 11
1497.9925093359998
 21
929.97720519030008
  0
LINE
  8
_0-6_センタ_プレ_ト
  6
CONTINUOUS
 62
    7
 10
1494.9935373610001
 20
930.05573603530001
 11
1497.9925093359998
 21
929.97720519030008
  0
LINE
  8
_0-6_センタ_プレ_ト
  6
CONTINUOUS
 62
    7
 10
1497.9859650990002
 20
929.72729085910009
 11
1500.9849370739998
 21
929.64876001419998
  0
LINE
  8
_0-6_センタ_プレ_ト
  6
CONTINUOUS
 62
    7
 10
1506.9828810240001
 20
929.49169832429993
 11
1506.9894252610002
 21
929.74161265559997
  0
LINE
  8
_0-6_センタ_プレ_ト
  6
CONTINUOUS
 62
    7
 10
1503.983909049
 20
929.57022916930009
 11
1503.990453286
 21
929.82014350050008
  0
LINE
  8
_0-6_センタ_プレ_ト
  6
CONTINUOUS
 62
    7
 10
1500.9914813109999
 20
929.89867434539997
 11
1503.990453286
 21
929.82014350050008
  0
LINE
  8
_0-6_センタ_プレ_ト
  6
CONTINUOUS
 62
    7
 10
1503.983909049
 20
929.57022916920005
 11
1506.9828810240001
 21
929.49169832429993
  0
LINE
  8
_0-6_センタ_プレ_ト
  6
CONTINUOUS
 62
    7
 10
1512.9808249729999
 20
929.33463663449993
 11
1512.98736921
 21
929.58455096569992
  0
LINE
  8
_0-6_センタ_プレ_ト
  6
CONTINUOUS
 62
    7
 10
1509.9818529979998
 20
929.41316747940004
 11
1509.9883972359999
 21
929.66308181060003
  0
LINE
  8
_0-6_センタ_プレ_ト
  6
CONTINUOUS
 62
    7
 10
1506.9894252610002
 20
929.74161265559997
 11
1509.9883972359999
 21
929.66308181060003
  0
LINE
  8
_0-6_センタ_プレ_ト
  6
CONTINUOUS
 62
    7
 10
1509.9818529979998
 20
929.41316747940004
 11
1512.9808249729999
 21
929.33463663449993
  0
LINE
  8
_0-6_センタ_プレ_ト
  6
CONTINUOUS
 62
    7
 10
1518.9787689230002
 20
929.17757494460011
 11
1518.9853131599998
 21
929.42748927589992
  0
LINE
  8
_0-6_センタ_プレ_ト
  6
CONTINUOUS
 62
    7
 10
1515.9797969480001
 20
929.2561057895
 11
1515.9863411850001
 21
929.50602012080003
  0
LINE
  8
_0-6_センタ_プレ_ト
  6
CONTINUOUS
 62
    7
 10
1512.98736921
 20
929.58455096569992
 11
1515.9863411850001
 21
929.50602012080003
  0
LINE
  8
_0-6_センタ_プレ_ト
  6
CONTINUOUS
 62
    7
 10
1515.9797969480001
 20
929.2561057895
 11
1518.9787689230002
 21
929.17757494460011
  0
LINE
  8
_0-6_センタ_プレ_ト
  6
CONTINUOUS
 62
    7
 10
1524.976712873
 20
929.02051325480011
 11
1524.9832571100001
 21
929.2704275860001
  0
LINE
  8
_0-6_センタ_プレ_ト
  6
CONTINUOUS
 62
    7
 10
1521.9777408979999
 20
929.0990440997
 11
1521.9842851349999
 21
929.34895843089998
  0
LINE
  8
_0-6_センタ_プレ_ト
  6
CONTINUOUS
 62
    7
 10
1518.9853131599998
 20
929.42748927589992
 11
1521.9842851349999
 21
929.34895843089998
  0
LINE
  8
_0-6_センタ_プレ_ト
  6
CONTINUOUS
 62
    7
 10
1521.9777408979999
 20
929.0990440997
 11
1524.976712873
 21
929.02051325480011
  0
LINE
  8
_0-6_センタ_プレ_ト
  6
CONTINUOUS
 62
    7
 10
1527.9756848480001
 20
928.94198240989999
 11
1527.9822290850002
 21
929.19189674109998
  0
LINE
  8
_0-6_センタ_プレ_ト
  6
CONTINUOUS
 62
    7
 10
1524.9832571100001
 20
929.2704275860001
 11
1527.9822290850002
 21
929.19189674109998
  0
LINE
  8
_0-6_センタ_プレ_ト
  6
CONTINUOUS
 62
    7
 10
1390.022974001
 20
932.47587043139993
 11
1390.0164297639999
 21
932.72578476269996
  0
LINE
  8
_0-6_センタ_プレ_ト
  6
CONTINUOUS
 62
    7
 10
1391.5224599889998
 20
932.51513585390012
 11
1390.022974001
 21
932.47587043139993
  0
LINE
  8
_0-6_センタ_プレ_ト
  6
CONTINUOUS
 62
    7
 10
1387.0240020259998
 20
932.39733958650004
 11
1387.0174577889998
 21
932.64725391770003
  0
LINE
  8
_0-6_センタ_プレ_ト
  6
CONTINUOUS
 62
    7
 10
1381.026058077
 20
932.24027789659999
 11
1381.0195138399999
 21
932.49019222790002
  0
LINE
  8
_0-6_センタ_プレ_ト
  6
CONTINUOUS
 62
    7
 10
1384.0250300520001
 20
932.31880874159992
 11
1384.0184858140001
 21
932.56872307279991
  0
LINE
  8
_0-6_センタ_プレ_ト
  6
CONTINUOUS
 62
    7
 10
1390.0164297639999
 20
932.72578476269996
 11
1387.0174577889998
 21
932.64725391770003
  0
LINE
  8
_0-6_センタ_プレ_ト
  6
CONTINUOUS
 62
    7
 10
1387.0240020259998
 20
932.39733958650004
 11
1384.0250300520001
 21
932.31880874159992
  0
LINE
  8
_0-6_センタ_プレ_ト
  6
CONTINUOUS
 62
    7
 10
1378.0270861019999
 20
932.1617470517001
 11
1378.0205418649998
 21
932.41166138299991
  0
LINE
  8
_0-6_センタ_プレ_ト
  6
CONTINUOUS
 62
    7
 10
1372.0291421520001
 20
932.0046853619001
 11
1372.022597915
 21
932.25459969310009
  0
LINE
  8
_0-6_センタ_プレ_ト
  6
CONTINUOUS
 62
    7
 10
1375.0281141270002
 20
932.08321620679999
 11
1375.0215698900001
 21
932.33313053799998
  0
LINE
  8
_0-6_センタ_プレ_ト
  6
CONTINUOUS
 62
    7
 10
1384.0184858140001
 20
932.56872307279991
 11
1381.0195138399999
 21
932.49019222790002
  0
LINE
  8
_0-6_センタ_プレ_ト
  6
CONTINUOUS
 62
    7
 10
1381.026058077
 20
932.24027789659999
 11
1378.0270861019999
 21
932.1617470517001
  0
LINE
  8
_0-6_センタ_プレ_ト
  6
CONTINUOUS
 62
    7
 10
1378.0205418649998
 20
932.41166138299991
 11
1375.0215698900001
 21
932.33313053799998
  0
LINE
  8
_0-6_センタ_プレ_ト
  6
CONTINUOUS
 62
    7
 10
1369.0301701769999
 20
931.92615451689994
 11
1369.0236259399999
 21
932.17606884819998
  0
LINE
  8
_0-6_センタ_プレ_ト
  6
CONTINUOUS
 62
    7
 10
1366.0311982019998
 20
931.84762367200005
 11
1366.0246539650002
 21
932.09753800330009
  0
LINE
  8
_0-6_センタ_プレ_ト
  6
CONTINUOUS
 62
    7
 10
1363.0322262270001
 20
931.76909282709994
 11
1363.0256819900001
 21
932.01900715829993
  0
LINE
  8
_0-6_センタ_プレ_ト
  6
CONTINUOUS
 62
    7
 10
1360.033254252
 20
931.69056198220005
 11
1360.0267100149999
 21
931.94047631340004
  0
LINE
  8
_0-6_センタ_プレ_ト
  6
CONTINUOUS
 62
    7
 10
1354.0353103020002
 20
931.5335002923
 11
1354.0287660650001
 21
931.78341462360004
  0
LINE
  8
_0-6_センタ_プレ_ト
  6
CONTINUOUS
 62
    7
 10
1357.0342822769999
 20
931.61203113729994
 11
1357.0277380399998
 21
931.86194546849993
  0
LINE
  8
_0-6_センタ_プレ_ト
  6
CONTINUOUS
 62
    7
 10
1375.0281141270002
 20
932.08321620679999
 11
1372.0291421520001
 21
932.0046853619001
  0
LINE
  8
_0-6_センタ_プレ_ト
  6
CONTINUOUS
 62
    7
 10
1372.022597915
 20
932.25459969310009
 11
1369.0236259399999
 21
932.17606884819998
  0
LINE
  8
_0-6_センタ_プレ_ト
  6
CONTINUOUS
 62
    7
 10
1369.0301701769999
 20
931.92615451689994
 11
1366.0311982019998
 21
931.84762367200005
  0
LINE
  8
_0-6_センタ_プレ_ト
  6
CONTINUOUS
 62
    7
 10
1366.0246539650002
 20
932.09753800330009
 11
1363.0256819900001
 21
932.01900715829993
  0
LINE
  8
_0-6_センタ_プレ_ト
  6
CONTINUOUS
 62
    7
 10
1363.0322262270001
 20
931.76909282709994
 11
1360.033254252
 21
931.69056198220005
  0
LINE
  8
_0-6_センタ_プレ_ト
  6
CONTINUOUS
 62
    7
 10
1360.0267100149999
 20
931.94047631340004
 11
1357.0277380399998
 21
931.86194546849993
  0
LINE
  8
_0-6_センタ_プレ_ト
  6
CONTINUOUS
 62
    7
 10
1351.0363383270001
 20
931.45496944740012
 11
1351.02979409
 21
931.70488377869992
  0
LINE
  8
_0-6_センタ_プレ_ト
  6
CONTINUOUS
 62
    7
 10
1348.0373663519999
 20
931.3764386025
 11
1348.0308221149999
 21
931.62635293369999
  0
LINE
  8
_0-6_センタ_プレ_ト
  6
CONTINUOUS
 62
    7
 10
1345.0383943769998
 20
931.29790775760011
 11
1345.0318501400002
 21
931.5478220888001
  0
LINE
  8
_0-6_センタ_プレ_ト
  6
CONTINUOUS
 62
    7
 10
1342.0394224030001
 20
931.21937691259996
 11
1342.0328781650001
 21
931.46929124389999
  0
LINE
  8
_0-6_センタ_プレ_ト
  6
CONTINUOUS
 62
    7
 10
1339.040450428
 20
931.14084606770007
 11
1339.0339061909999
 21
931.3907603990001
  0
LINE
  8
_0-6_センタ_プレ_ト
  6
CONTINUOUS
 62
    7
 10
1336.0414784529999
 20
931.06231522279995
 11
1336.0349342159998
 21
931.31222955399994
  0
LINE
  8
_0-6_センタ_プレ_ト
  6
CONTINUOUS
 62
    7
 10
1333.0425064780002
 20
930.98378437790007
 11
1333.0359622410001
 21
931.23369870910005
  0
LINE
  8
_0-6_センタ_プレ_ト
  6
CONTINUOUS
 62
    7
 10
1330.043534503
 20
930.90525353290013
 11
1330.036990266
 21
931.15516786419994
  0
LINE
  8
_0-6_センタ_プレ_ト
  6
CONTINUOUS
 62
    7
 10
1324.0455905529998
 20
930.74819184310013
 11
1324.0390463160002
 21
930.99810617430012
  0
LINE
  8
_0-6_センタ_プレ_ト
  6
CONTINUOUS
 62
    7
 10
1327.0445625279999
 20
930.82672268800002
 11
1327.0380182909998
 21
931.07663701930005
  0
LINE
  8
_0-6_センタ_プレ_ト
  6
CONTINUOUS
 62
    7
 10
1357.0342822769999
 20
931.61203113729994
 11
1354.0353103020002
 21
931.5335002923
  0
LINE
  8
_0-6_センタ_プレ_ト
  6
CONTINUOUS
 62
    7
 10
1354.0287660650001
 20
931.78341462360004
 11
1351.02979409
 21
931.70488377869992
  0
LINE
  8
_0-6_センタ_プレ_ト
  6
CONTINUOUS
 62
    7
 10
1351.0363383270001
 20
931.45496944740012
 11
1348.0373663519999
 21
931.3764386025
  0
LINE
  8
_0-6_センタ_プレ_ト
  6
CONTINUOUS
 62
    7
 10
1348.0308221149999
 20
931.62635293369999
 11
1345.0318501400002
 21
931.5478220888001
  0
LINE
  8
_0-6_センタ_プレ_ト
  6
CONTINUOUS
 62
    7
 10
1345.0383943769998
 20
931.29790775760011
 11
1342.0394224030001
 21
931.21937691259996
  0
LINE
  8
_0-6_センタ_プレ_ト
  6
CONTINUOUS
 62
    7
 10
1342.0328781650001
 20
931.46929124389999
 11
1339.0339061909999
 21
931.3907603990001
  0
LINE
  8
_0-6_センタ_プレ_ト
  6
CONTINUOUS
 62
    7
 10
1339.040450428
 20
931.14084606770007
 11
1336.0414784529999
 21
931.06231522279995
  0
LINE
  8
_0-6_センタ_プレ_ト
  6
CONTINUOUS
 62
    7
 10
1336.0349342159998
 20
931.31222955399994
 11
1333.0359622410001
 21
931.23369870910005
  0
LINE
  8
_0-6_センタ_プレ_ト
  6
CONTINUOUS
 62
    7
 10
1333.0425064780002
 20
930.98378437790007
 11
1330.043534503
 21
930.90525353290013
  0
LINE
  8
_0-6_センタ_プレ_ト
  6
CONTINUOUS
 62
    7
 10
1330.036990266
 20
931.15516786419994
 11
1327.0380182909998
 21
931.07663701930005
  0
LINE
  8
_0-6_センタ_プレ_ト
  6
CONTINUOUS
 62
    7
 10
1321.0466185780001
 20
930.66966099820002
 11
1321.040074341
 21
930.9195753294
  0
LINE
  8
_0-6_センタ_プレ_ト
  6
CONTINUOUS
 62
    7
 10
1318.047646603
 20
930.59113015330013
 11
1318.0411023659999
 21
930.84104448450012
  0
LINE
  8
_0-6_センタ_プレ_ト
  6
CONTINUOUS
 62
    7
 10
1315.0486746279998
 20
930.51259930829997
 11
1315.0421303909998
 21
930.7625136396
  0
LINE
  8
_0-6_センタ_プレ_ト
  6
CONTINUOUS
 62
    7
 10
1312.0497026530002
 20
930.43406846340008
 11
1312.0431584160001
 21
930.68398279470011
  0
LINE
  8
_0-6_センタ_プレ_ト
  6
CONTINUOUS
 62
    7
 10
1309.050730678
 20
930.35553761849997
 11
1309.044186441
 21
930.60545194969995
  0
LINE
  8
_0-6_センタ_プレ_ト
  6
CONTINUOUS
 62
    7
 10
1306.0517587029999
 20
930.27700677360008
 11
1306.0452144659998
 21
930.52692110480007
  0
LINE
  8
_0-6_センタ_プレ_ト
  6
CONTINUOUS
 62
    7
 10
1300.0538147540001
 20
930.11994508370003
 11
1300.047270517
 21
930.36985941500006
  0
LINE
  8
_0-6_センタ_プレ_ト
  6
CONTINUOUS
 62
    7
 10
1303.0527867289998
 20
930.19847592859992
 11
1303.0462424910002
 21
930.44839025989995
  0
LINE
  8
_0-6_センタ_プレ_ト
  6
CONTINUOUS
 62
    7
 10
1327.0445625279999
 20
930.82672268800002
 11
1324.0455905529998
 21
930.74819184310013
  0
LINE
  8
_0-6_センタ_プレ_ト
  6
CONTINUOUS
 62
    7
 10
1324.0390463160002
 20
930.99810617430012
 11
1321.040074341
 21
930.9195753294
  0
LINE
  8
_0-6_センタ_プレ_ト
  6
CONTINUOUS
 62
    7
 10
1321.0466185780001
 20
930.66966099820002
 11
1318.047646603
 21
930.59113015320008
  0
LINE
  8
_0-6_センタ_プレ_ト
  6
CONTINUOUS
 62
    7
 10
1318.0411023659999
 20
930.84104448450012
 11
1315.0421303909998
 21
930.7625136396
  0
LINE
  8
_0-6_センタ_プレ_ト
  6
CONTINUOUS
 62
    7
 10
1315.0486746279998
 20
930.51259930829997
 11
1312.0497026530002
 21
930.43406846340008
  0
LINE
  8
_0-6_センタ_プレ_ト
  6
CONTINUOUS
 62
    7
 10
1312.0431584160001
 20
930.68398279460007
 11
1309.044186441
 21
930.60545194969995
  0
LINE
  8
_0-6_センタ_プレ_ト
  6
CONTINUOUS
 62
    7
 10
1309.050730678
 20
930.35553761849997
 11
1306.0517587029999
 21
930.27700677360008
  0
LINE
  8
_0-6_センタ_プレ_ト
  6
CONTINUOUS
 62
    7
 10
1306.0452144659998
 20
930.52692110480007
 11
1303.0462424910002
 21
930.44839025989995
  0
LINE
  8
_0-6_センタ_プレ_ト
  6
CONTINUOUS
 62
    7
 10
1303.0527867289998
 20
930.19847592859992
 11
1300.0538147540001
 21
930.11994508370003
  0
LINE
  8
_0-6_センタ_プレ_ト
  6
CONTINUOUS
 62
    7
 10
1294.0558708039998
 20
929.96288339390003
 11
1294.0493265670002
 21
930.21279772510002
  0
LINE
  8
_0-6_センタ_プレ_ト
  6
CONTINUOUS
 62
    7
 10
1297.054842779
 20
930.04141423879992
 11
1297.0482985419999
 21
930.29132857000013
  0
LINE
  8
_0-6_センタ_プレ_ト
  6
CONTINUOUS
 62
    7
 10
1300.047270517
 20
930.36985941500006
 11
1297.0482985419999
 21
930.29132857000013
  0
LINE
  8
_0-6_センタ_プレ_ト
  6
CONTINUOUS
 62
    7
 10
1297.054842779
 20
930.04141423879992
 11
1294.0558708039998
 21
929.96288339390003
  0
LINE
  8
_0-6_センタ_プレ_ト
  6
CONTINUOUS
 62
    7
 10
1288.057926854
 20
929.80582170399998
 11
1288.0513826169999
 21
930.05573603530001
  0
LINE
  8
_0-6_センタ_プレ_ト
  6
CONTINUOUS
 62
    7
 10
1291.0568988290001
 20
929.8843525489001
 11
1291.0503545920001
 21
930.13426688020013
  0
LINE
  8
_0-6_センタ_プレ_ト
  6
CONTINUOUS
 62
    7
 10
1294.0493265670002
 20
930.21279772510002
 11
1291.0503545920001
 21
930.13426688020013
  0
LINE
  8
_0-6_センタ_プレ_ト
  6
CONTINUOUS
 62
    7
 10
1291.0568988290001
 20
929.8843525489001
 11
1288.057926854
 21
929.80582170399998
  0
LINE
  8
_0-6_センタ_プレ_ト
  6
CONTINUOUS
 62
    7
 10
1282.0599829040002
 20
929.64876001419998
 11
1282.0534386670001
 21
929.89867434539997
  0
LINE
  8
_0-6_センタ_プレ_ト
  6
CONTINUOUS
 62
    7
 10
1285.0589548789999
 20
929.72729085910009
 11
1285.0524106419998
 21
929.97720519030008
  0
LINE
  8
_0-6_センタ_プレ_ト
  6
CONTINUOUS
 62
    7
 10
1288.0513826169999
 20
930.05573603530001
 11
1285.0524106419998
 21
929.97720519030008
  0
LINE
  8
_0-6_センタ_プレ_ト
  6
CONTINUOUS
 62
    7
 10
1285.0589548789999
 20
929.72729085910009
 11
1282.0599829040002
 21
929.64876001419998
  0
LINE
  8
_0-6_センタ_プレ_ト
  6
CONTINUOUS
 62
    7
 10
1276.0620389539999
 20
929.49169832429993
 11
1276.0554947169999
 21
929.74161265559997
  0
LINE
  8
_0-6_センタ_プレ_ト
  6
CONTINUOUS
 62
    7
 10
1279.0610109290001
 20
929.57022916930009
 11
1279.054466692
 21
929.82014350050008
  0
LINE
  8
_0-6_センタ_プレ_ト
  6
CONTINUOUS
 62
    7
 10
1282.0534386670001
 20
929.89867434539997
 11
1279.054466692
 21
929.82014350050008
  0
LINE
  8
_0-6_センタ_プレ_ト
  6
CONTINUOUS
 62
    7
 10
1279.0610109290001
 20
929.57022916920005
 11
1276.0620389539999
 21
929.49169832429993
  0
LINE
  8
_0-6_センタ_プレ_ト
  6
CONTINUOUS
 62
    7
 10
1270.0640950040001
 20
929.33463663449993
 11
1270.0575507670001
 21
929.58455096569992
  0
LINE
  8
_0-6_センタ_プレ_ト
  6
CONTINUOUS
 62
    7
 10
1273.0630669789998
 20
929.41316747940004
 11
1273.0565227420002
 21
929.66308181060003
  0
LINE
  8
_0-6_センタ_プレ_ト
  6
CONTINUOUS
 62
    7
 10
1276.0554947169999
 20
929.74161265559997
 11
1273.0565227420002
 21
929.66308181060003
  0
LINE
  8
_0-6_センタ_プレ_ト
  6
CONTINUOUS
 62
    7
 10
1273.0630669789998
 20
929.41316747940004
 11
1270.0640950040001
 21
929.33463663449993
  0
LINE
  8
_0-6_センタ_プレ_ト
  6
CONTINUOUS
 62
    7
 10
1264.0661510539999
 20
929.17757494460011
 11
1264.0596068169998
 21
929.42748927589992
  0
LINE
  8
_0-6_センタ_プレ_ト
  6
CONTINUOUS
 62
    7
 10
1267.065123029
 20
929.2561057895
 11
1267.0585787919999
 21
929.50602012080003
  0
LINE
  8
_0-6_センタ_プレ_ト
  6
CONTINUOUS
 62
    7
 10
1270.0575507670001
 20
929.58455096569992
 11
1267.0585787919999
 21
929.50602012080003
  0
LINE
  8
_0-6_センタ_プレ_ト
  6
CONTINUOUS
 62
    7
 10
1267.065123029
 20
929.2561057895
 11
1264.0661510539999
 21
929.17757494460011
  0
LINE
  8
_0-6_センタ_プレ_ト
  6
CONTINUOUS
 62
    7
 10
1258.0682071050001
 20
929.02051325480011
 11
1258.061662868
 21
929.2704275860001
  0
LINE
  8
_0-6_センタ_プレ_ト
  6
CONTINUOUS
 62
    7
 10
1261.0671790800002
 20
929.0990440997
 11
1261.0606348420001
 21
929.34895843089998
  0
LINE
  8
_0-6_センタ_プレ_ト
  6
CONTINUOUS
 62
    7
 10
1264.0596068169998
 20
929.42748927589992
 11
1261.0606348420001
 21
929.34895843089998
  0
LINE
  8
_0-6_センタ_プレ_ト
  6
CONTINUOUS
 62
    7
 10
1261.0671790800002
 20
929.0990440997
 11
1258.0682071050001
 21
929.02051325480011
  0
LINE
  8
_0-6_センタ_プレ_ト
  6
CONTINUOUS
 62
    7
 10
1252.0702631549998
 20
928.86345156490006
 11
1252.0637189180002
 21
929.11336589620009
  0
LINE
  8
_0-6_センタ_プレ_ト
  6
CONTINUOUS
 62
    7
 10
1255.0692351299999
 20
928.94198240989999
 11
1255.0626908929999
 21
929.19189674109998
  0
LINE
  8
_0-6_センタ_プレ_ト
  6
CONTINUOUS
 62
    7
 10
1258.061662868
 20
929.2704275860001
 11
1255.0626908929999
 21
929.19189674109998
  0
LINE
  8
_0-6_センタ_プレ_ト
  6
CONTINUOUS
 62
    7
 10
1255.0692351299999
 20
928.94198240979995
 11
1252.0702631549998
 21
928.86345156490006
  0
LINE
  8
_0-6_センタ_プレ_ト
  6
CONTINUOUS
 62
    7
 10
1246.072319205
 20
928.70638987510006
 11
1246.0657749679999
 21
928.95630420630005
  0
LINE
  8
_0-6_センタ_プレ_ト
  6
CONTINUOUS
 62
    7
 10
1249.0712911800001
 20
928.78492071999995
 11
1249.064746943
 21
929.03483505129998
  0
LINE
  8
_0-6_センタ_プレ_ト
  6
CONTINUOUS
 62
    7
 10
1252.0637189180002
 20
929.11336589620009
 11
1249.064746943
 21
929.03483505119993
  0
LINE
  8
_0-6_センタ_プレ_ト
  6
CONTINUOUS
 62
    7
 10
1249.0712911800001
 20
928.78492071999995
 11
1246.072319205
 21
928.70638987510006
  0
LINE
  8
_0-6_センタ_プレ_ト
  6
CONTINUOUS
 62
    7
 10
1243.0733472299999
 20
928.62785903019994
 11
1243.0668029929998
 21
928.87777336139993
  0
LINE
  8
_0-6_センタ_プレ_ト
  6
CONTINUOUS
 62
    7
 10
1246.0657749679999
 20
928.95630420630005
 11
1243.0668029929998
 21
928.87777336139993
  0
LINE
  8
_0-6_センタ_プレ_ト
  6
CONTINUOUS
 62
    7
 10
1243.0733472299999
 20
928.62785903010013
 11
1241.573861243
 21
928.58859360769998
  0
LINE
  8
_0-6_センタ_プレ_ト
  6
CONTINUOUS
 62
    7
 10
1527.9756848480001
 20
928.94198240979995
 11
1529.475170835
 21
928.90271698740003
  0
LINE
  8
_0-6_センタ_プレ_ト
  6
CONTINUOUS
 62
    7
 10
1529.475170835
 20
928.90271698740003
 11
1530.225170835
 21
927.60367888170003
  0
LINE
  8
_0-6_センタ_プレ_ト
  6
CONTINUOUS
 62
    7
 10
1391.5224599889998
 20
929.76419317449995
 11
1527.8636379740001
 21
926.19397378119993
  0
LINE
  8
_0-6_センタ_プレ_ト
  6
CONTINUOUS
 62
    7
 10
1527.8636379740001
 20
926.19397378119993
 11
1533.0936009749998
 21
917.13541214199995
  0
LINE
  8
_0-6_センタ_プレ_ト
  6
CONTINUOUS
 62
    7
 10
1240.2748231370001
 20
927.83859360769998
 11
1240.1498231370001
 21
928.05509995860007
  0
LINE
  8
_0-6_センタ_プレ_ト
  6
CONTINUOUS
 62
    7
 10
1232.4805945029998
 20
923.33859360769998
 11
1232.3555945029998
 21
923.55509995860007
  0
LINE
  8
_0-6_センタ_プレ_ト
  6
CONTINUOUS
 62
    7
 10
1240.1498231370001
 20
928.05509995860007
 11
1237.5517469249999
 21
926.55509995860007
  0
LINE
  8
_0-6_センタ_プレ_ト
  6
CONTINUOUS
 62
    7
 10
1234.9536707140001
 20
925.05509995860007
 11
1232.3555945029998
 21
923.55509995860007
  0
LINE
  8
_0-6_センタ_プレ_ト
  6
CONTINUOUS
 62
    7
 10
1237.6767469249999
 20
926.33859360769998
 11
1237.5517469249999
 21
926.55509995860007
  0
LINE
  8
_0-6_センタ_プレ_ト
  6
CONTINUOUS
 62
    7
 10
1235.0786707140001
 20
924.83859360769998
 11
1234.9536707140001
 21
925.05509995860007
  0
LINE
  8
_0-6_センタ_プレ_ト
  6
CONTINUOUS
 62
    7
 10
1237.6767469249999
 20
926.33859360769998
 11
1235.0786707140001
 21
924.83859360769998
  0
LINE
  8
_0-6_センタ_プレ_ト
  6
CONTINUOUS
 62
    7
 10
1232.4805945029998
 20
923.33859360769998
 11
1231.1815563969999
 21
922.58859360769998
  0
LINE
  8
_0-6_センタ_プレ_ト
  6
CONTINUOUS
 62
    7
 10
1232.5565563969999
 20
920.20702374730013
 11
1231.1815563969999
 21
922.58859360769998
  0
LINE
  8
_0-6_センタ_プレ_ト
  6
CONTINUOUS
 62
    7
 10
1241.573861243
 20
928.58859360769998
 11
1240.2748231370001
 21
927.83859360769998
  0
LINE
  8
_0-6_センタ_プレ_ト
  6
CONTINUOUS
 62
    7
 10
1242.3440195500002
 20
925.85781823339994
 11
1232.5565563969999
 21
920.20702374730013
  0
LINE
  8
_0-6_センタ_プレ_ト
  6
CONTINUOUS
 62
    7
 10
1391.5224599889998
 20
929.76419317449995
 11
1242.3440195500002
 21
925.85781823339994
  0
TEXT
  8
_0-0_0
 62
    7
 10
295.94385257473618
 20
1181.3000845725223
 40
18.666666666666714
 41
0.7365159999999979
 50
0
  1
（ステンレス３００タイプ）
  0
TEXT
  8
_0-0_0
 62
    7
 10
1115.4807452603873
 20
1187.910100956241
 40
18.666666666666629
 41
0.7365159999999996
 50
0
  1
（ステンレス３００タイプ）
  0
TEXT
  8
_0-0_0
 62
    7
 10
126.00987424140271
 20
1135.7492645725222
 40
23.333333333333314
 41
0.8025180000000014
 50
0
  1
◇床－床（３００ＴＴ－ＧＰＳ）　Ｓ＝１／４
  0
TEXT
  8
_0-0_0
 62
    7
 10
921.95096026038641
 20
1138.2646276229075
 40
23.333333333333314
 41
0.8032110000000016
 50
0
  1
◇床コーナー（３００ＴＣ－ＧＰＳ）　Ｓ＝１／４
  0
ENDSEC
  0
EOF
