  0
SECTION
  2
HEADER
  9
$ACADVER
  1
AC1009
  9
$INSBASE
 10
0
 20
0
 30
0
  9
$EXTMIN
 10
0
 20
0
  9
$EXTMAX
 10
2940
 20
2079
  9
$LIMMIN
 10
0
 20
0
  9
$LIMMAX
 10
2940
 20
2079
  9
$LTSCALE
 40
7
  0
ENDSEC
  0
SECTION
  2
TABLES
  0
TABLE
  2
LTYPE
 70
     9
  0
LTYPE
  2
CONTINUOUS
 70
    64
  3
実線
 72
    65
 73
     0
 40
0.0
  0
LTYPE
  2
DASHED1
 70
    64
  3
--  --  --  --  --  --  --  --  
 72
    65
 73
     2
 40
2.5
 49
1.25
 49
-1.25
  0
LTYPE
  2
DASHED2
 70
    64
  3
----    ----    ----    ----    
 72
    65
 73
     2
 40
5.0
 49
2.5
 49
-2.5
  0
LTYPE
  2
DASHED3
 70
    64
  3
------  ------  ------  ------  
 72
    65
 73
     2
 40
5.0
 49
3.75
 49
-1.25
  0
LTYPE
  2
CENTER1
 70
    64
  3
----- - ----- - ----- - ----- - 
 72
    65
 73
     4
 40
10.0
 49
6.25
 49
-1.25
 49
1.25
 49
-1.25
  0
LTYPE
  2
CENTER2
 70
    64
  3
----------  --  ----------  --  
 72
    65
 73
     4
 40
20.0
 49
12.5
 49
-2.5
 49
2.5
 49
-2.5
  0
LTYPE
  2
PHANTOM1
 70
    64
  3
--- - - --- - - --- - - --- - - 
 72
    65
 73
     6
 40
10.0
 49
3.25
 49
-1.25
 49
1.25
 49
-1.25
 49
1.25
 49
-1.25
  0
LTYPE
  2
PHANTOM2
 70
    64
  3
--------  -  -  --------  -  -  
 72
    65
 73
     6
 40
20.0
 49
10.0
 49
-2.5
 49
1.25
 49
-2.5
 49
1.25
 49
-2.5
  0
LTYPE
  2
DOT
 70
    64
  3
-   -   -   -   -   -   -   -   
 72
    65
 73
     2
 40
2.5
 49
0.625
 49
-1.875
  0
LTYPE
  2
DUMMY
 70
    64
  3
ダミー
 72
    65
 73
     0
 40
0.0
  0
LTYPE
  2
RAND1
 70
    64
  3
ランダム線1
 72
    65
 73
     4
 40
10.0
 49
1.0
 49
-2.0
 49
3.0
 49
-4.0
  0
LTYPE
  2
RAND2
 70
    64
  3
ランダム線2
 72
    65
 73
     4
 40
14.0
 49
2.0
 49
-3.0
 49
4.0
 49
-5.0
  0
LTYPE
  2
RAND3
 70
    64
  3
ランダム線3
 72
    65
 73
     4
 40
18.0
 49
3.0
 49
-4.0
 49
5.0
 49
-6.0
  0
LTYPE
  2
RAND4
 70
    64
  3
ランダム線4
 72
    65
 73
     4
 40
22.0
 49
4.0
 49
-5.0
 49
6.0
 49
-7.0
  0
LTYPE
  2
RAND5
 70
    64
  3
ランダム線5
 72
    65
 73
     4
 40
26.0
 49
5.0
 49
-6.0
 49
7.0
 49
-8.0
  0
LTYPE
  2
LONG1
 70
    64
  3
----------  --  ----------  --  
 72
    65
 73
     4
 40
40.0
 49
32.5
 49
-2.5
 49
2.5
 49
-2.5
  0
LTYPE
  2
LONG2
 70
    64
  3
--------  -  -  --------  -  -  
 72
    65
 73
     6
 40
40.0
 49
30.0
 49
-2.5
 49
1.25
 49
-2.5
 49
1.25
 49
-2.5
  0
LTYPE
  2
LONG3
 70
    64
  3
+++++++++++++++..+++++++++++++++
 72
    65
 73
     2
 40
40.0
 49
37.5
 49
-2.5
  0
LTYPE
  2
LONG4
 70
    64
  3
+++++++++++++++..+++++++++++++++
 72
    65
 73
     2
 40
80.0
 49
75.0
 49
-5.0
  0
LTYPE
  2
LONG5
 70
    64
  3
----------  --  ----------  --  
 72
    65
 73
     4
 40
60.0
 49
37.5
 49
-7.5
 49
7.5
 49
-7.5
  0
LTYPE
  2
dashed
 70
   64
  3
-------   -------------   ------
 72
   65
 73
    2
 40
7.5
 49
6
 49
-1.5
  0
LTYPE
  2
dashed_spaced
 70
   64
  3
----        --------        ----
 72
   65
 73
    2
 40
12
 49
6
 49
-6
  0
LTYPE
  2
long_dashed_dotted
 70
   64
  3
------------- --- --------------
 72
   65
 73
    4
 40
15.25
 49
12
 49
-1.5
 49
0.25
 49
-1.5
  0
LTYPE
  2
long_dashed_double-dotted
 70
   64
  3
----------- --- --- ------------
 72
   65
 73
    6
 40
17
 49
12
 49
-1.5
 49
0.25
 49
-1.5
 49
0.25
 49
-1.5
  0
LTYPE
  2
long_dashed_triplicate-dotted
 70
   64
  3
--------- --- --- --- ----------
 72
   65
 73
    8
 40
18.75
 49
12
 49
-1.5
 49
0.25
 49
-1.5
 49
0.25
 49
-1.5
 49
0.25
 49
-1.5
  0
LTYPE
  2
dotted
 70
   64
  3
   -       -       -       -    
 72
   65
 73
    2
 40
1.75
 49
0.25
 49
-1.5
  0
LTYPE
  2
chain
 70
   64
  3
-------------- -- --------------
 72
   65
 73
    4
 40
18.5
 49
12
 49
-1.5
 49
3.5
 49
-1.5
  0
LTYPE
  2
chain_double_dash
 70
   64
  3
------------ -- -- -------------
 72
   65
 73
    6
 40
23.5
 49
12
 49
-1.5
 49
3.5
 49
-1.5
 49
3.5
 49
-1.5
  0
LTYPE
  2
dashed_dotted
 70
   64
  3
-----------     -     ----------
 72
   65
 73
    4
 40
9.25
 49
6
 49
-1.5
 49
0.25
 49
-1.5
  0
LTYPE
  2
double-dashed_dotted
 70
   64
  3
------   -----------   -   -----
 72
   65
 73
    6
 40
16.75
 49
6
 49
-1.5
 49
6
 49
-1.5
 49
0.25
 49
-1.5
  0
LTYPE
  2
dashed_double-dotted
 70
   64
  3
---------    -    -    ---------
 72
   65
 73
    6
 40
11
 49
6
 49
-1.5
 49
0.25
 49
-1.5
 49
0.25
 49
-1.5
  0
LTYPE
  2
double-dashed_double-dotted
 70
   64
  3
-----   ---------   -   -   ----
 72
   65
 73
    8
 40
18.5
 49
6
 49
-1.5
 49
6
 49
-1.5
 49
0.25
 49
-1.5
 49
0.25
 49
-1.5
  0
LTYPE
  2
dashed_triplicate-dotted
 70
   64
  3
-------    -    -    -    ------
 72
   65
 73
    8
 40
12.75
 49
6
 49
-1.5
 49
0.25
 49
-1.5
 49
0.25
 49
-1.5
 49
0.25
 49
-1.5
  0
LTYPE
  2
double-dashed_triplicate-dotted
 70
   64
  3
-----  ---------  -  -  -  -----
 72
   65
 73
   10
 40
20.25
 49
6
 49
-1.5
 49
6
 49
-1.5
 49
0.25
 49
-1.5
 49
0.25
 49
-1.5
 49
0.25
 49
-1.5
  0
LTYPE
  2
undefined
 70
   64
  3
--------------------------------
 72
   65
 73
    0
 40
0
  0
LTYPE
  2
DOT_17
 70
   64
  3
----        --------        ----
 72
   65
 73
    2
 40
2
 49
1
 49
-1
  0
LTYPE
  2
DASHED
 70
   64
  3
----        --------        ----
 72
   65
 73
    2
 40
4
 49
2
 49
-2
  0
LTYPE
  2
DASHED2_19
 70
   64
  3
-----      ----------      -----
 72
   65
 73
    2
 40
8
 49
5
 49
-3
  0
LTYPE
  2
CENTER
 70
   64
  3
--------------- - --------------
 72
   65
 73
    4
 40
23
 49
20
 49
-1
 49
1
 49
-1
  0
LTYPE
  2
CENTERX2
 70
   64
  3
--------------- - --------------
 72
   65
 73
    4
 40
43
 49
40
 49
-1
 49
1
 49
-1
  0
LTYPE
  2
CENTER2_22
 70
   64
  3
-------------  --  -------------
 72
   65
 73
    4
 40
13
 49
10
 49
-1
 49
1
 49
-1
  0
LTYPE
  2
PHANTOM
 70
   64
  3
-------------- - - -------------
 72
   65
 73
    6
 40
25
 49
20
 49
-1
 49
1
 49
-1
 49
1
 49
-1
  0
LTYPE
  2
PHANTOMX2
 70
   64
  3
-------------- - - -------------
 72
   65
 73
    6
 40
45
 49
40
 49
-1
 49
1
 49
-1
 49
1
 49
-1
  0
LTYPE
  2
PHANTOM2_25
 70
   64
  3
-----------  --  --  -----------
 72
   65
 73
    6
 40
15
 49
10
 49
-1
 49
1
 49
-1
 49
1
 49
-1
  0
LTYPE
  2
ACAD_ISO06W100
 70
   64
  3
------------- - - - ------------
 72
   65
 73
    8
 40
47
 49
40
 49
-1
 49
1
 49
-1
 49
1
 49
-1
 49
1
 49
-1
  0
LTYPE
  2
ACAD_ISO14W100
 70
   64
  3
------------- - - - ------------
 72
   65
 73
    8
 40
27
 49
20
 49
-1
 49
1
 49
-1
 49
1
 49
-1
 49
1
 49
-1
  0
LTYPE
  2
ACAD_ISO11W100
 70
   64
  3
------- -------------- - -------
 72
   65
 73
    6
 40
44
 49
20
 49
-1
 49
20
 49
-1
 49
1
 49
-1
  0
LTYPE
  2
ACAD_ISO13W100
 70
   64
  3
------- ------------- - - ------
 72
   65
 73
    8
 40
46
 49
20
 49
-1
 49
20
 49
-1
 49
1
 49
-1
 49
1
 49
-1
  0
LTYPE
  2
HIDDEN
 70
   64
  3
------     -----------     -----
 72
   65
 73
    2
 40
1.5
 49
1
 49
-0.5
  0
ENDTAB
  0
TABLE
  2
STYLE
  5
3
100
AcDbSymbolTable
 70
     1
  0
STYLE
  5
10
100
AcDbSymbolTableRecord
100
AcDbTextStyleTableRecord
  2
STANDARD
 70
     0
 40
0.0
 41
1.0
 50
0.0
 71
     0
 42
0.2
  3
txt
  4
bigfont.shx
  0
STYLE
  5
26
100
AcDbSymbolTableRecord
100
AcDbTextStyleTableRecord
  2
TATEGAKI
 70
    68
 40
0.0
 41
1.0
 50
0.0
 71
     0
 42
1.0
  3
txt
  4
bigfont.shx
  0
ENDTAB
  0
TABLE
  2
LAYER
 70
   12
  0
LAYER
  2
_0-0_0
 70
   64
 62
    7
  6
CONTINUOUS
  0
LAYER
  2
_0-1_図面枠
 70
   64
 62
    7
  6
CONTINUOUS
  0
LAYER
  2
_0-3_躯体
 70
   64
 62
    7
  6
CONTINUOUS
  0
LAYER
  2
_0-4_フレ_ム
 70
   64
 62
    7
  6
CONTINUOUS
  0
LAYER
  2
_0-5_止水補助板
 70
   64
 62
    7
  6
CONTINUOUS
  0
LAYER
  2
_0-6_センタ_プレ_ト
 70
   64
 62
    7
  6
CONTINUOUS
  0
LAYER
  2
_0-7_サイド
 70
   64
 62
    7
  6
CONTINUOUS
  0
LAYER
  2
_0-8_小物
 70
   64
 62
    7
  6
CONTINUOUS
  0
LAYER
  2
_0-9_その他
 70
   64
 62
    7
  6
CONTINUOUS
  0
LAYER
  2
_0-a_寸法
 70
   64
 62
    7
  6
CONTINUOUS
  0
LAYER
  2
_0-b_レイヤ1
 70
   64
 62
    7
  6
CONTINUOUS
  0
LAYER
  2
ADD_LINE
 70
   64
 62
    7
  6
CONTINUOUS
  0
ENDTAB
  0
ENDSEC
  0
SECTION
  2
BLOCKS
  0
ENDSEC
  0
SECTION
  2
ENTITIES
  0
LINE
  8
_0-1_図面枠
  6
CONTINUOUS
 62
    7
 10
462.8833902665499
 20
616.46250499999996
 11
2062.8833902665497
 21
616.46250499999996
  0
LINE
  8
_0-1_図面枠
  6
CONTINUOUS
 62
    7
 10
2062.8833902665497
 20
1664.462505
 11
462.8833902665499
 21
1664.462505
  0
LINE
  8
_0-1_図面枠
  6
CONTINUOUS
 62
    7
 10
2062.8833902665497
 20
616.46250499999996
 11
2062.8833902665497
 21
1664.462505
  0
LINE
  8
_0-1_図面枠
  6
CONTINUOUS
 62
    7
 10
462.8833902665499
 20
1664.462505
 11
462.8833902665499
 21
616.46250499999996
  0
LINE
  8
_0-1_図面枠
  6
CONTINUOUS
 62
    7
 10
1262.8833902665499
 20
1664.462505
 11
1262.8833902665499
 21
616.46250499999996
  0
LINE
  8
_0-a_寸法
  6
CONTINUOUS
 62
    7
 10
587.8833902665499
 20
1247.74225
 11
627.94269526654989
 21
1247.74225
  0
LINE
  8
_0-a_寸法
  6
CONTINUOUS
 62
    7
 10
587.8833902665499
 20
1307.7787700000001
 11
587.8833902665499
 21
1243.7422500000002
  0
LINE
  8
_0-a_寸法
  6
CONTINUOUS
 62
    7
 10
627.94269526654989
 20
1307.72615
 11
627.94269526654989
 21
1243.7422500000002
  0
LINE
  8
_0-a_寸法
  6
CONTINUOUS
 62
    7
 10
587.8833902665499
 20
1247.74225
 11
592.8833902665499
 21
1248.9922500000002
  0
LINE
  8
_0-a_寸法
  6
CONTINUOUS
 62
    7
 10
587.8833902665499
 20
1247.74225
 11
592.8833902665499
 21
1246.4922500000002
  0
LINE
  8
_0-a_寸法
  6
CONTINUOUS
 62
    7
 10
627.94269526654989
 20
1247.74225
 11
622.94269526654989
 21
1246.4922500000002
  0
LINE
  8
_0-a_寸法
  6
CONTINUOUS
 62
    7
 10
627.94269526654989
 20
1247.74225
 11
622.94269526654989
 21
1248.9922500000002
  0
LINE
  8
_0-a_寸法
  6
CONTINUOUS
 62
    7
 10
627.94269526654989
 20
1247.74225
 11
687.8833902665499
 21
1247.74225
  0
LINE
  8
_0-a_寸法
  6
CONTINUOUS
 62
    7
 10
687.8833902665499
 20
1270.5221650000001
 11
687.8833902665499
 21
1243.7422500000002
  0
LINE
  8
_0-a_寸法
  6
CONTINUOUS
 62
    7
 10
627.94269526654989
 20
1247.74225
 11
632.94269526654989
 21
1248.9922500000002
  0
LINE
  8
_0-a_寸法
  6
CONTINUOUS
 62
    7
 10
627.94269526654989
 20
1247.74225
 11
632.94269526654989
 21
1246.4922500000002
  0
LINE
  8
_0-a_寸法
  6
CONTINUOUS
 62
    7
 10
687.8833902665499
 20
1247.74225
 11
682.8833902665499
 21
1246.4922500000002
  0
LINE
  8
_0-a_寸法
  6
CONTINUOUS
 62
    7
 10
687.8833902665499
 20
1247.74225
 11
682.8833902665499
 21
1248.9922500000002
  0
LINE
  8
_0-a_寸法
  6
CONTINUOUS
 62
    7
 10
687.8833902665499
 20
1247.74225
 11
692.8833902665499
 21
1248.9922500000002
  0
LINE
  8
_0-a_寸法
  6
CONTINUOUS
 62
    7
 10
687.8833902665499
 20
1247.74225
 11
692.8833902665499
 21
1246.4922500000002
  0
LINE
  8
_0-a_寸法
  6
CONTINUOUS
 62
    7
 10
687.88338026654992
 20
1272.8829000000001
 11
697.8833902665499
 21
1272.8829000000001
  0
LINE
  8
_0-a_寸法
  6
CONTINUOUS
 62
    7
 10
697.8833902665499
 20
1353.462505
 11
697.8833902665499
 21
1268.8829000000001
  0
LINE
  8
_0-a_寸法
  6
CONTINUOUS
 62
    7
 10
687.88338026654992
 20
1272.8829000000001
 11
682.88338026654992
 21
1271.6329000000001
  0
LINE
  8
_0-a_寸法
  6
CONTINUOUS
 62
    7
 10
687.88338026654992
 20
1272.8829000000001
 11
682.88338026654992
 21
1274.1329000000001
  0
LINE
  8
_0-a_寸法
  6
CONTINUOUS
 62
    7
 10
687.88338026654992
 20
1272.8829000000001
 11
672.88338026654992
 21
1272.8829000000001
  0
LINE
  8
_0-a_寸法
  6
CONTINUOUS
 62
    7
 10
697.8833902665499
 20
1272.8829000000001
 11
702.8833902665499
 21
1274.1329000000001
  0
LINE
  8
_0-a_寸法
  6
CONTINUOUS
 62
    7
 10
697.8833902665499
 20
1272.8829000000001
 11
702.8833902665499
 21
1271.6329000000001
  0
LINE
  8
_0-a_寸法
  6
CONTINUOUS
 62
    7
 10
697.8833902665499
 20
1272.8829000000001
 11
712.8833902665499
 21
1272.8829000000001
  0
LINE
  8
_0-a_寸法
  6
CONTINUOUS
 62
    7
 10
597.8833902665499
 20
1379.212505
 11
597.8833902665499
 21
1439.2895600000002
  0
LINE
  8
_0-a_寸法
  6
CONTINUOUS
 62
    7
 10
597.8833902665499
 20
1434.2895600000002
 11
602.8833902665499
 21
1435.5395599999999
  0
LINE
  8
_0-a_寸法
  6
CONTINUOUS
 62
    7
 10
597.8833902665499
 20
1434.2895600000002
 11
602.8833902665499
 21
1433.0395599999999
  0
LINE
  8
_0-a_寸法
  6
CONTINUOUS
 62
    7
 10
597.8833902665499
 20
1410.5658250000001
 11
697.8833902665499
 21
1410.5658250000001
  0
LINE
  8
_0-a_寸法
  6
CONTINUOUS
 62
    7
 10
697.8833902665499
 20
1378.462505
 11
697.8833902665499
 21
1414.5658250000001
  0
LINE
  8
_0-a_寸法
  6
CONTINUOUS
 62
    7
 10
597.8833902665499
 20
1410.5658250000001
 11
602.8833902665499
 21
1411.8158249999999
  0
LINE
  8
_0-a_寸法
  6
CONTINUOUS
 62
    7
 10
597.8833902665499
 20
1410.5658250000001
 11
602.8833902665499
 21
1409.3158250000001
  0
LINE
  8
_0-a_寸法
  6
CONTINUOUS
 62
    7
 10
697.8833902665499
 20
1410.5658250000001
 11
692.8833902665499
 21
1409.3158250000001
  0
LINE
  8
_0-a_寸法
  6
CONTINUOUS
 62
    7
 10
697.8833902665499
 20
1410.5658250000001
 11
692.8833902665499
 21
1411.8158249999999
  0
LINE
  8
_0-a_寸法
  6
CONTINUOUS
 62
    7
 10
697.8833902665499
 20
1410.5658250000001
 11
702.8833902665499
 21
1411.8158249999999
  0
LINE
  8
_0-a_寸法
  6
CONTINUOUS
 62
    7
 10
697.8833902665499
 20
1410.5658250000001
 11
702.8833902665499
 21
1409.3158250000001
  0
LINE
  8
_0-a_寸法
  6
CONTINUOUS
 62
    7
 10
627.94269526654989
 20
1359.6141749999997
 11
612.15010526654987
 21
1332.2606049999999
  0
CIRCLE
  8
_0-a_寸法
  6
CONTINUOUS
 62
    7
 10
608.40010526654987
 20
1325.7654150000001
 40
7.5
  0
LINE
  8
_0-a_寸法
  6
CONTINUOUS
 62
    7
 10
533.69163026654996
 20
1377.962505
 11
533.69163026654996
 21
1353.462505
  0
LINE
  8
_0-a_寸法
  6
CONTINUOUS
 62
    7
 10
550.88339026655001
 20
1377.962505
 11
529.69163026654985
 21
1377.962505
  0
LINE
  8
_0-a_寸法
  6
CONTINUOUS
 62
    7
 10
550.88339026655001
 20
1353.462505
 11
529.69163026654985
 21
1353.462505
  0
LINE
  8
_0-a_寸法
  6
CONTINUOUS
 62
    7
 10
533.69163026654996
 20
1377.962505
 11
534.94163026654985
 21
1372.962505
  0
LINE
  8
_0-a_寸法
  6
CONTINUOUS
 62
    7
 10
533.69163026654996
 20
1377.962505
 11
532.44163026654974
 21
1372.962505
  0
LINE
  8
_0-a_寸法
  6
CONTINUOUS
 62
    7
 10
533.69163026654996
 20
1353.462505
 11
532.44163026654974
 21
1358.462505
  0
LINE
  8
_0-a_寸法
  6
CONTINUOUS
 62
    7
 10
533.69163026654996
 20
1353.462505
 11
534.94163026654985
 21
1358.462505
  0
LINE
  8
_0-a_寸法
  6
CONTINUOUS
 62
    7
 10
533.69163026654996
 20
1353.462505
 11
533.69163026654996
 21
1343.462505
  0
LINE
  8
_0-a_寸法
  6
CONTINUOUS
 62
    7
 10
565.88338026654992
 20
1343.462505
 11
529.69163026654985
 21
1343.462505
  0
LINE
  8
_0-a_寸法
  6
CONTINUOUS
 62
    7
 10
533.69163026654996
 20
1343.462505
 11
534.94163026654985
 21
1338.4625050000002
  0
LINE
  8
_0-a_寸法
  6
CONTINUOUS
 62
    7
 10
533.69163026654996
 20
1343.462505
 11
532.44163026654974
 21
1338.4625050000002
  0
LINE
  8
_0-a_寸法
  6
CONTINUOUS
 62
    7
 10
533.69163026654996
 20
1343.462505
 11
533.69163026654996
 21
1328.462505
  0
LINE
  8
_0-a_寸法
  6
CONTINUOUS
 62
    7
 10
636.32026026654989
 20
1357.9378750000001
 11
655.10689526654983
 21
1325.398465
  0
CIRCLE
  8
_0-a_寸法
  6
CONTINUOUS
 62
    7
 10
658.85689526654983
 20
1318.9032750000001
 40
7.5
  0
LINE
  8
_0-a_寸法
  6
CONTINUOUS
 62
    7
 10
937.88339526654988
 20
1270.5221650000001
 11
937.88339526654988
 21
1243.7422500000002
  0
LINE
  8
_0-a_寸法
  6
CONTINUOUS
 62
    7
 10
937.88339526654988
 20
1247.74225
 11
997.88339026655001
 21
1247.74225
  0
LINE
  8
_0-a_寸法
  6
CONTINUOUS
 62
    7
 10
997.88339026655001
 20
1307.7787700000001
 11
997.88339026655001
 21
1243.7422500000002
  0
LINE
  8
_0-a_寸法
  6
CONTINUOUS
 62
    7
 10
937.88339526654988
 20
1247.74225
 11
942.88339526654988
 21
1248.9922500000002
  0
LINE
  8
_0-a_寸法
  6
CONTINUOUS
 62
    7
 10
937.88339526654988
 20
1247.74225
 11
942.88339526654988
 21
1246.4922500000002
  0
LINE
  8
_0-a_寸法
  6
CONTINUOUS
 62
    7
 10
997.88339026655001
 20
1247.74225
 11
992.8833902665499
 21
1246.4922500000002
  0
LINE
  8
_0-a_寸法
  6
CONTINUOUS
 62
    7
 10
997.88339026655001
 20
1247.74225
 11
992.8833902665499
 21
1248.9922500000002
  0
LINE
  8
_0-a_寸法
  6
CONTINUOUS
 62
    7
 10
997.88339026655001
 20
1247.74225
 11
1037.8833902665499
 21
1247.74225
  0
LINE
  8
_0-a_寸法
  6
CONTINUOUS
 62
    7
 10
1037.8833902665499
 20
1307.7787700000001
 11
1037.8833902665499
 21
1243.7422500000002
  0
LINE
  8
_0-a_寸法
  6
CONTINUOUS
 62
    7
 10
997.88339026655001
 20
1247.74225
 11
1002.8833902665499
 21
1248.9922500000002
  0
LINE
  8
_0-a_寸法
  6
CONTINUOUS
 62
    7
 10
997.88339026655001
 20
1247.74225
 11
1002.8833902665499
 21
1246.4922500000002
  0
LINE
  8
_0-a_寸法
  6
CONTINUOUS
 62
    7
 10
1037.8833902665499
 20
1247.74225
 11
1032.8833902665501
 21
1246.4922500000002
  0
LINE
  8
_0-a_寸法
  6
CONTINUOUS
 62
    7
 10
1037.8833902665499
 20
1247.74225
 11
1032.8833902665501
 21
1248.9922500000002
  0
LINE
  8
_0-a_寸法
  6
CONTINUOUS
 62
    7
 10
1027.8833902665499
 20
1379.212505
 11
1027.8833902665499
 21
1439.2895600000002
  0
LINE
  8
_0-a_寸法
  6
CONTINUOUS
 62
    7
 10
1027.8833902665499
 20
1434.2895600000002
 11
1022.8833902665499
 21
1433.0395599999999
  0
LINE
  8
_0-a_寸法
  6
CONTINUOUS
 62
    7
 10
1027.8833902665499
 20
1434.2895600000002
 11
1022.8833902665499
 21
1435.5395599999999
  0
LINE
  8
_0-a_寸法
  6
CONTINUOUS
 62
    7
 10
927.88339026655001
 20
1378.462505
 11
927.88339026655001
 21
1414.5658250000001
  0
LINE
  8
_0-a_寸法
  6
CONTINUOUS
 62
    7
 10
927.88339026655001
 20
1410.5658250000001
 11
922.8833902665499
 21
1409.3158250000001
  0
LINE
  8
_0-a_寸法
  6
CONTINUOUS
 62
    7
 10
927.88339026655001
 20
1410.5658250000001
 11
922.8833902665499
 21
1411.8158249999999
  0
LINE
  8
_0-a_寸法
  6
CONTINUOUS
 62
    7
 10
927.88339026655001
 20
1410.5658250000001
 11
1027.8833902665499
 21
1410.5658250000001
  0
LINE
  8
_0-a_寸法
  6
CONTINUOUS
 62
    7
 10
927.88339026655001
 20
1410.5658250000001
 11
932.8833902665499
 21
1411.8158249999999
  0
LINE
  8
_0-a_寸法
  6
CONTINUOUS
 62
    7
 10
927.88339026655001
 20
1410.5658250000001
 11
932.8833902665499
 21
1409.3158250000001
  0
LINE
  8
_0-a_寸法
  6
CONTINUOUS
 62
    7
 10
1027.8833902665499
 20
1410.5658250000001
 11
1022.8833902665499
 21
1409.3158250000001
  0
LINE
  8
_0-a_寸法
  6
CONTINUOUS
 62
    7
 10
1027.8833902665499
 20
1410.5658250000001
 11
1022.8833902665499
 21
1411.8158249999999
  0
LINE
  8
_0-a_寸法
  6
CONTINUOUS
 62
    7
 10
937.88340026654998
 20
1272.8829000000001
 11
927.88339026655001
 21
1272.8829000000001
  0
LINE
  8
_0-a_寸法
  6
CONTINUOUS
 62
    7
 10
927.88339026655001
 20
1353.462505
 11
927.88339026655001
 21
1268.8829000000001
  0
LINE
  8
_0-a_寸法
  6
CONTINUOUS
 62
    7
 10
937.88340026654998
 20
1272.8829000000001
 11
942.88340026654987
 21
1274.1329000000001
  0
LINE
  8
_0-a_寸法
  6
CONTINUOUS
 62
    7
 10
937.88340026654998
 20
1272.8829000000001
 11
942.88340026654987
 21
1271.6329000000001
  0
LINE
  8
_0-a_寸法
  6
CONTINUOUS
 62
    7
 10
937.88340026654998
 20
1272.8829000000001
 11
952.88340026654976
 21
1272.8829000000001
  0
LINE
  8
_0-a_寸法
  6
CONTINUOUS
 62
    7
 10
927.88339026655001
 20
1272.8829000000001
 11
922.8833902665499
 21
1271.6329000000001
  0
LINE
  8
_0-a_寸法
  6
CONTINUOUS
 62
    7
 10
927.88339026655001
 20
1272.8829000000001
 11
922.8833902665499
 21
1274.1329000000001
  0
LINE
  8
_0-a_寸法
  6
CONTINUOUS
 62
    7
 10
927.88339026655001
 20
1272.8829000000001
 11
912.8833902665499
 21
1272.8829000000001
  0
LINE
  8
_0-a_寸法
  6
CONTINUOUS
 62
    7
 10
597.8833902665499
 20
1434.2895600000002
 11
1027.8833902665499
 21
1434.2895600000002
  0
LINE
  8
_0-a_寸法
  6
CONTINUOUS
 62
    7
 10
697.8833902665499
 20
1410.5658250000001
 11
927.88339026655001
 21
1410.5658250000001
  0
LINE
  8
_0-a_寸法
  6
CONTINUOUS
 62
    7
 10
687.8833902665499
 20
1247.74225
 11
937.88339526654988
 21
1247.74225
  0
LINE
  8
_0-a_寸法
  6
CONTINUOUS
 62
    7
 10
1047.5804402665499
 20
1348.9208800000001
 11
1072.8395152665501
 21
1305.1708800000001
  0
LINE
  8
_0-a_寸法
  6
CONTINUOUS
 62
    7
 10
705.56554736254998
 20
1307.6599389651001
 11
715.33990736254987
 21
1324.5896239650999
  0
CIRCLE
  8
_0-a_寸法
  6
CONTINUOUS
 62
    7
 10
719.08990736254987
 20
1331.0848189650999
 40
7.5
  0
CIRCLE
  8
_0-a_寸法
  6
CONTINUOUS
 62
    7
 10
705.56554736254998
 20
1307.6599389651001
 40
1
  0
TEXT
  8
_0-a_寸法
 62
    7
 10
637.3833902665499
 20
1410.5658250000001
 40
14
 41
1
 50
0
  1
100
  0
TEXT
  8
_0-a_寸法
 62
    7
 10
802.3833902665499
 20
1410.5658250000001
 40
14
 41
1
 50
0
  1
230
  0
TEXT
  8
_0-a_寸法
 62
    7
 10
967.38339026654978
 20
1410.5658250000001
 40
14
 41
1
 50
0
  1
100
  0
TEXT
  8
_0-a_寸法
 62
    7
 10
665.88338026654992
 20
1272.8829000000001
 40
14
 41
1
 50
0
  1
10
  0
TEXT
  8
_0-a_寸法
 62
    7
 10
945.88340026654976
 20
1272.8829000000001
 40
14
 41
1
 50
0
  1
10
  0
TEXT
  8
_0-a_寸法
 62
    7
 10
600.91304276654989
 20
1247.74225
 40
14
 41
1
 50
0
  1
40
  0
TEXT
  8
_0-a_寸法
 62
    7
 10
650.91304276654989
 20
1247.74225
 40
14
 41
1
 50
0
  1
60
  0
TEXT
  8
_0-a_寸法
 62
    7
 10
802.38339276654983
 20
1247.74225
 40
14
 41
1
 50
0
  1
250
  0
TEXT
  8
_0-a_寸法
 62
    7
 10
960.85373776655001
 20
1247.74225
 40
14
 41
1
 50
0
  1
60
  0
TEXT
  8
_0-a_寸法
 62
    7
 10
1010.8537377665498
 20
1247.74225
 40
14
 41
1
 50
0
  1
40
  0
TEXT
  8
_0-a_寸法
 62
    7
 10
1072.8395152665501
 20
1305.1708800000001
 40
14
 41
1
 50
0
  1
ならしモルタル（別途）
  0
LINE
  8
_0-a_寸法
  6
CONTINUOUS
 62
    7
 10
1072.8395152665501
 20
1305.1708800000001
 11
1221.51869888995
 21
1305.1708800000001
  0
TEXT
  8
_0-a_寸法
 62
    7
 10
802.3833902665499
 20
1434.2895600000002
 40
14
 41
1
 50
0
  1
430
  0
LINE
  8
_0-a_寸法
  6
CONTINUOUS
 62
    7
 10
1532.8833902665499
 20
1244.2426750000002
 11
1572.8833902665499
 21
1244.2426750000002
  0
LINE
  8
_0-a_寸法
  6
CONTINUOUS
 62
    7
 10
1532.8833902665499
 20
1307.2787700000001
 11
1532.8833902665499
 21
1239.242675
  0
LINE
  8
_0-a_寸法
  6
CONTINUOUS
 62
    7
 10
1572.8833902665499
 20
1307.2787700000001
 11
1572.8833902665499
 21
1239.242675
  0
LINE
  8
_0-a_寸法
  6
CONTINUOUS
 62
    7
 10
1532.8833902665499
 20
1244.2426750000002
 11
1537.8833902665499
 21
1245.492675
  0
LINE
  8
_0-a_寸法
  6
CONTINUOUS
 62
    7
 10
1532.8833902665499
 20
1244.2426750000002
 11
1537.8833902665499
 21
1242.992675
  0
LINE
  8
_0-a_寸法
  6
CONTINUOUS
 62
    7
 10
1572.8833902665499
 20
1244.2426750000002
 11
1567.8833902665499
 21
1242.992675
  0
LINE
  8
_0-a_寸法
  6
CONTINUOUS
 62
    7
 10
1572.8833902665499
 20
1244.2426750000002
 11
1567.8833902665499
 21
1245.492675
  0
LINE
  8
_0-a_寸法
  6
CONTINUOUS
 62
    7
 10
1572.8833902665499
 20
1244.2426750000002
 11
1632.8833902665499
 21
1244.2426750000002
  0
LINE
  8
_0-a_寸法
  6
CONTINUOUS
 62
    7
 10
1632.8833902665499
 20
1263.2732100000001
 11
1632.8833902665499
 21
1239.242675
  0
LINE
  8
_0-a_寸法
  6
CONTINUOUS
 62
    7
 10
1572.8833902665499
 20
1244.2426750000002
 11
1577.8833902665499
 21
1245.492675
  0
LINE
  8
_0-a_寸法
  6
CONTINUOUS
 62
    7
 10
1572.8833902665499
 20
1244.2426750000002
 11
1577.8833902665499
 21
1242.992675
  0
LINE
  8
_0-a_寸法
  6
CONTINUOUS
 62
    7
 10
1632.8833902665499
 20
1244.2426750000002
 11
1627.8833902665499
 21
1242.992675
  0
LINE
  8
_0-a_寸法
  6
CONTINUOUS
 62
    7
 10
1632.8833902665499
 20
1244.2426750000002
 11
1627.8833902665499
 21
1245.492675
  0
LINE
  8
_0-a_寸法
  6
CONTINUOUS
 62
    7
 10
1632.8833902665499
 20
1244.2426750000002
 11
1637.8833902665499
 21
1245.492675
  0
LINE
  8
_0-a_寸法
  6
CONTINUOUS
 62
    7
 10
1632.8833902665499
 20
1244.2426750000002
 11
1637.8833902665499
 21
1242.992675
  0
LINE
  8
_0-a_寸法
  6
CONTINUOUS
 62
    7
 10
1632.8833902665499
 20
1265.7732100000001
 11
1642.8833902665499
 21
1265.7732100000001
  0
LINE
  8
_0-a_寸法
  6
CONTINUOUS
 62
    7
 10
1642.8833902665499
 20
1352.962505
 11
1642.8833902665499
 21
1260.7732100000001
  0
LINE
  8
_0-a_寸法
  6
CONTINUOUS
 62
    7
 10
1632.8833902665499
 20
1265.7732100000001
 11
1627.8833902665499
 21
1264.5232100000001
  0
LINE
  8
_0-a_寸法
  6
CONTINUOUS
 62
    7
 10
1632.8833902665499
 20
1265.7732100000001
 11
1627.8833902665499
 21
1267.0232100000001
  0
LINE
  8
_0-a_寸法
  6
CONTINUOUS
 62
    7
 10
1632.8833902665499
 20
1265.7732100000001
 11
1617.8833902665499
 21
1265.7732100000001
  0
LINE
  8
_0-a_寸法
  6
CONTINUOUS
 62
    7
 10
1642.8833902665499
 20
1265.7732100000001
 11
1647.8833902665499
 21
1267.0232100000001
  0
LINE
  8
_0-a_寸法
  6
CONTINUOUS
 62
    7
 10
1642.8833902665499
 20
1265.7732100000001
 11
1647.8833902665499
 21
1264.5232100000001
  0
LINE
  8
_0-a_寸法
  6
CONTINUOUS
 62
    7
 10
1642.8833902665499
 20
1265.7732100000001
 11
1657.8833902665499
 21
1265.7732100000001
  0
LINE
  8
_0-a_寸法
  6
CONTINUOUS
 62
    7
 10
1469.15984026655
 20
1438.462505
 11
1469.15984026655
 21
1377.962505
  0
LINE
  8
_0-a_寸法
  6
CONTINUOUS
 62
    7
 10
1487.8475152665499
 20
1377.962505
 11
1464.15984026655
 21
1377.962505
  0
LINE
  8
_0-a_寸法
  6
CONTINUOUS
 62
    7
 10
1469.15984026655
 20
1438.462505
 11
1470.40984026655
 21
1433.462505
  0
LINE
  8
_0-a_寸法
  6
CONTINUOUS
 62
    7
 10
1469.15984026655
 20
1438.462505
 11
1467.90984026655
 21
1433.462505
  0
LINE
  8
_0-a_寸法
  6
CONTINUOUS
 62
    7
 10
1469.15984026655
 20
1377.962505
 11
1467.90984026655
 21
1382.962505
  0
LINE
  8
_0-a_寸法
  6
CONTINUOUS
 62
    7
 10
1469.15984026655
 20
1377.962505
 11
1470.40984026655
 21
1382.962505
  0
LINE
  8
_0-a_寸法
  6
CONTINUOUS
 62
    7
 10
1469.15984026655
 20
1377.962505
 11
1469.15984026655
 21
1353.462505
  0
LINE
  8
_0-a_寸法
  6
CONTINUOUS
 62
    7
 10
1487.8475152665499
 20
1353.462505
 11
1464.15984026655
 21
1353.462505
  0
LINE
  8
_0-a_寸法
  6
CONTINUOUS
 62
    7
 10
1469.15984026655
 20
1377.962505
 11
1470.40984026655
 21
1372.962505
  0
LINE
  8
_0-a_寸法
  6
CONTINUOUS
 62
    7
 10
1469.15984026655
 20
1377.962505
 11
1467.90984026655
 21
1372.962505
  0
LINE
  8
_0-a_寸法
  6
CONTINUOUS
 62
    7
 10
1469.15984026655
 20
1353.462505
 11
1467.90984026655
 21
1358.462505
  0
LINE
  8
_0-a_寸法
  6
CONTINUOUS
 62
    7
 10
1469.15984026655
 20
1353.462505
 11
1470.40984026655
 21
1358.462505
  0
LINE
  8
_0-a_寸法
  6
CONTINUOUS
 62
    7
 10
1469.15984026655
 20
1353.462505
 11
1469.15984026655
 21
1343.462505
  0
LINE
  8
_0-a_寸法
  6
CONTINUOUS
 62
    7
 10
1510.3833902665499
 20
1343.462505
 11
1464.15984026655
 21
1343.462505
  0
LINE
  8
_0-a_寸法
  6
CONTINUOUS
 62
    7
 10
1469.15984026655
 20
1343.462505
 11
1470.40984026655
 21
1338.4625050000002
  0
LINE
  8
_0-a_寸法
  6
CONTINUOUS
 62
    7
 10
1469.15984026655
 20
1343.462505
 11
1467.90984026655
 21
1338.4625050000002
  0
LINE
  8
_0-a_寸法
  6
CONTINUOUS
 62
    7
 10
1469.15984026655
 20
1343.462505
 11
1469.15984026655
 21
1328.462505
  0
LINE
  8
_0-a_寸法
  6
CONTINUOUS
 62
    7
 10
1542.8833902665499
 20
1379.712505
 11
1542.8833902665499
 21
1483.537495
  0
LINE
  8
_0-a_寸法
  6
CONTINUOUS
 62
    7
 10
1542.8833902665499
 20
1478.537495
 11
1547.8833902665499
 21
1479.787495
  0
LINE
  8
_0-a_寸法
  6
CONTINUOUS
 62
    7
 10
1542.8833902665499
 20
1478.537495
 11
1547.8833902665499
 21
1477.2874949999998
  0
LINE
  8
_0-a_寸法
  6
CONTINUOUS
 62
    7
 10
1542.8833902665499
 20
1455.6758750000001
 11
1642.8833902665499
 21
1455.6758750000001
  0
LINE
  8
_0-a_寸法
  6
CONTINUOUS
 62
    7
 10
1642.8833902665499
 20
1378.962505
 11
1642.8833902665499
 21
1460.6758750000001
  0
LINE
  8
_0-a_寸法
  6
CONTINUOUS
 62
    7
 10
1542.8833902665499
 20
1455.6758750000001
 11
1547.8833902665499
 21
1456.9258750000004
  0
LINE
  8
_0-a_寸法
  6
CONTINUOUS
 62
    7
 10
1542.8833902665499
 20
1455.6758750000001
 11
1547.8833902665499
 21
1454.4258749999999
  0
LINE
  8
_0-a_寸法
  6
CONTINUOUS
 62
    7
 10
1642.8833902665499
 20
1455.6758750000001
 11
1637.8833902665499
 21
1454.4258749999999
  0
LINE
  8
_0-a_寸法
  6
CONTINUOUS
 62
    7
 10
1642.8833902665499
 20
1455.6758750000001
 11
1637.8833902665499
 21
1456.9258750000004
  0
LINE
  8
_0-a_寸法
  6
CONTINUOUS
 62
    7
 10
1642.8833902665499
 20
1455.6758750000001
 11
1647.8833902665499
 21
1456.9258750000004
  0
LINE
  8
_0-a_寸法
  6
CONTINUOUS
 62
    7
 10
1642.8833902665499
 20
1455.6758750000001
 11
1647.8833902665499
 21
1454.4258749999999
  0
LINE
  8
_0-a_寸法
  6
CONTINUOUS
 62
    7
 10
1579.4000302665499
 20
1357.728865
 11
1598.3891702665499
 21
1324.8387050000001
  0
CIRCLE
  8
_0-a_寸法
  6
CONTINUOUS
 62
    7
 10
1602.1391702665499
 20
1318.343515
 40
7.5
  0
LINE
  8
_0-a_寸法
  6
CONTINUOUS
 62
    7
 10
1572.9625752665499
 20
1360.801285
 11
1556.7870052665498
 21
1332.7843700000001
  0
CIRCLE
  8
_0-a_寸法
  6
CONTINUOUS
 62
    7
 10
1553.0370052665498
 20
1326.28918
 40
7.5
  0
LINE
  8
_0-a_寸法
  6
CONTINUOUS
 62
    7
 10
1518.9731102665498
 20
1347.4331
 11
1492.6315002665499
 21
1301.8081
  0
LINE
  8
_0-a_寸法
  6
CONTINUOUS
 62
    7
 10
1490.3475152665499
 20
1353.462505
 11
1632.8833902665499
 21
1353.462505
  0
LINE
  8
_0-a_寸法
  6
CONTINUOUS
 62
    7
 10
1882.8833902665497
 20
1447.7193600000001
 11
1882.8833902665497
 21
1483.537495
  0
LINE
  8
_0-a_寸法
  6
CONTINUOUS
 62
    7
 10
1882.8833902665497
 20
1478.537495
 11
1877.8833902665501
 21
1477.2874949999998
  0
LINE
  8
_0-a_寸法
  6
CONTINUOUS
 62
    7
 10
1882.8833902665497
 20
1478.537495
 11
1877.8833902665501
 21
1479.787495
  0
LINE
  8
_0-a_寸法
  6
CONTINUOUS
 62
    7
 10
1862.8833952665498
 20
1438.462505
 11
1862.8833952665498
 21
1460.6758750000001
  0
LINE
  8
_0-a_寸法
  6
CONTINUOUS
 62
    7
 10
1862.8833952665498
 20
1455.6758750000001
 11
1857.8833952665502
 21
1454.4258749999999
  0
LINE
  8
_0-a_寸法
  6
CONTINUOUS
 62
    7
 10
1862.8833952665498
 20
1455.6758750000001
 11
1857.8833952665502
 21
1456.9258750000004
  0
LINE
  8
_0-a_寸法
  6
CONTINUOUS
 62
    7
 10
1862.8833952665498
 20
1455.6758750000001
 11
1882.8833902665497
 21
1455.6758750000001
  0
LINE
  8
_0-a_寸法
  6
CONTINUOUS
 62
    7
 10
1882.8833902665497
 20
1455.6758750000001
 11
1887.8833902665497
 21
1456.9258750000004
  0
LINE
  8
_0-a_寸法
  6
CONTINUOUS
 62
    7
 10
1882.8833902665497
 20
1455.6758750000001
 11
1887.8833902665497
 21
1454.4258749999999
  0
LINE
  8
_0-a_寸法
  6
CONTINUOUS
 62
    7
 10
1882.8833902665497
 20
1455.6758750000001
 11
1897.8833902665499
 21
1455.6758750000001
  0
LINE
  8
_0-a_寸法
  6
CONTINUOUS
 62
    7
 10
1949.8384752665497
 20
1381.462505
 11
1949.8384752665497
 21
1353.462505
  0
LINE
  8
_0-a_寸法
  6
CONTINUOUS
 62
    7
 10
1929.76712526655
 20
1381.462505
 11
1954.8384752665502
 21
1381.462505
  0
LINE
  8
_0-a_寸法
  6
CONTINUOUS
 62
    7
 10
1949.8384752665497
 20
1381.462505
 11
1951.0884752665497
 21
1376.462505
  0
LINE
  8
_0-a_寸法
  6
CONTINUOUS
 62
    7
 10
1949.8384752665497
 20
1381.462505
 11
1948.5884752665499
 21
1376.462505
  0
LINE
  8
_0-a_寸法
  6
CONTINUOUS
 62
    7
 10
1949.8384752665497
 20
1353.462505
 11
1948.5884752665499
 21
1358.462505
  0
LINE
  8
_0-a_寸法
  6
CONTINUOUS
 62
    7
 10
1949.8384752665497
 20
1353.462505
 11
1951.0884752665497
 21
1358.462505
  0
LINE
  8
_0-a_寸法
  6
CONTINUOUS
 62
    7
 10
1877.93097026655
 20
1381.0366049999998
 11
1902.89705026655
 21
1406.0026849999999
  0
CIRCLE
  8
_0-a_寸法
  6
CONTINUOUS
 62
    7
 10
1908.20035026655
 20
1411.305985
 40
7.5
  0
LINE
  8
_0-a_寸法
  6
CONTINUOUS
 62
    7
 10
1632.8833902665499
 20
1244.2426750000002
 11
1882.8833902665497
 21
1244.2426750000002
  0
LINE
  8
_0-a_寸法
  6
CONTINUOUS
 62
    7
 10
1542.8833902665499
 20
1478.537495
 11
1882.8833902665497
 21
1478.537495
  0
LINE
  8
_0-a_寸法
  6
CONTINUOUS
 62
    7
 10
1642.8833902665499
 20
1455.6758750000001
 11
1862.8833952665498
 21
1455.6758750000001
  0
LINE
  8
_0-a_寸法
  6
CONTINUOUS
 62
    7
 10
1862.8833952665498
 20
1438.462505
 11
1464.15984026655
 21
1438.462505
  0
LINE
  8
_0-a_寸法
  6
CONTINUOUS
 62
    7
 10
1652.44377942655
 20
1306.1254734690999
 11
1662.99031442655
 21
1324.3926084691
  0
CIRCLE
  8
_0-a_寸法
  6
CONTINUOUS
 62
    7
 10
1666.74031442655
 20
1330.8877984691001
 40
7.5
  0
TEXT
  8
_0-a_寸法
 62
    7
 10
1582.3833902665499
 20
1455.6758750000001
 40
14
 41
1
 50
0
  1
100
  0
TEXT
  8
_0-a_寸法
 62
    7
 10
1865.8833927665498
 20
1455.6758750000001
 40
14
 41
1
 50
0
  1
20
  0
TEXT
  8
_0-a_寸法
 62
    7
 10
1469.1598406335499
 20
1401.212505
 40
14
 41
1
 50
90.000003000000007
  1
60
  0
TEXT
  8
_0-a_寸法
 62
    7
 10
1469.1598406335499
 20
1358.712505
 40
14
 41
1
 50
90.000003000000007
  1
25
  0
TEXT
  8
_0-a_寸法
 62
    7
 10
1469.1598406335499
 20
1328.962505
 40
14
 41
1
 50
90.000003000000007
  1
10
  0
TEXT
  8
_0-a_寸法
 62
    7
 10
1949.8384756335499
 20
1360.462505
 40
14
 41
1
 50
90.000003000000149
  1
28
  0
TEXT
  8
_0-a_寸法
 62
    7
 10
1618.3833902665499
 20
1265.7732100000001
 40
14
 41
1
 50
0
  1
10
  0
TEXT
  8
_0-a_寸法
 62
    7
 10
1595.8833902665499
 20
1244.2426750000002
 40
14
 41
1
 50
0
  1
60
  0
TEXT
  8
_0-a_寸法
 62
    7
 10
1545.8833902665499
 20
1244.2426750000002
 40
14
 41
1
 50
0
  1
40
  0
TEXT
  8
_0-a_寸法
 62
    7
 10
1338.6315002665499
 20
1301.8081
 40
14
 41
1
 50
0
  1
ならしモルタル（別途）
  0
LINE
  8
_0-a_寸法
  6
CONTINUOUS
 62
    7
 10
1492.6315002665499
 20
1301.8081
 11
1336.59949694025
 21
1301.8081
  0
TEXT
  8
_0-a_寸法
 62
    7
 10
1747.3833902665499
 20
1244.2426750000002
 40
14
 41
1
 50
0
  1
250
  0
TEXT
  8
_0-a_寸法
 62
    7
 10
1702.3833902665497
 20
1478.537495
 40
14
 41
1
 50
0
  1
340
  0
TEXT
  8
_0-a_寸法
 62
    7
 10
1742.3833927665498
 20
1455.6758750000001
 40
14
 41
1
 50
0
  1
220
  0
LINE
  8
_0-a_寸法
  6
CONTINUOUS
 62
    7
 10
1633.5553102665499
 20
1353.462505
 11
1954.8384752665502
 21
1353.462505
  0
CIRCLE
  8
_0-a_寸法
  6
CONTINUOUS
 62
    7
 10
627.94269526654989
 20
1359.6141749999997
 40
1
  0
CIRCLE
  8
_0-a_寸法
  6
CONTINUOUS
 62
    7
 10
636.32026026654989
 20
1357.9378750000001
 40
1
  0
LINE
  8
_0-a_寸法
  6
CONTINUOUS
 62
    7
 10
937.88339526654988
 20
1247.74225
 11
932.88339526655
 21
1246.4922500000002
  0
LINE
  8
_0-a_寸法
  6
CONTINUOUS
 62
    7
 10
937.88339526654988
 20
1247.74225
 11
932.88339526655
 21
1248.9922500000002
  0
CIRCLE
  8
_0-a_寸法
  6
CONTINUOUS
 62
    7
 10
1047.5804402665499
 20
1348.9208800000001
 40
1.5
  0
CIRCLE
  8
_0-a_寸法
  6
CONTINUOUS
 62
    7
 10
1041.5037502665498
 20
1314.5834950000003
 40
1.5
  0
CIRCLE
  8
_0-a_寸法
  6
CONTINUOUS
 62
    7
 10
1579.4000302665499
 20
1357.728865
 40
1
  0
CIRCLE
  8
_0-a_寸法
  6
CONTINUOUS
 62
    7
 10
1572.9625752665499
 20
1360.801285
 40
1
  0
CIRCLE
  8
_0-a_寸法
  6
CONTINUOUS
 62
    7
 10
1518.9731102665498
 20
1347.4331
 40
1.5
  0
CIRCLE
  8
_0-a_寸法
  6
CONTINUOUS
 62
    7
 10
1527.8938052665499
 20
1326.6717200000001
 40
1.5
  0
LINE
  8
_0-a_寸法
  6
CONTINUOUS
 62
    7
 10
1882.8833902665497
 20
1263.2732100000001
 11
1882.8833902665497
 21
1239.242675
  0
LINE
  8
_0-a_寸法
  6
CONTINUOUS
 62
    7
 10
1882.8833902665497
 20
1244.2426750000002
 11
1877.8833902665501
 21
1242.992675
  0
LINE
  8
_0-a_寸法
  6
CONTINUOUS
 62
    7
 10
1882.8833902665497
 20
1244.2426750000002
 11
1877.8833902665501
 21
1245.492675
  0
CIRCLE
  8
_0-a_寸法
  6
CONTINUOUS
 62
    7
 10
1877.93097026655
 20
1381.0366049999998
 40
1
  0
CIRCLE
  8
_0-a_寸法
  6
CONTINUOUS
 62
    7
 10
1652.44377942655
 20
1306.1254734690999
 40
1
  0
LINE
  8
_0-3_躯体
  6
CONTINUOUS
 62
    7
 10
567.88338026654981
 20
1353.462505
 11
567.88338026654981
 21
1343.462505
  0
LINE
  8
_0-3_躯体
  6
CONTINUOUS
 62
    7
 10
567.88338026654981
 20
1343.462505
 11
687.88338026654992
 21
1343.462505
  0
LINE
  8
_0-3_躯体
  6
CONTINUOUS
 62
    7
 10
552.8833902665499
 20
1377.962505
 11
598.48485526654986
 21
1377.962505
  0
LINE
  8
_0-3_躯体
  6
CONTINUOUS
 62
    7
 10
937.88339526654988
 20
1272.5221649999999
 11
937.8833902665499
 21
1353.462505
  0
LINE
  8
_0-3_躯体
  6
CONTINUOUS
 62
    7
 10
1057.8834002665499
 20
1343.462505
 11
937.88340026654998
 21
1343.462505
  0
LINE
  8
_0-3_躯体
  6
CONTINUOUS
 62
    7
 10
1057.8834002665499
 20
1353.462505
 11
1057.8834002665499
 21
1343.462505
  0
LINE
  8
_0-3_躯体
  6
CONTINUOUS
 62
    7
 10
1632.8833902665499
 20
1265.7732100000001
 11
1632.8833902665499
 21
1353.462505
  0
LINE
  8
_0-3_躯体
  6
CONTINUOUS
 62
    7
 10
1512.8833902665499
 20
1343.462505
 11
1632.8833902665499
 21
1343.462505
  0
LINE
  8
_0-3_躯体
  6
CONTINUOUS
 62
    7
 10
1512.8833902665499
 20
1353.462505
 11
1512.8833902665499
 21
1343.462505
  0
LINE
  8
_0-3_躯体
  6
CONTINUOUS
 62
    7
 10
1882.8833902665497
 20
1265.7732100000001
 11
1882.8833902665497
 21
1445.2193600000001
  0
LINE
  8
_0-3_躯体
  6
CONTINUOUS
 62
    7
 10
1569.2437802665499
 20
1343.462505
 11
1579.2437802665499
 21
1353.462505
  0
LINE
  8
_0-3_躯体
  6
CONTINUOUS
 62
    7
 10
1576.3148502665499
 20
1343.462505
 11
1586.3148502665499
 21
1353.462505
  0
LINE
  8
_0-3_躯体
  6
CONTINUOUS
 62
    7
 10
1583.38591526655
 20
1343.462505
 11
1593.38591526655
 21
1353.462505
  0
LINE
  8
_0-3_躯体
  6
CONTINUOUS
 62
    7
 10
1590.45698526655
 20
1343.462505
 11
1600.45698526655
 21
1353.462505
  0
LINE
  8
_0-3_躯体
  6
CONTINUOUS
 62
    7
 10
1597.5280552665499
 20
1343.462505
 11
1607.5280552665499
 21
1353.462505
  0
LINE
  8
_0-3_躯体
  6
CONTINUOUS
 62
    7
 10
1604.5991202665498
 20
1343.462505
 11
1614.5991202665498
 21
1353.462505
  0
LINE
  8
_0-3_躯体
  6
CONTINUOUS
 62
    7
 10
1611.67019026655
 20
1343.462505
 11
1621.67019026655
 21
1353.462505
  0
LINE
  8
_0-3_躯体
  6
CONTINUOUS
 62
    7
 10
1618.7412552665498
 20
1343.462505
 11
1628.7412552665498
 21
1353.462505
  0
LINE
  8
_0-3_躯体
  6
CONTINUOUS
 62
    7
 10
1625.8123252665498
 20
1343.462505
 11
1632.8833902665499
 21
1350.5335749999999
  0
LINE
  8
_0-3_躯体
  6
CONTINUOUS
 62
    7
 10
1562.1727152665499
 20
1343.462505
 11
1572.1727152665499
 21
1353.462505
  0
LINE
  8
_0-3_躯体
  6
CONTINUOUS
 62
    7
 10
1555.1016452665499
 20
1343.462505
 11
1565.1016452665499
 21
1353.462505
  0
LINE
  8
_0-3_躯体
  6
CONTINUOUS
 62
    7
 10
1548.0305802665498
 20
1343.462505
 11
1558.0305802665498
 21
1353.462505
  0
LINE
  8
_0-3_躯体
  6
CONTINUOUS
 62
    7
 10
1540.9595102665498
 20
1343.462505
 11
1550.9595102665498
 21
1353.462505
  0
LINE
  8
_0-3_躯体
  6
CONTINUOUS
 62
    7
 10
1533.8884402665499
 20
1343.462505
 11
1543.8884402665499
 21
1353.462505
  0
LINE
  8
_0-3_躯体
  6
CONTINUOUS
 62
    7
 10
1526.8173752665498
 20
1343.462505
 11
1536.8173752665498
 21
1353.462505
  0
LINE
  8
_0-3_躯体
  6
CONTINUOUS
 62
    7
 10
1519.7463052665498
 20
1343.462505
 11
1529.7463052665498
 21
1353.462505
  0
LINE
  8
_0-3_躯体
  6
CONTINUOUS
 62
    7
 10
1512.8833902665499
 20
1343.6706600000002
 11
1522.67524026655
 21
1353.462505
  0
LINE
  8
_0-3_躯体
  6
CONTINUOUS
 62
    7
 10
1512.8833902665499
 20
1350.7417250000001
 11
1515.60417026655
 21
1353.462505
  0
LINE
  8
_0-3_躯体
  6
HIDDEN
 62
    7
 10
552.8833902665499
 20
1377.962505
 11
552.8833902665499
 21
1353.462505
  0
LINE
  8
_0-3_躯体
  6
HIDDEN
 62
    7
 10
687.8833902665499
 20
1272.5221649999999
 11
552.8833902665499
 21
1272.5221649999999
  0
LINE
  8
_0-3_躯体
  6
HIDDEN
 62
    7
 10
937.88339526654988
 20
1272.5221649999999
 11
1072.8833902665499
 21
1272.5221649999999
  0
LINE
  8
_0-3_躯体
  6
DOT_17
 62
    7
 10
1882.8833902665497
 20
1445.2193600000001
 11
1932.8833902665499
 21
1445.2193600000001
  0
LINE
  8
_0-3_躯体
  6
DOT_17
 62
    7
 10
1932.8833902665499
 20
1265.7732100000001
 11
1932.8833902665499
 21
1445.2193600000001
  0
LINE
  8
_0-3_躯体
  6
DOT_17
 62
    7
 10
1882.8833902665497
 20
1265.7732100000001
 11
1932.8833902665499
 21
1265.7732100000001
  0
LINE
  8
_0-3_躯体
  6
DOT_17
 62
    7
 10
1490.3475152665499
 20
1377.962505
 11
1490.3475152665499
 21
1265.7732100000001
  0
LINE
  8
_0-3_躯体
  6
DOT_17
 62
    7
 10
1632.8833902665499
 20
1265.7732100000001
 11
1490.3475152665499
 21
1265.7732100000001
  0
LINE
  8
_0-3_躯体
  6
CONTINUOUS
 62
    7
 10
601.8833902665499
 20
1360.1428651732003
 11
598.70303009334987
 21
1356.962505
  0
LINE
  8
_0-3_躯体
  6
CONTINUOUS
 62
    7
 10
601.8833902665499
 20
1367.2139329851
 11
593.13196228144989
 21
1358.462505
  0
LINE
  8
_0-3_躯体
  6
CONTINUOUS
 62
    7
 10
597.8833902665499
 20
1370.2850007969
 11
589.27776356094989
 21
1361.6793740912999
  0
LINE
  8
_0-3_躯体
  6
CONTINUOUS
 62
    7
 10
598.48982665774986
 20
1377.962505
 11
598.47232863864986
 21
1377.9450069809
  0
LINE
  8
_0-3_躯体
  6
CONTINUOUS
 62
    7
 10
597.9008882856499
 20
1377.3735666278999
 11
578.98982665774986
 21
1358.462505
  0
LINE
  8
_0-3_躯体
  6
CONTINUOUS
 62
    7
 10
578.8833902665499
 20
1358.3560686088003
 11
577.48982665774986
 21
1356.962505
  0
LINE
  8
_0-3_躯体
  6
CONTINUOUS
 62
    7
 10
591.41875884584988
 20
1377.962505
 11
566.91875884584988
 21
1353.462505
  0
LINE
  8
_0-3_躯体
  6
CONTINUOUS
 62
    7
 10
584.34769103404983
 20
1377.962505
 11
559.84769103404994
 21
1353.462505
  0
LINE
  8
_0-3_躯体
  6
CONTINUOUS
 62
    7
 10
577.27662322214996
 20
1377.962505
 11
552.8833902665499
 21
1353.5692720444001
  0
LINE
  8
_0-3_躯体
  6
CONTINUOUS
 62
    7
 10
570.20555541024987
 20
1377.962505
 11
552.8833902665499
 21
1360.6403398563
  0
LINE
  8
_0-3_躯体
  6
CONTINUOUS
 62
    7
 10
563.13448759844994
 20
1377.962505
 11
552.8833902665499
 21
1367.7114076680998
  0
LINE
  8
_0-3_躯体
  6
CONTINUOUS
 62
    7
 10
556.06341978654996
 20
1377.962505
 11
552.8833902665499
 21
1374.7824754800001
  0
LINE
  8
_0-3_躯体
  6
CONTINUOUS
 62
    7
 10
1072.8833902665499
 20
1357.3813217782001
 11
1068.9645734883497
 21
1353.462505
  0
LINE
  8
_0-3_躯体
  6
CONTINUOUS
 62
    7
 10
1072.8833902665499
 20
1364.4523895901
 11
1061.8935056764499
 21
1353.462505
  0
LINE
  8
_0-3_躯体
  6
CONTINUOUS
 62
    7
 10
1072.8833902665499
 20
1371.5234574020001
 11
1054.8224378645498
 21
1353.462505
  0
LINE
  8
_0-3_躯体
  6
CONTINUOUS
 62
    7
 10
1072.25137005275
 20
1377.962505
 11
1051.25137005275
 21
1356.962505
  0
LINE
  8
_0-3_躯体
  6
CONTINUOUS
 62
    7
 10
1065.1803022408499
 20
1377.962505
 11
1045.6803022408499
 21
1358.462505
  0
LINE
  8
_0-3_躯体
  6
CONTINUOUS
 62
    7
 10
1058.10923442895
 20
1377.962505
 11
1041.0111671557499
 21
1360.8644377268001
  0
LINE
  8
_0-3_躯体
  6
CONTINUOUS
 62
    7
 10
1051.03816661715
 20
1377.962505
 11
1031.5381666171497
 21
1358.462505
  0
LINE
  8
_0-3_躯体
  6
CONTINUOUS
 62
    7
 10
1043.9670988052499
 20
1377.962505
 11
1024.0872974183499
 21
1358.0827036130001
  0
LINE
  8
_0-3_躯体
  6
CONTINUOUS
 62
    7
 10
1036.89603099335
 20
1377.962505
 11
1023.8833902665499
 21
1364.9498642732001
  0
LINE
  8
_0-3_躯体
  6
CONTINUOUS
 62
    7
 10
1029.8249631815499
 20
1377.962505
 11
1027.8833902665499
 21
1376.0209320849999
  0
LINE
  8
_0-3_躯体
  6
CONTINUOUS
 62
    7
 10
1546.8833902665499
 20
1364.6908461951
 11
1540.6550490715499
 21
1358.462505
  0
LINE
  8
_0-3_躯体
  6
CONTINUOUS
 62
    7
 10
1544.08398125955
 20
1368.962505
 11
1535.9963821445499
 21
1360.8749058848
  0
LINE
  8
_0-3_躯体
  6
CONTINUOUS
 62
    7
 10
1542.8833902665499
 20
1374.8329818187999
 11
1526.5129134475499
 21
1358.462505
  0
LINE
  8
_0-3_躯体
  6
CONTINUOUS
 62
    7
 10
1538.94184563555
 20
1377.962505
 11
1514.44184563555
 21
1353.462505
  0
LINE
  8
_0-3_躯体
  6
CONTINUOUS
 62
    7
 10
1531.8707778235498
 20
1377.962505
 11
1507.3707778235498
 21
1353.462505
  0
LINE
  8
_0-3_躯体
  6
CONTINUOUS
 62
    7
 10
1524.7997100125499
 20
1377.962505
 11
1500.2997100125499
 21
1353.462505
  0
LINE
  8
_0-3_躯体
  6
CONTINUOUS
 62
    7
 10
1517.72864220055
 20
1377.962505
 11
1493.22864220055
 21
1353.462505
  0
LINE
  8
_0-3_躯体
  6
CONTINUOUS
 62
    7
 10
1510.6575743885498
 20
1377.962505
 11
1490.3475152665499
 21
1357.6524458782001
  0
LINE
  8
_0-3_躯体
  6
CONTINUOUS
 62
    7
 10
1503.5865065765499
 20
1377.962505
 11
1490.3475152665499
 21
1364.7235136899999
  0
LINE
  8
_0-3_躯体
  6
CONTINUOUS
 62
    7
 10
1496.5154387645498
 20
1377.962505
 11
1490.3475152665499
 21
1371.7945815019002
  0
LINE
  8
_0-4_フレ_ム
  6
CONTINUOUS
 62
    7
 10
628.3833902665499
 20
1356.962505
 11
647.8833902665499
 21
1356.962505
  0
ARC
  8
_0-4_フレ_ム
  6
CONTINUOUS
 62
    7
 10
606.3833902665499
 20
1358.962505
 40
2
 50
180
 51
270
  0
LINE
  8
_0-4_フレ_ム
  6
CONTINUOUS
 62
    7
 10
627.3833902665499
 20
1356.962505
 11
606.3833902665499
 21
1356.962505
  0
LINE
  8
_0-4_フレ_ム
  6
CONTINUOUS
 62
    7
 10
696.8833902665499
 20
1354.462505
 11
639.3833902665499
 21
1354.462505
  0
LINE
  8
_0-4_フレ_ム
  6
CONTINUOUS
 62
    7
 10
604.3833902665499
 20
1358.962505
 11
604.3833902665499
 21
1370.462505
  0
ARC
  8
_0-4_フレ_ム
  6
CONTINUOUS
 62
    7
 10
601.3833902665499
 20
1370.962505
 40
0.5
 50
270
 51
0
  0
LINE
  8
_0-4_フレ_ム
  6
CONTINUOUS
 62
    7
 10
601.3833902665499
 20
1370.462505
 11
599.8833902665499
 21
1370.462505
  0
LINE
  8
_0-4_フレ_ム
  6
CONTINUOUS
 62
    7
 10
598.3833902665499
 20
1368.962505
 11
600.8833902665499
 21
1368.962505
  0
ARC
  8
_0-4_フレ_ム
  6
CONTINUOUS
 62
    7
 10
600.8833902665499
 20
1367.962505
 40
1
 50
0
 51
90
  0
LINE
  8
_0-4_フレ_ム
  6
CONTINUOUS
 62
    7
 10
601.8833902665499
 20
1367.962505
 11
601.8833902665499
 21
1358.962505
  0
LINE
  8
_0-4_フレ_ム
  6
CONTINUOUS
 62
    7
 10
601.8833902665499
 20
1370.962505
 11
601.8833902665499
 21
1374.962505
  0
ARC
  8
_0-4_フレ_ム
  6
CONTINUOUS
 62
    7
 10
691.8833902665499
 20
1360.962505
 40
3
 50
270
 51
0
  0
LINE
  8
_0-4_フレ_ム
  6
CONTINUOUS
 62
    7
 10
616.3833902665499
 20
1354.462505
 11
616.3833902665499
 21
1354.962505
  0
LINE
  8
_0-4_フレ_ム
  6
CONTINUOUS
 62
    7
 10
616.3833902665499
 20
1354.962505
 11
621.3833902665499
 21
1354.962505
  0
LINE
  8
_0-4_フレ_ム
  6
CONTINUOUS
 62
    7
 10
621.3833902665499
 20
1354.962505
 11
621.3833902665499
 21
1354.462505
  0
LINE
  8
_0-4_フレ_ム
  6
CONTINUOUS
 62
    7
 10
634.3833902665499
 20
1354.462505
 11
634.3833902665499
 21
1354.962505
  0
LINE
  8
_0-4_フレ_ム
  6
CONTINUOUS
 62
    7
 10
634.3833902665499
 20
1354.962505
 11
639.3833902665499
 21
1354.962505
  0
LINE
  8
_0-4_フレ_ム
  6
CONTINUOUS
 62
    7
 10
639.3833902665499
 20
1354.962505
 11
639.3833902665499
 21
1354.462505
  0
LINE
  8
_0-4_フレ_ム
  6
CONTINUOUS
 62
    7
 10
616.3833902665499
 20
1354.462505
 11
599.3833902665499
 21
1354.462505
  0
LINE
  8
_0-4_フレ_ム
  6
CONTINUOUS
 62
    7
 10
576.3833902665499
 20
1354.462505
 11
573.3833902665499
 21
1354.462505
  0
LINE
  8
_0-4_フレ_ム
  6
CONTINUOUS
 62
    7
 10
628.3833902665499
 20
1356.962505
 11
627.8833902665499
 21
1356.462505
  0
LINE
  8
_0-4_フレ_ム
  6
CONTINUOUS
 62
    7
 10
627.3833902665499
 20
1356.962505
 11
627.8833902665499
 21
1356.462505
  0
ARC
  8
_0-4_フレ_ム
  6
CONTINUOUS
 62
    7
 10
696.8833902665499
 20
1355.462505
 40
1
 50
270
 51
0
  0
LINE
  8
_0-4_フレ_ム
  6
CONTINUOUS
 62
    7
 10
697.8833902665499
 20
1364.212505
 11
697.8833902665499
 21
1355.462505
  0
ARC
  8
_0-4_フレ_ム
  6
CONTINUOUS
 62
    7
 10
598.3833902665499
 20
1369.462505
 40
0.5
 50
180
 51
270
  0
LINE
  8
_0-4_フレ_ム
  6
CONTINUOUS
 62
    7
 10
597.8833902665499
 20
1377.212505
 11
597.8833902665499
 21
1369.462505
  0
ARC
  8
_0-4_フレ_ム
  6
CONTINUOUS
 62
    7
 10
599.8833902665499
 20
1370.962505
 40
0.5
 50
180
 51
270
  0
LINE
  8
_0-4_フレ_ム
  6
CONTINUOUS
 62
    7
 10
599.3833902665499
 20
1377.212505
 11
599.3833902665499
 21
1370.962505
  0
LINE
  8
_0-4_フレ_ム
  6
CONTINUOUS
 62
    7
 10
605.3833902665499
 20
1373.962505
 11
605.3833902665499
 21
1374.962505
  0
LINE
  8
_0-4_フレ_ム
  6
CONTINUOUS
 62
    7
 10
613.3833902665499
 20
1373.962505
 11
609.8833902665499
 21
1373.962505
  0
LINE
  8
_0-4_フレ_ム
  6
CONTINUOUS
 62
    7
 10
605.3833902665499
 20
1373.962505
 11
608.8833902665499
 21
1373.962505
  0
LINE
  8
_0-4_フレ_ム
  6
CONTINUOUS
 62
    7
 10
613.3833902665499
 20
1373.962505
 11
613.3833902665499
 21
1374.962505
  0
ARC
  8
_0-4_フレ_ム
  6
CONTINUOUS
 62
    7
 10
613.8833902665499
 20
1374.962505
 40
0.5
 50
90
 51
180
  0
ARC
  8
_0-4_フレ_ム
  6
CONTINUOUS
 62
    7
 10
616.3833902665499
 20
1374.962505
 40
0.5
 50
0
 51
90
  0
LINE
  8
_0-4_フレ_ム
  6
CONTINUOUS
 62
    7
 10
613.8833902665499
 20
1375.462505
 11
616.3833902665499
 21
1375.462505
  0
ARC
  8
_0-4_フレ_ム
  6
CONTINUOUS
 62
    7
 10
602.3833902665499
 20
1374.962505
 40
0.5
 50
90
 51
180
  0
ARC
  8
_0-4_フレ_ム
  6
CONTINUOUS
 62
    7
 10
604.8833902665499
 20
1374.962505
 40
0.5
 50
0
 51
90
  0
LINE
  8
_0-4_フレ_ム
  6
CONTINUOUS
 62
    7
 10
616.8833902665499
 20
1373.4625050000002
 11
616.8833902665499
 21
1374.962505
  0
ARC
  8
_0-4_フレ_ム
  6
CONTINUOUS
 62
    7
 10
614.8833902665499
 20
1373.4625050000002
 40
2
 50
270
 51
0
  0
ARC
  8
_0-4_フレ_ム
  6
CONTINUOUS
 62
    7
 10
605.3833902665499
 20
1370.462505
 40
1
 50
90
 51
180
  0
LINE
  8
_0-4_フレ_ム
  6
CONTINUOUS
 62
    7
 10
614.8833902665499
 20
1371.462505
 11
605.3833902665499
 21
1371.462505
  0
ARC
  8
_0-4_フレ_ム
  6
CONTINUOUS
 62
    7
 10
598.6333902665499
 20
1377.212505
 40
0.75
 50
0
 51
180
  0
LINE
  8
_0-4_フレ_ム
  6
CONTINUOUS
 62
    7
 10
609.8833902665499
 20
1373.962505
 11
609.3833902665499
 21
1373.4625050000002
  0
LINE
  8
_0-4_フレ_ム
  6
CONTINUOUS
 62
    7
 10
608.8833902665499
 20
1373.962505
 11
609.3833902665499
 21
1373.4625050000002
  0
LINE
  8
_0-4_フレ_ム
  6
CONTINUOUS
 62
    7
 10
613.8833902665499
 20
1375.462505
 11
616.3833902665499
 21
1375.462505
  0
LINE
  8
_0-4_フレ_ム
  6
CONTINUOUS
 62
    7
 10
576.3833902665499
 20
1354.462505
 11
576.3833902665499
 21
1354.962505
  0
LINE
  8
_0-4_フレ_ム
  6
CONTINUOUS
 62
    7
 10
576.3833902665499
 20
1354.962505
 11
581.3833902665499
 21
1354.962505
  0
LINE
  8
_0-4_フレ_ム
  6
CONTINUOUS
 62
    7
 10
581.3833902665499
 20
1354.962505
 11
581.3833902665499
 21
1354.462505
  0
LINE
  8
_0-4_フレ_ム
  6
CONTINUOUS
 62
    7
 10
594.3833902665499
 20
1354.462505
 11
594.3833902665499
 21
1354.962505
  0
LINE
  8
_0-4_フレ_ム
  6
CONTINUOUS
 62
    7
 10
594.3833902665499
 20
1354.962505
 11
599.3833902665499
 21
1354.962505
  0
LINE
  8
_0-4_フレ_ム
  6
CONTINUOUS
 62
    7
 10
599.3833902665499
 20
1354.962505
 11
599.3833902665499
 21
1354.462505
  0
ARC
  8
_0-4_フレ_ム
  6
CONTINUOUS
 62
    7
 10
599.8833902665499
 20
1358.962505
 40
2
 50
270
 51
0
  0
ARC
  8
_0-4_フレ_ム
  6
CONTINUOUS
 62
    7
 10
573.3833902665499
 20
1354.962505
 40
0.5
 50
180
 51
270
  0
ARC
  8
_0-4_フレ_ム
  6
CONTINUOUS
 62
    7
 10
573.3833902665499
 20
1356.462505
 40
0.5
 50
90
 51
180
  0
LINE
  8
_0-4_フレ_ム
  6
CONTINUOUS
 62
    7
 10
599.8833902665499
 20
1356.962505
 11
573.3833902665499
 21
1356.962505
  0
LINE
  8
_0-4_フレ_ム
  6
CONTINUOUS
 62
    7
 10
572.8833902665499
 20
1356.462505
 11
572.8833902665499
 21
1354.962505
  0
LINE
  8
_0-4_フレ_ム
  6
CONTINUOUS
 62
    7
 10
602.3833902665499
 20
1375.462505
 11
604.8833902665499
 21
1375.462505
  0
LINE
  8
_0-4_フレ_ム
  6
CONTINUOUS
 62
    7
 10
647.8833902665499
 20
1356.962505
 11
652.8833902665499
 21
1357.962505
  0
LINE
  8
_0-4_フレ_ム
  6
CONTINUOUS
 62
    7
 10
652.8833902665499
 20
1357.962505
 11
691.8833902665499
 21
1357.962505
  0
LINE
  8
_0-4_フレ_ム
  6
CONTINUOUS
 62
    7
 10
699.3833902665499
 20
1369.212505
 11
699.3833902665499
 21
1364.212505
  0
LINE
  8
_0-4_フレ_ム
  6
CONTINUOUS
 62
    7
 10
699.3833902665499
 20
1364.212505
 11
697.8833902665499
 21
1364.212505
  0
LINE
  8
_0-4_フレ_ム
  6
CONTINUOUS
 62
    7
 10
694.8833902665499
 20
1364.212505
 11
693.3833902665499
 21
1364.212505
  0
LINE
  8
_0-4_フレ_ム
  6
CONTINUOUS
 62
    7
 10
693.3833902665499
 20
1364.212505
 11
693.3833902665499
 21
1369.212505
  0
LINE
  8
_0-4_フレ_ム
  6
CONTINUOUS
 62
    7
 10
694.8833902665499
 20
1369.212505
 11
694.88339526654988
 21
1366.212505
  0
LINE
  8
_0-4_フレ_ム
  6
CONTINUOUS
 62
    7
 10
694.88339526654988
 20
1364.212505
 11
694.8833902665499
 21
1360.9625000000001
  0
LINE
  8
_0-4_フレ_ム
  6
CONTINUOUS
 62
    7
 10
697.8833902665499
 20
1369.212505
 11
697.8833902665499
 21
1366.212505
  0
ARC
  8
_0-4_フレ_ム
  6
CONTINUOUS
 62
    7
 10
696.3833902665499
 20
1369.212505
 40
1.7
 50
0
 51
180
  0
ARC
  8
_0-4_フレ_ム
  6
CONTINUOUS
 62
    7
 10
696.38340026654987
 20
1369.212505
 40
1.499995
 50
0
 51
180
  0
ARC
  8
_0-4_フレ_ム
  6
CONTINUOUS
 62
    7
 10
696.3833902665499
 20
1369.212505
 40
3
 50
0
 51
180
  0
LINE
  8
_0-4_フレ_ム
  6
CONTINUOUS
 62
    7
 10
694.88339526654988
 20
1366.212505
 11
695.38339526654988
 21
1366.212505
  0
LINE
  8
_0-4_フレ_ム
  6
CONTINUOUS
 62
    7
 10
695.38339526654988
 20
1366.212505
 11
694.8833902665499
 21
1364.212505
  0
LINE
  8
_0-4_フレ_ム
  6
CONTINUOUS
 62
    7
 10
697.8833902665499
 20
1366.212505
 11
697.3833902665499
 21
1366.212505
  0
LINE
  8
_0-4_フレ_ム
  6
CONTINUOUS
 62
    7
 10
697.3833902665499
 20
1366.212505
 11
697.8833902665499
 21
1364.212505
  0
LINE
  8
_0-4_フレ_ム
  6
CONTINUOUS
 62
    7
 10
694.88339526654988
 20
1366.212505
 11
694.68339526654995
 21
1366.212505
  0
LINE
  8
_0-4_フレ_ム
  6
CONTINUOUS
 62
    7
 10
694.68339526654995
 20
1366.212505
 11
694.68339026654985
 21
1369.212505
  0
LINE
  8
_0-4_フレ_ム
  6
CONTINUOUS
 62
    7
 10
697.8833902665499
 20
1366.212505
 11
698.08339026654994
 21
1366.212505
  0
LINE
  8
_0-4_フレ_ム
  6
CONTINUOUS
 62
    7
 10
698.08339026654994
 20
1366.212505
 11
698.08339026654994
 21
1369.212505
  0
LINE
  8
_0-4_フレ_ム
  6
CONTINUOUS
 62
    7
 10
572.8833902665499
 20
1354.462505
 11
688.55530526654991
 21
1354.462505
  0
LINE
  8
_0-4_フレ_ム
  6
CONTINUOUS
 62
    7
 10
1005.3833902665499
 20
1356.962505
 11
1005.3833902665499
 21
1354.962505
  0
LINE
  8
_0-4_フレ_ム
  6
CONTINUOUS
 62
    7
 10
990.3833902665499
 20
1356.962505
 11
990.3833902665499
 21
1354.962505
  0
LINE
  8
_0-4_フレ_ム
  6
CONTINUOUS
 62
    7
 10
997.3833902665499
 20
1356.962505
 11
980.38339026655001
 21
1356.962505
  0
ARC
  8
_0-4_フレ_ム
  6
CONTINUOUS
 62
    7
 10
1019.3833902665499
 20
1358.962505
 40
2
 50
270
 51
0
  0
LINE
  8
_0-4_フレ_ム
  6
CONTINUOUS
 62
    7
 10
998.3833902665499
 20
1356.962505
 11
1019.3833902665499
 21
1356.962505
  0
LINE
  8
_0-4_フレ_ム
  6
CONTINUOUS
 62
    7
 10
928.88339026654978
 20
1354.462505
 11
986.3833902665499
 21
1354.462505
  0
LINE
  8
_0-4_フレ_ム
  6
CONTINUOUS
 62
    7
 10
1021.3833902665499
 20
1358.962505
 11
1021.3833902665499
 21
1370.462505
  0
ARC
  8
_0-4_フレ_ム
  6
CONTINUOUS
 62
    7
 10
1024.3833902665499
 20
1370.962505
 40
0.5
 50
180
 51
270
  0
LINE
  8
_0-4_フレ_ム
  6
CONTINUOUS
 62
    7
 10
1024.3833902665499
 20
1370.462505
 11
1025.8833902665501
 21
1370.462505
  0
LINE
  8
_0-4_フレ_ム
  6
CONTINUOUS
 62
    7
 10
1027.3833902665499
 20
1368.962505
 11
1024.8833902665499
 21
1368.962505
  0
ARC
  8
_0-4_フレ_ム
  6
CONTINUOUS
 62
    7
 10
1024.8833902665499
 20
1367.962505
 40
1
 50
90
 51
180
  0
LINE
  8
_0-4_フレ_ム
  6
CONTINUOUS
 62
    7
 10
1023.8833902665499
 20
1367.962505
 11
1023.8833902665499
 21
1358.962505
  0
LINE
  8
_0-4_フレ_ム
  6
CONTINUOUS
 62
    7
 10
1023.8833902665499
 20
1370.962505
 11
1023.8833902665499
 21
1374.962505
  0
LINE
  8
_0-4_フレ_ム
  6
CONTINUOUS
 62
    7
 10
1009.3833902665498
 20
1354.462505
 11
1009.3833902665498
 21
1354.962505
  0
LINE
  8
_0-4_フレ_ム
  6
CONTINUOUS
 62
    7
 10
1009.3833902665498
 20
1354.962505
 11
1004.3833902665499
 21
1354.962505
  0
LINE
  8
_0-4_フレ_ム
  6
CONTINUOUS
 62
    7
 10
1004.3833902665499
 20
1354.962505
 11
1004.3833902665499
 21
1354.462505
  0
LINE
  8
_0-4_フレ_ム
  6
CONTINUOUS
 62
    7
 10
991.3833902665499
 20
1354.462505
 11
991.3833902665499
 21
1354.962505
  0
LINE
  8
_0-4_フレ_ム
  6
CONTINUOUS
 62
    7
 10
991.3833902665499
 20
1354.962505
 11
986.3833902665499
 21
1354.962505
  0
LINE
  8
_0-4_フレ_ム
  6
CONTINUOUS
 62
    7
 10
986.3833902665499
 20
1354.962505
 11
986.3833902665499
 21
1354.462505
  0
LINE
  8
_0-4_フレ_ム
  6
CONTINUOUS
 62
    7
 10
1009.3833902665498
 20
1354.462505
 11
1026.3833902665499
 21
1354.462505
  0
LINE
  8
_0-4_フレ_ム
  6
CONTINUOUS
 62
    7
 10
1031.3833902665499
 20
1354.462505
 11
1044.3833902665497
 21
1354.462505
  0
LINE
  8
_0-4_フレ_ム
  6
CONTINUOUS
 62
    7
 10
1049.3833902665499
 20
1354.462505
 11
1052.3833902665499
 21
1354.462505
  0
LINE
  8
_0-4_フレ_ム
  6
CONTINUOUS
 62
    7
 10
1004.3833902665499
 20
1354.462505
 11
991.3833902665499
 21
1354.462505
  0
LINE
  8
_0-4_フレ_ム
  6
CONTINUOUS
 62
    7
 10
997.3833902665499
 20
1356.962505
 11
997.88339026655001
 21
1356.462505
  0
LINE
  8
_0-4_フレ_ム
  6
CONTINUOUS
 62
    7
 10
998.3833902665499
 20
1356.962505
 11
997.88339026655001
 21
1356.462505
  0
ARC
  8
_0-4_フレ_ム
  6
CONTINUOUS
 62
    7
 10
928.88339026654978
 20
1355.462505
 40
1
 50
180
 51
270
  0
LINE
  8
_0-4_フレ_ム
  6
CONTINUOUS
 62
    7
 10
927.88339026655001
 20
1364.212505
 11
927.88339026655001
 21
1355.462505
  0
ARC
  8
_0-4_フレ_ム
  6
CONTINUOUS
 62
    7
 10
1027.3833902665499
 20
1369.462505
 40
0.5
 50
270
 51
0
  0
LINE
  8
_0-4_フレ_ム
  6
CONTINUOUS
 62
    7
 10
1027.8833902665499
 20
1377.212505
 11
1027.8833902665499
 21
1369.462505
  0
ARC
  8
_0-4_フレ_ム
  6
CONTINUOUS
 62
    7
 10
1025.8833902665501
 20
1370.962505
 40
0.5
 50
270
 51
0
  0
LINE
  8
_0-4_フレ_ム
  6
CONTINUOUS
 62
    7
 10
1026.3833902665499
 20
1377.212505
 11
1026.3833902665499
 21
1370.962505
  0
LINE
  8
_0-4_フレ_ム
  6
CONTINUOUS
 62
    7
 10
1020.3833902665499
 20
1373.962505
 11
1020.3833902665499
 21
1374.962505
  0
LINE
  8
_0-4_フレ_ム
  6
CONTINUOUS
 62
    7
 10
1012.3833902665499
 20
1373.962505
 11
1015.8833902665499
 21
1373.962505
  0
LINE
  8
_0-4_フレ_ム
  6
CONTINUOUS
 62
    7
 10
1020.3833902665499
 20
1373.962505
 11
1016.8833902665499
 21
1373.962505
  0
LINE
  8
_0-4_フレ_ム
  6
CONTINUOUS
 62
    7
 10
1012.3833902665499
 20
1373.962505
 11
1012.3833902665499
 21
1374.962505
  0
ARC
  8
_0-4_フレ_ム
  6
CONTINUOUS
 62
    7
 10
1011.88339026655
 20
1374.962505
 40
0.5
 50
0
 51
90
  0
ARC
  8
_0-4_フレ_ム
  6
CONTINUOUS
 62
    7
 10
1009.3833902665498
 20
1374.962505
 40
0.5
 50
90
 51
180
  0
LINE
  8
_0-4_フレ_ム
  6
CONTINUOUS
 62
    7
 10
1011.88339026655
 20
1375.462505
 11
1009.3833902665498
 21
1375.462505
  0
ARC
  8
_0-4_フレ_ム
  6
CONTINUOUS
 62
    7
 10
1023.3833902665498
 20
1374.962505
 40
0.5
 50
0
 51
90
  0
ARC
  8
_0-4_フレ_ム
  6
CONTINUOUS
 62
    7
 10
1020.8833902665499
 20
1374.962505
 40
0.5
 50
90
 51
180
  0
LINE
  8
_0-4_フレ_ム
  6
CONTINUOUS
 62
    7
 10
1008.8833902665499
 20
1373.4625050000002
 11
1008.8833902665499
 21
1374.962505
  0
ARC
  8
_0-4_フレ_ム
  6
CONTINUOUS
 62
    7
 10
1010.8833902665499
 20
1373.4625050000002
 40
2
 50
180
 51
270
  0
ARC
  8
_0-4_フレ_ム
  6
CONTINUOUS
 62
    7
 10
1020.3833902665499
 20
1370.462505
 40
1
 50
0
 51
90
  0
LINE
  8
_0-4_フレ_ム
  6
CONTINUOUS
 62
    7
 10
1010.8833902665499
 20
1371.462505
 11
1020.3833902665499
 21
1371.462505
  0
ARC
  8
_0-4_フレ_ム
  6
CONTINUOUS
 62
    7
 10
1027.1333902665499
 20
1377.212505
 40
0.75
 50
0
 51
180
  0
LINE
  8
_0-4_フレ_ム
  6
CONTINUOUS
 62
    7
 10
1015.8833902665499
 20
1373.962505
 11
1016.3833902665498
 21
1373.4625050000002
  0
LINE
  8
_0-4_フレ_ム
  6
CONTINUOUS
 62
    7
 10
1016.8833902665499
 20
1373.962505
 11
1016.3833902665498
 21
1373.4625050000002
  0
LINE
  8
_0-4_フレ_ム
  6
CONTINUOUS
 62
    7
 10
1011.88339026655
 20
1375.462505
 11
1009.3833902665498
 21
1375.462505
  0
LINE
  8
_0-4_フレ_ム
  6
CONTINUOUS
 62
    7
 10
1045.3833902665499
 20
1356.962505
 11
1045.3833902665499
 21
1354.962505
  0
LINE
  8
_0-4_フレ_ム
  6
CONTINUOUS
 62
    7
 10
1030.3833902665497
 20
1356.962505
 11
1030.3833902665497
 21
1354.962505
  0
LINE
  8
_0-4_フレ_ム
  6
CONTINUOUS
 62
    7
 10
1049.3833902665499
 20
1354.462505
 11
1049.3833902665499
 21
1354.962505
  0
LINE
  8
_0-4_フレ_ム
  6
CONTINUOUS
 62
    7
 10
1049.3833902665499
 20
1354.962505
 11
1044.3833902665497
 21
1354.962505
  0
LINE
  8
_0-4_フレ_ム
  6
CONTINUOUS
 62
    7
 10
1044.3833902665497
 20
1354.962505
 11
1044.3833902665497
 21
1354.462505
  0
LINE
  8
_0-4_フレ_ム
  6
CONTINUOUS
 62
    7
 10
1031.3833902665499
 20
1354.462505
 11
1031.3833902665499
 21
1354.962505
  0
LINE
  8
_0-4_フレ_ム
  6
CONTINUOUS
 62
    7
 10
1031.3833902665499
 20
1354.962505
 11
1026.3833902665499
 21
1354.962505
  0
LINE
  8
_0-4_フレ_ム
  6
CONTINUOUS
 62
    7
 10
1026.3833902665499
 20
1354.962505
 11
1026.3833902665499
 21
1354.462505
  0
ARC
  8
_0-4_フレ_ム
  6
CONTINUOUS
 62
    7
 10
1052.3833902665499
 20
1354.962505
 40
0.5
 50
270
 51
0
  0
ARC
  8
_0-4_フレ_ム
  6
CONTINUOUS
 62
    7
 10
1025.8833902665501
 20
1358.962505
 40
2
 50
180
 51
270
  0
ARC
  8
_0-4_フレ_ム
  6
CONTINUOUS
 62
    7
 10
1052.3833902665499
 20
1356.462505
 40
0.5
 50
0
 51
90
  0
LINE
  8
_0-4_フレ_ム
  6
CONTINUOUS
 62
    7
 10
1025.8833902665501
 20
1356.962505
 11
1052.3833902665499
 21
1356.962505
  0
LINE
  8
_0-4_フレ_ム
  6
CONTINUOUS
 62
    7
 10
1052.8833902665499
 20
1356.462505
 11
1052.8833902665499
 21
1354.962505
  0
LINE
  8
_0-4_フレ_ム
  6
CONTINUOUS
 62
    7
 10
1023.3833902665498
 20
1375.462505
 11
1020.8833902665499
 21
1375.462505
  0
LINE
  8
_0-4_フレ_ム
  6
CONTINUOUS
 62
    7
 10
1023.3833902665498
 20
1375.462505
 11
1020.8833902665499
 21
1375.462505
  0
LINE
  8
_0-4_フレ_ム
  6
CONTINUOUS
 62
    7
 10
980.38339026655001
 20
1356.962505
 11
972.8833902665499
 21
1357.962505
  0
LINE
  8
_0-4_フレ_ム
  6
CONTINUOUS
 62
    7
 10
972.8833902665499
 20
1357.962505
 11
933.3833902665499
 21
1357.962505
  0
ARC
  8
_0-4_フレ_ム
  6
CONTINUOUS
 62
    7
 10
933.8833902665499
 20
1360.962505
 40
3
 50
180
 51
270
  0
LINE
  8
_0-4_フレ_ム
  6
CONTINUOUS
 62
    7
 10
930.88338526654979
 20
1364.212505
 11
930.8833902665499
 21
1360.9625000000001
  0
LINE
  8
_0-4_フレ_ム
  6
CONTINUOUS
 62
    7
 10
926.3833902665499
 20
1369.212505
 11
926.3833902665499
 21
1364.212505
  0
LINE
  8
_0-4_フレ_ム
  6
CONTINUOUS
 62
    7
 10
926.3833902665499
 20
1364.212505
 11
927.88339026655001
 21
1364.212505
  0
LINE
  8
_0-4_フレ_ム
  6
CONTINUOUS
 62
    7
 10
930.8833902665499
 20
1364.212505
 11
932.38339026654978
 21
1364.212505
  0
LINE
  8
_0-4_フレ_ム
  6
CONTINUOUS
 62
    7
 10
932.38339026654978
 20
1364.212505
 11
932.38339026654978
 21
1369.212505
  0
LINE
  8
_0-4_フレ_ム
  6
CONTINUOUS
 62
    7
 10
930.8833902665499
 20
1369.212505
 11
930.88338526654979
 21
1366.212505
  0
LINE
  8
_0-4_フレ_ム
  6
CONTINUOUS
 62
    7
 10
927.88339026655001
 20
1369.212505
 11
927.88339026655001
 21
1366.212505
  0
ARC
  8
_0-4_フレ_ム
  6
CONTINUOUS
 62
    7
 10
929.3833902665499
 20
1369.212505
 40
1.7
 50
0
 51
180
  0
ARC
  8
_0-4_フレ_ム
  6
CONTINUOUS
 62
    7
 10
929.38338526654991
 20
1369.212505
 40
1.499995
 50
0
 51
180
  0
ARC
  8
_0-4_フレ_ム
  6
CONTINUOUS
 62
    7
 10
929.3833902665499
 20
1369.212505
 40
3
 50
0
 51
180
  0
LINE
  8
_0-4_フレ_ム
  6
CONTINUOUS
 62
    7
 10
930.88338526654979
 20
1366.212505
 11
930.38338526654991
 21
1366.212505
  0
LINE
  8
_0-4_フレ_ム
  6
CONTINUOUS
 62
    7
 10
930.38338526654991
 20
1366.212505
 11
930.8833902665499
 21
1364.212505
  0
LINE
  8
_0-4_フレ_ム
  6
CONTINUOUS
 62
    7
 10
927.88339026655001
 20
1366.212505
 11
928.3833902665499
 21
1366.212505
  0
LINE
  8
_0-4_フレ_ム
  6
CONTINUOUS
 62
    7
 10
928.3833902665499
 20
1366.212505
 11
927.88339526655
 21
1364.212505
  0
LINE
  8
_0-4_フレ_ム
  6
CONTINUOUS
 62
    7
 10
930.88338526654979
 20
1366.212505
 11
931.08338526654984
 21
1366.212505
  0
LINE
  8
_0-4_フレ_ム
  6
CONTINUOUS
 62
    7
 10
931.08338526654984
 20
1366.212505
 11
931.08339026654994
 21
1369.212505
  0
LINE
  8
_0-4_フレ_ム
  6
CONTINUOUS
 62
    7
 10
927.88339526655
 20
1366.212505
 11
927.68339026654974
 21
1366.212505
  0
LINE
  8
_0-4_フレ_ム
  6
CONTINUOUS
 62
    7
 10
927.68339026654974
 20
1366.212505
 11
927.68339026654974
 21
1369.212505
  0
LINE
  8
_0-4_フレ_ム
  6
CONTINUOUS
 62
    7
 10
937.21147526654988
 20
1354.462505
 11
1052.8833902665499
 21
1354.462505
  0
LINE
  8
_0-5_止水補助板
  6
CONTINUOUS
 62
    7
 10
1881.8833902665499
 20
1350.4915599999999
 11
1881.8833902665499
 21
1422.4625050000002
  0
LINE
  8
_0-5_止水補助板
  6
CONTINUOUS
 62
    7
 10
1882.8833902665497
 20
1350.4396000000002
 11
1882.8833902665497
 21
1422.4625050000002
  0
LINE
  8
_0-5_止水補助板
  6
CONTINUOUS
 62
    7
 10
1881.8833902665499
 20
1422.4625050000002
 11
1882.8833902665497
 21
1422.4625050000002
  0
ARC
  8
_0-5_止水補助板
  6
CONTINUOUS
 62
    7
 10
1862.8833902665499
 20
1350.4915599999999
 40
19
 50
341.62141334028001
 51
0
  0
ARC
  8
_0-5_止水補助板
  6
CONTINUOUS
 62
    7
 10
1633.5553102665499
 20
1343.462505
 40
10
 50
5.9606931031099988
 51
90
  0
ARC
  8
_0-5_止水補助板
  6
CONTINUOUS
 62
    7
 10
1862.8833902665499
 20
1350.4396000000002
 40
20
 50
342.72659508998998
 51
0.0000000000000222
  0
ARC
  8
_0-5_止水補助板
  6
CONTINUOUS
 62
    7
 10
1762.7413044205498
 20
1349.3588807756998
 40
119.33897663190001
 50
182.33297547379999
 51
357.66702452616403
  0
ARC
  8
_0-5_止水補助板
  6
CONTINUOUS
 62
    7
 10
1762.93310658155
 20
1349.0808114963002
 40
118.07002580389999
 50
182.22301661890003
 51
357.776983381104
  0
LINE
  8
_0-5_止水補助板
  6
CONTINUOUS
 62
    7
 10
572.8833902665499
 20
1353.462505
 11
572.8833902665499
 21
1354.462505
  0
ARC
  8
_0-5_止水補助板
  6
CONTINUOUS
 62
    7
 10
688.55530526654991
 20
1343.462505
 40
10
 50
7.6880369999999996
 51
90.000000000000028
  0
ARC
  8
_0-5_止水補助板
  6
CONTINUOUS
 62
    7
 10
688.55530526654991
 20
1342.962505
 40
11.5
 50
7.6880369999999996
 51
90.000000000000028
  0
ARC
  8
_0-5_止水補助板
  6
CONTINUOUS
 62
    7
 10
937.21147526654988
 20
1343.462505
 40
10
 50
90
 51
172.31196299999999
  0
ARC
  8
_0-5_止水補助板
  6
CONTINUOUS
 62
    7
 10
937.21147526654988
 20
1342.962505
 40
11.5
 50
90
 51
172.31196299999999
  0
LINE
  8
_0-5_止水補助板
  6
CONTINUOUS
 62
    7
 10
1052.8833902665499
 20
1354.462505
 11
1052.8833902665499
 21
1353.462505
  0
ARC
  8
_0-5_止水補助板
  6
CONTINUOUS
 62
    7
 10
812.8833902665499
 20
1344.5009666212
 40
112.9314567337
 50
180
 51
0
  0
ARC
  8
_0-5_止水補助板
  6
CONTINUOUS
 62
    7
 10
812.8833902665499
 20
1344.9876367186
 40
114.4181268311
 50
180.09381152610001
 51
359.90618847390255
  0
LINE
  8
_0-3_躯体
  6
CONTINUOUS
 62
    7
 10
552.8833902665499
 20
1353.462505
 11
687.8833902665499
 21
1353.462505
  0
LINE
  8
_0-3_躯体
  6
CONTINUOUS
 62
    7
 10
687.8833902665499
 20
1272.5221649999999
 11
687.8833902665499
 21
1353.462505
  0
LINE
  8
_0-3_躯体
  6
CONTINUOUS
 62
    7
 10
1072.8833902665499
 20
1353.462505
 11
937.88339526654988
 21
1353.462505
  0
LINE
  8
_0-5_止水補助板
  6
CONTINUOUS
 62
    7
 10
937.21147526654988
 20
1353.462505
 11
937.8833902665499
 21
1353.462505
  0
LINE
  8
_0-5_止水補助板
  6
CONTINUOUS
 62
    7
 10
687.8833902665499
 20
1353.462505
 11
688.55530526654991
 21
1353.462505
  0
LINE
  8
_0-7_サイド
  6
CONTINUOUS
 62
    7
 10
1927.2671252665498
 20
1381.462505
 11
1873.1998402665499
 21
1381.462505
  0
LINE
  8
_0-7_サイド
  6
CONTINUOUS
 62
    7
 10
1874.8058252665496
 20
1428.4626799999999
 11
1874.8058252665496
 21
1434.9626800000001
  0
LINE
  8
_0-7_サイド
  6
CONTINUOUS
 62
    7
 10
1875.8058252665498
 20
1428.7626799999998
 11
1875.8058252665498
 21
1434.9626800000001
  0
ARC
  8
_0-7_サイド
  6
CONTINUOUS
 62
    7
 10
1875.3058252665501
 20
1434.9626800000001
 40
0.5
 50
0
 51
180
  0
LINE
  8
_0-7_サイド
  6
CONTINUOUS
 62
    7
 10
1877.16096526655
 20
1428.4626799999999
 11
1876.1058252665498
 21
1428.4626799999999
  0
ARC
  8
_0-7_サイド
  6
CONTINUOUS
 62
    7
 10
1877.16096526655
 20
1428.7626799999998
 40
0.2999999999999998
 50
270
 51
0
  0
LINE
  8
_0-7_サイド
  6
CONTINUOUS
 62
    7
 10
1877.4609652665499
 20
1435.7514650000003
 11
1877.4609652665499
 21
1428.7626799999998
  0
ARC
  8
_0-7_サイド
  6
CONTINUOUS
 62
    7
 10
1877.4609652665499
 20
1428.4626799999999
 40
1
 50
270
 51
0
  0
LINE
  8
_0-7_サイド
  6
CONTINUOUS
 62
    7
 10
1878.4609652665501
 20
1435.7514650000003
 11
1878.4609652665501
 21
1428.4626799999999
  0
LINE
  8
_0-7_サイド
  6
CONTINUOUS
 62
    7
 10
1877.4609652665499
 20
1427.4626800000001
 11
1875.8058252665498
 21
1427.4626800000001
  0
ARC
  8
_0-7_サイド
  6
CONTINUOUS
 62
    7
 10
1876.1058252665498
 20
1428.7626799999998
 40
0.2999999999999998
 50
180
 51
270
  0
ARC
  8
_0-7_サイド
  6
CONTINUOUS
 62
    7
 10
1875.8058252665498
 20
1428.4626799999999
 40
1
 50
180
 51
270
  0
ARC
  8
_0-7_サイド
  6
CONTINUOUS
 62
    7
 10
1880.1721802665497
 20
1435.7514650000003
 40
1.7112149999999999
 50
0
 51
180
  0
ARC
  8
_0-7_サイド
  6
CONTINUOUS
 62
    7
 10
1880.1721802665497
 20
1435.7514650000003
 40
2.7112150000000002
 50
0
 51
180
  0
LINE
  8
_0-7_サイド
  6
CONTINUOUS
 62
    7
 10
1881.8833902665499
 20
1435.7514650000003
 11
1881.8833902665499
 21
1427.8463400000001
  0
ARC
  8
_0-7_サイド
  6
CONTINUOUS
 62
    7
 10
1881.3833902665501
 20
1427.8463400000001
 40
0.5
 50
284.99999999996999
 51
359.99999999999994
  0
LINE
  8
_0-7_サイド
  6
CONTINUOUS
 62
    7
 10
1880.65514026655
 20
1427.13357
 11
1881.5128002665499
 21
1427.36338
  0
LINE
  8
_0-7_サイド
  6
CONTINUOUS
 62
    7
 10
1880.9139602665496
 20
1426.167645
 11
1881.7716202665497
 21
1426.3974499999999
  0
LINE
  8
_0-7_サイド
  6
CONTINUOUS
 62
    7
 10
1882.8833902665497
 20
1435.7514650000003
 11
1882.8833902665497
 21
1427.8463400000001
  0
ARC
  8
_0-7_サイド
  6
CONTINUOUS
 62
    7
 10
1880.7845502665498
 20
1426.650605
 40
0.5
 50
105.00000000000001
 51
285
  0
ARC
  8
_0-7_サイド
  6
CONTINUOUS
 62
    7
 10
1881.3833902665501
 20
1427.8463400000001
 40
1.5
 50
284.99999999999
 51
0.0000000000000127
  0
LINE
  8
_0-7_サイド
  6
CONTINUOUS
 62
    7
 10
1875.8833802665499
 20
1428.462505
 11
1877.3833902665497
 21
1428.462505
  0
ARC
  8
_0-7_サイド
  6
CONTINUOUS
 62
    7
 10
1874.88339526655
 20
1435.962505
 40
2.5
 50
0
 51
90
  0
LINE
  8
_0-7_サイド
  6
CONTINUOUS
 62
    7
 10
1877.38339526655
 20
1428.462505
 11
1877.38339526655
 21
1435.962505
  0
LINE
  8
_0-7_サイド
  6
CONTINUOUS
 62
    7
 10
1875.88339526655
 20
1428.462505
 11
1875.88339526655
 21
1435.962505
  0
ARC
  8
_0-7_サイド
  6
CONTINUOUS
 62
    7
 10
1865.38339526655
 20
1378.462475
 40
2.5
 50
180
 51
270.00060200000001
  0
LINE
  8
_0-7_サイド
  6
CONTINUOUS
 62
    7
 10
1862.8833952665498
 20
1378.462475
 11
1862.8833952665498
 21
1435.962505
  0
ARC
  8
_0-7_サイド
  6
CONTINUOUS
 62
    7
 10
1865.3833902665497
 20
1435.962505
 40
1
 50
90
 51
180
  0
ARC
  8
_0-7_サイド
  6
CONTINUOUS
 62
    7
 10
1874.88339526655
 20
1435.962505
 40
1
 50
0
 51
90
  0
LINE
  8
_0-7_サイド
  6
CONTINUOUS
 62
    7
 10
1865.3833902665497
 20
1436.962505
 11
1874.88339526655
 21
1436.962505
  0
ARC
  8
_0-7_サイド
  6
CONTINUOUS
 62
    7
 10
1865.38339526655
 20
1435.962505
 40
2.5
 50
90
 51
180
  0
LINE
  8
_0-7_サイド
  6
CONTINUOUS
 62
    7
 10
1865.38339526655
 20
1438.462505
 11
1874.88339526655
 21
1438.462505
  0
LINE
  8
_0-7_サイド
  6
CONTINUOUS
 62
    7
 10
1872.88339526655
 20
1375.9625450000003
 11
1872.88339526655
 21
1377.4625450000001
  0
ARC
  8
_0-7_サイド
  6
CONTINUOUS
 62
    7
 10
1865.3833902665497
 20
1378.462475
 40
1
 50
180
 51
270.00060200000001
  0
LINE
  8
_0-7_サイド
  6
CONTINUOUS
 62
    7
 10
1872.88339526655
 20
1377.4625450000001
 11
1865.3834002665499
 21
1377.462475
  0
LINE
  8
_0-7_サイド
  6
CONTINUOUS
 62
    7
 10
1864.3833902665499
 20
1378.462475
 11
1864.3833902665499
 21
1435.962505
  0
LINE
  8
_0-7_サイド
  6
CONTINUOUS
 62
    7
 10
1872.88339526655
 20
1375.9625450000003
 11
1865.3834202665498
 21
1375.962475
  0
LINE
  8
_0-7_サイド
  6
CONTINUOUS
 62
    7
 10
1857.6871552665502
 20
1414.962505
 11
1882.8833902665497
 21
1414.962505
  0
LINE
  8
_0-3_躯体
  6
CONTINUOUS
 62
    7
 10
1543.63339526655
 20
1377.962505
 11
1490.3475152665499
 21
1377.962505
  0
LINE
  8
_0-8_小物
  6
CONTINUOUS
 62
    7
 10
594.3833902665499
 20
1354.462505
 11
581.3833902665499
 21
1354.462505
  0
LINE
  8
_0-8_小物
  6
CONTINUOUS
 62
    7
 10
621.3833902665499
 20
1354.462505
 11
634.3833902665499
 21
1354.462505
  0
LINE
  8
_0-8_小物
  6
CONTINUOUS
 62
    7
 10
622.47511526654989
 20
1318.682685
 11
622.37044526654995
 21
1316.6854250000001
  0
LINE
  8
_0-8_小物
  6
CONTINUOUS
 62
    7
 10
622.63212526654991
 20
1321.67857
 11
624.57704526654993
 21
1320.57527
  0
LINE
  8
_0-8_小物
  6
CONTINUOUS
 62
    7
 10
624.57704526654993
 20
1320.57527
 11
624.47237526654988
 21
1318.5780099999999
  0
LINE
  8
_0-8_小物
  6
CONTINUOUS
 62
    7
 10
624.47237526654988
 20
1318.5780099999999
 11
622.47511526654989
 21
1318.682685
  0
LINE
  8
_0-8_小物
  6
CONTINUOUS
 62
    7
 10
622.73679526654996
 20
1323.6758300000001
 11
622.63212526654991
 21
1321.67857
  0
LINE
  8
_0-8_小物
  6
CONTINUOUS
 62
    7
 10
622.89380526654986
 20
1326.6717200000001
 11
624.83872526654989
 21
1325.5684200000001
  0
LINE
  8
_0-8_小物
  6
CONTINUOUS
 62
    7
 10
624.83872526654989
 20
1325.5684200000001
 11
624.73405526654983
 21
1323.57116
  0
LINE
  8
_0-8_小物
  6
CONTINUOUS
 62
    7
 10
624.73405526654983
 20
1323.57116
 11
622.73679526654996
 21
1323.6758300000001
  0
LINE
  8
_0-8_小物
  6
CONTINUOUS
 62
    7
 10
622.99847526654992
 20
1328.6689799999999
 11
622.89380526654986
 21
1326.6717200000001
  0
LINE
  8
_0-8_小物
  6
CONTINUOUS
 62
    7
 10
623.15548026654983
 20
1331.6648700000001
 11
625.10040526654984
 21
1330.561565
  0
LINE
  8
_0-8_小物
  6
CONTINUOUS
 62
    7
 10
625.10040526654984
 20
1330.561565
 11
624.9957352665499
 21
1328.5643050000003
  0
LINE
  8
_0-8_小物
  6
CONTINUOUS
 62
    7
 10
624.9957352665499
 20
1328.5643050000003
 11
622.99847526654992
 21
1328.6689799999999
  0
LINE
  8
_0-8_小物
  6
CONTINUOUS
 62
    7
 10
623.26015526654987
 20
1333.6621250000001
 11
623.15548026654983
 21
1331.6648700000001
  0
LINE
  8
_0-8_小物
  6
CONTINUOUS
 62
    7
 10
623.4171602665499
 20
1336.658015
 11
625.36208526654991
 21
1335.5547150000002
  0
LINE
  8
_0-8_小物
  6
CONTINUOUS
 62
    7
 10
625.36208526654991
 20
1335.5547150000002
 11
625.25741526654986
 21
1333.5574549999999
  0
LINE
  8
_0-8_小物
  6
CONTINUOUS
 62
    7
 10
625.25741526654986
 20
1333.5574549999999
 11
623.26015526654987
 21
1333.6621250000001
  0
LINE
  8
_0-8_小物
  6
CONTINUOUS
 62
    7
 10
623.52183526654994
 20
1338.6552750000001
 11
623.4171602665499
 21
1336.658015
  0
LINE
  8
_0-8_小物
  6
CONTINUOUS
 62
    7
 10
623.8833902665499
 20
1341.462505
 11
625.62376526654987
 21
1340.5478599999999
  0
LINE
  8
_0-8_小物
  6
CONTINUOUS
 62
    7
 10
633.2916652665499
 20
1318.682685
 11
633.39633526654984
 21
1316.6854250000001
  0
LINE
  8
_0-8_小物
  6
CONTINUOUS
 62
    7
 10
633.13465526654988
 20
1321.67857
 11
631.18973026654987
 21
1320.57527
  0
LINE
  8
_0-8_小物
  6
CONTINUOUS
 62
    7
 10
631.18973026654987
 20
1320.57527
 11
631.29440526654992
 21
1318.5780099999999
  0
LINE
  8
_0-8_小物
  6
CONTINUOUS
 62
    7
 10
631.29440526654992
 20
1318.5780099999999
 11
633.2916652665499
 21
1318.682685
  0
LINE
  8
_0-8_小物
  6
CONTINUOUS
 62
    7
 10
633.02998526654983
 20
1323.6758300000001
 11
633.13465526654988
 21
1321.67857
  0
LINE
  8
_0-8_小物
  6
CONTINUOUS
 62
    7
 10
632.87297526654993
 20
1326.6717200000001
 11
630.92805026654992
 21
1325.5684200000001
  0
LINE
  8
_0-8_小物
  6
CONTINUOUS
 62
    7
 10
630.92805026654992
 20
1325.5684200000001
 11
631.03272526654996
 21
1323.57116
  0
LINE
  8
_0-8_小物
  6
CONTINUOUS
 62
    7
 10
631.03272526654996
 20
1323.57116
 11
633.02998526654983
 21
1323.6758300000001
  0
LINE
  8
_0-8_小物
  6
CONTINUOUS
 62
    7
 10
632.76830526654987
 20
1328.6689799999999
 11
632.87297526654993
 21
1326.6717200000001
  0
LINE
  8
_0-8_小物
  6
CONTINUOUS
 62
    7
 10
632.61129526654986
 20
1331.6648700000001
 11
630.66637526654995
 21
1330.561565
  0
LINE
  8
_0-8_小物
  6
CONTINUOUS
 62
    7
 10
630.66637526654995
 20
1330.561565
 11
630.77104526654989
 21
1328.5643050000003
  0
LINE
  8
_0-8_小物
  6
CONTINUOUS
 62
    7
 10
630.77104526654989
 20
1328.5643050000003
 11
632.76830526654987
 21
1328.6689799999999
  0
LINE
  8
_0-8_小物
  6
CONTINUOUS
 62
    7
 10
632.50662526654992
 20
1333.6621250000001
 11
632.61129526654986
 21
1331.6648700000001
  0
LINE
  8
_0-8_小物
  6
CONTINUOUS
 62
    7
 10
632.3496152665499
 20
1336.658015
 11
630.40469526654988
 21
1335.5547150000002
  0
LINE
  8
_0-8_小物
  6
CONTINUOUS
 62
    7
 10
630.40469526654988
 20
1335.5547150000002
 11
630.50936526654993
 21
1333.5574549999999
  0
LINE
  8
_0-8_小物
  6
CONTINUOUS
 62
    7
 10
630.50936526654993
 20
1333.5574549999999
 11
632.50662526654992
 21
1333.6621250000001
  0
LINE
  8
_0-8_小物
  6
CONTINUOUS
 62
    7
 10
632.24494526654985
 20
1338.6552750000001
 11
632.3496152665499
 21
1336.658015
  0
LINE
  8
_0-8_小物
  6
CONTINUOUS
 62
    7
 10
630.14301526654992
 20
1340.5478599999999
 11
630.24768526654987
 21
1338.5506
  0
LINE
  8
_0-8_小物
  6
CONTINUOUS
 62
    7
 10
630.24768526654987
 20
1338.5506
 11
632.24494526654985
 21
1338.6552750000001
  0
LINE
  8
_0-8_小物
  6
CONTINUOUS
 62
    7
 10
627.94269526654989
 20
1317.5218099999997
 11
626.00899526654985
 21
1319.2374800000002
  0
LINE
  8
_0-8_小物
  6
CONTINUOUS
 62
    7
 10
629.75283526654994
 20
1319.3319499999998
 11
627.8833902665499
 21
1317.4625050000002
  0
LINE
  8
_0-8_小物
  6
CONTINUOUS
 62
    7
 10
631.8833902665499
 20
1341.462505
 11
630.14301526654992
 21
1340.5478599999999
  0
LINE
  8
_0-8_小物
  6
CONTINUOUS
 62
    7
 10
623.26015526654987
 20
1333.6621250000001
 11
621.56479026654983
 21
1338.3201050000002
  0
LINE
  8
_0-8_小物
  6
CONTINUOUS
 62
    7
 10
632.50662526654992
 20
1333.6621250000001
 11
634.20199026654996
 21
1338.3201050000002
  0
LINE
  8
_0-8_小物
  6
CONTINUOUS
 62
    7
 10
625.8656452665499
 20
1316.50225
 11
622.37044526654995
 21
1316.6854250000001
  0
LINE
  8
_0-8_小物
  6
CONTINUOUS
 62
    7
 10
622.37044526654995
 20
1316.6854250000001
 11
624.26303026654989
 21
1314.5834950000003
  0
LINE
  8
_0-8_小物
  6
CONTINUOUS
 62
    7
 10
624.26303026654989
 20
1314.5834950000003
 11
625.76097526654985
 21
1314.5049900000004
  0
LINE
  8
_0-8_小物
  6
CONTINUOUS
 62
    7
 10
625.76097526654985
 20
1314.5049900000004
 11
627.3833902665499
 21
1345.4625050000002
  0
LINE
  8
_0-8_小物
  6
CONTINUOUS
 62
    7
 10
623.8833902665499
 20
1341.462505
 11
623.8833902665499
 21
1345.4625050000002
  0
LINE
  8
_0-8_小物
  6
CONTINUOUS
 62
    7
 10
629.9011302665499
 20
1316.50225
 11
633.39633526654984
 21
1316.6854250000001
  0
LINE
  8
_0-8_小物
  6
CONTINUOUS
 62
    7
 10
633.39633526654984
 20
1316.6854250000001
 11
631.5037502665499
 21
1314.5834950000003
  0
LINE
  8
_0-8_小物
  6
CONTINUOUS
 62
    7
 10
631.5037502665499
 20
1314.5834950000003
 11
630.00580526654994
 21
1314.5049900000004
  0
LINE
  8
_0-8_小物
  6
CONTINUOUS
 62
    7
 10
630.00580526654994
 20
1314.5049900000004
 11
628.3833902665499
 21
1345.4625050000002
  0
LINE
  8
_0-8_小物
  6
CONTINUOUS
 62
    7
 10
631.8833902665499
 20
1341.462505
 11
631.8833902665499
 21
1345.4625050000002
  0
LINE
  8
_0-8_小物
  6
CONTINUOUS
 62
    7
 10
634.20199026654996
 20
1338.3201050000002
 11
635.19434526654993
 21
1345.12373
  0
ARC
  8
_0-8_小物
  6
CONTINUOUS
 62
    7
 10
634.79853526654983
 20
1345.1814600000002
 40
0.4
 50
351.70153399998003
 51
81.869898000029991
  0
LINE
  8
_0-8_小物
  6
CONTINUOUS
 62
    7
 10
634.85510026654993
 20
1345.57744
 11
634.65827526654994
 21
1345.6055600000002
  0
ARC
  8
_0-8_小物
  6
CONTINUOUS
 62
    7
 10
634.60171026654984
 20
1345.2095799999997
 40
0.4
 50
81.869897999979997
 51
171.86989800000001
  0
LINE
  8
_0-8_小物
  6
CONTINUOUS
 62
    7
 10
634.20573026654984
 20
1345.2661450000001
 11
633.26229526654993
 21
1338.6621250000001
  0
LINE
  8
_0-8_小物
  6
CONTINUOUS
 62
    7
 10
621.56479026654983
 20
1338.3201050000002
 11
620.57243526654986
 21
1345.12373
  0
ARC
  8
_0-8_小物
  6
CONTINUOUS
 62
    7
 10
620.96824526654996
 20
1345.1814600000002
 40
0.4
 50
98.130101999969995
 51
188.29846599999999
  0
LINE
  8
_0-8_小物
  6
CONTINUOUS
 62
    7
 10
620.91167526654988
 20
1345.57744
 11
621.10850026654987
 21
1345.6055600000002
  0
ARC
  8
_0-8_小物
  6
CONTINUOUS
 62
    7
 10
621.16507026654995
 20
1345.2095799999997
 40
0.4
 50
8.1301019999750004
 51
98.130101999990018
  0
LINE
  8
_0-8_小物
  6
CONTINUOUS
 62
    7
 10
621.56105026654996
 20
1345.2661450000001
 11
622.50448026654988
 21
1338.6621250000001
  0
LINE
  8
_0-8_小物
  6
CONTINUOUS
 62
    7
 10
621.56479026654983
 20
1338.3201050000002
 11
620.57243526654986
 21
1345.12373
  0
ARC
  8
_0-8_小物
  6
CONTINUOUS
 62
    7
 10
620.96824526654996
 20
1345.1814600000002
 40
0.4
 50
98.130101999969995
 51
188.29846599999999
  0
LINE
  8
_0-8_小物
  6
CONTINUOUS
 62
    7
 10
620.91167526654988
 20
1345.57744
 11
621.10850026654987
 21
1345.6055600000002
  0
ARC
  8
_0-8_小物
  6
CONTINUOUS
 62
    7
 10
621.16507026654995
 20
1345.2095799999997
 40
0.4
 50
8.1301019999750004
 51
98.130101999990018
  0
LINE
  8
_0-8_小物
  6
CONTINUOUS
 62
    7
 10
621.56105026654996
 20
1345.2661450000001
 11
622.50448026654988
 21
1338.6621250000001
  0
LINE
  8
_0-8_小物
  6
CONTINUOUS
 62
    7
 10
622.8833902665499
 20
1353.462505
 11
623.8833902665499
 21
1348.462505
  0
LINE
  8
_0-8_小物
  6
CONTINUOUS
 62
    7
 10
623.8833902665499
 20
1353.462505
 11
623.8833902665499
 21
1345.4625050000002
  0
LINE
  8
_0-8_小物
  6
CONTINUOUS
 62
    7
 10
627.3833902665499
 20
1345.4625050000002
 11
627.8833902665499
 21
1345.4625050000002
  0
LINE
  8
_0-8_小物
  6
CONTINUOUS
 62
    7
 10
627.8833902665499
 20
1348.462505
 11
627.8833902665499
 21
1353.462505
  0
LINE
  8
_0-8_小物
  6
CONTINUOUS
 62
    7
 10
626.8833902665499
 20
1353.462505
 11
627.8833902665499
 21
1348.462505
  0
LINE
  8
_0-8_小物
  6
CONTINUOUS
 62
    7
 10
628.8833902665499
 20
1353.462505
 11
627.8833902665499
 21
1348.462505
  0
LINE
  8
_0-8_小物
  6
CONTINUOUS
 62
    7
 10
632.8833902665499
 20
1353.462505
 11
631.8833902665499
 21
1348.462505
  0
LINE
  8
_0-8_小物
  6
CONTINUOUS
 62
    7
 10
631.8833902665499
 20
1353.462505
 11
631.8833902665499
 21
1345.4625050000002
  0
LINE
  8
_0-8_小物
  6
CONTINUOUS
 62
    7
 10
628.3833902665499
 20
1345.4625050000002
 11
627.8833902665499
 21
1345.4625050000002
  0
ARC
  8
_0-8_小物
  6
CONTINUOUS
 62
    7
 10
626.38062526654994
 20
1358.333795
 40
3
 50
128.61463800000001
 51
177.54107400000001
  0
ARC
  8
_0-8_小物
  6
CONTINUOUS
 62
    7
 10
627.8833902665499
 20
1356.462505
 40
5.4000000000000004
 50
90
 51
128.682187
  0
ARC
  8
_0-8_小物
  6
CONTINUOUS
 62
    7
 10
627.8833902665499
 20
1356.462505
 40
5.4000000000000004
 50
51.148938000000001
 51
90
  0
ARC
  8
_0-8_小物
  6
CONTINUOUS
 62
    7
 10
629.38615026654986
 20
1358.333795
 40
3
 50
2.458925999996
 51
51.385362000000001
  0
LINE
  8
_0-8_小物
  6
CONTINUOUS
 62
    7
 10
636.8833902665499
 20
1358.462505
 11
618.8833902665499
 21
1358.462505
  0
LINE
  8
_0-8_小物
  6
CONTINUOUS
 62
    7
 10
618.8833902665499
 20
1358.462505
 11
618.8833902665499
 21
1356.962505
  0
LINE
  8
_0-8_小物
  6
CONTINUOUS
 62
    7
 10
636.8833902665499
 20
1358.462505
 11
636.8833902665499
 21
1356.962505
  0
LINE
  8
_0-8_小物
  6
CONTINUOUS
 62
    7
 10
587.8833902665499
 20
1309.7787699999999
 11
587.8833902665499
 21
1363.501415
  0
LINE
  8
_0-8_小物
  6
CONTINUOUS
 62
    7
 10
582.47511526654989
 20
1318.682685
 11
582.37044526654995
 21
1316.6854250000001
  0
LINE
  8
_0-8_小物
  6
CONTINUOUS
 62
    7
 10
582.63212526654991
 20
1321.67857
 11
584.57704526654993
 21
1320.57527
  0
LINE
  8
_0-8_小物
  6
CONTINUOUS
 62
    7
 10
584.57704526654993
 20
1320.57527
 11
584.47237526654988
 21
1318.5780099999999
  0
LINE
  8
_0-8_小物
  6
CONTINUOUS
 62
    7
 10
584.47237526654988
 20
1318.5780099999999
 11
582.47511526654989
 21
1318.682685
  0
LINE
  8
_0-8_小物
  6
CONTINUOUS
 62
    7
 10
582.73679526654996
 20
1323.6758300000001
 11
582.63212526654991
 21
1321.67857
  0
LINE
  8
_0-8_小物
  6
CONTINUOUS
 62
    7
 10
582.89380526654986
 20
1326.6717200000001
 11
584.83872526654989
 21
1325.5684200000001
  0
LINE
  8
_0-8_小物
  6
CONTINUOUS
 62
    7
 10
584.83872526654989
 20
1325.5684200000001
 11
584.73405526654983
 21
1323.57116
  0
LINE
  8
_0-8_小物
  6
CONTINUOUS
 62
    7
 10
584.73405526654983
 20
1323.57116
 11
582.73679526654996
 21
1323.6758300000001
  0
LINE
  8
_0-8_小物
  6
CONTINUOUS
 62
    7
 10
582.99847526654992
 20
1328.6689799999999
 11
582.89380526654986
 21
1326.6717200000001
  0
LINE
  8
_0-8_小物
  6
CONTINUOUS
 62
    7
 10
583.15548026654983
 20
1331.6648700000001
 11
585.10040526654984
 21
1330.561565
  0
LINE
  8
_0-8_小物
  6
CONTINUOUS
 62
    7
 10
585.10040526654984
 20
1330.561565
 11
584.9957352665499
 21
1328.5643050000003
  0
LINE
  8
_0-8_小物
  6
CONTINUOUS
 62
    7
 10
584.9957352665499
 20
1328.5643050000003
 11
582.99847526654992
 21
1328.6689799999999
  0
LINE
  8
_0-8_小物
  6
CONTINUOUS
 62
    7
 10
583.26015526654987
 20
1333.6621250000001
 11
583.15548026654983
 21
1331.6648700000001
  0
LINE
  8
_0-8_小物
  6
CONTINUOUS
 62
    7
 10
583.4171602665499
 20
1336.658015
 11
585.36208526654991
 21
1335.5547150000002
  0
LINE
  8
_0-8_小物
  6
CONTINUOUS
 62
    7
 10
585.36208526654991
 20
1335.5547150000002
 11
585.25741526654986
 21
1333.5574549999999
  0
LINE
  8
_0-8_小物
  6
CONTINUOUS
 62
    7
 10
585.25741526654986
 20
1333.5574549999999
 11
583.26015526654987
 21
1333.6621250000001
  0
LINE
  8
_0-8_小物
  6
CONTINUOUS
 62
    7
 10
583.52183526654994
 20
1338.6552750000001
 11
583.4171602665499
 21
1336.658015
  0
LINE
  8
_0-8_小物
  6
CONTINUOUS
 62
    7
 10
585.62376526654987
 20
1340.5478599999999
 11
585.51909526654993
 21
1338.5506
  0
LINE
  8
_0-8_小物
  6
CONTINUOUS
 62
    7
 10
585.51909526654993
 20
1338.5506
 11
583.52183526654994
 21
1338.6552750000001
  0
LINE
  8
_0-8_小物
  6
CONTINUOUS
 62
    7
 10
583.8833902665499
 20
1341.462505
 11
585.62376526654987
 21
1340.5478599999999
  0
LINE
  8
_0-8_小物
  6
CONTINUOUS
 62
    7
 10
593.2916652665499
 20
1318.682685
 11
593.39633526654984
 21
1316.6854250000001
  0
LINE
  8
_0-8_小物
  6
CONTINUOUS
 62
    7
 10
593.13465526654988
 20
1321.67857
 11
591.18973026654987
 21
1320.57527
  0
LINE
  8
_0-8_小物
  6
CONTINUOUS
 62
    7
 10
591.18973026654987
 20
1320.57527
 11
591.29440526654992
 21
1318.5780099999999
  0
LINE
  8
_0-8_小物
  6
CONTINUOUS
 62
    7
 10
591.29440526654992
 20
1318.5780099999999
 11
593.2916652665499
 21
1318.682685
  0
LINE
  8
_0-8_小物
  6
CONTINUOUS
 62
    7
 10
593.02998526654983
 20
1323.6758300000001
 11
593.13465526654988
 21
1321.67857
  0
LINE
  8
_0-8_小物
  6
CONTINUOUS
 62
    7
 10
592.87297526654993
 20
1326.6717200000001
 11
590.92805026654992
 21
1325.5684200000001
  0
LINE
  8
_0-8_小物
  6
CONTINUOUS
 62
    7
 10
590.92805026654992
 20
1325.5684200000001
 11
591.03272526654996
 21
1323.57116
  0
LINE
  8
_0-8_小物
  6
CONTINUOUS
 62
    7
 10
591.03272526654996
 20
1323.57116
 11
593.02998526654983
 21
1323.6758300000001
  0
LINE
  8
_0-8_小物
  6
CONTINUOUS
 62
    7
 10
592.76830526654987
 20
1328.6689799999999
 11
592.87297526654993
 21
1326.6717200000001
  0
LINE
  8
_0-8_小物
  6
CONTINUOUS
 62
    7
 10
592.61129526654986
 20
1331.6648700000001
 11
590.66637526654995
 21
1330.561565
  0
LINE
  8
_0-8_小物
  6
CONTINUOUS
 62
    7
 10
590.66637526654995
 20
1330.561565
 11
590.77104526654989
 21
1328.5643050000003
  0
LINE
  8
_0-8_小物
  6
CONTINUOUS
 62
    7
 10
590.77104526654989
 20
1328.5643050000003
 11
592.76830526654987
 21
1328.6689799999999
  0
LINE
  8
_0-8_小物
  6
CONTINUOUS
 62
    7
 10
592.50662526654992
 20
1333.6621250000001
 11
592.61129526654986
 21
1331.6648700000001
  0
LINE
  8
_0-8_小物
  6
CONTINUOUS
 62
    7
 10
592.3496152665499
 20
1336.658015
 11
590.40469526654988
 21
1335.5547150000002
  0
LINE
  8
_0-8_小物
  6
CONTINUOUS
 62
    7
 10
590.40469526654988
 20
1335.5547150000002
 11
590.50936526654993
 21
1333.5574549999999
  0
LINE
  8
_0-8_小物
  6
CONTINUOUS
 62
    7
 10
590.50936526654993
 20
1333.5574549999999
 11
592.50662526654992
 21
1333.6621250000001
  0
LINE
  8
_0-8_小物
  6
CONTINUOUS
 62
    7
 10
592.24494526654985
 20
1338.6552750000001
 11
592.3496152665499
 21
1336.658015
  0
LINE
  8
_0-8_小物
  6
CONTINUOUS
 62
    7
 10
590.14301526654992
 20
1340.5478599999999
 11
590.24768526654987
 21
1338.5506
  0
LINE
  8
_0-8_小物
  6
CONTINUOUS
 62
    7
 10
590.24768526654987
 20
1338.5506
 11
592.24494526654985
 21
1338.6552750000001
  0
LINE
  8
_0-8_小物
  6
CONTINUOUS
 62
    7
 10
587.94269526654989
 20
1317.5218099999997
 11
586.00899526654985
 21
1319.2374800000002
  0
LINE
  8
_0-8_小物
  6
CONTINUOUS
 62
    7
 10
589.75283526654994
 20
1319.3319499999998
 11
587.8833902665499
 21
1317.4625050000002
  0
LINE
  8
_0-8_小物
  6
CONTINUOUS
 62
    7
 10
591.8833902665499
 20
1341.462505
 11
590.14301526654992
 21
1340.5478599999999
  0
LINE
  8
_0-8_小物
  6
CONTINUOUS
 62
    7
 10
583.26015526654987
 20
1333.6621250000001
 11
581.56479026654983
 21
1338.3201050000002
  0
LINE
  8
_0-8_小物
  6
CONTINUOUS
 62
    7
 10
584.32433026654985
 20
1333.6621250000001
 11
582.50448026654988
 21
1338.6621250000001
  0
LINE
  8
_0-8_小物
  6
CONTINUOUS
 62
    7
 10
592.50662526654992
 20
1333.6621250000001
 11
594.20199026654996
 21
1338.3201050000002
  0
LINE
  8
_0-8_小物
  6
CONTINUOUS
 62
    7
 10
585.8656452665499
 20
1316.50225
 11
582.37044526654995
 21
1316.6854250000001
  0
LINE
  8
_0-8_小物
  6
CONTINUOUS
 62
    7
 10
582.37044526654995
 20
1316.6854250000001
 11
584.26303026654989
 21
1314.5834950000003
  0
LINE
  8
_0-8_小物
  6
CONTINUOUS
 62
    7
 10
584.26303026654989
 20
1314.5834950000003
 11
585.76097526654985
 21
1314.5049900000004
  0
LINE
  8
_0-8_小物
  6
CONTINUOUS
 62
    7
 10
585.76097526654985
 20
1314.5049900000004
 11
587.3833902665499
 21
1345.4625050000002
  0
LINE
  8
_0-8_小物
  6
CONTINUOUS
 62
    7
 10
583.8833902665499
 20
1341.462505
 11
583.8833902665499
 21
1345.4625050000002
  0
LINE
  8
_0-8_小物
  6
CONTINUOUS
 62
    7
 10
589.9011302665499
 20
1316.50225
 11
593.39633526654984
 21
1316.6854250000001
  0
LINE
  8
_0-8_小物
  6
CONTINUOUS
 62
    7
 10
593.39633526654984
 20
1316.6854250000001
 11
591.5037502665499
 21
1314.5834950000003
  0
LINE
  8
_0-8_小物
  6
CONTINUOUS
 62
    7
 10
591.5037502665499
 20
1314.5834950000003
 11
590.00580526654994
 21
1314.5049900000004
  0
LINE
  8
_0-8_小物
  6
CONTINUOUS
 62
    7
 10
590.00580526654994
 20
1314.5049900000004
 11
588.3833902665499
 21
1345.4625050000002
  0
LINE
  8
_0-8_小物
  6
CONTINUOUS
 62
    7
 10
591.8833902665499
 20
1341.462505
 11
591.8833902665499
 21
1345.4625050000002
  0
LINE
  8
_0-8_小物
  6
CONTINUOUS
 62
    7
 10
594.20199026654996
 20
1338.3201050000002
 11
595.19434526654993
 21
1345.12373
  0
ARC
  8
_0-8_小物
  6
CONTINUOUS
 62
    7
 10
594.79853526654983
 20
1345.1814600000002
 40
0.4
 50
351.701533999996
 51
81.869898000009968
  0
LINE
  8
_0-8_小物
  6
CONTINUOUS
 62
    7
 10
594.85510026654993
 20
1345.57744
 11
594.65827526654994
 21
1345.6055600000002
  0
ARC
  8
_0-8_小物
  6
CONTINUOUS
 62
    7
 10
594.60171026654984
 20
1345.2095799999997
 40
0.4
 50
81.869897999979997
 51
171.86989800000001
  0
LINE
  8
_0-8_小物
  6
CONTINUOUS
 62
    7
 10
594.20573026654984
 20
1345.2661450000001
 11
593.26229526654993
 21
1338.6621250000001
  0
LINE
  8
_0-8_小物
  6
CONTINUOUS
 62
    7
 10
581.56479026654983
 20
1338.3201050000002
 11
580.57243526654986
 21
1345.12373
  0
ARC
  8
_0-8_小物
  6
CONTINUOUS
 62
    7
 10
580.96824526654996
 20
1345.1814600000002
 40
0.4
 50
98.130101999969995
 51
188.29846599999999
  0
LINE
  8
_0-8_小物
  6
CONTINUOUS
 62
    7
 10
580.91167526654988
 20
1345.57744
 11
581.10850026654987
 21
1345.6055600000002
  0
ARC
  8
_0-8_小物
  6
CONTINUOUS
 62
    7
 10
581.16507026654995
 20
1345.2095799999997
 40
0.4
 50
8.1301019999750004
 51
98.130101999969995
  0
LINE
  8
_0-8_小物
  6
CONTINUOUS
 62
    7
 10
581.56105026654996
 20
1345.2661450000001
 11
582.50448026654988
 21
1338.6621250000001
  0
LINE
  8
_0-8_小物
  6
CONTINUOUS
 62
    7
 10
581.56479026654983
 20
1338.3201050000002
 11
580.57243526654986
 21
1345.12373
  0
ARC
  8
_0-8_小物
  6
CONTINUOUS
 62
    7
 10
580.96824526654996
 20
1345.1814600000002
 40
0.4
 50
98.130101999969995
 51
188.29846599999999
  0
LINE
  8
_0-8_小物
  6
CONTINUOUS
 62
    7
 10
580.91167526654988
 20
1345.57744
 11
581.10850026654987
 21
1345.6055600000002
  0
ARC
  8
_0-8_小物
  6
CONTINUOUS
 62
    7
 10
581.16507026654995
 20
1345.2095799999997
 40
0.4
 50
8.1301019999750004
 51
98.130101999969995
  0
LINE
  8
_0-8_小物
  6
CONTINUOUS
 62
    7
 10
581.56105026654996
 20
1345.2661450000001
 11
582.50448026654988
 21
1338.6621250000001
  0
LINE
  8
_0-8_小物
  6
CONTINUOUS
 62
    7
 10
582.8833902665499
 20
1353.462505
 11
583.8833902665499
 21
1348.462505
  0
LINE
  8
_0-8_小物
  6
CONTINUOUS
 62
    7
 10
583.8833902665499
 20
1353.462505
 11
583.8833902665499
 21
1345.4625050000002
  0
LINE
  8
_0-8_小物
  6
CONTINUOUS
 62
    7
 10
587.3833902665499
 20
1345.4625050000002
 11
587.8833902665499
 21
1345.4625050000002
  0
LINE
  8
_0-8_小物
  6
CONTINUOUS
 62
    7
 10
587.8833902665499
 20
1348.462505
 11
587.8833902665499
 21
1353.462505
  0
LINE
  8
_0-8_小物
  6
CONTINUOUS
 62
    7
 10
586.8833902665499
 20
1353.462505
 11
587.8833902665499
 21
1348.462505
  0
LINE
  8
_0-8_小物
  6
CONTINUOUS
 62
    7
 10
588.8833902665499
 20
1353.462505
 11
587.8833902665499
 21
1348.462505
  0
LINE
  8
_0-8_小物
  6
CONTINUOUS
 62
    7
 10
592.8833902665499
 20
1353.462505
 11
591.8833902665499
 21
1348.462505
  0
LINE
  8
_0-8_小物
  6
CONTINUOUS
 62
    7
 10
591.8833902665499
 20
1353.462505
 11
591.8833902665499
 21
1345.4625050000002
  0
LINE
  8
_0-8_小物
  6
CONTINUOUS
 62
    7
 10
588.3833902665499
 20
1345.4625050000002
 11
587.8833902665499
 21
1345.4625050000002
  0
ARC
  8
_0-8_小物
  6
CONTINUOUS
 62
    7
 10
586.38062526654994
 20
1358.333795
 40
3
 50
128.61463800000001
 51
177.54107400000001
  0
ARC
  8
_0-8_小物
  6
CONTINUOUS
 62
    7
 10
587.8833902665499
 20
1356.462505
 40
5.4000000000000004
 50
90
 51
128.682187
  0
ARC
  8
_0-8_小物
  6
CONTINUOUS
 62
    7
 10
587.8833902665499
 20
1356.462505
 40
5.4000000000000004
 50
51.148938000000001
 51
90
  0
ARC
  8
_0-8_小物
  6
CONTINUOUS
 62
    7
 10
589.38615026654986
 20
1358.333795
 40
3
 50
2.458925999996
 51
51.385362000000001
  0
LINE
  8
_0-8_小物
  6
CONTINUOUS
 62
    7
 10
596.8833902665499
 20
1358.462505
 11
578.8833902665499
 21
1358.462505
  0
LINE
  8
_0-8_小物
  6
CONTINUOUS
 62
    7
 10
578.8833902665499
 20
1358.462505
 11
578.8833902665499
 21
1356.962505
  0
LINE
  8
_0-8_小物
  6
CONTINUOUS
 62
    7
 10
596.8833902665499
 20
1358.462505
 11
596.8833902665499
 21
1356.962505
  0
LINE
  8
_0-8_小物
  6
CONTINUOUS
 62
    7
 10
997.88339026655001
 20
1309.7787699999999
 11
997.88339026655001
 21
1363.501415
  0
LINE
  8
_0-8_小物
  6
CONTINUOUS
 62
    7
 10
1003.2916652665499
 20
1318.682685
 11
1003.39633526655
 21
1316.6854250000001
  0
LINE
  8
_0-8_小物
  6
CONTINUOUS
 62
    7
 10
1003.13465526655
 20
1321.67857
 11
1001.18973026655
 21
1320.57527
  0
LINE
  8
_0-8_小物
  6
CONTINUOUS
 62
    7
 10
1001.18973026655
 20
1320.57527
 11
1001.29440526655
 21
1318.5780099999999
  0
LINE
  8
_0-8_小物
  6
CONTINUOUS
 62
    7
 10
1001.29440526655
 20
1318.5780099999999
 11
1003.2916652665499
 21
1318.682685
  0
LINE
  8
_0-8_小物
  6
CONTINUOUS
 62
    7
 10
1003.0299852665498
 20
1323.6758300000001
 11
1003.13465526655
 21
1321.67857
  0
LINE
  8
_0-8_小物
  6
CONTINUOUS
 62
    7
 10
1002.8729752665499
 20
1326.6717200000001
 11
1000.9280502665499
 21
1325.5684200000001
  0
LINE
  8
_0-8_小物
  6
CONTINUOUS
 62
    7
 10
1000.9280502665499
 20
1325.5684200000001
 11
1001.0327252665498
 21
1323.57116
  0
LINE
  8
_0-8_小物
  6
CONTINUOUS
 62
    7
 10
1001.0327252665498
 20
1323.57116
 11
1003.0299852665498
 21
1323.6758300000001
  0
LINE
  8
_0-8_小物
  6
CONTINUOUS
 62
    7
 10
1002.7683052665498
 20
1328.6689799999999
 11
1002.8729752665499
 21
1326.6717200000001
  0
LINE
  8
_0-8_小物
  6
CONTINUOUS
 62
    7
 10
1002.6112952665499
 20
1331.6648700000001
 11
1000.6663752665499
 21
1330.561565
  0
LINE
  8
_0-8_小物
  6
CONTINUOUS
 62
    7
 10
1000.6663752665499
 20
1330.561565
 11
1000.77104526655
 21
1328.5643050000003
  0
LINE
  8
_0-8_小物
  6
CONTINUOUS
 62
    7
 10
1000.77104526655
 20
1328.5643050000003
 11
1002.7683052665498
 21
1328.6689799999999
  0
LINE
  8
_0-8_小物
  6
CONTINUOUS
 62
    7
 10
1002.5066252665498
 20
1333.6621250000001
 11
1002.6112952665499
 21
1331.6648700000001
  0
LINE
  8
_0-8_小物
  6
CONTINUOUS
 62
    7
 10
1002.3496152665499
 20
1336.658015
 11
1000.4046952665499
 21
1335.5547150000002
  0
LINE
  8
_0-8_小物
  6
CONTINUOUS
 62
    7
 10
1000.4046952665499
 20
1335.5547150000002
 11
1000.50936526655
 21
1333.5574549999999
  0
LINE
  8
_0-8_小物
  6
CONTINUOUS
 62
    7
 10
1000.50936526655
 20
1333.5574549999999
 11
1002.5066252665498
 21
1333.6621250000001
  0
LINE
  8
_0-8_小物
  6
CONTINUOUS
 62
    7
 10
1002.2449452665498
 20
1338.6552750000001
 11
1002.3496152665499
 21
1336.658015
  0
LINE
  8
_0-8_小物
  6
CONTINUOUS
 62
    7
 10
1000.1430152665498
 20
1340.5478599999999
 11
1000.24768526655
 21
1338.5506
  0
LINE
  8
_0-8_小物
  6
CONTINUOUS
 62
    7
 10
1000.24768526655
 20
1338.5506
 11
1002.2449452665498
 21
1338.6552750000001
  0
LINE
  8
_0-8_小物
  6
CONTINUOUS
 62
    7
 10
1001.8833902665499
 20
1341.462505
 11
1000.1430152665498
 21
1340.5478599999999
  0
LINE
  8
_0-8_小物
  6
CONTINUOUS
 62
    7
 10
992.47511526654978
 20
1318.682685
 11
992.37044526655006
 21
1316.6854250000001
  0
LINE
  8
_0-8_小物
  6
CONTINUOUS
 62
    7
 10
992.63212526654991
 20
1321.67857
 11
994.57704526654993
 21
1320.57527
  0
LINE
  8
_0-8_小物
  6
CONTINUOUS
 62
    7
 10
994.57704526654993
 20
1320.57527
 11
994.47237526654999
 21
1318.5780099999999
  0
LINE
  8
_0-8_小物
  6
CONTINUOUS
 62
    7
 10
994.47237526654999
 20
1318.5780099999999
 11
992.47511526654978
 21
1318.682685
  0
LINE
  8
_0-8_小物
  6
CONTINUOUS
 62
    7
 10
992.73679526654973
 20
1323.6758300000001
 11
992.63212526654991
 21
1321.67857
  0
LINE
  8
_0-8_小物
  6
CONTINUOUS
 62
    7
 10
992.89380526654986
 20
1326.6717200000001
 11
994.83872526654989
 21
1325.5684200000001
  0
LINE
  8
_0-8_小物
  6
CONTINUOUS
 62
    7
 10
994.83872526654989
 20
1325.5684200000001
 11
994.73405526655006
 21
1323.57116
  0
LINE
  8
_0-8_小物
  6
CONTINUOUS
 62
    7
 10
994.73405526655006
 20
1323.57116
 11
992.73679526654973
 21
1323.6758300000001
  0
LINE
  8
_0-8_小物
  6
CONTINUOUS
 62
    7
 10
992.9984752665498
 20
1328.6689799999999
 11
992.89380526654986
 21
1326.6717200000001
  0
LINE
  8
_0-8_小物
  6
CONTINUOUS
 62
    7
 10
993.15548026654994
 20
1331.6648700000001
 11
995.10040526654973
 21
1330.561565
  0
LINE
  8
_0-8_小物
  6
CONTINUOUS
 62
    7
 10
995.10040526654973
 20
1330.561565
 11
994.99573526655001
 21
1328.5643050000003
  0
LINE
  8
_0-8_小物
  6
CONTINUOUS
 62
    7
 10
994.99573526655001
 20
1328.5643050000003
 11
992.9984752665498
 21
1328.6689799999999
  0
LINE
  8
_0-8_小物
  6
CONTINUOUS
 62
    7
 10
993.26015526654987
 20
1333.6621250000001
 11
993.15548026654994
 21
1331.6648700000001
  0
LINE
  8
_0-8_小物
  6
CONTINUOUS
 62
    7
 10
993.41716026654979
 20
1336.658015
 11
995.36208526654991
 21
1335.5547150000002
  0
LINE
  8
_0-8_小物
  6
CONTINUOUS
 62
    7
 10
995.36208526654991
 20
1335.5547150000002
 11
995.25741526654986
 21
1333.5574549999999
  0
LINE
  8
_0-8_小物
  6
CONTINUOUS
 62
    7
 10
995.25741526654986
 20
1333.5574549999999
 11
993.26015526654987
 21
1333.6621250000001
  0
LINE
  8
_0-8_小物
  6
CONTINUOUS
 62
    7
 10
993.52183526654983
 20
1338.6552750000001
 11
993.41716026654979
 21
1336.658015
  0
LINE
  8
_0-8_小物
  6
CONTINUOUS
 62
    7
 10
995.62376526654975
 20
1340.5478599999999
 11
995.51909526655004
 21
1338.5506
  0
LINE
  8
_0-8_小物
  6
CONTINUOUS
 62
    7
 10
995.51909526655004
 20
1338.5506
 11
993.52183526654983
 21
1338.6552750000001
  0
LINE
  8
_0-8_小物
  6
CONTINUOUS
 62
    7
 10
997.8240852665499
 20
1317.5218099999997
 11
999.75778526654983
 21
1319.2374800000002
  0
LINE
  8
_0-8_小物
  6
CONTINUOUS
 62
    7
 10
996.01394526654985
 20
1319.3319499999998
 11
997.88339026655001
 21
1317.4625050000002
  0
LINE
  8
_0-8_小物
  6
CONTINUOUS
 62
    7
 10
993.8833902665499
 20
1341.462505
 11
995.62376526654975
 21
1340.5478599999999
  0
LINE
  8
_0-8_小物
  6
CONTINUOUS
 62
    7
 10
1002.5066252665498
 20
1333.6621250000001
 11
1004.2019902665498
 21
1338.3201050000002
  0
LINE
  8
_0-8_小物
  6
CONTINUOUS
 62
    7
 10
993.26015526654987
 20
1333.6621250000001
 11
991.56479026654995
 21
1338.3201050000002
  0
LINE
  8
_0-8_小物
  6
CONTINUOUS
 62
    7
 10
999.90113026654979
 20
1316.50225
 11
1003.39633526655
 21
1316.6854250000001
  0
LINE
  8
_0-8_小物
  6
CONTINUOUS
 62
    7
 10
1003.39633526655
 20
1316.6854250000001
 11
1001.5037502665498
 21
1314.5834950000003
  0
LINE
  8
_0-8_小物
  6
CONTINUOUS
 62
    7
 10
1001.5037502665498
 20
1314.5834950000003
 11
1000.0058052665498
 21
1314.5049900000004
  0
LINE
  8
_0-8_小物
  6
CONTINUOUS
 62
    7
 10
1000.0058052665498
 20
1314.5049900000004
 11
998.3833902665499
 21
1345.4625050000002
  0
LINE
  8
_0-8_小物
  6
CONTINUOUS
 62
    7
 10
1001.8833902665499
 20
1341.462505
 11
1001.8833902665499
 21
1345.4625050000002
  0
LINE
  8
_0-8_小物
  6
CONTINUOUS
 62
    7
 10
995.8656452665499
 20
1316.50225
 11
992.37044526655006
 21
1316.6854250000001
  0
LINE
  8
_0-8_小物
  6
CONTINUOUS
 62
    7
 10
992.37044526655006
 20
1316.6854250000001
 11
994.26303026654978
 21
1314.5834950000003
  0
LINE
  8
_0-8_小物
  6
CONTINUOUS
 62
    7
 10
994.26303026654978
 20
1314.5834950000003
 11
995.76097526654985
 21
1314.5049900000004
  0
LINE
  8
_0-8_小物
  6
CONTINUOUS
 62
    7
 10
995.76097526654985
 20
1314.5049900000004
 11
997.3833902665499
 21
1345.4625050000002
  0
LINE
  8
_0-8_小物
  6
CONTINUOUS
 62
    7
 10
993.8833902665499
 20
1341.462505
 11
993.8833902665499
 21
1345.4625050000002
  0
LINE
  8
_0-8_小物
  6
CONTINUOUS
 62
    7
 10
991.56479026654995
 20
1338.3201050000002
 11
990.57243526654975
 21
1345.12373
  0
ARC
  8
_0-8_小物
  6
CONTINUOUS
 62
    7
 10
990.96824526654984
 20
1345.1814600000002
 40
0.4
 50
98.130101999990003
 51
188.29846599999999
  0
LINE
  8
_0-8_小物
  6
CONTINUOUS
 62
    7
 10
990.91167526654976
 20
1345.57744
 11
991.10850026654998
 21
1345.6055600000002
  0
ARC
  8
_0-8_小物
  6
CONTINUOUS
 62
    7
 10
991.16507026654995
 20
1345.2095799999997
 40
0.4
 50
8.1301019999570023
 51
98.130101999989975
  0
LINE
  8
_0-8_小物
  6
CONTINUOUS
 62
    7
 10
991.56105026654973
 20
1345.2661450000001
 11
992.50448026654988
 21
1338.6621250000001
  0
LINE
  8
_0-8_小物
  6
CONTINUOUS
 62
    7
 10
1004.2019902665498
 20
1338.3201050000002
 11
1005.1943452665498
 21
1345.12373
  0
ARC
  8
_0-8_小物
  6
CONTINUOUS
 62
    7
 10
1004.7985352665499
 20
1345.1814600000002
 40
0.4
 50
351.701533999996
 51
81.869898000009968
  0
LINE
  8
_0-8_小物
  6
CONTINUOUS
 62
    7
 10
1004.8551002665499
 20
1345.57744
 11
1004.6582752665499
 21
1345.6055600000002
  0
ARC
  8
_0-8_小物
  6
CONTINUOUS
 62
    7
 10
1004.6017102665497
 20
1345.2095799999997
 40
0.4
 50
81.869898000009982
 51
171.86989800000001
  0
LINE
  8
_0-8_小物
  6
CONTINUOUS
 62
    7
 10
1004.2057302665498
 20
1345.2661450000001
 11
1003.26229526655
 21
1338.6621250000001
  0
LINE
  8
_0-8_小物
  6
CONTINUOUS
 62
    7
 10
1004.2019902665498
 20
1338.3201050000002
 11
1005.1943452665498
 21
1345.12373
  0
ARC
  8
_0-8_小物
  6
CONTINUOUS
 62
    7
 10
1004.7985352665499
 20
1345.1814600000002
 40
0.4
 50
351.701533999996
 51
81.869898000009968
  0
LINE
  8
_0-8_小物
  6
CONTINUOUS
 62
    7
 10
1004.8551002665499
 20
1345.57744
 11
1004.6582752665499
 21
1345.6055600000002
  0
ARC
  8
_0-8_小物
  6
CONTINUOUS
 62
    7
 10
1004.6017102665497
 20
1345.2095799999997
 40
0.4
 50
81.869898000009982
 51
171.86989800000001
  0
LINE
  8
_0-8_小物
  6
CONTINUOUS
 62
    7
 10
1004.2057302665498
 20
1345.2661450000001
 11
1003.26229526655
 21
1338.6621250000001
  0
LINE
  8
_0-8_小物
  6
CONTINUOUS
 62
    7
 10
1002.8833902665499
 20
1353.462505
 11
1001.8833902665499
 21
1348.462505
  0
LINE
  8
_0-8_小物
  6
CONTINUOUS
 62
    7
 10
1001.8833902665499
 20
1353.462505
 11
1001.8833902665499
 21
1345.4625050000002
  0
LINE
  8
_0-8_小物
  6
CONTINUOUS
 62
    7
 10
998.3833902665499
 20
1345.4625050000002
 11
997.88339026655001
 21
1345.4625050000002
  0
LINE
  8
_0-8_小物
  6
CONTINUOUS
 62
    7
 10
997.88339026655001
 20
1348.462505
 11
997.88339026655001
 21
1353.462505
  0
LINE
  8
_0-8_小物
  6
CONTINUOUS
 62
    7
 10
998.88339026654978
 20
1353.462505
 11
997.88339026655001
 21
1348.462505
  0
LINE
  8
_0-8_小物
  6
CONTINUOUS
 62
    7
 10
996.8833902665499
 20
1353.462505
 11
997.88339026655001
 21
1348.462505
  0
LINE
  8
_0-8_小物
  6
CONTINUOUS
 62
    7
 10
992.8833902665499
 20
1353.462505
 11
993.8833902665499
 21
1348.462505
  0
LINE
  8
_0-8_小物
  6
CONTINUOUS
 62
    7
 10
993.8833902665499
 20
1353.462505
 11
993.8833902665499
 21
1345.4625050000002
  0
LINE
  8
_0-8_小物
  6
CONTINUOUS
 62
    7
 10
997.3833902665499
 20
1345.4625050000002
 11
997.88339026655001
 21
1345.4625050000002
  0
ARC
  8
_0-8_小物
  6
CONTINUOUS
 62
    7
 10
999.38615026654998
 20
1358.333795
 40
3
 50
2.458925999996
 51
51.385362000000001
  0
ARC
  8
_0-8_小物
  6
CONTINUOUS
 62
    7
 10
997.88339026655001
 20
1356.462505
 40
5.4000000000000004
 50
51.317813000000001
 51
90
  0
ARC
  8
_0-8_小物
  6
CONTINUOUS
 62
    7
 10
997.88339026655001
 20
1356.462505
 40
5.4000000000000004
 50
90
 51
128.85106200000001
  0
ARC
  8
_0-8_小物
  6
CONTINUOUS
 62
    7
 10
996.38062526654994
 20
1358.333795
 40
3
 50
128.61463800000001
 51
177.54107400000001
  0
LINE
  8
_0-8_小物
  6
CONTINUOUS
 62
    7
 10
988.8833902665499
 20
1358.462505
 11
1006.8833902665499
 21
1358.462505
  0
LINE
  8
_0-8_小物
  6
CONTINUOUS
 62
    7
 10
1006.8833902665499
 20
1358.462505
 11
1006.8833902665499
 21
1356.962505
  0
LINE
  8
_0-8_小物
  6
CONTINUOUS
 62
    7
 10
988.8833902665499
 20
1358.462505
 11
988.8833902665499
 21
1356.962505
  0
LINE
  8
_0-8_小物
  6
CONTINUOUS
 62
    7
 10
1037.8833902665499
 20
1309.7787699999999
 11
1037.8833902665499
 21
1363.501415
  0
LINE
  8
_0-8_小物
  6
CONTINUOUS
 62
    7
 10
1043.2916652665499
 20
1318.682685
 11
1043.3963352665498
 21
1316.6854250000001
  0
LINE
  8
_0-8_小物
  6
CONTINUOUS
 62
    7
 10
1043.13465526655
 20
1321.67857
 11
1041.1897302665498
 21
1320.57527
  0
LINE
  8
_0-8_小物
  6
CONTINUOUS
 62
    7
 10
1041.1897302665498
 20
1320.57527
 11
1041.2944052665498
 21
1318.5780099999999
  0
LINE
  8
_0-8_小物
  6
CONTINUOUS
 62
    7
 10
1041.2944052665498
 20
1318.5780099999999
 11
1043.2916652665499
 21
1318.682685
  0
LINE
  8
_0-8_小物
  6
CONTINUOUS
 62
    7
 10
1043.0299852665498
 20
1323.6758300000001
 11
1043.13465526655
 21
1321.67857
  0
LINE
  8
_0-8_小物
  6
CONTINUOUS
 62
    7
 10
1042.8729752665499
 20
1326.6717200000001
 11
1040.9280502665501
 21
1325.5684200000001
  0
LINE
  8
_0-8_小物
  6
CONTINUOUS
 62
    7
 10
1040.9280502665501
 20
1325.5684200000001
 11
1041.0327252665502
 21
1323.57116
  0
LINE
  8
_0-8_小物
  6
CONTINUOUS
 62
    7
 10
1041.0327252665502
 20
1323.57116
 11
1043.0299852665498
 21
1323.6758300000001
  0
LINE
  8
_0-8_小物
  6
CONTINUOUS
 62
    7
 10
1042.7683052665498
 20
1328.6689799999999
 11
1042.8729752665499
 21
1326.6717200000001
  0
LINE
  8
_0-8_小物
  6
CONTINUOUS
 62
    7
 10
1042.6112952665499
 20
1331.6648700000001
 11
1040.6663752665499
 21
1330.561565
  0
LINE
  8
_0-8_小物
  6
CONTINUOUS
 62
    7
 10
1040.6663752665499
 20
1330.561565
 11
1040.7710452665499
 21
1328.5643050000003
  0
LINE
  8
_0-8_小物
  6
CONTINUOUS
 62
    7
 10
1040.7710452665499
 20
1328.5643050000003
 11
1042.7683052665498
 21
1328.6689799999999
  0
LINE
  8
_0-8_小物
  6
CONTINUOUS
 62
    7
 10
1042.5066252665499
 20
1333.6621250000001
 11
1042.6112952665499
 21
1331.6648700000001
  0
LINE
  8
_0-8_小物
  6
CONTINUOUS
 62
    7
 10
1042.34961526655
 20
1336.658015
 11
1040.4046952665499
 21
1335.5547150000002
  0
LINE
  8
_0-8_小物
  6
CONTINUOUS
 62
    7
 10
1040.4046952665499
 20
1335.5547150000002
 11
1040.50936526655
 21
1333.5574549999999
  0
LINE
  8
_0-8_小物
  6
CONTINUOUS
 62
    7
 10
1040.50936526655
 20
1333.5574549999999
 11
1042.5066252665499
 21
1333.6621250000001
  0
LINE
  8
_0-8_小物
  6
CONTINUOUS
 62
    7
 10
1042.2449452665498
 20
1338.6552750000001
 11
1042.34961526655
 21
1336.658015
  0
LINE
  8
_0-8_小物
  6
CONTINUOUS
 62
    7
 10
1040.1430152665498
 20
1340.5478599999999
 11
1040.2476852665495
 21
1338.5506
  0
LINE
  8
_0-8_小物
  6
CONTINUOUS
 62
    7
 10
1040.2476852665495
 20
1338.5506
 11
1042.2449452665498
 21
1338.6552750000001
  0
LINE
  8
_0-8_小物
  6
CONTINUOUS
 62
    7
 10
1041.8833902665499
 20
1341.462505
 11
1040.1430152665498
 21
1340.5478599999999
  0
LINE
  8
_0-8_小物
  6
CONTINUOUS
 62
    7
 10
1032.4751152665499
 20
1318.682685
 11
1032.37044526655
 21
1316.6854250000001
  0
LINE
  8
_0-8_小物
  6
CONTINUOUS
 62
    7
 10
1032.6321252665502
 20
1321.67857
 11
1034.5770452665499
 21
1320.57527
  0
LINE
  8
_0-8_小物
  6
CONTINUOUS
 62
    7
 10
1034.5770452665499
 20
1320.57527
 11
1034.4723752665495
 21
1318.5780099999999
  0
LINE
  8
_0-8_小物
  6
CONTINUOUS
 62
    7
 10
1034.4723752665495
 20
1318.5780099999999
 11
1032.4751152665499
 21
1318.682685
  0
LINE
  8
_0-8_小物
  6
CONTINUOUS
 62
    7
 10
1032.73679526655
 20
1323.6758300000001
 11
1032.6321252665502
 21
1321.67857
  0
LINE
  8
_0-8_小物
  6
CONTINUOUS
 62
    7
 10
1032.8938052665499
 20
1326.6717200000001
 11
1034.8387252665498
 21
1325.5684200000001
  0
LINE
  8
_0-8_小物
  6
CONTINUOUS
 62
    7
 10
1034.8387252665498
 20
1325.5684200000001
 11
1034.7340552665501
 21
1323.57116
  0
LINE
  8
_0-8_小物
  6
CONTINUOUS
 62
    7
 10
1034.7340552665501
 20
1323.57116
 11
1032.73679526655
 21
1323.6758300000001
  0
LINE
  8
_0-8_小物
  6
CONTINUOUS
 62
    7
 10
1032.9984752665498
 20
1328.6689799999999
 11
1032.8938052665499
 21
1326.6717200000001
  0
LINE
  8
_0-8_小物
  6
CONTINUOUS
 62
    7
 10
1033.1554802665498
 20
1331.6648700000001
 11
1035.1004052665498
 21
1330.561565
  0
LINE
  8
_0-8_小物
  6
CONTINUOUS
 62
    7
 10
1035.1004052665498
 20
1330.561565
 11
1034.9957352665499
 21
1328.5643050000003
  0
LINE
  8
_0-8_小物
  6
CONTINUOUS
 62
    7
 10
1034.9957352665499
 20
1328.5643050000003
 11
1032.9984752665498
 21
1328.6689799999999
  0
LINE
  8
_0-8_小物
  6
CONTINUOUS
 62
    7
 10
1033.2601552665499
 20
1333.6621250000001
 11
1033.1554802665498
 21
1331.6648700000001
  0
LINE
  8
_0-8_小物
  6
CONTINUOUS
 62
    7
 10
1033.4171602665499
 20
1336.658015
 11
1035.3620852665499
 21
1335.5547150000002
  0
LINE
  8
_0-8_小物
  6
CONTINUOUS
 62
    7
 10
1035.3620852665499
 20
1335.5547150000002
 11
1035.2574152665502
 21
1333.5574549999999
  0
LINE
  8
_0-8_小物
  6
CONTINUOUS
 62
    7
 10
1035.2574152665502
 20
1333.5574549999999
 11
1033.2601552665499
 21
1333.6621250000001
  0
LINE
  8
_0-8_小物
  6
CONTINUOUS
 62
    7
 10
1033.5218352665499
 20
1338.6552750000001
 11
1033.4171602665499
 21
1336.658015
  0
LINE
  8
_0-8_小物
  6
CONTINUOUS
 62
    7
 10
1035.6237652665498
 20
1340.5478599999999
 11
1035.5190952665498
 21
1338.5506
  0
LINE
  8
_0-8_小物
  6
CONTINUOUS
 62
    7
 10
1035.5190952665498
 20
1338.5506
 11
1033.5218352665499
 21
1338.6552750000001
  0
LINE
  8
_0-8_小物
  6
CONTINUOUS
 62
    7
 10
1037.8240852665499
 20
1317.5218099999997
 11
1039.7577852665499
 21
1319.2374800000002
  0
LINE
  8
_0-8_小物
  6
CONTINUOUS
 62
    7
 10
1036.0139452665499
 20
1319.3319499999998
 11
1037.8833902665499
 21
1317.4625050000002
  0
LINE
  8
_0-8_小物
  6
CONTINUOUS
 62
    7
 10
1033.8833902665497
 20
1341.462505
 11
1035.6237652665498
 21
1340.5478599999999
  0
LINE
  8
_0-8_小物
  6
CONTINUOUS
 62
    7
 10
1042.5066252665499
 20
1333.6621250000001
 11
1044.2019902665497
 21
1338.3201050000002
  0
LINE
  8
_0-8_小物
  6
CONTINUOUS
 62
    7
 10
1033.2601552665499
 20
1333.6621250000001
 11
1031.5647902665501
 21
1338.3201050000002
  0
LINE
  8
_0-8_小物
  6
CONTINUOUS
 62
    7
 10
1039.9011302665499
 20
1316.50225
 11
1043.3963352665498
 21
1316.6854250000001
  0
LINE
  8
_0-8_小物
  6
CONTINUOUS
 62
    7
 10
1043.3963352665498
 20
1316.6854250000001
 11
1041.5037502665498
 21
1314.5834950000003
  0
LINE
  8
_0-8_小物
  6
CONTINUOUS
 62
    7
 10
1041.5037502665498
 20
1314.5834950000003
 11
1040.0058052665499
 21
1314.5049900000004
  0
LINE
  8
_0-8_小物
  6
CONTINUOUS
 62
    7
 10
1040.0058052665499
 20
1314.5049900000004
 11
1038.3833902665499
 21
1345.4625050000002
  0
LINE
  8
_0-8_小物
  6
CONTINUOUS
 62
    7
 10
1041.8833902665499
 20
1341.462505
 11
1041.8833902665499
 21
1345.4625050000002
  0
LINE
  8
_0-8_小物
  6
CONTINUOUS
 62
    7
 10
1035.86564526655
 20
1316.50225
 11
1032.37044526655
 21
1316.6854250000001
  0
LINE
  8
_0-8_小物
  6
CONTINUOUS
 62
    7
 10
1032.37044526655
 20
1316.6854250000001
 11
1034.2630302665498
 21
1314.5834950000003
  0
LINE
  8
_0-8_小物
  6
CONTINUOUS
 62
    7
 10
1034.2630302665498
 20
1314.5834950000003
 11
1035.7609752665498
 21
1314.5049900000004
  0
LINE
  8
_0-8_小物
  6
CONTINUOUS
 62
    7
 10
1035.7609752665498
 20
1314.5049900000004
 11
1037.3833902665497
 21
1345.4625050000002
  0
LINE
  8
_0-8_小物
  6
CONTINUOUS
 62
    7
 10
1033.8833902665497
 20
1341.462505
 11
1033.8833902665497
 21
1345.4625050000002
  0
LINE
  8
_0-8_小物
  6
CONTINUOUS
 62
    7
 10
1031.5647902665501
 20
1338.3201050000002
 11
1030.5724352665497
 21
1345.12373
  0
ARC
  8
_0-8_小物
  6
CONTINUOUS
 62
    7
 10
1030.9682452665497
 20
1345.1814600000002
 40
0.4
 50
98.130101999979999
 51
188.29846599999999
  0
LINE
  8
_0-8_小物
  6
CONTINUOUS
 62
    7
 10
1030.9116752665498
 20
1345.57744
 11
1031.1085002665495
 21
1345.6055600000002
  0
ARC
  8
_0-8_小物
  6
CONTINUOUS
 62
    7
 10
1031.1650702665499
 20
1345.2095799999997
 40
0.4
 50
8.1301019999570023
 51
98.130101999989975
  0
LINE
  8
_0-8_小物
  6
CONTINUOUS
 62
    7
 10
1031.56105026655
 20
1345.2661450000001
 11
1032.5044802665502
 21
1338.6621250000001
  0
LINE
  8
_0-8_小物
  6
CONTINUOUS
 62
    7
 10
1044.2019902665497
 20
1338.3201050000002
 11
1045.1943452665498
 21
1345.12373
  0
ARC
  8
_0-8_小物
  6
CONTINUOUS
 62
    7
 10
1044.7985352665501
 20
1345.1814600000002
 40
0.4
 50
351.701533999996
 51
81.869898000009968
  0
LINE
  8
_0-8_小物
  6
CONTINUOUS
 62
    7
 10
1044.8551002665499
 20
1345.57744
 11
1044.6582752665499
 21
1345.6055600000002
  0
ARC
  8
_0-8_小物
  6
CONTINUOUS
 62
    7
 10
1044.6017102665498
 20
1345.2095799999997
 40
0.4
 50
81.869897999990002
 51
171.86989800000001
  0
LINE
  8
_0-8_小物
  6
CONTINUOUS
 62
    7
 10
1044.2057302665498
 20
1345.2661450000001
 11
1043.2622952665499
 21
1338.6621250000001
  0
LINE
  8
_0-8_小物
  6
CONTINUOUS
 62
    7
 10
1044.2019902665497
 20
1338.3201050000002
 11
1045.1943452665498
 21
1345.12373
  0
ARC
  8
_0-8_小物
  6
CONTINUOUS
 62
    7
 10
1044.7985352665501
 20
1345.1814600000002
 40
0.4
 50
351.701533999996
 51
81.869898000009968
  0
LINE
  8
_0-8_小物
  6
CONTINUOUS
 62
    7
 10
1044.8551002665499
 20
1345.57744
 11
1044.6582752665499
 21
1345.6055600000002
  0
ARC
  8
_0-8_小物
  6
CONTINUOUS
 62
    7
 10
1044.6017102665498
 20
1345.2095799999997
 40
0.4
 50
81.869897999990002
 51
171.86989800000001
  0
LINE
  8
_0-8_小物
  6
CONTINUOUS
 62
    7
 10
1044.2057302665498
 20
1345.2661450000001
 11
1043.2622952665499
 21
1338.6621250000001
  0
LINE
  8
_0-8_小物
  6
CONTINUOUS
 62
    7
 10
1042.8833902665499
 20
1353.462505
 11
1041.8833902665499
 21
1348.462505
  0
LINE
  8
_0-8_小物
  6
CONTINUOUS
 62
    7
 10
1041.8833902665499
 20
1353.462505
 11
1041.8833902665499
 21
1345.4625050000002
  0
LINE
  8
_0-8_小物
  6
CONTINUOUS
 62
    7
 10
1038.3833902665499
 20
1345.4625050000002
 11
1037.8833902665499
 21
1345.4625050000002
  0
LINE
  8
_0-8_小物
  6
CONTINUOUS
 62
    7
 10
1037.8833902665499
 20
1348.462505
 11
1037.8833902665499
 21
1353.462505
  0
LINE
  8
_0-8_小物
  6
CONTINUOUS
 62
    7
 10
1038.8833902665499
 20
1353.462505
 11
1037.8833902665499
 21
1348.462505
  0
LINE
  8
_0-8_小物
  6
CONTINUOUS
 62
    7
 10
1036.8833902665499
 20
1353.462505
 11
1037.8833902665499
 21
1348.462505
  0
LINE
  8
_0-8_小物
  6
CONTINUOUS
 62
    7
 10
1032.8833902665501
 20
1353.462505
 11
1033.8833902665497
 21
1348.462505
  0
LINE
  8
_0-8_小物
  6
CONTINUOUS
 62
    7
 10
1033.8833902665497
 20
1353.462505
 11
1033.8833902665497
 21
1345.4625050000002
  0
LINE
  8
_0-8_小物
  6
CONTINUOUS
 62
    7
 10
1037.3833902665497
 20
1345.4625050000002
 11
1037.8833902665499
 21
1345.4625050000002
  0
ARC
  8
_0-8_小物
  6
CONTINUOUS
 62
    7
 10
1039.38615026655
 20
1358.333795
 40
3
 50
2.458925999996
 51
51.385362000000001
  0
ARC
  8
_0-8_小物
  6
CONTINUOUS
 62
    7
 10
1037.8833902665499
 20
1356.462505
 40
5.4000000000000004
 50
51.317813000000001
 51
90
  0
ARC
  8
_0-8_小物
  6
CONTINUOUS
 62
    7
 10
1037.8833902665499
 20
1356.462505
 40
5.4000000000000004
 50
90
 51
128.85106200000001
  0
ARC
  8
_0-8_小物
  6
CONTINUOUS
 62
    7
 10
1036.3806252665499
 20
1358.333795
 40
3
 50
128.61463800000001
 51
177.54107400000001
  0
LINE
  8
_0-8_小物
  6
CONTINUOUS
 62
    7
 10
1028.8833902665499
 20
1358.462505
 11
1046.8833902665501
 21
1358.462505
  0
LINE
  8
_0-8_小物
  6
CONTINUOUS
 62
    7
 10
1046.8833902665501
 20
1358.462505
 11
1046.8833902665501
 21
1356.962505
  0
LINE
  8
_0-8_小物
  6
CONTINUOUS
 62
    7
 10
1028.8833902665499
 20
1358.462505
 11
1028.8833902665499
 21
1356.962505
  0
LINE
  8
_0-8_小物
  6
CONTINUOUS
 62
    7
 10
625.62376526654987
 20
1340.5478599999999
 11
625.51909526654993
 21
1338.5506
  0
LINE
  8
_0-8_小物
  6
CONTINUOUS
 62
    7
 10
625.51909526654993
 20
1338.5506
 11
623.52183526654994
 21
1338.6552750000001
  0
LINE
  8
_0-8_小物
  6
CONTINUOUS
 62
    7
 10
591.42175184634993
 20
1333.6052702585998
 11
593.26229526654993
 21
1338.6621250000001
  0
LINE
  8
_0-8_小物
  6
CONTINUOUS
 62
    7
 10
624.3450235895499
 20
1333.6052705257
 11
622.50448026654988
 21
1338.6621250000001
  0
LINE
  8
_0-8_小物
  6
CONTINUOUS
 62
    7
 10
631.42175184634993
 20
1333.6052702585998
 11
633.26229526654993
 21
1338.6621250000001
  0
LINE
  8
_0-8_小物
  6
CONTINUOUS
 62
    7
 10
994.3450235895499
 20
1333.6052705257
 11
992.50448026654988
 21
1338.6621250000001
  0
LINE
  8
_0-8_小物
  6
CONTINUOUS
 62
    7
 10
1001.4217518463498
 20
1333.6052702585998
 11
1003.26229526655
 21
1338.6621250000001
  0
LINE
  8
_0-8_小物
  6
CONTINUOUS
 62
    7
 10
1034.34502358955
 20
1333.6052705257
 11
1032.5044802665502
 21
1338.6621250000001
  0
LINE
  8
_0-8_小物
  6
CONTINUOUS
 62
    7
 10
1041.4217518463499
 20
1333.6052702585998
 11
1043.2622952665499
 21
1338.6621250000001
  0
LINE
  8
_0-4_フレ_ム
  6
CONTINUOUS
 62
    7
 10
1881.5833902665499
 20
1366.4625050000002
 11
1881.5833902665499
 21
1376.462505
  0
ARC
  8
_0-4_フレ_ム
  6
CONTINUOUS
 62
    7
 10
1868.3833902665499
 20
1408.8887199999999
 40
0.5
 50
180
 51
257.21094599999998
  0
ARC
  8
_0-4_フレ_ム
  6
CONTINUOUS
 62
    7
 10
1868.3833902665499
 20
1411.462505
 40
0.5
 50
90
 51
180
  0
LINE
  8
_0-4_フレ_ム
  6
CONTINUOUS
 62
    7
 10
1867.8833902665499
 20
1408.8887199999999
 11
1867.8833902665499
 21
1411.462505
  0
LINE
  8
_0-4_フレ_ム
  6
CONTINUOUS
 62
    7
 10
1867.8833902665499
 20
1420.462505
 11
1867.8833902665499
 21
1418.462505
  0
LINE
  8
_0-4_フレ_ム
  6
CONTINUOUS
 62
    7
 10
1881.8833902665499
 20
1366.4625050000002
 11
1881.8833902665499
 21
1355.462505
  0
ARC
  8
_0-4_フレ_ム
  6
CONTINUOUS
 62
    7
 10
1867.88339526655
 20
1358.962505
 40
2
 50
180
 51
270
  0
LINE
  8
_0-4_フレ_ム
  6
CONTINUOUS
 62
    7
 10
1878.0833902665499
 20
1356.962505
 11
1867.88339526655
 21
1356.962505
  0
LINE
  8
_0-4_フレ_ム
  6
CONTINUOUS
 62
    7
 10
1880.0833902665499
 20
1358.962505
 11
1880.0833902665499
 21
1382.962505
  0
ARC
  8
_0-4_フレ_ム
  6
CONTINUOUS
 62
    7
 10
1880.8833902665497
 20
1355.462505
 40
1
 50
270
 51
0
  0
ARC
  8
_0-4_フレ_ム
  6
CONTINUOUS
 62
    7
 10
1878.0833902665499
 20
1358.962505
 40
2
 50
270
 51
0
  0
LINE
  8
_0-4_フレ_ム
  6
CONTINUOUS
 62
    7
 10
1880.8833902665497
 20
1354.462505
 11
1863.88339526655
 21
1354.462505
  0
LINE
  8
_0-4_フレ_ム
  6
CONTINUOUS
 62
    7
 10
1861.3833952665502
 20
1369.212505
 11
1861.3833952665502
 21
1364.212505
  0
LINE
  8
_0-4_フレ_ム
  6
CONTINUOUS
 62
    7
 10
1861.3833952665502
 20
1364.212505
 11
1862.8833952665498
 21
1364.212505
  0
LINE
  8
_0-4_フレ_ム
  6
CONTINUOUS
 62
    7
 10
1865.88339526655
 20
1364.212505
 11
1867.38339526655
 21
1364.212505
  0
LINE
  8
_0-4_フレ_ム
  6
CONTINUOUS
 62
    7
 10
1867.38339526655
 20
1364.212505
 11
1867.38339526655
 21
1369.212505
  0
LINE
  8
_0-4_フレ_ム
  6
CONTINUOUS
 62
    7
 10
1865.88339526655
 20
1369.212505
 11
1865.8833902665501
 21
1366.212505
  0
LINE
  8
_0-4_フレ_ム
  6
CONTINUOUS
 62
    7
 10
1865.8833902665501
 20
1364.212505
 11
1865.88339526655
 21
1358.9624999999999
  0
ARC
  8
_0-4_フレ_ム
  6
CONTINUOUS
 62
    7
 10
1863.88339526655
 20
1355.462505
 40
1
 50
180
 51
270
  0
LINE
  8
_0-4_フレ_ム
  6
CONTINUOUS
 62
    7
 10
1862.8833952665498
 20
1369.212505
 11
1862.8833952665498
 21
1366.212505
  0
LINE
  8
_0-4_フレ_ム
  6
CONTINUOUS
 62
    7
 10
1862.8833952665498
 20
1364.212505
 11
1862.8833952665498
 21
1355.462505
  0
ARC
  8
_0-4_フレ_ム
  6
CONTINUOUS
 62
    7
 10
1864.38339526655
 20
1369.212505
 40
1.7
 50
0
 51
180
  0
ARC
  8
_0-4_フレ_ム
  6
CONTINUOUS
 62
    7
 10
1864.3833852665496
 20
1369.212505
 40
1.499995
 50
0
 51
180
  0
ARC
  8
_0-4_フレ_ム
  6
CONTINUOUS
 62
    7
 10
1864.38339526655
 20
1369.212505
 40
3
 50
0
 51
180
  0
LINE
  8
_0-4_フレ_ム
  6
CONTINUOUS
 62
    7
 10
1865.8833902665501
 20
1366.212505
 11
1865.3833902665497
 21
1366.212505
  0
LINE
  8
_0-4_フレ_ム
  6
CONTINUOUS
 62
    7
 10
1865.3833902665497
 20
1366.212505
 11
1865.88339526655
 21
1364.212505
  0
LINE
  8
_0-4_フレ_ム
  6
CONTINUOUS
 62
    7
 10
1862.8833952665498
 20
1366.212505
 11
1863.38339526655
 21
1366.212505
  0
LINE
  8
_0-4_フレ_ム
  6
CONTINUOUS
 62
    7
 10
1863.38339526655
 20
1366.212505
 11
1862.8833952665498
 21
1364.212505
  0
LINE
  8
_0-4_フレ_ム
  6
CONTINUOUS
 62
    7
 10
1865.8833902665501
 20
1366.212505
 11
1866.0833902665499
 21
1366.212505
  0
LINE
  8
_0-4_フレ_ム
  6
CONTINUOUS
 62
    7
 10
1866.0833902665499
 20
1366.212505
 11
1866.0833952665498
 21
1369.212505
  0
LINE
  8
_0-4_フレ_ム
  6
CONTINUOUS
 62
    7
 10
1862.8833952665498
 20
1366.212505
 11
1862.68339526655
 21
1366.212505
  0
LINE
  8
_0-4_フレ_ム
  6
CONTINUOUS
 62
    7
 10
1862.68339526655
 20
1366.212505
 11
1862.68339526655
 21
1369.212505
  0
LINE
  8
_0-4_フレ_ム
  6
CONTINUOUS
 62
    7
 10
1859.9484952665498
 20
1400.962505
 11
1885.4460352665499
 21
1400.962505
  0
ARC
  8
_0-4_フレ_ム
  6
CONTINUOUS
 62
    7
 10
1880.8833902665497
 20
1421.462505
 40
1
 50
0
 51
90
  0
LINE
  8
_0-4_フレ_ム
  6
CONTINUOUS
 62
    7
 10
1881.8833902665499
 20
1376.462505
 11
1881.8833902665499
 21
1386.462505
  0
LINE
  8
_0-4_フレ_ム
  6
CONTINUOUS
 62
    7
 10
1881.8833902665499
 20
1395.962505
 11
1881.8833902665499
 21
1405.962505
  0
LINE
  8
_0-4_フレ_ム
  6
CONTINUOUS
 62
    7
 10
1881.8833902665499
 20
1421.462505
 11
1881.8833902665499
 21
1412.462505
  0
LINE
  8
_0-4_フレ_ム
  6
CONTINUOUS
 62
    7
 10
1880.8833902665497
 20
1422.4625050000002
 11
1864.8833902665499
 21
1422.4625050000002
  0
LINE
  8
_0-4_フレ_ム
  6
CONTINUOUS
 62
    7
 10
1880.0833852665501
 20
1395.462505
 11
1880.0833902665499
 21
1406.462505
  0
ARC
  8
_0-4_フレ_ム
  6
CONTINUOUS
 62
    7
 10
1879.5833902665499
 20
1393.462505
 40
0.5
 50
0
 51
90
  0
LINE
  8
_0-4_フレ_ム
  6
CONTINUOUS
 62
    7
 10
1880.0833902665499
 20
1393.462505
 11
1880.0833752665496
 21
1381.7625049999999
  0
ARC
  8
_0-4_フレ_ム
  6
CONTINUOUS
 62
    7
 10
1879.5833902665499
 20
1408.7625049999999
 40
0.5
 50
270
 51
0
  0
ARC
  8
_0-4_フレ_ム
  6
CONTINUOUS
 62
    7
 10
1879.58345026655
 20
1420.462505
 40
0.5
 50
0
 51
90
  0
LINE
  8
_0-4_フレ_ム
  6
CONTINUOUS
 62
    7
 10
1880.0833902665499
 20
1408.7610649999999
 11
1880.0834502665498
 21
1420.462505
  0
ARC
  8
_0-4_フレ_ム
  6
CONTINUOUS
 62
    7
 10
1879.5833902665499
 20
1406.462505
 40
0.5
 50
0
 51
90
  0
LINE
  8
_0-4_フレ_ム
  6
CONTINUOUS
 62
    7
 10
1873.8833902665497
 20
1406.962505
 11
1879.5833902665499
 21
1406.962505
  0
LINE
  8
_0-4_フレ_ム
  6
CONTINUOUS
 62
    7
 10
1871.8833902665499
 20
1406.962505
 11
1868.8833902665497
 21
1406.962505
  0
LINE
  8
_0-4_フレ_ム
  6
CONTINUOUS
 62
    7
 10
1871.8833902665499
 20
1406.962505
 11
1873.8833902665497
 21
1405.962505
  0
LINE
  8
_0-4_フレ_ム
  6
CONTINUOUS
 62
    7
 10
1868.8833902665497
 20
1408.2625049999999
 11
1879.5833902665499
 21
1408.2625049999999
  0
ARC
  8
_0-4_フレ_ム
  6
CONTINUOUS
 62
    7
 10
1879.5833852665496
 20
1395.462505
 40
0.5
 50
270
 51
0
  0
LINE
  8
_0-4_フレ_ム
  6
CONTINUOUS
 62
    7
 10
1873.8833902665497
 20
1394.962505
 11
1879.5833852665496
 21
1394.962505
  0
LINE
  8
_0-4_フレ_ム
  6
CONTINUOUS
 62
    7
 10
1871.8833902665499
 20
1394.962505
 11
1868.8833902665497
 21
1394.962505
  0
LINE
  8
_0-4_フレ_ム
  6
CONTINUOUS
 62
    7
 10
1873.8833902665497
 20
1395.962505
 11
1873.8833902665497
 21
1394.962505
  0
LINE
  8
_0-4_フレ_ム
  6
CONTINUOUS
 62
    7
 10
1871.8833902665499
 20
1394.962505
 11
1873.8833902665497
 21
1395.962505
  0
LINE
  8
_0-4_フレ_ム
  6
CONTINUOUS
 62
    7
 10
1868.8833902665497
 20
1393.962505
 11
1879.5833902665499
 21
1393.962505
  0
LINE
  8
_0-4_フレ_ム
  6
CONTINUOUS
 62
    7
 10
1873.8833902665497
 20
1405.962505
 11
1873.8833902665497
 21
1406.962505
  0
LINE
  8
_0-4_フレ_ム
  6
CONTINUOUS
 62
    7
 10
1868.8833902665497
 20
1394.962505
 11
1864.61831026655
 21
1394.0147099999999
  0
ARC
  8
_0-4_フレ_ム
  6
CONTINUOUS
 62
    7
 10
1864.6833902665498
 20
1393.7218550000002
 40
0.2999999999999998
 50
102.528808
 51
180
  0
ARC
  8
_0-4_フレ_ム
  6
CONTINUOUS
 62
    7
 10
1864.6833902665498
 20
1393.3167649999998
 40
0.2999999999999998
 50
180
 51
282.78905400000002
  0
LINE
  8
_0-4_フレ_ム
  6
CONTINUOUS
 62
    7
 10
1864.3833902665499
 20
1393.7218550000002
 11
1864.3833902665499
 21
1393.3167649999998
  0
LINE
  8
_0-4_フレ_ム
  6
CONTINUOUS
 62
    7
 10
1868.8833902665497
 20
1393.962505
 11
1864.74980026655
 21
1393.0242049999999
  0
ARC
  8
_0-4_フレ_ム
  6
CONTINUOUS
 62
    7
 10
1864.8833902665499
 20
1408.3635899999999
 40
0.5
 50
180
 51
257.47119199999992
  0
LINE
  8
_0-4_フレ_ム
  6
CONTINUOUS
 62
    7
 10
1868.8833902665497
 20
1406.962505
 11
1864.7749252665499
 21
1407.8755000000001
  0
LINE
  8
_0-4_フレ_ム
  6
CONTINUOUS
 62
    7
 10
1868.8833902665497
 20
1408.2625049999999
 11
1868.2727102665501
 21
1408.4011250000003
  0
ARC
  8
_0-4_フレ_ム
  6
CONTINUOUS
 62
    7
 10
1864.8833902665499
 20
1410.462505
 40
0.5
 50
90
 51
180
  0
LINE
  8
_0-4_フレ_ム
  6
CONTINUOUS
 62
    7
 10
1864.3833902665499
 20
1410.462505
 11
1864.3833902665499
 21
1408.3635899999999
  0
ARC
  8
_0-4_フレ_ム
  6
CONTINUOUS
 62
    7
 10
1864.8833902665499
 20
1421.962505
 40
0.5
 50
90
 51
180
  0
LINE
  8
_0-4_フレ_ム
  6
CONTINUOUS
 62
    7
 10
1864.3833902665499
 20
1421.962505
 11
1864.3833902665499
 21
1419.462505
  0
ARC
  8
_0-4_フレ_ム
  6
CONTINUOUS
 62
    7
 10
1864.8833902665499
 20
1419.462505
 40
0.5
 50
180
 51
270
  0
LINE
  8
_0-4_フレ_ム
  6
CONTINUOUS
 62
    7
 10
1866.3833902665499
 20
1418.9625050000002
 11
1864.8833902665499
 21
1418.9625050000002
  0
LINE
  8
_0-4_フレ_ム
  6
CONTINUOUS
 62
    7
 10
1866.3833902665499
 20
1410.962505
 11
1864.8833902665499
 21
1410.962505
  0
LINE
  8
_0-4_フレ_ム
  6
CONTINUOUS
 62
    7
 10
1869.3833902665501
 20
1417.962505
 11
1869.3833902665501
 21
1411.9625050000002
  0
LINE
  8
_0-4_フレ_ム
  6
CONTINUOUS
 62
    7
 10
1880.3833752665496
 20
1381.462505
 11
1880.0833752665496
 21
1381.7625049999999
  0
LINE
  8
_0-4_フレ_ム
  6
CONTINUOUS
 62
    7
 10
1880.3833752665496
 20
1381.462505
 11
1880.0833902665499
 21
1381.1625200000001
  0
LINE
  8
_0-4_フレ_ム
  6
CONTINUOUS
 62
    7
 10
1881.8833902665499
 20
1395.962505
 11
1881.5833902665499
 21
1395.962505
  0
LINE
  8
_0-4_フレ_ム
  6
CONTINUOUS
 62
    7
 10
1881.5833902665499
 20
1395.962505
 11
1881.5833902665499
 21
1386.462505
  0
LINE
  8
_0-4_フレ_ム
  6
CONTINUOUS
 62
    7
 10
1881.5833902665499
 20
1386.462505
 11
1881.8833902665499
 21
1386.462505
  0
LINE
  8
_0-4_フレ_ム
  6
CONTINUOUS
 62
    7
 10
1881.8833902665499
 20
1405.962505
 11
1881.5833902665499
 21
1405.962505
  0
LINE
  8
_0-4_フレ_ム
  6
CONTINUOUS
 62
    7
 10
1881.8833902665499
 20
1405.962505
 11
1881.5833902665499
 21
1405.962505
  0
LINE
  8
_0-4_フレ_ム
  6
CONTINUOUS
 62
    7
 10
1881.5833902665499
 20
1405.962505
 11
1881.5833902665499
 21
1412.462505
  0
LINE
  8
_0-4_フレ_ム
  6
CONTINUOUS
 62
    7
 10
1881.5833902665499
 20
1412.462505
 11
1881.8833902665499
 21
1412.462505
  0
LINE
  8
_0-4_フレ_ム
  6
CONTINUOUS
 62
    7
 10
1881.8833902665499
 20
1376.462505
 11
1881.5833902665499
 21
1376.462505
  0
LINE
  8
_0-4_フレ_ム
  6
CONTINUOUS
 62
    7
 10
1881.5833902665499
 20
1366.4625050000002
 11
1881.8833902665499
 21
1366.4625050000002
  0
ARC
  8
_0-4_フレ_ム
  6
CONTINUOUS
 62
    7
 10
1868.3833902665499
 20
1418.462505
 40
0.5
 50
180
 51
270
  0
LINE
  8
_0-4_フレ_ム
  6
CONTINUOUS
 62
    7
 10
1869.3833902665501
 20
1417.962505
 11
1868.3833902665499
 21
1417.962505
  0
ARC
  8
_0-4_フレ_ム
  6
CONTINUOUS
 62
    7
 10
1868.3833902665499
 20
1420.462505
 40
0.5
 50
90
 51
180
  0
LINE
  8
_0-4_フレ_ム
  6
CONTINUOUS
 62
    7
 10
1879.58345026655
 20
1420.962505
 11
1868.3833902665499
 21
1420.962505
  0
LINE
  8
_0-4_フレ_ム
  6
CONTINUOUS
 62
    7
 10
1869.3833902665501
 20
1411.9625050000002
 11
1868.3833902665499
 21
1411.9625050000002
  0
LINE
  8
_0-4_フレ_ム
  6
CONTINUOUS
 62
    7
 10
1572.8833902665499
 20
1360.6469999999999
 11
1572.8833902665499
 21
1309.7787699999999
  0
LINE
  8
_0-4_フレ_ム
  6
CONTINUOUS
 62
    7
 10
1644.3833902665499
 20
1369.212505
 11
1644.3833902665499
 21
1364.212505
  0
LINE
  8
_0-4_フレ_ム
  6
CONTINUOUS
 62
    7
 10
1644.3833902665499
 20
1364.212505
 11
1642.8833902665499
 21
1364.212505
  0
LINE
  8
_0-4_フレ_ム
  6
CONTINUOUS
 62
    7
 10
1639.8833902665499
 20
1364.212505
 11
1638.3833902665499
 21
1364.212505
  0
LINE
  8
_0-4_フレ_ム
  6
CONTINUOUS
 62
    7
 10
1638.3833902665499
 20
1364.212505
 11
1638.3833902665499
 21
1369.212505
  0
LINE
  8
_0-4_フレ_ム
  6
CONTINUOUS
 62
    7
 10
1573.3833902665499
 20
1356.962505
 11
1592.8833902665499
 21
1356.962505
  0
ARC
  8
_0-4_フレ_ム
  6
CONTINUOUS
 62
    7
 10
1551.3833902665499
 20
1358.962505
 40
2
 50
180
 51
270
  0
LINE
  8
_0-4_フレ_ム
  6
CONTINUOUS
 62
    7
 10
1572.3833902665499
 20
1356.962505
 11
1551.3833902665499
 21
1356.962505
  0
LINE
  8
_0-4_フレ_ム
  6
CONTINUOUS
 62
    7
 10
1641.8833902665499
 20
1354.462505
 11
1584.3833902665499
 21
1354.462505
  0
LINE
  8
_0-4_フレ_ム
  6
CONTINUOUS
 62
    7
 10
1549.3833902665499
 20
1358.962505
 11
1549.3833902665499
 21
1370.462505
  0
ARC
  8
_0-4_フレ_ム
  6
CONTINUOUS
 62
    7
 10
1546.3833902665499
 20
1370.962505
 40
0.5
 50
270
 51
0
  0
LINE
  8
_0-4_フレ_ム
  6
CONTINUOUS
 62
    7
 10
1546.3833902665499
 20
1370.462505
 11
1544.8833902665499
 21
1370.462505
  0
LINE
  8
_0-4_フレ_ム
  6
CONTINUOUS
 62
    7
 10
1543.3833902665499
 20
1368.962505
 11
1545.8833902665499
 21
1368.962505
  0
ARC
  8
_0-4_フレ_ム
  6
CONTINUOUS
 62
    7
 10
1545.8833902665499
 20
1367.962505
 40
1
 50
0
 51
90
  0
LINE
  8
_0-4_フレ_ム
  6
CONTINUOUS
 62
    7
 10
1546.8833902665499
 20
1367.962505
 11
1546.8833902665499
 21
1358.962505
  0
LINE
  8
_0-4_フレ_ム
  6
CONTINUOUS
 62
    7
 10
1546.8833902665499
 20
1370.962505
 11
1546.8833902665499
 21
1374.962505
  0
LINE
  8
_0-4_フレ_ム
  6
CONTINUOUS
 62
    7
 10
1639.8833902665499
 20
1369.212505
 11
1639.8834002665499
 21
1366.212505
  0
ARC
  8
_0-4_フレ_ム
  6
CONTINUOUS
 62
    7
 10
1636.8833902665499
 20
1360.962505
 40
3
 50
270
 51
0
  0
LINE
  8
_0-4_フレ_ム
  6
CONTINUOUS
 62
    7
 10
1639.8834002665499
 20
1364.212505
 11
1639.8833902665499
 21
1360.9625000000001
  0
LINE
  8
_0-4_フレ_ム
  6
CONTINUOUS
 62
    7
 10
1561.3833902665499
 20
1354.462505
 11
1561.3833902665499
 21
1354.962505
  0
LINE
  8
_0-4_フレ_ム
  6
CONTINUOUS
 62
    7
 10
1561.3833902665499
 20
1354.962505
 11
1566.3833902665499
 21
1354.962505
  0
LINE
  8
_0-4_フレ_ム
  6
CONTINUOUS
 62
    7
 10
1566.3833902665499
 20
1354.962505
 11
1566.3833902665499
 21
1354.462505
  0
LINE
  8
_0-4_フレ_ム
  6
CONTINUOUS
 62
    7
 10
1579.3833902665499
 20
1354.462505
 11
1579.3833902665499
 21
1354.962505
  0
LINE
  8
_0-4_フレ_ム
  6
CONTINUOUS
 62
    7
 10
1579.3833902665499
 20
1354.962505
 11
1584.3833902665499
 21
1354.962505
  0
LINE
  8
_0-4_フレ_ム
  6
CONTINUOUS
 62
    7
 10
1584.3833902665499
 20
1354.962505
 11
1584.3833902665499
 21
1354.462505
  0
LINE
  8
_0-4_フレ_ム
  6
CONTINUOUS
 62
    7
 10
1561.3833902665499
 20
1354.462505
 11
1544.3833902665499
 21
1354.462505
  0
LINE
  8
_0-4_フレ_ム
  6
CONTINUOUS
 62
    7
 10
1573.3833902665499
 20
1356.962505
 11
1572.8833902665499
 21
1356.462505
  0
LINE
  8
_0-4_フレ_ム
  6
CONTINUOUS
 62
    7
 10
1572.3833902665499
 20
1356.962505
 11
1572.8833902665499
 21
1356.462505
  0
ARC
  8
_0-4_フレ_ム
  6
CONTINUOUS
 62
    7
 10
1641.8833902665499
 20
1355.462505
 40
1
 50
270
 51
0
  0
LINE
  8
_0-4_フレ_ム
  6
CONTINUOUS
 62
    7
 10
1642.8833902665499
 20
1369.212505
 11
1642.8833902665499
 21
1366.212505
  0
LINE
  8
_0-4_フレ_ム
  6
CONTINUOUS
 62
    7
 10
1642.8833902665499
 20
1364.212505
 11
1642.8833902665499
 21
1355.462505
  0
ARC
  8
_0-4_フレ_ム
  6
CONTINUOUS
 62
    7
 10
1543.3833902665499
 20
1369.462505
 40
0.5
 50
180
 51
270
  0
LINE
  8
_0-4_フレ_ム
  6
CONTINUOUS
 62
    7
 10
1542.8833902665499
 20
1377.212505
 11
1542.8833902665499
 21
1369.462505
  0
ARC
  8
_0-4_フレ_ム
  6
CONTINUOUS
 62
    7
 10
1544.8833902665499
 20
1370.962505
 40
0.5
 50
180
 51
270
  0
LINE
  8
_0-4_フレ_ム
  6
CONTINUOUS
 62
    7
 10
1544.3833902665499
 20
1377.212505
 11
1544.3833902665499
 21
1370.962505
  0
LINE
  8
_0-4_フレ_ム
  6
CONTINUOUS
 62
    7
 10
1550.3833902665499
 20
1373.962505
 11
1550.3833902665499
 21
1374.962505
  0
LINE
  8
_0-4_フレ_ム
  6
CONTINUOUS
 62
    7
 10
1558.3833902665499
 20
1373.962505
 11
1554.8833902665499
 21
1373.962505
  0
LINE
  8
_0-4_フレ_ム
  6
CONTINUOUS
 62
    7
 10
1550.3833902665499
 20
1373.962505
 11
1553.8833902665499
 21
1373.962505
  0
LINE
  8
_0-4_フレ_ム
  6
CONTINUOUS
 62
    7
 10
1558.3833902665499
 20
1373.962505
 11
1558.3833902665499
 21
1374.962505
  0
ARC
  8
_0-4_フレ_ム
  6
CONTINUOUS
 62
    7
 10
1558.8833902665499
 20
1374.962505
 40
0.5
 50
90
 51
180
  0
ARC
  8
_0-4_フレ_ム
  6
CONTINUOUS
 62
    7
 10
1561.3833902665499
 20
1374.962505
 40
0.5
 50
0
 51
90
  0
ARC
  8
_0-4_フレ_ム
  6
CONTINUOUS
 62
    7
 10
1549.8833902665499
 20
1374.962505
 40
0.5
 50
0
 51
90
  0
LINE
  8
_0-4_フレ_ム
  6
CONTINUOUS
 62
    7
 10
1561.8833902665499
 20
1373.4625050000002
 11
1561.8833902665499
 21
1374.962505
  0
ARC
  8
_0-4_フレ_ム
  6
CONTINUOUS
 62
    7
 10
1559.8833902665499
 20
1373.4625050000002
 40
2
 50
270
 51
0
  0
ARC
  8
_0-4_フレ_ム
  6
CONTINUOUS
 62
    7
 10
1550.3833902665499
 20
1370.462505
 40
1
 50
90
 51
180
  0
LINE
  8
_0-4_フレ_ム
  6
CONTINUOUS
 62
    7
 10
1559.8833902665499
 20
1371.462505
 11
1550.3833902665499
 21
1371.462505
  0
ARC
  8
_0-4_フレ_ム
  6
CONTINUOUS
 62
    7
 10
1543.6333902665499
 20
1377.212505
 40
0.75
 50
0
 51
180
  0
LINE
  8
_0-4_フレ_ム
  6
CONTINUOUS
 62
    7
 10
1554.8833902665499
 20
1373.962505
 11
1554.3833902665499
 21
1373.4625050000002
  0
LINE
  8
_0-4_フレ_ム
  6
CONTINUOUS
 62
    7
 10
1553.8833902665499
 20
1373.962505
 11
1554.3833902665499
 21
1373.4625050000002
  0
LINE
  8
_0-4_フレ_ム
  6
CONTINUOUS
 62
    7
 10
1521.3833902665499
 20
1354.462505
 11
1521.3833902665499
 21
1354.962505
  0
LINE
  8
_0-4_フレ_ム
  6
CONTINUOUS
 62
    7
 10
1521.3833902665499
 20
1354.962505
 11
1526.3833902665499
 21
1354.962505
  0
LINE
  8
_0-4_フレ_ム
  6
CONTINUOUS
 62
    7
 10
1526.3833902665499
 20
1354.962505
 11
1526.3833902665499
 21
1354.462505
  0
LINE
  8
_0-4_フレ_ム
  6
CONTINUOUS
 62
    7
 10
1539.3833902665499
 20
1354.462505
 11
1539.3833902665499
 21
1354.962505
  0
LINE
  8
_0-4_フレ_ム
  6
CONTINUOUS
 62
    7
 10
1539.3833902665499
 20
1354.962505
 11
1544.3833902665499
 21
1354.962505
  0
LINE
  8
_0-4_フレ_ム
  6
CONTINUOUS
 62
    7
 10
1544.3833902665499
 20
1354.962505
 11
1544.3833902665499
 21
1354.462505
  0
ARC
  8
_0-4_フレ_ム
  6
CONTINUOUS
 62
    7
 10
1544.8833902665499
 20
1358.962505
 40
2
 50
270
 51
0
  0
ARC
  8
_0-4_フレ_ム
  6
CONTINUOUS
 62
    7
 10
1518.3833902665499
 20
1354.962505
 40
0.5
 50
180
 51
270
  0
ARC
  8
_0-4_フレ_ム
  6
CONTINUOUS
 62
    7
 10
1518.3833902665499
 20
1356.462505
 40
0.5
 50
90
 51
180
  0
LINE
  8
_0-4_フレ_ム
  6
CONTINUOUS
 62
    7
 10
1544.8833902665499
 20
1356.962505
 11
1518.3833902665499
 21
1356.962505
  0
LINE
  8
_0-4_フレ_ム
  6
CONTINUOUS
 62
    7
 10
1517.8833902665499
 20
1356.462505
 11
1517.8833902665499
 21
1354.962505
  0
LINE
  8
_0-4_フレ_ム
  6
CONTINUOUS
 62
    7
 10
1592.8833902665499
 20
1356.962505
 11
1597.8833902665499
 21
1357.962505
  0
LINE
  8
_0-4_フレ_ム
  6
CONTINUOUS
 62
    7
 10
1597.8833902665499
 20
1357.962505
 11
1636.8833902665499
 21
1357.962505
  0
ARC
  8
_0-4_フレ_ム
  6
CONTINUOUS
 62
    7
 10
1641.3833902665499
 20
1369.212505
 40
1.7
 50
0
 51
180
  0
ARC
  8
_0-4_フレ_ム
  6
CONTINUOUS
 62
    7
 10
1641.3834002665499
 20
1369.212505
 40
1.499995
 50
0
 51
180
  0
ARC
  8
_0-4_フレ_ム
  6
CONTINUOUS
 62
    7
 10
1641.3833902665499
 20
1369.212505
 40
3
 50
0
 51
180
  0
LINE
  8
_0-4_フレ_ム
  6
CONTINUOUS
 62
    7
 10
1572.8833902665499
 20
1309.7787699999999
 11
1572.8833902665499
 21
1365.4625450000003
  0
LINE
  8
_0-4_フレ_ム
  6
CONTINUOUS
 62
    7
 10
1532.8833902665499
 20
1309.7787699999999
 11
1532.8833902665499
 21
1365.4625450000003
  0
LINE
  8
_0-4_フレ_ム
  6
CONTINUOUS
 62
    7
 10
1639.8834002665499
 20
1366.212505
 11
1640.3834002665499
 21
1366.212505
  0
LINE
  8
_0-4_フレ_ム
  6
CONTINUOUS
 62
    7
 10
1640.3834002665499
 20
1366.212505
 11
1639.8833902665499
 21
1364.212505
  0
LINE
  8
_0-4_フレ_ム
  6
CONTINUOUS
 62
    7
 10
1642.8833902665499
 20
1366.212505
 11
1642.3833902665499
 21
1366.212505
  0
LINE
  8
_0-4_フレ_ム
  6
CONTINUOUS
 62
    7
 10
1642.3833902665499
 20
1366.212505
 11
1642.8833902665499
 21
1364.212505
  0
LINE
  8
_0-4_フレ_ム
  6
CONTINUOUS
 62
    7
 10
1639.8834002665499
 20
1366.212505
 11
1639.6834002665498
 21
1366.212505
  0
LINE
  8
_0-4_フレ_ム
  6
CONTINUOUS
 62
    7
 10
1639.6834002665498
 20
1366.212505
 11
1639.6833902665498
 21
1369.212505
  0
LINE
  8
_0-4_フレ_ム
  6
CONTINUOUS
 62
    7
 10
1642.8833902665499
 20
1366.212505
 11
1643.0833902665499
 21
1366.212505
  0
LINE
  8
_0-4_フレ_ム
  6
CONTINUOUS
 62
    7
 10
1643.0833902665499
 20
1366.212505
 11
1643.0833902665499
 21
1369.212505
  0
LINE
  8
_0-4_フレ_ム
  6
CONTINUOUS
 62
    7
 10
1633.5553102665499
 20
1354.462505
 11
1517.88339526655
 21
1354.462505
  0
ARC
  8
_0-4_フレ_ム
  6
CONTINUOUS
 62
    7
 10
1547.3833902665499
 20
1374.962505
 40
0.5
 50
90
 51
180
  0
ARC
  8
_0-4_フレ_ム
  6
CONTINUOUS
 62
    7
 10
1633.5553102665499
 20
1342.962505
 40
11.5
 50
7.6880369999999996
 51
90.000000000000028
  0
ARC
  8
_0-8_小物
  6
CONTINUOUS
 62
    7
 10
1571.3806252665499
 20
1358.333795
 40
3
 50
128.61463800000001
 51
177.54107400000001
  0
ARC
  8
_0-8_小物
  6
CONTINUOUS
 62
    7
 10
1572.8833902665499
 20
1356.462505
 40
5.4000000000000004
 50
90
 51
128.682187
  0
ARC
  8
_0-8_小物
  6
CONTINUOUS
 62
    7
 10
1572.8833902665499
 20
1356.462505
 40
5.4000000000000004
 50
51.148938000000001
 51
90
  0
ARC
  8
_0-8_小物
  6
CONTINUOUS
 62
    7
 10
1574.38615026655
 20
1358.333795
 40
3
 50
2.458925999996
 51
51.385362000000001
  0
LINE
  8
_0-8_小物
  6
CONTINUOUS
 62
    7
 10
1581.8833902665499
 20
1358.462505
 11
1563.8833902665499
 21
1358.462505
  0
LINE
  8
_0-8_小物
  6
CONTINUOUS
 62
    7
 10
1563.8833902665499
 20
1358.462505
 11
1563.8833902665499
 21
1356.962505
  0
LINE
  8
_0-8_小物
  6
CONTINUOUS
 62
    7
 10
1581.8833902665499
 20
1358.462505
 11
1581.8833902665499
 21
1356.962505
  0
ARC
  8
_0-8_小物
  6
CONTINUOUS
 62
    7
 10
1531.3806252665499
 20
1358.333795
 40
3
 50
128.61463800000001
 51
177.54107400000001
  0
ARC
  8
_0-8_小物
  6
CONTINUOUS
 62
    7
 10
1532.8833902665499
 20
1356.462505
 40
5.4000000000000004
 50
90
 51
128.682187
  0
ARC
  8
_0-8_小物
  6
CONTINUOUS
 62
    7
 10
1532.8833902665499
 20
1356.462505
 40
5.4000000000000004
 50
51.148938000000001
 51
90
  0
ARC
  8
_0-8_小物
  6
CONTINUOUS
 62
    7
 10
1534.38615026655
 20
1358.333795
 40
3
 50
2.458925999996
 51
51.385362000000001
  0
LINE
  8
_0-8_小物
  6
CONTINUOUS
 62
    7
 10
1541.8833902665499
 20
1358.462505
 11
1523.8833902665499
 21
1358.462505
  0
LINE
  8
_0-8_小物
  6
CONTINUOUS
 62
    7
 10
1523.8833902665499
 20
1358.462505
 11
1523.8833902665499
 21
1356.962505
  0
LINE
  8
_0-8_小物
  6
CONTINUOUS
 62
    7
 10
1541.8833902665499
 20
1358.462505
 11
1541.8833902665499
 21
1356.962505
  0
LINE
  8
_0-8_小物
  6
CONTINUOUS
 62
    7
 10
1917.66321526655
 20
1376.0542300000002
 11
1919.66047026655
 21
1375.94956
  0
LINE
  8
_0-8_小物
  6
CONTINUOUS
 62
    7
 10
1914.6673252665496
 20
1376.2112400000001
 11
1915.7706252665498
 21
1378.15616
  0
LINE
  8
_0-8_小物
  6
CONTINUOUS
 62
    7
 10
1915.7706252665498
 20
1378.15616
 11
1917.7678852665497
 21
1378.0514899999998
  0
LINE
  8
_0-8_小物
  6
CONTINUOUS
 62
    7
 10
1917.7678852665497
 20
1378.0514899999998
 11
1917.66321526655
 21
1376.0542300000002
  0
LINE
  8
_0-8_小物
  6
CONTINUOUS
 62
    7
 10
1912.67006526655
 20
1376.31591
 11
1914.6673252665496
 21
1376.2112400000001
  0
LINE
  8
_0-8_小物
  6
CONTINUOUS
 62
    7
 10
1909.67417526655
 20
1376.4729199999999
 11
1910.7774802665497
 21
1378.4178400000001
  0
LINE
  8
_0-8_小物
  6
CONTINUOUS
 62
    7
 10
1910.7774802665497
 20
1378.4178400000001
 11
1912.7747352665501
 21
1378.3131700000001
  0
LINE
  8
_0-8_小物
  6
CONTINUOUS
 62
    7
 10
1912.7747352665501
 20
1378.3131700000001
 11
1912.67006526655
 21
1376.31591
  0
LINE
  8
_0-8_小物
  6
CONTINUOUS
 62
    7
 10
1907.6769202665496
 20
1376.5775900000001
 11
1909.67417526655
 21
1376.4729199999999
  0
LINE
  8
_0-8_小物
  6
CONTINUOUS
 62
    7
 10
1904.6810302665499
 20
1376.7346
 11
1905.7843302665501
 21
1378.6795200000001
  0
LINE
  8
_0-8_小物
  6
CONTINUOUS
 62
    7
 10
1905.7843302665501
 20
1378.6795200000001
 11
1907.7815902665498
 21
1378.57485
  0
LINE
  8
_0-8_小物
  6
CONTINUOUS
 62
    7
 10
1907.7815902665498
 20
1378.57485
 11
1907.6769202665496
 21
1376.5775900000001
  0
LINE
  8
_0-8_小物
  6
CONTINUOUS
 62
    7
 10
1902.68377026655
 20
1376.8392700000002
 11
1904.6810302665499
 21
1376.7346
  0
LINE
  8
_0-8_小物
  6
CONTINUOUS
 62
    7
 10
1899.6878802665501
 20
1376.9962800000001
 11
1900.7911852665497
 21
1378.9412
  0
LINE
  8
_0-8_小物
  6
CONTINUOUS
 62
    7
 10
1900.7911852665497
 20
1378.9412
 11
1902.78844026655
 21
1378.83653
  0
LINE
  8
_0-8_小物
  6
CONTINUOUS
 62
    7
 10
1902.78844026655
 20
1378.83653
 11
1902.68377026655
 21
1376.8392700000002
  0
LINE
  8
_0-8_小物
  6
CONTINUOUS
 62
    7
 10
1897.6906202665498
 20
1377.10095
 11
1899.6878802665501
 21
1376.9962800000001
  0
LINE
  8
_0-8_小物
  6
CONTINUOUS
 62
    7
 10
1895.79803526655
 20
1379.2028800000001
 11
1897.7952952665498
 21
1379.0982099999999
  0
LINE
  8
_0-8_小物
  6
CONTINUOUS
 62
    7
 10
1897.7952952665498
 20
1379.0982099999999
 11
1897.6906202665498
 21
1377.10095
  0
LINE
  8
_0-8_小物
  6
CONTINUOUS
 62
    7
 10
1894.8833902665497
 20
1377.462505
 11
1895.79803526655
 21
1379.2028800000001
  0
LINE
  8
_0-8_小物
  6
CONTINUOUS
 62
    7
 10
1917.66321526655
 20
1386.8707800000002
 11
1919.66047026655
 21
1386.9754499999999
  0
LINE
  8
_0-8_小物
  6
CONTINUOUS
 62
    7
 10
1914.6673252665496
 20
1386.7137700000001
 11
1915.7706252665498
 21
1384.7688499999999
  0
LINE
  8
_0-8_小物
  6
CONTINUOUS
 62
    7
 10
1915.7706252665498
 20
1384.7688499999999
 11
1917.7678852665497
 21
1384.8735199999999
  0
LINE
  8
_0-8_小物
  6
CONTINUOUS
 62
    7
 10
1917.7678852665497
 20
1384.8735199999999
 11
1917.66321526655
 21
1386.8707800000002
  0
LINE
  8
_0-8_小物
  6
CONTINUOUS
 62
    7
 10
1912.67006526655
 20
1386.6091000000001
 11
1914.6673252665496
 21
1386.7137700000001
  0
LINE
  8
_0-8_小物
  6
CONTINUOUS
 62
    7
 10
1909.67417526655
 20
1386.45209
 11
1910.7774802665497
 21
1384.5071700000003
  0
LINE
  8
_0-8_小物
  6
CONTINUOUS
 62
    7
 10
1910.7774802665497
 20
1384.5071700000003
 11
1912.7747352665501
 21
1384.61184
  0
LINE
  8
_0-8_小物
  6
CONTINUOUS
 62
    7
 10
1912.7747352665501
 20
1384.61184
 11
1912.67006526655
 21
1386.6091000000001
  0
LINE
  8
_0-8_小物
  6
CONTINUOUS
 62
    7
 10
1907.6769202665496
 20
1386.3474200000001
 11
1909.67417526655
 21
1386.45209
  0
LINE
  8
_0-8_小物
  6
CONTINUOUS
 62
    7
 10
1904.6810302665499
 20
1386.1904099999997
 11
1905.7843302665501
 21
1384.2454900000002
  0
LINE
  8
_0-8_小物
  6
CONTINUOUS
 62
    7
 10
1905.7843302665501
 20
1384.2454900000002
 11
1907.7815902665498
 21
1384.35016
  0
LINE
  8
_0-8_小物
  6
CONTINUOUS
 62
    7
 10
1907.7815902665498
 20
1384.35016
 11
1907.6769202665496
 21
1386.3474200000001
  0
LINE
  8
_0-8_小物
  6
CONTINUOUS
 62
    7
 10
1902.68377026655
 20
1386.08574
 11
1904.6810302665499
 21
1386.1904099999997
  0
LINE
  8
_0-8_小物
  6
CONTINUOUS
 62
    7
 10
1899.6878802665501
 20
1385.9287300000001
 11
1900.7911852665497
 21
1383.9838099999999
  0
LINE
  8
_0-8_小物
  6
CONTINUOUS
 62
    7
 10
1900.7911852665497
 20
1383.9838099999999
 11
1902.78844026655
 21
1384.0884800000001
  0
LINE
  8
_0-8_小物
  6
CONTINUOUS
 62
    7
 10
1902.78844026655
 20
1384.0884800000001
 11
1902.68377026655
 21
1386.08574
  0
LINE
  8
_0-8_小物
  6
CONTINUOUS
 62
    7
 10
1897.6906202665498
 20
1385.8240600000001
 11
1899.6878802665501
 21
1385.9287300000001
  0
LINE
  8
_0-8_小物
  6
CONTINUOUS
 62
    7
 10
1895.79803526655
 20
1383.7221300000001
 11
1897.7952952665498
 21
1383.8267999999998
  0
LINE
  8
_0-8_小物
  6
CONTINUOUS
 62
    7
 10
1897.7952952665498
 20
1383.8267999999998
 11
1897.6906202665498
 21
1385.8240600000001
  0
LINE
  8
_0-8_小物
  6
CONTINUOUS
 62
    7
 10
1918.8240852665499
 20
1381.52181
 11
1917.1084152665499
 21
1379.5881100000001
  0
LINE
  8
_0-8_小物
  6
CONTINUOUS
 62
    7
 10
1917.0139452665499
 20
1383.33195
 11
1918.8833902665499
 21
1381.462505
  0
LINE
  8
_0-8_小物
  6
CONTINUOUS
 62
    7
 10
1894.8833902665497
 20
1385.462505
 11
1895.79803526655
 21
1383.7221300000001
  0
LINE
  8
_0-8_小物
  6
CONTINUOUS
 62
    7
 10
1902.68377026655
 20
1376.8392700000002
 11
1898.0257902665498
 21
1375.1439050000004
  0
LINE
  8
_0-8_小物
  6
CONTINUOUS
 62
    7
 10
1902.68377026655
 20
1386.08574
 11
1898.0257902665498
 21
1387.781105
  0
LINE
  8
_0-8_小物
  6
CONTINUOUS
 62
    7
 10
1919.84365026655
 20
1379.4447650000002
 11
1919.66047026655
 21
1375.94956
  0
LINE
  8
_0-8_小物
  6
CONTINUOUS
 62
    7
 10
1919.66047026655
 20
1375.94956
 11
1921.7624052665496
 21
1377.8421450000001
  0
LINE
  8
_0-8_小物
  6
CONTINUOUS
 62
    7
 10
1921.7624052665496
 20
1377.8421450000001
 11
1921.8409052665502
 21
1379.3400900000001
  0
LINE
  8
_0-8_小物
  6
CONTINUOUS
 62
    7
 10
1921.8409052665502
 20
1379.3400900000001
 11
1890.8833902665499
 21
1380.962505
  0
LINE
  8
_0-8_小物
  6
CONTINUOUS
 62
    7
 10
1894.8833902665497
 20
1377.462505
 11
1890.8833902665499
 21
1377.462505
  0
LINE
  8
_0-8_小物
  6
CONTINUOUS
 62
    7
 10
1919.84365026655
 20
1383.4802500000001
 11
1919.66047026655
 21
1386.9754499999999
  0
LINE
  8
_0-8_小物
  6
CONTINUOUS
 62
    7
 10
1919.66047026655
 20
1386.9754499999999
 11
1921.7624052665496
 21
1385.0828650000001
  0
LINE
  8
_0-8_小物
  6
CONTINUOUS
 62
    7
 10
1921.7624052665496
 20
1385.0828650000001
 11
1921.8409052665502
 21
1383.5849200000002
  0
LINE
  8
_0-8_小物
  6
CONTINUOUS
 62
    7
 10
1921.8409052665502
 20
1383.5849200000002
 11
1890.8833902665499
 21
1381.962505
  0
LINE
  8
_0-8_小物
  6
CONTINUOUS
 62
    7
 10
1894.8833902665497
 20
1385.462505
 11
1890.8833902665499
 21
1385.462505
  0
LINE
  8
_0-8_小物
  6
CONTINUOUS
 62
    7
 10
1898.0257902665498
 20
1387.781105
 11
1891.2221702665499
 21
1388.7734600000001
  0
ARC
  8
_0-8_小物
  6
CONTINUOUS
 62
    7
 10
1891.1644352665498
 20
1388.3776500000004
 40
0.4
 50
81.701533999999995
 51
171.86989800000001
  0
LINE
  8
_0-8_小物
  6
CONTINUOUS
 62
    7
 10
1890.7684552665501
 20
1388.4342200000001
 11
1890.7403402665498
 21
1388.2373949999999
  0
ARC
  8
_0-8_小物
  6
CONTINUOUS
 62
    7
 10
1891.1363202665502
 20
1388.1808249999999
 40
0.4
 50
171.86989800000001
 51
261.86989799999998
  0
LINE
  8
_0-8_小物
  6
CONTINUOUS
 62
    7
 10
1891.0797502665498
 20
1387.7848450000001
 11
1897.6837702665498
 21
1386.8414150000001
  0
LINE
  8
_0-8_小物
  6
CONTINUOUS
 62
    7
 10
1898.0257902665498
 20
1375.1439050000004
 11
1891.2221702665499
 21
1374.15155
  0
ARC
  8
_0-8_小物
  6
CONTINUOUS
 62
    7
 10
1891.1363202665502
 20
1374.7441850000002
 40
0.4
 50
98.130102000020003
 51
188.13010199999999
  0
LINE
  8
_0-8_小物
  6
CONTINUOUS
 62
    7
 10
1891.0797502665498
 20
1375.140165
 11
1897.6837702665498
 21
1376.0835950000001
  0
ARC
  8
_0-8_小物
  6
CONTINUOUS
 62
    7
 10
1891.1644352665498
 20
1374.54736
 40
0.4
 50
188.13010199999999
 51
278.29846600000002
  0
LINE
  8
_0-8_小物
  6
CONTINUOUS
 62
    7
 10
1890.7684552665501
 20
1374.4907949999999
 11
1890.7403402665498
 21
1374.6876149999998
  0
LINE
  8
_0-8_小物
  6
CONTINUOUS
 62
    7
 10
1891.0797502665498
 20
1375.140165
 11
1897.6837702665498
 21
1376.0835950000001
  0
LINE
  8
_0-8_小物
  6
CONTINUOUS
 62
    7
 10
1882.8833902665497
 20
1376.462505
 11
1887.8833902665497
 21
1377.462505
  0
LINE
  8
_0-8_小物
  6
CONTINUOUS
 62
    7
 10
1882.8833902665497
 20
1377.462505
 11
1890.8833902665499
 21
1377.462505
  0
LINE
  8
_0-8_小物
  6
CONTINUOUS
 62
    7
 10
1890.8833902665499
 20
1380.962505
 11
1890.8833902665499
 21
1381.462505
  0
LINE
  8
_0-8_小物
  6
CONTINUOUS
 62
    7
 10
1887.8833902665497
 20
1381.462505
 11
1882.8833902665497
 21
1381.462505
  0
LINE
  8
_0-8_小物
  6
CONTINUOUS
 62
    7
 10
1882.8833902665497
 20
1380.4625050000002
 11
1887.8833902665497
 21
1381.462505
  0
LINE
  8
_0-8_小物
  6
CONTINUOUS
 62
    7
 10
1882.8833902665497
 20
1382.462505
 11
1887.8833902665497
 21
1381.462505
  0
LINE
  8
_0-8_小物
  6
CONTINUOUS
 62
    7
 10
1882.8833902665497
 20
1386.462505
 11
1887.8833902665497
 21
1385.462505
  0
LINE
  8
_0-8_小物
  6
CONTINUOUS
 62
    7
 10
1882.8833902665497
 20
1385.462505
 11
1890.8833902665499
 21
1385.462505
  0
LINE
  8
_0-8_小物
  6
CONTINUOUS
 62
    7
 10
1890.8833902665499
 20
1381.962505
 11
1890.8833902665499
 21
1381.462505
  0
ARC
  8
_0-8_小物
  6
CONTINUOUS
 62
    7
 10
1878.7121002665499
 20
1379.9597450000001
 40
3
 50
218.61463800000001
 51
267.54107399999998
  0
ARC
  8
_0-8_小物
  6
CONTINUOUS
 62
    7
 10
1880.5833902665497
 20
1381.462505
 40
5.4000000000000004
 50
180
 51
218.682187
  0
ARC
  8
_0-8_小物
  6
CONTINUOUS
 62
    7
 10
1880.5833902665497
 20
1381.462505
 40
5.4000000000000004
 50
141.14893799999996
 51
180.00000000000003
  0
ARC
  8
_0-8_小物
  6
CONTINUOUS
 62
    7
 10
1878.7121002665499
 20
1382.9652699999999
 40
3
 50
92.458926000000019
 51
141.38536199999999
  0
LINE
  8
_0-8_小物
  6
CONTINUOUS
 62
    7
 10
1878.5833902665499
 20
1390.462505
 11
1878.5833902665499
 21
1372.462505
  0
LINE
  8
_0-8_小物
  6
CONTINUOUS
 62
    7
 10
1878.5833902665499
 20
1372.462505
 11
1880.0833902665499
 21
1372.462505
  0
LINE
  8
_0-8_小物
  6
CONTINUOUS
 62
    7
 10
1878.5833902665499
 20
1390.462505
 11
1880.0833902665499
 21
1390.462505
  0
LINE
  8
_0-8_小物
  6
CONTINUOUS
 62
    7
 10
1902.7406250105496
 20
1385.0008665218002
 11
1897.6837702665498
 21
1386.8414150000001
  0
LINE
  8
_0-8_小物
  6
CONTINUOUS
 62
    7
 10
1902.7406250105496
 20
1377.9241434782002
 11
1897.6837702665498
 21
1376.0835950000001
  0
LINE
  8
_0-5_止水補助板
  6
CONTINUOUS
 62
    7
 10
1521.3833902665499
 20
1354.462505
 11
1518.3833902665499
 21
1354.462505
  0
LINE
  8
_0-5_止水補助板
  6
CONTINUOUS
 62
    7
 10
1517.88339526655
 20
1354.462505
 11
1517.88339526655
 21
1353.462505
  0
LINE
  8
_0-3_躯体
  6
CONTINUOUS
 62
    7
 10
1072.8833902665499
 20
1377.962505
 11
1027.2819252665499
 21
1377.962505
  0
LINE
  8
_0-3_躯体
  6
CONTINUOUS
 62
    7
 10
1633.5553102665499
 20
1353.462505
 11
1517.88339526655
 21
1353.462505
  0
LINE
  8
_0-4_フレ_ム
  6
CONTINUOUS
 62
    7
 10
1539.3833902665499
 20
1354.462505
 11
1526.3833902665499
 21
1354.462505
  0
LINE
  8
_0-4_フレ_ム
  6
CONTINUOUS
 62
    7
 10
1566.3833902665499
 20
1354.462505
 11
1579.3833902665499
 21
1354.462505
  0
LINE
  8
_0-4_フレ_ム
  6
CONTINUOUS
 62
    7
 10
1558.8833902665499
 20
1375.462505
 11
1561.3833902665499
 21
1375.462505
  0
LINE
  8
_0-4_フレ_ム
  6
CONTINUOUS
 62
    7
 10
1558.8833902665499
 20
1375.462505
 11
1561.3833902665499
 21
1375.462505
  0
LINE
  8
_0-4_フレ_ム
  6
CONTINUOUS
 62
    7
 10
1547.3833902665499
 20
1375.462505
 11
1549.8833902665499
 21
1375.462505
  0
LINE
  8
_0-4_フレ_ム
  6
CONTINUOUS
 62
    7
 10
1547.3833902665499
 20
1375.462505
 11
1549.8833902665499
 21
1375.462505
  0
LINE
  8
_0-3_躯体
  6
CONTINUOUS
 62
    7
 10
1512.8833902665499
 20
1353.462505
 11
1490.3475152665499
 21
1353.462505
  0
LINE
  8
_0-3_躯体
  6
CONTINUOUS
 62
    7
 10
1517.88339526655
 20
1353.462505
 11
1512.8833902665499
 21
1353.462505
  0
LINE
  8
_0-8_小物
  6
CONTINUOUS
 62
    7
 10
1567.4751152665499
 20
1318.682685
 11
1567.37044526655
 21
1316.6854250000001
  0
LINE
  8
_0-8_小物
  6
CONTINUOUS
 62
    7
 10
1567.6321252665498
 20
1321.67857
 11
1569.5770452665499
 21
1320.57527
  0
LINE
  8
_0-8_小物
  6
CONTINUOUS
 62
    7
 10
1569.5770452665499
 20
1320.57527
 11
1569.47237526655
 21
1318.5780099999999
  0
LINE
  8
_0-8_小物
  6
CONTINUOUS
 62
    7
 10
1569.47237526655
 20
1318.5780099999999
 11
1567.4751152665499
 21
1318.682685
  0
LINE
  8
_0-8_小物
  6
CONTINUOUS
 62
    7
 10
1567.73679526655
 20
1323.6758300000001
 11
1567.6321252665498
 21
1321.67857
  0
LINE
  8
_0-8_小物
  6
CONTINUOUS
 62
    7
 10
1567.8938052665499
 20
1326.6717200000001
 11
1569.83872526655
 21
1325.5684200000001
  0
LINE
  8
_0-8_小物
  6
CONTINUOUS
 62
    7
 10
1569.83872526655
 20
1325.5684200000001
 11
1569.7340552665498
 21
1323.57116
  0
LINE
  8
_0-8_小物
  6
CONTINUOUS
 62
    7
 10
1569.7340552665498
 20
1323.57116
 11
1567.73679526655
 21
1323.6758300000001
  0
LINE
  8
_0-8_小物
  6
CONTINUOUS
 62
    7
 10
1567.9984752665498
 20
1328.6689799999999
 11
1567.8938052665499
 21
1326.6717200000001
  0
LINE
  8
_0-8_小物
  6
CONTINUOUS
 62
    7
 10
1568.1554852665499
 20
1331.6648700000001
 11
1570.1004052665498
 21
1330.561565
  0
LINE
  8
_0-8_小物
  6
CONTINUOUS
 62
    7
 10
1570.1004052665498
 20
1330.561565
 11
1569.9957352665499
 21
1328.5643050000003
  0
LINE
  8
_0-8_小物
  6
CONTINUOUS
 62
    7
 10
1569.9957352665499
 20
1328.5643050000003
 11
1567.9984752665498
 21
1328.6689799999999
  0
LINE
  8
_0-8_小物
  6
CONTINUOUS
 62
    7
 10
1568.2601552665499
 20
1333.6621250000001
 11
1568.1554852665499
 21
1331.6648700000001
  0
LINE
  8
_0-8_小物
  6
CONTINUOUS
 62
    7
 10
1568.41716526655
 20
1336.658015
 11
1570.3620852665499
 21
1335.5547150000002
  0
LINE
  8
_0-8_小物
  6
CONTINUOUS
 62
    7
 10
1570.3620852665499
 20
1335.5547150000002
 11
1570.25741526655
 21
1333.5574549999999
  0
LINE
  8
_0-8_小物
  6
CONTINUOUS
 62
    7
 10
1570.25741526655
 20
1333.5574549999999
 11
1568.2601552665499
 21
1333.6621250000001
  0
LINE
  8
_0-8_小物
  6
CONTINUOUS
 62
    7
 10
1568.5218352665499
 20
1338.6552750000001
 11
1568.41716526655
 21
1336.658015
  0
LINE
  8
_0-8_小物
  6
CONTINUOUS
 62
    7
 10
1570.62376526655
 20
1340.5478599999999
 11
1570.5190952665498
 21
1338.5506
  0
LINE
  8
_0-8_小物
  6
CONTINUOUS
 62
    7
 10
1570.5190952665498
 20
1338.5506
 11
1568.5218352665499
 21
1338.6552750000001
  0
LINE
  8
_0-8_小物
  6
CONTINUOUS
 62
    7
 10
1568.8833902665499
 20
1341.462505
 11
1570.62376526655
 21
1340.5478599999999
  0
LINE
  8
_0-8_小物
  6
CONTINUOUS
 62
    7
 10
1578.2916652665499
 20
1318.682685
 11
1578.3963352665498
 21
1316.6854250000001
  0
LINE
  8
_0-8_小物
  6
CONTINUOUS
 62
    7
 10
1578.13465526655
 20
1321.67857
 11
1576.1897352665499
 21
1320.57527
  0
LINE
  8
_0-8_小物
  6
CONTINUOUS
 62
    7
 10
1576.1897352665499
 20
1320.57527
 11
1576.2944052665498
 21
1318.5780099999999
  0
LINE
  8
_0-8_小物
  6
CONTINUOUS
 62
    7
 10
1576.2944052665498
 20
1318.5780099999999
 11
1578.2916652665499
 21
1318.682685
  0
LINE
  8
_0-8_小物
  6
CONTINUOUS
 62
    7
 10
1578.0299852665498
 20
1323.6758300000001
 11
1578.13465526655
 21
1321.67857
  0
LINE
  8
_0-8_小物
  6
CONTINUOUS
 62
    7
 10
1577.8729752665499
 20
1326.6717200000001
 11
1575.9280552665498
 21
1325.5684200000001
  0
LINE
  8
_0-8_小物
  6
CONTINUOUS
 62
    7
 10
1575.9280552665498
 20
1325.5684200000001
 11
1576.03272526655
 21
1323.57116
  0
LINE
  8
_0-8_小物
  6
CONTINUOUS
 62
    7
 10
1576.03272526655
 20
1323.57116
 11
1578.0299852665498
 21
1323.6758300000001
  0
LINE
  8
_0-8_小物
  6
CONTINUOUS
 62
    7
 10
1577.76830526655
 20
1328.6689799999999
 11
1577.8729752665499
 21
1326.6717200000001
  0
LINE
  8
_0-8_小物
  6
CONTINUOUS
 62
    7
 10
1577.6112952665499
 20
1331.6648700000001
 11
1575.6663752665499
 21
1330.561565
  0
LINE
  8
_0-8_小物
  6
CONTINUOUS
 62
    7
 10
1575.6663752665499
 20
1330.561565
 11
1575.7710452665499
 21
1328.5643050000003
  0
LINE
  8
_0-8_小物
  6
CONTINUOUS
 62
    7
 10
1575.7710452665499
 20
1328.5643050000003
 11
1577.76830526655
 21
1328.6689799999999
  0
LINE
  8
_0-8_小物
  6
CONTINUOUS
 62
    7
 10
1577.5066252665499
 20
1333.6621250000001
 11
1577.6112952665499
 21
1331.6648700000001
  0
LINE
  8
_0-8_小物
  6
CONTINUOUS
 62
    7
 10
1577.3496152665498
 20
1336.658015
 11
1575.4046952665499
 21
1335.5547150000002
  0
LINE
  8
_0-8_小物
  6
CONTINUOUS
 62
    7
 10
1575.4046952665499
 20
1335.5547150000002
 11
1575.5093652665498
 21
1333.5574549999999
  0
LINE
  8
_0-8_小物
  6
CONTINUOUS
 62
    7
 10
1575.5093652665498
 20
1333.5574549999999
 11
1577.5066252665499
 21
1333.6621250000001
  0
LINE
  8
_0-8_小物
  6
CONTINUOUS
 62
    7
 10
1577.2449452665498
 20
1338.6552750000001
 11
1577.3496152665498
 21
1336.658015
  0
LINE
  8
_0-8_小物
  6
CONTINUOUS
 62
    7
 10
1575.1430152665498
 20
1340.5478599999999
 11
1575.24768526655
 21
1338.5506
  0
LINE
  8
_0-8_小物
  6
CONTINUOUS
 62
    7
 10
1575.24768526655
 20
1338.5506
 11
1577.2449452665498
 21
1338.6552750000001
  0
LINE
  8
_0-8_小物
  6
CONTINUOUS
 62
    7
 10
1572.9426952665499
 20
1317.5218099999997
 11
1571.0089952665498
 21
1319.2374800000002
  0
LINE
  8
_0-8_小物
  6
CONTINUOUS
 62
    7
 10
1574.7528352665499
 20
1319.3319499999998
 11
1572.8833902665499
 21
1317.4625050000002
  0
LINE
  8
_0-8_小物
  6
CONTINUOUS
 62
    7
 10
1576.8833902665499
 20
1341.462505
 11
1575.1430152665498
 21
1340.5478599999999
  0
LINE
  8
_0-8_小物
  6
CONTINUOUS
 62
    7
 10
1568.2601552665499
 20
1333.6621250000001
 11
1566.5647902665498
 21
1338.3201050000002
  0
LINE
  8
_0-8_小物
  6
CONTINUOUS
 62
    7
 10
1577.5066252665499
 20
1333.6621250000001
 11
1579.20199026655
 21
1338.3201050000002
  0
LINE
  8
_0-8_小物
  6
CONTINUOUS
 62
    7
 10
1570.8656452665498
 20
1316.50225
 11
1567.37044526655
 21
1316.6854250000001
  0
LINE
  8
_0-8_小物
  6
CONTINUOUS
 62
    7
 10
1567.37044526655
 20
1316.6854250000001
 11
1569.26303026655
 21
1314.5834950000003
  0
LINE
  8
_0-8_小物
  6
CONTINUOUS
 62
    7
 10
1569.26303026655
 20
1314.5834950000003
 11
1570.7609752665498
 21
1314.5049900000004
  0
LINE
  8
_0-8_小物
  6
CONTINUOUS
 62
    7
 10
1570.7609752665498
 20
1314.5049900000004
 11
1572.3833902665499
 21
1345.4625050000002
  0
LINE
  8
_0-8_小物
  6
CONTINUOUS
 62
    7
 10
1568.8833902665499
 20
1341.462505
 11
1568.8833902665499
 21
1345.4625050000002
  0
LINE
  8
_0-8_小物
  6
CONTINUOUS
 62
    7
 10
1574.9011302665499
 20
1316.50225
 11
1578.3963352665498
 21
1316.6854250000001
  0
LINE
  8
_0-8_小物
  6
CONTINUOUS
 62
    7
 10
1578.3963352665498
 20
1316.6854250000001
 11
1576.5037502665498
 21
1314.5834950000003
  0
LINE
  8
_0-8_小物
  6
CONTINUOUS
 62
    7
 10
1576.5037502665498
 20
1314.5834950000003
 11
1575.0058052665499
 21
1314.5049900000004
  0
LINE
  8
_0-8_小物
  6
CONTINUOUS
 62
    7
 10
1575.0058052665499
 20
1314.5049900000004
 11
1573.3833902665499
 21
1345.4625050000002
  0
LINE
  8
_0-8_小物
  6
CONTINUOUS
 62
    7
 10
1576.8833902665499
 20
1341.462505
 11
1576.8833902665499
 21
1345.4625050000002
  0
LINE
  8
_0-8_小物
  6
CONTINUOUS
 62
    7
 10
1579.20199026655
 20
1338.3201050000002
 11
1580.1943452665498
 21
1345.12373
  0
ARC
  8
_0-8_小物
  6
CONTINUOUS
 62
    7
 10
1579.7985352665498
 20
1345.1814600000002
 40
0.4
 50
351.70153399997798
 51
81.869897999980026
  0
LINE
  8
_0-8_小物
  6
CONTINUOUS
 62
    7
 10
1579.8551002665499
 20
1345.57744
 11
1579.6582802665498
 21
1345.6055600000002
  0
ARC
  8
_0-8_小物
  6
CONTINUOUS
 62
    7
 10
1579.6017102665498
 20
1345.2095799999997
 40
0.4
 50
81.869897999979997
 51
171.86989800000001
  0
LINE
  8
_0-8_小物
  6
CONTINUOUS
 62
    7
 10
1579.2057302665498
 20
1345.2661450000001
 11
1578.2623002665498
 21
1338.6621250000001
  0
LINE
  8
_0-8_小物
  6
CONTINUOUS
 62
    7
 10
1566.5647902665498
 20
1338.3201050000002
 11
1565.57243526655
 21
1345.12373
  0
ARC
  8
_0-8_小物
  6
CONTINUOUS
 62
    7
 10
1565.96824526655
 20
1345.1814600000002
 40
0.4
 50
98.130101999990003
 51
188.29846599999999
  0
LINE
  8
_0-8_小物
  6
CONTINUOUS
 62
    7
 10
1565.91167526655
 20
1345.57744
 11
1566.10850026655
 21
1345.6055600000002
  0
ARC
  8
_0-8_小物
  6
CONTINUOUS
 62
    7
 10
1566.1650702665499
 20
1345.2095799999997
 40
0.4
 50
8.1301019999760005
 51
98.130101999990003
  0
LINE
  8
_0-8_小物
  6
CONTINUOUS
 62
    7
 10
1566.56105026655
 20
1345.2661450000001
 11
1567.50448026655
 21
1338.6621250000001
  0
LINE
  8
_0-8_小物
  6
CONTINUOUS
 62
    7
 10
1566.5647902665498
 20
1338.3201050000002
 11
1565.57243526655
 21
1345.12373
  0
ARC
  8
_0-8_小物
  6
CONTINUOUS
 62
    7
 10
1565.96824526655
 20
1345.1814600000002
 40
0.4
 50
98.130101999990003
 51
188.29846599999999
  0
LINE
  8
_0-8_小物
  6
CONTINUOUS
 62
    7
 10
1565.91167526655
 20
1345.57744
 11
1566.10850026655
 21
1345.6055600000002
  0
ARC
  8
_0-8_小物
  6
CONTINUOUS
 62
    7
 10
1566.1650702665499
 20
1345.2095799999997
 40
0.4
 50
8.1301019999760005
 51
98.130101999990003
  0
LINE
  8
_0-8_小物
  6
CONTINUOUS
 62
    7
 10
1566.56105026655
 20
1345.2661450000001
 11
1567.50448026655
 21
1338.6621250000001
  0
LINE
  8
_0-8_小物
  6
CONTINUOUS
 62
    7
 10
1567.8833902665499
 20
1353.462505
 11
1568.8833902665499
 21
1348.462505
  0
LINE
  8
_0-8_小物
  6
CONTINUOUS
 62
    7
 10
1568.8833902665499
 20
1353.462505
 11
1568.8833902665499
 21
1345.4625050000002
  0
LINE
  8
_0-8_小物
  6
CONTINUOUS
 62
    7
 10
1572.3833902665499
 20
1345.4625050000002
 11
1572.8833902665499
 21
1345.4625050000002
  0
LINE
  8
_0-8_小物
  6
CONTINUOUS
 62
    7
 10
1572.8833902665499
 20
1348.462505
 11
1572.8833902665499
 21
1353.462505
  0
LINE
  8
_0-8_小物
  6
CONTINUOUS
 62
    7
 10
1571.8833902665499
 20
1353.462505
 11
1572.8833902665499
 21
1348.462505
  0
LINE
  8
_0-8_小物
  6
CONTINUOUS
 62
    7
 10
1573.8833902665499
 20
1353.462505
 11
1572.8833902665499
 21
1348.462505
  0
LINE
  8
_0-8_小物
  6
CONTINUOUS
 62
    7
 10
1577.8833902665499
 20
1353.462505
 11
1576.8833902665499
 21
1348.462505
  0
LINE
  8
_0-8_小物
  6
CONTINUOUS
 62
    7
 10
1576.8833902665499
 20
1353.462505
 11
1576.8833902665499
 21
1345.4625050000002
  0
LINE
  8
_0-8_小物
  6
CONTINUOUS
 62
    7
 10
1573.3833902665499
 20
1345.4625050000002
 11
1572.8833902665499
 21
1345.4625050000002
  0
LINE
  8
_0-8_小物
  6
CONTINUOUS
 62
    7
 10
1527.4751152665499
 20
1318.682685
 11
1527.37044526655
 21
1316.6854250000001
  0
LINE
  8
_0-8_小物
  6
CONTINUOUS
 62
    7
 10
1527.6321252665498
 20
1321.67857
 11
1529.5770452665499
 21
1320.57527
  0
LINE
  8
_0-8_小物
  6
CONTINUOUS
 62
    7
 10
1529.5770452665499
 20
1320.57527
 11
1529.47237526655
 21
1318.5780099999999
  0
LINE
  8
_0-8_小物
  6
CONTINUOUS
 62
    7
 10
1529.47237526655
 20
1318.5780099999999
 11
1527.4751152665499
 21
1318.682685
  0
LINE
  8
_0-8_小物
  6
CONTINUOUS
 62
    7
 10
1527.73679526655
 20
1323.6758300000001
 11
1527.6321252665498
 21
1321.67857
  0
LINE
  8
_0-8_小物
  6
CONTINUOUS
 62
    7
 10
1527.8938052665499
 20
1326.6717200000001
 11
1529.83872526655
 21
1325.5684200000001
  0
LINE
  8
_0-8_小物
  6
CONTINUOUS
 62
    7
 10
1529.83872526655
 20
1325.5684200000001
 11
1529.7340552665498
 21
1323.57116
  0
LINE
  8
_0-8_小物
  6
CONTINUOUS
 62
    7
 10
1529.7340552665498
 20
1323.57116
 11
1527.73679526655
 21
1323.6758300000001
  0
LINE
  8
_0-8_小物
  6
CONTINUOUS
 62
    7
 10
1527.9984752665498
 20
1328.6689799999999
 11
1527.8938052665499
 21
1326.6717200000001
  0
LINE
  8
_0-8_小物
  6
CONTINUOUS
 62
    7
 10
1528.1554852665499
 20
1331.6648700000001
 11
1530.1004052665498
 21
1330.561565
  0
LINE
  8
_0-8_小物
  6
CONTINUOUS
 62
    7
 10
1530.1004052665498
 20
1330.561565
 11
1529.9957352665499
 21
1328.5643050000003
  0
LINE
  8
_0-8_小物
  6
CONTINUOUS
 62
    7
 10
1529.9957352665499
 20
1328.5643050000003
 11
1527.9984752665498
 21
1328.6689799999999
  0
LINE
  8
_0-8_小物
  6
CONTINUOUS
 62
    7
 10
1528.2601552665499
 20
1333.6621250000001
 11
1528.1554852665499
 21
1331.6648700000001
  0
LINE
  8
_0-8_小物
  6
CONTINUOUS
 62
    7
 10
1528.41716526655
 20
1336.658015
 11
1530.3620852665499
 21
1335.5547150000002
  0
LINE
  8
_0-8_小物
  6
CONTINUOUS
 62
    7
 10
1530.3620852665499
 20
1335.5547150000002
 11
1530.25741526655
 21
1333.5574549999999
  0
LINE
  8
_0-8_小物
  6
CONTINUOUS
 62
    7
 10
1530.25741526655
 20
1333.5574549999999
 11
1528.2601552665499
 21
1333.6621250000001
  0
LINE
  8
_0-8_小物
  6
CONTINUOUS
 62
    7
 10
1528.5218352665499
 20
1338.6552750000001
 11
1528.41716526655
 21
1336.658015
  0
LINE
  8
_0-8_小物
  6
CONTINUOUS
 62
    7
 10
1530.62376526655
 20
1340.5478599999999
 11
1530.5190952665498
 21
1338.5506
  0
LINE
  8
_0-8_小物
  6
CONTINUOUS
 62
    7
 10
1530.5190952665498
 20
1338.5506
 11
1528.5218352665499
 21
1338.6552750000001
  0
LINE
  8
_0-8_小物
  6
CONTINUOUS
 62
    7
 10
1528.8833902665499
 20
1341.462505
 11
1530.62376526655
 21
1340.5478599999999
  0
LINE
  8
_0-8_小物
  6
CONTINUOUS
 62
    7
 10
1538.2916652665499
 20
1318.682685
 11
1538.3963352665498
 21
1316.6854250000001
  0
LINE
  8
_0-8_小物
  6
CONTINUOUS
 62
    7
 10
1538.13465526655
 20
1321.67857
 11
1536.1897352665499
 21
1320.57527
  0
LINE
  8
_0-8_小物
  6
CONTINUOUS
 62
    7
 10
1536.1897352665499
 20
1320.57527
 11
1536.2944052665498
 21
1318.5780099999999
  0
LINE
  8
_0-8_小物
  6
CONTINUOUS
 62
    7
 10
1536.2944052665498
 20
1318.5780099999999
 11
1538.2916652665499
 21
1318.682685
  0
LINE
  8
_0-8_小物
  6
CONTINUOUS
 62
    7
 10
1538.0299852665498
 20
1323.6758300000001
 11
1538.13465526655
 21
1321.67857
  0
LINE
  8
_0-8_小物
  6
CONTINUOUS
 62
    7
 10
1537.8729752665499
 20
1326.6717200000001
 11
1535.9280552665498
 21
1325.5684200000001
  0
LINE
  8
_0-8_小物
  6
CONTINUOUS
 62
    7
 10
1535.9280552665498
 20
1325.5684200000001
 11
1536.03272526655
 21
1323.57116
  0
LINE
  8
_0-8_小物
  6
CONTINUOUS
 62
    7
 10
1536.03272526655
 20
1323.57116
 11
1538.0299852665498
 21
1323.6758300000001
  0
LINE
  8
_0-8_小物
  6
CONTINUOUS
 62
    7
 10
1537.76830526655
 20
1328.6689799999999
 11
1537.8729752665499
 21
1326.6717200000001
  0
LINE
  8
_0-8_小物
  6
CONTINUOUS
 62
    7
 10
1537.6112952665499
 20
1331.6648700000001
 11
1535.6663752665499
 21
1330.561565
  0
LINE
  8
_0-8_小物
  6
CONTINUOUS
 62
    7
 10
1535.6663752665499
 20
1330.561565
 11
1535.7710452665499
 21
1328.5643050000003
  0
LINE
  8
_0-8_小物
  6
CONTINUOUS
 62
    7
 10
1535.7710452665499
 20
1328.5643050000003
 11
1537.76830526655
 21
1328.6689799999999
  0
LINE
  8
_0-8_小物
  6
CONTINUOUS
 62
    7
 10
1537.5066252665499
 20
1333.6621250000001
 11
1537.6112952665499
 21
1331.6648700000001
  0
LINE
  8
_0-8_小物
  6
CONTINUOUS
 62
    7
 10
1537.3496152665498
 20
1336.658015
 11
1535.4046952665499
 21
1335.5547150000002
  0
LINE
  8
_0-8_小物
  6
CONTINUOUS
 62
    7
 10
1535.4046952665499
 20
1335.5547150000002
 11
1535.5093652665498
 21
1333.5574549999999
  0
LINE
  8
_0-8_小物
  6
CONTINUOUS
 62
    7
 10
1535.5093652665498
 20
1333.5574549999999
 11
1537.5066252665499
 21
1333.6621250000001
  0
LINE
  8
_0-8_小物
  6
CONTINUOUS
 62
    7
 10
1537.2449452665498
 20
1338.6552750000001
 11
1537.3496152665498
 21
1336.658015
  0
LINE
  8
_0-8_小物
  6
CONTINUOUS
 62
    7
 10
1535.1430152665498
 20
1340.5478599999999
 11
1535.24768526655
 21
1338.5506
  0
LINE
  8
_0-8_小物
  6
CONTINUOUS
 62
    7
 10
1535.24768526655
 20
1338.5506
 11
1537.2449452665498
 21
1338.6552750000001
  0
LINE
  8
_0-8_小物
  6
CONTINUOUS
 62
    7
 10
1532.9426952665499
 20
1317.5218099999997
 11
1531.0089952665498
 21
1319.2374800000002
  0
LINE
  8
_0-8_小物
  6
CONTINUOUS
 62
    7
 10
1534.7528352665499
 20
1319.3319499999998
 11
1532.8833902665499
 21
1317.4625050000002
  0
LINE
  8
_0-8_小物
  6
CONTINUOUS
 62
    7
 10
1536.8833902665499
 20
1341.462505
 11
1535.1430152665498
 21
1340.5478599999999
  0
LINE
  8
_0-8_小物
  6
CONTINUOUS
 62
    7
 10
1528.2601552665499
 20
1333.6621250000001
 11
1526.5647902665498
 21
1338.3201050000002
  0
LINE
  8
_0-8_小物
  6
CONTINUOUS
 62
    7
 10
1537.5066252665499
 20
1333.6621250000001
 11
1539.20199026655
 21
1338.3201050000002
  0
LINE
  8
_0-8_小物
  6
CONTINUOUS
 62
    7
 10
1530.8656452665498
 20
1316.50225
 11
1527.37044526655
 21
1316.6854250000001
  0
LINE
  8
_0-8_小物
  6
CONTINUOUS
 62
    7
 10
1527.37044526655
 20
1316.6854250000001
 11
1529.26303026655
 21
1314.5834950000003
  0
LINE
  8
_0-8_小物
  6
CONTINUOUS
 62
    7
 10
1529.26303026655
 20
1314.5834950000003
 11
1530.7609752665498
 21
1314.5049900000004
  0
LINE
  8
_0-8_小物
  6
CONTINUOUS
 62
    7
 10
1530.7609752665498
 20
1314.5049900000004
 11
1532.3833902665499
 21
1345.4625050000002
  0
LINE
  8
_0-8_小物
  6
CONTINUOUS
 62
    7
 10
1528.8833902665499
 20
1341.462505
 11
1528.8833902665499
 21
1345.4625050000002
  0
LINE
  8
_0-8_小物
  6
CONTINUOUS
 62
    7
 10
1534.9011302665499
 20
1316.50225
 11
1538.3963352665498
 21
1316.6854250000001
  0
LINE
  8
_0-8_小物
  6
CONTINUOUS
 62
    7
 10
1538.3963352665498
 20
1316.6854250000001
 11
1536.5037502665498
 21
1314.5834950000003
  0
LINE
  8
_0-8_小物
  6
CONTINUOUS
 62
    7
 10
1536.5037502665498
 20
1314.5834950000003
 11
1535.0058052665499
 21
1314.5049900000004
  0
LINE
  8
_0-8_小物
  6
CONTINUOUS
 62
    7
 10
1535.0058052665499
 20
1314.5049900000004
 11
1533.3833902665499
 21
1345.4625050000002
  0
LINE
  8
_0-8_小物
  6
CONTINUOUS
 62
    7
 10
1536.8833902665499
 20
1341.462505
 11
1536.8833902665499
 21
1345.4625050000002
  0
LINE
  8
_0-8_小物
  6
CONTINUOUS
 62
    7
 10
1539.20199026655
 20
1338.3201050000002
 11
1540.1943452665498
 21
1345.12373
  0
ARC
  8
_0-8_小物
  6
CONTINUOUS
 62
    7
 10
1539.7985352665498
 20
1345.1814600000002
 40
0.4
 50
351.70153399999901
 51
81.869897999980012
  0
LINE
  8
_0-8_小物
  6
CONTINUOUS
 62
    7
 10
1539.8551002665499
 20
1345.57744
 11
1539.6582802665498
 21
1345.6055600000002
  0
ARC
  8
_0-8_小物
  6
CONTINUOUS
 62
    7
 10
1539.6017102665498
 20
1345.2095799999997
 40
0.4
 50
81.869897999979997
 51
171.86989800000001
  0
LINE
  8
_0-8_小物
  6
CONTINUOUS
 62
    7
 10
1539.2057302665498
 20
1345.2661450000001
 11
1538.2623002665498
 21
1338.6621250000001
  0
LINE
  8
_0-8_小物
  6
CONTINUOUS
 62
    7
 10
1526.5647902665498
 20
1338.3201050000002
 11
1525.57243526655
 21
1345.12373
  0
ARC
  8
_0-8_小物
  6
CONTINUOUS
 62
    7
 10
1525.96824526655
 20
1345.1814600000002
 40
0.4
 50
98.130101999990003
 51
188.29846599999999
  0
LINE
  8
_0-8_小物
  6
CONTINUOUS
 62
    7
 10
1525.91167526655
 20
1345.57744
 11
1526.10850026655
 21
1345.6055600000002
  0
ARC
  8
_0-8_小物
  6
CONTINUOUS
 62
    7
 10
1526.1650702665499
 20
1345.2095799999997
 40
0.4
 50
8.1301019999760005
 51
98.130101999990003
  0
LINE
  8
_0-8_小物
  6
CONTINUOUS
 62
    7
 10
1526.56105026655
 20
1345.2661450000001
 11
1527.50448026655
 21
1338.6621250000001
  0
LINE
  8
_0-8_小物
  6
CONTINUOUS
 62
    7
 10
1526.5647902665498
 20
1338.3201050000002
 11
1525.57243526655
 21
1345.12373
  0
ARC
  8
_0-8_小物
  6
CONTINUOUS
 62
    7
 10
1525.96824526655
 20
1345.1814600000002
 40
0.4
 50
98.130101999990003
 51
188.29846599999999
  0
LINE
  8
_0-8_小物
  6
CONTINUOUS
 62
    7
 10
1525.91167526655
 20
1345.57744
 11
1526.10850026655
 21
1345.6055600000002
  0
ARC
  8
_0-8_小物
  6
CONTINUOUS
 62
    7
 10
1526.1650702665499
 20
1345.2095799999997
 40
0.4
 50
8.1301019999760005
 51
98.130101999990003
  0
LINE
  8
_0-8_小物
  6
CONTINUOUS
 62
    7
 10
1526.56105026655
 20
1345.2661450000001
 11
1527.50448026655
 21
1338.6621250000001
  0
LINE
  8
_0-8_小物
  6
CONTINUOUS
 62
    7
 10
1527.8833902665499
 20
1353.462505
 11
1528.8833902665499
 21
1348.462505
  0
LINE
  8
_0-8_小物
  6
CONTINUOUS
 62
    7
 10
1528.8833902665499
 20
1353.462505
 11
1528.8833902665499
 21
1345.4625050000002
  0
LINE
  8
_0-8_小物
  6
CONTINUOUS
 62
    7
 10
1532.3833902665499
 20
1345.4625050000002
 11
1532.8833902665499
 21
1345.4625050000002
  0
LINE
  8
_0-8_小物
  6
CONTINUOUS
 62
    7
 10
1532.8833902665499
 20
1348.462505
 11
1532.8833902665499
 21
1353.462505
  0
LINE
  8
_0-8_小物
  6
CONTINUOUS
 62
    7
 10
1531.8833902665499
 20
1353.462505
 11
1532.8833902665499
 21
1348.462505
  0
LINE
  8
_0-8_小物
  6
CONTINUOUS
 62
    7
 10
1533.8833902665499
 20
1353.462505
 11
1532.8833902665499
 21
1348.462505
  0
LINE
  8
_0-8_小物
  6
CONTINUOUS
 62
    7
 10
1537.8833902665499
 20
1353.462505
 11
1536.8833902665499
 21
1348.462505
  0
LINE
  8
_0-8_小物
  6
CONTINUOUS
 62
    7
 10
1536.8833902665499
 20
1353.462505
 11
1536.8833902665499
 21
1345.4625050000002
  0
LINE
  8
_0-8_小物
  6
CONTINUOUS
 62
    7
 10
1533.3833902665499
 20
1345.4625050000002
 11
1532.8833902665499
 21
1345.4625050000002
  0
LINE
  8
_0-8_小物
  6
CONTINUOUS
 62
    7
 10
1529.3450287445498
 20
1333.6052702555
 11
1527.50448026655
 21
1338.6621250000001
  0
LINE
  8
_0-8_小物
  6
CONTINUOUS
 62
    7
 10
1536.42175178855
 20
1333.6052702555
 11
1538.2623002665498
 21
1338.6621250000001
  0
LINE
  8
_0-8_小物
  6
CONTINUOUS
 62
    7
 10
1569.3450287445498
 20
1333.6052702555
 11
1567.50448026655
 21
1338.6621250000001
  0
LINE
  8
_0-8_小物
  6
CONTINUOUS
 62
    7
 10
1576.42175178855
 20
1333.6052702555
 11
1578.2623002665498
 21
1338.6621250000001
  0
LINE
  8
_0-8_小物
  6
CONTINUOUS
 62
    7
 10
627.94269526654989
 20
1309.7261500000002
 11
627.94269526654989
 21
1363.4487949999998
  0
LINE
  8
_0-4_フレ_ム
  6
HIDDEN
 62
    7
 10
620.3833902665499
 20
1356.962505
 11
620.3833902665499
 21
1354.962505
  0
LINE
  8
_0-4_フレ_ム
  6
HIDDEN
 62
    7
 10
635.3833902665499
 20
1356.962505
 11
635.3833902665499
 21
1354.962505
  0
LINE
  8
_0-4_フレ_ム
  6
HIDDEN
 62
    7
 10
580.3833902665499
 20
1356.962505
 11
580.3833902665499
 21
1354.962505
  0
LINE
  8
_0-4_フレ_ム
  6
HIDDEN
 62
    7
 10
595.3833902665499
 20
1356.962505
 11
595.3833902665499
 21
1354.962505
  0
LINE
  8
_0-3_躯体
  6
HIDDEN
 62
    7
 10
1072.8833902665499
 20
1377.962505
 11
1072.8833902665499
 21
1353.462505
  0
LINE
  8
_0-3_躯体
  6
HIDDEN
 62
    7
 10
1072.8833902665499
 20
1353.462505
 11
1072.8833902665499
 21
1272.5221649999999
  0
LINE
  8
_0-3_躯体
  6
HIDDEN
 62
    7
 10
552.8833902665499
 20
1353.462505
 11
552.8833902665499
 21
1272.5221649999999
  0
TEXT
  8
_0-a_寸法
 62
    7
 10
1901.8003502665499
 20
1404.9059849999999
 40
12.800000000000001
 41
1
 50
0
  1
10
  0
TEXT
  8
_0-a_寸法
 62
    7
 10
715.88990736254982
 20
1324.6848189651
 40
12.800000000000001
 41
1
 50
0
  1
4
  0
TEXT
  8
_0-a_寸法
 62
    7
 10
1663.5403144265499
 20
1324.4877984691002
 40
12.800000000000001
 41
1
 50
0
  1
6
  0
TEXT
  8
_0-a_寸法
 62
    7
 10
605.20010526654983
 20
1319.3654150000002
 40
12.800000000000001
 41
1
 50
0
  1
7
  0
TEXT
  8
_0-a_寸法
 62
    7
 10
1546.63700526655
 20
1319.8891800000001
 40
12.800000000000001
 41
1
 50
0
  1
10
  0
TEXT
  8
_0-a_寸法
 62
    7
 10
655.6568952665499
 20
1312.5032749999998
 40
12.800000000000001
 41
1
 50
0
  1
8
  0
TEXT
  8
_0-a_寸法
 62
    7
 10
1595.73917026655
 20
1311.9435149999999
 40
12.800000000000001
 41
1
 50
0
  1
11
  0
TEXT
  8
_0-a_寸法
 62
    7
 10
533.69163063304984
 20
1358.712505
 40
14
 41
1
 50
90.000003000000149
  1
25
  0
TEXT
  8
_0-a_寸法
 62
    7
 10
533.69163063304984
 20
1328.962505
 40
14
 41
1
 50
90.000003000000149
  1
10
  0
LINE
  8
_0-a_寸法
  6
CENTER
 62
    7
 10
812.88338775544992
 20
1393.6619378097002
 11
812.88338775544992
 21
1274.6145051199001
  0
LINE
  8
_0-a_寸法
  6
CENTER
 62
    7
 10
1757.88339775555
 20
1393.6619378097002
 11
1757.88339775555
 21
1274.6145051199001
  0
LINE
  8
_0-a_寸法
  6
CONTINUOUS
 62
    7
 10
644.85038276654996
 20
1355.712505
 11
663.91110776654989
 21
1388.726645
  0
CIRCLE
  8
_0-a_寸法
  6
CONTINUOUS
 62
    7
 10
667.66110776654989
 20
1395.2218350000001
 40
7.5
  0
CIRCLE
  8
_0-a_寸法
  6
CONTINUOUS
 62
    7
 10
644.85038276654996
 20
1355.712505
 40
1
  0
TEXT
  8
_0-a_寸法
 62
    7
 10
664.46110776654996
 20
1388.8218350000002
 40
12.800000000000001
 41
1
 50
0
  1
3
  0
LINE
  8
_0-a_寸法
  6
CONTINUOUS
 62
    7
 10
677.9231046466499
 20
1376.462505
 11
684.56855964664987
 21
1387.9727700000001
  0
CIRCLE
  8
_0-a_寸法
  6
CONTINUOUS
 62
    7
 10
688.31855964664987
 20
1394.4679599999999
 40
7.5
  0
CIRCLE
  8
_0-a_寸法
  6
CONTINUOUS
 62
    7
 10
677.9231046466499
 20
1376.462505
 40
1
  0
TEXT
  8
_0-a_寸法
 62
    7
 10
685.11855964664983
 20
1388.0679599999999
 40
12.800000000000001
 41
1
 50
0
  1
1
  0
LINE
  8
_0-a_寸法
  6
CONTINUOUS
 62
    7
 10
713.95003376824991
 20
1374.1740463152
 11
721.69129876824991
 21
1389.1062113152002
  0
CIRCLE
  8
_0-a_寸法
  6
CONTINUOUS
 62
    7
 10
725.14320376824992
 20
1395.7646163152001
 40
7.5
  0
CIRCLE
  8
_0-a_寸法
  6
CONTINUOUS
 62
    7
 10
713.95003376824991
 20
1374.1740463152
 40
1
  0
TEXT
  8
_0-a_寸法
 62
    7
 10
721.94320376824987
 20
1389.3646163151998
 40
12.800000000000001
 41
1
 50
0
  1
2
  0
LINE
  8
_0-a_寸法
  6
CONTINUOUS
 62
    7
 10
1589.85038276655
 20
1355.712505
 11
1608.91110776655
 21
1388.726645
  0
CIRCLE
  8
_0-a_寸法
  6
CONTINUOUS
 62
    7
 10
1612.66110776655
 20
1395.2218350000001
 40
7.5
  0
CIRCLE
  8
_0-a_寸法
  6
CONTINUOUS
 62
    7
 10
1589.85038276655
 20
1355.712505
 40
1
  0
TEXT
  8
_0-a_寸法
 62
    7
 10
1609.46110776655
 20
1388.8218350000002
 40
12.800000000000001
 41
1
 50
0
  1
3
  0
LINE
  8
_0-a_寸法
  6
CONTINUOUS
 62
    7
 10
1622.92310464655
 20
1376.462505
 11
1629.5685596465498
 21
1387.9727700000001
  0
CIRCLE
  8
_0-a_寸法
  6
CONTINUOUS
 62
    7
 10
1633.3185596465498
 20
1394.4679599999999
 40
7.5
  0
CIRCLE
  8
_0-a_寸法
  6
CONTINUOUS
 62
    7
 10
1622.92310464655
 20
1376.462505
 40
1
  0
TEXT
  8
_0-a_寸法
 62
    7
 10
1630.1185596465498
 20
1388.0679599999999
 40
12.800000000000001
 41
1
 50
0
  1
1
  0
LINE
  8
_0-a_寸法
  6
CONTINUOUS
 62
    7
 10
1658.9500337685499
 20
1374.1740463152
 11
1666.6912987685498
 21
1389.1062113152002
  0
CIRCLE
  8
_0-a_寸法
  6
CONTINUOUS
 62
    7
 10
1670.1432037685499
 20
1395.7646163152001
 40
7.5
  0
CIRCLE
  8
_0-a_寸法
  6
CONTINUOUS
 62
    7
 10
1658.9500337685499
 20
1374.1740463152
 40
1
  0
TEXT
  8
_0-a_寸法
 62
    7
 10
1666.9432037685499
 20
1389.3646163151998
 40
12.800000000000001
 41
1
 50
0
  1
2
  0
LINE
  8
_0-a_寸法
  6
CONTINUOUS
 62
    7
 10
609.3833902665499
 20
1376.3125050000001
 11
615.84704026654993
 21
1387.507875
  0
CIRCLE
  8
_0-a_寸法
  6
CONTINUOUS
 62
    7
 10
619.59704026654993
 20
1394.0030650000001
 40
7.5
  0
CIRCLE
  8
_0-a_寸法
  6
CONTINUOUS
 62
    7
 10
609.3833902665499
 20
1376.3125050000001
 40
1
  0
TEXT
  8
_0-a_寸法
 62
    7
 10
616.39704026654988
 20
1387.6030650000002
 40
12.800000000000001
 41
1
 50
0
  1
5
  0
LINE
  8
_0-9_その他
  6
CONTINUOUS
 62
    7
 10
609.3833902665499
 20
1380.4261300000003
 11
609.3833902665499
 21
1358.9625010000002
  0
LINE
  8
_0-9_その他
  6
CONTINUOUS
 62
    7
 10
1016.3833852442499
 20
1380.4261300000003
 11
1016.3833852442499
 21
1358.9625010000002
  0
LINE
  8
_0-9_その他
  6
CONTINUOUS
 62
    7
 10
1554.3833902665499
 20
1380.4261300000003
 11
1554.3833902665499
 21
1358.9625010000002
  0
CIRCLE
  8
_0-a_寸法
  6
CONTINUOUS
 62
    7
 10
1554.3833902665499
 20
1376.1625060000001
 40
1
  0
CIRCLE
  8
_0-a_寸法
  6
CONTINUOUS
 62
    7
 10
1565.95785776655
 20
1396.2100735000001
 40
7.5
  0
TEXT
  8
_0-a_寸法
 62
    7
 10
1562.7578577665499
 20
1389.8100735000003
 40
12.800000000000001
 41
1
 50
0
  1
8
  0
LINE
  8
_0-a_寸法
  6
CONTINUOUS
 62
    7
 10
1554.3833902665499
 20
1376.1625060000001
 11
1562.20785776655
 21
1389.7148835
  0
LINE
  8
_0-4_フレ_ム
  6
CONTINUOUS
 62
    7
 10
1866.3833902665499
 20
1410.962505
 11
1866.3833902665499
 21
1418.9625050000002
  0
CIRCLE
  8
_0-a_寸法
  6
CONTINUOUS
 62
    7
 10
1863.6333927665498
 20
1429.212505
 40
1
  0
CIRCLE
  8
_0-a_寸法
  6
CONTINUOUS
 62
    7
 10
1849.8543927665496
 20
1417.6505500000001
 40
7.5
  0
TEXT
  8
_0-a_寸法
 62
    7
 10
1846.6543927665498
 20
1411.2505500000002
 40
12.800000000000001
 41
1
 50
0
  1
4
  0
LINE
  8
_0-a_寸法
  6
CONTINUOUS
 62
    7
 10
1863.6333927665498
 20
1429.212505
 11
1855.59972584755
 21
1422.4714573618999
  0
CIRCLE
  8
_0-a_寸法
  6
CONTINUOUS
 62
    7
 10
1864.18339526655
 20
1414.9625042499999
 40
1
  0
LINE
  8
_0-a_寸法
  6
CONTINUOUS
 62
    7
 10
1864.18339526655
 20
1414.9625042499999
 11
1850.4043952665497
 21
1403.4005529999999
  0
CIRCLE
  8
_0-a_寸法
  6
CONTINUOUS
 62
    7
 10
1844.6590602665499
 20
1398.579643
 40
7.5
  0
TEXT
  8
_0-a_寸法
 62
    7
 10
1841.4590602665498
 20
1392.1796429999999
 40
12.800000000000001
 41
1
 50
0
  1
8
  0
LINE
  8
_0-a_寸法
  6
CONTINUOUS
 62
    7
 10
1879.3333903805499
 20
1374.7125061480999
 11
1894.5436653805496
 21
1348.3675411480999
  0
CIRCLE
  8
_0-a_寸法
  6
CONTINUOUS
 62
    7
 10
1898.2936653805496
 20
1341.8723511481003
 40
7.5
  0
CIRCLE
  8
_0-a_寸法
  6
CONTINUOUS
 62
    7
 10
1879.3333903805499
 20
1374.7125061480999
 40
1
  0
TEXT
  8
_0-a_寸法
 62
    7
 10
1891.8936653805499
 20
1335.4723511481
 40
12.800000000000001
 41
1
 50
0
  1
11
  0
CIRCLE
  8
_0-a_寸法
  6
CONTINUOUS
 62
    7
 10
1914.27268026655
 20
1378.2346649999999
 40
1
  0
CIRCLE
  8
_0-a_寸法
  6
CONTINUOUS
 62
    7
 10
1921.4016193335499
 20
1365.8869816286001
 40
7.5
  0
TEXT
  8
_0-a_寸法
 62
    7
 10
1918.2016193335498
 20
1359.4869816286
 40
12.800000000000001
 41
1
 50
0
  1
9
  0
LINE
  8
_0-a_寸法
  6
CONTINUOUS
 62
    7
 10
1914.27268026655
 20
1378.2346649999999
 11
1917.6516191045498
 21
1372.3821720249
  0
LINE
  8
_0-a_寸法
  6
CONTINUOUS
 62
    7
 10
624.65555026654988
 20
1322.0732150000001
 11
614.32128526654992
 21
1304.1737450000001
  0
CIRCLE
  8
_0-a_寸法
  6
CONTINUOUS
 62
    7
 10
610.57128526654992
 20
1297.678555
 40
7.5
  0
CIRCLE
  8
_0-a_寸法
  6
CONTINUOUS
 62
    7
 10
624.65555026654988
 20
1322.0732150000001
 40
1
  0
TEXT
  8
_0-a_寸法
 62
    7
 10
607.37128526654988
 20
1291.2785550000001
 40
12.800000000000001
 41
1
 50
0
  1
6
  0
LINE
  8
_0-a_寸法
  6
CONTINUOUS
 62
    7
 10
1882.3833902665499
 20
1431.7989024999999
 11
1904.0925402665498
 21
1453.5080524999998
  0
CIRCLE
  8
_0-a_寸法
  6
CONTINUOUS
 62
    7
 10
1909.3958402665498
 20
1458.8113525000001
 40
7.5
  0
CIRCLE
  8
_0-a_寸法
  6
CONTINUOUS
 62
    7
 10
1882.3833902665499
 20
1431.7989024999999
 40
1
  0
TEXT
  8
_0-a_寸法
 62
    7
 10
1906.1958402665498
 20
1452.4113524999998
 40
12.800000000000001
 41
1
 50
0
  1
7
  0
LINE
  8
_0-a_寸法
  6
CONTINUOUS
 62
    7
 10
1880.9834017375501
 20
1403.7125045908999
 11
1904.32625673755
 21
1427.0553595909
  0
CIRCLE
  8
_0-a_寸法
  6
CONTINUOUS
 62
    7
 10
1909.6295567375498
 20
1432.3586595909001
 40
7.5
  0
CIRCLE
  8
_0-a_寸法
  6
CONTINUOUS
 62
    7
 10
1880.9834017375501
 20
1403.7125045908999
 40
1
  0
TEXT
  8
_0-a_寸法
 62
    7
 10
1906.4295567375498
 20
1425.9586595909
 40
12.800000000000001
 41
1
 50
0
  1
5
  0
CIRCLE
  8
_0-a_寸法
  6
CONTINUOUS
 62
    7
 10
1593.5095102665498
 20
1291.93851
 40
7.5
  0
LINE
  8
_0-a_寸法
  6
CONTINUOUS
 62
    7
 10
1576.1112302665499
 20
1322.0732150000001
 11
1589.7595102665498
 21
1298.4337
  0
CIRCLE
  8
_0-a_寸法
  6
CONTINUOUS
 62
    7
 10
1576.1112302665499
 20
1322.0732150000001
 40
1
  0
TEXT
  8
_0-a_寸法
 62
    7
 10
1590.30951026655
 20
1285.5385099999999
 40
12.800000000000001
 41
1
 50
0
  1
9
  0
LINE
  8
_0-b_レイヤ1
  6
CONTINUOUS
 62
    7
 10
1151.4833902665498
 20
797.26250500000003
 11
582.8833902665499
 21
797.26250500000003
  0
LINE
  8
_0-b_レイヤ1
  6
CONTINUOUS
 62
    7
 10
1151.4833902665498
 20
845.26250500000003
 11
582.8833902665499
 21
845.26250500000003
  0
LINE
  8
_0-b_レイヤ1
  6
CONTINUOUS
 62
    7
 10
1151.4833902665498
 20
821.26250500000003
 11
582.8833902665499
 21
821.26250500000003
  0
LINE
  8
_0-b_レイヤ1
  6
CONTINUOUS
 62
    7
 10
1151.4833902665498
 20
869.26250500000003
 11
582.8833902665499
 21
869.26250500000003
  0
LINE
  8
_0-b_レイヤ1
  6
CONTINUOUS
 62
    7
 10
1151.4833902665498
 20
1013.2625049999999
 11
582.8833902665499
 21
1013.2625049999999
  0
LINE
  8
_0-b_レイヤ1
  6
CONTINUOUS
 62
    7
 10
1151.4833902665498
 20
989.26250500000003
 11
582.8833902665499
 21
989.26250500000003
  0
LINE
  8
_0-b_レイヤ1
  6
CONTINUOUS
 62
    7
 10
1151.4833902665498
 20
965.26250500000015
 11
582.8833902665499
 21
965.26250500000015
  0
LINE
  8
_0-b_レイヤ1
  6
CONTINUOUS
 62
    7
 10
1151.4833902665498
 20
941.26250500000003
 11
582.8833902665499
 21
941.26250500000003
  0
LINE
  8
_0-b_レイヤ1
  6
CONTINUOUS
 62
    7
 10
1151.4833902665498
 20
917.26250500000015
 11
582.8833902665499
 21
917.26250500000015
  0
LINE
  8
_0-b_レイヤ1
  6
CONTINUOUS
 62
    7
 10
1151.4833902665498
 20
893.26250499999992
 11
582.8833902665499
 21
893.26250499999992
  0
LINE
  8
_0-b_レイヤ1
  6
CONTINUOUS
 62
    7
 10
1151.4833902665498
 20
1056.462505
 11
582.8833902665499
 21
1056.462505
  0
TEXT
  8
_0-b_レイヤ1
 62
    7
 10
584.87166226654995
 20
994.17270300000007
 40
12.800000000000001
 41
1
 50
0
  1
　１
  0
TEXT
  8
_0-b_レイヤ1
 62
    7
 10
1019.9652982665499
 20
994.06252100000006
 40
12.800000000000001
 41
1
 50
0
  1
３０００
  0
TEXT
  8
_0-b_レイヤ1
 62
    7
 10
1100.3242762665495
 20
994.26247100000001
 40
12.800000000000001
 41
1
 50
0
  1
２
  0
TEXT
  8
_0-b_レイヤ1
 62
    7
 10
1130.9038902665502
 20
994.06252100000006
 40
12.800000000000001
 41
1
 50
0
  1
本
  0
TEXT
  8
_0-b_レイヤ1
 62
    7
 10
597.23071826654996
 20
970.17270299999996
 40
12.800000000000001
 41
1
 50
0
  1
２
  0
TEXT
  8
_0-b_レイヤ1
 62
    7
 10
1019.9652982665499
 20
970.06252099999995
 40
12.800000000000001
 41
1
 50
0
  1
３０００
  0
TEXT
  8
_0-b_レイヤ1
 62
    7
 10
1100.3242762665495
 20
970.26251700000012
 40
12.800000000000001
 41
1
 50
0
  1
１
  0
TEXT
  8
_0-b_レイヤ1
 62
    7
 10
1130.9038902665502
 20
970.06252099999995
 40
12.800000000000001
 41
1
 50
0
  1
〃
  0
TEXT
  8
_0-b_レイヤ1
 62
    7
 10
597.23071826654996
 20
946.17270299999996
 40
12.800000000000001
 41
1
 50
0
  1
３
  0
TEXT
  8
_0-b_レイヤ1
 62
    7
 10
1100.3242762665495
 20
946.26247100000001
 40
12.800000000000001
 41
1
 50
0
  1
２
  0
TEXT
  8
_0-b_レイヤ1
 62
    7
 10
1130.9038902665502
 20
946.06252100000006
 40
12.800000000000001
 41
1
 50
0
  1
〃
  0
TEXT
  8
_0-b_レイヤ1
 62
    7
 10
597.23071826654996
 20
922.17270300000007
 40
12.800000000000001
 41
1
 50
0
  1
４
  0
TEXT
  8
_0-b_レイヤ1
 62
    7
 10
616.48342026654996
 20
922.06252100000006
 40
12.800000000000001
 41
1
 50
0
  1
止水補助板
  0
TEXT
  8
_0-b_レイヤ1
 62
    7
 10
1019.9652982665499
 20
922.06252100000006
 40
12.800000000000001
 41
1
 50
0
  1
３１００
  0
TEXT
  8
_0-b_レイヤ1
 62
    7
 10
1100.3242762665495
 20
922.26251700000012
 40
12.800000000000001
 41
1
 50
0
  1
１
  0
TEXT
  8
_0-b_レイヤ1
 62
    7
 10
1130.9038902665502
 20
922.06252100000006
 40
12.800000000000001
 41
1
 50
0
  1
枚
  0
TEXT
  8
_0-b_レイヤ1
 62
    7
 10
597.23071826654996
 20
898.17274899999995
 40
12.800000000000001
 41
1
 50
0
  1
５
  0
TEXT
  8
_0-b_レイヤ1
 62
    7
 10
597.23071826654996
 20
874.17274900000007
 40
12.800000000000001
 41
1
 50
0
  1
６
  0
TEXT
  8
_0-b_レイヤ1
 62
    7
 10
1130.9038902665502
 20
874.06252100000006
 40
12.800000000000001
 41
1
 50
0
  1
〃
  0
TEXT
  8
_0-b_レイヤ1
 62
    7
 10
597.23071826654996
 20
850.17272700000001
 40
12.800000000000001
 41
1
 50
0
  1
７
  0
TEXT
  8
_0-b_レイヤ1
 62
    7
 10
1130.9038902665502
 20
850.06249700000001
 40
12.800000000000001
 41
1
 50
0
  1
〃
  0
TEXT
  8
_0-b_レイヤ1
 62
    7
 10
597.23071826654996
 20
826.17272700000012
 40
12.800000000000001
 41
1
 50
0
  1
８
  0
TEXT
  8
_0-b_レイヤ1
 62
    7
 10
616.48342026654996
 20
826.06254300000001
 40
12.800000000000001
 41
1
 50
0
  1
ステンワッシャー
  0
TEXT
  8
_0-b_レイヤ1
 62
    7
 10
844.4834882665499
 20
826.06254300000001
 40
12.800000000000001
 41
1
 50
0
  1
１．５×１８×５．５穴
  0
TEXT
  8
_0-b_レイヤ1
 62
    7
 10
1130.9038902665502
 20
826.06254300000001
 40
12.800000000000001
 41
1
 50
0
  1
枚
  0
LINE
  8
_0-b_レイヤ1
  6
CONTINUOUS
 62
    7
 10
1951.4833902665498
 20
1013.2625049999999
 11
1382.8833902665499
 21
1013.2625049999999
  0
LINE
  8
_0-b_レイヤ1
  6
CONTINUOUS
 62
    7
 10
1951.4833902665498
 20
989.26250500000003
 11
1382.8833902665499
 21
989.26250500000003
  0
LINE
  8
_0-b_レイヤ1
  6
CONTINUOUS
 62
    7
 10
1951.4833902665498
 20
965.26250500000015
 11
1382.8833902665499
 21
965.26250500000015
  0
LINE
  8
_0-b_レイヤ1
  6
CONTINUOUS
 62
    7
 10
1951.4833902665498
 20
941.26250500000003
 11
1382.8833902665499
 21
941.26250500000003
  0
LINE
  8
_0-b_レイヤ1
  6
CONTINUOUS
 62
    7
 10
1951.4833902665498
 20
917.26250500000015
 11
1382.8833902665499
 21
917.26250500000015
  0
LINE
  8
_0-b_レイヤ1
  6
CONTINUOUS
 62
    7
 10
1951.4833902665498
 20
893.26250499999992
 11
1382.8833902665499
 21
893.26250499999992
  0
LINE
  8
_0-b_レイヤ1
  6
CONTINUOUS
 62
    7
 10
1951.4833902665498
 20
869.26250500000003
 11
1382.8833902665499
 21
869.26250500000003
  0
LINE
  8
_0-b_レイヤ1
  6
CONTINUOUS
 62
    7
 10
1951.4833902665498
 20
845.26250500000003
 11
1382.8833902665499
 21
845.26250500000003
  0
LINE
  8
_0-b_レイヤ1
  6
CONTINUOUS
 62
    7
 10
1951.4833902665498
 20
821.26250500000003
 11
1382.8833902665499
 21
821.26250500000003
  0
LINE
  8
_0-b_レイヤ1
  6
CONTINUOUS
 62
    7
 10
1951.4833902665498
 20
797.26250500000003
 11
1382.8833902665499
 21
797.26250500000003
  0
LINE
  8
_0-b_レイヤ1
  6
CONTINUOUS
 62
    7
 10
1951.4833902665498
 20
749.26250500000015
 11
1382.8833902665499
 21
749.26250500000015
  0
LINE
  8
_0-b_レイヤ1
  6
CONTINUOUS
 62
    7
 10
1951.4833902665498
 20
1056.462505
 11
1382.8833902665499
 21
1056.462505
  0
LINE
  8
_0-b_レイヤ1
  6
CONTINUOUS
 62
    7
 10
1951.4833902665498
 20
773.26250500000003
 11
1382.8833902665499
 21
773.26250500000003
  0
LINE
  8
_0-b_レイヤ1
  6
CONTINUOUS
 62
    7
 10
1951.4833902665498
 20
725.26250499999992
 11
1382.8833902665499
 21
725.26250499999992
  0
TEXT
  8
_0-b_レイヤ1
 62
    7
 10
1384.8715922665499
 20
994.17270300000007
 40
12.800000000000001
 41
1
 50
0
  1
　１
  0
TEXT
  8
_0-b_レイヤ1
 62
    7
 10
1819.9650682665501
 20
994.06252100000006
 40
12.800000000000001
 41
1
 50
0
  1
３０００
  0
TEXT
  8
_0-b_レイヤ1
 62
    7
 10
1902.3243382665501
 20
994.26247100000001
 40
12.800000000000001
 41
1
 50
0
  1
１
  0
TEXT
  8
_0-b_レイヤ1
 62
    7
 10
1930.90379826655
 20
994.06252100000006
 40
12.800000000000001
 41
1
 50
0
  1
本
  0
TEXT
  8
_0-b_レイヤ1
 62
    7
 10
1397.2306482665499
 20
970.17270299999996
 40
12.800000000000001
 41
1
 50
0
  1
２
  0
TEXT
  8
_0-b_レイヤ1
 62
    7
 10
1819.9650682665501
 20
970.06252099999995
 40
12.800000000000001
 41
1
 50
0
  1
３０００
  0
TEXT
  8
_0-b_レイヤ1
 62
    7
 10
1902.3243382665501
 20
970.26251700000012
 40
12.800000000000001
 41
1
 50
0
  1
１
  0
TEXT
  8
_0-b_レイヤ1
 62
    7
 10
1930.90379826655
 20
970.06252099999995
 40
12.800000000000001
 41
1
 50
0
  1
〃
  0
TEXT
  8
_0-b_レイヤ1
 62
    7
 10
1397.2306482665499
 20
946.17270299999996
 40
12.800000000000001
 41
1
 50
0
  1
３
  0
TEXT
  8
_0-b_レイヤ1
 62
    7
 10
1819.9650682665501
 20
946.06252100000006
 40
12.800000000000001
 41
1
 50
0
  1
３０００
  0
TEXT
  8
_0-b_レイヤ1
 62
    7
 10
1902.3243382665501
 20
946.26247100000001
 40
12.800000000000001
 41
1
 50
0
  1
１
  0
TEXT
  8
_0-b_レイヤ1
 62
    7
 10
1930.90379826655
 20
946.06252100000006
 40
12.800000000000001
 41
1
 50
0
  1
〃
  0
TEXT
  8
_0-b_レイヤ1
 62
    7
 10
1397.2306482665499
 20
922.17270300000007
 40
12.800000000000001
 41
1
 50
0
  1
４
  0
TEXT
  8
_0-b_レイヤ1
 62
    7
 10
1819.9650682665501
 20
922.06252100000006
 40
12.800000000000001
 41
1
 50
0
  1
３０００
  0
TEXT
  8
_0-b_レイヤ1
 62
    7
 10
1902.3243382665501
 20
922.26251700000012
 40
12.800000000000001
 41
1
 50
0
  1
１
  0
TEXT
  8
_0-b_レイヤ1
 62
    7
 10
1930.90379826655
 20
922.06252100000006
 40
12.800000000000001
 41
1
 50
0
  1
〃
  0
TEXT
  8
_0-b_レイヤ1
 62
    7
 10
1397.2306482665499
 20
898.17274899999995
 40
12.800000000000001
 41
1
 50
0
  1
５
  0
TEXT
  8
_0-b_レイヤ1
 62
    7
 10
1397.2306482665499
 20
874.17274900000007
 40
12.800000000000001
 41
1
 50
0
  1
６
  0
TEXT
  8
_0-b_レイヤ1
 62
    7
 10
1397.2306482665499
 20
850.17274899999995
 40
12.800000000000001
 41
1
 50
0
  1
７
  0
TEXT
  8
_0-b_レイヤ1
 62
    7
 10
1397.2306482665499
 20
826.17272700000012
 40
12.800000000000001
 41
1
 50
0
  1
８
  0
TEXT
  8
_0-b_レイヤ1
 62
    7
 10
1397.2306482665499
 20
802.1727269999999
 40
12.800000000000001
 41
1
 50
0
  1
９
  0
TEXT
  8
_0-b_レイヤ1
 62
    7
 10
1397.2306482665499
 20
730.17272700000001
 40
12.800000000000001
 41
1
 50
0
  1
※
  0
TEXT
  8
_0-b_レイヤ1
 62
    7
 10
1019.9652982665499
 20
946.06252100000006
 40
12.800000000000001
 41
1
 50
0
  1
３０００
  0
TEXT
  8
_0-b_レイヤ1
 62
    7
 10
597.23071826654996
 20
802.1727269999999
 40
12.800000000000001
 41
1
 50
0
  1
※
  0
LINE
  8
_0-b_レイヤ1
  6
CONTINUOUS
 62
    7
 10
582.8833902665499
 20
797.26250500000003
 11
582.8833902665499
 21
1056.462505
  0
LINE
  8
_0-b_レイヤ1
  6
CONTINUOUS
 62
    7
 10
611.68339026654985
 20
797.26250500000003
 11
611.68339026654985
 21
1056.462505
  0
LINE
  8
_0-b_レイヤ1
  6
CONTINUOUS
 62
    7
 10
839.68339026654985
 20
797.26250500000003
 11
839.68339026654985
 21
1056.462505
  0
LINE
  8
_0-b_レイヤ1
  6
CONTINUOUS
 62
    7
 10
1151.4833902665498
 20
797.26250500000003
 11
1151.4833902665498
 21
1056.462505
  0
LINE
  8
_0-b_レイヤ1
  6
CONTINUOUS
 62
    7
 10
1074.6833902665498
 20
797.26250500000003
 11
1074.6833902665498
 21
1056.462505
  0
LINE
  8
_0-b_レイヤ1
  6
CONTINUOUS
 62
    7
 10
1014.6833902665498
 20
797.26250500000003
 11
1014.6833902665498
 21
1056.462505
  0
LINE
  8
_0-b_レイヤ1
  6
CONTINUOUS
 62
    7
 10
1122.6833902665498
 20
797.26250500000003
 11
1122.6833902665498
 21
1056.462505
  0
LINE
  8
_0-b_レイヤ1
  6
CONTINUOUS
 62
    7
 10
1010.68339026655
 20
797.26250500000003
 11
1010.68339026655
 21
1056.462505
  0
TEXT
  8
_0-b_レイヤ1
 62
    7
 10
616.48342026654996
 20
994.06252100000006
 40
12.800000000000001
 41
1
 50
0
  1
ＴＴサイドプレート（Ｃ）Ｓ
  0
TEXT
  8
_0-b_レイヤ1
 62
    7
 10
616.48342026654996
 20
946.06252100000006
 40
12.800000000000001
 41
1
 50
0
  1
ＴＴフレーム（Ｃ）
  0
TEXT
  8
_0-b_レイヤ1
 62
    7
 10
844.4834422665499
 20
922.06252100000006
 40
12.800000000000001
 41
1
 50
0
  1
ＦＳ５００
  0
TEXT
  8
_0-b_レイヤ1
 62
    7
 10
616.48342026654996
 20
898.06252099999995
 40
12.800000000000001
 41
1
 50
0
  1
ステントリリングねじ
  0
TEXT
  8
_0-b_レイヤ1
 62
    7
 10
844.4834882665499
 20
898.06252099999995
 40
12.800000000000001
 41
1
 50
0
  1
皿４×１６
  0
TEXT
  8
_0-b_レイヤ1
 62
    7
 10
616.48342026654996
 20
874.06252100000006
 40
12.800000000000001
 41
1
 50
0
  1
アンカープラグ
  0
TEXT
  8
_0-b_レイヤ1
 62
    7
 10
844.4834422665499
 20
874.06252100000006
 40
12.800000000000001
 41
1
 50
0
  1
フィッシャープラグＳ８
  0
TEXT
  8
_0-b_レイヤ1
 62
    7
 10
616.48342026654996
 20
850.06254300000001
 40
12.800000000000001
 41
1
 50
0
  1
ステンタッピンねじ
  0
TEXT
  8
_0-b_レイヤ1
 62
    7
 10
844.4834422665499
 20
850.06254300000001
 40
12.800000000000001
 41
1
 50
0
  1
なべ５×５０
  0
TEXT
  8
_0-b_レイヤ1
 62
    7
 10
1100.3242762665495
 20
802.26251700000012
 40
12.800000000000001
 41
1
 50
0
  1
１
  0
TEXT
  8
_0-b_レイヤ1
 62
    7
 10
616.48342026654996
 20
802.06252100000006
 40
12.800000000000001
 41
1
 50
0
  1
ブチルテープ
  0
TEXT
  8
_0-b_レイヤ1
 62
    7
 10
844.4834422665499
 20
802.06252100000006
 40
12.800000000000001
 41
1
 50
0
  1
ｔ１．０×ｗ３０
  0
LINE
  8
_0-b_レイヤ1
  6
CONTINUOUS
 62
    7
 10
1382.8833902665499
 20
725.26250499999992
 11
1382.8833902665499
 21
1056.462505
  0
LINE
  8
_0-b_レイヤ1
  6
CONTINUOUS
 62
    7
 10
1411.6833902665498
 20
725.26250499999992
 11
1411.6833902665498
 21
1056.462505
  0
LINE
  8
_0-b_レイヤ1
  6
CONTINUOUS
 62
    7
 10
1639.6833902665498
 20
725.26250499999992
 11
1639.6833902665498
 21
1056.462505
  0
LINE
  8
_0-b_レイヤ1
  6
CONTINUOUS
 62
    7
 10
1810.6833902665498
 20
725.26250499999992
 11
1810.6833902665498
 21
1056.462505
  0
LINE
  8
_0-b_レイヤ1
  6
CONTINUOUS
 62
    7
 10
1951.4833902665498
 20
725.26250499999992
 11
1951.4833902665498
 21
1056.462505
  0
LINE
  8
_0-b_レイヤ1
  6
CONTINUOUS
 62
    7
 10
1922.6833902665498
 20
725.26250499999992
 11
1922.6833902665498
 21
1056.462505
  0
LINE
  8
_0-b_レイヤ1
  6
CONTINUOUS
 62
    7
 10
1874.6833902665496
 20
725.26250499999992
 11
1874.6833902665496
 21
1056.462505
  0
LINE
  8
_0-b_レイヤ1
  6
CONTINUOUS
 62
    7
 10
1814.6833902665498
 20
725.26250499999992
 11
1814.6833902665498
 21
1056.462505
  0
TEXT
  8
_0-b_レイヤ1
 62
    7
 10
1384.8715922665499
 20
778.17272700000001
 40
12.800000000000001
 41
1
 50
0
  1
１０
  0
TEXT
  8
_0-b_レイヤ1
 62
    7
 10
1384.8715922665499
 20
754.17272700000001
 40
12.800000000000001
 41
1
 50
0
  1
１１
  0
TEXT
  8
_0-b_レイヤ1
 62
    7
 10
1416.4834422665499
 20
946.06252100000006
 40
12.800000000000001
 41
1
 50
0
  1
ＴＴフレーム（Ｃ）
  0
TEXT
  8
_0-b_レイヤ1
 62
    7
 10
1819.9650682665501
 20
898.06252099999995
 40
12.800000000000001
 41
1
 50
0
  1
３０００
  0
TEXT
  8
_0-b_レイヤ1
 62
    7
 10
1902.3243382665501
 20
898.26251699999989
 40
12.800000000000001
 41
1
 50
0
  1
１
  0
TEXT
  8
_0-b_レイヤ1
 62
    7
 10
1930.90379826655
 20
898.06252099999995
 40
12.800000000000001
 41
1
 50
0
  1
〃
  0
TEXT
  8
_0-b_レイヤ1
 62
    7
 10
1416.4834422665499
 20
898.06252099999995
 40
12.800000000000001
 41
1
 50
0
  1
ＴＣ壁フレーム（Ｃ）
  0
TEXT
  8
_0-b_レイヤ1
 62
    7
 10
1416.4834422665499
 20
922.06252100000006
 40
12.800000000000001
 41
1
 50
0
  1
ＴＣサイドキャップ（Ｃ）Ｓ
  0
TEXT
  8
_0-b_レイヤ1
 62
    7
 10
1902.3243382665501
 20
874.262517
 40
12.800000000000001
 41
1
 50
0
  1
１
  0
TEXT
  8
_0-b_レイヤ1
 62
    7
 10
1416.4834422665499
 20
874.06252100000006
 40
12.800000000000001
 41
1
 50
0
  1
止水補助板
  0
TEXT
  8
_0-b_レイヤ1
 62
    7
 10
1644.4834422665499
 20
874.06254300000001
 40
12.800000000000001
 41
1
 50
0
  1
ＦＳ５００
  0
TEXT
  8
_0-b_レイヤ1
 62
    7
 10
1819.9650682665501
 20
874.06252100000006
 40
12.800000000000001
 41
1
 50
0
  1
３１００
  0
TEXT
  8
_0-b_レイヤ1
 62
    7
 10
1930.90379826655
 20
874.06252100000006
 40
12.800000000000001
 41
1
 50
0
  1
枚
  0
TEXT
  8
_0-b_レイヤ1
 62
    7
 10
1902.3243382665501
 20
850.262517
 40
12.800000000000001
 41
1
 50
0
  1
１
  0
TEXT
  8
_0-b_レイヤ1
 62
    7
 10
1416.4833502665499
 20
850.06254300000001
 40
12.800000000000001
 41
1
 50
0
  1
ガスケットＫ
  0
TEXT
  8
_0-b_レイヤ1
 62
    7
 10
1930.90389026655
 20
826.06252100000006
 40
12.800000000000001
 41
1
 50
0
  1
〃
  0
TEXT
  8
_0-b_レイヤ1
 62
    7
 10
1416.48342026655
 20
826.06252100000006
 40
12.800000000000001
 41
1
 50
0
  1
ステントリリングねじ
  0
TEXT
  8
_0-b_レイヤ1
 62
    7
 10
1644.4834882665498
 20
826.06252100000006
 40
12.800000000000001
 41
1
 50
0
  1
皿４×１６
  0
TEXT
  8
_0-b_レイヤ1
 62
    7
 10
1930.90379826655
 20
850.06252099999995
 40
12.800000000000001
 41
1
 50
0
  1
本
  0
TEXT
  8
_0-b_レイヤ1
 62
    7
 10
1819.9652522665501
 20
850.06254300000001
 40
12.800000000000001
 41
1
 50
0
  1
３０００
  0
TEXT
  8
_0-b_レイヤ1
 62
    7
 10
1930.90389026655
 20
802.06252100000006
 40
12.800000000000001
 41
1
 50
0
  1
〃
  0
TEXT
  8
_0-b_レイヤ1
 62
    7
 10
1416.48342026655
 20
802.06252100000006
 40
12.800000000000001
 41
1
 50
0
  1
アンカープラグ
  0
TEXT
  8
_0-b_レイヤ1
 62
    7
 10
1644.4834422665499
 20
802.06252100000006
 40
12.800000000000001
 41
1
 50
0
  1
フィッシャープラグＳ８
  0
TEXT
  8
_0-b_レイヤ1
 62
    7
 10
1930.90389026655
 20
778.06252100000006
 40
12.800000000000001
 41
1
 50
0
  1
〃
  0
TEXT
  8
_0-b_レイヤ1
 62
    7
 10
1930.90379826655
 20
754.06252100000006
 40
12.800000000000001
 41
1
 50
0
  1
枚
  0
TEXT
  8
_0-b_レイヤ1
 62
    7
 10
1930.90379826655
 20
730.06252100000006
 40
12.800000000000001
 41
1
 50
0
  1
巻
  0
TEXT
  8
_0-b_レイヤ1
 62
    7
 10
1902.3243382665501
 20
730.26251699999989
 40
12.800000000000001
 41
1
 50
0
  1
１
  0
TEXT
  8
_0-b_レイヤ1
 62
    7
 10
1819.9652522665501
 20
730.06254300000001
 40
12.800000000000001
 41
1
 50
0
  1
６０００
  0
TEXT
  8
_0-b_レイヤ1
 62
    7
 10
1416.48342026655
 20
754.06254300000001
 40
12.800000000000001
 41
1
 50
0
  1
ステンワッシャー
  0
TEXT
  8
_0-b_レイヤ1
 62
    7
 10
1644.4834882665498
 20
754.06254300000001
 40
12.800000000000001
 41
1
 50
0
  1
１．５×１８×５．５穴
  0
TEXT
  8
_0-b_レイヤ1
 62
    7
 10
1416.48342026655
 20
778.06254300000001
 40
12.800000000000001
 41
1
 50
0
  1
ステンタッピンねじ
  0
TEXT
  8
_0-b_レイヤ1
 62
    7
 10
1644.4834422665499
 20
778.06254300000001
 40
12.800000000000001
 41
1
 50
0
  1
なべ５×５０
  0
TEXT
  8
_0-b_レイヤ1
 62
    7
 10
1416.48342026655
 20
730.06252100000006
 40
12.800000000000001
 41
1
 50
0
  1
ブチルテープ
  0
TEXT
  8
_0-b_レイヤ1
 62
    7
 10
1644.4834422665499
 20
730.06252100000006
 40
12.800000000000001
 41
1
 50
0
  1
ｔ１．０×ｗ３０
  0
TEXT
  8
_0-b_レイヤ1
 62
    7
 10
1130.9038902665502
 20
898.06252099999995
 40
12.800000000000001
 41
1
 50
0
  1
本
  0
TEXT
  8
_0-b_レイヤ1
 62
    7
 10
1130.9038902665502
 20
802.06252100000006
 40
12.800000000000001
 41
1
 50
0
  1
巻
  0
TEXT
  8
_0-b_レイヤ1
 62
    7
 10
1382.8834062665499
 20
699.73564668890003
 40
12.800000000000001
 41
1
 50
0
  1
注）　ガスケットＫはＴＣサイドキャップ（Ｃ）Ｓ にセット済み。
  0
TEXT
  8
_0-b_レイヤ1
 62
    7
 10
1087.9652202665497
 20
874.26247100000001
 40
12.800000000000001
 41
1
 50
0
  1
２４
  0
TEXT
  8
_0-b_レイヤ1
 62
    7
 10
1087.9652202665497
 20
850.26247100000001
 40
12.800000000000001
 41
1
 50
0
  1
２４
  0
TEXT
  8
_0-b_レイヤ1
 62
    7
 10
1087.9652202665497
 20
826.26253899999995
 40
12.800000000000001
 41
1
 50
0
  1
２４
  0
TEXT
  8
_0-b_レイヤ1
 62
    7
 10
1887.9652202665502
 20
802.26247100000012
 40
12.800000000000001
 41
1
 50
0
  1
１８
  0
TEXT
  8
_0-b_レイヤ1
 62
    7
 10
1887.9652202665502
 20
778.26247100000001
 40
12.800000000000001
 41
1
 50
0
  1
１８
  0
TEXT
  8
_0-b_レイヤ1
 62
    7
 10
1887.9652202665502
 20
754.26247100000001
 40
12.800000000000001
 41
1
 50
0
  1
１８
  0
TEXT
  8
_0-b_レイヤ1
 62
    7
 10
1708.8010092755499
 20
1163.1680943716999
 40
12.800000000000001
 41
1
 50
0
  1
Ｓ＝１／４
  0
TEXT
  8
_0-b_レイヤ1
 62
    7
 10
823.75788419364994
 20
1165.5023943566
 40
12.800000000000001
 41
1
 50
0
  1
Ｓ＝１／４
  0
TEXT
  8
_0-b_レイヤ1
 62
    7
 10
1416.4834422665499
 20
994.06252100000006
 40
12.800000000000001
 41
1
 50
0
  1
ＴＴサイドプレート（Ｃ）Ｓ
  0
TEXT
  8
_0-b_レイヤ1
 62
    7
 10
616.48342026654996
 20
970.06252099999995
 40
12.800000000000001
 41
1
 50
0
  1
ＴＴセンタープレート（Ｅ）ＧＰＳ
  0
TEXT
  8
_0-b_レイヤ1
 62
    7
 10
1416.4834422665499
 20
970.06252099999995
 40
12.800000000000001
 41
1
 50
0
  1
ＴＣセンタープレート（Ｅ）ＧＰＳ
  0
TEXT
  8
_0-b_レイヤ1
 62
    7
 10
1087.9652202665497
 20
898.26249499999994
 40
12.800000000000001
 41
1
 50
0
  1
２２
  0
TEXT
  8
_0-b_レイヤ1
 62
    7
 10
1887.9652202665502
 20
826.26247100000001
 40
12.800000000000001
 41
1
 50
0
  1
１７
  0
TEXT
  8
_0-b_レイヤ1
 62
    7
 10
700.08339026654994
 20
1028.462505
 40
12.800000000000001
 41
1
 50
0
  1
部材名称
  0
TEXT
  8
_0-b_レイヤ1
 62
    7
 10
905.98339026655003
 20
1028.462505
 40
12.800000000000001
 41
1
 50
0
  1
規　格
  0
TEXT
  8
_0-b_レイヤ1
 62
    7
 10
1130.6833902665498
 20
1047.662505
 40
12.800000000000001
 41
1
 50
-90
  1
単位
  0
TEXT
  8
_0-b_レイヤ1
 62
    7
 10
1025.4833902665498
 20
1039.2625049999999
 40
12.800000000000001
 41
1
 50
0
  1
定　尺
  0
TEXT
  8
_0-b_レイヤ1
 62
    7
 10
1019.0833902665499
 20
1017.662505
 40
12.800000000000001
 41
1
 50
0
  1
（ｍｍ）
  0
TEXT
  8
_0-b_レイヤ1
 62
    7
 10
1085.8833902665499
 20
1017.662505
 40
12.800000000000001
 41
1
 50
0
  1
数量
  0
TEXT
  8
_0-b_レイヤ1
 62
    7
 10
1085.8833902665499
 20
1039.2625049999999
 40
12.800000000000001
 41
1
 50
0
  1
使用
  0
TEXT
  8
_0-b_レイヤ1
 62
    7
 10
1500.0833902665499
 20
1028.462505
 40
12.800000000000001
 41
1
 50
0
  1
部材名称
  0
TEXT
  8
_0-b_レイヤ1
 62
    7
 10
1705.98339026655
 20
1028.462505
 40
12.800000000000001
 41
1
 50
0
  1
規　格
  0
TEXT
  8
_0-b_レイヤ1
 62
    7
 10
1930.6833902665501
 20
1047.662505
 40
12.800000000000001
 41
1
 50
-90
  1
単位
  0
TEXT
  8
_0-b_レイヤ1
 62
    7
 10
1825.4833902665498
 20
1039.2625049999999
 40
12.800000000000001
 41
1
 50
0
  1
定　尺
  0
TEXT
  8
_0-b_レイヤ1
 62
    7
 10
1819.0833902665499
 20
1017.662505
 40
12.800000000000001
 41
1
 50
0
  1
（ｍｍ）
  0
TEXT
  8
_0-b_レイヤ1
 62
    7
 10
1885.8833902665499
 20
1017.662505
 40
12.800000000000001
 41
1
 50
0
  1
数量
  0
TEXT
  8
_0-b_レイヤ1
 62
    7
 10
1885.8833902665499
 20
1039.2625049999999
 40
12.800000000000001
 41
1
 50
0
  1
使用
  0
LINE
  8
_0-3_躯体
  6
CONTINUOUS
 62
    7
 10
624.24378026654983
 20
1343.462505
 11
634.24378026654972
 21
1353.462505
  0
LINE
  8
_0-3_躯体
  6
CONTINUOUS
 62
    7
 10
631.31485026654991
 20
1343.462505
 11
641.3148502665498
 21
1353.462505
  0
LINE
  8
_0-3_躯体
  6
CONTINUOUS
 62
    7
 10
638.38591526654977
 20
1343.462505
 11
648.38591526654977
 21
1353.462505
  0
LINE
  8
_0-3_躯体
  6
CONTINUOUS
 62
    7
 10
645.45698526654996
 20
1343.462505
 11
655.45698526654985
 21
1353.462505
  0
LINE
  8
_0-3_躯体
  6
CONTINUOUS
 62
    7
 10
652.52805026654983
 20
1343.462505
 11
662.52805026654983
 21
1353.462505
  0
LINE
  8
_0-3_躯体
  6
CONTINUOUS
 62
    7
 10
659.5991202665499
 20
1343.462505
 11
669.5991202665499
 21
1353.462505
  0
LINE
  8
_0-3_躯体
  6
CONTINUOUS
 62
    7
 10
666.67018526654988
 20
1343.462505
 11
676.67018526654988
 21
1353.462505
  0
LINE
  8
_0-3_躯体
  6
CONTINUOUS
 62
    7
 10
673.74125526654984
 20
1343.462505
 11
683.74125526654984
 21
1353.462505
  0
LINE
  8
_0-3_躯体
  6
CONTINUOUS
 62
    7
 10
680.81232526654981
 20
1343.462505
 11
687.88338026654981
 21
1350.5335650000002
  0
LINE
  8
_0-3_躯体
  6
CONTINUOUS
 62
    7
 10
617.17271526654986
 20
1343.462505
 11
627.17271526654986
 21
1353.462505
  0
LINE
  8
_0-3_躯体
  6
CONTINUOUS
 62
    7
 10
610.10164526654978
 20
1343.462505
 11
620.10164526654978
 21
1353.462505
  0
LINE
  8
_0-3_躯体
  6
CONTINUOUS
 62
    7
 10
603.03057526654982
 20
1343.462505
 11
613.03057526654982
 21
1353.462505
  0
LINE
  8
_0-3_躯体
  6
CONTINUOUS
 62
    7
 10
595.95951026654984
 20
1343.462505
 11
605.95951026654984
 21
1353.462505
  0
LINE
  8
_0-3_躯体
  6
CONTINUOUS
 62
    7
 10
588.88844026654988
 20
1343.462505
 11
598.88844026654988
 21
1353.462505
  0
LINE
  8
_0-3_躯体
  6
CONTINUOUS
 62
    7
 10
581.8173752665499
 20
1343.462505
 11
591.81737526654979
 21
1353.462505
  0
LINE
  8
_0-3_躯体
  6
CONTINUOUS
 62
    7
 10
574.74630526654983
 20
1343.462505
 11
584.74630526654983
 21
1353.462505
  0
LINE
  8
_0-3_躯体
  6
CONTINUOUS
 62
    7
 10
567.88338026654981
 20
1343.67065
 11
577.67524026654985
 21
1353.462505
  0
LINE
  8
_0-3_躯体
  6
CONTINUOUS
 62
    7
 10
567.88338026654981
 20
1350.7417150000001
 11
570.60417026654977
 21
1353.462505
  0
LINE
  8
_0-3_躯体
  6
CONTINUOUS
 62
    7
 10
987.3808652665499
 20
1343.462505
 11
997.38086526654979
 21
1353.462505
  0
LINE
  8
_0-3_躯体
  6
CONTINUOUS
 62
    7
 10
994.45193526654987
 20
1343.462505
 11
1004.4519352665498
 21
1353.462505
  0
LINE
  8
_0-3_躯体
  6
CONTINUOUS
 62
    7
 10
1001.5230002665497
 20
1343.462505
 11
1011.5230002665498
 21
1353.462505
  0
LINE
  8
_0-3_躯体
  6
CONTINUOUS
 62
    7
 10
1008.5940702665499
 20
1343.462505
 11
1018.5940702665498
 21
1353.462505
  0
LINE
  8
_0-3_躯体
  6
CONTINUOUS
 62
    7
 10
1015.6651352665498
 20
1343.462505
 11
1025.6651352665499
 21
1353.462505
  0
LINE
  8
_0-3_躯体
  6
CONTINUOUS
 62
    7
 10
1022.7362052665497
 20
1343.462505
 11
1032.7362052665496
 21
1353.462505
  0
LINE
  8
_0-3_躯体
  6
CONTINUOUS
 62
    7
 10
1029.8072752665498
 20
1343.462505
 11
1039.8072752665498
 21
1353.462505
  0
LINE
  8
_0-3_躯体
  6
CONTINUOUS
 62
    7
 10
1036.8783402665499
 20
1343.462505
 11
1046.8783402665497
 21
1353.462505
  0
LINE
  8
_0-3_躯体
  6
CONTINUOUS
 62
    7
 10
1043.9494102665499
 20
1343.462505
 11
1053.9494102665499
 21
1353.462505
  0
LINE
  8
_0-3_躯体
  6
CONTINUOUS
 62
    7
 10
1051.0204752665497
 20
1343.462505
 11
1057.8834002665499
 21
1350.3254300000001
  0
LINE
  8
_0-3_躯体
  6
CONTINUOUS
 62
    7
 10
980.30980026654981
 20
1343.462505
 11
990.30980026654993
 21
1353.462505
  0
LINE
  8
_0-3_躯体
  6
CONTINUOUS
 62
    7
 10
973.23873026654985
 20
1343.462505
 11
983.23873026654974
 21
1353.462505
  0
LINE
  8
_0-3_躯体
  6
CONTINUOUS
 62
    7
 10
966.16766026654977
 20
1343.462505
 11
976.16766026655
 21
1353.462505
  0
LINE
  8
_0-3_躯体
  6
CONTINUOUS
 62
    7
 10
959.09659526654991
 20
1343.462505
 11
969.09659526654991
 21
1353.462505
  0
LINE
  8
_0-3_躯体
  6
CONTINUOUS
 62
    7
 10
952.02552526654972
 20
1343.462505
 11
962.02552526654995
 21
1353.462505
  0
LINE
  8
_0-3_躯体
  6
CONTINUOUS
 62
    7
 10
944.95446026654986
 20
1343.462505
 11
954.95446026654986
 21
1353.462505
  0
LINE
  8
_0-3_躯体
  6
CONTINUOUS
 62
    7
 10
937.88885026654987
 20
1343.462505
 11
947.88893526654977
 21
1353.462505
  0
LINE
  8
_0-3_躯体
  6
CONTINUOUS
 62
    7
 10
937.88340026654976
 20
1350.5335850000001
 11
940.81232526655003
 21
1353.462505
  0
LINE
  8
_0-7_サイド
  6
CONTINUOUS
 62
    7
 10
697.88339026654978
 20
1376.462505
 11
697.88339026654978
 21
1375.462505
  0
LINE
  8
_0-7_サイド
  6
CONTINUOUS
 62
    7
 10
696.88339026654978
 20
1377.462505
 11
697.88339026654978
 21
1376.462505
  0
LINE
  8
_0-7_サイド
  6
CONTINUOUS
 62
    7
 10
599.88339026654978
 20
1377.462505
 11
696.88339026654978
 21
1377.462505
  0
LINE
  8
_0-7_サイド
  6
CONTINUOUS
 62
    7
 10
599.88339026654978
 20
1377.462505
 11
599.88339026654978
 21
1375.462505
  0
LINE
  8
_0-7_サイド
  6
CONTINUOUS
 62
    7
 10
599.88339026654978
 20
1375.462505
 11
697.88339026654978
 21
1375.462505
  0
LINE
  8
_0-7_サイド
  6
HIDDEN
 62
    7
 10
604.58339026654983
 20
1377.462505
 11
606.58339026654971
 21
1375.462505
  0
LINE
  8
_0-7_サイド
  6
HIDDEN
 62
    7
 10
612.18339026654985
 20
1375.462505
 11
614.18339026654985
 21
1377.462505
  0
LINE
  8
_0-7_サイド
  6
CONTINUOUS
 62
    7
 10
927.88338524424989
 20
1376.462505
 11
927.88338524424989
 21
1375.462505
  0
LINE
  8
_0-7_サイド
  6
CONTINUOUS
 62
    7
 10
928.88338524424967
 20
1377.462505
 11
927.88338524424989
 21
1376.462505
  0
LINE
  8
_0-7_サイド
  6
CONTINUOUS
 62
    7
 10
1025.8833852442499
 20
1377.462505
 11
928.88338524424967
 21
1377.462505
  0
LINE
  8
_0-7_サイド
  6
CONTINUOUS
 62
    7
 10
1025.8833852442499
 20
1377.462505
 11
1025.8833852442499
 21
1375.462505
  0
LINE
  8
_0-7_サイド
  6
CONTINUOUS
 62
    7
 10
1025.8833852442499
 20
1375.462505
 11
927.88338524424989
 21
1375.462505
  0
LINE
  8
_0-7_サイド
  6
HIDDEN
 62
    7
 10
1021.1833852442498
 20
1377.462505
 11
1019.1833852442497
 21
1375.462505
  0
LINE
  8
_0-7_サイド
  6
HIDDEN
 62
    7
 10
1013.5833852442499
 20
1375.462505
 11
1011.5833852442499
 21
1377.462505
  0
LINE
  8
_0-7_サイド
  6
CONTINUOUS
 62
    7
 10
1642.8833902665497
 20
1376.462505
 11
1642.8833902665497
 21
1375.462505
  0
LINE
  8
_0-7_サイド
  6
CONTINUOUS
 62
    7
 10
1641.8833902665499
 20
1377.462505
 11
1642.8833902665497
 21
1376.462505
  0
LINE
  8
_0-7_サイド
  6
CONTINUOUS
 62
    7
 10
1544.8833902665497
 20
1377.462505
 11
1641.8833902665499
 21
1377.462505
  0
LINE
  8
_0-7_サイド
  6
CONTINUOUS
 62
    7
 10
1544.8833902665497
 20
1377.462505
 11
1544.8833902665497
 21
1375.462505
  0
LINE
  8
_0-7_サイド
  6
CONTINUOUS
 62
    7
 10
1544.8833902665497
 20
1375.462505
 11
1642.8833902665497
 21
1375.462505
  0
LINE
  8
_0-7_サイド
  6
HIDDEN
 62
    7
 10
1549.5833902665499
 20
1377.462505
 11
1551.5833902665499
 21
1375.462505
  0
LINE
  8
_0-7_サイド
  6
HIDDEN
 62
    7
 10
1557.1833902665498
 20
1375.462505
 11
1559.1833902665498
 21
1377.462505
  0
LINE
  8
_0-8_小物
  6
CONTINUOUS
 62
    7
 10
608.1167212665498
 20
1366.797208
 11
608.1167212665498
 21
1366.462507
  0
LINE
  8
_0-8_小物
  6
CONTINUOUS
 62
    7
 10
605.78339026654987
 20
1377.462505
 11
605.78339026654987
 21
1377.162505
  0
LINE
  8
_0-8_小物
  6
CONTINUOUS
 62
    7
 10
605.78339026654987
 20
1377.162505
 11
608.1167212665498
 21
1375.162507
  0
LINE
  8
_0-8_小物
  6
CONTINUOUS
 62
    7
 10
608.1167212665498
 20
1375.162507
 11
610.65005626654977
 21
1375.162507
  0
LINE
  8
_0-8_小物
  6
CONTINUOUS
 62
    7
 10
605.78339026654987
 20
1377.162505
 11
612.9833902665498
 21
1377.162505
  0
LINE
  8
_0-8_小物
  6
CONTINUOUS
 62
    7
 10
612.9833902665498
 20
1377.462505
 11
612.9833902665498
 21
1377.162505
  0
LINE
  8
_0-8_小物
  6
CONTINUOUS
 62
    7
 10
612.9833902665498
 20
1377.162505
 11
610.65005626654977
 21
1375.162507
  0
LINE
  8
_0-8_小物
  6
CONTINUOUS
 62
    7
 10
608.1167212665498
 20
1374.901789
 11
609.38339026654978
 21
1374.9487690000001
  0
LINE
  8
_0-8_小物
  6
CONTINUOUS
 62
    7
 10
608.1167212665498
 20
1374.0550089999997
 11
609.38339026654978
 21
1374.9487690000001
  0
LINE
  8
_0-8_小物
  6
CONTINUOUS
 62
    7
 10
608.1167212665498
 20
1366.462507
 11
608.1167212665498
 21
1362.386266
  0
LINE
  8
_0-8_小物
  6
CONTINUOUS
 62
    7
 10
610.65005626654977
 20
1367.737948
 11
610.65005626654977
 21
1362.386266
  0
LINE
  8
_0-8_小物
  6
CONTINUOUS
 62
    7
 10
608.1167212665498
 20
1368.678688
 11
608.1167212665498
 21
1367.6439879999998
  0
LINE
  8
_0-8_小物
  6
CONTINUOUS
 62
    7
 10
610.65005626654977
 20
1368.5847280000003
 11
610.65005626654977
 21
1369.619428
  0
LINE
  8
_0-8_小物
  6
CONTINUOUS
 62
    7
 10
608.1167212665498
 20
1366.797208
 11
610.65005626654977
 21
1367.737948
  0
LINE
  8
_0-8_小物
  6
CONTINUOUS
 62
    7
 10
608.1167212665498
 20
1367.6439879999998
 11
610.65005626654977
 21
1368.5847280000003
  0
LINE
  8
_0-8_小物
  6
CONTINUOUS
 62
    7
 10
607.38338926654978
 20
1367.2205980000001
 11
611.3833882665499
 21
1368.1613380000001
  0
LINE
  8
_0-8_小物
  6
CONTINUOUS
 62
    7
 10
607.38338926654978
 20
1367.2205980000001
 11
608.1167212665498
 21
1366.797208
  0
LINE
  8
_0-8_小物
  6
CONTINUOUS
 62
    7
 10
607.38338926654978
 20
1367.2205980000001
 11
608.1167212665498
 21
1367.6439879999998
  0
LINE
  8
_0-8_小物
  6
CONTINUOUS
 62
    7
 10
611.3833882665499
 20
1368.1613380000001
 11
610.65005626654977
 21
1367.737948
  0
LINE
  8
_0-8_小物
  6
CONTINUOUS
 62
    7
 10
610.65005626654977
 20
1368.5847280000003
 11
611.3833882665499
 21
1368.1613380000001
  0
LINE
  8
_0-8_小物
  6
CONTINUOUS
 62
    7
 10
608.1167212665498
 20
1370.5601710000001
 11
608.1167212665498
 21
1369.525468
  0
LINE
  8
_0-8_小物
  6
CONTINUOUS
 62
    7
 10
610.65005626654977
 20
1370.4662110000002
 11
610.65005626654977
 21
1371.5009110000001
  0
LINE
  8
_0-8_小物
  6
CONTINUOUS
 62
    7
 10
608.1167212665498
 20
1368.678688
 11
610.65005626654977
 21
1369.619428
  0
LINE
  8
_0-8_小物
  6
CONTINUOUS
 62
    7
 10
608.1167212665498
 20
1369.525468
 11
610.65005626654977
 21
1370.4662110000002
  0
LINE
  8
_0-8_小物
  6
CONTINUOUS
 62
    7
 10
607.38338926654978
 20
1369.1020780000001
 11
611.3833882665499
 21
1370.0428179999999
  0
LINE
  8
_0-8_小物
  6
CONTINUOUS
 62
    7
 10
607.38338926654978
 20
1369.1020780000001
 11
608.1167212665498
 21
1368.678688
  0
LINE
  8
_0-8_小物
  6
CONTINUOUS
 62
    7
 10
607.38338926654978
 20
1369.1020780000001
 11
608.1167212665498
 21
1369.525468
  0
LINE
  8
_0-8_小物
  6
CONTINUOUS
 62
    7
 10
611.3833882665499
 20
1370.0428179999999
 11
610.65005626654977
 21
1369.619428
  0
LINE
  8
_0-8_小物
  6
CONTINUOUS
 62
    7
 10
610.65005626654977
 20
1370.4662110000002
 11
611.3833882665499
 21
1370.0428179999999
  0
LINE
  8
_0-8_小物
  6
CONTINUOUS
 62
    7
 10
608.1167212665498
 20
1372.4416510000001
 11
608.1167212665498
 21
1371.4069509999999
  0
LINE
  8
_0-8_小物
  6
CONTINUOUS
 62
    7
 10
610.65005626654977
 20
1372.3476909999999
 11
610.65005626654977
 21
1373.3823910000001
  0
LINE
  8
_0-8_小物
  6
CONTINUOUS
 62
    7
 10
608.1167212665498
 20
1370.5601710000001
 11
610.65005626654977
 21
1371.5009110000001
  0
LINE
  8
_0-8_小物
  6
CONTINUOUS
 62
    7
 10
608.1167212665498
 20
1371.4069509999999
 11
610.65005626654977
 21
1372.3476909999999
  0
LINE
  8
_0-8_小物
  6
CONTINUOUS
 62
    7
 10
607.38338926654978
 20
1370.983561
 11
611.3833882665499
 21
1371.924301
  0
LINE
  8
_0-8_小物
  6
CONTINUOUS
 62
    7
 10
607.38338926654978
 20
1370.983561
 11
608.1167212665498
 21
1370.5601710000001
  0
LINE
  8
_0-8_小物
  6
CONTINUOUS
 62
    7
 10
607.38338926654978
 20
1370.983561
 11
608.1167212665498
 21
1371.4069509999999
  0
LINE
  8
_0-8_小物
  6
CONTINUOUS
 62
    7
 10
611.3833882665499
 20
1371.924301
 11
610.65005626654977
 21
1371.5009110000001
  0
LINE
  8
_0-8_小物
  6
CONTINUOUS
 62
    7
 10
610.65005626654977
 20
1372.3476909999999
 11
611.3833882665499
 21
1371.924301
  0
LINE
  8
_0-8_小物
  6
CONTINUOUS
 62
    7
 10
608.1167212665498
 20
1373.526445
 11
608.1167212665498
 21
1373.2884309999999
  0
LINE
  8
_0-8_小物
  6
CONTINUOUS
 62
    7
 10
610.65005626654977
 20
1375.162507
 11
610.65005626654977
 21
1374.2291740000001
  0
LINE
  8
_0-8_小物
  6
CONTINUOUS
 62
    7
 10
608.1167212665498
 20
1372.4416510000001
 11
610.65005626654977
 21
1373.3823910000001
  0
LINE
  8
_0-8_小物
  6
CONTINUOUS
 62
    7
 10
608.1167212665498
 20
1373.2884309999999
 11
610.65005626654977
 21
1374.2291740000001
  0
LINE
  8
_0-8_小物
  6
CONTINUOUS
 62
    7
 10
607.38338926654978
 20
1372.865041
 11
611.3833882665499
 21
1373.805781
  0
LINE
  8
_0-8_小物
  6
CONTINUOUS
 62
    7
 10
607.38338926654978
 20
1372.865041
 11
608.1167212665498
 21
1372.4416510000001
  0
LINE
  8
_0-8_小物
  6
CONTINUOUS
 62
    7
 10
607.38338926654978
 20
1372.865041
 11
608.1167212665498
 21
1373.2884309999999
  0
LINE
  8
_0-8_小物
  6
CONTINUOUS
 62
    7
 10
610.65005626654977
 20
1373.3823910000001
 11
611.3833882665499
 21
1373.805781
  0
LINE
  8
_0-8_小物
  6
CONTINUOUS
 62
    7
 10
610.65005626654977
 20
1374.2291740000001
 11
611.3833882665499
 21
1373.805781
  0
LINE
  8
_0-8_小物
  6
CONTINUOUS
 62
    7
 10
608.1167212665498
 20
1375.162507
 11
608.1167212665498
 21
1374.901789
  0
LINE
  8
_0-8_小物
  6
CONTINUOUS
 62
    7
 10
609.38339026654978
 20
1374.9487690000001
 11
607.38338926654978
 21
1374.4783990000001
  0
LINE
  8
_0-8_小物
  6
CONTINUOUS
 62
    7
 10
607.38338926654978
 20
1374.4783990000001
 11
608.1167212665498
 21
1374.0550089999997
  0
LINE
  8
_0-8_小物
  6
CONTINUOUS
 62
    7
 10
607.38338926654978
 20
1374.4783990000001
 11
608.1167212665498
 21
1374.901789
  0
LINE
  8
_0-8_小物
  6
CONTINUOUS
 62
    7
 10
608.1167212665498
 20
1374.0550089999997
 11
608.1167212665498
 21
1373.526445
  0
LINE
  8
_0-8_小物
  6
CONTINUOUS
 62
    7
 10
609.38339026654978
 20
1363.4625070000002
 11
609.38339026654978
 21
1361.4625059999998
  0
LINE
  8
_0-8_小物
  6
CONTINUOUS
 62
    7
 10
610.65005626654977
 20
1366.462507
 11
608.11673626654988
 21
1366.462507
  0
LINE
  8
_0-8_小物
  6
CONTINUOUS
 62
    7
 10
609.38339026654978
 20
1361.4625059999998
 11
608.1167242665498
 21
1362.386266
  0
LINE
  8
_0-8_小物
  6
CONTINUOUS
 62
    7
 10
609.38339026654978
 20
1361.4625059999998
 11
610.65005626654977
 21
1362.386266
  0
ARC
  8
_0-8_小物
  6
CONTINUOUS
 62
    7
 10
609.75816226654979
 20
1361.7379089999999
 40
1.7648489999999999
 50
102.260329
 51
158.446304
  0
ARC
  8
_0-8_小物
  6
CONTINUOUS
 62
    7
 10
615.38967226654972
 20
1362.6939279999999
 40
6.0552599999999996
 50
141.51097799999997
 51
172.70791799999998
  0
LINE
  8
_0-8_小物
  6
CONTINUOUS
 62
    7
 10
605.78339026654987
 20
1377.462505
 11
612.9833902665498
 21
1377.462505
  0
LINE
  8
_0-8_小物
  6
CONTINUOUS
 62
    7
 10
1015.1167162442498
 20
1366.797208
 11
1015.1167162442498
 21
1366.462507
  0
LINE
  8
_0-8_小物
  6
CONTINUOUS
 62
    7
 10
1012.7833852442498
 20
1377.462505
 11
1012.7833852442498
 21
1377.162505
  0
LINE
  8
_0-8_小物
  6
CONTINUOUS
 62
    7
 10
1012.7833852442498
 20
1377.162505
 11
1015.1167162442498
 21
1375.162507
  0
LINE
  8
_0-8_小物
  6
CONTINUOUS
 62
    7
 10
1015.1167162442498
 20
1375.162507
 11
1017.6500512442497
 21
1375.162507
  0
LINE
  8
_0-8_小物
  6
CONTINUOUS
 62
    7
 10
1012.7833852442498
 20
1377.162505
 11
1019.9833852442498
 21
1377.162505
  0
LINE
  8
_0-8_小物
  6
CONTINUOUS
 62
    7
 10
1019.9833852442498
 20
1377.462505
 11
1019.9833852442498
 21
1377.162505
  0
LINE
  8
_0-8_小物
  6
CONTINUOUS
 62
    7
 10
1019.9833852442498
 20
1377.162505
 11
1017.6500512442497
 21
1375.162507
  0
LINE
  8
_0-8_小物
  6
CONTINUOUS
 62
    7
 10
1015.1167162442498
 20
1374.901789
 11
1016.3833852442497
 21
1374.9487690000001
  0
LINE
  8
_0-8_小物
  6
CONTINUOUS
 62
    7
 10
1015.1167162442498
 20
1374.0550089999997
 11
1016.3833852442497
 21
1374.9487690000001
  0
LINE
  8
_0-8_小物
  6
CONTINUOUS
 62
    7
 10
1015.1167162442498
 20
1366.462507
 11
1015.1167162442498
 21
1362.386266
  0
LINE
  8
_0-8_小物
  6
CONTINUOUS
 62
    7
 10
1017.6500512442497
 20
1367.737948
 11
1017.6500512442497
 21
1362.386266
  0
LINE
  8
_0-8_小物
  6
CONTINUOUS
 62
    7
 10
1015.1167162442498
 20
1368.678688
 11
1015.1167162442498
 21
1367.6439879999998
  0
LINE
  8
_0-8_小物
  6
CONTINUOUS
 62
    7
 10
1017.6500512442497
 20
1368.5847280000003
 11
1017.6500512442497
 21
1369.619428
  0
LINE
  8
_0-8_小物
  6
CONTINUOUS
 62
    7
 10
1015.1167162442498
 20
1366.797208
 11
1017.6500512442497
 21
1367.737948
  0
LINE
  8
_0-8_小物
  6
CONTINUOUS
 62
    7
 10
1015.1167162442498
 20
1367.6439879999998
 11
1017.6500512442497
 21
1368.5847280000003
  0
LINE
  8
_0-8_小物
  6
CONTINUOUS
 62
    7
 10
1014.38338424425
 20
1367.2205980000001
 11
1018.3833832442498
 21
1368.1613380000001
  0
LINE
  8
_0-8_小物
  6
CONTINUOUS
 62
    7
 10
1014.38338424425
 20
1367.2205980000001
 11
1015.1167162442498
 21
1366.797208
  0
LINE
  8
_0-8_小物
  6
CONTINUOUS
 62
    7
 10
1014.38338424425
 20
1367.2205980000001
 11
1015.1167162442498
 21
1367.6439879999998
  0
LINE
  8
_0-8_小物
  6
CONTINUOUS
 62
    7
 10
1018.3833832442498
 20
1368.1613380000001
 11
1017.6500512442497
 21
1367.737948
  0
LINE
  8
_0-8_小物
  6
CONTINUOUS
 62
    7
 10
1017.6500512442497
 20
1368.5847280000003
 11
1018.3833832442498
 21
1368.1613380000001
  0
LINE
  8
_0-8_小物
  6
CONTINUOUS
 62
    7
 10
1015.1167162442498
 20
1370.5601710000001
 11
1015.1167162442498
 21
1369.525468
  0
LINE
  8
_0-8_小物
  6
CONTINUOUS
 62
    7
 10
1017.6500512442497
 20
1370.4662110000002
 11
1017.6500512442497
 21
1371.5009110000001
  0
LINE
  8
_0-8_小物
  6
CONTINUOUS
 62
    7
 10
1015.1167162442498
 20
1368.678688
 11
1017.6500512442497
 21
1369.619428
  0
LINE
  8
_0-8_小物
  6
CONTINUOUS
 62
    7
 10
1015.1167162442498
 20
1369.525468
 11
1017.6500512442497
 21
1370.4662110000002
  0
LINE
  8
_0-8_小物
  6
CONTINUOUS
 62
    7
 10
1014.38338424425
 20
1369.1020780000001
 11
1018.3833832442498
 21
1370.0428179999999
  0
LINE
  8
_0-8_小物
  6
CONTINUOUS
 62
    7
 10
1014.38338424425
 20
1369.1020780000001
 11
1015.1167162442498
 21
1368.678688
  0
LINE
  8
_0-8_小物
  6
CONTINUOUS
 62
    7
 10
1014.38338424425
 20
1369.1020780000001
 11
1015.1167162442498
 21
1369.525468
  0
LINE
  8
_0-8_小物
  6
CONTINUOUS
 62
    7
 10
1018.3833832442498
 20
1370.0428179999999
 11
1017.6500512442497
 21
1369.619428
  0
LINE
  8
_0-8_小物
  6
CONTINUOUS
 62
    7
 10
1017.6500512442497
 20
1370.4662110000002
 11
1018.3833832442498
 21
1370.0428179999999
  0
LINE
  8
_0-8_小物
  6
CONTINUOUS
 62
    7
 10
1015.1167162442498
 20
1372.4416510000001
 11
1015.1167162442498
 21
1371.4069509999999
  0
LINE
  8
_0-8_小物
  6
CONTINUOUS
 62
    7
 10
1017.6500512442497
 20
1372.3476909999999
 11
1017.6500512442497
 21
1373.3823910000001
  0
LINE
  8
_0-8_小物
  6
CONTINUOUS
 62
    7
 10
1015.1167162442498
 20
1370.5601710000001
 11
1017.6500512442497
 21
1371.5009110000001
  0
LINE
  8
_0-8_小物
  6
CONTINUOUS
 62
    7
 10
1015.1167162442498
 20
1371.4069509999999
 11
1017.6500512442497
 21
1372.3476909999999
  0
LINE
  8
_0-8_小物
  6
CONTINUOUS
 62
    7
 10
1014.38338424425
 20
1370.983561
 11
1018.3833832442498
 21
1371.924301
  0
LINE
  8
_0-8_小物
  6
CONTINUOUS
 62
    7
 10
1014.38338424425
 20
1370.983561
 11
1015.1167162442498
 21
1370.5601710000001
  0
LINE
  8
_0-8_小物
  6
CONTINUOUS
 62
    7
 10
1014.38338424425
 20
1370.983561
 11
1015.1167162442498
 21
1371.4069509999999
  0
LINE
  8
_0-8_小物
  6
CONTINUOUS
 62
    7
 10
1018.3833832442498
 20
1371.924301
 11
1017.6500512442497
 21
1371.5009110000001
  0
LINE
  8
_0-8_小物
  6
CONTINUOUS
 62
    7
 10
1017.6500512442497
 20
1372.3476909999999
 11
1018.3833832442498
 21
1371.924301
  0
LINE
  8
_0-8_小物
  6
CONTINUOUS
 62
    7
 10
1015.1167162442498
 20
1373.526445
 11
1015.1167162442498
 21
1373.2884309999999
  0
LINE
  8
_0-8_小物
  6
CONTINUOUS
 62
    7
 10
1017.6500512442497
 20
1375.162507
 11
1017.6500512442497
 21
1374.2291740000001
  0
LINE
  8
_0-8_小物
  6
CONTINUOUS
 62
    7
 10
1015.1167162442498
 20
1372.4416510000001
 11
1017.6500512442497
 21
1373.3823910000001
  0
LINE
  8
_0-8_小物
  6
CONTINUOUS
 62
    7
 10
1015.1167162442498
 20
1373.2884309999999
 11
1017.6500512442497
 21
1374.2291740000001
  0
LINE
  8
_0-8_小物
  6
CONTINUOUS
 62
    7
 10
1014.38338424425
 20
1372.865041
 11
1018.3833832442498
 21
1373.805781
  0
LINE
  8
_0-8_小物
  6
CONTINUOUS
 62
    7
 10
1014.38338424425
 20
1372.865041
 11
1015.1167162442498
 21
1372.4416510000001
  0
LINE
  8
_0-8_小物
  6
CONTINUOUS
 62
    7
 10
1014.38338424425
 20
1372.865041
 11
1015.1167162442498
 21
1373.2884309999999
  0
LINE
  8
_0-8_小物
  6
CONTINUOUS
 62
    7
 10
1017.6500512442497
 20
1373.3823910000001
 11
1018.3833832442498
 21
1373.805781
  0
LINE
  8
_0-8_小物
  6
CONTINUOUS
 62
    7
 10
1017.6500512442497
 20
1374.2291740000001
 11
1018.3833832442498
 21
1373.805781
  0
LINE
  8
_0-8_小物
  6
CONTINUOUS
 62
    7
 10
1015.1167162442498
 20
1375.162507
 11
1015.1167162442498
 21
1374.901789
  0
LINE
  8
_0-8_小物
  6
CONTINUOUS
 62
    7
 10
1016.3833852442497
 20
1374.9487690000001
 11
1014.38338424425
 21
1374.4783990000001
  0
LINE
  8
_0-8_小物
  6
CONTINUOUS
 62
    7
 10
1014.38338424425
 20
1374.4783990000001
 11
1015.1167162442498
 21
1374.0550089999997
  0
LINE
  8
_0-8_小物
  6
CONTINUOUS
 62
    7
 10
1014.38338424425
 20
1374.4783990000001
 11
1015.1167162442498
 21
1374.901789
  0
LINE
  8
_0-8_小物
  6
CONTINUOUS
 62
    7
 10
1015.1167162442498
 20
1374.0550089999997
 11
1015.1167162442498
 21
1373.526445
  0
LINE
  8
_0-8_小物
  6
CONTINUOUS
 62
    7
 10
1016.3833852442497
 20
1363.4625070000002
 11
1016.3833852442497
 21
1361.4625059999998
  0
LINE
  8
_0-8_小物
  6
CONTINUOUS
 62
    7
 10
1017.6500512442497
 20
1366.462507
 11
1015.1167312442499
 21
1366.462507
  0
LINE
  8
_0-8_小物
  6
CONTINUOUS
 62
    7
 10
1016.3833852442497
 20
1361.4625059999998
 11
1015.1167192442497
 21
1362.386266
  0
LINE
  8
_0-8_小物
  6
CONTINUOUS
 62
    7
 10
1016.3833852442497
 20
1361.4625059999998
 11
1017.6500512442497
 21
1362.386266
  0
ARC
  8
_0-8_小物
  6
CONTINUOUS
 62
    7
 10
1016.7581572442499
 20
1361.7379089999999
 40
1.7648489999999999
 50
102.260329
 51
158.446304
  0
ARC
  8
_0-8_小物
  6
CONTINUOUS
 62
    7
 10
1022.3896672442499
 20
1362.6939279999999
 40
6.0552599999999996
 50
141.51097799999997
 51
172.70791799999998
  0
LINE
  8
_0-8_小物
  6
CONTINUOUS
 62
    7
 10
1012.7833852442498
 20
1377.462505
 11
1019.9833852442498
 21
1377.462505
  0
LINE
  8
_0-8_小物
  6
CONTINUOUS
 62
    7
 10
1553.1167212665498
 20
1366.797208
 11
1553.1167212665498
 21
1366.462507
  0
LINE
  8
_0-8_小物
  6
CONTINUOUS
 62
    7
 10
1550.7833902665498
 20
1377.462505
 11
1550.7833902665498
 21
1377.162505
  0
LINE
  8
_0-8_小物
  6
CONTINUOUS
 62
    7
 10
1550.7833902665498
 20
1377.162505
 11
1553.1167212665498
 21
1375.162507
  0
LINE
  8
_0-8_小物
  6
CONTINUOUS
 62
    7
 10
1553.1167212665498
 20
1375.162507
 11
1555.6500562665499
 21
1375.162507
  0
LINE
  8
_0-8_小物
  6
CONTINUOUS
 62
    7
 10
1550.7833902665498
 20
1377.162505
 11
1557.9833902665498
 21
1377.162505
  0
LINE
  8
_0-8_小物
  6
CONTINUOUS
 62
    7
 10
1557.9833902665498
 20
1377.462505
 11
1557.9833902665498
 21
1377.162505
  0
LINE
  8
_0-8_小物
  6
CONTINUOUS
 62
    7
 10
1557.9833902665498
 20
1377.162505
 11
1555.6500562665499
 21
1375.162507
  0
LINE
  8
_0-8_小物
  6
CONTINUOUS
 62
    7
 10
1553.1167212665498
 20
1374.901789
 11
1554.3833902665499
 21
1374.9487690000001
  0
LINE
  8
_0-8_小物
  6
CONTINUOUS
 62
    7
 10
1553.1167212665498
 20
1374.0550089999997
 11
1554.3833902665499
 21
1374.9487690000001
  0
LINE
  8
_0-8_小物
  6
CONTINUOUS
 62
    7
 10
1553.1167212665498
 20
1366.462507
 11
1553.1167212665498
 21
1362.386266
  0
LINE
  8
_0-8_小物
  6
CONTINUOUS
 62
    7
 10
1555.6500562665499
 20
1367.737948
 11
1555.6500562665499
 21
1362.386266
  0
LINE
  8
_0-8_小物
  6
CONTINUOUS
 62
    7
 10
1553.1167212665498
 20
1368.678688
 11
1553.1167212665498
 21
1367.6439879999998
  0
LINE
  8
_0-8_小物
  6
CONTINUOUS
 62
    7
 10
1555.6500562665499
 20
1368.5847280000003
 11
1555.6500562665499
 21
1369.619428
  0
LINE
  8
_0-8_小物
  6
CONTINUOUS
 62
    7
 10
1553.1167212665498
 20
1366.797208
 11
1555.6500562665499
 21
1367.737948
  0
LINE
  8
_0-8_小物
  6
CONTINUOUS
 62
    7
 10
1553.1167212665498
 20
1367.6439879999998
 11
1555.6500562665499
 21
1368.5847280000003
  0
LINE
  8
_0-8_小物
  6
CONTINUOUS
 62
    7
 10
1552.3833892665496
 20
1367.2205980000001
 11
1556.3833882665499
 21
1368.1613380000001
  0
LINE
  8
_0-8_小物
  6
CONTINUOUS
 62
    7
 10
1552.3833892665496
 20
1367.2205980000001
 11
1553.1167212665498
 21
1366.797208
  0
LINE
  8
_0-8_小物
  6
CONTINUOUS
 62
    7
 10
1552.3833892665496
 20
1367.2205980000001
 11
1553.1167212665498
 21
1367.6439879999998
  0
LINE
  8
_0-8_小物
  6
CONTINUOUS
 62
    7
 10
1556.3833882665499
 20
1368.1613380000001
 11
1555.6500562665499
 21
1367.737948
  0
LINE
  8
_0-8_小物
  6
CONTINUOUS
 62
    7
 10
1555.6500562665499
 20
1368.5847280000003
 11
1556.3833882665499
 21
1368.1613380000001
  0
LINE
  8
_0-8_小物
  6
CONTINUOUS
 62
    7
 10
1553.1167212665498
 20
1370.5601710000001
 11
1553.1167212665498
 21
1369.525468
  0
LINE
  8
_0-8_小物
  6
CONTINUOUS
 62
    7
 10
1555.6500562665499
 20
1370.4662110000002
 11
1555.6500562665499
 21
1371.5009110000001
  0
LINE
  8
_0-8_小物
  6
CONTINUOUS
 62
    7
 10
1553.1167212665498
 20
1368.678688
 11
1555.6500562665499
 21
1369.619428
  0
LINE
  8
_0-8_小物
  6
CONTINUOUS
 62
    7
 10
1553.1167212665498
 20
1369.525468
 11
1555.6500562665499
 21
1370.4662110000002
  0
LINE
  8
_0-8_小物
  6
CONTINUOUS
 62
    7
 10
1552.3833892665496
 20
1369.1020780000001
 11
1556.3833882665499
 21
1370.0428179999999
  0
LINE
  8
_0-8_小物
  6
CONTINUOUS
 62
    7
 10
1552.3833892665496
 20
1369.1020780000001
 11
1553.1167212665498
 21
1368.678688
  0
LINE
  8
_0-8_小物
  6
CONTINUOUS
 62
    7
 10
1552.3833892665496
 20
1369.1020780000001
 11
1553.1167212665498
 21
1369.525468
  0
LINE
  8
_0-8_小物
  6
CONTINUOUS
 62
    7
 10
1556.3833882665499
 20
1370.0428179999999
 11
1555.6500562665499
 21
1369.619428
  0
LINE
  8
_0-8_小物
  6
CONTINUOUS
 62
    7
 10
1555.6500562665499
 20
1370.4662110000002
 11
1556.3833882665499
 21
1370.0428179999999
  0
LINE
  8
_0-8_小物
  6
CONTINUOUS
 62
    7
 10
1553.1167212665498
 20
1372.4416510000001
 11
1553.1167212665498
 21
1371.4069509999999
  0
LINE
  8
_0-8_小物
  6
CONTINUOUS
 62
    7
 10
1555.6500562665499
 20
1372.3476909999999
 11
1555.6500562665499
 21
1373.3823910000001
  0
LINE
  8
_0-8_小物
  6
CONTINUOUS
 62
    7
 10
1553.1167212665498
 20
1370.5601710000001
 11
1555.6500562665499
 21
1371.5009110000001
  0
LINE
  8
_0-8_小物
  6
CONTINUOUS
 62
    7
 10
1553.1167212665498
 20
1371.4069509999999
 11
1555.6500562665499
 21
1372.3476909999999
  0
LINE
  8
_0-8_小物
  6
CONTINUOUS
 62
    7
 10
1552.3833892665496
 20
1370.983561
 11
1556.3833882665499
 21
1371.924301
  0
LINE
  8
_0-8_小物
  6
CONTINUOUS
 62
    7
 10
1552.3833892665496
 20
1370.983561
 11
1553.1167212665498
 21
1370.5601710000001
  0
LINE
  8
_0-8_小物
  6
CONTINUOUS
 62
    7
 10
1552.3833892665496
 20
1370.983561
 11
1553.1167212665498
 21
1371.4069509999999
  0
LINE
  8
_0-8_小物
  6
CONTINUOUS
 62
    7
 10
1556.3833882665499
 20
1371.924301
 11
1555.6500562665499
 21
1371.5009110000001
  0
LINE
  8
_0-8_小物
  6
CONTINUOUS
 62
    7
 10
1555.6500562665499
 20
1372.3476909999999
 11
1556.3833882665499
 21
1371.924301
  0
LINE
  8
_0-8_小物
  6
CONTINUOUS
 62
    7
 10
1553.1167212665498
 20
1373.526445
 11
1553.1167212665498
 21
1373.2884309999999
  0
LINE
  8
_0-8_小物
  6
CONTINUOUS
 62
    7
 10
1555.6500562665499
 20
1375.162507
 11
1555.6500562665499
 21
1374.2291740000001
  0
LINE
  8
_0-8_小物
  6
CONTINUOUS
 62
    7
 10
1553.1167212665498
 20
1372.4416510000001
 11
1555.6500562665499
 21
1373.3823910000001
  0
LINE
  8
_0-8_小物
  6
CONTINUOUS
 62
    7
 10
1553.1167212665498
 20
1373.2884309999999
 11
1555.6500562665499
 21
1374.2291740000001
  0
LINE
  8
_0-8_小物
  6
CONTINUOUS
 62
    7
 10
1552.3833892665496
 20
1372.865041
 11
1556.3833882665499
 21
1373.805781
  0
LINE
  8
_0-8_小物
  6
CONTINUOUS
 62
    7
 10
1552.3833892665496
 20
1372.865041
 11
1553.1167212665498
 21
1372.4416510000001
  0
LINE
  8
_0-8_小物
  6
CONTINUOUS
 62
    7
 10
1552.3833892665496
 20
1372.865041
 11
1553.1167212665498
 21
1373.2884309999999
  0
LINE
  8
_0-8_小物
  6
CONTINUOUS
 62
    7
 10
1555.6500562665499
 20
1373.3823910000001
 11
1556.3833882665499
 21
1373.805781
  0
LINE
  8
_0-8_小物
  6
CONTINUOUS
 62
    7
 10
1555.6500562665499
 20
1374.2291740000001
 11
1556.3833882665499
 21
1373.805781
  0
LINE
  8
_0-8_小物
  6
CONTINUOUS
 62
    7
 10
1553.1167212665498
 20
1375.162507
 11
1553.1167212665498
 21
1374.901789
  0
LINE
  8
_0-8_小物
  6
CONTINUOUS
 62
    7
 10
1554.3833902665499
 20
1374.9487690000001
 11
1552.3833892665496
 21
1374.4783990000001
  0
LINE
  8
_0-8_小物
  6
CONTINUOUS
 62
    7
 10
1552.3833892665496
 20
1374.4783990000001
 11
1553.1167212665498
 21
1374.0550089999997
  0
LINE
  8
_0-8_小物
  6
CONTINUOUS
 62
    7
 10
1552.3833892665496
 20
1374.4783990000001
 11
1553.1167212665498
 21
1374.901789
  0
LINE
  8
_0-8_小物
  6
CONTINUOUS
 62
    7
 10
1553.1167212665498
 20
1374.0550089999997
 11
1553.1167212665498
 21
1373.526445
  0
LINE
  8
_0-8_小物
  6
CONTINUOUS
 62
    7
 10
1554.3833902665499
 20
1363.4625070000002
 11
1554.3833902665499
 21
1361.4625059999998
  0
LINE
  8
_0-8_小物
  6
CONTINUOUS
 62
    7
 10
1555.6500562665499
 20
1366.462507
 11
1553.1167362665497
 21
1366.462507
  0
LINE
  8
_0-8_小物
  6
CONTINUOUS
 62
    7
 10
1554.3833902665499
 20
1361.4625059999998
 11
1553.1167242665499
 21
1362.386266
  0
LINE
  8
_0-8_小物
  6
CONTINUOUS
 62
    7
 10
1554.3833902665499
 20
1361.4625059999998
 11
1555.6500562665499
 21
1362.386266
  0
ARC
  8
_0-8_小物
  6
CONTINUOUS
 62
    7
 10
1554.7581622665498
 20
1361.7379089999999
 40
1.7648489999999999
 50
102.260329
 51
158.446304
  0
ARC
  8
_0-8_小物
  6
CONTINUOUS
 62
    7
 10
1560.38967226655
 20
1362.6939279999999
 40
6.0552599999999996
 50
141.51097799999997
 51
172.70791799999998
  0
LINE
  8
_0-8_小物
  6
CONTINUOUS
 62
    7
 10
1550.7833902665498
 20
1377.462505
 11
1557.9833902665498
 21
1377.462505
  0
LINE
  8
_0-8_小物
  6
CONTINUOUS
 62
    7
 10
1873.5486932665499
 20
1413.6958359999999
 11
1873.8833942665499
 21
1413.6958359999999
  0
LINE
  8
_0-8_小物
  6
CONTINUOUS
 62
    7
 10
1862.8833962665497
 20
1411.3625050000001
 11
1863.1833962665501
 21
1411.3625050000001
  0
LINE
  8
_0-8_小物
  6
CONTINUOUS
 62
    7
 10
1863.1833962665501
 20
1411.3625050000001
 11
1865.1833942665498
 21
1413.6958359999999
  0
LINE
  8
_0-8_小物
  6
CONTINUOUS
 62
    7
 10
1865.1833942665498
 20
1413.6958359999999
 11
1865.1833942665498
 21
1416.229171
  0
LINE
  8
_0-8_小物
  6
CONTINUOUS
 62
    7
 10
1863.1833962665501
 20
1411.3625050000001
 11
1863.1833962665501
 21
1418.5625049999999
  0
LINE
  8
_0-8_小物
  6
CONTINUOUS
 62
    7
 10
1862.8833962665497
 20
1418.5625049999999
 11
1863.1833962665501
 21
1418.5625049999999
  0
LINE
  8
_0-8_小物
  6
CONTINUOUS
 62
    7
 10
1863.1833962665501
 20
1418.5625049999999
 11
1865.1833942665498
 21
1416.229171
  0
LINE
  8
_0-8_小物
  6
CONTINUOUS
 62
    7
 10
1865.4441122665498
 20
1413.6958359999999
 11
1865.3971322665498
 21
1414.962505
  0
LINE
  8
_0-8_小物
  6
CONTINUOUS
 62
    7
 10
1866.2908922665499
 20
1413.6958359999999
 11
1865.3971322665498
 21
1414.962505
  0
LINE
  8
_0-8_小物
  6
CONTINUOUS
 62
    7
 10
1873.8833942665499
 20
1413.6958359999999
 11
1877.9596352665499
 21
1413.6958359999999
  0
LINE
  8
_0-8_小物
  6
CONTINUOUS
 62
    7
 10
1872.6079532665497
 20
1416.229171
 11
1877.9596352665499
 21
1416.229171
  0
LINE
  8
_0-8_小物
  6
CONTINUOUS
 62
    7
 10
1871.6672132665499
 20
1413.6958359999999
 11
1872.7019132665498
 21
1413.6958359999999
  0
LINE
  8
_0-8_小物
  6
CONTINUOUS
 62
    7
 10
1871.76117326655
 20
1416.229171
 11
1870.7264732665499
 21
1416.229171
  0
LINE
  8
_0-8_小物
  6
CONTINUOUS
 62
    7
 10
1873.5486932665499
 20
1413.6958359999999
 11
1872.6079532665497
 21
1416.229171
  0
LINE
  8
_0-8_小物
  6
CONTINUOUS
 62
    7
 10
1872.7019132665498
 20
1413.6958359999999
 11
1871.76117326655
 21
1416.229171
  0
LINE
  8
_0-8_小物
  6
CONTINUOUS
 62
    7
 10
1873.1253032665495
 20
1412.9625040000001
 11
1872.1845632665502
 21
1416.9625030000002
  0
LINE
  8
_0-8_小物
  6
CONTINUOUS
 62
    7
 10
1873.1253032665495
 20
1412.9625040000001
 11
1873.5486932665499
 21
1413.6958359999999
  0
LINE
  8
_0-8_小物
  6
CONTINUOUS
 62
    7
 10
1873.1253032665495
 20
1412.9625040000001
 11
1872.7019132665498
 21
1413.6958359999999
  0
LINE
  8
_0-8_小物
  6
CONTINUOUS
 62
    7
 10
1872.1845632665502
 20
1416.9625030000002
 11
1872.6079532665497
 21
1416.229171
  0
LINE
  8
_0-8_小物
  6
CONTINUOUS
 62
    7
 10
1871.76117326655
 20
1416.229171
 11
1872.1845632665502
 21
1416.9625030000002
  0
LINE
  8
_0-8_小物
  6
CONTINUOUS
 62
    7
 10
1869.7857302665498
 20
1413.6958359999999
 11
1870.8204332665496
 21
1413.6958359999999
  0
LINE
  8
_0-8_小物
  6
CONTINUOUS
 62
    7
 10
1869.8796902665495
 20
1416.229171
 11
1868.8449902665498
 21
1416.229171
  0
LINE
  8
_0-8_小物
  6
CONTINUOUS
 62
    7
 10
1871.6672132665499
 20
1413.6958359999999
 11
1870.7264732665499
 21
1416.229171
  0
LINE
  8
_0-8_小物
  6
CONTINUOUS
 62
    7
 10
1870.8204332665496
 20
1413.6958359999999
 11
1869.8796902665495
 21
1416.229171
  0
LINE
  8
_0-8_小物
  6
CONTINUOUS
 62
    7
 10
1871.24382326655
 20
1412.9625040000001
 11
1870.3030832665497
 21
1416.9625030000002
  0
LINE
  8
_0-8_小物
  6
CONTINUOUS
 62
    7
 10
1871.24382326655
 20
1412.9625040000001
 11
1871.6672132665499
 21
1413.6958359999999
  0
LINE
  8
_0-8_小物
  6
CONTINUOUS
 62
    7
 10
1871.24382326655
 20
1412.9625040000001
 11
1870.8204332665496
 21
1413.6958359999999
  0
LINE
  8
_0-8_小物
  6
CONTINUOUS
 62
    7
 10
1870.3030832665497
 20
1416.9625030000002
 11
1870.7264732665499
 21
1416.229171
  0
LINE
  8
_0-8_小物
  6
CONTINUOUS
 62
    7
 10
1869.8796902665495
 20
1416.229171
 11
1870.3030832665497
 21
1416.9625030000002
  0
LINE
  8
_0-8_小物
  6
CONTINUOUS
 62
    7
 10
1867.9042502665502
 20
1413.6958359999999
 11
1868.9389502665501
 21
1413.6958359999999
  0
LINE
  8
_0-8_小物
  6
CONTINUOUS
 62
    7
 10
1867.9982102665499
 20
1416.229171
 11
1866.96351026655
 21
1416.229171
  0
LINE
  8
_0-8_小物
  6
CONTINUOUS
 62
    7
 10
1869.7857302665498
 20
1413.6958359999999
 11
1868.8449902665498
 21
1416.229171
  0
LINE
  8
_0-8_小物
  6
CONTINUOUS
 62
    7
 10
1868.9389502665501
 20
1413.6958359999999
 11
1867.9982102665499
 21
1416.229171
  0
LINE
  8
_0-8_小物
  6
CONTINUOUS
 62
    7
 10
1869.3623402665496
 20
1412.9625040000001
 11
1868.4216002665498
 21
1416.9625030000002
  0
LINE
  8
_0-8_小物
  6
CONTINUOUS
 62
    7
 10
1869.3623402665496
 20
1412.9625040000001
 11
1869.7857302665498
 21
1413.6958359999999
  0
LINE
  8
_0-8_小物
  6
CONTINUOUS
 62
    7
 10
1869.3623402665496
 20
1412.9625040000001
 11
1868.9389502665501
 21
1413.6958359999999
  0
LINE
  8
_0-8_小物
  6
CONTINUOUS
 62
    7
 10
1868.4216002665498
 20
1416.9625030000002
 11
1868.8449902665498
 21
1416.229171
  0
LINE
  8
_0-8_小物
  6
CONTINUOUS
 62
    7
 10
1867.9982102665499
 20
1416.229171
 11
1868.4216002665498
 21
1416.9625030000002
  0
LINE
  8
_0-8_小物
  6
CONTINUOUS
 62
    7
 10
1866.8194562665499
 20
1413.6958359999999
 11
1867.0574702665497
 21
1413.6958359999999
  0
LINE
  8
_0-8_小物
  6
CONTINUOUS
 62
    7
 10
1865.1833942665498
 20
1416.229171
 11
1866.1167272665496
 21
1416.229171
  0
LINE
  8
_0-8_小物
  6
CONTINUOUS
 62
    7
 10
1867.9042502665502
 20
1413.6958359999999
 11
1866.96351026655
 21
1416.229171
  0
LINE
  8
_0-8_小物
  6
CONTINUOUS
 62
    7
 10
1867.0574702665497
 20
1413.6958359999999
 11
1866.1167272665496
 21
1416.229171
  0
LINE
  8
_0-8_小物
  6
CONTINUOUS
 62
    7
 10
1867.4808602665498
 20
1412.9625040000001
 11
1866.5401202665498
 21
1416.9625030000002
  0
LINE
  8
_0-8_小物
  6
CONTINUOUS
 62
    7
 10
1867.4808602665498
 20
1412.9625040000001
 11
1867.9042502665502
 21
1413.6958359999999
  0
LINE
  8
_0-8_小物
  6
CONTINUOUS
 62
    7
 10
1867.4808602665498
 20
1412.9625040000001
 11
1867.0574702665497
 21
1413.6958359999999
  0
LINE
  8
_0-8_小物
  6
CONTINUOUS
 62
    7
 10
1866.96351026655
 20
1416.229171
 11
1866.5401202665498
 21
1416.9625030000002
  0
LINE
  8
_0-8_小物
  6
CONTINUOUS
 62
    7
 10
1866.1167272665496
 20
1416.229171
 11
1866.5401202665498
 21
1416.9625030000002
  0
LINE
  8
_0-8_小物
  6
CONTINUOUS
 62
    7
 10
1865.1833942665498
 20
1413.6958359999999
 11
1865.4441122665498
 21
1413.6958359999999
  0
LINE
  8
_0-8_小物
  6
CONTINUOUS
 62
    7
 10
1865.3971322665498
 20
1414.962505
 11
1865.86750226655
 21
1412.9625040000001
  0
LINE
  8
_0-8_小物
  6
CONTINUOUS
 62
    7
 10
1865.86750226655
 20
1412.9625040000001
 11
1866.2908922665499
 21
1413.6958359999999
  0
LINE
  8
_0-8_小物
  6
CONTINUOUS
 62
    7
 10
1865.86750226655
 20
1412.9625040000001
 11
1865.4441122665498
 21
1413.6958359999999
  0
LINE
  8
_0-8_小物
  6
CONTINUOUS
 62
    7
 10
1866.2908922665499
 20
1413.6958359999999
 11
1866.8194562665499
 21
1413.6958359999999
  0
LINE
  8
_0-8_小物
  6
CONTINUOUS
 62
    7
 10
1876.8833942665501
 20
1414.962505
 11
1878.8833952665498
 21
1414.962505
  0
LINE
  8
_0-8_小物
  6
CONTINUOUS
 62
    7
 10
1873.8833942665499
 20
1416.229171
 11
1873.8833942665499
 21
1413.6958509999999
  0
LINE
  8
_0-8_小物
  6
CONTINUOUS
 62
    7
 10
1878.8833952665498
 20
1414.962505
 11
1877.9596352665499
 21
1413.695839
  0
LINE
  8
_0-8_小物
  6
CONTINUOUS
 62
    7
 10
1878.8833952665498
 20
1414.962505
 11
1877.9596352665499
 21
1416.229171
  0
ARC
  8
_0-8_小物
  6
CONTINUOUS
 62
    7
 10
1878.6079922665499
 20
1415.3372770000001
 40
1.7648489999999999
 50
192.26032900000004
 51
248.446304
  0
ARC
  8
_0-8_小物
  6
CONTINUOUS
 62
    7
 10
1877.6519732665497
 20
1420.968787
 40
6.0552599999999996
 50
231.51097799999994
 51
262.70791799999995
  0
LINE
  8
_0-8_小物
  6
CONTINUOUS
 62
    7
 10
1862.8833962665497
 20
1411.3625050000001
 11
1862.8833962665497
 21
1418.5625049999999
  0
LINE
  8
_0-6_センタ_プレ_ト
  6
CONTINUOUS
 62
    7
 10
814.38287374284982
 20
1377.9758704313999
 11
814.38941797994983
 21
1378.2257847627
  0
LINE
  8
_0-6_センタ_プレ_ト
  6
CONTINUOUS
 62
    7
 10
812.8833877554498
 20
1378.0151358539001
 11
814.38287374284982
 21
1377.9758704313999
  0
LINE
  8
_0-6_センタ_プレ_ト
  6
CONTINUOUS
 62
    7
 10
817.3818457177498
 20
1377.8973395864998
 11
817.3883899548498
 21
1378.1472539177
  0
LINE
  8
_0-6_センタ_プレ_ト
  6
CONTINUOUS
 62
    7
 10
823.3797896676499
 20
1377.7402778965998
 11
823.38633390474979
 21
1377.9901922279
  0
LINE
  8
_0-6_センタ_プレ_ト
  6
CONTINUOUS
 62
    7
 10
820.38081769274982
 20
1377.8188087415997
 11
820.38736192984982
 21
1378.0687230727999
  0
LINE
  8
_0-6_センタ_プレ_ト
  6
CONTINUOUS
 62
    7
 10
814.38941797994983
 20
1378.2257847627
 11
817.3883899548498
 21
1378.1472539177
  0
LINE
  8
_0-6_センタ_プレ_ト
  6
CONTINUOUS
 62
    7
 10
817.3818457177498
 20
1377.8973395864998
 11
820.38081769274982
 21
1377.8188087415997
  0
LINE
  8
_0-6_センタ_プレ_ト
  6
CONTINUOUS
 62
    7
 10
826.37876164254976
 20
1377.6617470517003
 11
826.38530587964976
 21
1377.9116613829999
  0
LINE
  8
_0-6_センタ_プレ_ト
  6
CONTINUOUS
 62
    7
 10
832.37670559244987
 20
1377.5046853619001
 11
832.38324982954987
 21
1377.7545996930999
  0
LINE
  8
_0-6_センタ_プレ_ト
  6
CONTINUOUS
 62
    7
 10
829.37773361754989
 20
1377.5832162068002
 11
829.38427785454985
 21
1377.833130538
  0
LINE
  8
_0-6_センタ_プレ_ト
  6
CONTINUOUS
 62
    7
 10
820.38736192984982
 20
1378.0687230727999
 11
823.38633390474979
 21
1377.9901922279
  0
LINE
  8
_0-6_センタ_プレ_ト
  6
CONTINUOUS
 62
    7
 10
823.3797896676499
 20
1377.7402778965998
 11
826.37876164254976
 21
1377.6617470517003
  0
LINE
  8
_0-6_センタ_プレ_ト
  6
CONTINUOUS
 62
    7
 10
826.38530587964976
 20
1377.9116613829999
 11
829.38427785454985
 21
1377.833130538
  0
LINE
  8
_0-6_センタ_プレ_ト
  6
CONTINUOUS
 62
    7
 10
835.37567756734984
 20
1377.426154517
 11
835.38222180444973
 21
1377.6760688482
  0
LINE
  8
_0-6_センタ_プレ_ト
  6
CONTINUOUS
 62
    7
 10
838.37464954224981
 20
1377.3476236720001
 11
838.38119377934981
 21
1377.5975380033001
  0
LINE
  8
_0-6_センタ_プレ_ト
  6
CONTINUOUS
 62
    7
 10
841.37362151724983
 20
1377.2690928270999
 11
841.38016575424979
 21
1377.5190071582999
  0
LINE
  8
_0-6_センタ_プレ_ト
  6
CONTINUOUS
 62
    7
 10
844.3725934921498
 20
1377.1905619822001
 11
844.37913772924992
 21
1377.4404763134
  0
LINE
  8
_0-6_センタ_プレ_ト
  6
CONTINUOUS
 62
    7
 10
850.37053744194986
 20
1377.0335002923
 11
850.37708167904998
 21
1377.2834146236
  0
LINE
  8
_0-6_センタ_プレ_ト
  6
CONTINUOUS
 62
    7
 10
847.37156546704978
 20
1377.1120311372999
 11
847.37810970414989
 21
1377.3619454684999
  0
LINE
  8
_0-6_センタ_プレ_ト
  6
CONTINUOUS
 62
    7
 10
829.37773361754989
 20
1377.5832162068002
 11
832.37670559244987
 21
1377.5046853619001
  0
LINE
  8
_0-6_センタ_プレ_ト
  6
CONTINUOUS
 62
    7
 10
832.38324982954987
 20
1377.7545996930999
 11
835.38222180444973
 21
1377.6760688482
  0
LINE
  8
_0-6_センタ_プレ_ト
  6
CONTINUOUS
 62
    7
 10
835.37567756734984
 20
1377.426154517
 11
838.37464954224981
 21
1377.3476236720001
  0
LINE
  8
_0-6_センタ_プレ_ト
  6
CONTINUOUS
 62
    7
 10
838.38119377934981
 20
1377.5975380033001
 11
841.38016575424979
 21
1377.5190071582999
  0
LINE
  8
_0-6_センタ_プレ_ト
  6
CONTINUOUS
 62
    7
 10
841.37362151724983
 20
1377.2690928270999
 11
844.3725934921498
 21
1377.1905619822001
  0
LINE
  8
_0-6_センタ_プレ_ト
  6
CONTINUOUS
 62
    7
 10
844.37913772924992
 20
1377.4404763134
 11
847.37810970414989
 21
1377.3619454684999
  0
LINE
  8
_0-6_センタ_プレ_ト
  6
CONTINUOUS
 62
    7
 10
853.36950941694977
 20
1376.9549694473999
 11
853.37605365394984
 21
1377.2048837787002
  0
LINE
  8
_0-6_センタ_プレ_ト
  6
CONTINUOUS
 62
    7
 10
856.36848139184985
 20
1376.8764386025
 11
856.37502562894986
 21
1377.1263529337002
  0
LINE
  8
_0-6_センタ_プレ_ト
  6
CONTINUOUS
 62
    7
 10
859.36745336674983
 20
1376.7979077576001
 11
859.37399760384983
 21
1377.0478220888001
  0
LINE
  8
_0-6_センタ_プレ_ト
  6
CONTINUOUS
 62
    7
 10
862.36642534164992
 20
1376.7193769126
 11
862.37296957874992
 21
1376.9692912439
  0
LINE
  8
_0-6_センタ_プレ_ト
  6
CONTINUOUS
 62
    7
 10
865.36539731664971
 20
1376.6408460677001
 11
865.37194155374982
 21
1376.8907603989999
  0
LINE
  8
_0-6_センタ_プレ_ト
  6
CONTINUOUS
 62
    7
 10
868.36436929154979
 20
1376.5623152228
 11
868.37091352864991
 21
1376.8122295539999
  0
LINE
  8
_0-6_センタ_プレ_ト
  6
CONTINUOUS
 62
    7
 10
871.36334126644977
 20
1376.4837843779001
 11
871.36988550354977
 21
1376.7336987090998
  0
LINE
  8
_0-6_センタ_プレ_ト
  6
CONTINUOUS
 62
    7
 10
874.3623132414499
 20
1376.4052535329001
 11
874.36885747844985
 21
1376.6551678641999
  0
LINE
  8
_0-6_センタ_プレ_ト
  6
CONTINUOUS
 62
    7
 10
880.36025719124984
 20
1376.2481918431001
 11
880.36680142834985
 21
1376.4981061743001
  0
LINE
  8
_0-6_センタ_プレ_ト
  6
CONTINUOUS
 62
    7
 10
877.36128521634987
 20
1376.3267226880002
 11
877.36782945344976
 21
1376.5766370193001
  0
LINE
  8
_0-6_センタ_プレ_ト
  6
CONTINUOUS
 62
    7
 10
847.37156546704978
 20
1377.1120311372999
 11
850.37053744194986
 21
1377.0335002923
  0
LINE
  8
_0-6_センタ_プレ_ト
  6
CONTINUOUS
 62
    7
 10
850.37708167904998
 20
1377.2834146236
 11
853.37605365394984
 21
1377.2048837787002
  0
LINE
  8
_0-6_センタ_プレ_ト
  6
CONTINUOUS
 62
    7
 10
853.36950941694977
 20
1376.9549694473999
 11
856.36848139184985
 21
1376.8764386025
  0
LINE
  8
_0-6_センタ_プレ_ト
  6
CONTINUOUS
 62
    7
 10
856.37502562894986
 20
1377.1263529337002
 11
859.37399760384983
 21
1377.0478220888001
  0
LINE
  8
_0-6_センタ_プレ_ト
  6
CONTINUOUS
 62
    7
 10
859.36745336674983
 20
1376.7979077576001
 11
862.36642534164992
 21
1376.7193769126
  0
LINE
  8
_0-6_センタ_プレ_ト
  6
CONTINUOUS
 62
    7
 10
862.37296957874992
 20
1376.9692912439
 11
865.37194155374982
 21
1376.8907603989999
  0
LINE
  8
_0-6_センタ_プレ_ト
  6
CONTINUOUS
 62
    7
 10
865.36539731664971
 20
1376.6408460677001
 11
868.36436929154979
 21
1376.5623152228
  0
LINE
  8
_0-6_センタ_プレ_ト
  6
CONTINUOUS
 62
    7
 10
868.37091352864991
 20
1376.8122295539999
 11
871.36988550354977
 21
1376.7336987090998
  0
LINE
  8
_0-6_センタ_プレ_ト
  6
CONTINUOUS
 62
    7
 10
871.36334126644977
 20
1376.4837843779001
 11
874.3623132414499
 21
1376.4052535329001
  0
LINE
  8
_0-6_センタ_プレ_ト
  6
CONTINUOUS
 62
    7
 10
874.36885747844985
 20
1376.6551678641999
 11
877.36782945344976
 21
1376.5766370193001
  0
LINE
  8
_0-6_センタ_プレ_ト
  6
CONTINUOUS
 62
    7
 10
883.35922916614982
 20
1376.1696609982
 11
883.36577340324982
 21
1376.4195753294
  0
LINE
  8
_0-6_センタ_プレ_ト
  6
CONTINUOUS
 62
    7
 10
886.35820114114983
 20
1376.0911301532999
 11
886.36474537814979
 21
1376.3410444845001
  0
LINE
  8
_0-6_センタ_プレ_ト
  6
CONTINUOUS
 62
    7
 10
889.35717311604992
 20
1376.0125993083
 11
889.36371735314992
 21
1376.2625136396
  0
LINE
  8
_0-6_センタ_プレ_ト
  6
CONTINUOUS
 62
    7
 10
892.35614509094989
 20
1375.9340684633999
 11
892.36268932804978
 21
1376.1839827947001
  0
LINE
  8
_0-6_センタ_プレ_ト
  6
CONTINUOUS
 62
    7
 10
895.35511706584987
 20
1375.8555376185
 11
895.36166130294987
 21
1376.1054519497002
  0
LINE
  8
_0-6_センタ_プレ_ト
  6
CONTINUOUS
 62
    7
 10
898.35408904084989
 20
1375.7770067736001
 11
898.36063327784973
 21
1376.0269211048001
  0
LINE
  8
_0-6_センタ_プレ_ト
  6
CONTINUOUS
 62
    7
 10
904.35203299064983
 20
1375.6199450836998
 11
904.35857722774983
 21
1375.8698594150001
  0
LINE
  8
_0-6_センタ_プレ_ト
  6
CONTINUOUS
 62
    7
 10
901.35306101574986
 20
1375.6984759285999
 11
901.35960525284986
 21
1375.9483902599
  0
LINE
  8
_0-6_センタ_プレ_ト
  6
CONTINUOUS
 62
    7
 10
877.36128521634987
 20
1376.3267226880002
 11
880.36025719124984
 21
1376.2481918431001
  0
LINE
  8
_0-6_センタ_プレ_ト
  6
CONTINUOUS
 62
    7
 10
880.36680142834985
 20
1376.4981061743001
 11
883.36577340324982
 21
1376.4195753294
  0
LINE
  8
_0-6_センタ_プレ_ト
  6
CONTINUOUS
 62
    7
 10
883.35922916614982
 20
1376.1696609982
 11
886.35820114114983
 21
1376.0911301532001
  0
LINE
  8
_0-6_センタ_プレ_ト
  6
CONTINUOUS
 62
    7
 10
886.36474537814979
 20
1376.3410444845001
 11
889.36371735314992
 21
1376.2625136396
  0
LINE
  8
_0-6_センタ_プレ_ト
  6
CONTINUOUS
 62
    7
 10
889.35717311604992
 20
1376.0125993083
 11
892.35614509094989
 21
1375.9340684633999
  0
LINE
  8
_0-6_センタ_プレ_ト
  6
CONTINUOUS
 62
    7
 10
892.36268932804978
 20
1376.1839827946001
 11
895.36166130294987
 21
1376.1054519497002
  0
LINE
  8
_0-6_センタ_プレ_ト
  6
CONTINUOUS
 62
    7
 10
895.35511706584987
 20
1375.8555376185
 11
898.35408904084989
 21
1375.7770067736001
  0
LINE
  8
_0-6_センタ_プレ_ト
  6
CONTINUOUS
 62
    7
 10
898.36063327784973
 20
1376.0269211048001
 11
901.35960525284986
 21
1375.9483902599
  0
LINE
  8
_0-6_センタ_プレ_ト
  6
CONTINUOUS
 62
    7
 10
901.35306101574986
 20
1375.6984759285999
 11
904.35203299064983
 21
1375.6199450836998
  0
LINE
  8
_0-6_センタ_プレ_ト
  6
CONTINUOUS
 62
    7
 10
910.34997694054982
 20
1375.4628833939
 11
910.35652117764982
 21
1375.7127977251
  0
LINE
  8
_0-6_センタ_プレ_ト
  6
CONTINUOUS
 62
    7
 10
907.35100496554981
 20
1375.5414142387999
 11
907.35754920265003
 21
1375.7913285700001
  0
LINE
  8
_0-6_センタ_プレ_ト
  6
CONTINUOUS
 62
    7
 10
904.35857722774983
 20
1375.8698594150001
 11
907.35754920265003
 21
1375.7913285700001
  0
LINE
  8
_0-6_センタ_プレ_ト
  6
CONTINUOUS
 62
    7
 10
907.35100496554981
 20
1375.5414142387999
 11
910.34997694054982
 21
1375.4628833939
  0
LINE
  8
_0-6_センタ_プレ_ト
  6
CONTINUOUS
 62
    7
 10
916.34792089034977
 20
1375.3058217040002
 11
916.35446512744977
 21
1375.5557360353
  0
LINE
  8
_0-6_センタ_プレ_ト
  6
CONTINUOUS
 62
    7
 10
913.3489489154498
 20
1375.3843525489001
 11
913.3554931525498
 21
1375.6342668802001
  0
LINE
  8
_0-6_センタ_プレ_ト
  6
CONTINUOUS
 62
    7
 10
910.35652117764982
 20
1375.7127977251
 11
913.3554931525498
 21
1375.6342668802001
  0
LINE
  8
_0-6_センタ_プレ_ト
  6
CONTINUOUS
 62
    7
 10
913.3489489154498
 20
1375.3843525489001
 11
916.34792089034977
 21
1375.3058217040002
  0
LINE
  8
_0-6_センタ_プレ_ト
  6
CONTINUOUS
 62
    7
 10
922.34586484024976
 20
1375.1487600142
 11
922.35240907734976
 21
1375.3986743453997
  0
LINE
  8
_0-6_センタ_プレ_ト
  6
CONTINUOUS
 62
    7
 10
919.3468928653499
 20
1375.2272908591001
 11
919.35343710234974
 21
1375.4772051902999
  0
LINE
  8
_0-6_センタ_プレ_ト
  6
CONTINUOUS
 62
    7
 10
916.35446512744977
 20
1375.5557360353
 11
919.35343710234974
 21
1375.4772051902999
  0
LINE
  8
_0-6_センタ_プレ_ト
  6
CONTINUOUS
 62
    7
 10
919.3468928653499
 20
1375.2272908591001
 11
922.34586484024976
 21
1375.1487600142
  0
LINE
  8
_0-6_センタ_プレ_ト
  6
CONTINUOUS
 62
    7
 10
928.34380879004971
 20
1374.9916983243002
 11
928.35035302714994
 21
1375.2416126556002
  0
LINE
  8
_0-6_センタ_プレ_ト
  6
CONTINUOUS
 62
    7
 10
925.34483681514985
 20
1375.0702291693001
 11
925.35138105224996
 21
1375.3201435005003
  0
LINE
  8
_0-6_センタ_プレ_ト
  6
CONTINUOUS
 62
    7
 10
922.35240907734976
 20
1375.3986743453997
 11
925.35138105224996
 21
1375.3201435005003
  0
LINE
  8
_0-6_センタ_プレ_ト
  6
CONTINUOUS
 62
    7
 10
925.34483681514985
 20
1375.0702291692
 11
928.34380879004971
 21
1374.9916983243002
  0
LINE
  8
_0-6_センタ_プレ_ト
  6
CONTINUOUS
 62
    7
 10
934.34175273994981
 20
1374.8346366344999
 11
934.34829697704981
 21
1375.0845509656999
  0
LINE
  8
_0-6_センタ_プレ_ト
  6
CONTINUOUS
 62
    7
 10
931.34278076504984
 20
1374.9131674794
 11
931.34932500204991
 21
1375.1630818106
  0
LINE
  8
_0-6_センタ_プレ_ト
  6
CONTINUOUS
 62
    7
 10
928.35035302714994
 20
1375.2416126556002
 11
931.34932500204991
 21
1375.1630818106
  0
LINE
  8
_0-6_センタ_プレ_ト
  6
CONTINUOUS
 62
    7
 10
931.34278076504984
 20
1374.9131674794
 11
934.34175273994981
 21
1374.8346366344999
  0
LINE
  8
_0-6_センタ_プレ_ト
  6
CONTINUOUS
 62
    7
 10
940.33969668974987
 20
1374.6775749445999
 11
940.34624092684976
 21
1374.9274892758999
  0
LINE
  8
_0-6_センタ_プレ_ト
  6
CONTINUOUS
 62
    7
 10
937.34072471485001
 20
1374.7561057895
 11
937.34726895194967
 21
1375.0060201208
  0
LINE
  8
_0-6_センタ_プレ_ト
  6
CONTINUOUS
 62
    7
 10
934.34829697704981
 20
1375.0845509656999
 11
937.34726895194967
 21
1375.0060201208
  0
LINE
  8
_0-6_センタ_プレ_ト
  6
CONTINUOUS
 62
    7
 10
937.34072471485001
 20
1374.7561057895
 11
940.33969668974987
 21
1374.6775749445999
  0
LINE
  8
_0-6_センタ_プレ_ト
  6
CONTINUOUS
 62
    7
 10
946.33764063964975
 20
1374.5205132548003
 11
946.34418487674998
 21
1374.7704275860001
  0
LINE
  8
_0-6_センタ_プレ_ト
  6
CONTINUOUS
 62
    7
 10
943.33866866474978
 20
1374.5990440996998
 11
943.34521290174962
 21
1374.8489584309
  0
LINE
  8
_0-6_センタ_プレ_ト
  6
CONTINUOUS
 62
    7
 10
940.34624092684976
 20
1374.9274892758999
 11
943.34521290174962
 21
1374.8489584309
  0
LINE
  8
_0-6_センタ_プレ_ト
  6
CONTINUOUS
 62
    7
 10
943.33866866474978
 20
1374.5990440996998
 11
946.33764063964975
 21
1374.5205132548003
  0
LINE
  8
_0-6_センタ_プレ_ト
  6
CONTINUOUS
 62
    7
 10
952.33558458944992
 20
1374.3634515649001
 11
952.34212882654992
 21
1374.6133658961999
  0
LINE
  8
_0-6_センタ_プレ_ト
  6
CONTINUOUS
 62
    7
 10
949.33661261454995
 20
1374.4419824099002
 11
949.34315685164984
 21
1374.6918967411
  0
LINE
  8
_0-6_センタ_プレ_ト
  6
CONTINUOUS
 62
    7
 10
946.34418487674998
 20
1374.7704275860001
 11
949.34315685164984
 21
1374.6918967411
  0
LINE
  8
_0-6_センタ_プレ_ト
  6
CONTINUOUS
 62
    7
 10
949.33661261454995
 20
1374.4419824097999
 11
952.33558458944992
 21
1374.3634515649001
  0
LINE
  8
_0-6_センタ_プレ_ト
  6
CONTINUOUS
 62
    7
 10
958.33352853934991
 20
1374.2063898751001
 11
958.34007277644992
 21
1374.4563042063
  0
LINE
  8
_0-6_センタ_プレ_ト
  6
CONTINUOUS
 62
    7
 10
955.33455656444994
 20
1374.2849207199999
 11
955.34110080154994
 21
1374.5348350513
  0
LINE
  8
_0-6_センタ_プレ_ト
  6
CONTINUOUS
 62
    7
 10
952.34212882654992
 20
1374.6133658961999
 11
955.34110080154994
 21
1374.5348350511999
  0
LINE
  8
_0-6_センタ_プレ_ト
  6
CONTINUOUS
 62
    7
 10
955.33455656444994
 20
1374.2849207199999
 11
958.33352853934991
 21
1374.2063898751001
  0
LINE
  8
_0-6_センタ_プレ_ト
  6
CONTINUOUS
 62
    7
 10
961.33250051424989
 20
1374.1278590301999
 11
961.33904475134989
 21
1374.3777733613999
  0
LINE
  8
_0-6_センタ_プレ_ト
  6
CONTINUOUS
 62
    7
 10
958.34007277644992
 20
1374.4563042063
 11
961.33904475134989
 21
1374.3777733613999
  0
LINE
  8
_0-6_センタ_プレ_ト
  6
CONTINUOUS
 62
    7
 10
961.33250051424989
 20
1374.1278590301001
 11
962.83198650174984
 21
1374.0885936077002
  0
LINE
  8
_0-6_センタ_プレ_ト
  6
CONTINUOUS
 62
    7
 10
811.38390176794985
 20
1377.9758704313999
 11
811.37735753084985
 21
1378.2257847627
  0
LINE
  8
_0-6_センタ_プレ_ト
  6
CONTINUOUS
 62
    7
 10
812.8833877554498
 20
1378.0151358539001
 11
811.38390176794985
 21
1377.9758704313999
  0
LINE
  8
_0-6_センタ_プレ_ト
  6
CONTINUOUS
 62
    7
 10
808.38492979304976
 20
1377.8973395864998
 11
808.37838555594988
 21
1378.1472539177
  0
LINE
  8
_0-6_センタ_プレ_ト
  6
CONTINUOUS
 62
    7
 10
802.38698584314989
 20
1377.7402778965998
 11
802.38044160604977
 21
1377.9901922279
  0
LINE
  8
_0-6_センタ_プレ_ト
  6
CONTINUOUS
 62
    7
 10
805.38595781804986
 20
1377.8188087415997
 11
805.3794135810499
 21
1378.0687230727999
  0
LINE
  8
_0-6_センタ_プレ_ト
  6
CONTINUOUS
 62
    7
 10
811.37735753084985
 20
1378.2257847627
 11
808.37838555594988
 21
1378.1472539177
  0
LINE
  8
_0-6_センタ_プレ_ト
  6
CONTINUOUS
 62
    7
 10
808.38492979304976
 20
1377.8973395864998
 11
805.38595781804986
 21
1377.8188087415997
  0
LINE
  8
_0-6_センタ_プレ_ト
  6
CONTINUOUS
 62
    7
 10
799.38801386824991
 20
1377.6617470517003
 11
799.3814696311498
 21
1377.9116613829999
  0
LINE
  8
_0-6_センタ_プレ_ト
  6
CONTINUOUS
 62
    7
 10
793.39006991834992
 20
1377.5046853619001
 11
793.38352568134974
 21
1377.7545996930999
  0
LINE
  8
_0-6_センタ_プレ_ト
  6
CONTINUOUS
 62
    7
 10
796.38904189334983
 20
1377.5832162068002
 11
796.38249765624983
 21
1377.833130538
  0
LINE
  8
_0-6_センタ_プレ_ト
  6
CONTINUOUS
 62
    7
 10
805.3794135810499
 20
1378.0687230727999
 11
802.38044160604977
 21
1377.9901922279
  0
LINE
  8
_0-6_センタ_プレ_ト
  6
CONTINUOUS
 62
    7
 10
802.38698584314989
 20
1377.7402778965998
 11
799.38801386824991
 21
1377.6617470517003
  0
LINE
  8
_0-6_センタ_プレ_ト
  6
CONTINUOUS
 62
    7
 10
799.3814696311498
 20
1377.9116613829999
 11
796.38249765624983
 21
1377.833130538
  0
LINE
  8
_0-6_センタ_プレ_ト
  6
CONTINUOUS
 62
    7
 10
790.39109794344984
 20
1377.426154517
 11
790.38455370634983
 21
1377.6760688482
  0
LINE
  8
_0-6_センタ_プレ_ト
  6
CONTINUOUS
 62
    7
 10
787.39212596854986
 20
1377.3476236720001
 11
787.38558173144986
 21
1377.5975380033001
  0
LINE
  8
_0-6_センタ_プレ_ト
  6
CONTINUOUS
 62
    7
 10
784.39315399364978
 20
1377.2690928270999
 11
784.38660975654977
 21
1377.5190071582999
  0
LINE
  8
_0-6_センタ_プレ_ト
  6
CONTINUOUS
 62
    7
 10
781.39418201864987
 20
1377.1905619822001
 11
781.3876377816498
 21
1377.4404763134
  0
LINE
  8
_0-6_センタ_プレ_ト
  6
CONTINUOUS
 62
    7
 10
775.39623806884981
 20
1377.0335002923
 11
775.38969383174981
 21
1377.2834146236
  0
LINE
  8
_0-6_センタ_プレ_ト
  6
CONTINUOUS
 62
    7
 10
778.3952100437499
 20
1377.1120311372999
 11
778.38866580664978
 21
1377.3619454684999
  0
LINE
  8
_0-6_センタ_プレ_ト
  6
CONTINUOUS
 62
    7
 10
796.38904189334983
 20
1377.5832162068002
 11
793.39006991834992
 21
1377.5046853619001
  0
LINE
  8
_0-6_センタ_プレ_ト
  6
CONTINUOUS
 62
    7
 10
793.38352568134974
 20
1377.7545996930999
 11
790.38455370634983
 21
1377.6760688482
  0
LINE
  8
_0-6_センタ_プレ_ト
  6
CONTINUOUS
 62
    7
 10
790.39109794344984
 20
1377.426154517
 11
787.39212596854986
 21
1377.3476236720001
  0
LINE
  8
_0-6_センタ_プレ_ト
  6
CONTINUOUS
 62
    7
 10
787.38558173144986
 20
1377.5975380033001
 11
784.38660975654977
 21
1377.5190071582999
  0
LINE
  8
_0-6_センタ_プレ_ト
  6
CONTINUOUS
 62
    7
 10
784.39315399364978
 20
1377.2690928270999
 11
781.39418201864987
 21
1377.1905619822001
  0
LINE
  8
_0-6_センタ_プレ_ト
  6
CONTINUOUS
 62
    7
 10
781.3876377816498
 20
1377.4404763134
 11
778.38866580664978
 21
1377.3619454684999
  0
LINE
  8
_0-6_センタ_プレ_ト
  6
CONTINUOUS
 62
    7
 10
772.39726609384979
 20
1376.9549694473999
 11
772.39072185684984
 21
1377.2048837787002
  0
LINE
  8
_0-6_センタ_プレ_ト
  6
CONTINUOUS
 62
    7
 10
769.39829411894971
 20
1376.8764386025
 11
769.39174988184982
 21
1377.1263529337002
  0
LINE
  8
_0-6_センタ_プレ_ト
  6
CONTINUOUS
 62
    7
 10
766.39932214404985
 20
1376.7979077576001
 11
766.39277790694985
 21
1377.0478220888001
  0
LINE
  8
_0-6_センタ_プレ_ト
  6
CONTINUOUS
 62
    7
 10
763.40035016914976
 20
1376.7193769126
 11
763.39380593204987
 21
1376.9692912439
  0
LINE
  8
_0-6_センタ_プレ_ト
  6
CONTINUOUS
 62
    7
 10
760.40137819414986
 20
1376.6408460677001
 11
760.3948339571499
 21
1376.8907603989999
  0
LINE
  8
_0-6_センタ_プレ_ト
  6
CONTINUOUS
 62
    7
 10
757.40240621924977
 20
1376.5623152228
 11
757.39586198214988
 21
1376.8122295539999
  0
LINE
  8
_0-6_センタ_プレ_ト
  6
CONTINUOUS
 62
    7
 10
754.4034342443498
 20
1376.4837843779001
 11
754.39689000724979
 21
1376.7336987090998
  0
LINE
  8
_0-6_センタ_プレ_ト
  6
CONTINUOUS
 62
    7
 10
751.40446226944982
 20
1376.4052535329001
 11
751.39791803234993
 21
1376.6551678641999
  0
LINE
  8
_0-6_センタ_プレ_ト
  6
CONTINUOUS
 62
    7
 10
745.40651831954983
 20
1376.2481918431001
 11
745.39997408244983
 21
1376.4981061743001
  0
LINE
  8
_0-6_センタ_プレ_ト
  6
CONTINUOUS
 62
    7
 10
748.40549029444981
 20
1376.3267226880002
 11
748.39894605744985
 21
1376.5766370193001
  0
LINE
  8
_0-6_センタ_プレ_ト
  6
CONTINUOUS
 62
    7
 10
778.3952100437499
 20
1377.1120311372999
 11
775.39623806884981
 21
1377.0335002923
  0
LINE
  8
_0-6_センタ_プレ_ト
  6
CONTINUOUS
 62
    7
 10
775.38969383174981
 20
1377.2834146236
 11
772.39072185684984
 21
1377.2048837787002
  0
LINE
  8
_0-6_センタ_プレ_ト
  6
CONTINUOUS
 62
    7
 10
772.39726609384979
 20
1376.9549694473999
 11
769.39829411894971
 21
1376.8764386025
  0
LINE
  8
_0-6_センタ_プレ_ト
  6
CONTINUOUS
 62
    7
 10
769.39174988184982
 20
1377.1263529337002
 11
766.39277790694985
 21
1377.0478220888001
  0
LINE
  8
_0-6_センタ_プレ_ト
  6
CONTINUOUS
 62
    7
 10
766.39932214404985
 20
1376.7979077576001
 11
763.40035016914976
 21
1376.7193769126
  0
LINE
  8
_0-6_センタ_プレ_ト
  6
CONTINUOUS
 62
    7
 10
763.39380593204987
 20
1376.9692912439
 11
760.3948339571499
 21
1376.8907603989999
  0
LINE
  8
_0-6_センタ_プレ_ト
  6
CONTINUOUS
 62
    7
 10
760.40137819414986
 20
1376.6408460677001
 11
757.40240621924977
 21
1376.5623152228
  0
LINE
  8
_0-6_センタ_プレ_ト
  6
CONTINUOUS
 62
    7
 10
757.39586198214988
 20
1376.8122295539999
 11
754.39689000724979
 21
1376.7336987090998
  0
LINE
  8
_0-6_センタ_プレ_ト
  6
CONTINUOUS
 62
    7
 10
754.4034342443498
 20
1376.4837843779001
 11
751.40446226944982
 21
1376.4052535329001
  0
LINE
  8
_0-6_センタ_プレ_ト
  6
CONTINUOUS
 62
    7
 10
751.39791803234993
 20
1376.6551678641999
 11
748.39894605744985
 21
1376.5766370193001
  0
LINE
  8
_0-6_センタ_プレ_ト
  6
CONTINUOUS
 62
    7
 10
742.40754634464986
 20
1376.1696609982
 11
742.40100210754986
 21
1376.4195753294
  0
LINE
  8
_0-6_センタ_プレ_ト
  6
CONTINUOUS
 62
    7
 10
739.40857436974989
 20
1376.0911301532999
 11
739.40203013264977
 21
1376.3410444845001
  0
LINE
  8
_0-6_センタ_プレ_ト
  6
CONTINUOUS
 62
    7
 10
736.40960239474987
 20
1376.0125993083
 11
736.4030581577498
 21
1376.2625136396
  0
LINE
  8
_0-6_センタ_プレ_ト
  6
CONTINUOUS
 62
    7
 10
733.41063041984989
 20
1375.9340684633999
 11
733.40408618274989
 21
1376.1839827947001
  0
LINE
  8
_0-6_センタ_プレ_ト
  6
CONTINUOUS
 62
    7
 10
730.41165844494992
 20
1375.8555376185
 11
730.40511420784992
 21
1376.1054519497002
  0
LINE
  8
_0-6_センタ_プレ_ト
  6
CONTINUOUS
 62
    7
 10
727.4126864699499
 20
1375.7770067736001
 11
727.40614223294983
 21
1376.0269211048001
  0
LINE
  8
_0-6_センタ_プレ_ト
  6
CONTINUOUS
 62
    7
 10
721.41474252014996
 20
1375.6199450836998
 11
721.40819828304984
 21
1375.8698594150001
  0
LINE
  8
_0-6_センタ_プレ_ト
  6
CONTINUOUS
 62
    7
 10
724.41371449504982
 20
1375.6984759285999
 11
724.40717025794982
 21
1375.9483902599
  0
LINE
  8
_0-6_センタ_プレ_ト
  6
CONTINUOUS
 62
    7
 10
748.40549029444981
 20
1376.3267226880002
 11
745.40651831954983
 21
1376.2481918431001
  0
LINE
  8
_0-6_センタ_プレ_ト
  6
CONTINUOUS
 62
    7
 10
745.39997408244983
 20
1376.4981061743001
 11
742.40100210754986
 21
1376.4195753294
  0
LINE
  8
_0-6_センタ_プレ_ト
  6
CONTINUOUS
 62
    7
 10
742.40754634464986
 20
1376.1696609982
 11
739.40857436974989
 21
1376.0911301532001
  0
LINE
  8
_0-6_センタ_プレ_ト
  6
CONTINUOUS
 62
    7
 10
739.40203013264977
 20
1376.3410444845001
 11
736.4030581577498
 21
1376.2625136396
  0
LINE
  8
_0-6_センタ_プレ_ト
  6
CONTINUOUS
 62
    7
 10
736.40960239474987
 20
1376.0125993083
 11
733.41063041984989
 21
1375.9340684633999
  0
LINE
  8
_0-6_センタ_プレ_ト
  6
CONTINUOUS
 62
    7
 10
733.40408618274989
 20
1376.1839827946001
 11
730.40511420784992
 21
1376.1054519497002
  0
LINE
  8
_0-6_センタ_プレ_ト
  6
CONTINUOUS
 62
    7
 10
730.41165844494992
 20
1375.8555376185
 11
727.4126864699499
 21
1375.7770067736001
  0
LINE
  8
_0-6_センタ_プレ_ト
  6
CONTINUOUS
 62
    7
 10
727.40614223294983
 20
1376.0269211048001
 11
724.40717025794982
 21
1375.9483902599
  0
LINE
  8
_0-6_センタ_プレ_ト
  6
CONTINUOUS
 62
    7
 10
724.41371449504982
 20
1375.6984759285999
 11
721.41474252014996
 21
1375.6199450836998
  0
LINE
  8
_0-6_センタ_プレ_ト
  6
CONTINUOUS
 62
    7
 10
715.41679857024985
 20
1375.4628833939
 11
715.41025433324978
 21
1375.7127977251
  0
LINE
  8
_0-6_センタ_プレ_ト
  6
CONTINUOUS
 62
    7
 10
718.41577054524987
 20
1375.5414142387999
 11
718.40922630814975
 21
1375.7913285700001
  0
LINE
  8
_0-6_センタ_プレ_ト
  6
CONTINUOUS
 62
    7
 10
721.40819828304984
 20
1375.8698594150001
 11
718.40922630814975
 21
1375.7913285700001
  0
LINE
  8
_0-6_センタ_プレ_ト
  6
CONTINUOUS
 62
    7
 10
718.41577054524987
 20
1375.5414142387999
 11
715.41679857024985
 21
1375.4628833939
  0
LINE
  8
_0-6_センタ_プレ_ト
  6
CONTINUOUS
 62
    7
 10
709.41885462044979
 20
1375.3058217040002
 11
709.4123103833499
 21
1375.5557360353
  0
LINE
  8
_0-6_センタ_プレ_ト
  6
CONTINUOUS
 62
    7
 10
712.41782659534977
 20
1375.3843525489001
 11
712.41128235824988
 21
1375.6342668802001
  0
LINE
  8
_0-6_センタ_プレ_ト
  6
CONTINUOUS
 62
    7
 10
715.41025433324978
 20
1375.7127977251
 11
712.41128235824988
 21
1375.6342668802001
  0
LINE
  8
_0-6_センタ_プレ_ト
  6
CONTINUOUS
 62
    7
 10
712.41782659534977
 20
1375.3843525489001
 11
709.41885462044979
 21
1375.3058217040002
  0
LINE
  8
_0-6_センタ_プレ_ト
  6
CONTINUOUS
 62
    7
 10
703.42091067054992
 20
1375.1487600142
 11
703.41436643354984
 21
1375.3986743453997
  0
LINE
  8
_0-6_センタ_プレ_ト
  6
CONTINUOUS
 62
    7
 10
706.41988264554971
 20
1375.2272908591001
 11
706.41333840844982
 21
1375.4772051902999
  0
LINE
  8
_0-6_センタ_プレ_ト
  6
CONTINUOUS
 62
    7
 10
709.4123103833499
 20
1375.5557360353
 11
706.41333840844982
 21
1375.4772051902999
  0
LINE
  8
_0-6_センタ_プレ_ト
  6
CONTINUOUS
 62
    7
 10
706.41988264554971
 20
1375.2272908591001
 11
703.42091067054992
 21
1375.1487600142
  0
LINE
  8
_0-6_センタ_プレ_ト
  6
CONTINUOUS
 62
    7
 10
697.42296672074986
 20
1374.9916983243002
 11
697.41642248364974
 21
1375.2416126556002
  0
LINE
  8
_0-6_センタ_プレ_ト
  6
CONTINUOUS
 62
    7
 10
700.42193869564983
 20
1375.0702291693001
 11
700.41539445854983
 21
1375.3201435005003
  0
LINE
  8
_0-6_センタ_プレ_ト
  6
CONTINUOUS
 62
    7
 10
703.41436643354984
 20
1375.3986743453997
 11
700.41539445854983
 21
1375.3201435005003
  0
LINE
  8
_0-6_センタ_プレ_ト
  6
CONTINUOUS
 62
    7
 10
700.42193869564983
 20
1375.0702291692
 11
697.42296672074986
 21
1374.9916983243002
  0
LINE
  8
_0-6_センタ_プレ_ト
  6
CONTINUOUS
 62
    7
 10
691.42502277084986
 20
1374.8346366344999
 11
691.41847853384979
 21
1375.0845509656999
  0
LINE
  8
_0-6_センタ_プレ_ト
  6
CONTINUOUS
 62
    7
 10
694.42399474584977
 20
1374.9131674794
 11
694.41745050874988
 21
1375.1630818106
  0
LINE
  8
_0-6_センタ_プレ_ト
  6
CONTINUOUS
 62
    7
 10
697.41642248364974
 20
1375.2416126556002
 11
694.41745050874988
 21
1375.1630818106
  0
LINE
  8
_0-6_センタ_プレ_ト
  6
CONTINUOUS
 62
    7
 10
694.42399474584977
 20
1374.9131674794
 11
691.42502277084986
 21
1374.8346366344999
  0
LINE
  8
_0-6_センタ_プレ_ト
  6
CONTINUOUS
 62
    7
 10
685.4270788210498
 20
1374.6775749445999
 11
685.4205345839498
 21
1374.9274892758999
  0
LINE
  8
_0-6_センタ_プレ_ト
  6
CONTINUOUS
 62
    7
 10
688.42605079594978
 20
1374.7561057895
 11
688.41950655884978
 21
1375.0060201208
  0
LINE
  8
_0-6_センタ_プレ_ト
  6
CONTINUOUS
 62
    7
 10
691.41847853384979
 20
1375.0845509656999
 11
688.41950655884978
 21
1375.0060201208
  0
LINE
  8
_0-6_センタ_プレ_ト
  6
CONTINUOUS
 62
    7
 10
688.42605079594978
 20
1374.7561057895
 11
685.4270788210498
 21
1374.6775749445999
  0
LINE
  8
_0-6_センタ_プレ_ト
  6
CONTINUOUS
 62
    7
 10
679.42913487114981
 20
1374.5205132548003
 11
679.42259063404981
 21
1374.7704275860001
  0
LINE
  8
_0-6_センタ_プレ_ト
  6
CONTINUOUS
 62
    7
 10
682.4281068460499
 20
1374.5990440996998
 11
682.42156260904983
 21
1374.8489584309
  0
LINE
  8
_0-6_センタ_プレ_ト
  6
CONTINUOUS
 62
    7
 10
685.4205345839498
 20
1374.9274892758999
 11
682.42156260904983
 21
1374.8489584309
  0
LINE
  8
_0-6_センタ_プレ_ト
  6
CONTINUOUS
 62
    7
 10
682.4281068460499
 20
1374.5990440996998
 11
679.42913487114981
 21
1374.5205132548003
  0
LINE
  8
_0-6_センタ_プレ_ト
  6
CONTINUOUS
 62
    7
 10
673.43119092134987
 20
1374.3634515649001
 11
673.42464668424986
 21
1374.6133658961999
  0
LINE
  8
_0-6_センタ_プレ_ト
  6
CONTINUOUS
 62
    7
 10
676.43016289624984
 20
1374.4419824099002
 11
676.42361865914984
 21
1374.6918967411
  0
LINE
  8
_0-6_センタ_プレ_ト
  6
CONTINUOUS
 62
    7
 10
679.42259063404981
 20
1374.7704275860001
 11
676.42361865914984
 21
1374.6918967411
  0
LINE
  8
_0-6_センタ_プレ_ト
  6
CONTINUOUS
 62
    7
 10
676.43016289624984
 20
1374.4419824097999
 11
673.43119092134987
 21
1374.3634515649001
  0
LINE
  8
_0-6_センタ_プレ_ト
  6
CONTINUOUS
 62
    7
 10
667.43324697144976
 20
1374.2063898751001
 11
667.42670273434987
 21
1374.4563042063
  0
LINE
  8
_0-6_センタ_プレ_ト
  6
CONTINUOUS
 62
    7
 10
670.43221894634985
 20
1374.2849207199999
 11
670.42567470934989
 21
1374.5348350513
  0
LINE
  8
_0-6_センタ_プレ_ト
  6
CONTINUOUS
 62
    7
 10
673.42464668424986
 20
1374.6133658961999
 11
670.42567470934989
 21
1374.5348350511999
  0
LINE
  8
_0-6_センタ_プレ_ト
  6
CONTINUOUS
 62
    7
 10
670.43221894634985
 20
1374.2849207199999
 11
667.43324697144976
 21
1374.2063898751001
  0
LINE
  8
_0-6_センタ_プレ_ト
  6
CONTINUOUS
 62
    7
 10
664.4342749965499
 20
1374.1278590301999
 11
664.4277307594499
 21
1374.3777733613999
  0
LINE
  8
_0-6_センタ_プレ_ト
  6
CONTINUOUS
 62
    7
 10
667.42670273434987
 20
1374.4563042063
 11
664.4277307594499
 21
1374.3777733613999
  0
LINE
  8
_0-6_センタ_プレ_ト
  6
CONTINUOUS
 62
    7
 10
664.4342749965499
 20
1374.1278590301001
 11
662.93478900904984
 21
1374.0885936077002
  0
LINE
  8
_0-6_センタ_プレ_ト
  6
CONTINUOUS
 62
    7
 10
661.63575090334984
 20
1373.3385936076997
 11
661.51075090334984
 21
1373.5550999586003
  0
LINE
  8
_0-6_センタ_プレ_ト
  6
CONTINUOUS
 62
    7
 10
653.84152226934987
 20
1368.8385936077002
 11
653.71652226934987
 21
1369.0550999586001
  0
LINE
  8
_0-6_センタ_プレ_ト
  6
CONTINUOUS
 62
    7
 10
661.51075090334984
 20
1373.5550999586003
 11
658.91267469204979
 21
1372.0550999586001
  0
LINE
  8
_0-6_センタ_プレ_ト
  6
CONTINUOUS
 62
    7
 10
656.31459848064981
 20
1370.5550999586001
 11
653.71652226934987
 21
1369.0550999586001
  0
LINE
  8
_0-6_センタ_プレ_ト
  6
CONTINUOUS
 62
    7
 10
659.03767469204979
 20
1371.8385936077
 11
658.91267469204979
 21
1372.0550999586001
  0
LINE
  8
_0-6_センタ_プレ_ト
  6
CONTINUOUS
 62
    7
 10
656.43959848064981
 20
1370.3385936077002
 11
656.31459848064981
 21
1370.5550999586001
  0
LINE
  8
_0-6_センタ_プレ_ト
  6
CONTINUOUS
 62
    7
 10
662.93478900904984
 20
1374.0885936077002
 11
661.63575090334984
 21
1373.3385936076997
  0
LINE
  8
_0-6_センタ_プレ_ト
  6
CONTINUOUS
 62
    7
 10
659.03767469204979
 20
1371.8385936077
 11
656.43959848064981
 21
1370.3385936077002
  0
LINE
  8
_0-6_センタ_プレ_ト
  6
CONTINUOUS
 62
    7
 10
653.84152226934987
 20
1368.8385936077002
 11
652.54248416364976
 21
1368.0885936076997
  0
LINE
  8
_0-6_センタ_プレ_ト
  6
CONTINUOUS
 62
    7
 10
653.91748416364987
 20
1365.7070237473001
 11
652.54248416364976
 21
1368.0885936076997
  0
LINE
  8
_0-6_センタ_プレ_ト
  6
CONTINUOUS
 62
    7
 10
964.13102460744994
 20
1373.3385936076997
 11
964.25602460744994
 21
1373.5550999586003
  0
LINE
  8
_0-6_センタ_プレ_ト
  6
CONTINUOUS
 62
    7
 10
971.92525324144981
 20
1368.8385936077002
 11
972.05025324145004
 21
1369.0550999586001
  0
LINE
  8
_0-6_センタ_プレ_ト
  6
CONTINUOUS
 62
    7
 10
964.25602460744994
 20
1373.5550999586003
 11
966.85410081874966
 21
1372.0550999586001
  0
LINE
  8
_0-6_センタ_プレ_ト
  6
CONTINUOUS
 62
    7
 10
969.45217703014976
 20
1370.5550999586001
 11
972.05025324145004
 21
1369.0550999586001
  0
LINE
  8
_0-6_センタ_プレ_ト
  6
CONTINUOUS
 62
    7
 10
966.72910081874988
 20
1371.8385936077
 11
966.85410081874966
 21
1372.0550999586001
  0
LINE
  8
_0-6_センタ_プレ_ト
  6
CONTINUOUS
 62
    7
 10
969.32717703014987
 20
1370.3385936077002
 11
969.45217703014976
 21
1370.5550999586001
  0
LINE
  8
_0-6_センタ_プレ_ト
  6
CONTINUOUS
 62
    7
 10
962.83198650174984
 20
1374.0885936077002
 11
964.13102460744994
 21
1373.3385936076997
  0
LINE
  8
_0-6_センタ_プレ_ト
  6
CONTINUOUS
 62
    7
 10
966.72910081874988
 20
1371.8385936077
 11
969.32717703014987
 21
1370.3385936077002
  0
LINE
  8
_0-6_センタ_プレ_ト
  6
CONTINUOUS
 62
    7
 10
971.92525324144981
 20
1368.8385936077002
 11
973.2242913471498
 21
1368.0885936076997
  0
LINE
  8
_0-6_センタ_プレ_ト
  6
CONTINUOUS
 62
    7
 10
971.8492913471498
 20
1365.7070237473001
 11
973.2242913471498
 21
1368.0885936076997
  0
LINE
  8
_0-6_センタ_プレ_ト
  6
CONTINUOUS
 62
    7
 10
962.06182819414971
 20
1371.3578182333999
 11
971.8492913471498
 21
1365.7070237473001
  0
LINE
  8
_0-6_センタ_プレ_ト
  6
CONTINUOUS
 62
    7
 10
663.70494731674989
 20
1371.3578182333999
 11
653.91748416364987
 21
1365.7070237473001
  0
LINE
  8
_0-6_センタ_プレ_ト
  6
CONTINUOUS
 62
    7
 10
812.8833877554498
 20
1375.2641931745002
 11
663.70494731674989
 21
1371.3578182333999
  0
LINE
  8
_0-6_センタ_プレ_ト
  6
CONTINUOUS
 62
    7
 10
812.8833877554498
 20
1375.2641931745002
 11
962.06182819414971
 21
1371.3578182333999
  0
LINE
  8
_0-3_躯体
  6
CONTINUOUS
 62
    7
 10
1759.3828837425499
 20
1377.9758701696001
 11
1759.38942797955
 21
1378.2257845008
  0
LINE
  8
_0-3_躯体
  6
CONTINUOUS
 62
    7
 10
1757.88339775555
 20
1378.015135592
 11
1759.3828837425499
 21
1377.9758701696001
  0
LINE
  8
_0-3_躯体
  6
CONTINUOUS
 62
    7
 10
1762.3818557175498
 20
1377.8973393246001
 11
1762.3883999545499
 21
1378.1472536558999
  0
LINE
  8
_0-3_躯体
  6
CONTINUOUS
 62
    7
 10
1768.3797996675498
 20
1377.7402776348001
 11
1768.3863439045499
 21
1377.9901919660001
  0
LINE
  8
_0-3_躯体
  6
CONTINUOUS
 62
    7
 10
1765.3808276925497
 20
1377.8188084797
 11
1765.3873719295498
 21
1378.068722811
  0
LINE
  8
_0-3_躯体
  6
CONTINUOUS
 62
    7
 10
1759.38942797955
 20
1378.2257845008
 11
1762.3883999545499
 21
1378.1472536558999
  0
LINE
  8
_0-3_躯体
  6
CONTINUOUS
 62
    7
 10
1762.3818557175498
 20
1377.8973393246001
 11
1765.3808276925497
 21
1377.8188084797
  0
LINE
  8
_0-3_躯体
  6
CONTINUOUS
 62
    7
 10
1771.37877164255
 20
1377.6617467899
 11
1771.3853158795498
 21
1377.9116611211
  0
LINE
  8
_0-3_躯体
  6
CONTINUOUS
 62
    7
 10
1777.37671559255
 20
1377.5046851000002
 11
1777.3832598295498
 21
1377.7545994313
  0
LINE
  8
_0-3_躯体
  6
CONTINUOUS
 62
    7
 10
1774.3777436175496
 20
1377.5832159449001
 11
1774.3842878545497
 21
1377.8331302762001
  0
LINE
  8
_0-3_躯体
  6
CONTINUOUS
 62
    7
 10
1765.3873719295498
 20
1378.068722811
 11
1768.3863439045499
 21
1377.9901919660001
  0
LINE
  8
_0-3_躯体
  6
CONTINUOUS
 62
    7
 10
1768.3797996675498
 20
1377.7402776348001
 11
1771.37877164255
 21
1377.6617467899
  0
LINE
  8
_0-3_躯体
  6
CONTINUOUS
 62
    7
 10
1771.3853158795498
 20
1377.9116611211
 11
1774.3842878545497
 21
1377.8331302762001
  0
LINE
  8
_0-3_躯体
  6
CONTINUOUS
 62
    7
 10
1780.3756875675499
 20
1377.4261542551001
 11
1780.38223180455
 21
1377.6760685862998
  0
LINE
  8
_0-3_躯体
  6
CONTINUOUS
 62
    7
 10
1783.3746595425496
 20
1377.3476234102
 11
1783.3812037795497
 21
1377.5975377413997
  0
LINE
  8
_0-3_躯体
  6
CONTINUOUS
 62
    7
 10
1786.3736315175499
 20
1377.2690925652
 11
1786.3801757545498
 21
1377.5190068965003
  0
LINE
  8
_0-3_躯体
  6
CONTINUOUS
 62
    7
 10
1789.3726034925498
 20
1377.1905617203001
 11
1789.3791477295499
 21
1377.4404760516002
  0
LINE
  8
_0-3_躯体
  6
CONTINUOUS
 62
    7
 10
1795.3705474415501
 20
1377.0335000304999
 11
1795.3770916795499
 21
1377.2834143617001
  0
LINE
  8
_0-3_躯体
  6
CONTINUOUS
 62
    7
 10
1792.3715754675502
 20
1377.1120308754
 11
1792.3781197045496
 21
1377.3619452066002
  0
LINE
  8
_0-3_躯体
  6
CONTINUOUS
 62
    7
 10
1774.3777436175496
 20
1377.5832159449001
 11
1777.37671559255
 21
1377.5046851000002
  0
LINE
  8
_0-3_躯体
  6
CONTINUOUS
 62
    7
 10
1777.3832598295498
 20
1377.7545994313
 11
1780.38223180455
 21
1377.6760685862998
  0
LINE
  8
_0-3_躯体
  6
CONTINUOUS
 62
    7
 10
1780.3756875675499
 20
1377.4261542551001
 11
1783.3746595425496
 21
1377.3476234102
  0
LINE
  8
_0-3_躯体
  6
CONTINUOUS
 62
    7
 10
1783.3812037795497
 20
1377.5975377413997
 11
1786.3801757545498
 21
1377.5190068965003
  0
LINE
  8
_0-3_躯体
  6
CONTINUOUS
 62
    7
 10
1786.3736315175499
 20
1377.2690925652
 11
1789.3726034925498
 21
1377.1905617203001
  0
LINE
  8
_0-3_躯体
  6
CONTINUOUS
 62
    7
 10
1789.3791477295499
 20
1377.4404760516002
 11
1792.3781197045496
 21
1377.3619452066002
  0
LINE
  8
_0-3_躯体
  6
CONTINUOUS
 62
    7
 10
1798.3695194165496
 20
1376.9549691855
 11
1798.3760636535499
 21
1377.2048835168
  0
LINE
  8
_0-3_躯体
  6
CONTINUOUS
 62
    7
 10
1801.3684913915499
 20
1376.8764383405999
 11
1801.37503562855
 21
1377.1263526718999
  0
LINE
  8
_0-3_躯体
  6
CONTINUOUS
 62
    7
 10
1804.3674633665501
 20
1376.7979074956997
 11
1804.3740076035497
 21
1377.0478218269
  0
LINE
  8
_0-3_躯体
  6
CONTINUOUS
 62
    7
 10
1807.36643534155
 20
1376.7193766508003
 11
1807.3729795785498
 21
1376.9692909820001
  0
LINE
  8
_0-3_躯体
  6
CONTINUOUS
 62
    7
 10
1810.3654073165499
 20
1376.6408458059002
 11
1810.3719515535499
 21
1376.8907601371
  0
LINE
  8
_0-3_躯体
  6
CONTINUOUS
 62
    7
 10
1813.36437929155
 20
1376.5623149609
 11
1813.3709235285496
 21
1376.8122292921998
  0
LINE
  8
_0-3_躯体
  6
CONTINUOUS
 62
    7
 10
1816.3633512665499
 20
1376.4837841159999
 11
1816.3698955035497
 21
1376.7336984473
  0
LINE
  8
_0-3_躯体
  6
CONTINUOUS
 62
    7
 10
1819.3623232415498
 20
1376.4052532711
 11
1819.3688674785499
 21
1376.6551676023
  0
LINE
  8
_0-3_躯体
  6
CONTINUOUS
 62
    7
 10
1825.3602671915498
 20
1376.2481915812
 11
1825.3668114285497
 21
1376.4981059125
  0
LINE
  8
_0-3_躯体
  6
CONTINUOUS
 62
    7
 10
1822.3612952165499
 20
1376.3267224261999
 11
1822.3678394535502
 21
1376.5766367573999
  0
LINE
  8
_0-3_躯体
  6
CONTINUOUS
 62
    7
 10
1792.3715754675502
 20
1377.1120308754
 11
1795.3705474415501
 21
1377.0335000304999
  0
LINE
  8
_0-3_躯体
  6
CONTINUOUS
 62
    7
 10
1795.3770916795499
 20
1377.2834143617001
 11
1798.3760636535499
 21
1377.2048835168
  0
LINE
  8
_0-3_躯体
  6
CONTINUOUS
 62
    7
 10
1798.3695194165496
 20
1376.9549691855
 11
1801.3684913915499
 21
1376.8764383405999
  0
LINE
  8
_0-3_躯体
  6
CONTINUOUS
 62
    7
 10
1801.37503562855
 20
1377.1263526718999
 11
1804.3740076035497
 21
1377.0478218269
  0
LINE
  8
_0-3_躯体
  6
CONTINUOUS
 62
    7
 10
1804.3674633665501
 20
1376.7979074956997
 11
1807.36643534155
 21
1376.7193766508003
  0
LINE
  8
_0-3_躯体
  6
CONTINUOUS
 62
    7
 10
1807.3729795785498
 20
1376.9692909820001
 11
1810.3719515535499
 21
1376.8907601371
  0
LINE
  8
_0-3_躯体
  6
CONTINUOUS
 62
    7
 10
1810.3654073165499
 20
1376.6408458059002
 11
1813.36437929155
 21
1376.5623149609
  0
LINE
  8
_0-3_躯体
  6
CONTINUOUS
 62
    7
 10
1813.3709235285496
 20
1376.8122292921998
 11
1816.3698955035497
 21
1376.7336984473
  0
LINE
  8
_0-3_躯体
  6
CONTINUOUS
 62
    7
 10
1816.3633512665499
 20
1376.4837841159999
 11
1819.3623232415498
 21
1376.4052532711
  0
LINE
  8
_0-3_躯体
  6
CONTINUOUS
 62
    7
 10
1819.3688674785499
 20
1376.6551676023
 11
1822.3678394535502
 21
1376.5766367573999
  0
LINE
  8
_0-3_躯体
  6
CONTINUOUS
 62
    7
 10
1828.3592391665497
 20
1376.1696607363001
 11
1828.3657834035498
 21
1376.4195750675999
  0
LINE
  8
_0-3_躯体
  6
CONTINUOUS
 62
    7
 10
1831.3582111415499
 20
1376.0911298914
 11
1831.3647553785502
 21
1376.3410442226
  0
LINE
  8
_0-3_躯体
  6
CONTINUOUS
 62
    7
 10
1834.3571831155498
 20
1376.0125990464999
 11
1834.3637273535496
 21
1376.2625133777001
  0
LINE
  8
_0-3_躯体
  6
CONTINUOUS
 62
    7
 10
1837.3561550905501
 20
1375.9340682014999
 11
1837.36269932755
 21
1376.1839825328002
  0
LINE
  8
_0-3_躯体
  6
CONTINUOUS
 62
    7
 10
1840.3551270655494
 20
1375.8555373566001
 11
1840.3616713025499
 21
1376.1054516879001
  0
LINE
  8
_0-3_躯体
  6
CONTINUOUS
 62
    7
 10
1843.3540990405497
 20
1375.7770065116999
 11
1843.36064327755
 21
1376.0269208429002
  0
LINE
  8
_0-3_躯体
  6
CONTINUOUS
 62
    7
 10
1849.3520429905502
 20
1375.6199448218999
 11
1849.3585872275498
 21
1375.8698591530999
  0
LINE
  8
_0-3_躯体
  6
CONTINUOUS
 62
    7
 10
1846.3530710155501
 20
1375.6984756668001
 11
1846.3596152525499
 21
1375.948389998
  0
LINE
  8
_0-3_躯体
  6
CONTINUOUS
 62
    7
 10
1822.3612952165499
 20
1376.3267224261999
 11
1825.3602671915498
 21
1376.2481915812
  0
LINE
  8
_0-3_躯体
  6
CONTINUOUS
 62
    7
 10
1825.3668114285497
 20
1376.4981059125
 11
1828.3657834035498
 21
1376.4195750675999
  0
LINE
  8
_0-3_躯体
  6
CONTINUOUS
 62
    7
 10
1828.3592391665497
 20
1376.1696607363001
 11
1831.3582111415499
 21
1376.0911298914
  0
LINE
  8
_0-3_躯体
  6
CONTINUOUS
 62
    7
 10
1831.3647553785502
 20
1376.3410442226
 11
1834.3637273535496
 21
1376.2625133777001
  0
LINE
  8
_0-3_躯体
  6
CONTINUOUS
 62
    7
 10
1834.3571831155498
 20
1376.0125990464999
 11
1837.3561550905501
 21
1375.9340682014999
  0
LINE
  8
_0-3_躯体
  6
CONTINUOUS
 62
    7
 10
1837.36269932755
 20
1376.1839825328002
 11
1840.3616713025499
 21
1376.1054516879001
  0
LINE
  8
_0-3_躯体
  6
CONTINUOUS
 62
    7
 10
1840.3551270655494
 20
1375.8555373566001
 11
1843.3540990405497
 21
1375.7770065116999
  0
LINE
  8
_0-3_躯体
  6
CONTINUOUS
 62
    7
 10
1843.36064327755
 20
1376.0269208429002
 11
1846.3596152525499
 21
1375.948389998
  0
LINE
  8
_0-3_躯体
  6
CONTINUOUS
 62
    7
 10
1846.3530710155501
 20
1375.6984756668001
 11
1849.3520429905502
 21
1375.6199448218001
  0
LINE
  8
_0-3_躯体
  6
CONTINUOUS
 62
    7
 10
1855.34998694055
 20
1375.4628831320001
 11
1855.3565311775499
 21
1375.7127974632999
  0
LINE
  8
_0-3_躯体
  6
CONTINUOUS
 62
    7
 10
1852.3510149655497
 20
1375.5414139769
 11
1852.35755920255
 21
1375.7913283081998
  0
LINE
  8
_0-3_躯体
  6
CONTINUOUS
 62
    7
 10
1849.3585872275498
 20
1375.8698591530999
 11
1852.35755920255
 21
1375.7913283081998
  0
LINE
  8
_0-3_躯体
  6
CONTINUOUS
 62
    7
 10
1852.3510149655497
 20
1375.5414139769
 11
1855.34998694055
 21
1375.4628831320001
  0
LINE
  8
_0-3_躯体
  6
CONTINUOUS
 62
    7
 10
1861.3479308905496
 20
1375.3058214422001
 11
1861.3544751275499
 21
1375.5557357734001
  0
LINE
  8
_0-3_躯体
  6
CONTINUOUS
 62
    7
 10
1858.3489589155502
 20
1375.3843522871002
 11
1858.3555031525498
 21
1375.6342666183
  0
LINE
  8
_0-3_躯体
  6
CONTINUOUS
 62
    7
 10
1855.3565311775499
 20
1375.7127974631999
 11
1858.3555031525498
 21
1375.6342666183
  0
LINE
  8
_0-3_躯体
  6
CONTINUOUS
 62
    7
 10
1858.3489589155502
 20
1375.3843522871002
 11
1861.3479308905496
 21
1375.3058214422001
  0
LINE
  8
_0-3_躯体
  6
CONTINUOUS
 62
    7
 10
1867.3458748405501
 20
1375.1487597523001
 11
1867.3524190775497
 21
1375.3986740836001
  0
LINE
  8
_0-3_躯体
  6
CONTINUOUS
 62
    7
 10
1864.34690286555
 20
1375.2272905972002
 11
1864.3534471025498
 21
1375.4772049285
  0
LINE
  8
_0-3_躯体
  6
CONTINUOUS
 62
    7
 10
1861.3544751275499
 20
1375.5557357734001
 11
1864.3534471025498
 21
1375.4772049285
  0
LINE
  8
_0-3_躯体
  6
CONTINUOUS
 62
    7
 10
1864.34690286555
 20
1375.2272905972002
 11
1867.3458748405501
 21
1375.1487597523001
  0
LINE
  8
_0-3_躯体
  6
CONTINUOUS
 62
    7
 10
1870.34484681555
 20
1375.0702289074
 11
1870.3513910525498
 21
1375.3201432385999
  0
LINE
  8
_0-3_躯体
  6
CONTINUOUS
 62
    7
 10
1867.3524190775497
 20
1375.3986740836001
 11
1870.3513910525498
 21
1375.3201432385999
  0
LINE
  8
_0-3_躯体
  6
CONTINUOUS
 62
    7
 10
1872.5943328025496
 20
1373.7319253792002
 11
1872.81083915355
 21
1373.8569253791998
  0
LINE
  8
_0-3_躯体
  6
CONTINUOUS
 62
    7
 10
1872.81083915355
 20
1373.8569253791998
 11
1874.31083915355
 21
1371.2588491678998
  0
LINE
  8
_0-3_躯体
  6
CONTINUOUS
 62
    7
 10
1874.0943328025498
 20
1371.1338491679001
 11
1874.31083915355
 21
1371.2588491678998
  0
LINE
  8
_0-3_躯体
  6
CONTINUOUS
 62
    7
 10
1874.0943328025498
 20
1371.1338491679001
 11
1875.5943328025498
 21
1368.5357729565001
  0
LINE
  8
_0-3_躯体
  6
CONTINUOUS
 62
    7
 10
1875.5943328025498
 20
1368.5357729565001
 11
1875.8108391535498
 21
1368.6607729565001
  0
LINE
  8
_0-3_躯体
  6
CONTINUOUS
 62
    7
 10
1875.8108391535498
 20
1368.6607729565001
 11
1877.3108391535502
 21
1366.0626967451999
  0
LINE
  8
_0-3_躯体
  6
CONTINUOUS
 62
    7
 10
1877.0943328025496
 20
1365.9376967452004
 11
1877.3108391535502
 21
1366.0626967451999
  0
LINE
  8
_0-3_躯体
  6
CONTINUOUS
 62
    7
 10
1877.0943328025496
 20
1365.9376967452004
 11
1877.8443328025496
 21
1364.6386586394999
  0
LINE
  8
_0-3_躯体
  6
CONTINUOUS
 62
    7
 10
1870.34484681555
 20
1375.0702289074
 11
1871.8443328025496
 21
1375.0309634849
  0
LINE
  8
_0-3_躯体
  6
CONTINUOUS
 62
    7
 10
1871.8443328025496
 20
1375.0309634849
 11
1872.5943328025496
 21
1373.7319253792002
  0
LINE
  8
_0-3_躯体
  6
CONTINUOUS
 62
    7
 10
1756.3839117675498
 20
1377.9758701696001
 11
1756.3773675305499
 21
1378.2257845008
  0
LINE
  8
_0-3_躯体
  6
CONTINUOUS
 62
    7
 10
1757.88339775555
 20
1378.015135592
 11
1756.3839117675498
 21
1377.9758701696001
  0
LINE
  8
_0-3_躯体
  6
CONTINUOUS
 62
    7
 10
1753.3849397925499
 20
1377.8973393246001
 11
1753.37839555555
 21
1378.1472536558999
  0
LINE
  8
_0-3_躯体
  6
CONTINUOUS
 62
    7
 10
1747.3869958435498
 20
1377.7402776348001
 11
1747.38045160655
 21
1377.9901919660001
  0
LINE
  8
_0-3_躯体
  6
CONTINUOUS
 62
    7
 10
1750.3859678185499
 20
1377.8188084797
 11
1750.3794235805499
 21
1378.068722811
  0
LINE
  8
_0-3_躯体
  6
CONTINUOUS
 62
    7
 10
1756.3773675305499
 20
1378.2257845008
 11
1753.37839555555
 21
1378.1472536558999
  0
LINE
  8
_0-3_躯体
  6
CONTINUOUS
 62
    7
 10
1753.3849397925499
 20
1377.8973393246001
 11
1750.3859678185499
 21
1377.8188084797
  0
LINE
  8
_0-3_躯体
  6
CONTINUOUS
 62
    7
 10
1744.3880238685497
 20
1377.6617467899
 11
1744.3814796315496
 21
1377.9116611211
  0
LINE
  8
_0-3_躯体
  6
CONTINUOUS
 62
    7
 10
1738.3900799185499
 20
1377.5046851000002
 11
1738.3835356815498
 21
1377.7545994313
  0
LINE
  8
_0-3_躯体
  6
CONTINUOUS
 62
    7
 10
1741.38905189355
 20
1377.5832159449001
 11
1741.3825076565499
 21
1377.8331302762001
  0
LINE
  8
_0-3_躯体
  6
CONTINUOUS
 62
    7
 10
1750.3794235805499
 20
1378.068722811
 11
1747.38045160655
 21
1377.9901919660001
  0
LINE
  8
_0-3_躯体
  6
CONTINUOUS
 62
    7
 10
1747.3869958435498
 20
1377.7402776348001
 11
1744.3880238685497
 21
1377.6617467899
  0
LINE
  8
_0-3_躯体
  6
CONTINUOUS
 62
    7
 10
1744.3814796315496
 20
1377.9116611211
 11
1741.3825076565499
 21
1377.8331302762001
  0
LINE
  8
_0-3_躯体
  6
CONTINUOUS
 62
    7
 10
1735.3911079435497
 20
1377.4261542551001
 11
1735.3845637065497
 21
1377.6760685862998
  0
LINE
  8
_0-3_躯体
  6
CONTINUOUS
 62
    7
 10
1732.3921359685498
 20
1377.3476234102
 11
1732.38559173155
 21
1377.5975377413997
  0
LINE
  8
_0-3_躯体
  6
CONTINUOUS
 62
    7
 10
1729.3931639935499
 20
1377.2690925652
 11
1729.3866197565499
 21
1377.5190068965003
  0
LINE
  8
_0-3_躯体
  6
CONTINUOUS
 62
    7
 10
1726.3941920185498
 20
1377.1905617203001
 11
1726.3876477815497
 21
1377.4404760516002
  0
LINE
  8
_0-3_躯体
  6
CONTINUOUS
 62
    7
 10
1720.39624806855
 20
1377.0335000304999
 11
1720.3897038315499
 21
1377.2834143617001
  0
LINE
  8
_0-3_躯体
  6
CONTINUOUS
 62
    7
 10
1723.3952200435499
 20
1377.1120308754
 11
1723.3886758065498
 21
1377.3619452066002
  0
LINE
  8
_0-3_躯体
  6
CONTINUOUS
 62
    7
 10
1741.38905189355
 20
1377.5832159449001
 11
1738.3900799185499
 21
1377.5046851000002
  0
LINE
  8
_0-3_躯体
  6
CONTINUOUS
 62
    7
 10
1738.3835356815498
 20
1377.7545994313
 11
1735.3845637065497
 21
1377.6760685862998
  0
LINE
  8
_0-3_躯体
  6
CONTINUOUS
 62
    7
 10
1735.3911079435497
 20
1377.4261542551001
 11
1732.3921359685498
 21
1377.3476234102
  0
LINE
  8
_0-3_躯体
  6
CONTINUOUS
 62
    7
 10
1732.38559173155
 20
1377.5975377413997
 11
1729.3866197565499
 21
1377.5190068965003
  0
LINE
  8
_0-3_躯体
  6
CONTINUOUS
 62
    7
 10
1729.3931639935499
 20
1377.2690925652
 11
1726.3941920185498
 21
1377.1905617203001
  0
LINE
  8
_0-3_躯体
  6
CONTINUOUS
 62
    7
 10
1726.3876477815497
 20
1377.4404760516002
 11
1723.3886758065498
 21
1377.3619452066002
  0
LINE
  8
_0-3_躯体
  6
CONTINUOUS
 62
    7
 10
1717.3972760935499
 20
1376.9549691855
 11
1717.3907318565498
 21
1377.2048835168
  0
LINE
  8
_0-3_躯体
  6
CONTINUOUS
 62
    7
 10
1714.39830411855
 20
1376.8764383405999
 11
1714.3917598815499
 21
1377.1263526718999
  0
LINE
  8
_0-3_躯体
  6
CONTINUOUS
 62
    7
 10
1711.3993321435496
 20
1376.7979074956997
 11
1711.39278790655
 21
1377.0478218269
  0
LINE
  8
_0-3_躯体
  6
CONTINUOUS
 62
    7
 10
1708.4003601695495
 20
1376.7193766508003
 11
1708.3938159315499
 21
1376.9692909820001
  0
LINE
  8
_0-3_躯体
  6
CONTINUOUS
 62
    7
 10
1705.4013881945502
 20
1376.6408458059002
 11
1705.3948439575497
 21
1376.8907601371
  0
LINE
  8
_0-3_躯体
  6
CONTINUOUS
 62
    7
 10
1702.4024162195499
 20
1376.5623149609
 11
1702.3958719825498
 21
1376.8122292921998
  0
LINE
  8
_0-3_躯体
  6
CONTINUOUS
 62
    7
 10
1699.4034442445495
 20
1376.4837841159999
 11
1699.3969000075499
 21
1376.7336984473
  0
LINE
  8
_0-3_躯体
  6
CONTINUOUS
 62
    7
 10
1696.4044722695498
 20
1376.4052532711
 11
1696.3979280325498
 21
1376.6551676023
  0
LINE
  8
_0-3_躯体
  6
CONTINUOUS
 62
    7
 10
1690.4065283195496
 20
1376.2481915812
 11
1690.39998408255
 21
1376.4981059125
  0
LINE
  8
_0-3_躯体
  6
CONTINUOUS
 62
    7
 10
1693.4055002945499
 20
1376.3267224261999
 11
1693.3989560575499
 21
1376.5766367573999
  0
LINE
  8
_0-3_躯体
  6
CONTINUOUS
 62
    7
 10
1723.3952200435499
 20
1377.1120308754
 11
1720.39624806855
 21
1377.0335000304999
  0
LINE
  8
_0-3_躯体
  6
CONTINUOUS
 62
    7
 10
1720.3897038315499
 20
1377.2834143617001
 11
1717.3907318565498
 21
1377.2048835168
  0
LINE
  8
_0-3_躯体
  6
CONTINUOUS
 62
    7
 10
1717.3972760935499
 20
1376.9549691855
 11
1714.39830411855
 21
1376.8764383405999
  0
LINE
  8
_0-3_躯体
  6
CONTINUOUS
 62
    7
 10
1714.3917598815499
 20
1377.1263526718999
 11
1711.39278790655
 21
1377.0478218269
  0
LINE
  8
_0-3_躯体
  6
CONTINUOUS
 62
    7
 10
1711.3993321435496
 20
1376.7979074956997
 11
1708.4003601695495
 21
1376.7193766508003
  0
LINE
  8
_0-3_躯体
  6
CONTINUOUS
 62
    7
 10
1708.3938159315499
 20
1376.9692909820001
 11
1705.3948439575497
 21
1376.8907601371
  0
LINE
  8
_0-3_躯体
  6
CONTINUOUS
 62
    7
 10
1705.4013881945502
 20
1376.6408458059002
 11
1702.4024162195499
 21
1376.5623149609
  0
LINE
  8
_0-3_躯体
  6
CONTINUOUS
 62
    7
 10
1702.3958719825498
 20
1376.8122292921998
 11
1699.3969000075499
 21
1376.7336984473
  0
LINE
  8
_0-3_躯体
  6
CONTINUOUS
 62
    7
 10
1699.4034442445495
 20
1376.4837841159999
 11
1696.4044722695498
 21
1376.4052532711
  0
LINE
  8
_0-3_躯体
  6
CONTINUOUS
 62
    7
 10
1696.3979280325498
 20
1376.6551676023
 11
1693.3989560575499
 21
1376.5766367573999
  0
LINE
  8
_0-3_躯体
  6
CONTINUOUS
 62
    7
 10
1687.4075563445499
 20
1376.1696607363001
 11
1687.4010121075498
 21
1376.4195750675999
  0
LINE
  8
_0-3_躯体
  6
CONTINUOUS
 62
    7
 10
1684.40858436955
 20
1376.0911298914
 11
1684.4020401325499
 21
1376.3410442226
  0
LINE
  8
_0-3_躯体
  6
CONTINUOUS
 62
    7
 10
1681.4096123945496
 20
1376.0125990464999
 11
1681.4030681575496
 21
1376.2625133777001
  0
LINE
  8
_0-3_躯体
  6
CONTINUOUS
 62
    7
 10
1678.41064041955
 20
1375.9340682014999
 11
1678.4040961825499
 21
1376.1839825328002
  0
LINE
  8
_0-3_躯体
  6
CONTINUOUS
 62
    7
 10
1675.4116684445498
 20
1375.8555373566001
 11
1675.40512420755
 21
1376.1054516879001
  0
LINE
  8
_0-3_躯体
  6
CONTINUOUS
 62
    7
 10
1672.4126964695497
 20
1375.7770065116999
 11
1672.4061522325496
 21
1376.0269208429002
  0
LINE
  8
_0-3_躯体
  6
CONTINUOUS
 62
    7
 10
1666.4147525205499
 20
1375.6199448218999
 11
1666.4082082835498
 21
1375.8698591530999
  0
LINE
  8
_0-3_躯体
  6
CONTINUOUS
 62
    7
 10
1669.4137244955498
 20
1375.6984756668001
 11
1669.40718025755
 21
1375.948389998
  0
LINE
  8
_0-3_躯体
  6
CONTINUOUS
 62
    7
 10
1693.4055002945499
 20
1376.3267224261999
 11
1690.4065283195496
 21
1376.2481915812
  0
LINE
  8
_0-3_躯体
  6
CONTINUOUS
 62
    7
 10
1690.39998408255
 20
1376.4981059125
 11
1687.4010121075498
 21
1376.4195750675999
  0
LINE
  8
_0-3_躯体
  6
CONTINUOUS
 62
    7
 10
1687.4075563445499
 20
1376.1696607363001
 11
1684.40858436955
 21
1376.0911298914
  0
LINE
  8
_0-3_躯体
  6
CONTINUOUS
 62
    7
 10
1684.4020401325499
 20
1376.3410442226
 11
1681.4030681575496
 21
1376.2625133777001
  0
LINE
  8
_0-3_躯体
  6
CONTINUOUS
 62
    7
 10
1681.4096123945496
 20
1376.0125990464999
 11
1678.41064041955
 21
1375.9340682014999
  0
LINE
  8
_0-3_躯体
  6
CONTINUOUS
 62
    7
 10
1678.4040961825499
 20
1376.1839825328002
 11
1675.40512420755
 21
1376.1054516879001
  0
LINE
  8
_0-3_躯体
  6
CONTINUOUS
 62
    7
 10
1675.4116684445498
 20
1375.8555373566001
 11
1672.4126964695497
 21
1375.7770065116999
  0
LINE
  8
_0-3_躯体
  6
CONTINUOUS
 62
    7
 10
1672.4061522325496
 20
1376.0269208429002
 11
1669.40718025755
 21
1375.948389998
  0
LINE
  8
_0-3_躯体
  6
CONTINUOUS
 62
    7
 10
1669.4137244955498
 20
1375.6984756668001
 11
1666.4147525205499
 21
1375.6199448218001
  0
LINE
  8
_0-3_躯体
  6
CONTINUOUS
 62
    7
 10
1660.4168085705498
 20
1375.4628831320001
 11
1660.4102643335498
 21
1375.7127974632999
  0
LINE
  8
_0-3_躯体
  6
CONTINUOUS
 62
    7
 10
1663.41578054555
 20
1375.5414139769
 11
1663.4092363085499
 21
1375.7913283081998
  0
LINE
  8
_0-3_躯体
  6
CONTINUOUS
 62
    7
 10
1666.4082082835498
 20
1375.8698591530999
 11
1663.4092363085499
 21
1375.7913283081998
  0
LINE
  8
_0-3_躯体
  6
CONTINUOUS
 62
    7
 10
1663.41578054555
 20
1375.5414139769
 11
1660.4168085705498
 21
1375.4628831320001
  0
LINE
  8
_0-3_躯体
  6
CONTINUOUS
 62
    7
 10
1654.4188646205496
 20
1375.3058214422001
 11
1654.41232038355
 21
1375.5557357734001
  0
LINE
  8
_0-3_躯体
  6
CONTINUOUS
 62
    7
 10
1657.4178365955499
 20
1375.3843522871002
 11
1657.4112923585499
 21
1375.6342666183
  0
LINE
  8
_0-3_躯体
  6
CONTINUOUS
 62
    7
 10
1660.4102643335498
 20
1375.7127974631999
 11
1657.4112923585499
 21
1375.6342666183
  0
LINE
  8
_0-3_躯体
  6
CONTINUOUS
 62
    7
 10
1657.4178365955499
 20
1375.3843522871002
 11
1654.4188646205496
 21
1375.3058214422001
  0
LINE
  8
_0-3_躯体
  6
CONTINUOUS
 62
    7
 10
1648.42092067055
 20
1375.1487597523001
 11
1648.4143764335499
 21
1375.3986740836001
  0
LINE
  8
_0-3_躯体
  6
CONTINUOUS
 62
    7
 10
1651.4198926455499
 20
1375.2272905972002
 11
1651.4133484085496
 21
1375.4772049285
  0
LINE
  8
_0-3_躯体
  6
CONTINUOUS
 62
    7
 10
1654.41232038355
 20
1375.5557357734001
 11
1651.4133484085496
 21
1375.4772049285
  0
LINE
  8
_0-3_躯体
  6
CONTINUOUS
 62
    7
 10
1651.4198926455499
 20
1375.2272905972002
 11
1648.42092067055
 21
1375.1487597523001
  0
LINE
  8
_0-3_躯体
  6
CONTINUOUS
 62
    7
 10
1642.42297672055
 20
1374.9916980624998
 11
1642.4164324835497
 21
1375.2416123937001
  0
LINE
  8
_0-3_躯体
  6
CONTINUOUS
 62
    7
 10
1645.4219486955496
 20
1375.0702289074
 11
1645.4154044585498
 21
1375.3201432385999
  0
LINE
  8
_0-3_躯体
  6
CONTINUOUS
 62
    7
 10
1648.4143764335499
 20
1375.3986740836001
 11
1645.4154044585498
 21
1375.3201432385999
  0
LINE
  8
_0-3_躯体
  6
CONTINUOUS
 62
    7
 10
1645.4219486955496
 20
1375.0702289074
 11
1642.42297672055
 21
1374.9916980624998
  0
LINE
  8
_0-3_躯体
  6
CONTINUOUS
 62
    7
 10
1636.4250327705497
 20
1374.8346363726
 11
1636.4184885335499
 21
1375.0845507039
  0
LINE
  8
_0-3_躯体
  6
CONTINUOUS
 62
    7
 10
1639.4240047455498
 20
1374.9131672174999
 11
1639.41746050855
 21
1375.1630815488002
  0
LINE
  8
_0-3_躯体
  6
CONTINUOUS
 62
    7
 10
1642.4164324835497
 20
1375.2416123937001
 11
1639.41746050855
 21
1375.1630815488002
  0
LINE
  8
_0-3_躯体
  6
CONTINUOUS
 62
    7
 10
1639.4240047455498
 20
1374.9131672174999
 11
1636.4250327705497
 21
1374.8346363726
  0
LINE
  8
_0-3_躯体
  6
CONTINUOUS
 62
    7
 10
1630.4270888205499
 20
1374.6775746828
 11
1630.4205445835498
 21
1374.927489014
  0
LINE
  8
_0-3_躯体
  6
CONTINUOUS
 62
    7
 10
1633.4260607955498
 20
1374.7561055277001
 11
1633.4195165585497
 21
1375.0060198589001
  0
LINE
  8
_0-3_躯体
  6
CONTINUOUS
 62
    7
 10
1636.4184885335499
 20
1375.0845507038002
 11
1633.4195165585497
 21
1375.0060198589001
  0
LINE
  8
_0-3_躯体
  6
CONTINUOUS
 62
    7
 10
1633.4260607955498
 20
1374.7561055277001
 11
1630.4270888205499
 21
1374.6775746828
  0
LINE
  8
_0-3_躯体
  6
CONTINUOUS
 62
    7
 10
1624.4291448715499
 20
1374.5205129929
 11
1624.42260063455
 21
1374.7704273242
  0
LINE
  8
_0-3_躯体
  6
CONTINUOUS
 62
    7
 10
1627.42811684655
 20
1374.5990438377999
 11
1627.4215726085499
 21
1374.8489581691001
  0
LINE
  8
_0-3_躯体
  6
CONTINUOUS
 62
    7
 10
1630.4205445835498
 20
1374.927489014
 11
1627.4215726085499
 21
1374.8489581691001
  0
LINE
  8
_0-3_躯体
  6
CONTINUOUS
 62
    7
 10
1627.42811684655
 20
1374.5990438377999
 11
1624.4291448715499
 21
1374.5205129929
  0
LINE
  8
_0-3_躯体
  6
CONTINUOUS
 62
    7
 10
1618.4312009215498
 20
1374.3634513031002
 11
1618.42465668455
 21
1374.6133656343
  0
LINE
  8
_0-3_躯体
  6
CONTINUOUS
 62
    7
 10
1621.4301728965499
 20
1374.4419821480001
 11
1621.4236286595499
 21
1374.6918964792001
  0
LINE
  8
_0-3_躯体
  6
CONTINUOUS
 62
    7
 10
1624.42260063455
 20
1374.7704273242
 11
1621.4236286595499
 21
1374.6918964792001
  0
LINE
  8
_0-3_躯体
  6
CONTINUOUS
 62
    7
 10
1621.4301728965499
 20
1374.4419821480001
 11
1618.4312009215498
 21
1374.3634513031002
  0
LINE
  8
_0-3_躯体
  6
CONTINUOUS
 62
    7
 10
1612.43325697155
 20
1374.2063896131999
 11
1612.4267127345499
 21
1374.4563039444997
  0
LINE
  8
_0-3_躯体
  6
CONTINUOUS
 62
    7
 10
1615.4322289465499
 20
1374.2849204581
 11
1615.4256847095496
 21
1374.5348347893998
  0
LINE
  8
_0-3_躯体
  6
CONTINUOUS
 62
    7
 10
1618.42465668455
 20
1374.6133656343
 11
1615.4256847095496
 21
1374.5348347893998
  0
LINE
  8
_0-3_躯体
  6
CONTINUOUS
 62
    7
 10
1615.4322289465499
 20
1374.2849204581
 11
1612.43325697155
 21
1374.2063896131999
  0
LINE
  8
_0-3_躯体
  6
CONTINUOUS
 62
    7
 10
1609.4342849965499
 20
1374.1278587683
 11
1609.4277407595498
 21
1374.3777730994998
  0
LINE
  8
_0-3_躯体
  6
CONTINUOUS
 62
    7
 10
1612.4267127345499
 20
1374.4563039444997
 11
1609.4277407595498
 21
1374.3777730994998
  0
LINE
  8
_0-3_躯体
  6
CONTINUOUS
 62
    7
 10
1609.4342849965499
 20
1374.1278587683
 11
1607.9347990095498
 21
1374.0885933458001
  0
LINE
  8
_0-3_躯体
  6
CONTINUOUS
 62
    7
 10
1757.88339775555
 20
1375.2641929127001
 11
1870.2327999415497
 21
1372.3222202786999
  0
LINE
  8
_0-3_躯体
  6
CONTINUOUS
 62
    7
 10
1870.2327999415497
 20
1372.3222202786999
 11
1875.4627629425499
 21
1363.2636586395001
  0
LINE
  8
_0-3_躯体
  6
CONTINUOUS
 62
    7
 10
1875.4627629425499
 20
1363.2636586395001
 11
1877.8443328025496
 21
1364.6386586394999
  0
LINE
  8
_0-3_躯体
  6
CONTINUOUS
 62
    7
 10
1606.6357609035499
 20
1373.3385933457998
 11
1606.5107609035499
 21
1373.5550996968
  0
LINE
  8
_0-3_躯体
  6
CONTINUOUS
 62
    7
 10
1598.8415322695498
 20
1368.8385933458001
 11
1598.7165322695498
 21
1369.0550996968
  0
LINE
  8
_0-3_躯体
  6
CONTINUOUS
 62
    7
 10
1606.5107609035499
 20
1373.5550996968
 11
1603.9126846915499
 21
1372.0550996968
  0
LINE
  8
_0-3_躯体
  6
CONTINUOUS
 62
    7
 10
1601.3146084805499
 20
1370.5550996968
 11
1598.7165322695498
 21
1369.0550996968
  0
LINE
  8
_0-3_躯体
  6
CONTINUOUS
 62
    7
 10
1604.0376846915499
 20
1371.8385933458001
 11
1603.9126846915499
 21
1372.0550996968
  0
LINE
  8
_0-3_躯体
  6
CONTINUOUS
 62
    7
 10
1601.4396084805496
 20
1370.3385933458003
 11
1601.3146084805499
 21
1370.5550996968
  0
LINE
  8
_0-3_躯体
  6
CONTINUOUS
 62
    7
 10
1604.0376846915499
 20
1371.8385933458001
 11
1601.4396084805496
 21
1370.3385933458003
  0
LINE
  8
_0-3_躯体
  6
CONTINUOUS
 62
    7
 10
1598.8415322695498
 20
1368.8385933458001
 11
1597.5424941635497
 21
1368.0885933457998
  0
LINE
  8
_0-3_躯体
  6
CONTINUOUS
 62
    7
 10
1598.9174941635499
 20
1365.7070234854
 11
1597.5424941635497
 21
1368.0885933457998
  0
LINE
  8
_0-3_躯体
  6
CONTINUOUS
 62
    7
 10
1757.88339775555
 20
1375.2641929127001
 11
1608.70495731655
 21
1371.3578179715
  0
LINE
  8
_0-3_躯体
  6
CONTINUOUS
 62
    7
 10
1608.70495731655
 20
1371.3578179715
 11
1598.9174941635499
 21
1365.7070234854
  0
LINE
  8
_0-3_躯体
  6
CONTINUOUS
 62
    7
 10
1607.9347990095498
 20
1374.0885933458001
 11
1606.6357609035499
 21
1373.3385933457998
  0
TEXT
  8
_0-0_0
 62
    7
 10
652.73008234128611
 20
1625.8000845725223
 40
18.666666666666686
 41
0.7365159999999986
 50
0
  1
（ステンレス２５０タイプ）
  0
TEXT
  8
_0-0_0
 62
    7
 10
1472.266975026937
 20
1632.410100956241
 40
18.666666666666622
 41
0.7365160000000017
 50
0
  1
（ステンレス２５０タイプ）
  0
TEXT
  8
_0-0_0
 62
    7
 10
470.30156700795271
 20
1579.9992645725222
 40
23.333333333333336
 41
0.8025180000000005
 50
0
  1
◇床－床（２５０ＴＴ－ＧＰＳ）　Ｓ＝１／４
  0
TEXT
  8
_0-0_0
 62
    7
 10
1264.2155680269361
 20
1582.5146276229075
 40
23.333333333333336
 41
0.8032110000000004
 50
0
  1
◇床コーナー（２５０ＴＣ－ＧＰＳ）　Ｓ＝１／４
  0
ENDSEC
  0
EOF
