  0
SECTION
  2
HEADER
  9
$ACADVER
  1
AC1009
  9
$INSBASE
 10
0
 20
0
 30
0
  9
$EXTMIN
 10
0
 20
0
  9
$EXTMAX
 10
1680
 20
1188
  9
$LIMMIN
 10
0
 20
0
  9
$LIMMAX
 10
1680
 20
1188
  9
$LTSCALE
 40
4
  0
ENDSEC
  0
SECTION
  2
TABLES
  0
TABLE
  2
LTYPE
 70
     9
  0
LTYPE
  2
CONTINUOUS
 70
    64
  3
実線
 72
    65
 73
     0
 40
0.0
  0
LTYPE
  2
DASHED1
 70
    64
  3
--  --  --  --  --  --  --  --  
 72
    65
 73
     2
 40
2.5
 49
1.25
 49
-1.25
  0
LTYPE
  2
DASHED2
 70
    64
  3
----    ----    ----    ----    
 72
    65
 73
     2
 40
5.0
 49
2.5
 49
-2.5
  0
LTYPE
  2
DASHED3
 70
    64
  3
------  ------  ------  ------  
 72
    65
 73
     2
 40
5.0
 49
3.75
 49
-1.25
  0
LTYPE
  2
CENTER1
 70
    64
  3
----- - ----- - ----- - ----- - 
 72
    65
 73
     4
 40
10.0
 49
6.25
 49
-1.25
 49
1.25
 49
-1.25
  0
LTYPE
  2
CENTER2
 70
    64
  3
----------  --  ----------  --  
 72
    65
 73
     4
 40
20.0
 49
12.5
 49
-2.5
 49
2.5
 49
-2.5
  0
LTYPE
  2
PHANTOM1
 70
    64
  3
--- - - --- - - --- - - --- - - 
 72
    65
 73
     6
 40
10.0
 49
3.25
 49
-1.25
 49
1.25
 49
-1.25
 49
1.25
 49
-1.25
  0
LTYPE
  2
PHANTOM2
 70
    64
  3
--------  -  -  --------  -  -  
 72
    65
 73
     6
 40
20.0
 49
10.0
 49
-2.5
 49
1.25
 49
-2.5
 49
1.25
 49
-2.5
  0
LTYPE
  2
DOT
 70
    64
  3
-   -   -   -   -   -   -   -   
 72
    65
 73
     2
 40
2.5
 49
0.625
 49
-1.875
  0
LTYPE
  2
DUMMY
 70
    64
  3
ダミー
 72
    65
 73
     0
 40
0.0
  0
LTYPE
  2
RAND1
 70
    64
  3
ランダム線1
 72
    65
 73
     4
 40
10.0
 49
1.0
 49
-2.0
 49
3.0
 49
-4.0
  0
LTYPE
  2
RAND2
 70
    64
  3
ランダム線2
 72
    65
 73
     4
 40
14.0
 49
2.0
 49
-3.0
 49
4.0
 49
-5.0
  0
LTYPE
  2
RAND3
 70
    64
  3
ランダム線3
 72
    65
 73
     4
 40
18.0
 49
3.0
 49
-4.0
 49
5.0
 49
-6.0
  0
LTYPE
  2
RAND4
 70
    64
  3
ランダム線4
 72
    65
 73
     4
 40
22.0
 49
4.0
 49
-5.0
 49
6.0
 49
-7.0
  0
LTYPE
  2
RAND5
 70
    64
  3
ランダム線5
 72
    65
 73
     4
 40
26.0
 49
5.0
 49
-6.0
 49
7.0
 49
-8.0
  0
LTYPE
  2
LONG1
 70
    64
  3
----------  --  ----------  --  
 72
    65
 73
     4
 40
40.0
 49
32.5
 49
-2.5
 49
2.5
 49
-2.5
  0
LTYPE
  2
LONG2
 70
    64
  3
--------  -  -  --------  -  -  
 72
    65
 73
     6
 40
40.0
 49
30.0
 49
-2.5
 49
1.25
 49
-2.5
 49
1.25
 49
-2.5
  0
LTYPE
  2
LONG3
 70
    64
  3
+++++++++++++++..+++++++++++++++
 72
    65
 73
     2
 40
40.0
 49
37.5
 49
-2.5
  0
LTYPE
  2
LONG4
 70
    64
  3
+++++++++++++++..+++++++++++++++
 72
    65
 73
     2
 40
80.0
 49
75.0
 49
-5.0
  0
LTYPE
  2
LONG5
 70
    64
  3
----------  --  ----------  --  
 72
    65
 73
     4
 40
60.0
 49
37.5
 49
-7.5
 49
7.5
 49
-7.5
  0
LTYPE
  2
dashed
 70
   64
  3
-------   -------------   ------
 72
   65
 73
    2
 40
7.5
 49
6
 49
-1.5
  0
LTYPE
  2
dashed_spaced
 70
   64
  3
----        --------        ----
 72
   65
 73
    2
 40
12
 49
6
 49
-6
  0
LTYPE
  2
long_dashed_dotted
 70
   64
  3
------------- --- --------------
 72
   65
 73
    4
 40
15.25
 49
12
 49
-1.5
 49
0.25
 49
-1.5
  0
LTYPE
  2
long_dashed_double-dotted
 70
   64
  3
----------- --- --- ------------
 72
   65
 73
    6
 40
17
 49
12
 49
-1.5
 49
0.25
 49
-1.5
 49
0.25
 49
-1.5
  0
LTYPE
  2
long_dashed_triplicate-dotted
 70
   64
  3
--------- --- --- --- ----------
 72
   65
 73
    8
 40
18.75
 49
12
 49
-1.5
 49
0.25
 49
-1.5
 49
0.25
 49
-1.5
 49
0.25
 49
-1.5
  0
LTYPE
  2
dotted
 70
   64
  3
   -       -       -       -    
 72
   65
 73
    2
 40
1.75
 49
0.25
 49
-1.5
  0
LTYPE
  2
chain
 70
   64
  3
-------------- -- --------------
 72
   65
 73
    4
 40
18.5
 49
12
 49
-1.5
 49
3.5
 49
-1.5
  0
LTYPE
  2
chain_double_dash
 70
   64
  3
------------ -- -- -------------
 72
   65
 73
    6
 40
23.5
 49
12
 49
-1.5
 49
3.5
 49
-1.5
 49
3.5
 49
-1.5
  0
LTYPE
  2
dashed_dotted
 70
   64
  3
-----------     -     ----------
 72
   65
 73
    4
 40
9.25
 49
6
 49
-1.5
 49
0.25
 49
-1.5
  0
LTYPE
  2
double-dashed_dotted
 70
   64
  3
------   -----------   -   -----
 72
   65
 73
    6
 40
16.75
 49
6
 49
-1.5
 49
6
 49
-1.5
 49
0.25
 49
-1.5
  0
LTYPE
  2
dashed_double-dotted
 70
   64
  3
---------    -    -    ---------
 72
   65
 73
    6
 40
11
 49
6
 49
-1.5
 49
0.25
 49
-1.5
 49
0.25
 49
-1.5
  0
LTYPE
  2
double-dashed_double-dotted
 70
   64
  3
-----   ---------   -   -   ----
 72
   65
 73
    8
 40
18.5
 49
6
 49
-1.5
 49
6
 49
-1.5
 49
0.25
 49
-1.5
 49
0.25
 49
-1.5
  0
LTYPE
  2
dashed_triplicate-dotted
 70
   64
  3
-------    -    -    -    ------
 72
   65
 73
    8
 40
12.75
 49
6
 49
-1.5
 49
0.25
 49
-1.5
 49
0.25
 49
-1.5
 49
0.25
 49
-1.5
  0
LTYPE
  2
double-dashed_triplicate-dotted
 70
   64
  3
-----  ---------  -  -  -  -----
 72
   65
 73
   10
 40
20.25
 49
6
 49
-1.5
 49
6
 49
-1.5
 49
0.25
 49
-1.5
 49
0.25
 49
-1.5
 49
0.25
 49
-1.5
  0
LTYPE
  2
undefined
 70
   64
  3
--------------------------------
 72
   65
 73
    0
 40
0
  0
LTYPE
  2
DOT_17
 70
   64
  3
----        --------        ----
 72
   65
 73
    2
 40
2
 49
1
 49
-1
  0
LTYPE
  2
DASHED
 70
   64
  3
----        --------        ----
 72
   65
 73
    2
 40
4
 49
2
 49
-2
  0
LTYPE
  2
DASHED2_19
 70
   64
  3
-----      ----------      -----
 72
   65
 73
    2
 40
8
 49
5
 49
-3
  0
LTYPE
  2
CENTER
 70
   64
  3
--------------- - --------------
 72
   65
 73
    4
 40
23
 49
20
 49
-1
 49
1
 49
-1
  0
LTYPE
  2
CENTERX2
 70
   64
  3
--------------- - --------------
 72
   65
 73
    4
 40
43
 49
40
 49
-1
 49
1
 49
-1
  0
LTYPE
  2
CENTER2_22
 70
   64
  3
-------------  --  -------------
 72
   65
 73
    4
 40
13
 49
10
 49
-1
 49
1
 49
-1
  0
LTYPE
  2
PHANTOM
 70
   64
  3
-------------- - - -------------
 72
   65
 73
    6
 40
25
 49
20
 49
-1
 49
1
 49
-1
 49
1
 49
-1
  0
LTYPE
  2
PHANTOMX2
 70
   64
  3
-------------- - - -------------
 72
   65
 73
    6
 40
45
 49
40
 49
-1
 49
1
 49
-1
 49
1
 49
-1
  0
LTYPE
  2
PHANTOM2_25
 70
   64
  3
-----------  --  --  -----------
 72
   65
 73
    6
 40
15
 49
10
 49
-1
 49
1
 49
-1
 49
1
 49
-1
  0
LTYPE
  2
ACAD_ISO06W100
 70
   64
  3
------------- - - - ------------
 72
   65
 73
    8
 40
47
 49
40
 49
-1
 49
1
 49
-1
 49
1
 49
-1
 49
1
 49
-1
  0
LTYPE
  2
ACAD_ISO14W100
 70
   64
  3
------------- - - - ------------
 72
   65
 73
    8
 40
27
 49
20
 49
-1
 49
1
 49
-1
 49
1
 49
-1
 49
1
 49
-1
  0
LTYPE
  2
ACAD_ISO11W100
 70
   64
  3
------- -------------- - -------
 72
   65
 73
    6
 40
44
 49
20
 49
-1
 49
20
 49
-1
 49
1
 49
-1
  0
LTYPE
  2
ACAD_ISO13W100
 70
   64
  3
------- ------------- - - ------
 72
   65
 73
    8
 40
46
 49
20
 49
-1
 49
20
 49
-1
 49
1
 49
-1
 49
1
 49
-1
  0
LTYPE
  2
HIDDEN
 70
   64
  3
------     -----------     -----
 72
   65
 73
    2
 40
1.5
 49
1
 49
-0.5
  0
ENDTAB
  0
TABLE
  2
STYLE
  5
3
100
AcDbSymbolTable
 70
     1
  0
STYLE
  5
10
100
AcDbSymbolTableRecord
100
AcDbTextStyleTableRecord
  2
STANDARD
 70
     0
 40
0.0
 41
1.0
 50
0.0
 71
     0
 42
0.2
  3
txt
  4
bigfont.shx
  0
STYLE
  5
26
100
AcDbSymbolTableRecord
100
AcDbTextStyleTableRecord
  2
TATEGAKI
 70
    68
 40
0.0
 41
1.0
 50
0.0
 71
     0
 42
1.0
  3
txt
  4
bigfont.shx
  0
ENDTAB
  0
TABLE
  2
LAYER
 70
   13
  0
LAYER
  2
_0-0_0
 70
   64
 62
    7
  6
CONTINUOUS
  0
LAYER
  2
_0-1_図面枠
 70
   64
 62
    7
  6
CONTINUOUS
  0
LAYER
  2
_0-3_躯体
 70
   64
 62
    7
  6
CONTINUOUS
  0
LAYER
  2
_0-4_止水補助板
 70
   64
 62
    7
  6
CONTINUOUS
  0
LAYER
  2
_0-5_フレ_ム
 70
   64
 62
    7
  6
CONTINUOUS
  0
LAYER
  2
_0-6_センタ_プレ_ト
 70
   64
 62
    7
  6
CONTINUOUS
  0
LAYER
  2
_0-7_サイド
 70
   64
 62
    7
  6
CONTINUOUS
  0
LAYER
  2
_0-8_小物
 70
   64
 62
    7
  6
CONTINUOUS
  0
LAYER
  2
_0-9_その他
 70
   64
 62
    7
  6
CONTINUOUS
  0
LAYER
  2
_0-a_寸法
 70
   64
 62
    7
  6
CONTINUOUS
  0
LAYER
  2
_0-b_レイヤ1
 70
   64
 62
    7
  6
CONTINUOUS
  0
LAYER
  2
_0-c_レイヤ8
 70
   64
 62
    7
  6
CONTINUOUS
  0
LAYER
  2
ADD_LINE
 70
   64
 62
    7
  6
CONTINUOUS
  0
ENDTAB
  0
ENDSEC
  0
SECTION
  2
BLOCKS
  0
ENDSEC
  0
SECTION
  2
ENTITIES
  0
LINE
  8
_0-1_図面枠
  6
CONTINUOUS
 62
    7
 10
-0.0261254959999632
 20
93.498379524500024
 11
1999.9738745039999
 21
93.498379524500024
  0
LINE
  8
_0-1_図面枠
  6
CONTINUOUS
 62
    7
 10
1999.9738745039999
 20
1403.4983795245
 11
-0.0261254959999632
 21
1403.4983795245
  0
LINE
  8
_0-1_図面枠
  6
CONTINUOUS
 62
    7
 10
-0.0261254959999632
 20
1403.4983795245
 11
-0.0261254959999632
 21
93.498379524500024
  0
LINE
  8
_0-1_図面枠
  6
CONTINUOUS
 62
    7
 10
999.97387450400004
 20
1403.4983795245
 11
999.97387450400004
 21
93.498379524500024
  0
LINE
  8
_0-1_図面枠
  6
CONTINUOUS
 62
    7
 10
1999.9738745039999
 20
93.498379524500024
 11
1999.9738745039999
 21
1403.4983795245
  0
LINE
  8
_0-5_フレ_ム
  6
CONTINUOUS
 62
    7
 10
357.06122746940002
 20
997.92663047589997
 11
357.06122746940002
 21
995.92663047589997
  0
LINE
  8
_0-5_フレ_ム
  6
CONTINUOUS
 62
    7
 10
372.06122746940002
 20
997.92663047589997
 11
372.06122746940002
 21
995.92663047589997
  0
LINE
  8
_0-5_フレ_ム
  6
CONTINUOUS
 62
    7
 10
365.06122746940002
 20
997.92663047589997
 11
384.56122746940002
 21
997.92663047589997
  0
ARC
  8
_0-5_フレ_ム
  6
CONTINUOUS
 62
    7
 10
343.06122746940002
 20
999.92663047589997
 40
2
 50
180
 51
270
  0
LINE
  8
_0-5_フレ_ム
  6
CONTINUOUS
 62
    7
 10
364.06122746940002
 20
997.92663047589997
 11
343.06122746940002
 21
997.92663047589997
  0
LINE
  8
_0-5_フレ_ム
  6
CONTINUOUS
 62
    7
 10
433.56122746940002
 20
995.42663047589997
 11
376.06122746940002
 21
995.42663047589997
  0
LINE
  8
_0-5_フレ_ム
  6
CONTINUOUS
 62
    7
 10
341.06122746940002
 20
999.92663047589997
 11
341.06122746940002
 21
1011.4266304759
  0
ARC
  8
_0-5_フレ_ム
  6
CONTINUOUS
 62
    7
 10
338.06122746940002
 20
1011.9266304759
 40
0.5
 50
270
 51
0
  0
LINE
  8
_0-5_フレ_ム
  6
CONTINUOUS
 62
    7
 10
338.06122746940002
 20
1011.4266304759
 11
336.56122746940002
 21
1011.4266304759
  0
LINE
  8
_0-5_フレ_ム
  6
CONTINUOUS
 62
    7
 10
335.06122746940002
 20
1009.9266304759
 11
337.56122746940002
 21
1009.9266304759
  0
ARC
  8
_0-5_フレ_ム
  6
CONTINUOUS
 62
    7
 10
337.56122746940002
 20
1008.9266304759
 40
1
 50
0
 51
90
  0
LINE
  8
_0-5_フレ_ム
  6
CONTINUOUS
 62
    7
 10
338.56122746940002
 20
1008.9266304759
 11
338.56122746940002
 21
999.92663047589997
  0
LINE
  8
_0-5_フレ_ム
  6
CONTINUOUS
 62
    7
 10
338.56122746940002
 20
1011.9266304759
 11
338.56122746940002
 21
1015.9266304759
  0
ARC
  8
_0-5_フレ_ム
  6
CONTINUOUS
 62
    7
 10
428.56122746940002
 20
1001.9266304759
 40
3
 50
270
 51
0
  0
LINE
  8
_0-5_フレ_ム
  6
CONTINUOUS
 62
    7
 10
353.06122746940002
 20
995.42663047589997
 11
353.06122746940002
 21
995.92663047589997
  0
LINE
  8
_0-5_フレ_ム
  6
CONTINUOUS
 62
    7
 10
353.06122746940002
 20
995.92663047589997
 11
358.06122746940002
 21
995.92663047589997
  0
LINE
  8
_0-5_フレ_ム
  6
CONTINUOUS
 62
    7
 10
358.06122746940002
 20
995.92663047589997
 11
358.06122746940002
 21
995.42663047589997
  0
LINE
  8
_0-5_フレ_ム
  6
CONTINUOUS
 62
    7
 10
371.06122746940002
 20
995.42663047589997
 11
371.06122746940002
 21
995.92663047589997
  0
LINE
  8
_0-5_フレ_ム
  6
CONTINUOUS
 62
    7
 10
371.06122746940002
 20
995.92663047589997
 11
376.06122746940002
 21
995.92663047589997
  0
LINE
  8
_0-5_フレ_ム
  6
CONTINUOUS
 62
    7
 10
376.06122746940002
 20
995.92663047589997
 11
376.06122746940002
 21
995.42663047589997
  0
LINE
  8
_0-5_フレ_ム
  6
CONTINUOUS
 62
    7
 10
353.06122746940002
 20
995.42663047589997
 11
336.06122746940002
 21
995.42663047589997
  0
LINE
  8
_0-5_フレ_ム
  6
CONTINUOUS
 62
    7
 10
331.06122746940002
 20
995.42663047589997
 11
318.06122746940002
 21
995.42663047589997
  0
LINE
  8
_0-5_フレ_ム
  6
CONTINUOUS
 62
    7
 10
313.06122746940002
 20
995.42663047589997
 11
310.06122746940002
 21
995.42663047589997
  0
LINE
  8
_0-5_フレ_ム
  6
CONTINUOUS
 62
    7
 10
358.06122746940002
 20
995.42663047589997
 11
371.06122746940002
 21
995.42663047589997
  0
LINE
  8
_0-5_フレ_ム
  6
CONTINUOUS
 62
    7
 10
365.06122746940002
 20
997.92663047589997
 11
364.56122746940002
 21
997.42663047589997
  0
LINE
  8
_0-5_フレ_ム
  6
CONTINUOUS
 62
    7
 10
364.06122746940002
 20
997.92663047589997
 11
364.56122746940002
 21
997.42663047589997
  0
ARC
  8
_0-5_フレ_ム
  6
CONTINUOUS
 62
    7
 10
433.56122746940002
 20
996.42663047589997
 40
1
 50
270
 51
0
  0
LINE
  8
_0-5_フレ_ム
  6
CONTINUOUS
 62
    7
 10
434.56122746940002
 20
1005.1766304759
 11
434.56122746940002
 21
996.42663047589997
  0
ARC
  8
_0-5_フレ_ム
  6
CONTINUOUS
 62
    7
 10
335.06122746940002
 20
1010.4266304759
 40
0.5
 50
180
 51
270
  0
LINE
  8
_0-5_フレ_ム
  6
CONTINUOUS
 62
    7
 10
334.56122746940002
 20
1018.1766304759
 11
334.56122746940002
 21
1010.4266304759
  0
ARC
  8
_0-5_フレ_ム
  6
CONTINUOUS
 62
    7
 10
336.56122746940002
 20
1011.9266304759
 40
0.5
 50
180
 51
270
  0
LINE
  8
_0-5_フレ_ム
  6
CONTINUOUS
 62
    7
 10
336.06122746940002
 20
1018.1766304759
 11
336.06122746940002
 21
1011.9266304759
  0
LINE
  8
_0-5_フレ_ム
  6
CONTINUOUS
 62
    7
 10
342.06122746940002
 20
1014.9266304759
 11
342.06122746940002
 21
1015.9266304759
  0
LINE
  8
_0-5_フレ_ム
  6
CONTINUOUS
 62
    7
 10
350.06122746940002
 20
1014.9266304759
 11
346.56122746940002
 21
1014.9266304759
  0
LINE
  8
_0-5_フレ_ム
  6
CONTINUOUS
 62
    7
 10
342.06122746940002
 20
1014.9266304759
 11
345.56122746940002
 21
1014.9266304759
  0
LINE
  8
_0-5_フレ_ム
  6
CONTINUOUS
 62
    7
 10
350.06122746940002
 20
1014.9266304759
 11
350.06122746940002
 21
1015.9266304759
  0
ARC
  8
_0-5_フレ_ム
  6
CONTINUOUS
 62
    7
 10
350.56122746940002
 20
1015.9266304759
 40
0.5
 50
90
 51
180
  0
ARC
  8
_0-5_フレ_ム
  6
CONTINUOUS
 62
    7
 10
353.06122746940002
 20
1015.9266304759
 40
0.5
 50
0
 51
90
  0
LINE
  8
_0-5_フレ_ム
  6
CONTINUOUS
 62
    7
 10
350.56122746940002
 20
1016.4266304759
 11
353.06122746940002
 21
1016.4266304759
  0
ARC
  8
_0-5_フレ_ム
  6
CONTINUOUS
 62
    7
 10
339.06122746940002
 20
1015.9266304759
 40
0.5
 50
90
 51
180
  0
ARC
  8
_0-5_フレ_ム
  6
CONTINUOUS
 62
    7
 10
341.56122746940002
 20
1015.9266304759
 40
0.5
 50
0
 51
90
  0
LINE
  8
_0-5_フレ_ム
  6
CONTINUOUS
 62
    7
 10
353.56122746940002
 20
1014.4266304759
 11
353.56122746940002
 21
1015.9266304759
  0
ARC
  8
_0-5_フレ_ム
  6
CONTINUOUS
 62
    7
 10
351.56122746940002
 20
1014.4266304759
 40
2
 50
270
 51
0
  0
ARC
  8
_0-5_フレ_ム
  6
CONTINUOUS
 62
    7
 10
342.06122746940002
 20
1011.4266304759
 40
1
 50
90
 51
180
  0
LINE
  8
_0-5_フレ_ム
  6
CONTINUOUS
 62
    7
 10
351.56122746940002
 20
1012.4266304759
 11
342.06122746940002
 21
1012.4266304759
  0
ARC
  8
_0-5_フレ_ム
  6
CONTINUOUS
 62
    7
 10
335.31122746940002
 20
1018.1766304759
 40
0.75
 50
0
 51
180
  0
LINE
  8
_0-5_フレ_ム
  6
CONTINUOUS
 62
    7
 10
346.56122746940002
 20
1014.9266304759
 11
346.06122746940002
 21
1014.4266304759
  0
LINE
  8
_0-5_フレ_ム
  6
CONTINUOUS
 62
    7
 10
345.56122746940002
 20
1014.9266304759
 11
346.06122746940002
 21
1014.4266304759
  0
LINE
  8
_0-5_フレ_ム
  6
CONTINUOUS
 62
    7
 10
350.56122746940002
 20
1016.4266304759
 11
353.06122746940002
 21
1016.4266304759
  0
LINE
  8
_0-5_フレ_ム
  6
CONTINUOUS
 62
    7
 10
317.06122746940002
 20
997.92663047589997
 11
317.06122746940002
 21
995.92663047589997
  0
LINE
  8
_0-5_フレ_ム
  6
CONTINUOUS
 62
    7
 10
332.06122746940002
 20
997.92663047589997
 11
332.06122746940002
 21
995.92663047589997
  0
LINE
  8
_0-5_フレ_ム
  6
CONTINUOUS
 62
    7
 10
313.06122746940002
 20
995.42663047589997
 11
313.06122746940002
 21
995.92663047589997
  0
LINE
  8
_0-5_フレ_ム
  6
CONTINUOUS
 62
    7
 10
313.06122746940002
 20
995.92663047589997
 11
318.06122746940002
 21
995.92663047589997
  0
LINE
  8
_0-5_フレ_ム
  6
CONTINUOUS
 62
    7
 10
318.06122746940002
 20
995.92663047589997
 11
318.06122746940002
 21
995.42663047589997
  0
LINE
  8
_0-5_フレ_ム
  6
CONTINUOUS
 62
    7
 10
331.06122746940002
 20
995.42663047589997
 11
331.06122746940002
 21
995.92663047589997
  0
LINE
  8
_0-5_フレ_ム
  6
CONTINUOUS
 62
    7
 10
331.06122746940002
 20
995.92663047589997
 11
336.06122746940002
 21
995.92663047589997
  0
LINE
  8
_0-5_フレ_ム
  6
CONTINUOUS
 62
    7
 10
336.06122746940002
 20
995.92663047589997
 11
336.06122746940002
 21
995.42663047589997
  0
ARC
  8
_0-5_フレ_ム
  6
CONTINUOUS
 62
    7
 10
336.56122746940002
 20
999.92663047589997
 40
2
 50
270
 51
0
  0
ARC
  8
_0-5_フレ_ム
  6
CONTINUOUS
 62
    7
 10
310.06122746940002
 20
995.92663047589997
 40
0.5
 50
180
 51
270
  0
ARC
  8
_0-5_フレ_ム
  6
CONTINUOUS
 62
    7
 10
310.06122746940002
 20
997.42663047589997
 40
0.5
 50
90
 51
180
  0
LINE
  8
_0-5_フレ_ム
  6
CONTINUOUS
 62
    7
 10
336.56122746940002
 20
997.92663047589997
 11
310.06122746940002
 21
997.92663047589997
  0
LINE
  8
_0-5_フレ_ム
  6
CONTINUOUS
 62
    7
 10
309.56122746940002
 20
997.42663047589997
 11
309.56122746940002
 21
995.92663047589997
  0
LINE
  8
_0-5_フレ_ム
  6
CONTINUOUS
 62
    7
 10
339.06122746940002
 20
1016.4266304759
 11
341.56122746940002
 21
1016.4266304759
  0
LINE
  8
_0-5_フレ_ム
  6
CONTINUOUS
 62
    7
 10
339.06122746940002
 20
1016.4266304759
 11
341.56122746940002
 21
1016.4266304759
  0
LINE
  8
_0-5_フレ_ム
  6
CONTINUOUS
 62
    7
 10
384.56122746940002
 20
997.92663047589997
 11
389.56122746940002
 21
998.92663047589997
  0
LINE
  8
_0-5_フレ_ム
  6
CONTINUOUS
 62
    7
 10
389.56122746940002
 20
998.92663047589997
 11
428.56122746940002
 21
998.92663047589997
  0
LINE
  8
_0-5_フレ_ム
  6
CONTINUOUS
 62
    7
 10
436.06122746940002
 20
1010.1766304759
 11
436.06122746940002
 21
1005.1766304759
  0
LINE
  8
_0-5_フレ_ム
  6
CONTINUOUS
 62
    7
 10
436.06122746940002
 20
1005.1766304759
 11
434.56122746940002
 21
1005.1766304759
  0
LINE
  8
_0-5_フレ_ム
  6
CONTINUOUS
 62
    7
 10
431.56122746940002
 20
1005.1766304759
 11
430.06122746940002
 21
1005.1766304759
  0
LINE
  8
_0-5_フレ_ム
  6
CONTINUOUS
 62
    7
 10
430.06122746940002
 20
1005.1766304759
 11
430.06122746940002
 21
1010.1766304759
  0
LINE
  8
_0-5_フレ_ム
  6
CONTINUOUS
 62
    7
 10
431.56122746940002
 20
1010.1766304759
 11
431.56123246940001
 21
1007.1766304759
  0
LINE
  8
_0-5_フレ_ム
  6
CONTINUOUS
 62
    7
 10
431.56123246940001
 20
1005.1766304759
 11
431.56122746940002
 21
1001.9266254759
  0
LINE
  8
_0-5_フレ_ム
  6
CONTINUOUS
 62
    7
 10
434.56122746940002
 20
1010.1766304759
 11
434.56122746940002
 21
1007.1766304759
  0
ARC
  8
_0-5_フレ_ム
  6
CONTINUOUS
 62
    7
 10
433.06122746940002
 20
1010.1766304759
 40
1.7
 50
0
 51
180
  0
ARC
  8
_0-5_フレ_ム
  6
CONTINUOUS
 62
    7
 10
433.06123746940006
 20
1010.1766304759
 40
1.499995
 50
0
 51
180
  0
ARC
  8
_0-5_フレ_ム
  6
CONTINUOUS
 62
    7
 10
433.06122746940002
 20
1010.1766304759
 40
3
 50
0
 51
180
  0
LINE
  8
_0-5_フレ_ム
  6
CONTINUOUS
 62
    7
 10
431.56123246940001
 20
1007.1766304759
 11
432.06123246940001
 21
1007.1766304759
  0
LINE
  8
_0-5_フレ_ム
  6
CONTINUOUS
 62
    7
 10
432.06123246940001
 20
1007.1766304759
 11
431.56122746940002
 21
1005.1766304759
  0
LINE
  8
_0-5_フレ_ム
  6
CONTINUOUS
 62
    7
 10
434.56122746940002
 20
1007.1766304759
 11
434.06122746940002
 21
1007.1766304759
  0
LINE
  8
_0-5_フレ_ム
  6
CONTINUOUS
 62
    7
 10
434.06122746940002
 20
1007.1766304759
 11
434.56122746940002
 21
1005.1766304759
  0
LINE
  8
_0-5_フレ_ム
  6
CONTINUOUS
 62
    7
 10
431.56123246940001
 20
1007.1766304759
 11
431.36123246940002
 21
1007.1766304759
  0
LINE
  8
_0-5_フレ_ム
  6
CONTINUOUS
 62
    7
 10
431.36123246940002
 20
1007.1766304759
 11
431.36122746940003
 21
1010.1766304759
  0
LINE
  8
_0-5_フレ_ム
  6
CONTINUOUS
 62
    7
 10
434.56122746940002
 20
1007.1766304759
 11
434.76122746940001
 21
1007.1766304759
  0
LINE
  8
_0-5_フレ_ム
  6
CONTINUOUS
 62
    7
 10
434.76122746940001
 20
1007.1766304759
 11
434.76122746940001
 21
1010.1766304759
  0
LINE
  8
_0-5_フレ_ム
  6
CONTINUOUS
 62
    7
 10
642.06122746940002
 20
997.92663047589997
 11
642.06122746940002
 21
995.92663047589997
  0
LINE
  8
_0-5_フレ_ム
  6
CONTINUOUS
 62
    7
 10
627.06122746940002
 20
997.92663047589997
 11
627.06122746940002
 21
995.92663047589997
  0
LINE
  8
_0-5_フレ_ム
  6
CONTINUOUS
 62
    7
 10
634.06122746940002
 20
997.92663047589997
 11
614.56122746940002
 21
997.92663047589997
  0
ARC
  8
_0-5_フレ_ム
  6
CONTINUOUS
 62
    7
 10
656.06122746940002
 20
999.92663047589997
 40
2
 50
270
 51
0
  0
LINE
  8
_0-5_フレ_ム
  6
CONTINUOUS
 62
    7
 10
635.06122746940002
 20
997.92663047589997
 11
656.06122746940002
 21
997.92663047589997
  0
LINE
  8
_0-5_フレ_ム
  6
CONTINUOUS
 62
    7
 10
565.56122746940002
 20
995.42663047589997
 11
623.06122746940002
 21
995.42663047589997
  0
LINE
  8
_0-5_フレ_ム
  6
CONTINUOUS
 62
    7
 10
658.06122746940002
 20
999.92663047589997
 11
658.06122746940002
 21
1011.4266304759
  0
ARC
  8
_0-5_フレ_ム
  6
CONTINUOUS
 62
    7
 10
661.06122746940002
 20
1011.9266304759
 40
0.5
 50
180
 51
270
  0
LINE
  8
_0-5_フレ_ム
  6
CONTINUOUS
 62
    7
 10
661.06122746940002
 20
1011.4266304759
 11
662.56122746940002
 21
1011.4266304759
  0
LINE
  8
_0-5_フレ_ム
  6
CONTINUOUS
 62
    7
 10
664.06122746940002
 20
1009.9266304759
 11
661.56122746940002
 21
1009.9266304759
  0
ARC
  8
_0-5_フレ_ム
  6
CONTINUOUS
 62
    7
 10
661.56122746940002
 20
1008.9266304759
 40
1
 50
90
 51
180
  0
LINE
  8
_0-5_フレ_ム
  6
CONTINUOUS
 62
    7
 10
660.56122746940002
 20
1008.9266304759
 11
660.56122746940002
 21
999.92663047589997
  0
LINE
  8
_0-5_フレ_ム
  6
CONTINUOUS
 62
    7
 10
660.56122746940002
 20
1011.9266304759
 11
660.56122746940002
 21
1015.9266304759
  0
ARC
  8
_0-5_フレ_ム
  6
CONTINUOUS
 62
    7
 10
570.56122746940002
 20
1001.9266304759
 40
3
 50
180
 51
270
  0
LINE
  8
_0-5_フレ_ム
  6
CONTINUOUS
 62
    7
 10
646.06122746940002
 20
995.42663047589997
 11
646.06122746940002
 21
995.92663047589997
  0
LINE
  8
_0-5_フレ_ム
  6
CONTINUOUS
 62
    7
 10
646.06122746940002
 20
995.92663047589997
 11
641.06122746940002
 21
995.92663047589997
  0
LINE
  8
_0-5_フレ_ム
  6
CONTINUOUS
 62
    7
 10
641.06122746940002
 20
995.92663047589997
 11
641.06122746940002
 21
995.42663047589997
  0
LINE
  8
_0-5_フレ_ム
  6
CONTINUOUS
 62
    7
 10
628.06122746940002
 20
995.42663047589997
 11
628.06122746940002
 21
995.92663047589997
  0
LINE
  8
_0-5_フレ_ム
  6
CONTINUOUS
 62
    7
 10
628.06122746940002
 20
995.92663047589997
 11
623.06122746940002
 21
995.92663047589997
  0
LINE
  8
_0-5_フレ_ム
  6
CONTINUOUS
 62
    7
 10
623.06122746940002
 20
995.92663047589997
 11
623.06122746940002
 21
995.42663047589997
  0
LINE
  8
_0-5_フレ_ム
  6
CONTINUOUS
 62
    7
 10
646.06122746940002
 20
995.42663047589997
 11
663.06122746940002
 21
995.42663047589997
  0
LINE
  8
_0-5_フレ_ム
  6
CONTINUOUS
 62
    7
 10
668.06122746940002
 20
995.42663047589997
 11
681.06122746940002
 21
995.42663047589997
  0
LINE
  8
_0-5_フレ_ム
  6
CONTINUOUS
 62
    7
 10
686.06122746940002
 20
995.42663047589997
 11
689.06122746940002
 21
995.42663047589997
  0
LINE
  8
_0-5_フレ_ム
  6
CONTINUOUS
 62
    7
 10
641.06122746940002
 20
995.42663047589997
 11
628.06122746940002
 21
995.42663047589997
  0
LINE
  8
_0-5_フレ_ム
  6
CONTINUOUS
 62
    7
 10
634.06122746940002
 20
997.92663047589997
 11
634.56122746940002
 21
997.42663047589997
  0
LINE
  8
_0-5_フレ_ム
  6
CONTINUOUS
 62
    7
 10
635.06122746940002
 20
997.92663047589997
 11
634.56122746940002
 21
997.42663047589997
  0
ARC
  8
_0-5_フレ_ム
  6
CONTINUOUS
 62
    7
 10
565.56122746940002
 20
996.42663047589997
 40
1
 50
180
 51
270
  0
LINE
  8
_0-5_フレ_ム
  6
CONTINUOUS
 62
    7
 10
564.56122746940002
 20
1005.1766304759
 11
564.56122746940002
 21
996.42663047589997
  0
ARC
  8
_0-5_フレ_ム
  6
CONTINUOUS
 62
    7
 10
664.06122746940002
 20
1010.4266304759
 40
0.5
 50
270
 51
0
  0
LINE
  8
_0-5_フレ_ム
  6
CONTINUOUS
 62
    7
 10
664.56122746940002
 20
1018.1766304759
 11
664.56122746940002
 21
1010.4266304759
  0
ARC
  8
_0-5_フレ_ム
  6
CONTINUOUS
 62
    7
 10
662.56122746940002
 20
1011.9266304759
 40
0.5
 50
270
 51
0
  0
LINE
  8
_0-5_フレ_ム
  6
CONTINUOUS
 62
    7
 10
663.06122746940002
 20
1018.1766304759
 11
663.06122746940002
 21
1011.9266304759
  0
LINE
  8
_0-5_フレ_ム
  6
CONTINUOUS
 62
    7
 10
657.06122746940002
 20
1014.9266304759
 11
657.06122746940002
 21
1015.9266304759
  0
LINE
  8
_0-5_フレ_ム
  6
CONTINUOUS
 62
    7
 10
649.06122746940002
 20
1014.9266304759
 11
652.56122746940002
 21
1014.9266304759
  0
LINE
  8
_0-5_フレ_ム
  6
CONTINUOUS
 62
    7
 10
657.06122746940002
 20
1014.9266304759
 11
653.56122746940002
 21
1014.9266304759
  0
LINE
  8
_0-5_フレ_ム
  6
CONTINUOUS
 62
    7
 10
649.06122746940002
 20
1014.9266304759
 11
649.06122746940002
 21
1015.9266304759
  0
ARC
  8
_0-5_フレ_ム
  6
CONTINUOUS
 62
    7
 10
648.56122746940002
 20
1015.9266304759
 40
0.5
 50
0
 51
90
  0
ARC
  8
_0-5_フレ_ム
  6
CONTINUOUS
 62
    7
 10
646.06122746940002
 20
1015.9266304759
 40
0.5
 50
90
 51
180
  0
LINE
  8
_0-5_フレ_ム
  6
CONTINUOUS
 62
    7
 10
648.56122746940002
 20
1016.4266304759
 11
646.06122746940002
 21
1016.4266304759
  0
ARC
  8
_0-5_フレ_ム
  6
CONTINUOUS
 62
    7
 10
660.06122746940002
 20
1015.9266304759
 40
0.5
 50
0
 51
90
  0
ARC
  8
_0-5_フレ_ム
  6
CONTINUOUS
 62
    7
 10
657.56122746940002
 20
1015.9266304759
 40
0.5
 50
90
 51
180
  0
LINE
  8
_0-5_フレ_ム
  6
CONTINUOUS
 62
    7
 10
645.56122746940002
 20
1014.4266304759
 11
645.56122746940002
 21
1015.9266304759
  0
ARC
  8
_0-5_フレ_ム
  6
CONTINUOUS
 62
    7
 10
647.56122746940002
 20
1014.4266304759
 40
2
 50
180
 51
270
  0
ARC
  8
_0-5_フレ_ム
  6
CONTINUOUS
 62
    7
 10
657.06122746940002
 20
1011.4266304759
 40
1
 50
0
 51
90
  0
LINE
  8
_0-5_フレ_ム
  6
CONTINUOUS
 62
    7
 10
647.56122746940002
 20
1012.4266304759
 11
657.06122746940002
 21
1012.4266304759
  0
ARC
  8
_0-5_フレ_ム
  6
CONTINUOUS
 62
    7
 10
663.81122746940002
 20
1018.1766304759
 40
0.75
 50
0
 51
180
  0
LINE
  8
_0-5_フレ_ム
  6
CONTINUOUS
 62
    7
 10
652.56122746940002
 20
1014.9266304759
 11
653.06122746940002
 21
1014.4266304759
  0
LINE
  8
_0-5_フレ_ム
  6
CONTINUOUS
 62
    7
 10
653.56122746940002
 20
1014.9266304759
 11
653.06122746940002
 21
1014.4266304759
  0
LINE
  8
_0-5_フレ_ム
  6
CONTINUOUS
 62
    7
 10
648.56122746940002
 20
1016.4266304759
 11
646.06122746940002
 21
1016.4266304759
  0
LINE
  8
_0-5_フレ_ム
  6
CONTINUOUS
 62
    7
 10
682.06122746940002
 20
997.92663047589997
 11
682.06122746940002
 21
995.92663047589997
  0
LINE
  8
_0-5_フレ_ム
  6
CONTINUOUS
 62
    7
 10
667.06122746940002
 20
997.92663047589997
 11
667.06122746940002
 21
995.92663047589997
  0
LINE
  8
_0-5_フレ_ム
  6
CONTINUOUS
 62
    7
 10
686.06122746940002
 20
995.42663047589997
 11
686.06122746940002
 21
995.92663047589997
  0
LINE
  8
_0-5_フレ_ム
  6
CONTINUOUS
 62
    7
 10
686.06122746940002
 20
995.92663047589997
 11
681.06122746940002
 21
995.92663047589997
  0
LINE
  8
_0-5_フレ_ム
  6
CONTINUOUS
 62
    7
 10
681.06122746940002
 20
995.92663047589997
 11
681.06122746940002
 21
995.42663047589997
  0
LINE
  8
_0-5_フレ_ム
  6
CONTINUOUS
 62
    7
 10
668.06122746940002
 20
995.42663047589997
 11
668.06122746940002
 21
995.92663047589997
  0
LINE
  8
_0-5_フレ_ム
  6
CONTINUOUS
 62
    7
 10
668.06122746940002
 20
995.92663047589997
 11
663.06122746940002
 21
995.92663047589997
  0
LINE
  8
_0-5_フレ_ム
  6
CONTINUOUS
 62
    7
 10
663.06122746940002
 20
995.92663047589997
 11
663.06122746940002
 21
995.42663047589997
  0
ARC
  8
_0-5_フレ_ム
  6
CONTINUOUS
 62
    7
 10
662.56122746940002
 20
999.92663047589997
 40
2
 50
180
 51
270
  0
ARC
  8
_0-5_フレ_ム
  6
CONTINUOUS
 62
    7
 10
689.06122746940002
 20
995.92663047589997
 40
0.5
 50
270
 51
0
  0
ARC
  8
_0-5_フレ_ム
  6
CONTINUOUS
 62
    7
 10
689.06122746940002
 20
997.42663047589997
 40
0.5
 50
0
 51
90
  0
LINE
  8
_0-5_フレ_ム
  6
CONTINUOUS
 62
    7
 10
662.56122746940002
 20
997.92663047589997
 11
689.06122746940002
 21
997.92663047589997
  0
LINE
  8
_0-5_フレ_ム
  6
CONTINUOUS
 62
    7
 10
689.56122746940002
 20
997.42663047589997
 11
689.56122746940002
 21
995.92663047589997
  0
LINE
  8
_0-5_フレ_ム
  6
CONTINUOUS
 62
    7
 10
660.06122746940002
 20
1016.4266304759
 11
657.56122746940002
 21
1016.4266304759
  0
LINE
  8
_0-5_フレ_ム
  6
CONTINUOUS
 62
    7
 10
660.06122746940002
 20
1016.4266304759
 11
657.56122746940002
 21
1016.4266304759
  0
LINE
  8
_0-5_フレ_ム
  6
CONTINUOUS
 62
    7
 10
614.56122746940002
 20
997.92663047589997
 11
609.56122746940002
 21
998.92663047589997
  0
LINE
  8
_0-5_フレ_ム
  6
CONTINUOUS
 62
    7
 10
609.56122746940002
 20
998.92663047589997
 11
570.56122746940002
 21
998.92663047589997
  0
LINE
  8
_0-5_フレ_ム
  6
CONTINUOUS
 62
    7
 10
563.06122746940002
 20
1010.1766304759
 11
563.06122746940002
 21
1005.1766304759
  0
LINE
  8
_0-5_フレ_ム
  6
CONTINUOUS
 62
    7
 10
563.06122746940002
 20
1005.1766304759
 11
564.56122746940002
 21
1005.1766304759
  0
LINE
  8
_0-5_フレ_ム
  6
CONTINUOUS
 62
    7
 10
567.56122746940002
 20
1005.1766304759
 11
569.06122746940002
 21
1005.1766304759
  0
LINE
  8
_0-5_フレ_ム
  6
CONTINUOUS
 62
    7
 10
569.06122746940002
 20
1005.1766304759
 11
569.06122746940002
 21
1010.1766304759
  0
LINE
  8
_0-5_フレ_ム
  6
CONTINUOUS
 62
    7
 10
567.56122746940002
 20
1010.1766304759
 11
567.56122246940004
 21
1007.1766304759
  0
LINE
  8
_0-5_フレ_ム
  6
CONTINUOUS
 62
    7
 10
567.56122246940004
 20
1005.1766304759
 11
567.56122746940002
 21
1001.9266254759
  0
LINE
  8
_0-5_フレ_ム
  6
CONTINUOUS
 62
    7
 10
564.56122746940002
 20
1010.1766304759
 11
564.56122746940002
 21
1007.1766304759
  0
ARC
  8
_0-5_フレ_ム
  6
CONTINUOUS
 62
    7
 10
566.06122746940002
 20
1010.1766304759
 40
1.7
 50
0
 51
180
  0
ARC
  8
_0-5_フレ_ム
  6
CONTINUOUS
 62
    7
 10
566.06121746940005
 20
1010.1766304759
 40
1.499995
 50
0
 51
180
  0
ARC
  8
_0-5_フレ_ム
  6
CONTINUOUS
 62
    7
 10
566.06122746940002
 20
1010.1766304759
 40
3
 50
0
 51
180
  0
LINE
  8
_0-5_フレ_ム
  6
CONTINUOUS
 62
    7
 10
567.56122246940004
 20
1007.1766304759
 11
567.06122246940004
 21
1007.1766304759
  0
LINE
  8
_0-5_フレ_ム
  6
CONTINUOUS
 62
    7
 10
567.06122246940004
 20
1007.1766304759
 11
567.56122746940002
 21
1005.1766304759
  0
LINE
  8
_0-5_フレ_ム
  6
CONTINUOUS
 62
    7
 10
564.56122746940002
 20
1007.1766304759
 11
565.06122746940002
 21
1007.1766304759
  0
LINE
  8
_0-5_フレ_ム
  6
CONTINUOUS
 62
    7
 10
565.06122746940002
 20
1007.1766304759
 11
564.56122746940002
 21
1005.1766304759
  0
LINE
  8
_0-5_フレ_ム
  6
CONTINUOUS
 62
    7
 10
567.56122246940004
 20
1007.1766304759
 11
567.76122246940008
 21
1007.1766304759
  0
LINE
  8
_0-5_フレ_ム
  6
CONTINUOUS
 62
    7
 10
567.76122246940008
 20
1007.1766304759
 11
567.76122746940007
 21
1010.1766304759
  0
LINE
  8
_0-5_フレ_ム
  6
CONTINUOUS
 62
    7
 10
564.56122746940002
 20
1007.1766304759
 11
564.36122746940009
 21
1007.1766304759
  0
LINE
  8
_0-5_フレ_ム
  6
CONTINUOUS
 62
    7
 10
564.36122746940009
 20
1007.1766304759
 11
564.36122746940009
 21
1010.1766304759
  0
LINE
  8
_0-a_寸法
  6
CONTINUOUS
 62
    7
 10
334.56123117580006
 20
1075.2536854755001
 11
339.56123117580006
 21
1076.5036854755001
  0
LINE
  8
_0-a_寸法
  6
CONTINUOUS
 62
    7
 10
334.56123117580006
 20
1075.2536854755001
 11
339.56123117580006
 21
1074.0036854755001
  0
LINE
  8
_0-a_寸法
  6
CONTINUOUS
 62
    7
 10
664.56122746940002
 20
1075.2536854755001
 11
659.56122746940002
 21
1074.0036854755001
  0
LINE
  8
_0-a_寸法
  6
CONTINUOUS
 62
    7
 10
664.56122746940002
 20
1075.2536854755001
 11
659.56122746940002
 21
1076.5036854755001
  0
LINE
  8
_0-3_躯体
  6
CONTINUOUS
 62
    7
 10
664.56122746940002
 20
1018.1766304759
 11
664.56122746940002
 21
1018.9266304759
  0
LINE
  8
_0-a_寸法
  6
CONTINUOUS
 62
    7
 10
434.56122746940002
 20
994.42663047589997
 11
434.56122746940002
 21
909.84702547590007
  0
LINE
  8
_0-a_寸法
  6
CONTINUOUS
 62
    7
 10
434.56122746940002
 20
913.84702547590007
 11
439.56122746940002
 21
915.09702547590007
  0
LINE
  8
_0-a_寸法
  6
CONTINUOUS
 62
    7
 10
434.56122746940002
 20
913.84702547590007
 11
439.56122746940002
 21
912.59702547590007
  0
LINE
  8
_0-a_寸法
  6
CONTINUOUS
 62
    7
 10
434.56122746940002
 20
913.84702547590007
 11
449.56122746940002
 21
913.84702547590007
  0
LINE
  8
_0-a_寸法
  6
CONTINUOUS
 62
    7
 10
364.62053246940002
 20
1001.1264676431
 11
348.82794246940006
 21
973.77289764310001
  0
CIRCLE
  8
_0-a_寸法
  6
CONTINUOUS
 62
    7
 10
345.07794246940006
 20
967.27770764310003
 40
7.5
  0
CIRCLE
  8
_0-a_寸法
  6
CONTINUOUS
 62
    7
 10
364.62053246940002
 20
1001.1264676431
 40
1
  0
CIRCLE
  8
_0-a_寸法
  6
CONTINUOUS
 62
    7
 10
370.69367048960004
 20
998.67663047589997
 40
1
  0
LINE
  8
_0-a_寸法
  6
CONTINUOUS
 62
    7
 10
334.56122746940002
 20
1020.1766304759
 11
334.56122746940002
 21
1080.2536854755001
  0
LINE
  8
_0-a_寸法
  6
CONTINUOUS
 62
    7
 10
564.56122746940002
 20
1019.4266304759
 11
564.56122746940002
 21
1055.5299504755001
  0
LINE
  8
_0-a_寸法
  6
CONTINUOUS
 62
    7
 10
664.56122746940002
 20
1020.1766304759
 11
664.56122746940002
 21
1080.2536854755001
  0
LINE
  8
_0-a_寸法
  6
CONTINUOUS
 62
    7
 10
434.56122746940002
 20
1019.4266304759
 11
434.56122746940002
 21
1055.5299504755001
  0
LINE
  8
_0-a_寸法
  6
CONTINUOUS
 62
    7
 10
334.56122746940002
 20
1051.5299504755001
 11
434.56122746940002
 21
1051.5299504755001
  0
LINE
  8
_0-a_寸法
  6
CONTINUOUS
 62
    7
 10
564.56122746940002
 20
1051.5299504755001
 11
664.56122746940002
 21
1051.5299504755001
  0
LINE
  8
_0-a_寸法
  6
CONTINUOUS
 62
    7
 10
334.56122746940002
 20
1075.2536854755001
 11
664.56122746940002
 21
1075.2536854755001
  0
LINE
  8
_0-a_寸法
  6
CONTINUOUS
 62
    7
 10
434.56122746940002
 20
1051.5299504755001
 11
564.56122746940002
 21
1051.5299504755001
  0
LINE
  8
_0-a_寸法
  6
CONTINUOUS
 62
    7
 10
334.56122746940002
 20
1051.5299504755001
 11
339.56122746940002
 21
1052.7799504755001
  0
LINE
  8
_0-a_寸法
  6
CONTINUOUS
 62
    7
 10
334.56122746940002
 20
1051.5299504755001
 11
339.56122746940002
 21
1050.2799504755001
  0
LINE
  8
_0-a_寸法
  6
CONTINUOUS
 62
    7
 10
434.56122746940002
 20
1051.5299504755001
 11
439.56122746940002
 21
1052.7799504755001
  0
LINE
  8
_0-a_寸法
  6
CONTINUOUS
 62
    7
 10
434.56122746940002
 20
1051.5299504755001
 11
439.56122746940002
 21
1050.2799504755001
  0
LINE
  8
_0-a_寸法
  6
CONTINUOUS
 62
    7
 10
564.56122746940002
 20
1051.5299504755001
 11
569.56122746940002
 21
1052.7799504755001
  0
LINE
  8
_0-a_寸法
  6
CONTINUOUS
 62
    7
 10
564.56122746940002
 20
1051.5299504755001
 11
569.56122746940002
 21
1050.2799504755001
  0
LINE
  8
_0-a_寸法
  6
CONTINUOUS
 62
    7
 10
664.56122746940002
 20
1051.5299504755001
 11
659.56122746940002
 21
1050.2799504755001
  0
LINE
  8
_0-a_寸法
  6
CONTINUOUS
 62
    7
 10
664.56122746940002
 20
1051.5299504755001
 11
659.56122746940002
 21
1052.7799504755001
  0
LINE
  8
_0-a_寸法
  6
CONTINUOUS
 62
    7
 10
564.56122746940002
 20
1051.5299504755001
 11
559.56122746940002
 21
1050.2799504755001
  0
LINE
  8
_0-a_寸法
  6
CONTINUOUS
 62
    7
 10
564.56122746940002
 20
1051.5299504755001
 11
559.56122746940002
 21
1052.7799504755001
  0
LINE
  8
_0-a_寸法
  6
CONTINUOUS
 62
    7
 10
434.56122746940002
 20
1051.5299504755001
 11
429.56122746940002
 21
1050.2799504755001
  0
LINE
  8
_0-a_寸法
  6
CONTINUOUS
 62
    7
 10
434.56122746940002
 20
1051.5299504755001
 11
429.56122746940002
 21
1052.7799504755001
  0
LINE
  8
_0-8_小物
  6
CONTINUOUS
 62
    7
 10
634.56122746940002
 20
950.69027547590008
 11
634.56122746940002
 21
1004.4129204759
  0
LINE
  8
_0-8_小物
  6
CONTINUOUS
 62
    7
 10
674.56122746940002
 20
950.69027547590008
 11
674.56122746940002
 21
1004.4129204759
  0
ARC
  8
_0-8_小物
  6
CONTINUOUS
 62
    7
 10
636.12329746940009
 20
999.29792047590001
 40
3
 50
2.4589260000049999
 51
51.385362000000001
  0
ARC
  8
_0-8_小物
  6
CONTINUOUS
 62
    7
 10
634.62053246940002
 20
997.42663047589997
 40
5.4000000000000004
 50
51.317813000000001
 51
90
  0
ARC
  8
_0-8_小物
  6
CONTINUOUS
 62
    7
 10
634.62053246940002
 20
997.42663047589997
 40
5.4000000000000004
 50
90
 51
128.85106200000001
  0
ARC
  8
_0-8_小物
  6
CONTINUOUS
 62
    7
 10
633.11777246940005
 20
999.29792047590001
 40
3
 50
128.61463800000001
 51
177.54107400000001
  0
LINE
  8
_0-8_小物
  6
CONTINUOUS
 62
    7
 10
625.62053246940002
 20
999.42663047589997
 11
643.62053246940002
 21
999.42663047589997
  0
LINE
  8
_0-8_小物
  6
CONTINUOUS
 62
    7
 10
643.62053246940002
 20
999.42663047589997
 11
643.62053246940002
 21
997.92663047589997
  0
LINE
  8
_0-8_小物
  6
CONTINUOUS
 62
    7
 10
625.62053246940002
 20
999.42663047589997
 11
625.62053246940002
 21
997.92663047589997
  0
ARC
  8
_0-8_小物
  6
CONTINUOUS
 62
    7
 10
676.06399246940009
 20
999.29792047590001
 40
3
 50
2.4589260000049999
 51
51.385362000000001
  0
ARC
  8
_0-8_小物
  6
CONTINUOUS
 62
    7
 10
674.56122746940002
 20
997.42663047589997
 40
5.4000000000000004
 50
51.317813000000001
 51
90
  0
ARC
  8
_0-8_小物
  6
CONTINUOUS
 62
    7
 10
674.56122746940002
 20
997.42663047589997
 40
5.4000000000000004
 50
90
 51
128.85106200000001
  0
ARC
  8
_0-8_小物
  6
CONTINUOUS
 62
    7
 10
673.05846746940006
 20
999.29792047590001
 40
3
 50
128.61463800000001
 51
177.54107400000001
  0
LINE
  8
_0-8_小物
  6
CONTINUOUS
 62
    7
 10
665.56122746940002
 20
999.42663047589997
 11
683.56122746940002
 21
999.42663047589997
  0
LINE
  8
_0-8_小物
  6
CONTINUOUS
 62
    7
 10
683.56122746940002
 20
999.42663047589997
 11
683.56122746940002
 21
997.92663047589997
  0
LINE
  8
_0-8_小物
  6
CONTINUOUS
 62
    7
 10
665.56122746940002
 20
999.42663047589997
 11
665.56122746940002
 21
997.92663047589997
  0
LINE
  8
_0-8_小物
  6
CONTINUOUS
 62
    7
 10
364.56122746940002
 20
950.69027547590008
 11
364.56122746940002
 21
1004.4129204759
  0
LINE
  8
_0-8_小物
  6
CONTINUOUS
 62
    7
 10
324.56122746940002
 20
950.69027547590008
 11
324.56122746940002
 21
1004.4129204759
  0
ARC
  8
_0-8_小物
  6
CONTINUOUS
 62
    7
 10
362.99915746940002
 20
999.29792047590001
 40
3
 50
128.61463800000001
 51
177.54107400000001
  0
ARC
  8
_0-8_小物
  6
CONTINUOUS
 62
    7
 10
364.50192246940003
 20
997.42663047589997
 40
5.4000000000000004
 50
90
 51
128.682187
  0
ARC
  8
_0-8_小物
  6
CONTINUOUS
 62
    7
 10
364.50192246940003
 20
997.42663047589997
 40
5.4000000000000004
 50
51.148938000000001
 51
90
  0
ARC
  8
_0-8_小物
  6
CONTINUOUS
 62
    7
 10
366.00468246940005
 20
999.29792047590001
 40
3
 50
2.4589260000049999
 51
51.385362000000001
  0
LINE
  8
_0-8_小物
  6
CONTINUOUS
 62
    7
 10
373.50192246940003
 20
999.42663047589997
 11
355.50192246940003
 21
999.42663047589997
  0
LINE
  8
_0-8_小物
  6
CONTINUOUS
 62
    7
 10
355.50192246940003
 20
999.42663047589997
 11
355.50192246940003
 21
997.92663047589997
  0
LINE
  8
_0-8_小物
  6
CONTINUOUS
 62
    7
 10
373.50192246940003
 20
999.42663047589997
 11
373.50192246940003
 21
997.92663047589997
  0
ARC
  8
_0-8_小物
  6
CONTINUOUS
 62
    7
 10
323.05846246939996
 20
999.29792047590001
 40
3
 50
128.61463800000001
 51
177.54107400000001
  0
ARC
  8
_0-8_小物
  6
CONTINUOUS
 62
    7
 10
324.56122746940002
 20
997.42663047589997
 40
5.4000000000000004
 50
90
 51
128.682187
  0
ARC
  8
_0-8_小物
  6
CONTINUOUS
 62
    7
 10
324.56122746940002
 20
997.42663047589997
 40
5.4000000000000004
 50
51.148938000000001
 51
90
  0
ARC
  8
_0-8_小物
  6
CONTINUOUS
 62
    7
 10
326.06398746939999
 20
999.29792047590001
 40
3
 50
2.4589260000049999
 51
51.385362000000001
  0
LINE
  8
_0-8_小物
  6
CONTINUOUS
 62
    7
 10
333.56122746940002
 20
999.42663047589997
 11
315.56122746940002
 21
999.42663047589997
  0
LINE
  8
_0-8_小物
  6
CONTINUOUS
 62
    7
 10
315.56122746940002
 20
999.42663047589997
 11
315.56122746940002
 21
997.92663047589997
  0
LINE
  8
_0-8_小物
  6
CONTINUOUS
 62
    7
 10
333.56122746940002
 20
999.42663047589997
 11
333.56122746940002
 21
997.92663047589997
  0
LINE
  8
_0-8_小物
  6
CONTINUOUS
 62
    7
 10
330.87982846940002
 20
979.28423147590001
 11
331.87218346940006
 21
986.08785347590003
  0
ARC
  8
_0-8_小物
  6
CONTINUOUS
 62
    7
 10
331.47637146940002
 20
986.14558547590002
 40
0.4
 50
351.70153400002999
 51
81.86989799999003
  0
LINE
  8
_0-8_小物
  6
CONTINUOUS
 62
    7
 10
331.53294046940005
 20
986.54156547590003
 11
331.33611546940006
 21
986.56968347589998
  0
ARC
  8
_0-8_小物
  6
CONTINUOUS
 62
    7
 10
331.27954746940003
 20
986.17370347589997
 40
0.4
 50
81.869898000000006
 51
171.86989800000001
  0
LINE
  8
_0-8_小物
  6
CONTINUOUS
 62
    7
 10
330.88356746940002
 20
986.23027247590005
 11
329.94013546940005
 21
979.62625147590006
  0
LINE
  8
_0-8_小物
  6
CONTINUOUS
 62
    7
 10
330.87982846940002
 20
979.28423147590001
 11
331.87218346940006
 21
986.08785347590003
  0
ARC
  8
_0-8_小物
  6
CONTINUOUS
 62
    7
 10
331.47637146940002
 20
986.14558547590002
 40
0.4
 50
351.70153400002999
 51
81.86989799999003
  0
LINE
  8
_0-8_小物
  6
CONTINUOUS
 62
    7
 10
331.53294046940005
 20
986.54156547590003
 11
331.33611546940006
 21
986.56968347589998
  0
ARC
  8
_0-8_小物
  6
CONTINUOUS
 62
    7
 10
331.27954746940003
 20
986.17370347589997
 40
0.4
 50
81.869898000000006
 51
171.86989800000001
  0
LINE
  8
_0-8_小物
  6
CONTINUOUS
 62
    7
 10
330.88356746940002
 20
986.23027247590005
 11
329.94013546940005
 21
979.62625147590006
  0
LINE
  8
_0-8_小物
  6
CONTINUOUS
 62
    7
 10
318.24262646939997
 20
979.28423147590001
 11
317.2502714694001
 21
986.08785347590003
  0
ARC
  8
_0-8_小物
  6
CONTINUOUS
 62
    7
 10
317.64608346940008
 20
986.14558547590002
 40
0.4
 50
98.13010199999998
 51
188.29846599999999
  0
LINE
  8
_0-8_小物
  6
CONTINUOUS
 62
    7
 10
317.5895144694
 20
986.54156547590003
 11
317.78633946939999
 21
986.56968347589998
  0
ARC
  8
_0-8_小物
  6
CONTINUOUS
 62
    7
 10
317.84290846940007
 20
986.17370347589997
 40
0.4
 50
8.1301019999580024
 51
98.130102000009998
  0
LINE
  8
_0-8_小物
  6
CONTINUOUS
 62
    7
 10
318.23888746939997
 20
986.23027247590005
 11
319.1823194694
 21
979.62625147590006
  0
LINE
  8
_0-8_小物
  6
CONTINUOUS
 62
    7
 10
320.56122746940002
 20
982.42663047589997
 11
320.56122746940002
 21
986.42663047589997
  0
LINE
  8
_0-8_小物
  6
CONTINUOUS
 62
    7
 10
322.54348446940003
 20
957.46637447590001
 11
319.04828146940008
 21
957.64954947590002
  0
LINE
  8
_0-8_小物
  6
CONTINUOUS
 62
    7
 10
319.04828146940008
 20
957.64954947590002
 11
320.94086846940002
 21
955.54761847589998
  0
LINE
  8
_0-8_小物
  6
CONTINUOUS
 62
    7
 10
320.94086846940002
 20
955.54761847589998
 11
322.43881246940009
 21
955.46911447590003
  0
LINE
  8
_0-8_小物
  6
CONTINUOUS
 62
    7
 10
322.43881246940009
 20
955.46911447590003
 11
324.06122746940002
 21
986.42663047589997
  0
LINE
  8
_0-8_小物
  6
CONTINUOUS
 62
    7
 10
328.56122746940002
 20
982.42663047589997
 11
328.56122746940002
 21
986.42663047589997
  0
LINE
  8
_0-8_小物
  6
CONTINUOUS
 62
    7
 10
326.57897046940002
 20
957.46637447590001
 11
330.07417346940002
 21
957.64954947590002
  0
LINE
  8
_0-8_小物
  6
CONTINUOUS
 62
    7
 10
330.07417346940002
 20
957.64954947590002
 11
328.18158646940003
 21
955.54761847589998
  0
LINE
  8
_0-8_小物
  6
CONTINUOUS
 62
    7
 10
328.18158646940003
 20
955.54761847589998
 11
326.68364246939996
 21
955.46911447590003
  0
LINE
  8
_0-8_小物
  6
CONTINUOUS
 62
    7
 10
326.68364246939996
 20
955.46911447590003
 11
325.06122746940002
 21
986.42663047589997
  0
LINE
  8
_0-8_小物
  6
CONTINUOUS
 62
    7
 10
319.93799246940011
 20
974.62625147590006
 11
318.24262646939997
 21
979.28423147590001
  0
LINE
  8
_0-8_小物
  6
CONTINUOUS
 62
    7
 10
329.18446246940005
 20
974.62625147590006
 11
330.87982846940002
 21
979.28423147590001
  0
LINE
  8
_0-8_小物
  6
CONTINUOUS
 62
    7
 10
320.56122746940002
 20
982.42663047589997
 11
322.30160346940011
 21
981.51198647590002
  0
LINE
  8
_0-8_小物
  6
CONTINUOUS
 62
    7
 10
322.69178346939998
 20
960.29607447590001
 11
324.56122746940002
 21
958.42663047589997
  0
LINE
  8
_0-8_小物
  6
CONTINUOUS
 62
    7
 10
322.30160346940011
 20
981.51198647590002
 11
322.19693146940006
 21
979.51472747590003
  0
LINE
  8
_0-8_小物
  6
CONTINUOUS
 62
    7
 10
322.19693146940006
 20
979.51472747590003
 11
320.19967246939996
 21
979.61939947589997
  0
LINE
  8
_0-8_小物
  6
CONTINUOUS
 62
    7
 10
320.19967246939996
 20
979.61939947589997
 11
320.09500046940002
 21
977.62214047589998
  0
LINE
  8
_0-8_小物
  6
CONTINUOUS
 62
    7
 10
320.09500046940002
 20
977.62214047589998
 11
322.03992346940004
 21
976.51883947589999
  0
LINE
  8
_0-8_小物
  6
CONTINUOUS
 62
    7
 10
322.03992346940004
 20
976.51883947589999
 11
321.9352514694001
 21
974.52158047590001
  0
LINE
  8
_0-8_小物
  6
CONTINUOUS
 62
    7
 10
321.9352514694001
 20
974.52158047590001
 11
319.93799246940011
 21
974.62625147590006
  0
LINE
  8
_0-8_小物
  6
CONTINUOUS
 62
    7
 10
319.93799246940011
 20
974.62625147590006
 11
319.83332046940006
 21
972.62899247590008
  0
LINE
  8
_0-8_小物
  6
CONTINUOUS
 62
    7
 10
319.83332046940006
 20
972.62899247590008
 11
321.77824346939997
 21
971.52569147589998
  0
LINE
  8
_0-8_小物
  6
CONTINUOUS
 62
    7
 10
321.77824346939997
 20
971.52569147589998
 11
321.67357146940003
 21
969.52843247589999
  0
LINE
  8
_0-8_小物
  6
CONTINUOUS
 62
    7
 10
321.67357146940003
 20
969.52843247589999
 11
319.67631246940005
 21
969.63310447590004
  0
LINE
  8
_0-8_小物
  6
CONTINUOUS
 62
    7
 10
319.67631246940005
 20
969.63310447590004
 11
319.57164046940011
 21
967.63584547590006
  0
LINE
  8
_0-8_小物
  6
CONTINUOUS
 62
    7
 10
319.57164046940011
 20
967.63584547590006
 11
321.51656446940001
 21
966.53254347590007
  0
LINE
  8
_0-8_小物
  6
CONTINUOUS
 62
    7
 10
321.51656446940001
 20
966.53254347590007
 11
321.41189246940007
 21
964.53528447589997
  0
LINE
  8
_0-8_小物
  6
CONTINUOUS
 62
    7
 10
321.41189246940007
 20
964.53528447589997
 11
319.41463346940009
 21
964.63995647590002
  0
LINE
  8
_0-8_小物
  6
CONTINUOUS
 62
    7
 10
319.41463346940009
 20
964.63995647590002
 11
319.30996146940004
 21
962.64269747590004
  0
LINE
  8
_0-8_小物
  6
CONTINUOUS
 62
    7
 10
319.30996146940004
 20
962.64269747590004
 11
321.25488446940005
 21
961.53939647590005
  0
LINE
  8
_0-8_小物
  6
CONTINUOUS
 62
    7
 10
321.25488446940005
 20
961.53939647590005
 11
321.1502124694
 21
959.54213747590006
  0
LINE
  8
_0-8_小物
  6
CONTINUOUS
 62
    7
 10
321.1502124694
 20
959.54213747590006
 11
319.15295346940002
 21
959.6468084759
  0
LINE
  8
_0-8_小物
  6
CONTINUOUS
 62
    7
 10
319.15295346940002
 20
959.6468084759
 11
319.04828146940008
 21
957.64954947590002
  0
LINE
  8
_0-8_小物
  6
CONTINUOUS
 62
    7
 10
328.56122746940002
 20
982.42663047589997
 11
326.82085146940005
 21
981.51198647590002
  0
LINE
  8
_0-8_小物
  6
CONTINUOUS
 62
    7
 10
326.82085146940005
 20
981.51198647590002
 11
326.9255234694001
 21
979.51472747590003
  0
LINE
  8
_0-8_小物
  6
CONTINUOUS
 62
    7
 10
326.9255234694001
 20
979.51472747590003
 11
328.92278246940003
 21
979.61939947589997
  0
LINE
  8
_0-8_小物
  6
CONTINUOUS
 62
    7
 10
328.92278246940003
 20
979.61939947589997
 11
329.02745446940003
 21
977.62214047589998
  0
LINE
  8
_0-8_小物
  6
CONTINUOUS
 62
    7
 10
329.02745446940003
 20
977.62214047589998
 11
327.08253146940001
 21
976.51883947589999
  0
LINE
  8
_0-8_小物
  6
CONTINUOUS
 62
    7
 10
327.08253146940001
 20
976.51883947589999
 11
327.18720346940006
 21
974.52158047590001
  0
LINE
  8
_0-8_小物
  6
CONTINUOUS
 62
    7
 10
327.18720346940006
 20
974.52158047590001
 11
329.18446246940005
 21
974.62625147590006
  0
LINE
  8
_0-8_小物
  6
CONTINUOUS
 62
    7
 10
329.18446246940005
 20
974.62625147590006
 11
329.28913446940004
 21
972.62899247590008
  0
LINE
  8
_0-8_小物
  6
CONTINUOUS
 62
    7
 10
329.28913446940004
 20
972.62899247590008
 11
327.34421146940008
 21
971.52569147589998
  0
LINE
  8
_0-8_小物
  6
CONTINUOUS
 62
    7
 10
327.34421146940008
 20
971.52569147589998
 11
327.44888346940002
 21
969.52843247589999
  0
LINE
  8
_0-8_小物
  6
CONTINUOUS
 62
    7
 10
327.44888346940002
 20
969.52843247589999
 11
329.44614246940006
 21
969.63310447590004
  0
LINE
  8
_0-8_小物
  6
CONTINUOUS
 62
    7
 10
329.44614246940006
 20
969.63310447590004
 11
329.55081446940005
 21
967.63584547590006
  0
LINE
  8
_0-8_小物
  6
CONTINUOUS
 62
    7
 10
329.55081446940005
 20
967.63584547590006
 11
327.60589046940004
 21
966.53254347590007
  0
LINE
  8
_0-8_小物
  6
CONTINUOUS
 62
    7
 10
327.60589046940004
 20
966.53254347590007
 11
327.71056246939997
 21
964.53528447589997
  0
LINE
  8
_0-8_小物
  6
CONTINUOUS
 62
    7
 10
327.71056246939997
 20
964.53528447589997
 11
329.70782146940002
 21
964.63995647590002
  0
LINE
  8
_0-8_小物
  6
CONTINUOUS
 62
    7
 10
329.70782146940002
 20
964.63995647590002
 11
329.81249346940001
 21
962.64269747590004
  0
LINE
  8
_0-8_小物
  6
CONTINUOUS
 62
    7
 10
329.81249346940001
 20
962.64269747590004
 11
327.86757046940011
 21
961.53939647590005
  0
LINE
  8
_0-8_小物
  6
CONTINUOUS
 62
    7
 10
327.86757046940011
 20
961.53939647590005
 11
327.97224246940004
 21
959.54213747590006
  0
LINE
  8
_0-8_小物
  6
CONTINUOUS
 62
    7
 10
327.97224246940004
 20
959.54213747590006
 11
329.96950146940003
 21
959.6468084759
  0
LINE
  8
_0-8_小物
  6
CONTINUOUS
 62
    7
 10
329.96950146940003
 20
959.6468084759
 11
330.07417346940002
 21
957.64954947590002
  0
LINE
  8
_0-8_小物
  6
CONTINUOUS
 62
    7
 10
324.06122746940002
 20
986.42663047589997
 11
324.56122746940002
 21
986.42663047589997
  0
LINE
  8
_0-8_小物
  6
CONTINUOUS
 62
    7
 10
325.06122746940002
 20
986.42663047589997
 11
324.56122746940002
 21
986.42663047589997
  0
LINE
  8
_0-8_小物
  6
CONTINUOUS
 62
    7
 10
320.56122746940002
 20
994.42663047589997
 11
320.56122746940002
 21
986.42663047589997
  0
LINE
  8
_0-8_小物
  6
CONTINUOUS
 62
    7
 10
319.56122746940002
 20
994.42663047589997
 11
320.56122746940002
 21
989.42663047589997
  0
LINE
  8
_0-8_小物
  6
CONTINUOUS
 62
    7
 10
323.56122746940002
 20
994.42663047589997
 11
324.56122746940002
 21
989.42663047589997
  0
LINE
  8
_0-8_小物
  6
CONTINUOUS
 62
    7
 10
325.56122746940002
 20
994.42663047589997
 11
324.56122746940002
 21
989.42663047589997
  0
LINE
  8
_0-8_小物
  6
CONTINUOUS
 62
    7
 10
324.56122746940002
 20
989.42663047589997
 11
324.56122746940002
 21
994.42663047589997
  0
LINE
  8
_0-8_小物
  6
CONTINUOUS
 62
    7
 10
328.56122746940002
 20
994.42663047589997
 11
328.56122746940002
 21
986.42663047589997
  0
LINE
  8
_0-8_小物
  6
CONTINUOUS
 62
    7
 10
329.56122746940002
 20
994.42663047589997
 11
328.56122746940002
 21
989.42663047589997
  0
LINE
  8
_0-8_小物
  6
CONTINUOUS
 62
    7
 10
326.43067146940007
 20
960.29607447590001
 11
324.56122746940002
 21
958.42663047589997
  0
LINE
  8
_0-8_小物
  6
CONTINUOUS
 62
    7
 10
319.56122746940002
 20
994.42663047589997
 11
329.56122746940002
 21
994.42663047589997
  0
LINE
  8
_0-8_小物
  6
CONTINUOUS
 62
    7
 10
321.0228640744001
 20
974.56939625799998
 11
319.1823194694
 21
979.62625147590006
  0
LINE
  8
_0-8_小物
  6
CONTINUOUS
 62
    7
 10
328.09959086430001
 20
974.56939625799998
 11
329.94013546940005
 21
979.62625147590006
  0
LINE
  8
_0-8_小物
  6
CONTINUOUS
 62
    7
 10
370.87982846940002
 20
979.28423147590001
 11
371.87218346940006
 21
986.08785347590003
  0
ARC
  8
_0-8_小物
  6
CONTINUOUS
 62
    7
 10
371.47637146940002
 20
986.14558547590002
 40
0.4
 50
351.70153400002999
 51
81.869898000009968
  0
LINE
  8
_0-8_小物
  6
CONTINUOUS
 62
    7
 10
371.53294046940005
 20
986.54156547590003
 11
371.33611546940006
 21
986.56968347589998
  0
ARC
  8
_0-8_小物
  6
CONTINUOUS
 62
    7
 10
371.27954746940003
 20
986.17370347589997
 40
0.4
 50
81.869898000009982
 51
171.86989800000001
  0
LINE
  8
_0-8_小物
  6
CONTINUOUS
 62
    7
 10
370.88356746940002
 20
986.23027247590005
 11
369.94013546940005
 21
979.62625147590006
  0
LINE
  8
_0-8_小物
  6
CONTINUOUS
 62
    7
 10
370.87982846940002
 20
979.28423147590001
 11
371.87218346940006
 21
986.08785347590003
  0
ARC
  8
_0-8_小物
  6
CONTINUOUS
 62
    7
 10
371.47637146940002
 20
986.14558547590002
 40
0.4
 50
351.70153400002999
 51
81.869898000009968
  0
LINE
  8
_0-8_小物
  6
CONTINUOUS
 62
    7
 10
371.53294046940005
 20
986.54156547590003
 11
371.33611546940006
 21
986.56968347589998
  0
ARC
  8
_0-8_小物
  6
CONTINUOUS
 62
    7
 10
371.27954746940003
 20
986.17370347589997
 40
0.4
 50
81.869898000009982
 51
171.86989800000001
  0
LINE
  8
_0-8_小物
  6
CONTINUOUS
 62
    7
 10
370.88356746940002
 20
986.23027247590005
 11
369.94013546940005
 21
979.62625147590006
  0
LINE
  8
_0-8_小物
  6
CONTINUOUS
 62
    7
 10
358.24262646940002
 20
979.28423147590001
 11
357.25027146940005
 21
986.08785347590003
  0
ARC
  8
_0-8_小物
  6
CONTINUOUS
 62
    7
 10
357.64608346940003
 20
986.14558547590002
 40
0.4
 50
98.130102000009998
 51
188.29846599999999
  0
LINE
  8
_0-8_小物
  6
CONTINUOUS
 62
    7
 10
357.58951446940006
 20
986.54156547590003
 11
357.78633946940005
 21
986.56968347589998
  0
ARC
  8
_0-8_小物
  6
CONTINUOUS
 62
    7
 10
357.84290846940002
 20
986.17370347589997
 40
0.4
 50
8.1301019999580024
 51
98.130102000009998
  0
LINE
  8
_0-8_小物
  6
CONTINUOUS
 62
    7
 10
358.23888746940003
 20
986.23027247590005
 11
359.18231946940006
 21
979.62625147590006
  0
LINE
  8
_0-8_小物
  6
CONTINUOUS
 62
    7
 10
360.56122746940002
 20
982.42663047589997
 11
360.56122746940002
 21
986.42663047589997
  0
LINE
  8
_0-8_小物
  6
CONTINUOUS
 62
    7
 10
362.54348446940003
 20
957.46637447590001
 11
359.04828146940002
 21
957.64954947590002
  0
LINE
  8
_0-8_小物
  6
CONTINUOUS
 62
    7
 10
359.04828146940002
 20
957.64954947590002
 11
360.94086846940002
 21
955.54761847589998
  0
LINE
  8
_0-8_小物
  6
CONTINUOUS
 62
    7
 10
360.94086846940002
 20
955.54761847589998
 11
362.43881246940003
 21
955.46911447590003
  0
LINE
  8
_0-8_小物
  6
CONTINUOUS
 62
    7
 10
362.43881246940003
 20
955.46911447590003
 11
364.06122746940002
 21
986.42663047589997
  0
LINE
  8
_0-8_小物
  6
CONTINUOUS
 62
    7
 10
368.56122746940002
 20
982.42663047589997
 11
368.56122746940002
 21
986.42663047589997
  0
LINE
  8
_0-8_小物
  6
CONTINUOUS
 62
    7
 10
366.57897046940002
 20
957.46637447590001
 11
370.07417346940002
 21
957.64954947590002
  0
LINE
  8
_0-8_小物
  6
CONTINUOUS
 62
    7
 10
370.07417346940002
 20
957.64954947590002
 11
368.18158646940003
 21
955.54761847589998
  0
LINE
  8
_0-8_小物
  6
CONTINUOUS
 62
    7
 10
368.18158646940003
 20
955.54761847589998
 11
366.68364246940001
 21
955.46911447590003
  0
LINE
  8
_0-8_小物
  6
CONTINUOUS
 62
    7
 10
366.68364246940001
 20
955.46911447590003
 11
365.06122746940002
 21
986.42663047589997
  0
LINE
  8
_0-8_小物
  6
CONTINUOUS
 62
    7
 10
359.93799246940006
 20
974.62625147590006
 11
358.24262646940002
 21
979.28423147590001
  0
LINE
  8
_0-8_小物
  6
CONTINUOUS
 62
    7
 10
369.18446246940005
 20
974.62625147590006
 11
370.87982846940002
 21
979.28423147590001
  0
LINE
  8
_0-8_小物
  6
CONTINUOUS
 62
    7
 10
360.56122746940002
 20
982.42663047589997
 11
362.30160346940005
 21
981.51198647590002
  0
LINE
  8
_0-8_小物
  6
CONTINUOUS
 62
    7
 10
362.69178346940004
 20
960.29607447590001
 11
364.56122746940002
 21
958.42663047589997
  0
LINE
  8
_0-8_小物
  6
CONTINUOUS
 62
    7
 10
362.30160346940005
 20
981.51198647590002
 11
362.19693146940006
 21
979.51472747590003
  0
LINE
  8
_0-8_小物
  6
CONTINUOUS
 62
    7
 10
362.19693146940006
 20
979.51472747590003
 11
360.19967246940001
 21
979.61939947589997
  0
LINE
  8
_0-8_小物
  6
CONTINUOUS
 62
    7
 10
360.19967246940001
 20
979.61939947589997
 11
360.09500046940002
 21
977.62214047589998
  0
LINE
  8
_0-8_小物
  6
CONTINUOUS
 62
    7
 10
360.09500046940002
 20
977.62214047589998
 11
362.03992346940004
 21
976.51883947589999
  0
LINE
  8
_0-8_小物
  6
CONTINUOUS
 62
    7
 10
362.03992346940004
 20
976.51883947589999
 11
361.93525146940004
 21
974.52158047590001
  0
LINE
  8
_0-8_小物
  6
CONTINUOUS
 62
    7
 10
361.93525146940004
 20
974.52158047590001
 11
359.93799246940006
 21
974.62625147590006
  0
LINE
  8
_0-8_小物
  6
CONTINUOUS
 62
    7
 10
359.93799246940006
 20
974.62625147590006
 11
359.83332046940006
 21
972.62899247590008
  0
LINE
  8
_0-8_小物
  6
CONTINUOUS
 62
    7
 10
359.83332046940006
 20
972.62899247590008
 11
361.77824346940002
 21
971.52569147589998
  0
LINE
  8
_0-8_小物
  6
CONTINUOUS
 62
    7
 10
361.77824346940002
 20
971.52569147589998
 11
361.67357146940003
 21
969.52843247589999
  0
LINE
  8
_0-8_小物
  6
CONTINUOUS
 62
    7
 10
361.67357146940003
 20
969.52843247589999
 11
359.67631246940005
 21
969.63310447590004
  0
LINE
  8
_0-8_小物
  6
CONTINUOUS
 62
    7
 10
359.67631246940005
 20
969.63310447590004
 11
359.57164046940005
 21
967.63584547590006
  0
LINE
  8
_0-8_小物
  6
CONTINUOUS
 62
    7
 10
359.57164046940005
 20
967.63584547590006
 11
361.51656446940001
 21
966.53254347590007
  0
LINE
  8
_0-8_小物
  6
CONTINUOUS
 62
    7
 10
361.51656446940001
 20
966.53254347590007
 11
361.41189246940002
 21
964.53528447589997
  0
LINE
  8
_0-8_小物
  6
CONTINUOUS
 62
    7
 10
361.41189246940002
 20
964.53528447589997
 11
359.41463346940003
 21
964.63995647590002
  0
LINE
  8
_0-8_小物
  6
CONTINUOUS
 62
    7
 10
359.41463346940003
 20
964.63995647590002
 11
359.30996146940004
 21
962.64269747590004
  0
LINE
  8
_0-8_小物
  6
CONTINUOUS
 62
    7
 10
359.30996146940004
 20
962.64269747590004
 11
361.25488446940005
 21
961.53939647590005
  0
LINE
  8
_0-8_小物
  6
CONTINUOUS
 62
    7
 10
361.25488446940005
 20
961.53939647590005
 11
361.15021246940006
 21
959.54213747590006
  0
LINE
  8
_0-8_小物
  6
CONTINUOUS
 62
    7
 10
361.15021246940006
 20
959.54213747590006
 11
359.15295346940002
 21
959.6468084759
  0
LINE
  8
_0-8_小物
  6
CONTINUOUS
 62
    7
 10
359.15295346940002
 20
959.6468084759
 11
359.04828146940002
 21
957.64954947590002
  0
LINE
  8
_0-8_小物
  6
CONTINUOUS
 62
    7
 10
368.56122746940002
 20
982.42663047589997
 11
366.82085146940005
 21
981.51198647590002
  0
LINE
  8
_0-8_小物
  6
CONTINUOUS
 62
    7
 10
366.82085146940005
 20
981.51198647590002
 11
366.92552346940005
 21
979.51472747590003
  0
LINE
  8
_0-8_小物
  6
CONTINUOUS
 62
    7
 10
366.92552346940005
 20
979.51472747590003
 11
368.92278246940003
 21
979.61939947589997
  0
LINE
  8
_0-8_小物
  6
CONTINUOUS
 62
    7
 10
368.92278246940003
 20
979.61939947589997
 11
369.02745446940003
 21
977.62214047589998
  0
LINE
  8
_0-8_小物
  6
CONTINUOUS
 62
    7
 10
369.02745446940003
 20
977.62214047589998
 11
367.08253146940001
 21
976.51883947589999
  0
LINE
  8
_0-8_小物
  6
CONTINUOUS
 62
    7
 10
367.08253146940001
 20
976.51883947589999
 11
367.18720346940006
 21
974.52158047590001
  0
LINE
  8
_0-8_小物
  6
CONTINUOUS
 62
    7
 10
367.18720346940006
 20
974.52158047590001
 11
369.18446246940005
 21
974.62625147590006
  0
LINE
  8
_0-8_小物
  6
CONTINUOUS
 62
    7
 10
369.18446246940005
 20
974.62625147590006
 11
369.28913446940004
 21
972.62899247590008
  0
LINE
  8
_0-8_小物
  6
CONTINUOUS
 62
    7
 10
369.28913446940004
 20
972.62899247590008
 11
367.34421146940002
 21
971.52569147589998
  0
LINE
  8
_0-8_小物
  6
CONTINUOUS
 62
    7
 10
367.34421146940002
 20
971.52569147589998
 11
367.44888346940002
 21
969.52843247589999
  0
LINE
  8
_0-8_小物
  6
CONTINUOUS
 62
    7
 10
367.44888346940002
 20
969.52843247589999
 11
369.44614246940006
 21
969.63310447590004
  0
LINE
  8
_0-8_小物
  6
CONTINUOUS
 62
    7
 10
369.44614246940006
 20
969.63310447590004
 11
369.55081446940005
 21
967.63584547590006
  0
LINE
  8
_0-8_小物
  6
CONTINUOUS
 62
    7
 10
369.55081446940005
 20
967.63584547590006
 11
367.60589046940004
 21
966.53254347590007
  0
LINE
  8
_0-8_小物
  6
CONTINUOUS
 62
    7
 10
367.60589046940004
 20
966.53254347590007
 11
367.71056246940003
 21
964.53528447589997
  0
LINE
  8
_0-8_小物
  6
CONTINUOUS
 62
    7
 10
367.71056246940003
 20
964.53528447589997
 11
369.70782146940002
 21
964.63995647590002
  0
LINE
  8
_0-8_小物
  6
CONTINUOUS
 62
    7
 10
369.70782146940002
 20
964.63995647590002
 11
369.81249346940001
 21
962.64269747590004
  0
LINE
  8
_0-8_小物
  6
CONTINUOUS
 62
    7
 10
369.81249346940001
 20
962.64269747590004
 11
367.86757046940005
 21
961.53939647590005
  0
LINE
  8
_0-8_小物
  6
CONTINUOUS
 62
    7
 10
367.86757046940005
 20
961.53939647590005
 11
367.97224246940004
 21
959.54213747590006
  0
LINE
  8
_0-8_小物
  6
CONTINUOUS
 62
    7
 10
367.97224246940004
 20
959.54213747590006
 11
369.96950146940003
 21
959.6468084759
  0
LINE
  8
_0-8_小物
  6
CONTINUOUS
 62
    7
 10
369.96950146940003
 20
959.6468084759
 11
370.07417346940002
 21
957.64954947590002
  0
LINE
  8
_0-8_小物
  6
CONTINUOUS
 62
    7
 10
364.06122746940002
 20
986.42663047589997
 11
364.56122746940002
 21
986.42663047589997
  0
LINE
  8
_0-8_小物
  6
CONTINUOUS
 62
    7
 10
365.06122746940002
 20
986.42663047589997
 11
364.56122746940002
 21
986.42663047589997
  0
LINE
  8
_0-8_小物
  6
CONTINUOUS
 62
    7
 10
360.56122746940002
 20
994.42663047589997
 11
360.56122746940002
 21
986.42663047589997
  0
LINE
  8
_0-8_小物
  6
CONTINUOUS
 62
    7
 10
359.56122746940002
 20
994.42663047589997
 11
360.56122746940002
 21
989.42663047589997
  0
LINE
  8
_0-8_小物
  6
CONTINUOUS
 62
    7
 10
363.56122746940002
 20
994.42663047589997
 11
364.56122746940002
 21
989.42663047589997
  0
LINE
  8
_0-8_小物
  6
CONTINUOUS
 62
    7
 10
365.56122746940002
 20
994.42663047589997
 11
364.56122746940002
 21
989.42663047589997
  0
LINE
  8
_0-8_小物
  6
CONTINUOUS
 62
    7
 10
364.56122746940002
 20
989.42663047589997
 11
364.56122746940002
 21
994.42663047589997
  0
LINE
  8
_0-8_小物
  6
CONTINUOUS
 62
    7
 10
368.56122746940002
 20
994.42663047589997
 11
368.56122746940002
 21
986.42663047589997
  0
LINE
  8
_0-8_小物
  6
CONTINUOUS
 62
    7
 10
369.56122746940002
 20
994.42663047589997
 11
368.56122746940002
 21
989.42663047589997
  0
LINE
  8
_0-8_小物
  6
CONTINUOUS
 62
    7
 10
366.43067146940001
 20
960.29607447590001
 11
364.56122746940002
 21
958.42663047589997
  0
LINE
  8
_0-8_小物
  6
CONTINUOUS
 62
    7
 10
359.56122746940002
 20
994.42663047589997
 11
369.56122746940002
 21
994.42663047589997
  0
LINE
  8
_0-8_小物
  6
CONTINUOUS
 62
    7
 10
361.02286407440005
 20
974.56939625799998
 11
359.18231946940006
 21
979.62625147590006
  0
LINE
  8
_0-8_小物
  6
CONTINUOUS
 62
    7
 10
368.09959086430001
 20
974.56939625799998
 11
369.94013546940005
 21
979.62625147590006
  0
LINE
  8
_0-8_小物
  6
CONTINUOUS
 62
    7
 10
640.87982846940008
 20
979.28423147590001
 11
641.87218346940006
 21
986.08785347590003
  0
ARC
  8
_0-8_小物
  6
CONTINUOUS
 62
    7
 10
641.47637146940008
 20
986.14558547590002
 40
0.4
 50
351.70153400002903
 51
81.869898000009982
  0
LINE
  8
_0-8_小物
  6
CONTINUOUS
 62
    7
 10
641.53294046940005
 20
986.54156547590003
 11
641.33611546940006
 21
986.56968347589998
  0
ARC
  8
_0-8_小物
  6
CONTINUOUS
 62
    7
 10
641.27954746940009
 20
986.17370347589997
 40
0.4
 50
81.869898000009982
 51
171.86989800000001
  0
LINE
  8
_0-8_小物
  6
CONTINUOUS
 62
    7
 10
640.88356746940008
 20
986.23027247590005
 11
639.94013546940005
 21
979.62625147590006
  0
LINE
  8
_0-8_小物
  6
CONTINUOUS
 62
    7
 10
640.87982846940008
 20
979.28423147590001
 11
641.87218346940006
 21
986.08785347590003
  0
ARC
  8
_0-8_小物
  6
CONTINUOUS
 62
    7
 10
641.47637146940008
 20
986.14558547590002
 40
0.4
 50
351.70153400002903
 51
81.869898000009982
  0
LINE
  8
_0-8_小物
  6
CONTINUOUS
 62
    7
 10
641.53294046940005
 20
986.54156547590003
 11
641.33611546940006
 21
986.56968347589998
  0
ARC
  8
_0-8_小物
  6
CONTINUOUS
 62
    7
 10
641.27954746940009
 20
986.17370347589997
 40
0.4
 50
81.869898000009982
 51
171.86989800000001
  0
LINE
  8
_0-8_小物
  6
CONTINUOUS
 62
    7
 10
640.88356746940008
 20
986.23027247590005
 11
639.94013546940005
 21
979.62625147590006
  0
LINE
  8
_0-8_小物
  6
CONTINUOUS
 62
    7
 10
628.24262646940008
 20
979.28423147590001
 11
627.25027146939999
 21
986.08785347590003
  0
ARC
  8
_0-8_小物
  6
CONTINUOUS
 62
    7
 10
627.64608346940008
 20
986.14558547590002
 40
0.4
 50
98.130101999990003
 51
188.29846599999999
  0
LINE
  8
_0-8_小物
  6
CONTINUOUS
 62
    7
 10
627.5895144694
 20
986.54156547590003
 11
627.78633946939999
 21
986.56968347589998
  0
ARC
  8
_0-8_小物
  6
CONTINUOUS
 62
    7
 10
627.84290846940007
 20
986.17370347589997
 40
0.4
 50
8.1301019999570023
 51
98.130101999989975
  0
LINE
  8
_0-8_小物
  6
CONTINUOUS
 62
    7
 10
628.23888746940008
 20
986.23027247590005
 11
629.1823194694
 21
979.62625147590006
  0
LINE
  8
_0-8_小物
  6
CONTINUOUS
 62
    7
 10
630.56122746940002
 20
982.42663047589997
 11
630.56122746940002
 21
986.42663047589997
  0
LINE
  8
_0-8_小物
  6
CONTINUOUS
 62
    7
 10
632.54348446940003
 20
957.46637447590001
 11
629.04828146940008
 21
957.64954947590002
  0
LINE
  8
_0-8_小物
  6
CONTINUOUS
 62
    7
 10
629.04828146940008
 20
957.64954947590002
 11
630.94086846940002
 21
955.54761847589998
  0
LINE
  8
_0-8_小物
  6
CONTINUOUS
 62
    7
 10
630.94086846940002
 20
955.54761847589998
 11
632.43881246940009
 21
955.46911447590003
  0
LINE
  8
_0-8_小物
  6
CONTINUOUS
 62
    7
 10
632.43881246940009
 20
955.46911447590003
 11
634.06122746940002
 21
986.42663047589997
  0
LINE
  8
_0-8_小物
  6
CONTINUOUS
 62
    7
 10
638.56122746940002
 20
982.42663047589997
 11
638.56122746940002
 21
986.42663047589997
  0
LINE
  8
_0-8_小物
  6
CONTINUOUS
 62
    7
 10
636.57897046940002
 20
957.46637447590001
 11
640.07417346940008
 21
957.64954947590002
  0
LINE
  8
_0-8_小物
  6
CONTINUOUS
 62
    7
 10
640.07417346940008
 20
957.64954947590002
 11
638.18158646940003
 21
955.54761847589998
  0
LINE
  8
_0-8_小物
  6
CONTINUOUS
 62
    7
 10
638.18158646940003
 20
955.54761847589998
 11
636.68364246940007
 21
955.46911447590003
  0
LINE
  8
_0-8_小物
  6
CONTINUOUS
 62
    7
 10
636.68364246940007
 20
955.46911447590003
 11
635.06122746940002
 21
986.42663047589997
  0
LINE
  8
_0-8_小物
  6
CONTINUOUS
 62
    7
 10
629.9379924694
 20
974.62625147590006
 11
628.24262646940008
 21
979.28423147590001
  0
LINE
  8
_0-8_小物
  6
CONTINUOUS
 62
    7
 10
639.18446246940005
 20
974.62625147590006
 11
640.87982846940008
 21
979.28423147590001
  0
LINE
  8
_0-8_小物
  6
CONTINUOUS
 62
    7
 10
630.56122746940002
 20
982.42663047589997
 11
632.30160346939999
 21
981.51198647590002
  0
LINE
  8
_0-8_小物
  6
CONTINUOUS
 62
    7
 10
632.69178346940009
 20
960.29607447590001
 11
634.56122746940002
 21
958.42663047589997
  0
LINE
  8
_0-8_小物
  6
CONTINUOUS
 62
    7
 10
632.30160346939999
 20
981.51198647590002
 11
632.19693146940006
 21
979.51472747590003
  0
LINE
  8
_0-8_小物
  6
CONTINUOUS
 62
    7
 10
632.19693146940006
 20
979.51472747590003
 11
630.19967246940007
 21
979.61939947589997
  0
LINE
  8
_0-8_小物
  6
CONTINUOUS
 62
    7
 10
630.19967246940007
 20
979.61939947589997
 11
630.09500046940002
 21
977.62214047589998
  0
LINE
  8
_0-8_小物
  6
CONTINUOUS
 62
    7
 10
630.09500046940002
 20
977.62214047589998
 11
632.03992346940004
 21
976.51883947589999
  0
LINE
  8
_0-8_小物
  6
CONTINUOUS
 62
    7
 10
632.03992346940004
 20
976.51883947589999
 11
631.93525146939999
 21
974.52158047590001
  0
LINE
  8
_0-8_小物
  6
CONTINUOUS
 62
    7
 10
631.93525146939999
 20
974.52158047590001
 11
629.9379924694
 21
974.62625147590006
  0
LINE
  8
_0-8_小物
  6
CONTINUOUS
 62
    7
 10
629.9379924694
 20
974.62625147590006
 11
629.83332046940006
 21
972.62899247590008
  0
LINE
  8
_0-8_小物
  6
CONTINUOUS
 62
    7
 10
629.83332046940006
 20
972.62899247590008
 11
631.77824346940008
 21
971.52569147589998
  0
LINE
  8
_0-8_小物
  6
CONTINUOUS
 62
    7
 10
631.77824346940008
 20
971.52569147589998
 11
631.67357146940003
 21
969.52843247589999
  0
LINE
  8
_0-8_小物
  6
CONTINUOUS
 62
    7
 10
631.67357146940003
 20
969.52843247589999
 11
629.67631246940005
 21
969.63310447590004
  0
LINE
  8
_0-8_小物
  6
CONTINUOUS
 62
    7
 10
629.67631246940005
 20
969.63310447590004
 11
629.57164046939999
 21
967.63584547590006
  0
LINE
  8
_0-8_小物
  6
CONTINUOUS
 62
    7
 10
629.57164046939999
 20
967.63584547590006
 11
631.51656446940001
 21
966.53254347590007
  0
LINE
  8
_0-8_小物
  6
CONTINUOUS
 62
    7
 10
631.51656446940001
 20
966.53254347590007
 11
631.41189246940007
 21
964.53528447589997
  0
LINE
  8
_0-8_小物
  6
CONTINUOUS
 62
    7
 10
631.41189246940007
 20
964.53528447589997
 11
629.41463346940009
 21
964.63995647590002
  0
LINE
  8
_0-8_小物
  6
CONTINUOUS
 62
    7
 10
629.41463346940009
 20
964.63995647590002
 11
629.30996146940004
 21
962.64269747590004
  0
LINE
  8
_0-8_小物
  6
CONTINUOUS
 62
    7
 10
629.30996146940004
 20
962.64269747590004
 11
631.25488446940005
 21
961.53939647590005
  0
LINE
  8
_0-8_小物
  6
CONTINUOUS
 62
    7
 10
631.25488446940005
 20
961.53939647590005
 11
631.1502124694
 21
959.54213747590006
  0
LINE
  8
_0-8_小物
  6
CONTINUOUS
 62
    7
 10
631.1502124694
 20
959.54213747590006
 11
629.15295346940002
 21
959.6468084759
  0
LINE
  8
_0-8_小物
  6
CONTINUOUS
 62
    7
 10
629.15295346940002
 20
959.6468084759
 11
629.04828146940008
 21
957.64954947590002
  0
LINE
  8
_0-8_小物
  6
CONTINUOUS
 62
    7
 10
638.56122746940002
 20
982.42663047589997
 11
636.82085146940005
 21
981.51198647590002
  0
LINE
  8
_0-8_小物
  6
CONTINUOUS
 62
    7
 10
636.82085146940005
 20
981.51198647590002
 11
636.92552346939999
 21
979.51472747590003
  0
LINE
  8
_0-8_小物
  6
CONTINUOUS
 62
    7
 10
636.92552346939999
 20
979.51472747590003
 11
638.92278246940009
 21
979.61939947589997
  0
LINE
  8
_0-8_小物
  6
CONTINUOUS
 62
    7
 10
638.92278246940009
 20
979.61939947589997
 11
639.02745446940003
 21
977.62214047589998
  0
LINE
  8
_0-8_小物
  6
CONTINUOUS
 62
    7
 10
639.02745446940003
 20
977.62214047589998
 11
637.08253146940001
 21
976.51883947589999
  0
LINE
  8
_0-8_小物
  6
CONTINUOUS
 62
    7
 10
637.08253146940001
 20
976.51883947589999
 11
637.18720346940006
 21
974.52158047590001
  0
LINE
  8
_0-8_小物
  6
CONTINUOUS
 62
    7
 10
637.18720346940006
 20
974.52158047590001
 11
639.18446246940005
 21
974.62625147590006
  0
LINE
  8
_0-8_小物
  6
CONTINUOUS
 62
    7
 10
639.18446246940005
 20
974.62625147590006
 11
639.28913446939998
 21
972.62899247590008
  0
LINE
  8
_0-8_小物
  6
CONTINUOUS
 62
    7
 10
639.28913446939998
 20
972.62899247590008
 11
637.34421146940008
 21
971.52569147589998
  0
LINE
  8
_0-8_小物
  6
CONTINUOUS
 62
    7
 10
637.34421146940008
 20
971.52569147589998
 11
637.44888346940002
 21
969.52843247589999
  0
LINE
  8
_0-8_小物
  6
CONTINUOUS
 62
    7
 10
637.44888346940002
 20
969.52843247589999
 11
639.4461424694
 21
969.63310447590004
  0
LINE
  8
_0-8_小物
  6
CONTINUOUS
 62
    7
 10
639.4461424694
 20
969.63310447590004
 11
639.55081446940005
 21
967.63584547590006
  0
LINE
  8
_0-8_小物
  6
CONTINUOUS
 62
    7
 10
639.55081446940005
 20
967.63584547590006
 11
637.60589046940004
 21
966.53254347590007
  0
LINE
  8
_0-8_小物
  6
CONTINUOUS
 62
    7
 10
637.60589046940004
 20
966.53254347590007
 11
637.71056246940009
 21
964.53528447589997
  0
LINE
  8
_0-8_小物
  6
CONTINUOUS
 62
    7
 10
637.71056246940009
 20
964.53528447589997
 11
639.70782146940007
 21
964.63995647590002
  0
LINE
  8
_0-8_小物
  6
CONTINUOUS
 62
    7
 10
639.70782146940007
 20
964.63995647590002
 11
639.81249346940001
 21
962.64269747590004
  0
LINE
  8
_0-8_小物
  6
CONTINUOUS
 62
    7
 10
639.81249346940001
 20
962.64269747590004
 11
637.86757046939999
 21
961.53939647590005
  0
LINE
  8
_0-8_小物
  6
CONTINUOUS
 62
    7
 10
637.86757046939999
 20
961.53939647590005
 11
637.97224246940004
 21
959.54213747590006
  0
LINE
  8
_0-8_小物
  6
CONTINUOUS
 62
    7
 10
637.97224246940004
 20
959.54213747590006
 11
639.96950146940003
 21
959.6468084759
  0
LINE
  8
_0-8_小物
  6
CONTINUOUS
 62
    7
 10
639.96950146940003
 20
959.6468084759
 11
640.07417346940008
 21
957.64954947590002
  0
LINE
  8
_0-8_小物
  6
CONTINUOUS
 62
    7
 10
634.06122746940002
 20
986.42663047589997
 11
634.56122746940002
 21
986.42663047589997
  0
LINE
  8
_0-8_小物
  6
CONTINUOUS
 62
    7
 10
635.06122746940002
 20
986.42663047589997
 11
634.56122746940002
 21
986.42663047589997
  0
LINE
  8
_0-8_小物
  6
CONTINUOUS
 62
    7
 10
630.56122746940002
 20
994.42663047589997
 11
630.56122746940002
 21
986.42663047589997
  0
LINE
  8
_0-8_小物
  6
CONTINUOUS
 62
    7
 10
629.56122746940002
 20
994.42663047589997
 11
630.56122746940002
 21
989.42663047589997
  0
LINE
  8
_0-8_小物
  6
CONTINUOUS
 62
    7
 10
633.56122746940002
 20
994.42663047589997
 11
634.56122746940002
 21
989.42663047589997
  0
LINE
  8
_0-8_小物
  6
CONTINUOUS
 62
    7
 10
635.56122746940002
 20
994.42663047589997
 11
634.56122746940002
 21
989.42663047589997
  0
LINE
  8
_0-8_小物
  6
CONTINUOUS
 62
    7
 10
634.56122746940002
 20
989.42663047589997
 11
634.56122746940002
 21
994.42663047589997
  0
LINE
  8
_0-8_小物
  6
CONTINUOUS
 62
    7
 10
638.56122746940002
 20
994.42663047589997
 11
638.56122746940002
 21
986.42663047589997
  0
LINE
  8
_0-8_小物
  6
CONTINUOUS
 62
    7
 10
639.56122746940002
 20
994.42663047589997
 11
638.56122746940002
 21
989.42663047589997
  0
LINE
  8
_0-8_小物
  6
CONTINUOUS
 62
    7
 10
636.43067146940007
 20
960.29607447590001
 11
634.56122746940002
 21
958.42663047589997
  0
LINE
  8
_0-8_小物
  6
CONTINUOUS
 62
    7
 10
629.56122746940002
 20
994.42663047589997
 11
639.56122746940002
 21
994.42663047589997
  0
LINE
  8
_0-8_小物
  6
CONTINUOUS
 62
    7
 10
631.02286407439999
 20
974.56939625799998
 11
629.1823194694
 21
979.62625147590006
  0
LINE
  8
_0-8_小物
  6
CONTINUOUS
 62
    7
 10
638.09959086430001
 20
974.56939625799998
 11
639.94013546940005
 21
979.62625147590006
  0
LINE
  8
_0-8_小物
  6
CONTINUOUS
 62
    7
 10
680.87982846940008
 20
979.28423147590001
 11
681.87218346940006
 21
986.08785347590003
  0
ARC
  8
_0-8_小物
  6
CONTINUOUS
 62
    7
 10
681.47637146940008
 20
986.14558547590002
 40
0.4
 50
351.70153400002903
 51
81.869898000009982
  0
LINE
  8
_0-8_小物
  6
CONTINUOUS
 62
    7
 10
681.53294046940005
 20
986.54156547590003
 11
681.33611546940006
 21
986.56968347589998
  0
ARC
  8
_0-8_小物
  6
CONTINUOUS
 62
    7
 10
681.27954746940009
 20
986.17370347589997
 40
0.4
 50
81.869898000009982
 51
171.86989800000001
  0
LINE
  8
_0-8_小物
  6
CONTINUOUS
 62
    7
 10
680.88356746940008
 20
986.23027247590005
 11
679.94013546940005
 21
979.62625147590006
  0
LINE
  8
_0-8_小物
  6
CONTINUOUS
 62
    7
 10
680.87982846940008
 20
979.28423147590001
 11
681.87218346940006
 21
986.08785347590003
  0
ARC
  8
_0-8_小物
  6
CONTINUOUS
 62
    7
 10
681.47637146940008
 20
986.14558547590002
 40
0.4
 50
351.70153400002903
 51
81.869898000009982
  0
LINE
  8
_0-8_小物
  6
CONTINUOUS
 62
    7
 10
681.53294046940005
 20
986.54156547590003
 11
681.33611546940006
 21
986.56968347589998
  0
ARC
  8
_0-8_小物
  6
CONTINUOUS
 62
    7
 10
681.27954746940009
 20
986.17370347589997
 40
0.4
 50
81.869898000009982
 51
171.86989800000001
  0
LINE
  8
_0-8_小物
  6
CONTINUOUS
 62
    7
 10
680.88356746940008
 20
986.23027247590005
 11
679.94013546940005
 21
979.62625147590006
  0
LINE
  8
_0-8_小物
  6
CONTINUOUS
 62
    7
 10
668.24262646940008
 20
979.28423147590001
 11
667.25027146939999
 21
986.08785347590003
  0
ARC
  8
_0-8_小物
  6
CONTINUOUS
 62
    7
 10
667.64608346940008
 20
986.14558547590002
 40
0.4
 50
98.130101999990003
 51
188.29846599999999
  0
LINE
  8
_0-8_小物
  6
CONTINUOUS
 62
    7
 10
667.5895144694
 20
986.54156547590003
 11
667.78633946939999
 21
986.56968347589998
  0
ARC
  8
_0-8_小物
  6
CONTINUOUS
 62
    7
 10
667.84290846940007
 20
986.17370347589997
 40
0.4
 50
8.1301019999570023
 51
98.130101999989975
  0
LINE
  8
_0-8_小物
  6
CONTINUOUS
 62
    7
 10
668.23888746940008
 20
986.23027247590005
 11
669.1823194694
 21
979.62625147590006
  0
LINE
  8
_0-8_小物
  6
CONTINUOUS
 62
    7
 10
670.56122746940002
 20
982.42663047589997
 11
670.56122746940002
 21
986.42663047589997
  0
LINE
  8
_0-8_小物
  6
CONTINUOUS
 62
    7
 10
672.54348446940003
 20
957.46637447590001
 11
669.04828146940008
 21
957.64954947590002
  0
LINE
  8
_0-8_小物
  6
CONTINUOUS
 62
    7
 10
669.04828146940008
 20
957.64954947590002
 11
670.94086846940002
 21
955.54761847589998
  0
LINE
  8
_0-8_小物
  6
CONTINUOUS
 62
    7
 10
670.94086846940002
 20
955.54761847589998
 11
672.43881246940009
 21
955.46911447590003
  0
LINE
  8
_0-8_小物
  6
CONTINUOUS
 62
    7
 10
672.43881246940009
 20
955.46911447590003
 11
674.06122746940002
 21
986.42663047589997
  0
LINE
  8
_0-8_小物
  6
CONTINUOUS
 62
    7
 10
678.56122746940002
 20
982.42663047589997
 11
678.56122746940002
 21
986.42663047589997
  0
LINE
  8
_0-8_小物
  6
CONTINUOUS
 62
    7
 10
676.57897046940002
 20
957.46637447590001
 11
680.07417346940008
 21
957.64954947590002
  0
LINE
  8
_0-8_小物
  6
CONTINUOUS
 62
    7
 10
680.07417346940008
 20
957.64954947590002
 11
678.18158646940003
 21
955.54761847589998
  0
LINE
  8
_0-8_小物
  6
CONTINUOUS
 62
    7
 10
678.18158646940003
 20
955.54761847589998
 11
676.68364246940007
 21
955.46911447590003
  0
LINE
  8
_0-8_小物
  6
CONTINUOUS
 62
    7
 10
676.68364246940007
 20
955.46911447590003
 11
675.06122746940002
 21
986.42663047589997
  0
LINE
  8
_0-8_小物
  6
CONTINUOUS
 62
    7
 10
669.9379924694
 20
974.62625147590006
 11
668.24262646940008
 21
979.28423147590001
  0
LINE
  8
_0-8_小物
  6
CONTINUOUS
 62
    7
 10
679.18446246940005
 20
974.62625147590006
 11
680.87982846940008
 21
979.28423147590001
  0
LINE
  8
_0-8_小物
  6
CONTINUOUS
 62
    7
 10
670.56122746940002
 20
982.42663047589997
 11
672.30160346939999
 21
981.51198647590002
  0
LINE
  8
_0-8_小物
  6
CONTINUOUS
 62
    7
 10
672.69178346940009
 20
960.29607447590001
 11
674.56122746940002
 21
958.42663047589997
  0
LINE
  8
_0-8_小物
  6
CONTINUOUS
 62
    7
 10
672.30160346939999
 20
981.51198647590002
 11
672.19693146940006
 21
979.51472747590003
  0
LINE
  8
_0-8_小物
  6
CONTINUOUS
 62
    7
 10
672.19693146940006
 20
979.51472747590003
 11
670.19967246940007
 21
979.61939947589997
  0
LINE
  8
_0-8_小物
  6
CONTINUOUS
 62
    7
 10
670.19967246940007
 20
979.61939947589997
 11
670.09500046940002
 21
977.62214047589998
  0
LINE
  8
_0-8_小物
  6
CONTINUOUS
 62
    7
 10
670.09500046940002
 20
977.62214047589998
 11
672.03992346940004
 21
976.51883947589999
  0
LINE
  8
_0-8_小物
  6
CONTINUOUS
 62
    7
 10
672.03992346940004
 20
976.51883947589999
 11
671.93525146939999
 21
974.52158047590001
  0
LINE
  8
_0-8_小物
  6
CONTINUOUS
 62
    7
 10
671.93525146939999
 20
974.52158047590001
 11
669.9379924694
 21
974.62625147590006
  0
LINE
  8
_0-8_小物
  6
CONTINUOUS
 62
    7
 10
669.9379924694
 20
974.62625147590006
 11
669.83332046940006
 21
972.62899247590008
  0
LINE
  8
_0-8_小物
  6
CONTINUOUS
 62
    7
 10
669.83332046940006
 20
972.62899247590008
 11
671.77824346940008
 21
971.52569147589998
  0
LINE
  8
_0-8_小物
  6
CONTINUOUS
 62
    7
 10
671.77824346940008
 20
971.52569147589998
 11
671.67357146940003
 21
969.52843247589999
  0
LINE
  8
_0-8_小物
  6
CONTINUOUS
 62
    7
 10
671.67357146940003
 20
969.52843247589999
 11
669.67631246940005
 21
969.63310447590004
  0
LINE
  8
_0-8_小物
  6
CONTINUOUS
 62
    7
 10
669.67631246940005
 20
969.63310447590004
 11
669.57164046939999
 21
967.63584547590006
  0
LINE
  8
_0-8_小物
  6
CONTINUOUS
 62
    7
 10
669.57164046939999
 20
967.63584547590006
 11
671.51656446940001
 21
966.53254347590007
  0
LINE
  8
_0-8_小物
  6
CONTINUOUS
 62
    7
 10
671.51656446940001
 20
966.53254347590007
 11
671.41189246940007
 21
964.53528447589997
  0
LINE
  8
_0-8_小物
  6
CONTINUOUS
 62
    7
 10
671.41189246940007
 20
964.53528447589997
 11
669.41463346940009
 21
964.63995647590002
  0
LINE
  8
_0-8_小物
  6
CONTINUOUS
 62
    7
 10
669.41463346940009
 20
964.63995647590002
 11
669.30996146940004
 21
962.64269747590004
  0
LINE
  8
_0-8_小物
  6
CONTINUOUS
 62
    7
 10
669.30996146940004
 20
962.64269747590004
 11
671.25488446940005
 21
961.53939647590005
  0
LINE
  8
_0-8_小物
  6
CONTINUOUS
 62
    7
 10
671.25488446940005
 20
961.53939647590005
 11
671.1502124694
 21
959.54213747590006
  0
LINE
  8
_0-8_小物
  6
CONTINUOUS
 62
    7
 10
671.1502124694
 20
959.54213747590006
 11
669.15295346940002
 21
959.6468084759
  0
LINE
  8
_0-8_小物
  6
CONTINUOUS
 62
    7
 10
669.15295346940002
 20
959.6468084759
 11
669.04828146940008
 21
957.64954947590002
  0
LINE
  8
_0-8_小物
  6
CONTINUOUS
 62
    7
 10
678.56122746940002
 20
982.42663047589997
 11
676.82085146940005
 21
981.51198647590002
  0
LINE
  8
_0-8_小物
  6
CONTINUOUS
 62
    7
 10
676.82085146940005
 20
981.51198647590002
 11
676.92552346939999
 21
979.51472747590003
  0
LINE
  8
_0-8_小物
  6
CONTINUOUS
 62
    7
 10
676.92552346939999
 20
979.51472747590003
 11
678.92278246940009
 21
979.61939947589997
  0
LINE
  8
_0-8_小物
  6
CONTINUOUS
 62
    7
 10
678.92278246940009
 20
979.61939947589997
 11
679.02745446940003
 21
977.62214047589998
  0
LINE
  8
_0-8_小物
  6
CONTINUOUS
 62
    7
 10
679.02745446940003
 20
977.62214047589998
 11
677.08253146940001
 21
976.51883947589999
  0
LINE
  8
_0-8_小物
  6
CONTINUOUS
 62
    7
 10
677.08253146940001
 20
976.51883947589999
 11
677.18720346940006
 21
974.52158047590001
  0
LINE
  8
_0-8_小物
  6
CONTINUOUS
 62
    7
 10
677.18720346940006
 20
974.52158047590001
 11
679.18446246940005
 21
974.62625147590006
  0
LINE
  8
_0-8_小物
  6
CONTINUOUS
 62
    7
 10
679.18446246940005
 20
974.62625147590006
 11
679.28913446939998
 21
972.62899247590008
  0
LINE
  8
_0-8_小物
  6
CONTINUOUS
 62
    7
 10
679.28913446939998
 20
972.62899247590008
 11
677.34421146940008
 21
971.52569147589998
  0
LINE
  8
_0-8_小物
  6
CONTINUOUS
 62
    7
 10
677.34421146940008
 20
971.52569147589998
 11
677.44888346940002
 21
969.52843247589999
  0
LINE
  8
_0-8_小物
  6
CONTINUOUS
 62
    7
 10
677.44888346940002
 20
969.52843247589999
 11
679.4461424694
 21
969.63310447590004
  0
LINE
  8
_0-8_小物
  6
CONTINUOUS
 62
    7
 10
679.4461424694
 20
969.63310447590004
 11
679.55081446940005
 21
967.63584547590006
  0
LINE
  8
_0-8_小物
  6
CONTINUOUS
 62
    7
 10
679.55081446940005
 20
967.63584547590006
 11
677.60589046940004
 21
966.53254347590007
  0
LINE
  8
_0-8_小物
  6
CONTINUOUS
 62
    7
 10
677.60589046940004
 20
966.53254347590007
 11
677.71056246940009
 21
964.53528447589997
  0
LINE
  8
_0-8_小物
  6
CONTINUOUS
 62
    7
 10
677.71056246940009
 20
964.53528447589997
 11
679.70782146940007
 21
964.63995647590002
  0
LINE
  8
_0-8_小物
  6
CONTINUOUS
 62
    7
 10
679.70782146940007
 20
964.63995647590002
 11
679.81249346940001
 21
962.64269747590004
  0
LINE
  8
_0-8_小物
  6
CONTINUOUS
 62
    7
 10
679.81249346940001
 20
962.64269747590004
 11
677.86757046939999
 21
961.53939647590005
  0
LINE
  8
_0-8_小物
  6
CONTINUOUS
 62
    7
 10
677.86757046939999
 20
961.53939647590005
 11
677.97224246940004
 21
959.54213747590006
  0
LINE
  8
_0-8_小物
  6
CONTINUOUS
 62
    7
 10
677.97224246940004
 20
959.54213747590006
 11
679.96950146940003
 21
959.6468084759
  0
LINE
  8
_0-8_小物
  6
CONTINUOUS
 62
    7
 10
679.96950146940003
 20
959.6468084759
 11
680.07417346940008
 21
957.64954947590002
  0
LINE
  8
_0-8_小物
  6
CONTINUOUS
 62
    7
 10
674.06122746940002
 20
986.42663047589997
 11
674.56122746940002
 21
986.42663047589997
  0
LINE
  8
_0-8_小物
  6
CONTINUOUS
 62
    7
 10
675.06122746940002
 20
986.42663047589997
 11
674.56122746940002
 21
986.42663047589997
  0
LINE
  8
_0-8_小物
  6
CONTINUOUS
 62
    7
 10
670.56122746940002
 20
994.42663047589997
 11
670.56122746940002
 21
986.42663047589997
  0
LINE
  8
_0-8_小物
  6
CONTINUOUS
 62
    7
 10
669.56122746940002
 20
994.42663047589997
 11
670.56122746940002
 21
989.42663047589997
  0
LINE
  8
_0-8_小物
  6
CONTINUOUS
 62
    7
 10
673.56122746940002
 20
994.42663047589997
 11
674.56122746940002
 21
989.42663047589997
  0
LINE
  8
_0-8_小物
  6
CONTINUOUS
 62
    7
 10
675.56122746940002
 20
994.42663047589997
 11
674.56122746940002
 21
989.42663047589997
  0
LINE
  8
_0-8_小物
  6
CONTINUOUS
 62
    7
 10
674.56122746940002
 20
989.42663047589997
 11
674.56122746940002
 21
994.42663047589997
  0
LINE
  8
_0-8_小物
  6
CONTINUOUS
 62
    7
 10
678.56122746940002
 20
994.42663047589997
 11
678.56122746940002
 21
986.42663047589997
  0
LINE
  8
_0-8_小物
  6
CONTINUOUS
 62
    7
 10
679.56122746940002
 20
994.42663047589997
 11
678.56122746940002
 21
989.42663047589997
  0
LINE
  8
_0-8_小物
  6
CONTINUOUS
 62
    7
 10
676.43067146940007
 20
960.29607447590001
 11
674.56122746940002
 21
958.42663047589997
  0
LINE
  8
_0-8_小物
  6
CONTINUOUS
 62
    7
 10
669.56122746940002
 20
994.42663047589997
 11
679.56122746940002
 21
994.42663047589997
  0
LINE
  8
_0-8_小物
  6
CONTINUOUS
 62
    7
 10
671.02286407439999
 20
974.56939625799998
 11
669.1823194694
 21
979.62625147590006
  0
LINE
  8
_0-8_小物
  6
CONTINUOUS
 62
    7
 10
678.09959086430001
 20
974.56939625799998
 11
679.94013546940005
 21
979.62625147590006
  0
LINE
  8
_0-a_寸法
  6
CONTINUOUS
 62
    7
 10
324.56122746940002
 20
888.70637547590002
 11
329.56122746940002
 21
889.95637547590002
  0
LINE
  8
_0-a_寸法
  6
CONTINUOUS
 62
    7
 10
324.56122746940002
 20
888.70637547590002
 11
329.56122746940002
 21
887.45637547590002
  0
LINE
  8
_0-a_寸法
  6
CONTINUOUS
 62
    7
 10
364.62053246940002
 20
888.70637547590002
 11
359.62053246940002
 21
887.45637547590002
  0
LINE
  8
_0-a_寸法
  6
CONTINUOUS
 62
    7
 10
364.62053246940002
 20
888.70637547590002
 11
359.62053246940002
 21
889.95637547590002
  0
LINE
  8
_0-a_寸法
  6
CONTINUOUS
 62
    7
 10
364.62053246940002
 20
888.70637547590002
 11
369.62053246940002
 21
889.95637547590002
  0
LINE
  8
_0-a_寸法
  6
CONTINUOUS
 62
    7
 10
364.62053246940002
 20
888.70637547590002
 11
369.62053246940002
 21
887.45637547590002
  0
LINE
  8
_0-a_寸法
  6
CONTINUOUS
 62
    7
 10
324.56122746940002
 20
948.74289547590001
 11
324.56122746940002
 21
884.70637547590002
  0
LINE
  8
_0-a_寸法
  6
CONTINUOUS
 62
    7
 10
364.56122746940002
 20
948.74289547590001
 11
364.56122746940002
 21
884.70637547590002
  0
LINE
  8
_0-a_寸法
  6
CONTINUOUS
 62
    7
 10
324.56122746940002
 20
888.70637547590002
 11
364.62053246940002
 21
888.70637547590002
  0
LINE
  8
_0-a_寸法
  6
CONTINUOUS
 62
    7
 10
674.56122746940002
 20
948.74289547590001
 11
674.56122746940002
 21
884.70637547590002
  0
LINE
  8
_0-a_寸法
  6
CONTINUOUS
 62
    7
 10
634.56122746940002
 20
948.74289547590001
 11
634.56122746940002
 21
884.70637547590002
  0
LINE
  8
_0-a_寸法
  6
CONTINUOUS
 62
    7
 10
564.56122746940002
 20
994.42663047589997
 11
564.56122746940002
 21
909.84702547590007
  0
LINE
  8
_0-a_寸法
  6
CONTINUOUS
 62
    7
 10
245.36946746939998
 20
1018.9266304759
 11
245.36946746939998
 21
994.42663047589997
  0
LINE
  8
_0-a_寸法
  6
CONTINUOUS
 62
    7
 10
262.56122746940002
 20
1018.9266304759
 11
241.36946746939998
 21
1018.9266304759
  0
LINE
  8
_0-a_寸法
  6
CONTINUOUS
 62
    7
 10
262.56122746940002
 20
994.42663047589997
 11
241.36946746939998
 21
994.42663047589997
  0
LINE
  8
_0-a_寸法
  6
CONTINUOUS
 62
    7
 10
245.36946746939998
 20
1018.9266304759
 11
246.61946746939998
 21
1013.9266304759
  0
LINE
  8
_0-a_寸法
  6
CONTINUOUS
 62
    7
 10
245.36946746939998
 20
1018.9266304759
 11
244.11946746939998
 21
1013.9266304759
  0
LINE
  8
_0-a_寸法
  6
CONTINUOUS
 62
    7
 10
245.36946746939998
 20
994.42663047589997
 11
244.11946746939998
 21
999.42663047589997
  0
LINE
  8
_0-a_寸法
  6
CONTINUOUS
 62
    7
 10
245.36946746939998
 20
994.42663047589997
 11
246.61946746939998
 21
999.42663047589997
  0
LINE
  8
_0-a_寸法
  6
CONTINUOUS
 62
    7
 10
245.36946746939998
 20
994.42663047589997
 11
245.36946746939998
 21
984.42663047589997
  0
LINE
  8
_0-a_寸法
  6
CONTINUOUS
 62
    7
 10
277.56121746940005
 20
984.42663047589997
 11
241.36946746939998
 21
984.42663047589997
  0
LINE
  8
_0-a_寸法
  6
CONTINUOUS
 62
    7
 10
245.36946746939998
 20
984.42663047589997
 11
246.61946746939998
 21
979.42663047589997
  0
LINE
  8
_0-a_寸法
  6
CONTINUOUS
 62
    7
 10
245.36946746939998
 20
984.42663047589997
 11
244.11946746939998
 21
979.42663047589997
  0
LINE
  8
_0-a_寸法
  6
CONTINUOUS
 62
    7
 10
245.36946746939998
 20
984.42663047589997
 11
245.36946746939998
 21
969.42663047589997
  0
LINE
  8
_0-a_寸法
  6
CONTINUOUS
 62
    7
 10
399.56121746940005
 20
913.84702547590007
 11
394.56121746940005
 21
912.59702547590007
  0
LINE
  8
_0-a_寸法
  6
CONTINUOUS
 62
    7
 10
399.56121746940005
 20
913.84702547590007
 11
394.56121746940005
 21
915.09702547590007
  0
LINE
  8
_0-a_寸法
  6
CONTINUOUS
 62
    7
 10
399.56121746940005
 20
913.84702547590007
 11
384.56121746940005
 21
913.84702547590007
  0
LINE
  8
_0-a_寸法
  6
CONTINUOUS
 62
    7
 10
399.56122746940002
 20
888.70637547590002
 11
394.56122746940002
 21
887.45637547590002
  0
LINE
  8
_0-a_寸法
  6
CONTINUOUS
 62
    7
 10
399.56122746940002
 20
888.70637547590002
 11
394.56122746940002
 21
889.95637547590002
  0
LINE
  8
_0-a_寸法
  6
CONTINUOUS
 62
    7
 10
399.56122746940002
 20
888.70637547590002
 11
404.56122746940002
 21
889.95637547590002
  0
LINE
  8
_0-a_寸法
  6
CONTINUOUS
 62
    7
 10
399.56122746940002
 20
888.70637547590002
 11
404.56122746940002
 21
887.45637547590002
  0
LINE
  8
_0-a_寸法
  6
CONTINUOUS
 62
    7
 10
399.56122746940002
 20
932.42663047589997
 11
399.56122746940002
 21
884.70637547590002
  0
LINE
  8
_0-a_寸法
  6
CONTINUOUS
 62
    7
 10
364.62053246940002
 20
888.70637547590002
 11
399.56122746940002
 21
888.70637547590002
  0
LINE
  8
_0-a_寸法
  6
CONTINUOUS
 62
    7
 10
399.56121746940005
 20
913.84702547590007
 11
434.56122746940002
 21
913.84702547590007
  0
CIRCLE
  8
_0-a_寸法
  6
CONTINUOUS
 62
    7
 10
388.82184549100003
 20
967.27770803940007
 40
7.5
  0
LINE
  8
_0-a_寸法
  6
CONTINUOUS
 62
    7
 10
370.69367048960004
 20
998.67663047589997
 11
385.07184526220004
 21
973.77289843569997
  0
LINE
  8
_0-3_躯体
  6
CONTINUOUS
 62
    7
 10
734.56122746940002
 20
994.42663047589997
 11
599.56122746940002
 21
994.42663047589997
  0
LINE
  8
_0-3_躯体
  6
CONTINUOUS
 62
    7
 10
599.56122746940002
 20
994.42663047589997
 11
599.56122746940002
 21
934.42663047589997
  0
LINE
  8
_0-3_躯体
  6
CONTINUOUS
 62
    7
 10
734.56122746940002
 20
994.42663047589997
 11
734.56122746940002
 21
934.42663047589997
  0
LINE
  8
_0-3_躯体
  6
CONTINUOUS
 62
    7
 10
599.56122746940002
 20
934.42663047589997
 11
734.56122746940002
 21
934.42663047589997
  0
LINE
  8
_0-3_躯体
  6
CONTINUOUS
 62
    7
 10
719.56122746940002
 20
994.42663047589997
 11
719.56122746940002
 21
984.42663047589997
  0
LINE
  8
_0-3_躯体
  6
CONTINUOUS
 62
    7
 10
719.56122746940002
 20
984.42663047589997
 11
599.56122746940002
 21
984.42663047589997
  0
ARC
  8
_0-4_止水補助板
  6
CONTINUOUS
 62
    7
 10
599.56122746940002
 20
994.42663047589997
 40
1
 50
90
 51
165.00000000000003
  0
LINE
  8
_0-3_躯体
  6
CONTINUOUS
 62
    7
 10
734.56122746940002
 20
994.42663047589997
 11
734.56122746940002
 21
1018.9266304759
  0
LINE
  8
_0-a_寸法
  6
CONTINUOUS
 62
    7
 10
599.56122746940002
 20
932.42663047589997
 11
599.56122746940002
 21
884.70637547590002
  0
LINE
  8
_0-3_躯体
  6
CONTINUOUS
 62
    7
 10
664.56122746940002
 20
1018.9266304759
 11
734.56122746940002
 21
1018.9266304759
  0
TEXT
  8
_0-a_寸法
 62
    7
 10
377.81122746940002
 20
1051.5299504755001
 40
16
 41
1
 50
0
  1
100
  0
TEXT
  8
_0-a_寸法
 62
    7
 10
492.81122746940002
 20
1051.5299504755001
 40
16
 41
1
 50
0
  1
130
  0
TEXT
  8
_0-a_寸法
 62
    7
 10
607.81122746940002
 20
1051.5299504755001
 40
16
 41
1
 50
0
  1
100
  0
TEXT
  8
_0-a_寸法
 62
    7
 10
245.36946788830005
 20
998.67663047589997
 40
16
 41
1
 50
90.000003000000149
  1
25
  0
TEXT
  8
_0-a_寸法
 62
    7
 10
245.36946779660002
 20
965.05163047589997
 40
16
 41
1
 50
90.000003000000149
  1
10
  0
TEXT
  8
_0-a_寸法
 62
    7
 10
492.64324751300001
 20
888.70637547590002
 40
16
 41
1
 50
0
  1
200
  0
TEXT
  8
_0-a_寸法
 62
    7
 10
341.32794246940006
 20
959.77770764310003
 40
15
 41
1
 50
0
  1
7
  0
TEXT
  8
_0-a_寸法
 62
    7
 10
385.07184549100003
 20
959.77770803940007
 40
15
 41
1
 50
0
  1
8
  0
LINE
  8
_0-4_止水補助板
  6
CONTINUOUS
 62
    7
 10
599.56122746940002
 20
994.42663047589997
 11
584.92286604629999
 21
939.79552190549998
  0
LINE
  8
_0-4_止水補助板
  6
CONTINUOUS
 62
    7
 10
598.59530164310002
 20
994.68544952100001
 11
583.88758986590005
 21
939.79552190549998
  0
ARC
  8
_0-4_止水補助板
  6
CONTINUOUS
 62
    7
 10
499.56122746940002
 20
962.39070261029997
 40
87.301074369770006
 50
194.99999999999997
 51
345
  0
ARC
  8
_0-4_止水補助板
  6
CONTINUOUS
 62
    7
 10
499.56122746940002
 20
962.39070261029997
 40
88.301074369770006
 50
194.99999999999997
 51
345.17386323822001
  0
TEXT
  8
_0-a_寸法
 62
    7
 10
581.56122746940002
 20
913.84702547590007
 40
16
 41
1
 50
0
  1
35
  0
TEXT
  8
_0-a_寸法
 62
    7
 10
401.56121746940005
 20
913.84702547590007
 40
16
 41
1
 50
0
  1
35
  0
LINE
  8
_0-a_寸法
  6
CONTINUOUS
 62
    7
 10
447.05952167960004
 20
891.84879164860001
 11
456.83388167960004
 21
908.77847664860008
  0
CIRCLE
  8
_0-a_寸法
  6
CONTINUOUS
 62
    7
 10
460.58388167960004
 20
915.27367164860004
 40
7.5
  0
CIRCLE
  8
_0-a_寸法
  6
CONTINUOUS
 62
    7
 10
447.05952167960004
 20
891.84879164860001
 40
1
  0
TEXT
  8
_0-a_寸法
 62
    7
 10
456.83388167960004
 20
907.77367164860004
 40
15
 41
1
 50
0
  1
4
  0
TEXT
  8
_0-a_寸法
 62
    7
 10
336.59087996940002
 20
888.70637547590002
 40
16
 41
1
 50
0
  1
40
  0
TEXT
  8
_0-a_寸法
 62
    7
 10
374.09087996940002
 20
888.70637547590002
 40
16
 41
1
 50
0
  1
35
  0
LINE
  8
_0-a_寸法
  6
CONTINUOUS
 62
    7
 10
399.56122746940002
 20
888.70637547590002
 11
599.56122746940002
 21
888.70637547590002
  0
LINE
  8
_0-a_寸法
  6
CONTINUOUS
 62
    7
 10
599.56122746940002
 20
888.70637547590002
 11
634.56122746940002
 21
888.70637547590002
  0
LINE
  8
_0-a_寸法
  6
CONTINUOUS
 62
    7
 10
634.56122746940002
 20
888.70637547590002
 11
674.56122746940002
 21
888.70637547590002
  0
LINE
  8
_0-a_寸法
  6
CONTINUOUS
 62
    7
 10
599.56122746940002
 20
888.70637547590002
 11
594.56122746940002
 21
887.45637547590002
  0
LINE
  8
_0-a_寸法
  6
CONTINUOUS
 62
    7
 10
599.56122746940002
 20
888.70637547590002
 11
594.56122746940002
 21
889.95637547590002
  0
LINE
  8
_0-a_寸法
  6
CONTINUOUS
 62
    7
 10
634.56122746940002
 20
888.70637547590002
 11
629.56122746940002
 21
887.45637547590002
  0
LINE
  8
_0-a_寸法
  6
CONTINUOUS
 62
    7
 10
634.56122746940002
 20
888.70637547590002
 11
629.56122746940002
 21
889.95637547590002
  0
LINE
  8
_0-a_寸法
  6
CONTINUOUS
 62
    7
 10
674.56122746940002
 20
888.70637547590002
 11
669.56122746940002
 21
887.45637547590002
  0
LINE
  8
_0-a_寸法
  6
CONTINUOUS
 62
    7
 10
674.56122746940002
 20
888.70637547590002
 11
669.56122746940002
 21
889.95637547590002
  0
LINE
  8
_0-a_寸法
  6
CONTINUOUS
 62
    7
 10
599.56122746940002
 20
888.70637547590002
 11
604.56122746940002
 21
889.95637547590002
  0
LINE
  8
_0-a_寸法
  6
CONTINUOUS
 62
    7
 10
599.56122746940002
 20
888.70637547590002
 11
604.56122746940002
 21
887.45637547590002
  0
LINE
  8
_0-a_寸法
  6
CONTINUOUS
 62
    7
 10
634.56122746940002
 20
888.70637547590002
 11
639.56122746940002
 21
889.95637547590002
  0
LINE
  8
_0-a_寸法
  6
CONTINUOUS
 62
    7
 10
634.56122746940002
 20
888.70637547590002
 11
639.56122746940002
 21
887.45637547590002
  0
TEXT
  8
_0-a_寸法
 62
    7
 10
609.06122746940002
 20
888.70637547590002
 40
16
 41
1
 50
0
  1
35
  0
TEXT
  8
_0-a_寸法
 62
    7
 10
646.56122746940002
 20
888.70637547590002
 40
16
 41
1
 50
0
  1
40
  0
LINE
  8
_0-a_寸法
  6
CONTINUOUS
 62
    7
 10
599.56122746940002
 20
913.84702547590007
 11
614.56123376300002
 21
913.84702547590007
  0
LINE
  8
_0-a_寸法
  6
CONTINUOUS
 62
    7
 10
599.56122746940002
 20
913.84702547590007
 11
564.56122746940002
 21
913.84702547590007
  0
LINE
  8
_0-a_寸法
  6
CONTINUOUS
 62
    7
 10
564.56122746940002
 20
913.84702547590007
 11
549.56122376300004
 21
913.84702547590007
  0
LINE
  8
_0-a_寸法
  6
CONTINUOUS
 62
    7
 10
599.56122746940002
 20
913.84702547590007
 11
604.56122746940002
 21
915.09702547590007
  0
LINE
  8
_0-a_寸法
  6
CONTINUOUS
 62
    7
 10
599.56122746940002
 20
913.84702547590007
 11
604.56122746940002
 21
912.59702547590007
  0
LINE
  8
_0-a_寸法
  6
CONTINUOUS
 62
    7
 10
564.56122746940002
 20
913.84702547590007
 11
559.56122746940002
 21
912.59702547590007
  0
LINE
  8
_0-a_寸法
  6
CONTINUOUS
 62
    7
 10
564.56122746940002
 20
913.84702547590007
 11
559.56122746940002
 21
915.09702547590007
  0
ARC
  8
_0-4_止水補助板
  6
CONTINUOUS
 62
    7
 10
399.56122746940002
 20
994.42663047589997
 40
1
 50
14.999999999989999
 51
90
  0
LINE
  8
_0-4_止水補助板
  6
CONTINUOUS
 62
    7
 10
400.52715329570003
 20
994.68544952100001
 11
415.23486507290005
 21
939.79552190549998
  0
LINE
  8
_0-4_止水補助板
  6
CONTINUOUS
 62
    7
 10
399.56122746940002
 20
994.42663047589997
 11
414.26893924660004
 21
939.53670286040006
  0
LINE
  8
_0-a_寸法
  6
CONTINUOUS
 62
    7
 10
264.56151090270009
 20
1018.9266304759
 11
264.56122746940002
 21
1018.9263470426
  0
LINE
  8
_0-3_躯体
  6
CONTINUOUS
 62
    7
 10
334.56122746940002
 20
1018.1766304759
 11
334.56122746940002
 21
1018.9266304759
  0
LINE
  8
_0-3_躯体
  6
CONTINUOUS
 62
    7
 10
264.56122746940002
 20
994.42663047589997
 11
399.56122746940002
 21
994.42663047589997
  0
LINE
  8
_0-3_躯体
  6
CONTINUOUS
 62
    7
 10
399.56122746940002
 20
994.42663047589997
 11
399.56122746940002
 21
934.42663047589997
  0
LINE
  8
_0-3_躯体
  6
CONTINUOUS
 62
    7
 10
264.56122746940002
 20
994.42663047589997
 11
264.56122746940002
 21
934.42663047589997
  0
LINE
  8
_0-3_躯体
  6
CONTINUOUS
 62
    7
 10
399.56122746940002
 20
934.42663047589997
 11
264.56122746940002
 21
934.42663047589997
  0
LINE
  8
_0-3_躯体
  6
CONTINUOUS
 62
    7
 10
279.56122746940002
 20
994.42663047589997
 11
279.56122746940002
 21
984.42663047589997
  0
LINE
  8
_0-3_躯体
  6
CONTINUOUS
 62
    7
 10
279.56122746940002
 20
984.42663047589997
 11
399.56122746940002
 21
984.42663047589997
  0
LINE
  8
_0-3_躯体
  6
CONTINUOUS
 62
    7
 10
264.56122746940002
 20
994.42663047589997
 11
264.56122746940002
 21
1018.9266304759
  0
LINE
  8
_0-3_躯体
  6
CONTINUOUS
 62
    7
 10
334.56122746940002
 20
1018.9266304759
 11
264.56122746940002
 21
1018.9266304759
  0
LINE
  8
_0-a_寸法
  6
CONTINUOUS
 62
    7
 10
399.56122746940002
 20
913.48629047589998
 11
399.56122746940002
 21
994.42663047589997
  0
LINE
  8
_0-4_止水補助板
  6
CONTINUOUS
 62
    7
 10
309.56122746940002
 20
995.42663047589997
 11
309.56122746940002
 21
994.42663047589997
  0
LINE
  8
_0-4_止水補助板
  6
CONTINUOUS
 62
    7
 10
399.56122746940002
 20
995.42663047589997
 11
309.56122746940002
 21
995.42663047589997
  0
LINE
  8
_0-4_止水補助板
  6
CONTINUOUS
 62
    7
 10
309.56122746940002
 20
994.42663047589997
 11
399.56122746940002
 21
994.42663047589997
  0
LINE
  8
_0-4_止水補助板
  6
CONTINUOUS
 62
    7
 10
599.56122746940002
 20
995.42663047589997
 11
689.56122746940002
 21
995.42663047589997
  0
LINE
  8
_0-4_止水補助板
  6
CONTINUOUS
 62
    7
 10
689.56122746940002
 20
994.42663047589997
 11
599.56122746940002
 21
994.42663047589997
  0
LINE
  8
_0-4_止水補助板
  6
CONTINUOUS
 62
    7
 10
689.56122746940002
 20
995.42663047589997
 11
689.56122746940002
 21
994.42663047589997
  0
LINE
  8
_0-3_躯体
  6
CONTINUOUS
 62
    7
 10
399.56122746940002
 20
989.74872143360005
 11
394.23913651170005
 21
984.42663047589997
  0
LINE
  8
_0-3_躯体
  6
CONTINUOUS
 62
    7
 10
397.16806869990006
 20
994.42663047589997
 11
387.16806869990006
 21
984.42663047589997
  0
LINE
  8
_0-3_躯体
  6
CONTINUOUS
 62
    7
 10
390.09700088800003
 20
994.42663047589997
 11
380.09700088800003
 21
984.42663047589997
  0
LINE
  8
_0-3_躯体
  6
CONTINUOUS
 62
    7
 10
383.02593307620003
 20
994.42663047589997
 11
373.02593307620003
 21
984.42663047589997
  0
LINE
  8
_0-3_躯体
  6
CONTINUOUS
 62
    7
 10
375.95486526430005
 20
994.42663047589997
 11
365.95486526430005
 21
984.42663047589997
  0
LINE
  8
_0-3_躯体
  6
CONTINUOUS
 62
    7
 10
368.88379745240002
 20
994.42663047589997
 11
358.88379745240002
 21
984.42663047589997
  0
LINE
  8
_0-3_躯体
  6
CONTINUOUS
 62
    7
 10
361.81272964060003
 20
994.42663047589997
 11
351.81272964060003
 21
984.42663047589997
  0
LINE
  8
_0-3_躯体
  6
CONTINUOUS
 62
    7
 10
354.74166182870005
 20
994.42663047589997
 11
344.74166182870005
 21
984.42663047589997
  0
LINE
  8
_0-3_躯体
  6
CONTINUOUS
 62
    7
 10
347.67059401680001
 20
994.42663047589997
 11
337.67059401680001
 21
984.42663047589997
  0
LINE
  8
_0-3_躯体
  6
CONTINUOUS
 62
    7
 10
340.59952620500002
 20
994.42663047589997
 11
330.59952620500002
 21
984.42663047589997
  0
LINE
  8
_0-3_躯体
  6
CONTINUOUS
 62
    7
 10
338.48635785680005
 20
999.38452993960004
 11
337.10332800570006
 21
998.00150008850005
  0
LINE
  8
_0-3_躯体
  6
CONTINUOUS
 62
    7
 10
333.52845839310004
 20
994.42663047589997
 11
323.52845839309998
 21
984.42663047589997
  0
LINE
  8
_0-3_躯体
  6
CONTINUOUS
 62
    7
 10
338.56122746940002
 20
1006.5304673641
 11
331.45739058120006
 21
999.42663047589997
  0
LINE
  8
_0-3_躯体
  6
CONTINUOUS
 62
    7
 10
326.45739058120012
 20
994.42663047589997
 11
316.45739058120012
 21
984.42663047589997
  0
LINE
  8
_0-3_躯体
  6
CONTINUOUS
 62
    7
 10
334.90980336670003
 20
1009.9501110732
 11
327.13402748590011
 21
1002.1743351924
  0
LINE
  8
_0-3_躯体
  6
CONTINUOUS
 62
    7
 10
319.38632276940007
 20
994.42663047589997
 11
309.38632276940007
 21
984.42663047589997
  0
LINE
  8
_0-3_躯体
  6
CONTINUOUS
 62
    7
 10
334.56122746940002
 20
1016.6726029878
 11
317.31525495749997
 21
999.42663047589997
  0
LINE
  8
_0-3_躯体
  6
CONTINUOUS
 62
    7
 10
312.31525495749997
 20
994.42663047589997
 11
302.31525495749997
 21
984.42663047589997
  0
LINE
  8
_0-3_躯体
  6
CONTINUOUS
 62
    7
 10
329.74418714560005
 20
1018.9266304759
 11
295.24418714560011
 21
984.42663047589997
  0
LINE
  8
_0-3_躯体
  6
CONTINUOUS
 62
    7
 10
322.67311933380006
 20
1018.9266304759
 11
288.17311933380006
 21
984.42663047589997
  0
LINE
  8
_0-3_躯体
  6
CONTINUOUS
 62
    7
 10
315.60205152189997
 20
1018.9266304759
 11
281.10205152189997
 21
984.42663047589997
  0
LINE
  8
_0-3_躯体
  6
CONTINUOUS
 62
    7
 10
308.5309837100001
 20
1018.9266304759
 11
279.56122746940002
 21
989.95687423530001
  0
LINE
  8
_0-3_躯体
  6
CONTINUOUS
 62
    7
 10
301.45991589820005
 20
1018.9266304759
 11
276.95991589820005
 21
994.42663047589997
  0
LINE
  8
_0-3_躯体
  6
CONTINUOUS
 62
    7
 10
294.38884808629996
 20
1018.9266304759
 11
269.88884808629996
 21
994.42663047589997
  0
LINE
  8
_0-3_躯体
  6
CONTINUOUS
 62
    7
 10
287.31778027440009
 20
1018.9266304759
 11
264.56122746940002
 21
996.17007767090001
  0
LINE
  8
_0-3_躯体
  6
CONTINUOUS
 62
    7
 10
280.24671246260004
 20
1018.9266304759
 11
264.56122746940002
 21
1003.2411454827001
  0
LINE
  8
_0-3_躯体
  6
CONTINUOUS
 62
    7
 10
273.17564465070006
 20
1018.9266304759
 11
264.56122746940002
 21
1010.3122132946
  0
LINE
  8
_0-3_躯体
  6
CONTINUOUS
 62
    7
 10
266.10457683880009
 20
1018.9266304759
 11
264.56122746940002
 21
1017.3832811065
  0
LINE
  8
_0-3_躯体
  6
CONTINUOUS
 62
    7
 10
734.56122746940002
 20
999.4796020878
 11
729.50825585760003
 21
994.42663047589997
  0
LINE
  8
_0-3_躯体
  6
CONTINUOUS
 62
    7
 10
719.56122746940002
 20
984.4796020878
 11
719.50825585760003
 21
984.42663047589997
  0
LINE
  8
_0-3_躯体
  6
CONTINUOUS
 62
    7
 10
734.56122746940002
 20
1006.5506698996001
 11
722.43718804570005
 21
994.42663047589997
  0
LINE
  8
_0-3_躯体
  6
CONTINUOUS
 62
    7
 10
719.56122746940002
 20
991.55066989960005
 11
712.43718804570005
 21
984.42663047589997
  0
LINE
  8
_0-3_躯体
  6
CONTINUOUS
 62
    7
 10
734.56122746940002
 20
1013.6217377115
 11
705.36612023380007
 21
984.42663047589997
  0
LINE
  8
_0-3_躯体
  6
CONTINUOUS
 62
    7
 10
732.79505242200003
 20
1018.9266304759
 11
698.29505242200003
 21
984.42663047589997
  0
LINE
  8
_0-3_躯体
  6
CONTINUOUS
 62
    7
 10
725.72398461010005
 20
1018.9266304759
 11
691.22398461010005
 21
984.42663047589997
  0
LINE
  8
_0-3_躯体
  6
CONTINUOUS
 62
    7
 10
718.65291679820007
 20
1018.9266304759
 11
684.15291679820007
 21
984.42663047589997
  0
LINE
  8
_0-3_躯体
  6
CONTINUOUS
 62
    7
 10
711.58184898640002
 20
1018.9266304759
 11
689.56122746940002
 21
996.90600895889997
  0
LINE
  8
_0-3_躯体
  6
CONTINUOUS
 62
    7
 10
687.08184898640002
 20
994.42663047589997
 11
677.08184898640002
 21
984.42663047589997
  0
LINE
  8
_0-3_躯体
  6
CONTINUOUS
 62
    7
 10
704.51078117450004
 20
1018.9266304759
 11
683.56122746940002
 21
997.97707677080007
  0
LINE
  8
_0-3_躯体
  6
CONTINUOUS
 62
    7
 10
680.01078117450004
 20
994.42663047589997
 11
670.01078117450004
 21
984.42663047589997
  0
LINE
  8
_0-3_躯体
  6
CONTINUOUS
 62
    7
 10
697.43971336260006
 20
1018.9266304759
 11
678.87062704640005
 21
1000.3575441597001
  0
LINE
  8
_0-3_躯体
  6
CONTINUOUS
 62
    7
 10
672.93971336260006
 20
994.42663047589997
 11
662.93971336260006
 21
984.42663047589997
  0
LINE
  8
_0-3_躯体
  6
CONTINUOUS
 62
    7
 10
690.36864555080001
 20
1018.9266304759
 11
674.26025137760007
 21
1002.8182363028001
  0
LINE
  8
_0-3_躯体
  6
CONTINUOUS
 62
    7
 10
665.86864555080001
 20
994.42663047589997
 11
655.86864555080001
 21
984.42663047589997
  0
LINE
  8
_0-3_躯体
  6
CONTINUOUS
 62
    7
 10
683.29757773890003
 20
1018.9266304759
 11
662.3130371016
 21
997.94208983860005
  0
LINE
  8
_0-3_躯体
  6
CONTINUOUS
 62
    7
 10
658.79757773890003
 20
994.42663047589997
 11
648.79757773890003
 21
984.42663047589997
  0
LINE
  8
_0-3_躯体
  6
CONTINUOUS
 62
    7
 10
676.22650992700005
 20
1018.9266304759
 11
660.56122746940002
 21
1003.2613480183001
  0
LINE
  8
_0-3_躯体
  6
CONTINUOUS
 62
    7
 10
651.72650992700005
 20
994.42663047589997
 11
641.72650992700005
 21
984.42663047589997
  0
LINE
  8
_0-3_躯体
  6
CONTINUOUS
 62
    7
 10
669.1554421152
 20
1018.9266304759
 11
664.56122746940002
 21
1014.3324158301
  0
LINE
  8
_0-3_躯体
  6
CONTINUOUS
 62
    7
 10
644.6554421152
 20
994.42663047589997
 11
634.6554421152
 21
984.42663047589997
  0
LINE
  8
_0-3_躯体
  6
CONTINUOUS
 62
    7
 10
637.58437430330002
 20
994.42663047589997
 11
627.58437430330002
 21
984.42663047589997
  0
LINE
  8
_0-3_躯体
  6
CONTINUOUS
 62
    7
 10
630.51330649140004
 20
994.42663047589997
 11
620.51330649140004
 21
984.42663047589997
  0
LINE
  8
_0-3_躯体
  6
CONTINUOUS
 62
    7
 10
623.4422386796
 20
994.42663047589997
 11
613.4422386796
 21
984.42663047589997
  0
LINE
  8
_0-3_躯体
  6
CONTINUOUS
 62
    7
 10
616.37117086770002
 20
994.42663047589997
 11
606.37117086770002
 21
984.42663047589997
  0
LINE
  8
_0-3_躯体
  6
CONTINUOUS
 62
    7
 10
609.30010305580004
 20
994.42663047589997
 11
599.56122746940002
 21
984.68775488950007
  0
LINE
  8
_0-3_躯体
  6
CONTINUOUS
 62
    7
 10
602.22903524399999
 20
994.42663047589997
 11
599.56122746940002
 21
991.75882270130001
  0
CIRCLE
  8
_0-a_寸法
  6
CONTINUOUS
 62
    7
 10
314.86417746940003
 20
989.88500547590002
 40
1.5
  0
CIRCLE
  8
_0-a_寸法
  6
CONTINUOUS
 62
    7
 10
320.94086746940002
 20
955.54762047589998
 40
1.5
  0
LINE
  8
_0-a_寸法
  6
CONTINUOUS
 62
    7
 10
314.86417746940003
 20
989.88500547590002
 11
272.52741588110007
 21
916.55558547589999
  0
TEXT
  8
_0-a_寸法
 62
    7
 10
96.483540881099998
 20
916.55558547589999
 40
16
 41
1
 50
0
  1
ならしモルタル（別途）
  0
LINE
  8
_0-a_寸法
  6
CONTINUOUS
 62
    7
 10
272.52741588110007
 20
916.55558547589999
 11
93.069478745600009
 21
916.55558547589999
  0
LINE
  8
_0-a_寸法
  6
CENTER
 62
    7
 10
499.56122746940002
 20
1036.7581919561001
 11
499.56122746940002
 21
934.42663047589997
  0
TEXT
  8
_0-a_寸法
 62
    7
 10
492.81122746940002
 20
1075.2536854755001
 40
16
 41
1
 50
0
  1
330
  0
LINE
  8
_0-3_躯体
  6
CONTINUOUS
 62
    7
 10
1658.071040496
 20
1083.8266304755
 11
1658.071040496
 21
933.42663047589997
  0
LINE
  8
_0-3_躯体
  6
HIDDEN
 62
    7
 10
1658.071040496
 20
1083.8266304755
 11
1708.071040496
 21
1083.8266304755
  0
LINE
  8
_0-3_躯体
  6
HIDDEN
 62
    7
 10
1658.071040496
 20
933.42663047589997
 11
1708.071040496
 21
933.42663047589997
  0
LINE
  8
_0-3_躯体
  6
HIDDEN
 62
    7
 10
1708.071040496
 20
1083.8266304755
 11
1708.071040496
 21
933.42663047589997
  0
LINE
  8
_0-4_止水補助板
  6
CONTINUOUS
 62
    7
 10
1657.071040496
 20
1062.4266304755001
 11
1658.071040496
 21
1062.4266304755001
  0
LINE
  8
_0-4_止水補助板
  6
CONTINUOUS
 62
    7
 10
1657.071040496
 20
993.42663047589997
 11
1657.071040496
 21
1062.4266304755001
  0
LINE
  8
_0-4_止水補助板
  6
CONTINUOUS
 62
    7
 10
1658.071040496
 20
993.29497797830004
 11
1658.071040496
 21
1062.4266304755001
  0
LINE
  8
_0-8_小物
  6
CONTINUOUS
 62
    7
 10
1702.4547754959999
 20
1021.4266304759
 11
1648.3874904959998
 21
1021.4266304759
  0
ARC
  8
_0-8_小物
  6
CONTINUOUS
 62
    7
 10
1653.8997504960003
 20
1019.9238704759
 40
3
 50
218.61463800000001
 51
267.54107399997997
  0
ARC
  8
_0-8_小物
  6
CONTINUOUS
 62
    7
 10
1655.7710404959998
 20
1021.4266304759
 40
5.4000000000000004
 50
180
 51
218.682187
  0
ARC
  8
_0-8_小物
  6
CONTINUOUS
 62
    7
 10
1655.7710404959998
 20
1021.4266304759
 40
5.4000000000000004
 50
141.14893799999996
 51
180.00000000000009
  0
ARC
  8
_0-8_小物
  6
CONTINUOUS
 62
    7
 10
1653.8997504960003
 20
1022.9293954759
 40
3
 50
92.45892600002
 51
141.38536199999999
  0
LINE
  8
_0-8_小物
  6
CONTINUOUS
 62
    7
 10
1653.7710404959998
 20
1030.4266304758999
 11
1653.7710404959998
 21
1012.4266304759
  0
LINE
  8
_0-8_小物
  6
CONTINUOUS
 62
    7
 10
1653.7710404959998
 20
1012.4266304759
 11
1655.2710404959998
 21
1012.4266304759
  0
LINE
  8
_0-8_小物
  6
CONTINUOUS
 62
    7
 10
1653.7710404959998
 20
1030.4266304758999
 11
1655.2710404959998
 21
1030.4266304758999
  0
LINE
  8
_0-a_寸法
  6
CONTINUOUS
 62
    7
 10
1658.071040496
 20
884.15418047590003
 11
1653.071040496
 21
882.90418047590003
  0
LINE
  8
_0-a_寸法
  6
CONTINUOUS
 62
    7
 10
1658.071040496
 20
884.15418047590003
 11
1653.071040496
 21
885.40418047590003
  0
LINE
  8
_0-a_寸法
  6
CONTINUOUS
 62
    7
 10
1725.0261254960001
 20
1021.4266304759
 11
1725.0261254960001
 21
993.42663047589997
  0
LINE
  8
_0-a_寸法
  6
CONTINUOUS
 62
    7
 10
1704.9547754959999
 20
1021.4266304759
 11
1730.0261254960001
 21
1021.4266304759
  0
LINE
  8
_0-a_寸法
  6
CONTINUOUS
 62
    7
 10
1725.0261254960001
 20
1021.4266304759
 11
1726.2761254960001
 21
1016.4266304759
  0
LINE
  8
_0-a_寸法
  6
CONTINUOUS
 62
    7
 10
1725.0261254960001
 20
1021.4266304759
 11
1723.7761254960001
 21
1016.4266304759
  0
LINE
  8
_0-a_寸法
  6
CONTINUOUS
 62
    7
 10
1725.0261254960001
 20
993.42663047589997
 11
1723.7761254960001
 21
998.42663047589997
  0
LINE
  8
_0-a_寸法
  6
CONTINUOUS
 62
    7
 10
1725.0261254960001
 20
993.42663047589997
 11
1726.2761254960001
 21
998.42663047589997
  0
LINE
  8
_0-a_寸法
  6
CONTINUOUS
 62
    7
 10
1654.5210404959998
 20
1014.676631624
 11
1669.7313154960002
 21
988.33166662400004
  0
CIRCLE
  8
_0-a_寸法
  6
CONTINUOUS
 62
    7
 10
1673.4813154960002
 20
981.83647662400006
 40
7.5
  0
CIRCLE
  8
_0-a_寸法
  6
CONTINUOUS
 62
    7
 10
1654.5210404959998
 20
1014.676631624
 40
1
  0
LINE
  8
_0-a_寸法
  6
CONTINUOUS
 62
    7
 10
1658.071040496
 20
930.92663047589997
 11
1658.071040496
 21
879.15418047590003
  0
LINE
  8
_0-a_寸法
  6
CONTINUOUS
 62
    7
 10
1638.8210424960002
 20
1072.4266304755001
 11
1620.4490424959999
 21
1057.0106904755
  0
CIRCLE
  8
_0-a_寸法
  6
CONTINUOUS
 62
    7
 10
1614.7037074959999
 20
1052.1897854755
 40
7.5
  0
CIRCLE
  8
_0-a_寸法
  6
CONTINUOUS
 62
    7
 10
1638.8210424960002
 20
1072.4266304755001
 40
1
  0
CIRCLE
  8
_0-a_寸法
  6
CONTINUOUS
 62
    7
 10
1657.5710394960001
 20
1071.7630279755001
 40
1
  0
CIRCLE
  8
_0-a_寸法
  6
CONTINUOUS
 62
    7
 10
1684.8171942459999
 20
1069.5727854755
 40
7.5
  0
CIRCLE
  8
_0-a_寸法
  6
CONTINUOUS
 62
    7
 10
1656.171039246
 20
1040.9266304758999
 40
1
  0
CIRCLE
  8
_0-a_寸法
  6
CONTINUOUS
 62
    7
 10
1652.071040496
 20
1021.4266304759
 40
1
  0
LINE
  8
_0-a_寸法
  6
CONTINUOUS
 62
    7
 10
1657.5710394960001
 20
1071.7630279755001
 11
1679.5138942459998
 21
1093.7058827255
  0
LINE
  8
_0-a_寸法
  6
CONTINUOUS
 62
    7
 10
1656.171039246
 20
1040.9266304758999
 11
1679.5138942459998
 21
1064.2694854755
  0
CIRCLE
  8
_0-a_寸法
  6
CONTINUOUS
 62
    7
 10
1684.8171951049999
 20
1099.0091835845001
 40
7.5
  0
CIRCLE
  8
_0-a_寸法
  6
CONTINUOUS
 62
    7
 10
1677.9564816669999
 20
1047.3120716475
 40
7.5
  0
LINE
  8
_0-a_寸法
  6
CONTINUOUS
 62
    7
 10
1652.071040496
 20
1021.4266304759
 11
1672.6531808079999
 21
1042.0087707883999
  0
LINE
  8
_0-8_小物
  6
CONTINUOUS
 62
    7
 10
1673.213438496
 20
1027.7452314759
 11
1666.4098164960001
 21
1028.7375864759001
  0
ARC
  8
_0-8_小物
  6
CONTINUOUS
 62
    7
 10
1666.3520844959999
 20
1028.3417744758999
 40
0.4
 50
81.701534000029994
 51
171.86989800000001
  0
LINE
  8
_0-8_小物
  6
CONTINUOUS
 62
    7
 10
1665.9561044960001
 20
1028.3983434759
 11
1665.9279864959999
 21
1028.2015184759
  0
ARC
  8
_0-8_小物
  6
CONTINUOUS
 62
    7
 10
1666.3239664960001
 20
1028.1449504759
 40
0.4
 50
171.86989800000001
 51
261.86989799999998
  0
LINE
  8
_0-8_小物
  6
CONTINUOUS
 62
    7
 10
1666.2673974959998
 20
1027.7489704759
 11
1672.8714184959999
 21
1026.8055384759
  0
LINE
  8
_0-8_小物
  6
CONTINUOUS
 62
    7
 10
1673.213438496
 20
1027.7452314759
 11
1666.4098164960001
 21
1028.7375864759001
  0
ARC
  8
_0-8_小物
  6
CONTINUOUS
 62
    7
 10
1666.3520844959999
 20
1028.3417744758999
 40
0.4
 50
81.701534000029994
 51
171.86989800000001
  0
LINE
  8
_0-8_小物
  6
CONTINUOUS
 62
    7
 10
1665.9561044960001
 20
1028.3983434759
 11
1665.9279864959999
 21
1028.2015184759
  0
ARC
  8
_0-8_小物
  6
CONTINUOUS
 62
    7
 10
1666.3239664960001
 20
1028.1449504759
 40
0.4
 50
171.86989800000001
 51
261.86989799999998
  0
LINE
  8
_0-8_小物
  6
CONTINUOUS
 62
    7
 10
1666.2673974959998
 20
1027.7489704759
 11
1672.8714184959999
 21
1026.8055384759
  0
LINE
  8
_0-8_小物
  6
CONTINUOUS
 62
    7
 10
1673.213438496
 20
1015.1080294759
 11
1666.4098164960001
 21
1014.1156744759001
  0
ARC
  8
_0-8_小物
  6
CONTINUOUS
 62
    7
 10
1666.3520844959999
 20
1014.5114864759
 40
0.4
 50
188.13010199999999
 51
278.29846599997001
  0
LINE
  8
_0-8_小物
  6
CONTINUOUS
 62
    7
 10
1665.9561044960001
 20
1014.4549174759001
 11
1665.9279864959999
 21
1014.6517424759001
  0
ARC
  8
_0-8_小物
  6
CONTINUOUS
 62
    7
 10
1666.3239664960001
 20
1014.7083114759
 40
0.4
 50
98.130101999960004
 51
188.13010199999999
  0
LINE
  8
_0-8_小物
  6
CONTINUOUS
 62
    7
 10
1666.2673974959998
 20
1015.1042904759
 11
1672.8714184959999
 21
1016.0477224759001
  0
LINE
  8
_0-8_小物
  6
CONTINUOUS
 62
    7
 10
1670.0710394960001
 20
1017.4266304759
 11
1666.0710394960001
 21
1017.4266304759
  0
LINE
  8
_0-8_小物
  6
CONTINUOUS
 62
    7
 10
1695.031295496
 20
1019.4088874759
 11
1694.8481204959999
 21
1015.9136844759
  0
LINE
  8
_0-8_小物
  6
CONTINUOUS
 62
    7
 10
1694.8481204959999
 20
1015.9136844759
 11
1696.950051496
 21
1017.8062714759001
  0
LINE
  8
_0-8_小物
  6
CONTINUOUS
 62
    7
 10
1696.950051496
 20
1017.8062714759001
 11
1697.0285554960001
 21
1019.3042154759
  0
LINE
  8
_0-8_小物
  6
CONTINUOUS
 62
    7
 10
1697.0285554960001
 20
1019.3042154759
 11
1666.0710394960001
 21
1020.9266304759
  0
LINE
  8
_0-8_小物
  6
CONTINUOUS
 62
    7
 10
1670.0710394960001
 20
1025.4266304758999
 11
1666.0710394960001
 21
1025.4266304758999
  0
LINE
  8
_0-8_小物
  6
CONTINUOUS
 62
    7
 10
1695.031295496
 20
1023.4443734759001
 11
1694.8481204959999
 21
1026.9395764759001
  0
LINE
  8
_0-8_小物
  6
CONTINUOUS
 62
    7
 10
1694.8481204959999
 20
1026.9395764759001
 11
1696.950051496
 21
1025.0469894758999
  0
LINE
  8
_0-8_小物
  6
CONTINUOUS
 62
    7
 10
1696.950051496
 20
1025.0469894758999
 11
1697.0285554960001
 21
1023.5490454759
  0
LINE
  8
_0-8_小物
  6
CONTINUOUS
 62
    7
 10
1697.0285554960001
 20
1023.5490454759
 11
1666.0710394960001
 21
1021.9266304759
  0
LINE
  8
_0-8_小物
  6
CONTINUOUS
 62
    7
 10
1677.8714184959999
 20
1016.8033954759001
 11
1673.213438496
 21
1015.1080294759
  0
LINE
  8
_0-8_小物
  6
CONTINUOUS
 62
    7
 10
1677.8714184959999
 20
1026.0498654758999
 11
1673.213438496
 21
1027.7452314759
  0
LINE
  8
_0-8_小物
  6
CONTINUOUS
 62
    7
 10
1670.0710394960001
 20
1017.4266304759
 11
1670.9856834960001
 21
1019.1670064759001
  0
LINE
  8
_0-8_小物
  6
CONTINUOUS
 62
    7
 10
1692.2015954960002
 20
1019.5571864759
 11
1694.0710394960001
 21
1021.4266304759
  0
LINE
  8
_0-8_小物
  6
CONTINUOUS
 62
    7
 10
1670.9856834960001
 20
1019.1670064759001
 11
1672.9829424959999
 21
1019.0623344759
  0
LINE
  8
_0-8_小物
  6
CONTINUOUS
 62
    7
 10
1672.9829424959999
 20
1019.0623344759
 11
1672.8782704959999
 21
1017.0650754759
  0
LINE
  8
_0-8_小物
  6
CONTINUOUS
 62
    7
 10
1672.8782704959999
 20
1017.0650754759
 11
1674.8755294960001
 21
1016.9604034759001
  0
LINE
  8
_0-8_小物
  6
CONTINUOUS
 62
    7
 10
1674.8755294960001
 20
1016.9604034759001
 11
1675.9788304960002
 21
1018.9053264759
  0
LINE
  8
_0-8_小物
  6
CONTINUOUS
 62
    7
 10
1675.9788304960002
 20
1018.9053264759
 11
1677.976089496
 21
1018.8006544759
  0
LINE
  8
_0-8_小物
  6
CONTINUOUS
 62
    7
 10
1677.976089496
 20
1018.8006544759
 11
1677.8714184959999
 21
1016.8033954759001
  0
LINE
  8
_0-8_小物
  6
CONTINUOUS
 62
    7
 10
1677.8714184959999
 20
1016.8033954759001
 11
1679.8686774960001
 21
1016.6987234759
  0
LINE
  8
_0-8_小物
  6
CONTINUOUS
 62
    7
 10
1679.8686774960001
 20
1016.6987234759
 11
1680.9719784960002
 21
1018.6436464759
  0
LINE
  8
_0-8_小物
  6
CONTINUOUS
 62
    7
 10
1680.9719784960002
 20
1018.6436464759
 11
1682.969237496
 21
1018.5389744759
  0
LINE
  8
_0-8_小物
  6
CONTINUOUS
 62
    7
 10
1682.969237496
 20
1018.5389744759
 11
1682.8645654960001
 21
1016.5417154759
  0
LINE
  8
_0-8_小物
  6
CONTINUOUS
 62
    7
 10
1682.8645654960001
 20
1016.5417154759
 11
1684.8618244959998
 21
1016.4370434759001
  0
LINE
  8
_0-8_小物
  6
CONTINUOUS
 62
    7
 10
1684.8618244959998
 20
1016.4370434759001
 11
1685.9651264959998
 21
1018.3819674759001
  0
LINE
  8
_0-8_小物
  6
CONTINUOUS
 62
    7
 10
1685.9651264959998
 20
1018.3819674759001
 11
1687.962385496
 21
1018.2772954759
  0
LINE
  8
_0-8_小物
  6
CONTINUOUS
 62
    7
 10
1687.962385496
 20
1018.2772954759
 11
1687.8577134960001
 21
1016.2800364759
  0
LINE
  8
_0-8_小物
  6
CONTINUOUS
 62
    7
 10
1687.8577134960001
 20
1016.2800364759
 11
1689.8549724959998
 21
1016.1753644759
  0
LINE
  8
_0-8_小物
  6
CONTINUOUS
 62
    7
 10
1689.8549724959998
 20
1016.1753644759
 11
1690.9582734959999
 21
1018.1202874759
  0
LINE
  8
_0-8_小物
  6
CONTINUOUS
 62
    7
 10
1690.9582734959999
 20
1018.1202874759
 11
1692.9555324960002
 21
1018.0156154759001
  0
LINE
  8
_0-8_小物
  6
CONTINUOUS
 62
    7
 10
1692.9555324960002
 20
1018.0156154759001
 11
1692.8508614960001
 21
1016.0183564759001
  0
LINE
  8
_0-8_小物
  6
CONTINUOUS
 62
    7
 10
1692.8508614960001
 20
1016.0183564759001
 11
1694.8481204959999
 21
1015.9136844759
  0
LINE
  8
_0-8_小物
  6
CONTINUOUS
 62
    7
 10
1670.0710394960001
 20
1025.4266304758999
 11
1670.9856834960001
 21
1023.6862544759
  0
LINE
  8
_0-8_小物
  6
CONTINUOUS
 62
    7
 10
1670.9856834960001
 20
1023.6862544759
 11
1672.9829424959999
 21
1023.7909264759001
  0
LINE
  8
_0-8_小物
  6
CONTINUOUS
 62
    7
 10
1672.9829424959999
 20
1023.7909264759001
 11
1672.8782704959999
 21
1025.7881854759
  0
LINE
  8
_0-8_小物
  6
CONTINUOUS
 62
    7
 10
1672.8782704959999
 20
1025.7881854759
 11
1674.8755294960001
 21
1025.8928574759
  0
LINE
  8
_0-8_小物
  6
CONTINUOUS
 62
    7
 10
1674.8755294960001
 20
1025.8928574759
 11
1675.9788304960002
 21
1023.9479344759001
  0
LINE
  8
_0-8_小物
  6
CONTINUOUS
 62
    7
 10
1675.9788304960002
 20
1023.9479344759001
 11
1677.976089496
 21
1024.0526064759001
  0
LINE
  8
_0-8_小物
  6
CONTINUOUS
 62
    7
 10
1677.976089496
 20
1024.0526064759001
 11
1677.8714184959999
 21
1026.0498654758999
  0
LINE
  8
_0-8_小物
  6
CONTINUOUS
 62
    7
 10
1677.8714184959999
 20
1026.0498654758999
 11
1679.8686774960001
 21
1026.1545374759
  0
LINE
  8
_0-8_小物
  6
CONTINUOUS
 62
    7
 10
1679.8686774960001
 20
1026.1545374759
 11
1680.9719784960002
 21
1024.2096144759
  0
LINE
  8
_0-8_小物
  6
CONTINUOUS
 62
    7
 10
1680.9719784960002
 20
1024.2096144759
 11
1682.969237496
 21
1024.3142864759002
  0
LINE
  8
_0-8_小物
  6
CONTINUOUS
 62
    7
 10
1682.969237496
 20
1024.3142864759002
 11
1682.8645654960001
 21
1026.3115454758999
  0
LINE
  8
_0-8_小物
  6
CONTINUOUS
 62
    7
 10
1682.8645654960001
 20
1026.3115454758999
 11
1684.8618244959998
 21
1026.4162174758999
  0
LINE
  8
_0-8_小物
  6
CONTINUOUS
 62
    7
 10
1684.8618244959998
 20
1026.4162174758999
 11
1685.9651264959998
 21
1024.4712934759
  0
LINE
  8
_0-8_小物
  6
CONTINUOUS
 62
    7
 10
1685.9651264959998
 20
1024.4712934759
 11
1687.962385496
 21
1024.5759654758999
  0
LINE
  8
_0-8_小物
  6
CONTINUOUS
 62
    7
 10
1687.962385496
 20
1024.5759654758999
 11
1687.8577134960001
 21
1026.5732244759001
  0
LINE
  8
_0-8_小物
  6
CONTINUOUS
 62
    7
 10
1687.8577134960001
 20
1026.5732244759001
 11
1689.8549724959998
 21
1026.6778964759001
  0
LINE
  8
_0-8_小物
  6
CONTINUOUS
 62
    7
 10
1689.8549724959998
 20
1026.6778964759001
 11
1690.9582734959999
 21
1024.7329734759001
  0
LINE
  8
_0-8_小物
  6
CONTINUOUS
 62
    7
 10
1690.9582734959999
 20
1024.7329734759001
 11
1692.9555324960002
 21
1024.8376454759
  0
LINE
  8
_0-8_小物
  6
CONTINUOUS
 62
    7
 10
1692.9555324960002
 20
1024.8376454759
 11
1692.8508614960001
 21
1026.8349044759
  0
LINE
  8
_0-8_小物
  6
CONTINUOUS
 62
    7
 10
1692.8508614960001
 20
1026.8349044759
 11
1694.8481204959999
 21
1026.9395764759001
  0
LINE
  8
_0-8_小物
  6
CONTINUOUS
 62
    7
 10
1666.0710394960001
 20
1020.9266304759
 11
1666.0710394960001
 21
1021.4266304759
  0
LINE
  8
_0-8_小物
  6
CONTINUOUS
 62
    7
 10
1666.0710394960001
 20
1021.9266304759
 11
1666.0710394960001
 21
1021.4266304759
  0
LINE
  8
_0-8_小物
  6
CONTINUOUS
 62
    7
 10
1658.0710394960001
 20
1017.4266304759
 11
1666.0710394960001
 21
1017.4266304759
  0
LINE
  8
_0-8_小物
  6
CONTINUOUS
 62
    7
 10
1658.0710394960001
 20
1016.4266304759
 11
1663.0710394960001
 21
1017.4266304759
  0
LINE
  8
_0-8_小物
  6
CONTINUOUS
 62
    7
 10
1658.0710394960001
 20
1020.4266304759
 11
1663.0710394960001
 21
1021.4266304759
  0
LINE
  8
_0-8_小物
  6
CONTINUOUS
 62
    7
 10
1658.0710394960001
 20
1022.4266304759
 11
1663.0710394960001
 21
1021.4266304759
  0
LINE
  8
_0-8_小物
  6
CONTINUOUS
 62
    7
 10
1663.0710394960001
 20
1021.4266304759
 11
1658.0710394960001
 21
1021.4266304759
  0
LINE
  8
_0-8_小物
  6
CONTINUOUS
 62
    7
 10
1658.0710394960001
 20
1025.4266304758999
 11
1666.0710394960001
 21
1025.4266304758999
  0
LINE
  8
_0-8_小物
  6
CONTINUOUS
 62
    7
 10
1658.0710394960001
 20
1026.4266304758999
 11
1663.0710394960001
 21
1025.4266304758999
  0
LINE
  8
_0-8_小物
  6
CONTINUOUS
 62
    7
 10
1692.2015954960002
 20
1023.2960744759
 11
1694.0710394960001
 21
1021.4266304759
  0
LINE
  8
_0-8_小物
  6
CONTINUOUS
 62
    7
 10
1658.0710394960001
 20
1016.4266304759
 11
1658.0710394960001
 21
1026.4266304758999
  0
LINE
  8
_0-8_小物
  6
CONTINUOUS
 62
    7
 10
1677.9282737140002
 20
1017.888267081
 11
1672.8714184959999
 21
1016.0477224759001
  0
LINE
  8
_0-8_小物
  6
CONTINUOUS
 62
    7
 10
1677.9282737140002
 20
1024.9649938708999
 11
1672.8714184959999
 21
1026.8055384759
  0
LINE
  8
_0-7_サイド
  6
CONTINUOUS
 62
    7
 10
1649.9934744960001
 20
1068.4268054755
 11
1649.9934744960001
 21
1074.9268054755
  0
LINE
  8
_0-7_サイド
  6
CONTINUOUS
 62
    7
 10
1650.9934744960001
 20
1068.7268054755
 11
1650.9934744960001
 21
1074.9268054755
  0
ARC
  8
_0-7_サイド
  6
CONTINUOUS
 62
    7
 10
1650.4934744960001
 20
1074.9268054755
 40
0.5
 50
0
 51
180
  0
LINE
  8
_0-7_サイド
  6
CONTINUOUS
 62
    7
 10
1652.3486144960002
 20
1068.4268054755
 11
1651.2934744959998
 21
1068.4268054755
  0
ARC
  8
_0-7_サイド
  6
CONTINUOUS
 62
    7
 10
1652.3486144960002
 20
1068.7268054755
 40
0.2999999999999998
 50
270
 51
0
  0
LINE
  8
_0-7_サイド
  6
CONTINUOUS
 62
    7
 10
1652.6486144959999
 20
1075.7155904755
 11
1652.6486144959999
 21
1068.7268054755
  0
ARC
  8
_0-7_サイド
  6
CONTINUOUS
 62
    7
 10
1652.6486144959999
 20
1068.4268054755
 40
1
 50
270
 51
0
  0
LINE
  8
_0-7_サイド
  6
CONTINUOUS
 62
    7
 10
1653.6486144959999
 20
1075.7155904755
 11
1653.6486144959999
 21
1068.4268054755
  0
LINE
  8
_0-7_サイド
  6
CONTINUOUS
 62
    7
 10
1652.6486144959999
 20
1067.4268054755
 11
1650.9934744960001
 21
1067.4268054755
  0
ARC
  8
_0-7_サイド
  6
CONTINUOUS
 62
    7
 10
1651.2934744959998
 20
1068.7268054755
 40
0.2999999999999998
 50
180
 51
270
  0
ARC
  8
_0-7_サイド
  6
CONTINUOUS
 62
    7
 10
1650.9934744960001
 20
1068.4268054755
 40
1
 50
180
 51
270
  0
ARC
  8
_0-7_サイド
  6
CONTINUOUS
 62
    7
 10
1655.3598294960002
 20
1075.7155904755
 40
1.7112149999999999
 50
0
 51
180
  0
ARC
  8
_0-7_サイド
  6
CONTINUOUS
 62
    7
 10
1655.3598294960002
 20
1075.7155904755
 40
2.7112150000000002
 50
0
 51
180
  0
LINE
  8
_0-7_サイド
  6
CONTINUOUS
 62
    7
 10
1657.0710394960001
 20
1075.7155904755
 11
1657.0710394960001
 21
1067.8104654755
  0
ARC
  8
_0-7_サイド
  6
CONTINUOUS
 62
    7
 10
1656.5710394960001
 20
1067.8104654755
 40
0.5
 50
285.00000000005002
 51
0
  0
LINE
  8
_0-7_サイド
  6
CONTINUOUS
 62
    7
 10
1655.842789496
 20
1067.0976954755001
 11
1656.7004494960001
 21
1067.3275054754999
  0
LINE
  8
_0-7_サイド
  6
CONTINUOUS
 62
    7
 10
1656.101609496
 20
1066.1317704755002
 11
1656.9592694960002
 21
1066.3615754755001
  0
LINE
  8
_0-7_サイド
  6
CONTINUOUS
 62
    7
 10
1658.0710394960001
 20
1075.7155904755
 11
1658.0710394960001
 21
1067.8104654755
  0
ARC
  8
_0-7_サイド
  6
CONTINUOUS
 62
    7
 10
1655.972199496
 20
1066.6147304755
 40
0.5
 50
105.00000000000001
 51
284.99999999990001
  0
ARC
  8
_0-7_サイド
  6
CONTINUOUS
 62
    7
 10
1656.5710394960001
 20
1067.8104654755
 40
1.5
 50
284.99999999999
 51
0.0000000000000127
  0
LINE
  8
_0-7_サイド
  6
CONTINUOUS
 62
    7
 10
1651.0710294959999
 20
1068.4266304755001
 11
1652.5710394960001
 21
1068.4266304755001
  0
ARC
  8
_0-7_サイド
  6
CONTINUOUS
 62
    7
 10
1650.071044496
 20
1075.9266304755001
 40
2.5
 50
0
 51
90
  0
LINE
  8
_0-7_サイド
  6
CONTINUOUS
 62
    7
 10
1652.571044496
 20
1068.4266304755001
 11
1652.571044496
 21
1075.9266304755001
  0
LINE
  8
_0-7_サイド
  6
CONTINUOUS
 62
    7
 10
1651.071044496
 20
1068.4266304755001
 11
1651.071044496
 21
1075.9266304755001
  0
ARC
  8
_0-7_サイド
  6
CONTINUOUS
 62
    7
 10
1640.571044496
 20
1018.4266004759
 40
2.5
 50
180
 51
270.00060200000001
  0
ARC
  8
_0-7_サイド
  6
CONTINUOUS
 62
    7
 10
1640.5710394960001
 20
1075.9266304755001
 40
1
 50
90
 51
180
  0
ARC
  8
_0-7_サイド
  6
CONTINUOUS
 62
    7
 10
1650.071044496
 20
1075.9266304755001
 40
1
 50
0
 51
90
  0
LINE
  8
_0-7_サイド
  6
CONTINUOUS
 62
    7
 10
1640.5710394960001
 20
1076.9266304755001
 11
1650.071044496
 21
1076.9266304755001
  0
ARC
  8
_0-7_サイド
  6
CONTINUOUS
 62
    7
 10
1640.571044496
 20
1075.9266304755001
 40
2.5
 50
90
 51
180
  0
LINE
  8
_0-7_サイド
  6
CONTINUOUS
 62
    7
 10
1640.571044496
 20
1078.4266304755001
 11
1650.071044496
 21
1078.4266304755001
  0
LINE
  8
_0-7_サイド
  6
CONTINUOUS
 62
    7
 10
1648.071044496
 20
1015.9266704759
 11
1648.071044496
 21
1017.4266704759
  0
ARC
  8
_0-7_サイド
  6
CONTINUOUS
 62
    7
 10
1640.5710394960001
 20
1018.4266004759
 40
1
 50
180
 51
270.00060200000001
  0
LINE
  8
_0-7_サイド
  6
CONTINUOUS
 62
    7
 10
1648.071044496
 20
1017.4266704759
 11
1640.5710494959999
 21
1017.4266004759
  0
LINE
  8
_0-7_サイド
  6
CONTINUOUS
 62
    7
 10
1639.5710394960001
 20
1018.4266004759
 11
1639.5710394960001
 21
1075.9266304755001
  0
LINE
  8
_0-7_サイド
  6
CONTINUOUS
 62
    7
 10
1648.071044496
 20
1015.9266704759
 11
1640.5710694959998
 21
1015.9266004759
  0
LINE
  8
_0-7_サイド
  6
CONTINUOUS
 62
    7
 10
1638.071044496
 20
1075.9266304755001
 11
1638.071044496
 21
1018.4266004759
  0
LINE
  8
_0-5_フレ_ム
  6
CONTINUOUS
 62
    7
 10
1656.7710404959998
 20
1006.4266304759
 11
1656.7710404959998
 21
1016.4266304759
  0
ARC
  8
_0-5_フレ_ム
  6
CONTINUOUS
 62
    7
 10
1643.571040496
 20
1048.8528454755001
 40
0.5
 50
180
 51
257.21094599999998
  0
ARC
  8
_0-5_フレ_ム
  6
CONTINUOUS
 62
    7
 10
1643.571040496
 20
1051.4266304755001
 40
0.5
 50
90
 51
180
  0
LINE
  8
_0-5_フレ_ム
  6
CONTINUOUS
 62
    7
 10
1643.071040496
 20
1048.8528454755001
 11
1643.071040496
 21
1051.4266304755001
  0
LINE
  8
_0-5_フレ_ム
  6
CONTINUOUS
 62
    7
 10
1643.071040496
 20
1060.4266304755001
 11
1643.071040496
 21
1058.4266304755001
  0
LINE
  8
_0-5_フレ_ム
  6
CONTINUOUS
 62
    7
 10
1657.071040496
 20
1006.4266304759
 11
1657.071040496
 21
995.42663047589997
  0
LINE
  8
_0-5_フレ_ム
  6
CONTINUOUS
 62
    7
 10
1655.2710404959998
 20
998.92663047589997
 11
1655.2710404959998
 21
1022.9266304759
  0
ARC
  8
_0-5_フレ_ム
  6
CONTINUOUS
 62
    7
 10
1656.071040496
 20
1061.4266304755001
 40
1
 50
0
 51
90
  0
LINE
  8
_0-5_フレ_ム
  6
CONTINUOUS
 62
    7
 10
1657.071040496
 20
1016.4266304759
 11
1657.071040496
 21
1026.4266304758999
  0
LINE
  8
_0-5_フレ_ム
  6
CONTINUOUS
 62
    7
 10
1657.071040496
 20
1035.9266304758999
 11
1657.071040496
 21
1045.9266304755001
  0
LINE
  8
_0-5_フレ_ム
  6
CONTINUOUS
 62
    7
 10
1657.071040496
 20
1061.4266304755001
 11
1657.071040496
 21
1052.4266304755001
  0
LINE
  8
_0-5_フレ_ム
  6
CONTINUOUS
 62
    7
 10
1656.071040496
 20
1062.4266304755001
 11
1640.071040496
 21
1062.4266304755001
  0
LINE
  8
_0-5_フレ_ム
  6
CONTINUOUS
 62
    7
 10
1655.271035496
 20
1035.4266304758999
 11
1655.2710404959998
 21
1046.4266304755001
  0
ARC
  8
_0-5_フレ_ム
  6
CONTINUOUS
 62
    7
 10
1654.7710404959998
 20
1033.4266304758999
 40
0.5
 50
0
 51
90
  0
LINE
  8
_0-5_フレ_ム
  6
CONTINUOUS
 62
    7
 10
1655.2710404959998
 20
1033.4266304758999
 11
1655.2710254960002
 21
1021.7266304759
  0
ARC
  8
_0-5_フレ_ム
  6
CONTINUOUS
 62
    7
 10
1654.7710404959998
 20
1048.7266304754999
 40
0.5
 50
270
 51
0
  0
ARC
  8
_0-5_フレ_ム
  6
CONTINUOUS
 62
    7
 10
1654.7711004960001
 20
1060.4266304755001
 40
0.5
 50
0
 51
90
  0
LINE
  8
_0-5_フレ_ム
  6
CONTINUOUS
 62
    7
 10
1655.2710404959998
 20
1048.7251904754999
 11
1655.2711004960001
 21
1060.4266304755001
  0
ARC
  8
_0-5_フレ_ム
  6
CONTINUOUS
 62
    7
 10
1654.7710404959998
 20
1046.4266304755001
 40
0.5
 50
0
 51
90
  0
LINE
  8
_0-5_フレ_ム
  6
CONTINUOUS
 62
    7
 10
1649.071040496
 20
1046.9266304755001
 11
1654.7710404959998
 21
1046.9266304755001
  0
LINE
  8
_0-5_フレ_ム
  6
CONTINUOUS
 62
    7
 10
1647.071040496
 20
1046.9266304755001
 11
1644.071040496
 21
1046.9266304755001
  0
LINE
  8
_0-5_フレ_ム
  6
CONTINUOUS
 62
    7
 10
1647.071040496
 20
1046.9266304755001
 11
1649.071040496
 21
1045.9266304755001
  0
LINE
  8
_0-5_フレ_ム
  6
CONTINUOUS
 62
    7
 10
1644.071040496
 20
1048.2266304754999
 11
1654.7710404959998
 21
1048.2266304754999
  0
ARC
  8
_0-5_フレ_ム
  6
CONTINUOUS
 62
    7
 10
1654.771035496
 20
1035.4266304758999
 40
0.5
 50
270
 51
0
  0
LINE
  8
_0-5_フレ_ム
  6
CONTINUOUS
 62
    7
 10
1649.071040496
 20
1034.9266304758999
 11
1654.771035496
 21
1034.9266304758999
  0
LINE
  8
_0-5_フレ_ム
  6
CONTINUOUS
 62
    7
 10
1647.071040496
 20
1034.9266304758999
 11
1644.071040496
 21
1034.9266304758999
  0
LINE
  8
_0-5_フレ_ム
  6
CONTINUOUS
 62
    7
 10
1649.071040496
 20
1035.9266304758999
 11
1649.071040496
 21
1034.9266304758999
  0
LINE
  8
_0-5_フレ_ム
  6
CONTINUOUS
 62
    7
 10
1647.071040496
 20
1034.9266304758999
 11
1649.071040496
 21
1035.9266304758999
  0
LINE
  8
_0-5_フレ_ム
  6
CONTINUOUS
 62
    7
 10
1644.071040496
 20
1033.9266304758999
 11
1654.7710404959998
 21
1033.9266304758999
  0
LINE
  8
_0-5_フレ_ム
  6
CONTINUOUS
 62
    7
 10
1649.071040496
 20
1045.9266304755001
 11
1649.071040496
 21
1046.9266304755001
  0
LINE
  8
_0-5_フレ_ム
  6
CONTINUOUS
 62
    7
 10
1644.071040496
 20
1034.9266304758999
 11
1639.8059604959999
 21
1033.9788354759
  0
ARC
  8
_0-5_フレ_ム
  6
CONTINUOUS
 62
    7
 10
1639.8710404960002
 20
1033.6859804759001
 40
0.2999999999999998
 50
102.52880800010001
 51
180
  0
ARC
  8
_0-5_フレ_ム
  6
CONTINUOUS
 62
    7
 10
1639.8710404960002
 20
1033.2808904758999
 40
0.2999999999999998
 50
180
 51
282.78905399989998
  0
LINE
  8
_0-5_フレ_ム
  6
CONTINUOUS
 62
    7
 10
1639.571040496
 20
1033.6859804759001
 11
1639.571040496
 21
1033.2808904758999
  0
LINE
  8
_0-5_フレ_ム
  6
CONTINUOUS
 62
    7
 10
1644.071040496
 20
1033.9266304758999
 11
1639.9374504960001
 21
1032.9883304759001
  0
ARC
  8
_0-5_フレ_ム
  6
CONTINUOUS
 62
    7
 10
1640.071040496
 20
1048.3277154755001
 40
0.5
 50
180
 51
257.47119199999992
  0
LINE
  8
_0-5_フレ_ム
  6
CONTINUOUS
 62
    7
 10
1644.071040496
 20
1046.9266304755001
 11
1639.9625754960002
 21
1047.8396254755
  0
LINE
  8
_0-5_フレ_ム
  6
CONTINUOUS
 62
    7
 10
1644.071040496
 20
1048.2266304754999
 11
1643.4603604960002
 21
1048.3652504755
  0
ARC
  8
_0-5_フレ_ム
  6
CONTINUOUS
 62
    7
 10
1640.071040496
 20
1050.4266304755001
 40
0.5
 50
90
 51
180
  0
LINE
  8
_0-5_フレ_ム
  6
CONTINUOUS
 62
    7
 10
1639.571040496
 20
1050.4266304755001
 11
1639.571040496
 21
1048.3277154755001
  0
ARC
  8
_0-5_フレ_ム
  6
CONTINUOUS
 62
    7
 10
1640.071040496
 20
1061.9266304755001
 40
0.5
 50
90
 51
180
  0
LINE
  8
_0-5_フレ_ム
  6
CONTINUOUS
 62
    7
 10
1639.571040496
 20
1061.9266304755001
 11
1639.571040496
 21
1059.4266304755001
  0
ARC
  8
_0-5_フレ_ム
  6
CONTINUOUS
 62
    7
 10
1640.071040496
 20
1059.4266304755001
 40
0.5
 50
180
 51
270
  0
LINE
  8
_0-5_フレ_ム
  6
CONTINUOUS
 62
    7
 10
1641.571040496
 20
1058.9266304755001
 11
1640.071040496
 21
1058.9266304755001
  0
LINE
  8
_0-5_フレ_ム
  6
CONTINUOUS
 62
    7
 10
1641.571040496
 20
1050.9266304755001
 11
1641.571040496
 21
1054.6266304755
  0
LINE
  8
_0-5_フレ_ム
  6
CONTINUOUS
 62
    7
 10
1641.571040496
 20
1058.9266304755001
 11
1641.571040496
 21
1055.2266304754999
  0
LINE
  8
_0-5_フレ_ム
  6
CONTINUOUS
 62
    7
 10
1641.571040496
 20
1050.9266304755001
 11
1640.071040496
 21
1050.9266304755001
  0
LINE
  8
_0-5_フレ_ム
  6
CONTINUOUS
 62
    7
 10
1644.571040496
 20
1057.9266304755001
 11
1644.571040496
 21
1051.9266304755001
  0
LINE
  8
_0-5_フレ_ム
  6
CONTINUOUS
 62
    7
 10
1655.5710254959999
 20
1021.4266304759
 11
1655.2710254960002
 21
1021.7266304759
  0
LINE
  8
_0-5_フレ_ム
  6
CONTINUOUS
 62
    7
 10
1655.5710254959999
 20
1021.4266304759
 11
1655.2710404959998
 21
1021.1266454759
  0
LINE
  8
_0-5_フレ_ム
  6
CONTINUOUS
 62
    7
 10
1657.071040496
 20
1035.9266304758999
 11
1656.7710404959998
 21
1035.9266304758999
  0
LINE
  8
_0-5_フレ_ム
  6
CONTINUOUS
 62
    7
 10
1656.7710404959998
 20
1035.9266304758999
 11
1656.7710404959998
 21
1026.4266304758999
  0
LINE
  8
_0-5_フレ_ム
  6
CONTINUOUS
 62
    7
 10
1656.7710404959998
 20
1026.4266304758999
 11
1657.071040496
 21
1026.4266304758999
  0
LINE
  8
_0-5_フレ_ム
  6
CONTINUOUS
 62
    7
 10
1657.071040496
 20
1045.9266304755001
 11
1656.7710404959998
 21
1045.9266304755001
  0
LINE
  8
_0-5_フレ_ム
  6
CONTINUOUS
 62
    7
 10
1657.071040496
 20
1045.9266304755001
 11
1656.7710404959998
 21
1045.9266304755001
  0
LINE
  8
_0-5_フレ_ム
  6
CONTINUOUS
 62
    7
 10
1656.7710404959998
 20
1045.9266304755001
 11
1656.7710404959998
 21
1052.4266304755001
  0
LINE
  8
_0-5_フレ_ム
  6
CONTINUOUS
 62
    7
 10
1656.7710404959998
 20
1052.4266304755001
 11
1657.071040496
 21
1052.4266304755001
  0
LINE
  8
_0-5_フレ_ム
  6
CONTINUOUS
 62
    7
 10
1657.071040496
 20
1016.4266304759
 11
1656.7710404959998
 21
1016.4266304759
  0
LINE
  8
_0-5_フレ_ム
  6
CONTINUOUS
 62
    7
 10
1656.7710404959998
 20
1006.4266304759
 11
1657.071040496
 21
1006.4266304759
  0
ARC
  8
_0-5_フレ_ム
  6
CONTINUOUS
 62
    7
 10
1643.571040496
 20
1058.4266304755001
 40
0.5
 50
180
 51
270
  0
LINE
  8
_0-5_フレ_ム
  6
CONTINUOUS
 62
    7
 10
1644.571040496
 20
1057.9266304755001
 11
1643.571040496
 21
1057.9266304755001
  0
ARC
  8
_0-5_フレ_ム
  6
CONTINUOUS
 62
    7
 10
1643.571040496
 20
1060.4266304755001
 40
0.5
 50
90
 51
180
  0
LINE
  8
_0-5_フレ_ム
  6
CONTINUOUS
 62
    7
 10
1654.7711004960001
 20
1060.9266304755001
 11
1643.571040496
 21
1060.9266304755001
  0
LINE
  8
_0-5_フレ_ム
  6
CONTINUOUS
 62
    7
 10
1644.571040496
 20
1051.9266304755001
 11
1643.571040496
 21
1051.9266304755001
  0
ARC
  8
_0-5_フレ_ム
  6
CONTINUOUS
 62
    7
 10
1643.071040496
 20
998.92663047589997
 40
2
 50
180
 51
270
  0
LINE
  8
_0-5_フレ_ム
  6
CONTINUOUS
 62
    7
 10
1636.571040496
 20
1009.1766304759
 11
1636.571040496
 21
1004.1766304759
  0
LINE
  8
_0-5_フレ_ム
  6
CONTINUOUS
 62
    7
 10
1636.571040496
 20
1004.1766304759
 11
1638.071040496
 21
1004.1766304759
  0
LINE
  8
_0-5_フレ_ム
  6
CONTINUOUS
 62
    7
 10
1641.071040496
 20
1004.1766304759
 11
1642.571040496
 21
1004.1766304759
  0
LINE
  8
_0-5_フレ_ム
  6
CONTINUOUS
 62
    7
 10
1642.571040496
 20
1004.1766304759
 11
1642.571040496
 21
1009.1766304759
  0
LINE
  8
_0-5_フレ_ム
  6
CONTINUOUS
 62
    7
 10
1641.071040496
 20
1009.1766304759
 11
1641.0710354960001
 21
1006.1766304759
  0
LINE
  8
_0-5_フレ_ム
  6
CONTINUOUS
 62
    7
 10
1641.0710354960001
 20
1004.1766304759
 11
1641.071040496
 21
998.92662547589998
  0
ARC
  8
_0-5_フレ_ム
  6
CONTINUOUS
 62
    7
 10
1639.071040496
 20
995.42663047589997
 40
1
 50
180
 51
270
  0
LINE
  8
_0-5_フレ_ム
  6
CONTINUOUS
 62
    7
 10
1638.071040496
 20
1009.1766304759
 11
1638.071040496
 21
1006.1766304759
  0
LINE
  8
_0-5_フレ_ム
  6
CONTINUOUS
 62
    7
 10
1638.071040496
 20
1004.1766304759
 11
1638.071040496
 21
995.42663047589997
  0
ARC
  8
_0-5_フレ_ム
  6
CONTINUOUS
 62
    7
 10
1639.571040496
 20
1009.1766304759
 40
1.7
 50
0
 51
180
  0
ARC
  8
_0-5_フレ_ム
  6
CONTINUOUS
 62
    7
 10
1639.5710304959998
 20
1009.1766304759
 40
1.499995
 50
0
 51
180
  0
ARC
  8
_0-5_フレ_ム
  6
CONTINUOUS
 62
    7
 10
1639.571040496
 20
1009.1766304759
 40
3
 50
0
 51
180
  0
LINE
  8
_0-5_フレ_ム
  6
CONTINUOUS
 62
    7
 10
1641.0710354960001
 20
1006.1766304759
 11
1640.5710354960001
 21
1006.1766304759
  0
LINE
  8
_0-5_フレ_ム
  6
CONTINUOUS
 62
    7
 10
1640.5710354960001
 20
1006.1766304759
 11
1641.071040496
 21
1004.1766304759
  0
LINE
  8
_0-5_フレ_ム
  6
CONTINUOUS
 62
    7
 10
1638.071040496
 20
1006.1766304759
 11
1638.571040496
 21
1006.1766304759
  0
LINE
  8
_0-5_フレ_ム
  6
CONTINUOUS
 62
    7
 10
1638.571040496
 20
1006.1766304759
 11
1638.071040496
 21
1004.1766304759
  0
LINE
  8
_0-5_フレ_ム
  6
CONTINUOUS
 62
    7
 10
1641.0710354960001
 20
1006.1766304759
 11
1641.271035496
 21
1006.1766304759
  0
LINE
  8
_0-5_フレ_ム
  6
CONTINUOUS
 62
    7
 10
1641.271035496
 20
1006.1766304759
 11
1641.2710404959998
 21
1009.1766304759
  0
LINE
  8
_0-5_フレ_ム
  6
CONTINUOUS
 62
    7
 10
1638.071040496
 20
1006.1766304759
 11
1637.8710404960002
 21
1006.1766304759
  0
LINE
  8
_0-5_フレ_ム
  6
CONTINUOUS
 62
    7
 10
1637.8710404960002
 20
1006.1766304759
 11
1637.8710404960002
 21
1009.1766304759
  0
LINE
  8
_0-5_フレ_ム
  6
CONTINUOUS
 62
    7
 10
1653.2710404959998
 20
996.92663047589997
 11
1643.071040496
 21
996.92663047589997
  0
ARC
  8
_0-5_フレ_ム
  6
CONTINUOUS
 62
    7
 10
1653.2710404959998
 20
998.92663047589997
 40
2
 50
270
 51
0
  0
LINE
  8
_0-5_フレ_ム
  6
CONTINUOUS
 62
    7
 10
1656.071040496
 20
994.42663047589997
 11
1639.071040496
 21
994.42663047589997
  0
ARC
  8
_0-5_フレ_ム
  6
CONTINUOUS
 62
    7
 10
1656.071040496
 20
995.42663047589997
 40
1
 50
270
 51
0
  0
TEXT
  8
_0-a_寸法
 62
    7
 10
1725.0261259150002
 20
999.42663047589997
 40
16
 41
1
 50
90.000003000000149
  1
28
  0
LINE
  8
_0-5_フレ_ム
  6
CONTINUOUS
 62
    7
 10
1415.571040496
 20
996.92663047589997
 11
1415.571040496
 21
994.92663047589997
  0
LINE
  8
_0-5_フレ_ム
  6
CONTINUOUS
 62
    7
 10
1430.571040496
 20
996.92663047589997
 11
1430.571040496
 21
994.92663047589997
  0
LINE
  8
_0-5_フレ_ム
  6
CONTINUOUS
 62
    7
 10
1423.571040496
 20
996.92663047589997
 11
1443.071040496
 21
996.92663047589997
  0
ARC
  8
_0-5_フレ_ム
  6
CONTINUOUS
 62
    7
 10
1401.571040496
 20
998.92663047589997
 40
2
 50
180
 51
270
  0
LINE
  8
_0-5_フレ_ム
  6
CONTINUOUS
 62
    7
 10
1422.571040496
 20
996.92663047589997
 11
1401.571040496
 21
996.92663047589997
  0
LINE
  8
_0-5_フレ_ム
  6
CONTINUOUS
 62
    7
 10
1492.071040496
 20
994.42663047589997
 11
1434.571040496
 21
994.42663047589997
  0
LINE
  8
_0-5_フレ_ム
  6
CONTINUOUS
 62
    7
 10
1399.571040496
 20
998.92663047589997
 11
1399.571040496
 21
1010.4266304759
  0
ARC
  8
_0-5_フレ_ム
  6
CONTINUOUS
 62
    7
 10
1396.571040496
 20
1010.9266304759
 40
0.5
 50
270
 51
0
  0
LINE
  8
_0-5_フレ_ム
  6
CONTINUOUS
 62
    7
 10
1396.571040496
 20
1010.4266304759
 11
1395.071040496
 21
1010.4266304759
  0
LINE
  8
_0-5_フレ_ム
  6
CONTINUOUS
 62
    7
 10
1393.571040496
 20
1008.9266304759
 11
1396.071040496
 21
1008.9266304759
  0
ARC
  8
_0-5_フレ_ム
  6
CONTINUOUS
 62
    7
 10
1396.071040496
 20
1007.9266304759
 40
1
 50
0
 51
90
  0
LINE
  8
_0-5_フレ_ム
  6
CONTINUOUS
 62
    7
 10
1397.071040496
 20
1007.9266304759
 11
1397.071040496
 21
998.92663047589997
  0
LINE
  8
_0-5_フレ_ム
  6
CONTINUOUS
 62
    7
 10
1397.071040496
 20
1010.9266304759
 11
1397.071040496
 21
1014.9266304759
  0
ARC
  8
_0-5_フレ_ム
  6
CONTINUOUS
 62
    7
 10
1487.071040496
 20
1000.9266304759
 40
3
 50
270
 51
0
  0
LINE
  8
_0-5_フレ_ム
  6
CONTINUOUS
 62
    7
 10
1411.571040496
 20
994.42663047589997
 11
1411.571040496
 21
994.92663047589997
  0
LINE
  8
_0-5_フレ_ム
  6
CONTINUOUS
 62
    7
 10
1411.571040496
 20
994.92663047589997
 11
1416.571040496
 21
994.92663047589997
  0
LINE
  8
_0-5_フレ_ム
  6
CONTINUOUS
 62
    7
 10
1416.571040496
 20
994.92663047589997
 11
1416.571040496
 21
994.42663047589997
  0
LINE
  8
_0-5_フレ_ム
  6
CONTINUOUS
 62
    7
 10
1429.571040496
 20
994.42663047589997
 11
1429.571040496
 21
994.92663047589997
  0
LINE
  8
_0-5_フレ_ム
  6
CONTINUOUS
 62
    7
 10
1429.571040496
 20
994.92663047589997
 11
1434.571040496
 21
994.92663047589997
  0
LINE
  8
_0-5_フレ_ム
  6
CONTINUOUS
 62
    7
 10
1434.571040496
 20
994.92663047589997
 11
1434.571040496
 21
994.42663047589997
  0
LINE
  8
_0-5_フレ_ム
  6
CONTINUOUS
 62
    7
 10
1411.571040496
 20
994.42663047589997
 11
1394.571040496
 21
994.42663047589997
  0
LINE
  8
_0-5_フレ_ム
  6
CONTINUOUS
 62
    7
 10
1389.571040496
 20
994.42663047589997
 11
1376.571040496
 21
994.42663047589997
  0
LINE
  8
_0-5_フレ_ム
  6
CONTINUOUS
 62
    7
 10
1371.571040496
 20
994.42663047589997
 11
1368.571040496
 21
994.42663047589997
  0
LINE
  8
_0-5_フレ_ム
  6
CONTINUOUS
 62
    7
 10
1416.571040496
 20
994.42663047589997
 11
1429.571040496
 21
994.42663047589997
  0
LINE
  8
_0-5_フレ_ム
  6
CONTINUOUS
 62
    7
 10
1423.571040496
 20
996.92663047589997
 11
1423.071040496
 21
996.42663047589997
  0
LINE
  8
_0-5_フレ_ム
  6
CONTINUOUS
 62
    7
 10
1422.571040496
 20
996.92663047589997
 11
1423.071040496
 21
996.42663047589997
  0
ARC
  8
_0-5_フレ_ム
  6
CONTINUOUS
 62
    7
 10
1492.071040496
 20
995.42663047589997
 40
1
 50
270
 51
0
  0
LINE
  8
_0-5_フレ_ム
  6
CONTINUOUS
 62
    7
 10
1493.071040496
 20
1004.1766304759
 11
1493.071040496
 21
995.42663047589997
  0
ARC
  8
_0-5_フレ_ム
  6
CONTINUOUS
 62
    7
 10
1393.571040496
 20
1009.4266304759
 40
0.5
 50
180
 51
270
  0
LINE
  8
_0-5_フレ_ム
  6
CONTINUOUS
 62
    7
 10
1393.071040496
 20
1017.1766304759
 11
1393.071040496
 21
1009.4266304759
  0
ARC
  8
_0-5_フレ_ム
  6
CONTINUOUS
 62
    7
 10
1395.071040496
 20
1010.9266304759
 40
0.5
 50
180
 51
270
  0
LINE
  8
_0-5_フレ_ム
  6
CONTINUOUS
 62
    7
 10
1394.571040496
 20
1017.1766304759
 11
1394.571040496
 21
1010.9266304759
  0
LINE
  8
_0-5_フレ_ム
  6
CONTINUOUS
 62
    7
 10
1400.571040496
 20
1013.9266304759
 11
1400.571040496
 21
1014.9266304759
  0
LINE
  8
_0-5_フレ_ム
  6
CONTINUOUS
 62
    7
 10
1408.571040496
 20
1013.9266304759
 11
1405.071040496
 21
1013.9266304759
  0
LINE
  8
_0-5_フレ_ム
  6
CONTINUOUS
 62
    7
 10
1400.571040496
 20
1013.9266304759
 11
1404.071040496
 21
1013.9266304759
  0
LINE
  8
_0-5_フレ_ム
  6
CONTINUOUS
 62
    7
 10
1408.571040496
 20
1013.9266304759
 11
1408.571040496
 21
1014.9266304759
  0
ARC
  8
_0-5_フレ_ム
  6
CONTINUOUS
 62
    7
 10
1409.071040496
 20
1014.9266304759
 40
0.5
 50
90
 51
180
  0
ARC
  8
_0-5_フレ_ム
  6
CONTINUOUS
 62
    7
 10
1411.571040496
 20
1014.9266304759
 40
0.5
 50
0
 51
90
  0
LINE
  8
_0-5_フレ_ム
  6
CONTINUOUS
 62
    7
 10
1409.071040496
 20
1015.4266304759
 11
1411.571040496
 21
1015.4266304759
  0
ARC
  8
_0-5_フレ_ム
  6
CONTINUOUS
 62
    7
 10
1397.571040496
 20
1014.9266304759
 40
0.5
 50
90
 51
180
  0
ARC
  8
_0-5_フレ_ム
  6
CONTINUOUS
 62
    7
 10
1400.071040496
 20
1014.9266304759
 40
0.5
 50
0
 51
90
  0
LINE
  8
_0-5_フレ_ム
  6
CONTINUOUS
 62
    7
 10
1412.071040496
 20
1013.4266304759
 11
1412.071040496
 21
1014.9266304759
  0
ARC
  8
_0-5_フレ_ム
  6
CONTINUOUS
 62
    7
 10
1410.071040496
 20
1013.4266304759
 40
2
 50
270
 51
0
  0
ARC
  8
_0-5_フレ_ム
  6
CONTINUOUS
 62
    7
 10
1400.571040496
 20
1010.4266304759
 40
1
 50
90
 51
180
  0
LINE
  8
_0-5_フレ_ム
  6
CONTINUOUS
 62
    7
 10
1410.071040496
 20
1011.4266304759
 11
1400.571040496
 21
1011.4266304759
  0
ARC
  8
_0-5_フレ_ム
  6
CONTINUOUS
 62
    7
 10
1393.821040496
 20
1017.1766304759
 40
0.75
 50
0
 51
180
  0
LINE
  8
_0-5_フレ_ム
  6
CONTINUOUS
 62
    7
 10
1405.071040496
 20
1013.9266304759
 11
1404.571040496
 21
1013.4266304759
  0
LINE
  8
_0-5_フレ_ム
  6
CONTINUOUS
 62
    7
 10
1404.071040496
 20
1013.9266304759
 11
1404.571040496
 21
1013.4266304759
  0
LINE
  8
_0-5_フレ_ム
  6
CONTINUOUS
 62
    7
 10
1409.071040496
 20
1015.4266304759
 11
1411.571040496
 21
1015.4266304759
  0
LINE
  8
_0-5_フレ_ム
  6
CONTINUOUS
 62
    7
 10
1375.571040496
 20
996.92663047589997
 11
1375.571040496
 21
994.92663047589997
  0
LINE
  8
_0-5_フレ_ム
  6
CONTINUOUS
 62
    7
 10
1390.571040496
 20
996.92663047589997
 11
1390.571040496
 21
994.92663047589997
  0
LINE
  8
_0-5_フレ_ム
  6
CONTINUOUS
 62
    7
 10
1371.571040496
 20
994.42663047589997
 11
1371.571040496
 21
994.92663047589997
  0
LINE
  8
_0-5_フレ_ム
  6
CONTINUOUS
 62
    7
 10
1371.571040496
 20
994.92663047589997
 11
1376.571040496
 21
994.92663047589997
  0
LINE
  8
_0-5_フレ_ム
  6
CONTINUOUS
 62
    7
 10
1376.571040496
 20
994.92663047589997
 11
1376.571040496
 21
994.42663047589997
  0
LINE
  8
_0-5_フレ_ム
  6
CONTINUOUS
 62
    7
 10
1389.571040496
 20
994.42663047589997
 11
1389.571040496
 21
994.92663047589997
  0
LINE
  8
_0-5_フレ_ム
  6
CONTINUOUS
 62
    7
 10
1389.571040496
 20
994.92663047589997
 11
1394.571040496
 21
994.92663047589997
  0
LINE
  8
_0-5_フレ_ム
  6
CONTINUOUS
 62
    7
 10
1394.571040496
 20
994.92663047589997
 11
1394.571040496
 21
994.42663047589997
  0
ARC
  8
_0-5_フレ_ム
  6
CONTINUOUS
 62
    7
 10
1395.071040496
 20
998.92663047589997
 40
2
 50
270
 51
0
  0
ARC
  8
_0-5_フレ_ム
  6
CONTINUOUS
 62
    7
 10
1368.571040496
 20
994.92663047589997
 40
0.5
 50
180
 51
270
  0
ARC
  8
_0-5_フレ_ム
  6
CONTINUOUS
 62
    7
 10
1368.571040496
 20
996.42663047589997
 40
0.5
 50
90
 51
180
  0
LINE
  8
_0-5_フレ_ム
  6
CONTINUOUS
 62
    7
 10
1395.071040496
 20
996.92663047589997
 11
1368.571040496
 21
996.92663047589997
  0
LINE
  8
_0-5_フレ_ム
  6
CONTINUOUS
 62
    7
 10
1368.071040496
 20
996.42663047589997
 11
1368.071040496
 21
994.92663047589997
  0
LINE
  8
_0-5_フレ_ム
  6
CONTINUOUS
 62
    7
 10
1397.571040496
 20
1015.4266304759
 11
1400.071040496
 21
1015.4266304759
  0
LINE
  8
_0-5_フレ_ム
  6
CONTINUOUS
 62
    7
 10
1397.571040496
 20
1015.4266304759
 11
1400.071040496
 21
1015.4266304759
  0
LINE
  8
_0-5_フレ_ム
  6
CONTINUOUS
 62
    7
 10
1443.071040496
 20
996.92663047589997
 11
1448.071040496
 21
997.92663047589997
  0
LINE
  8
_0-5_フレ_ム
  6
CONTINUOUS
 62
    7
 10
1448.071040496
 20
997.92663047589997
 11
1487.071040496
 21
997.92663047589997
  0
LINE
  8
_0-5_フレ_ム
  6
CONTINUOUS
 62
    7
 10
1494.571040496
 20
1009.1766304759
 11
1494.571040496
 21
1004.1766304759
  0
LINE
  8
_0-5_フレ_ム
  6
CONTINUOUS
 62
    7
 10
1494.571040496
 20
1004.1766304759
 11
1493.071040496
 21
1004.1766304759
  0
LINE
  8
_0-5_フレ_ム
  6
CONTINUOUS
 62
    7
 10
1490.071040496
 20
1004.1766304759
 11
1488.571040496
 21
1004.1766304759
  0
LINE
  8
_0-5_フレ_ム
  6
CONTINUOUS
 62
    7
 10
1488.571040496
 20
1004.1766304759
 11
1488.571040496
 21
1009.1766304759
  0
LINE
  8
_0-5_フレ_ム
  6
CONTINUOUS
 62
    7
 10
1490.071040496
 20
1009.1766304759
 11
1490.0710454959999
 21
1006.1766304759
  0
LINE
  8
_0-5_フレ_ム
  6
CONTINUOUS
 62
    7
 10
1490.0710454959999
 20
1004.1766304759
 11
1490.071040496
 21
1000.9266254759
  0
LINE
  8
_0-5_フレ_ム
  6
CONTINUOUS
 62
    7
 10
1493.071040496
 20
1009.1766304759
 11
1493.071040496
 21
1006.1766304759
  0
ARC
  8
_0-5_フレ_ム
  6
CONTINUOUS
 62
    7
 10
1491.571040496
 20
1009.1766304759
 40
1.7
 50
0
 51
180
  0
ARC
  8
_0-5_フレ_ム
  6
CONTINUOUS
 62
    7
 10
1491.5710504960002
 20
1009.1766304759
 40
1.499995
 50
0
 51
180
  0
ARC
  8
_0-5_フレ_ム
  6
CONTINUOUS
 62
    7
 10
1491.571040496
 20
1009.1766304759
 40
3
 50
0
 51
180
  0
LINE
  8
_0-5_フレ_ム
  6
CONTINUOUS
 62
    7
 10
1490.0710454959999
 20
1006.1766304759
 11
1490.5710454959999
 21
1006.1766304759
  0
LINE
  8
_0-5_フレ_ム
  6
CONTINUOUS
 62
    7
 10
1490.5710454959999
 20
1006.1766304759
 11
1490.071040496
 21
1004.1766304759
  0
LINE
  8
_0-5_フレ_ム
  6
CONTINUOUS
 62
    7
 10
1493.071040496
 20
1006.1766304759
 11
1492.571040496
 21
1006.1766304759
  0
LINE
  8
_0-5_フレ_ム
  6
CONTINUOUS
 62
    7
 10
1492.571040496
 20
1006.1766304759
 11
1493.071040496
 21
1004.1766304759
  0
LINE
  8
_0-5_フレ_ム
  6
CONTINUOUS
 62
    7
 10
1490.0710454959999
 20
1006.1766304759
 11
1489.8710454960001
 21
1006.1766304759
  0
LINE
  8
_0-5_フレ_ム
  6
CONTINUOUS
 62
    7
 10
1489.8710454960001
 20
1006.1766304759
 11
1489.8710404960002
 21
1009.1766304759
  0
LINE
  8
_0-5_フレ_ム
  6
CONTINUOUS
 62
    7
 10
1493.071040496
 20
1006.1766304759
 11
1493.2710404959998
 21
1006.1766304759
  0
LINE
  8
_0-5_フレ_ム
  6
CONTINUOUS
 62
    7
 10
1493.2710404959998
 20
1006.1766304759
 11
1493.2710404959998
 21
1009.1766304759
  0
LINE
  8
_0-3_躯体
  6
CONTINUOUS
 62
    7
 10
1393.071040496
 20
1017.1766304759
 11
1393.071040496
 21
1017.9266304759
  0
LINE
  8
_0-8_小物
  6
CONTINUOUS
 62
    7
 10
1423.071040496
 20
949.69027547590008
 11
1423.071040496
 21
1003.4129204759
  0
LINE
  8
_0-8_小物
  6
CONTINUOUS
 62
    7
 10
1383.071040496
 20
949.69027547590008
 11
1383.071040496
 21
1003.4129204759
  0
ARC
  8
_0-8_小物
  6
CONTINUOUS
 62
    7
 10
1421.5089704960001
 20
998.29792047590001
 40
3
 50
128.61463800000001
 51
177.54107400000001
  0
ARC
  8
_0-8_小物
  6
CONTINUOUS
 62
    7
 10
1423.0117354960003
 20
996.42663047589997
 40
5.4000000000000004
 50
90
 51
128.682187
  0
ARC
  8
_0-8_小物
  6
CONTINUOUS
 62
    7
 10
1423.0117354960003
 20
996.42663047589997
 40
5.4000000000000004
 50
51.148938000000001
 51
90
  0
ARC
  8
_0-8_小物
  6
CONTINUOUS
 62
    7
 10
1424.5144954960001
 20
998.29792047590001
 40
3
 50
2.4589260000049999
 51
51.38536199999001
  0
LINE
  8
_0-8_小物
  6
CONTINUOUS
 62
    7
 10
1432.0117354960003
 20
998.42663047589997
 11
1414.0117354960003
 21
998.42663047589997
  0
LINE
  8
_0-8_小物
  6
CONTINUOUS
 62
    7
 10
1414.0117354960003
 20
998.42663047589997
 11
1414.0117354960003
 21
996.92663047589997
  0
LINE
  8
_0-8_小物
  6
CONTINUOUS
 62
    7
 10
1432.0117354960003
 20
998.42663047589997
 11
1432.0117354960003
 21
996.92663047589997
  0
ARC
  8
_0-8_小物
  6
CONTINUOUS
 62
    7
 10
1381.5682754959998
 20
998.29792047590001
 40
3
 50
128.61463800000001
 51
177.54107400000001
  0
ARC
  8
_0-8_小物
  6
CONTINUOUS
 62
    7
 10
1383.071040496
 20
996.42663047589997
 40
5.4000000000000004
 50
90
 51
128.682187
  0
ARC
  8
_0-8_小物
  6
CONTINUOUS
 62
    7
 10
1383.071040496
 20
996.42663047589997
 40
5.4000000000000004
 50
51.148938000000001
 51
90
  0
ARC
  8
_0-8_小物
  6
CONTINUOUS
 62
    7
 10
1384.5738004959999
 20
998.29792047590001
 40
3
 50
2.4589260000049999
 51
51.38536199999001
  0
LINE
  8
_0-8_小物
  6
CONTINUOUS
 62
    7
 10
1392.071040496
 20
998.42663047589997
 11
1374.071040496
 21
998.42663047589997
  0
LINE
  8
_0-8_小物
  6
CONTINUOUS
 62
    7
 10
1374.071040496
 20
998.42663047589997
 11
1374.071040496
 21
996.92663047589997
  0
LINE
  8
_0-8_小物
  6
CONTINUOUS
 62
    7
 10
1392.071040496
 20
998.42663047589997
 11
1392.071040496
 21
996.92663047589997
  0
LINE
  8
_0-a_寸法
  6
CONTINUOUS
 62
    7
 10
1383.071040496
 20
884.15418047590003
 11
1423.071040496
 21
884.15418047590003
  0
LINE
  8
_0-a_寸法
  6
CONTINUOUS
 62
    7
 10
1383.071040496
 20
947.19027547590008
 11
1383.071040496
 21
879.15418047590003
  0
LINE
  8
_0-a_寸法
  6
CONTINUOUS
 62
    7
 10
1423.071040496
 20
947.19027547590008
 11
1423.071040496
 21
879.15418047590003
  0
LINE
  8
_0-a_寸法
  6
CONTINUOUS
 62
    7
 10
1383.071040496
 20
884.15418047590003
 11
1388.071040496
 21
885.40418047590003
  0
LINE
  8
_0-a_寸法
  6
CONTINUOUS
 62
    7
 10
1383.071040496
 20
884.15418047590003
 11
1388.071040496
 21
882.90418047590003
  0
LINE
  8
_0-a_寸法
  6
CONTINUOUS
 62
    7
 10
1423.071040496
 20
884.15418047590003
 11
1418.071040496
 21
882.90418047590003
  0
LINE
  8
_0-a_寸法
  6
CONTINUOUS
 62
    7
 10
1423.071040496
 20
884.15418047590003
 11
1418.071040496
 21
885.40418047590003
  0
LINE
  8
_0-a_寸法
  6
CONTINUOUS
 62
    7
 10
1423.071040496
 20
884.15418047590003
 11
1428.071040496
 21
885.40418047590003
  0
LINE
  8
_0-a_寸法
  6
CONTINUOUS
 62
    7
 10
1423.071040496
 20
884.15418047590003
 11
1428.071040496
 21
882.90418047590003
  0
LINE
  8
_0-a_寸法
  6
CONTINUOUS
 62
    7
 10
1493.071040496
 20
992.87401047590004
 11
1493.071040496
 21
900.68471547590002
  0
LINE
  8
_0-a_寸法
  6
CONTINUOUS
 62
    7
 10
1493.071040496
 20
905.68471547590002
 11
1498.071040496
 21
906.93471547590002
  0
LINE
  8
_0-a_寸法
  6
CONTINUOUS
 62
    7
 10
1493.071040496
 20
905.68471547590002
 11
1498.071040496
 21
904.43471547590002
  0
LINE
  8
_0-a_寸法
  6
CONTINUOUS
 62
    7
 10
1493.071040496
 20
905.68471547590002
 11
1508.071040496
 21
905.68471547590002
  0
CIRCLE
  8
_0-a_寸法
  6
CONTINUOUS
 62
    7
 10
1373.3739904960003
 20
988.88500547590002
 40
1.5
  0
CIRCLE
  8
_0-a_寸法
  6
CONTINUOUS
 62
    7
 10
1379.4506804960001
 20
954.54762047589998
 40
1.5
  0
LINE
  8
_0-a_寸法
  6
CONTINUOUS
 62
    7
 10
1423.0909204959999
 20
1000.2637829481
 11
1406.915350496
 21
972.24686794809998
  0
CIRCLE
  8
_0-a_寸法
  6
CONTINUOUS
 62
    7
 10
1403.165350496
 20
965.7516779481
 40
7.5
  0
CIRCLE
  8
_0-a_寸法
  6
CONTINUOUS
 62
    7
 10
1423.0909204959999
 20
1000.2637829481
 40
1
  0
CIRCLE
  8
_0-a_寸法
  6
CONTINUOUS
 62
    7
 10
1429.7617343380002
 20
997.67663047589997
 40
1
  0
LINE
  8
_0-a_寸法
  6
CONTINUOUS
 62
    7
 10
1429.7617343380002
 20
997.67663047589997
 11
1444.563538285
 21
972.03915031140002
  0
CIRCLE
  8
_0-a_寸法
  6
CONTINUOUS
 62
    7
 10
1448.3135378800002
 20
965.5439595496
 40
7.5
  0
LINE
  8
_0-8_小物
  6
CONTINUOUS
 62
    7
 10
1389.389641496
 20
978.28423147590001
 11
1390.3819964959998
 21
985.08785347590003
  0
ARC
  8
_0-8_小物
  6
CONTINUOUS
 62
    7
 10
1389.9861844960001
 20
985.14558547590002
 40
0.4
 50
351.70153400003102
 51
81.869897999979955
  0
LINE
  8
_0-8_小物
  6
CONTINUOUS
 62
    7
 10
1390.0427534959999
 20
985.54156547590003
 11
1389.8459284959999
 21
985.56968347589998
  0
ARC
  8
_0-8_小物
  6
CONTINUOUS
 62
    7
 10
1389.789360496
 20
985.17370347589997
 40
0.4
 50
81.869897999979997
 51
171.86989800000001
  0
LINE
  8
_0-8_小物
  6
CONTINUOUS
 62
    7
 10
1389.3933804960002
 20
985.23027247590005
 11
1388.4499484960002
 21
978.62625147590006
  0
LINE
  8
_0-8_小物
  6
CONTINUOUS
 62
    7
 10
1389.389641496
 20
978.28423147590001
 11
1390.3819964959998
 21
985.08785347590003
  0
ARC
  8
_0-8_小物
  6
CONTINUOUS
 62
    7
 10
1389.9861844960001
 20
985.14558547590002
 40
0.4
 50
351.70153400003102
 51
81.869897999979955
  0
LINE
  8
_0-8_小物
  6
CONTINUOUS
 62
    7
 10
1390.0427534959999
 20
985.54156547590003
 11
1389.8459284959999
 21
985.56968347589998
  0
ARC
  8
_0-8_小物
  6
CONTINUOUS
 62
    7
 10
1389.789360496
 20
985.17370347589997
 40
0.4
 50
81.869897999979997
 51
171.86989800000001
  0
LINE
  8
_0-8_小物
  6
CONTINUOUS
 62
    7
 10
1389.3933804960002
 20
985.23027247590005
 11
1388.4499484960002
 21
978.62625147590006
  0
LINE
  8
_0-8_小物
  6
CONTINUOUS
 62
    7
 10
1376.7524394960001
 20
978.28423147590001
 11
1375.7600844960002
 21
985.08785347590003
  0
ARC
  8
_0-8_小物
  6
CONTINUOUS
 62
    7
 10
1376.155896496
 20
985.14558547590002
 40
0.4
 50
98.130102000020003
 51
188.29846599999999
  0
LINE
  8
_0-8_小物
  6
CONTINUOUS
 62
    7
 10
1376.0993274960001
 20
985.54156547590003
 11
1376.2961524960001
 21
985.56968347589998
  0
ARC
  8
_0-8_小物
  6
CONTINUOUS
 62
    7
 10
1376.352721496
 20
985.17370347589997
 40
0.4
 50
8.1301019999600008
 51
98.130102000020003
  0
LINE
  8
_0-8_小物
  6
CONTINUOUS
 62
    7
 10
1376.7487004959999
 20
985.23027247590005
 11
1377.6921324959999
 21
978.62625147590006
  0
LINE
  8
_0-8_小物
  6
CONTINUOUS
 62
    7
 10
1379.071040496
 20
981.42663047589997
 11
1379.071040496
 21
985.42663047589997
  0
LINE
  8
_0-8_小物
  6
CONTINUOUS
 62
    7
 10
1381.0532974960001
 20
956.46637447590001
 11
1377.5580944960002
 21
956.64954947590002
  0
LINE
  8
_0-8_小物
  6
CONTINUOUS
 62
    7
 10
1377.5580944960002
 20
956.64954947590002
 11
1379.450681496
 21
954.54761847589998
  0
LINE
  8
_0-8_小物
  6
CONTINUOUS
 62
    7
 10
1379.450681496
 20
954.54761847589998
 11
1380.9486254960002
 21
954.46911447590003
  0
LINE
  8
_0-8_小物
  6
CONTINUOUS
 62
    7
 10
1380.9486254960002
 20
954.46911447590003
 11
1382.571040496
 21
985.42663047589997
  0
LINE
  8
_0-8_小物
  6
CONTINUOUS
 62
    7
 10
1387.071040496
 20
981.42663047589997
 11
1387.071040496
 21
985.42663047589997
  0
LINE
  8
_0-8_小物
  6
CONTINUOUS
 62
    7
 10
1385.0887834959999
 20
956.46637447590001
 11
1388.5839864959999
 21
956.64954947590002
  0
LINE
  8
_0-8_小物
  6
CONTINUOUS
 62
    7
 10
1388.5839864959999
 20
956.64954947590002
 11
1386.691399496
 21
954.54761847589998
  0
LINE
  8
_0-8_小物
  6
CONTINUOUS
 62
    7
 10
1386.691399496
 20
954.54761847589998
 11
1385.1934554959998
 21
954.46911447590003
  0
LINE
  8
_0-8_小物
  6
CONTINUOUS
 62
    7
 10
1385.1934554959998
 20
954.46911447590003
 11
1383.571040496
 21
985.42663047589997
  0
LINE
  8
_0-8_小物
  6
CONTINUOUS
 62
    7
 10
1378.447805496
 20
973.62625147590006
 11
1376.7524394960001
 21
978.28423147590001
  0
LINE
  8
_0-8_小物
  6
CONTINUOUS
 62
    7
 10
1387.694275496
 20
973.62625147590006
 11
1389.389641496
 21
978.28423147590001
  0
LINE
  8
_0-8_小物
  6
CONTINUOUS
 62
    7
 10
1379.071040496
 20
981.42663047589997
 11
1380.8114164960002
 21
980.51198647590002
  0
LINE
  8
_0-8_小物
  6
CONTINUOUS
 62
    7
 10
1381.2015964960001
 20
959.29607447590001
 11
1383.071040496
 21
957.42663047589997
  0
LINE
  8
_0-8_小物
  6
CONTINUOUS
 62
    7
 10
1380.8114164960002
 20
980.51198647590002
 11
1380.7067444959998
 21
978.51472747590003
  0
LINE
  8
_0-8_小物
  6
CONTINUOUS
 62
    7
 10
1380.7067444959998
 20
978.51472747590003
 11
1378.7094854960001
 21
978.61939947589997
  0
LINE
  8
_0-8_小物
  6
CONTINUOUS
 62
    7
 10
1378.7094854960001
 20
978.61939947589997
 11
1378.6048134960001
 21
976.62214047589998
  0
LINE
  8
_0-8_小物
  6
CONTINUOUS
 62
    7
 10
1378.6048134960001
 20
976.62214047589998
 11
1380.5497364960002
 21
975.51883947589999
  0
LINE
  8
_0-8_小物
  6
CONTINUOUS
 62
    7
 10
1380.5497364960002
 20
975.51883947589999
 11
1380.4450644960002
 21
973.52158047590001
  0
LINE
  8
_0-8_小物
  6
CONTINUOUS
 62
    7
 10
1380.4450644960002
 20
973.52158047590001
 11
1378.447805496
 21
973.62625147590006
  0
LINE
  8
_0-8_小物
  6
CONTINUOUS
 62
    7
 10
1378.447805496
 20
973.62625147590006
 11
1378.3431334960001
 21
971.62899247590008
  0
LINE
  8
_0-8_小物
  6
CONTINUOUS
 62
    7
 10
1378.3431334960001
 20
971.62899247590008
 11
1380.2880564960001
 21
970.52569147589998
  0
LINE
  8
_0-8_小物
  6
CONTINUOUS
 62
    7
 10
1380.2880564960001
 20
970.52569147589998
 11
1380.1833844960001
 21
968.52843247589999
  0
LINE
  8
_0-8_小物
  6
CONTINUOUS
 62
    7
 10
1380.1833844960001
 20
968.52843247589999
 11
1378.1861254959999
 21
968.63310447590004
  0
LINE
  8
_0-8_小物
  6
CONTINUOUS
 62
    7
 10
1378.1861254959999
 20
968.63310447590004
 11
1378.081453496
 21
966.63584547590006
  0
LINE
  8
_0-8_小物
  6
CONTINUOUS
 62
    7
 10
1378.081453496
 20
966.63584547590006
 11
1380.0263774959999
 21
965.53254347590007
  0
LINE
  8
_0-8_小物
  6
CONTINUOUS
 62
    7
 10
1380.0263774959999
 20
965.53254347590007
 11
1379.921705496
 21
963.53528447589997
  0
LINE
  8
_0-8_小物
  6
CONTINUOUS
 62
    7
 10
1379.921705496
 20
963.53528447589997
 11
1377.9244464960002
 21
963.63995647590002
  0
LINE
  8
_0-8_小物
  6
CONTINUOUS
 62
    7
 10
1377.9244464960002
 20
963.63995647590002
 11
1377.8197744960003
 21
961.64269747590004
  0
LINE
  8
_0-8_小物
  6
CONTINUOUS
 62
    7
 10
1377.8197744960003
 20
961.64269747590004
 11
1379.7646974959998
 21
960.53939647590005
  0
LINE
  8
_0-8_小物
  6
CONTINUOUS
 62
    7
 10
1379.7646974959998
 20
960.53939647590005
 11
1379.6600254959999
 21
958.54213747590006
  0
LINE
  8
_0-8_小物
  6
CONTINUOUS
 62
    7
 10
1379.6600254959999
 20
958.54213747590006
 11
1377.6627664960001
 21
958.6468084759
  0
LINE
  8
_0-8_小物
  6
CONTINUOUS
 62
    7
 10
1377.6627664960001
 20
958.6468084759
 11
1377.5580944960002
 21
956.64954947590002
  0
LINE
  8
_0-8_小物
  6
CONTINUOUS
 62
    7
 10
1387.071040496
 20
981.42663047589997
 11
1385.3306644959998
 21
980.51198647590002
  0
LINE
  8
_0-8_小物
  6
CONTINUOUS
 62
    7
 10
1385.3306644959998
 20
980.51198647590002
 11
1385.4353364960002
 21
978.51472747590003
  0
LINE
  8
_0-8_小物
  6
CONTINUOUS
 62
    7
 10
1385.4353364960002
 20
978.51472747590003
 11
1387.432595496
 21
978.61939947589997
  0
LINE
  8
_0-8_小物
  6
CONTINUOUS
 62
    7
 10
1387.432595496
 20
978.61939947589997
 11
1387.5372674959999
 21
976.62214047589998
  0
LINE
  8
_0-8_小物
  6
CONTINUOUS
 62
    7
 10
1387.5372674959999
 20
976.62214047589998
 11
1385.5923444959999
 21
975.51883947589999
  0
LINE
  8
_0-8_小物
  6
CONTINUOUS
 62
    7
 10
1385.5923444959999
 20
975.51883947589999
 11
1385.6970164959998
 21
973.52158047590001
  0
LINE
  8
_0-8_小物
  6
CONTINUOUS
 62
    7
 10
1385.6970164959998
 20
973.52158047590001
 11
1387.694275496
 21
973.62625147590006
  0
LINE
  8
_0-8_小物
  6
CONTINUOUS
 62
    7
 10
1387.694275496
 20
973.62625147590006
 11
1387.798947496
 21
971.62899247590008
  0
LINE
  8
_0-8_小物
  6
CONTINUOUS
 62
    7
 10
1387.798947496
 20
971.62899247590008
 11
1385.854024496
 21
970.52569147589998
  0
LINE
  8
_0-8_小物
  6
CONTINUOUS
 62
    7
 10
1385.854024496
 20
970.52569147589998
 11
1385.9586964959999
 21
968.52843247589999
  0
LINE
  8
_0-8_小物
  6
CONTINUOUS
 62
    7
 10
1385.9586964959999
 20
968.52843247589999
 11
1387.9559554960001
 21
968.63310447590004
  0
LINE
  8
_0-8_小物
  6
CONTINUOUS
 62
    7
 10
1387.9559554960001
 20
968.63310447590004
 11
1388.0606274960001
 21
966.63584547590006
  0
LINE
  8
_0-8_小物
  6
CONTINUOUS
 62
    7
 10
1388.0606274960001
 20
966.63584547590006
 11
1386.1157034960002
 21
965.53254347590007
  0
LINE
  8
_0-8_小物
  6
CONTINUOUS
 62
    7
 10
1386.1157034960002
 20
965.53254347590007
 11
1386.2203754960001
 21
963.53528447589997
  0
LINE
  8
_0-8_小物
  6
CONTINUOUS
 62
    7
 10
1386.2203754960001
 20
963.53528447589997
 11
1388.2176344959998
 21
963.63995647590002
  0
LINE
  8
_0-8_小物
  6
CONTINUOUS
 62
    7
 10
1388.2176344959998
 20
963.63995647590002
 11
1388.3223064960002
 21
961.64269747590004
  0
LINE
  8
_0-8_小物
  6
CONTINUOUS
 62
    7
 10
1388.3223064960002
 20
961.64269747590004
 11
1386.3773834960002
 21
960.53939647590005
  0
LINE
  8
_0-8_小物
  6
CONTINUOUS
 62
    7
 10
1386.3773834960002
 20
960.53939647590005
 11
1386.4820554960002
 21
958.54213747590006
  0
LINE
  8
_0-8_小物
  6
CONTINUOUS
 62
    7
 10
1386.4820554960002
 20
958.54213747590006
 11
1388.4793144959999
 21
958.6468084759
  0
LINE
  8
_0-8_小物
  6
CONTINUOUS
 62
    7
 10
1388.4793144959999
 20
958.6468084759
 11
1388.5839864959999
 21
956.64954947590002
  0
LINE
  8
_0-8_小物
  6
CONTINUOUS
 62
    7
 10
1382.571040496
 20
985.42663047589997
 11
1383.071040496
 21
985.42663047589997
  0
LINE
  8
_0-8_小物
  6
CONTINUOUS
 62
    7
 10
1383.571040496
 20
985.42663047589997
 11
1383.071040496
 21
985.42663047589997
  0
LINE
  8
_0-8_小物
  6
CONTINUOUS
 62
    7
 10
1379.071040496
 20
993.42663047589997
 11
1379.071040496
 21
985.42663047589997
  0
LINE
  8
_0-8_小物
  6
CONTINUOUS
 62
    7
 10
1378.071040496
 20
993.42663047589997
 11
1379.071040496
 21
988.42663047589997
  0
LINE
  8
_0-8_小物
  6
CONTINUOUS
 62
    7
 10
1382.071040496
 20
993.42663047589997
 11
1383.071040496
 21
988.42663047589997
  0
LINE
  8
_0-8_小物
  6
CONTINUOUS
 62
    7
 10
1384.071040496
 20
993.42663047589997
 11
1383.071040496
 21
988.42663047589997
  0
LINE
  8
_0-8_小物
  6
CONTINUOUS
 62
    7
 10
1383.071040496
 20
988.42663047589997
 11
1383.071040496
 21
993.42663047589997
  0
LINE
  8
_0-8_小物
  6
CONTINUOUS
 62
    7
 10
1387.071040496
 20
993.42663047589997
 11
1387.071040496
 21
985.42663047589997
  0
LINE
  8
_0-8_小物
  6
CONTINUOUS
 62
    7
 10
1388.071040496
 20
993.42663047589997
 11
1387.071040496
 21
988.42663047589997
  0
LINE
  8
_0-8_小物
  6
CONTINUOUS
 62
    7
 10
1384.940484496
 20
959.29607447590001
 11
1383.071040496
 21
957.42663047589997
  0
LINE
  8
_0-8_小物
  6
CONTINUOUS
 62
    7
 10
1378.071040496
 20
993.42663047589997
 11
1388.071040496
 21
993.42663047589997
  0
LINE
  8
_0-8_小物
  6
CONTINUOUS
 62
    7
 10
1379.532677101
 20
973.56939625799998
 11
1377.6921324959999
 21
978.62625147590006
  0
LINE
  8
_0-8_小物
  6
CONTINUOUS
 62
    7
 10
1386.6094038910001
 20
973.56939625799998
 11
1388.4499484960002
 21
978.62625147590006
  0
LINE
  8
_0-8_小物
  6
CONTINUOUS
 62
    7
 10
1429.389641496
 20
978.28423147590001
 11
1430.3819964959998
 21
985.08785347590003
  0
ARC
  8
_0-8_小物
  6
CONTINUOUS
 62
    7
 10
1429.9861844960001
 20
985.14558547590002
 40
0.4
 50
351.70153400003102
 51
81.869898000039981
  0
LINE
  8
_0-8_小物
  6
CONTINUOUS
 62
    7
 10
1430.0427534959999
 20
985.54156547590003
 11
1429.8459284959999
 21
985.56968347589998
  0
ARC
  8
_0-8_小物
  6
CONTINUOUS
 62
    7
 10
1429.789360496
 20
985.17370347589997
 40
0.4
 50
81.869897999979997
 51
171.86989800000001
  0
LINE
  8
_0-8_小物
  6
CONTINUOUS
 62
    7
 10
1429.3933804960002
 20
985.23027247590005
 11
1428.4499484960002
 21
978.62625147590006
  0
LINE
  8
_0-8_小物
  6
CONTINUOUS
 62
    7
 10
1429.389641496
 20
978.28423147590001
 11
1430.3819964959998
 21
985.08785347590003
  0
ARC
  8
_0-8_小物
  6
CONTINUOUS
 62
    7
 10
1429.9861844960001
 20
985.14558547590002
 40
0.4
 50
351.70153400003102
 51
81.869898000039981
  0
LINE
  8
_0-8_小物
  6
CONTINUOUS
 62
    7
 10
1430.0427534959999
 20
985.54156547590003
 11
1429.8459284959999
 21
985.56968347589998
  0
ARC
  8
_0-8_小物
  6
CONTINUOUS
 62
    7
 10
1429.789360496
 20
985.17370347589997
 40
0.4
 50
81.869897999979997
 51
171.86989800000001
  0
LINE
  8
_0-8_小物
  6
CONTINUOUS
 62
    7
 10
1429.3933804960002
 20
985.23027247590005
 11
1428.4499484960002
 21
978.62625147590006
  0
LINE
  8
_0-8_小物
  6
CONTINUOUS
 62
    7
 10
1416.7524394960001
 20
978.28423147590001
 11
1415.7600844960002
 21
985.08785347590003
  0
ARC
  8
_0-8_小物
  6
CONTINUOUS
 62
    7
 10
1416.155896496
 20
985.14558547590002
 40
0.4
 50
98.130102000020003
 51
188.29846599999999
  0
LINE
  8
_0-8_小物
  6
CONTINUOUS
 62
    7
 10
1416.0993274960001
 20
985.54156547590003
 11
1416.2961524960001
 21
985.56968347589998
  0
ARC
  8
_0-8_小物
  6
CONTINUOUS
 62
    7
 10
1416.352721496
 20
985.17370347589997
 40
0.4
 50
8.1301019999600008
 51
98.130102000020003
  0
LINE
  8
_0-8_小物
  6
CONTINUOUS
 62
    7
 10
1416.7487004959999
 20
985.23027247590005
 11
1417.6921324959999
 21
978.62625147590006
  0
LINE
  8
_0-8_小物
  6
CONTINUOUS
 62
    7
 10
1419.071040496
 20
981.42663047589997
 11
1419.071040496
 21
985.42663047589997
  0
LINE
  8
_0-8_小物
  6
CONTINUOUS
 62
    7
 10
1421.0532974960001
 20
956.46637447590001
 11
1417.5580944960002
 21
956.64954947590002
  0
LINE
  8
_0-8_小物
  6
CONTINUOUS
 62
    7
 10
1417.5580944960002
 20
956.64954947590002
 11
1419.450681496
 21
954.54761847589998
  0
LINE
  8
_0-8_小物
  6
CONTINUOUS
 62
    7
 10
1419.450681496
 20
954.54761847589998
 11
1420.9486254960002
 21
954.46911447590003
  0
LINE
  8
_0-8_小物
  6
CONTINUOUS
 62
    7
 10
1420.9486254960002
 20
954.46911447590003
 11
1422.571040496
 21
985.42663047589997
  0
LINE
  8
_0-8_小物
  6
CONTINUOUS
 62
    7
 10
1427.071040496
 20
981.42663047589997
 11
1427.071040496
 21
985.42663047589997
  0
LINE
  8
_0-8_小物
  6
CONTINUOUS
 62
    7
 10
1425.0887834959999
 20
956.46637447590001
 11
1428.5839864959999
 21
956.64954947590002
  0
LINE
  8
_0-8_小物
  6
CONTINUOUS
 62
    7
 10
1428.5839864959999
 20
956.64954947590002
 11
1426.691399496
 21
954.54761847589998
  0
LINE
  8
_0-8_小物
  6
CONTINUOUS
 62
    7
 10
1426.691399496
 20
954.54761847589998
 11
1425.1934554959998
 21
954.46911447590003
  0
LINE
  8
_0-8_小物
  6
CONTINUOUS
 62
    7
 10
1425.1934554959998
 20
954.46911447590003
 11
1423.571040496
 21
985.42663047589997
  0
LINE
  8
_0-8_小物
  6
CONTINUOUS
 62
    7
 10
1418.447805496
 20
973.62625147590006
 11
1416.7524394960001
 21
978.28423147590001
  0
LINE
  8
_0-8_小物
  6
CONTINUOUS
 62
    7
 10
1427.694275496
 20
973.62625147590006
 11
1429.389641496
 21
978.28423147590001
  0
LINE
  8
_0-8_小物
  6
CONTINUOUS
 62
    7
 10
1419.071040496
 20
981.42663047589997
 11
1420.8114164960002
 21
980.51198647590002
  0
LINE
  8
_0-8_小物
  6
CONTINUOUS
 62
    7
 10
1421.2015964960001
 20
959.29607447590001
 11
1423.071040496
 21
957.42663047589997
  0
LINE
  8
_0-8_小物
  6
CONTINUOUS
 62
    7
 10
1420.8114164960002
 20
980.51198647590002
 11
1420.7067444959998
 21
978.51472747590003
  0
LINE
  8
_0-8_小物
  6
CONTINUOUS
 62
    7
 10
1420.7067444959998
 20
978.51472747590003
 11
1418.7094854960001
 21
978.61939947589997
  0
LINE
  8
_0-8_小物
  6
CONTINUOUS
 62
    7
 10
1418.7094854960001
 20
978.61939947589997
 11
1418.6048134960001
 21
976.62214047589998
  0
LINE
  8
_0-8_小物
  6
CONTINUOUS
 62
    7
 10
1418.6048134960001
 20
976.62214047589998
 11
1420.5497364960002
 21
975.51883947589999
  0
LINE
  8
_0-8_小物
  6
CONTINUOUS
 62
    7
 10
1420.5497364960002
 20
975.51883947589999
 11
1420.4450644960002
 21
973.52158047590001
  0
LINE
  8
_0-8_小物
  6
CONTINUOUS
 62
    7
 10
1420.4450644960002
 20
973.52158047590001
 11
1418.447805496
 21
973.62625147590006
  0
LINE
  8
_0-8_小物
  6
CONTINUOUS
 62
    7
 10
1418.447805496
 20
973.62625147590006
 11
1418.3431334960001
 21
971.62899247590008
  0
LINE
  8
_0-8_小物
  6
CONTINUOUS
 62
    7
 10
1418.3431334960001
 20
971.62899247590008
 11
1420.2880564960001
 21
970.52569147589998
  0
LINE
  8
_0-8_小物
  6
CONTINUOUS
 62
    7
 10
1420.2880564960001
 20
970.52569147589998
 11
1420.1833844960001
 21
968.52843247589999
  0
LINE
  8
_0-8_小物
  6
CONTINUOUS
 62
    7
 10
1420.1833844960001
 20
968.52843247589999
 11
1418.1861254959999
 21
968.63310447590004
  0
LINE
  8
_0-8_小物
  6
CONTINUOUS
 62
    7
 10
1418.1861254959999
 20
968.63310447590004
 11
1418.081453496
 21
966.63584547590006
  0
LINE
  8
_0-8_小物
  6
CONTINUOUS
 62
    7
 10
1418.081453496
 20
966.63584547590006
 11
1420.0263774959999
 21
965.53254347590007
  0
LINE
  8
_0-8_小物
  6
CONTINUOUS
 62
    7
 10
1420.0263774959999
 20
965.53254347590007
 11
1419.921705496
 21
963.53528447589997
  0
LINE
  8
_0-8_小物
  6
CONTINUOUS
 62
    7
 10
1419.921705496
 20
963.53528447589997
 11
1417.9244464960002
 21
963.63995647590002
  0
LINE
  8
_0-8_小物
  6
CONTINUOUS
 62
    7
 10
1417.9244464960002
 20
963.63995647590002
 11
1417.8197744960003
 21
961.64269747590004
  0
LINE
  8
_0-8_小物
  6
CONTINUOUS
 62
    7
 10
1417.8197744960003
 20
961.64269747590004
 11
1419.7646974959998
 21
960.53939647590005
  0
LINE
  8
_0-8_小物
  6
CONTINUOUS
 62
    7
 10
1419.7646974959998
 20
960.53939647590005
 11
1419.6600254959999
 21
958.54213747590006
  0
LINE
  8
_0-8_小物
  6
CONTINUOUS
 62
    7
 10
1419.6600254959999
 20
958.54213747590006
 11
1417.6627664960001
 21
958.6468084759
  0
LINE
  8
_0-8_小物
  6
CONTINUOUS
 62
    7
 10
1417.6627664960001
 20
958.6468084759
 11
1417.5580944960002
 21
956.64954947590002
  0
LINE
  8
_0-8_小物
  6
CONTINUOUS
 62
    7
 10
1427.071040496
 20
981.42663047589997
 11
1425.3306644959998
 21
980.51198647590002
  0
LINE
  8
_0-8_小物
  6
CONTINUOUS
 62
    7
 10
1425.3306644959998
 20
980.51198647590002
 11
1425.4353364960002
 21
978.51472747590003
  0
LINE
  8
_0-8_小物
  6
CONTINUOUS
 62
    7
 10
1425.4353364960002
 20
978.51472747590003
 11
1427.432595496
 21
978.61939947589997
  0
LINE
  8
_0-8_小物
  6
CONTINUOUS
 62
    7
 10
1427.432595496
 20
978.61939947589997
 11
1427.5372674959999
 21
976.62214047589998
  0
LINE
  8
_0-8_小物
  6
CONTINUOUS
 62
    7
 10
1427.5372674959999
 20
976.62214047589998
 11
1425.5923444959999
 21
975.51883947589999
  0
LINE
  8
_0-8_小物
  6
CONTINUOUS
 62
    7
 10
1425.5923444959999
 20
975.51883947589999
 11
1425.6970164959998
 21
973.52158047590001
  0
LINE
  8
_0-8_小物
  6
CONTINUOUS
 62
    7
 10
1425.6970164959998
 20
973.52158047590001
 11
1427.694275496
 21
973.62625147590006
  0
LINE
  8
_0-8_小物
  6
CONTINUOUS
 62
    7
 10
1427.694275496
 20
973.62625147590006
 11
1427.798947496
 21
971.62899247590008
  0
LINE
  8
_0-8_小物
  6
CONTINUOUS
 62
    7
 10
1427.798947496
 20
971.62899247590008
 11
1425.854024496
 21
970.52569147589998
  0
LINE
  8
_0-8_小物
  6
CONTINUOUS
 62
    7
 10
1425.854024496
 20
970.52569147589998
 11
1425.9586964959999
 21
968.52843247589999
  0
LINE
  8
_0-8_小物
  6
CONTINUOUS
 62
    7
 10
1425.9586964959999
 20
968.52843247589999
 11
1427.9559554960001
 21
968.63310447590004
  0
LINE
  8
_0-8_小物
  6
CONTINUOUS
 62
    7
 10
1427.9559554960001
 20
968.63310447590004
 11
1428.0606274960001
 21
966.63584547590006
  0
LINE
  8
_0-8_小物
  6
CONTINUOUS
 62
    7
 10
1428.0606274960001
 20
966.63584547590006
 11
1426.1157034960002
 21
965.53254347590007
  0
LINE
  8
_0-8_小物
  6
CONTINUOUS
 62
    7
 10
1426.1157034960002
 20
965.53254347590007
 11
1426.2203754960001
 21
963.53528447589997
  0
LINE
  8
_0-8_小物
  6
CONTINUOUS
 62
    7
 10
1426.2203754960001
 20
963.53528447589997
 11
1428.2176344959998
 21
963.63995647590002
  0
LINE
  8
_0-8_小物
  6
CONTINUOUS
 62
    7
 10
1428.2176344959998
 20
963.63995647590002
 11
1428.3223064960002
 21
961.64269747590004
  0
LINE
  8
_0-8_小物
  6
CONTINUOUS
 62
    7
 10
1428.3223064960002
 20
961.64269747590004
 11
1426.3773834960002
 21
960.53939647590005
  0
LINE
  8
_0-8_小物
  6
CONTINUOUS
 62
    7
 10
1426.3773834960002
 20
960.53939647590005
 11
1426.4820554960002
 21
958.54213747590006
  0
LINE
  8
_0-8_小物
  6
CONTINUOUS
 62
    7
 10
1426.4820554960002
 20
958.54213747590006
 11
1428.4793144959999
 21
958.6468084759
  0
LINE
  8
_0-8_小物
  6
CONTINUOUS
 62
    7
 10
1428.4793144959999
 20
958.6468084759
 11
1428.5839864959999
 21
956.64954947590002
  0
LINE
  8
_0-8_小物
  6
CONTINUOUS
 62
    7
 10
1422.571040496
 20
985.42663047589997
 11
1423.071040496
 21
985.42663047589997
  0
LINE
  8
_0-8_小物
  6
CONTINUOUS
 62
    7
 10
1423.571040496
 20
985.42663047589997
 11
1423.071040496
 21
985.42663047589997
  0
LINE
  8
_0-8_小物
  6
CONTINUOUS
 62
    7
 10
1419.071040496
 20
993.42663047589997
 11
1419.071040496
 21
985.42663047589997
  0
LINE
  8
_0-8_小物
  6
CONTINUOUS
 62
    7
 10
1418.071040496
 20
993.42663047589997
 11
1419.071040496
 21
988.42663047589997
  0
LINE
  8
_0-8_小物
  6
CONTINUOUS
 62
    7
 10
1422.071040496
 20
993.42663047589997
 11
1423.071040496
 21
988.42663047589997
  0
LINE
  8
_0-8_小物
  6
CONTINUOUS
 62
    7
 10
1424.071040496
 20
993.42663047589997
 11
1423.071040496
 21
988.42663047589997
  0
LINE
  8
_0-8_小物
  6
CONTINUOUS
 62
    7
 10
1423.071040496
 20
988.42663047589997
 11
1423.071040496
 21
993.42663047589997
  0
LINE
  8
_0-8_小物
  6
CONTINUOUS
 62
    7
 10
1427.071040496
 20
993.42663047589997
 11
1427.071040496
 21
985.42663047589997
  0
LINE
  8
_0-8_小物
  6
CONTINUOUS
 62
    7
 10
1428.071040496
 20
993.42663047589997
 11
1427.071040496
 21
988.42663047589997
  0
LINE
  8
_0-8_小物
  6
CONTINUOUS
 62
    7
 10
1424.940484496
 20
959.29607447590001
 11
1423.071040496
 21
957.42663047589997
  0
LINE
  8
_0-8_小物
  6
CONTINUOUS
 62
    7
 10
1418.071040496
 20
993.42663047589997
 11
1428.071040496
 21
993.42663047589997
  0
LINE
  8
_0-8_小物
  6
CONTINUOUS
 62
    7
 10
1419.532677101
 20
973.56939625799998
 11
1417.6921324959999
 21
978.62625147590006
  0
LINE
  8
_0-8_小物
  6
CONTINUOUS
 62
    7
 10
1426.6094038910001
 20
973.56939625799998
 11
1428.4499484960002
 21
978.62625147590006
  0
TEXT
  8
_0-a_寸法
 62
    7
 10
1395.1006929959999
 20
883.15418047590003
 40
16
 41
1
 50
0
  1
40
  0
LINE
  8
_0-a_寸法
  6
CONTINUOUS
 62
    7
 10
1485.571040496
 20
993.42663047589997
 11
1730.0261254960001
 21
993.42663047589997
  0
LINE
  8
_0-3_躯体
  6
CONTINUOUS
 62
    7
 10
1323.071040496
 20
993.42663047589997
 11
1458.071040496
 21
993.42663047589997
  0
LINE
  8
_0-3_躯体
  6
CONTINUOUS
 62
    7
 10
1458.071040496
 20
993.42663047589997
 11
1458.071040496
 21
933.42663047589997
  0
LINE
  8
_0-3_躯体
  6
CONTINUOUS
 62
    7
 10
1323.071040496
 20
993.42663047589997
 11
1323.071040496
 21
933.42663047589997
  0
LINE
  8
_0-3_躯体
  6
CONTINUOUS
 62
    7
 10
1458.071040496
 20
933.42663047589997
 11
1323.071040496
 21
933.42663047589997
  0
LINE
  8
_0-3_躯体
  6
CONTINUOUS
 62
    7
 10
1338.071040496
 20
993.42663047589997
 11
1338.071040496
 21
983.42663047589997
  0
LINE
  8
_0-3_躯体
  6
CONTINUOUS
 62
    7
 10
1338.071040496
 20
983.42663047589997
 11
1458.071040496
 21
983.42663047589997
  0
ARC
  8
_0-4_止水補助板
  6
CONTINUOUS
 62
    7
 10
1458.071040496
 20
993.42663047589997
 40
1
 50
14.999999999989999
 51
90
  0
LINE
  8
_0-3_躯体
  6
CONTINUOUS
 62
    7
 10
1323.071040496
 20
993.42663047589997
 11
1323.071040496
 21
1017.9266304759
  0
LINE
  8
_0-3_躯体
  6
CONTINUOUS
 62
    7
 10
1323.0713239289998
 20
1017.9266304759
 11
1323.071040496
 21
1017.9263470426
  0
LINE
  8
_0-a_寸法
  6
CONTINUOUS
 62
    7
 10
1458.071040496
 20
903.18471547590002
 11
1458.071040496
 21
879.15418047590003
  0
LINE
  8
_0-a_寸法
  6
CONTINUOUS
 62
    7
 10
1458.071040496
 20
884.15418047590003
 11
1453.071040496
 21
882.90418047590003
  0
LINE
  8
_0-a_寸法
  6
CONTINUOUS
 62
    7
 10
1458.071040496
 20
884.15418047590003
 11
1453.071040496
 21
885.40418047590003
  0
LINE
  8
_0-a_寸法
  6
CONTINUOUS
 62
    7
 10
1458.071040496
 20
884.15418047590003
 11
1463.071040496
 21
885.40418047590003
  0
LINE
  8
_0-a_寸法
  6
CONTINUOUS
 62
    7
 10
1458.071040496
 20
884.15418047590003
 11
1463.071040496
 21
882.90418047590003
  0
LINE
  8
_0-a_寸法
  6
CONTINUOUS
 62
    7
 10
1458.071040496
 20
905.68471547590002
 11
1453.071040496
 21
904.43471547590002
  0
LINE
  8
_0-a_寸法
  6
CONTINUOUS
 62
    7
 10
1458.071040496
 20
905.68471547590002
 11
1453.071040496
 21
906.93471547590002
  0
LINE
  8
_0-a_寸法
  6
CONTINUOUS
 62
    7
 10
1458.071040496
 20
905.68471547590002
 11
1443.071040496
 21
905.68471547590002
  0
LINE
  8
_0-a_寸法
  6
CONTINUOUS
 62
    7
 10
1458.071040496
 20
905.68471547590002
 11
1458.071040496
 21
993.37401047590004
  0
LINE
  8
_0-a_寸法
  6
CONTINUOUS
 62
    7
 10
1303.8795639290001
 20
1017.9266304759
 11
1303.8795639290001
 21
993.42663047589997
  0
LINE
  8
_0-a_寸法
  6
CONTINUOUS
 62
    7
 10
1321.0713239289998
 20
1017.9266304759
 11
1299.8795639290001
 21
1017.9266304759
  0
LINE
  8
_0-a_寸法
  6
CONTINUOUS
 62
    7
 10
1321.0713239289998
 20
993.42663047589997
 11
1299.8795639290001
 21
993.42663047589997
  0
LINE
  8
_0-a_寸法
  6
CONTINUOUS
 62
    7
 10
1303.8795639290001
 20
1017.9266304759
 11
1305.1295639290001
 21
1012.9266304759
  0
LINE
  8
_0-a_寸法
  6
CONTINUOUS
 62
    7
 10
1303.8795639290001
 20
1017.9266304759
 11
1302.6295639290001
 21
1012.9266304759
  0
LINE
  8
_0-a_寸法
  6
CONTINUOUS
 62
    7
 10
1303.8795639290001
 20
993.42663047589997
 11
1302.6295639290001
 21
998.42663047589997
  0
LINE
  8
_0-a_寸法
  6
CONTINUOUS
 62
    7
 10
1303.8795639290001
 20
993.42663047589997
 11
1305.1295639290001
 21
998.42663047589997
  0
LINE
  8
_0-a_寸法
  6
CONTINUOUS
 62
    7
 10
1303.8795639290001
 20
993.42663047589997
 11
1303.8795639290001
 21
983.42663047589997
  0
LINE
  8
_0-a_寸法
  6
CONTINUOUS
 62
    7
 10
1336.0713139290001
 20
983.42663047589997
 11
1299.8795639290001
 21
983.42663047589997
  0
LINE
  8
_0-a_寸法
  6
CONTINUOUS
 62
    7
 10
1303.8795639290001
 20
983.42663047589997
 11
1305.1295639290001
 21
978.42663047589997
  0
LINE
  8
_0-a_寸法
  6
CONTINUOUS
 62
    7
 10
1303.8795639290001
 20
983.42663047589997
 11
1302.6295639290001
 21
978.42663047589997
  0
LINE
  8
_0-a_寸法
  6
CONTINUOUS
 62
    7
 10
1303.8795639290001
 20
983.42663047589997
 11
1303.8795639290001
 21
968.42663047589997
  0
LINE
  8
_0-a_寸法
  6
CONTINUOUS
 62
    7
 10
1303.8795639290001
 20
1078.4266304755001
 11
1303.8795639290001
 21
1017.9266304759
  0
LINE
  8
_0-a_寸法
  6
CONTINUOUS
 62
    7
 10
1303.8795639290001
 20
1078.4266304755001
 11
1305.1295639290001
 21
1073.4266304755001
  0
LINE
  8
_0-a_寸法
  6
CONTINUOUS
 62
    7
 10
1303.8795639290001
 20
1078.4266304755001
 11
1302.6295639290001
 21
1073.4266304755001
  0
LINE
  8
_0-a_寸法
  6
CONTINUOUS
 62
    7
 10
1303.8795639290001
 20
1017.9266304759
 11
1302.6295639290001
 21
1022.9266304759
  0
LINE
  8
_0-a_寸法
  6
CONTINUOUS
 62
    7
 10
1303.8795639290001
 20
1017.9266304759
 11
1305.1295639290001
 21
1022.9266304759
  0
TEXT
  8
_0-a_寸法
 62
    7
 10
1303.8795643480003
 20
1040.1766304758999
 40
16
 41
1
 50
90.00000299999995
  1
60
  0
TEXT
  8
_0-a_寸法
 62
    7
 10
1303.8795643480003
 20
997.67663047589997
 40
16
 41
1
 50
90.00000299999995
  1
25
  0
TEXT
  8
_0-a_寸法
 62
    7
 10
1303.8795643480003
 20
964.17663047589997
 40
16
 41
1
 50
90.00000299999995
  1
10
  0
LINE
  8
_0-3_躯体
  6
CONTINUOUS
 62
    7
 10
1393.071040496
 20
1017.9266304759
 11
1323.0713239289998
 21
1017.9266304759
  0
LINE
  8
_0-a_寸法
  6
CONTINUOUS
 62
    7
 10
1458.071040496
 20
905.68471547590002
 11
1493.071040496
 21
905.68471547590002
  0
LINE
  8
_0-a_寸法
  6
CONTINUOUS
 62
    7
 10
1423.071040496
 20
884.15418047590003
 11
1458.071040496
 21
884.15418047590003
  0
LINE
  8
_0-a_寸法
  6
CONTINUOUS
 62
    7
 10
1458.071040496
 20
884.15418047590003
 11
1658.071040496
 21
884.15418047590003
  0
TEXT
  8
_0-a_寸法
 62
    7
 10
1432.571040496
 20
884.15418047590003
 40
16
 41
1
 50
0
  1
35
  0
TEXT
  8
_0-a_寸法
 62
    7
 10
1546.071040496
 20
884.15418047590003
 40
16
 41
1
 50
0
  1
200
  0
LINE
  8
_0-a_寸法
  6
CONTINUOUS
 62
    7
 10
1373.3739904960003
 20
988.88500547590002
 11
1331.0372289080001
 21
915.55558547589999
  0
TEXT
  8
_0-a_寸法
 62
    7
 10
1154.9933539080002
 20
915.55558547589999
 40
16
 41
1
 50
0
  1
ならしモルタル（別途）
  0
LINE
  8
_0-4_止水補助板
  6
CONTINUOUS
 62
    7
 10
1368.071040496
 20
994.42663047589997
 11
1368.071040496
 21
993.42663047589997
  0
LINE
  8
_0-4_止水補助板
  6
CONTINUOUS
 62
    7
 10
1458.071040496
 20
994.42663047589997
 11
1368.071040496
 21
994.42663047589997
  0
LINE
  8
_0-4_止水補助板
  6
CONTINUOUS
 62
    7
 10
1368.071040496
 20
993.42663047589997
 11
1458.071040496
 21
993.42663047589997
  0
LINE
  8
_0-4_止水補助板
  6
CONTINUOUS
 62
    7
 10
1458.071040496
 20
993.42663047589997
 11
1472.7094019189999
 21
938.79552190549998
  0
LINE
  8
_0-4_止水補助板
  6
CONTINUOUS
 62
    7
 10
1459.0369663219999
 20
993.68544952100001
 11
1473.7446780989999
 21
938.79552190549998
  0
LINE
  8
_0-4_止水補助板
  6
CONTINUOUS
 62
    7
 10
1657.0710394960001
 20
993.42663047589997
 11
1642.4326780730003
 21
938.79552190549998
  0
LINE
  8
_0-4_止水補助板
  6
CONTINUOUS
 62
    7
 10
1658.0710394960001
 20
993.29497797830004
 11
1643.4679542530002
 21
938.79552190549998
  0
ARC
  8
_0-a_寸法
  6
CONTINUOUS
 62
    7
 10
1558.0886780860001
 20
961.39542858840002
 40
87.319334146800003
 50
194.99999999999997
 51
345
  0
ARC
  8
_0-a_寸法
  6
CONTINUOUS
 62
    7
 10
1558.0886780860001
 20
961.39542858840002
 40
88.319740607089997
 50
194.8261727073
 51
345.17382729270003
  0
LINE
  8
_0-a_寸法
  6
CONTINUOUS
 62
    7
 10
1509.602374259
 20
888.23512741410002
 11
1520.148909259
 21
906.50226241410007
  0
CIRCLE
  8
_0-a_寸法
  6
CONTINUOUS
 62
    7
 10
1523.898909259
 20
912.99745241410005
 40
7.5
  0
CIRCLE
  8
_0-a_寸法
  6
CONTINUOUS
 62
    7
 10
1509.602374259
 20
888.23512741410002
 40
1
  0
TEXT
  8
_0-a_寸法
 62
    7
 10
1519.898909259
 20
904.99745241410005
 40
16
 41
1
 50
0
  1
6
  0
LINE
  8
_0-a_寸法
  6
CONTINUOUS
 62
    7
 10
1638.071044496
 20
1078.4266304755001
 11
1298.8795639290001
 21
1078.4266304755001
  0
LINE
  8
_0-a_寸法
  6
CONTINUOUS
 62
    7
 10
1331.0372289080001
 20
915.55558547589999
 11
1155.2867135910001
 21
915.55558547589999
  0
TEXT
  8
_0-a_寸法
 62
    7
 10
1460.071040496
 20
905.68471547590002
 40
16
 41
1
 50
0
  1
35
  0
TEXT
  8
_0-a_寸法
 62
    7
 10
1681.0671951049999
 20
1091.5091835845001
 40
15
 41
1
 50
0
  1
7
  0
TEXT
  8
_0-a_寸法
 62
    7
 10
1677.3171942459999
 20
1062.0727854755
 40
15
 41
1
 50
0
  1
５
  0
TEXT
  8
_0-a_寸法
 62
    7
 10
1610.9537074959999
 20
1044.6897854755
 40
15
 41
1
 50
0
  1
4
  0
TEXT
  8
_0-a_寸法
 62
    7
 10
1670.4564816669999
 20
1039.8120716472999
 40
15
 41
1
 50
0
  1
10
  0
TEXT
  8
_0-a_寸法
 62
    7
 10
1665.9813154960002
 20
974.33647662400006
 40
15
 41
1
 50
0
  1
11
  0
LINE
  8
_0-8_小物
  6
CONTINUOUS
 62
    7
 10
1458.071040496
 20
984.07000067360002
 11
1457.4276702980001
 21
983.42663047589997
  0
LINE
  8
_0-8_小物
  6
CONTINUOUS
 62
    7
 10
1458.071040496
 20
991.14106848540007
 11
1450.3566024860002
 21
983.42663047589997
  0
LINE
  8
_0-8_小物
  6
CONTINUOUS
 62
    7
 10
1453.2855346750002
 20
993.42663047589997
 11
1443.2855346750002
 21
983.42663047589997
  0
LINE
  8
_0-8_小物
  6
CONTINUOUS
 62
    7
 10
1446.2144668629999
 20
993.42663047589997
 11
1436.2144668629999
 21
983.42663047589997
  0
LINE
  8
_0-8_小物
  6
CONTINUOUS
 62
    7
 10
1439.143399051
 20
993.42663047589997
 11
1429.143399051
 21
983.42663047589997
  0
LINE
  8
_0-8_小物
  6
CONTINUOUS
 62
    7
 10
1432.0723312390001
 20
993.42663047589997
 11
1422.0723312390001
 21
983.42663047589997
  0
LINE
  8
_0-8_小物
  6
CONTINUOUS
 62
    7
 10
1425.0012634270001
 20
993.42663047589997
 11
1415.0012634270001
 21
983.42663047589997
  0
LINE
  8
_0-8_小物
  6
CONTINUOUS
 62
    7
 10
1417.9301956150002
 20
993.42663047589997
 11
1407.9301956150002
 21
983.42663047589997
  0
LINE
  8
_0-8_小物
  6
CONTINUOUS
 62
    7
 10
1410.8591278029999
 20
993.42663047589997
 11
1400.8591278029999
 21
983.42663047589997
  0
LINE
  8
_0-8_小物
  6
CONTINUOUS
 62
    7
 10
1403.788059991
 20
993.42663047589997
 11
1393.788059991
 21
983.42663047589997
  0
LINE
  8
_0-8_小物
  6
CONTINUOUS
 62
    7
 10
1396.71699218
 20
993.42663047589997
 11
1386.71699218
 21
983.42663047589997
  0
LINE
  8
_0-8_小物
  6
CONTINUOUS
 62
    7
 10
1397.071040496
 20
1000.8517466041001
 11
1393.1459243680001
 21
996.92663047589997
  0
LINE
  8
_0-8_小物
  6
CONTINUOUS
 62
    7
 10
1389.6459243680001
 20
993.42663047589997
 11
1379.6459243680001
 21
983.42663047589997
  0
LINE
  8
_0-8_小物
  6
CONTINUOUS
 62
    7
 10
1397.071040496
 20
1007.9228144160001
 11
1387.5748565560002
 21
998.42663047589997
  0
LINE
  8
_0-8_小物
  6
CONTINUOUS
 62
    7
 10
1382.5748565560002
 20
993.42663047589997
 11
1372.5748565560002
 21
983.42663047589997
  0
LINE
  8
_0-8_小物
  6
CONTINUOUS
 62
    7
 10
1393.071040496
 20
1010.9938822278
 11
1383.8476520059999
 21
1001.7704937379
  0
LINE
  8
_0-8_小物
  6
CONTINUOUS
 62
    7
 10
1375.5037887439998
 20
993.42663047589997
 11
1365.5037887439998
 21
983.42663047589997
  0
LINE
  8
_0-8_小物
  6
CONTINUOUS
 62
    7
 10
1392.9327209319999
 20
1017.9266304759
 11
1371.9327209319999
 21
996.92663047589997
  0
LINE
  8
_0-8_小物
  6
CONTINUOUS
 62
    7
 10
1368.4327209319999
 20
993.42663047589997
 11
1358.4327209319999
 21
983.42663047589997
  0
LINE
  8
_0-8_小物
  6
CONTINUOUS
 62
    7
 10
1385.86165312
 20
1017.9266304759
 11
1351.36165312
 21
983.42663047589997
  0
LINE
  8
_0-8_小物
  6
CONTINUOUS
 62
    7
 10
1378.7905853080001
 20
1017.9266304759
 11
1344.2905853080001
 21
983.42663047589997
  0
LINE
  8
_0-8_小物
  6
CONTINUOUS
 62
    7
 10
1371.7195174970002
 20
1017.9266304759
 11
1338.071040496
 21
984.27815347529997
  0
LINE
  8
_0-8_小物
  6
CONTINUOUS
 62
    7
 10
1364.6484496849998
 20
1017.9266304759
 11
1338.071040496
 21
991.34922128720007
  0
LINE
  8
_0-8_小物
  6
CONTINUOUS
 62
    7
 10
1357.5773818729999
 20
1017.9266304759
 11
1333.0773818729999
 21
993.42663047589997
  0
LINE
  8
_0-8_小物
  6
CONTINUOUS
 62
    7
 10
1350.506314061
 20
1017.9266304759
 11
1326.006314061
 21
993.42663047589997
  0
LINE
  8
_0-8_小物
  6
CONTINUOUS
 62
    7
 10
1343.4352462490001
 20
1017.9266304759
 11
1323.071040496
 21
997.56242472280007
  0
LINE
  8
_0-8_小物
  6
CONTINUOUS
 62
    7
 10
1336.3641784370002
 20
1017.9266304759
 11
1323.071040496
 21
1004.6334925346
  0
LINE
  8
_0-8_小物
  6
CONTINUOUS
 62
    7
 10
1329.2931106249998
 20
1017.9266304759
 11
1323.071040496
 21
1011.7045603465
  0
LINE
  8
_0-5_フレ_ム
  6
CONTINUOUS
 62
    7
 10
1641.5710394960001
 20
1055.2266304754999
 11
1641.8710394959999
 21
1054.9266304755001
  0
LINE
  8
_0-5_フレ_ム
  6
CONTINUOUS
 62
    7
 10
1641.5710394960001
 20
1054.6266304755
 11
1641.8710394959999
 21
1054.9266304755001
  0
LINE
  8
_0-a_寸法
  6
CENTER
 62
    7
 10
1558.071040496
 20
1028.4266304758999
 11
1558.071040496
 21
934.42663047589997
  0
TEXT
  8
_0-a_寸法
 62
    7
 10
1440.8135378800002
 20
958.0439595496
 40
15
 41
1
 50
0
  1
11
  0
TEXT
  8
_0-a_寸法
 62
    7
 10
1395.665350496
 20
958.2516779481
 40
15
 41
1
 50
0
  1
10
  0
LINE
  8
_0-a_寸法
  6
CONTINUOUS
 62
    7
 10
1658.071040496
 20
1087.6834854755
 11
1658.071040496
 21
1123.5016204755
  0
LINE
  8
_0-a_寸法
  6
CONTINUOUS
 62
    7
 10
1658.071040496
 20
1118.5016204755
 11
1653.071040496
 21
1117.2516204755
  0
LINE
  8
_0-a_寸法
  6
CONTINUOUS
 62
    7
 10
1658.071040496
 20
1118.5016204755
 11
1653.071040496
 21
1119.7516204755
  0
LINE
  8
_0-a_寸法
  6
CONTINUOUS
 62
    7
 10
1638.0710454959999
 20
1078.4266304755001
 11
1638.0710454959999
 21
1100.6400004755001
  0
LINE
  8
_0-a_寸法
  6
CONTINUOUS
 62
    7
 10
1638.0710454959999
 20
1095.6400004755001
 11
1633.0710454959999
 21
1094.3900004755001
  0
LINE
  8
_0-a_寸法
  6
CONTINUOUS
 62
    7
 10
1638.0710454959999
 20
1095.6400004755001
 11
1633.0710454959999
 21
1096.8900004755001
  0
LINE
  8
_0-a_寸法
  6
CONTINUOUS
 62
    7
 10
1638.0710454959999
 20
1095.6400004755001
 11
1658.071040496
 21
1095.6400004755001
  0
LINE
  8
_0-a_寸法
  6
CONTINUOUS
 62
    7
 10
1638.0710454959999
 20
1095.6400004755001
 11
1643.0710454959999
 21
1096.8900004755001
  0
LINE
  8
_0-a_寸法
  6
CONTINUOUS
 62
    7
 10
1638.0710454959999
 20
1095.6400004755001
 11
1643.0710454959999
 21
1094.3900004755001
  0
LINE
  8
_0-a_寸法
  6
CONTINUOUS
 62
    7
 10
1658.071040496
 20
1095.6400004755001
 11
1653.071040496
 21
1094.3900004755001
  0
LINE
  8
_0-a_寸法
  6
CONTINUOUS
 62
    7
 10
1658.071040496
 20
1095.6400004755001
 11
1653.071040496
 21
1096.8900004755001
  0
TEXT
  8
_0-a_寸法
 62
    7
 10
1640.071042996
 20
1095.6400004755001
 40
16
 41
1
 50
0
  1
20
  0
LINE
  8
_0-a_寸法
  6
CONTINUOUS
 62
    7
 10
1393.071040496
 20
1019.6766304759
 11
1393.071040496
 21
1123.5016204755
  0
LINE
  8
_0-a_寸法
  6
CONTINUOUS
 62
    7
 10
1393.071040496
 20
1118.5016204755
 11
1398.071040496
 21
1119.7516204755
  0
LINE
  8
_0-a_寸法
  6
CONTINUOUS
 62
    7
 10
1393.071040496
 20
1118.5016204755
 11
1398.071040496
 21
1117.2516204755
  0
LINE
  8
_0-a_寸法
  6
CONTINUOUS
 62
    7
 10
1393.071040496
 20
1095.6400004755001
 11
1493.071040496
 21
1095.6400004755001
  0
LINE
  8
_0-a_寸法
  6
CONTINUOUS
 62
    7
 10
1493.071040496
 20
1018.9266304759
 11
1493.071040496
 21
1100.6400004755001
  0
LINE
  8
_0-a_寸法
  6
CONTINUOUS
 62
    7
 10
1393.071040496
 20
1095.6400004755001
 11
1398.071040496
 21
1096.8900004755001
  0
LINE
  8
_0-a_寸法
  6
CONTINUOUS
 62
    7
 10
1393.071040496
 20
1095.6400004755001
 11
1398.071040496
 21
1094.3900004755001
  0
LINE
  8
_0-a_寸法
  6
CONTINUOUS
 62
    7
 10
1493.071040496
 20
1095.6400004755001
 11
1488.071040496
 21
1094.3900004755001
  0
LINE
  8
_0-a_寸法
  6
CONTINUOUS
 62
    7
 10
1493.071040496
 20
1095.6400004755001
 11
1488.071040496
 21
1096.8900004755001
  0
LINE
  8
_0-a_寸法
  6
CONTINUOUS
 62
    7
 10
1493.071040496
 20
1095.6400004755001
 11
1498.071040496
 21
1096.8900004755001
  0
LINE
  8
_0-a_寸法
  6
CONTINUOUS
 62
    7
 10
1493.071040496
 20
1095.6400004755001
 11
1498.071040496
 21
1094.3900004755001
  0
TEXT
  8
_0-a_寸法
 62
    7
 10
1431.071040496
 20
1095.6400004755001
 40
16
 41
1
 50
0
  1
100
  0
LINE
  8
_0-a_寸法
  6
CONTINUOUS
 62
    7
 10
1393.071040496
 20
1118.5016204755
 11
1658.071040496
 21
1118.5016204755
  0
LINE
  8
_0-a_寸法
  6
CONTINUOUS
 62
    7
 10
1493.071040496
 20
1095.6400004755001
 11
1638.0710454959999
 21
1095.6400004755001
  0
TEXT
  8
_0-a_寸法
 62
    7
 10
1513.571040496
 20
1118.5016204755
 40
16
 41
1
 50
0
  1
265
  0
TEXT
  8
_0-a_寸法
 62
    7
 10
1549.571042996
 20
1095.6400004755001
 40
16
 41
1
 50
0
  1
145 
  0
CIRCLE
  8
_0-a_寸法
  6
CONTINUOUS
 62
    7
 10
1507.1146938699999
 20
1013.8346893606
 40
1
  0
CIRCLE
  8
_0-a_寸法
  6
CONTINUOUS
 62
    7
 10
1518.8501313699999
 20
1034.1610618606001
 40
7.5
  0
LINE
  8
_0-a_寸法
  6
CONTINUOUS
 62
    7
 10
1507.1146938699999
 20
1013.8346893606
 11
1515.049919524
 21
1027.5789023975999
  0
TEXT
  8
_0-a_寸法
 62
    7
 10
1515.1001313699999
 20
1026.6610618606001
 40
15
 41
1
 50
0
  1
2
  0
CIRCLE
  8
_0-a_寸法
  6
CONTINUOUS
 62
    7
 10
1459.0984210860001
 20
996.17663047589997
 40
1
  0
LINE
  8
_0-a_寸法
  6
CONTINUOUS
 62
    7
 10
1459.0984210860001
 20
996.17663047589997
 11
1477.5411299840002
 21
1028.1203397605
  0
CIRCLE
  8
_0-a_寸法
  6
CONTINUOUS
 62
    7
 10
1481.2911299450002
 20
1034.6155303115002
 40
7.5
  0
TEXT
  8
_0-a_寸法
 62
    7
 10
1477.5411299450002
 20
1027.1155303115002
 40
15
 41
1
 50
0
  1
3
  0
CIRCLE
  8
_0-a_寸法
  6
CONTINUOUS
 62
    7
 10
1453.1482923950002
 20
1016.4266304759
 40
1
  0
LINE
  8
_0-a_寸法
  6
CONTINUOUS
 62
    7
 10
1453.1482923950002
 20
1016.4266304759
 11
1459.6906736129999
 21
1027.7583657986002
  0
CIRCLE
  8
_0-a_寸法
  6
CONTINUOUS
 62
    7
 10
1463.440673948
 20
1034.2535561335001
 40
7.5
  0
TEXT
  8
_0-a_寸法
 62
    7
 10
1459.690673948
 20
1026.7535561335001
 40
15
 41
1
 50
0
  1
1
  0
CIRCLE
  8
_0-a_寸法
  6
CONTINUOUS
 62
    7
 10
448.60488084390005
 20
1014.8346893606
 40
1
  0
CIRCLE
  8
_0-a_寸法
  6
CONTINUOUS
 62
    7
 10
460.34031834400002
 20
1035.1610618606001
 40
7.5
  0
LINE
  8
_0-a_寸法
  6
CONTINUOUS
 62
    7
 10
448.60488084390005
 20
1014.8346893606
 11
456.54010649750006
 21
1028.5789023975999
  0
TEXT
  8
_0-a_寸法
 62
    7
 10
456.59031834400002
 20
1027.6610618606001
 40
15
 41
1
 50
0
  1
2
  0
CIRCLE
  8
_0-a_寸法
  6
CONTINUOUS
 62
    7
 10
400.58860805970005
 20
997.17663047589997
 40
1
  0
LINE
  8
_0-a_寸法
  6
CONTINUOUS
 62
    7
 10
400.58860805970005
 20
997.17663047589997
 11
419.03131695740001
 21
1029.1203397605
  0
CIRCLE
  8
_0-a_寸法
  6
CONTINUOUS
 62
    7
 10
422.78131691830004
 20
1035.6155303115002
 40
7.5
  0
TEXT
  8
_0-a_寸法
 62
    7
 10
419.03131691830004
 20
1028.1155303115002
 40
15
 41
1
 50
0
  1
3
  0
CIRCLE
  8
_0-a_寸法
  6
CONTINUOUS
 62
    7
 10
394.63847936820002
 20
1017.4266304759
 40
1
  0
LINE
  8
_0-a_寸法
  6
CONTINUOUS
 62
    7
 10
394.63847936820002
 20
1017.4266304759
 11
401.18086058670002
 21
1028.7583657986002
  0
CIRCLE
  8
_0-a_寸法
  6
CONTINUOUS
 62
    7
 10
404.93086092190003
 20
1035.2535561335001
 40
7.5
  0
TEXT
  8
_0-a_寸法
 62
    7
 10
401.18086092190003
 20
1027.7535561335001
 40
15
 41
1
 50
0
  1
1
  0
LINE
  8
_0-9_その他
  6
CONTINUOUS
 62
    7
 10
1635.107420496
 20
1054.9266304755001
 11
1656.5710494959999
 21
1054.9266304755001
  0
LINE
  8
_0-9_その他
  6
CONTINUOUS
 62
    7
 10
346.06122746940002
 20
1021.3902554759001
 11
346.06122746940002
 21
999.92662647589998
  0
LINE
  8
_0-9_その他
  6
CONTINUOUS
 62
    7
 10
653.06122746940002
 20
1021.3902554759001
 11
653.06122746940002
 21
999.92662647589998
  0
LINE
  8
_0-9_その他
  6
CONTINUOUS
 62
    7
 10
1404.3978354440001
 20
1020.3902554759001
 11
1404.3978354440001
 21
998.92662647589998
  0
LINE
  8
_0-a_寸法
  6
CONTINUOUS
 62
    7
 10
346.06122746940002
 20
1017.2766304759
 11
352.52487746940005
 21
1028.4720004759001
  0
CIRCLE
  8
_0-a_寸法
  6
CONTINUOUS
 62
    7
 10
356.27487746940005
 20
1034.9671904759
 40
7.5
  0
CIRCLE
  8
_0-a_寸法
  6
CONTINUOUS
 62
    7
 10
346.06122746940002
 20
1017.2766304759
 40
1
  0
TEXT
  8
_0-a_寸法
 62
    7
 10
352.52487746940005
 20
1027.4671904759
 40
15
 41
1
 50
0
  1
5
  0
CIRCLE
  8
_0-a_寸法
  6
CONTINUOUS
 62
    7
 10
1404.3978354440001
 20
1016.2766304759
 40
1
  0
CIRCLE
  8
_0-a_寸法
  6
CONTINUOUS
 62
    7
 10
1414.141732133
 20
1033.1535557985999
 40
7.5
  0
LINE
  8
_0-a_寸法
  6
CONTINUOUS
 62
    7
 10
1404.3978354440001
 20
1016.2766304759
 11
1410.3917319040002
 21
1026.6583654023
  0
TEXT
  8
_0-a_寸法
 62
    7
 10
1406.641732133
 20
1025.6535557985999
 40
15
 41
1
 50
0
  1
８
  0
CIRCLE
  8
_0-a_寸法
  6
CONTINUOUS
 62
    7
 10
1639.3710444960002
 20
1054.9266297254999
 40
1
  0
CIRCLE
  8
_0-a_寸法
  6
CONTINUOUS
 62
    7
 10
1615.7037065330001
 20
1035.0673769896
 40
7.5
  0
LINE
  8
_0-a_寸法
  6
CONTINUOUS
 62
    7
 10
1639.3710444960002
 20
1054.9266297254999
 11
1621.4490415330001
 21
1039.8882869896001
  0
TEXT
  8
_0-a_寸法
 62
    7
 10
1611.9537065330001
 20
1027.5673769896
 40
15
 41
1
 50
0
  1
8
  0
CIRCLE
  8
_0-a_寸法
  6
CONTINUOUS
 62
    7
 10
361.33338901510001
 20
963.0373414211
 40
1
  0
LINE
  8
_0-a_寸法
  6
CONTINUOUS
 62
    7
 10
361.33338901510001
 20
963.0373414211
 11
356.98660974960006
 21
955.50849974160008
  0
CIRCLE
  8
_0-a_寸法
  6
CONTINUOUS
 62
    7
 10
353.23660942920003
 20
949.01330939809998
 40
7.5
  0
TEXT
  8
_0-a_寸法
 62
    7
 10
349.48660942920003
 20
941.51330939809998
 40
15
 41
1
 50
0
  1
6
  0
CIRCLE
  8
_0-a_寸法
  6
CONTINUOUS
 62
    7
 10
1419.8432014959999
 20
962.03734047590001
 40
0.5999999999999996
  0
CIRCLE
  8
_0-a_寸法
  6
CONTINUOUS
 62
    7
 10
1409.5576909450001
 20
944.2223130077
 40
7.5
  0
LINE
  8
_0-a_寸法
  6
CONTINUOUS
 62
    7
 10
1419.8432014959999
 20
962.03734047590001
 11
1413.3076908480002
 21
950.71750359179998
  0
TEXT
  8
_0-a_寸法
 62
    7
 10
1405.8076909450001
 20
936.7223130077
 40
15
 41
1
 50
0
  1
9
  0
CIRCLE
  8
_0-a_寸法
  6
CONTINUOUS
 62
    7
 10
1689.4603294960002
 20
1018.1987914759001
 40
1
  0
CIRCLE
  8
_0-a_寸法
  6
CONTINUOUS
 62
    7
 10
1698.51637338
 20
1002.513265412
 40
7.5
  0
TEXT
  8
_0-a_寸法
 62
    7
 10
1694.76637338
 20
995.01326541200001
 40
15
 41
1
 50
0
  1
9
  0
LINE
  8
_0-a_寸法
  6
CONTINUOUS
 62
    7
 10
1689.4603294960002
 20
1018.1987914759001
 11
1694.7663730109998
 21
1009.0084557272
  0
LINE
  8
_0-b_レイヤ1
  6
CONTINUOUS
 62
    7
 10
860.72387450400004
 20
319.49837952450002
 11
149.97387450400004
 21
319.49837952450002
  0
LINE
  8
_0-b_レイヤ1
  6
CONTINUOUS
 62
    7
 10
860.72387450400004
 20
379.49837952450002
 11
149.97387450400004
 21
379.49837952450002
  0
LINE
  8
_0-b_レイヤ1
  6
CONTINUOUS
 62
    7
 10
860.72387450400004
 20
349.49837952450002
 11
149.97387450400004
 21
349.49837952450002
  0
LINE
  8
_0-b_レイヤ1
  6
CONTINUOUS
 62
    7
 10
860.72387450400004
 20
409.49837952450002
 11
149.97387450400004
 21
409.49837952450002
  0
LINE
  8
_0-b_レイヤ1
  6
CONTINUOUS
 62
    7
 10
860.72387450400004
 20
589.49837952450002
 11
149.97387450400004
 21
589.49837952450002
  0
LINE
  8
_0-b_レイヤ1
  6
CONTINUOUS
 62
    7
 10
860.72387450400004
 20
559.49837952450002
 11
149.97387450400004
 21
559.49837952450002
  0
LINE
  8
_0-b_レイヤ1
  6
CONTINUOUS
 62
    7
 10
860.72387450400004
 20
529.49837952450002
 11
149.97387450400004
 21
529.49837952450002
  0
LINE
  8
_0-b_レイヤ1
  6
CONTINUOUS
 62
    7
 10
860.72387450400004
 20
499.49837952450002
 11
149.97387450400004
 21
499.49837952450002
  0
LINE
  8
_0-b_レイヤ1
  6
CONTINUOUS
 62
    7
 10
860.72387450400004
 20
469.49837952450002
 11
149.97387450400004
 21
469.49837952450002
  0
LINE
  8
_0-b_レイヤ1
  6
CONTINUOUS
 62
    7
 10
860.72387450400004
 20
439.49837952450002
 11
149.97387450400004
 21
439.49837952450002
  0
LINE
  8
_0-b_レイヤ1
  6
CONTINUOUS
 62
    7
 10
860.72387450400004
 20
643.49837952450002
 11
149.97387450400004
 21
643.49837952450002
  0
TEXT
  8
_0-b_レイヤ1
 62
    7
 10
696.32625950400006
 20
565.49839952449997
 40
16
 41
1
 50
0
  1
３０００
  0
TEXT
  8
_0-b_レイヤ1
 62
    7
 10
796.77498200399998
 20
565.74833702450007
 40
16
 41
1
 50
0
  1
２
  0
TEXT
  8
_0-b_レイヤ1
 62
    7
 10
834.99949950400003
 20
565.49839952449997
 40
16
 41
1
 50
0
  1
本
  0
TEXT
  8
_0-b_レイヤ1
 62
    7
 10
167.90803450400006
 20
535.63612702449996
 40
16
 41
1
 50
0
  1
２
  0
TEXT
  8
_0-b_レイヤ1
 62
    7
 10
696.32625950400006
 20
535.49839952449997
 40
16
 41
1
 50
0
  1
３０００
  0
TEXT
  8
_0-b_レイヤ1
 62
    7
 10
796.77498200399998
 20
535.7483945245001
 40
16
 41
1
 50
0
  1
１
  0
TEXT
  8
_0-b_レイヤ1
 62
    7
 10
834.99949950400003
 20
535.49839952449997
 40
16
 41
1
 50
0
  1
〃
  0
TEXT
  8
_0-b_レイヤ1
 62
    7
 10
167.90803450400006
 20
505.63612702450001
 40
16
 41
1
 50
0
  1
３
  0
TEXT
  8
_0-b_レイヤ1
 62
    7
 10
796.77498200399998
 20
505.74833702450002
 40
16
 41
1
 50
0
  1
２
  0
TEXT
  8
_0-b_レイヤ1
 62
    7
 10
834.99949950400003
 20
505.49839952450003
 40
16
 41
1
 50
0
  1
〃
  0
TEXT
  8
_0-b_レイヤ1
 62
    7
 10
167.90803450400006
 20
475.63612702450001
 40
16
 41
1
 50
0
  1
４
  0
TEXT
  8
_0-b_レイヤ1
 62
    7
 10
191.973912004
 20
475.49839952450003
 40
16
 41
1
 50
0
  1
止水補助板
  0
TEXT
  8
_0-b_レイヤ1
 62
    7
 10
696.32625950400006
 20
475.49839952450003
 40
16
 41
1
 50
0
  1
３１００
  0
TEXT
  8
_0-b_レイヤ1
 62
    7
 10
796.77498200399998
 20
475.74839452450004
 40
16
 41
1
 50
0
  1
１
  0
TEXT
  8
_0-b_レイヤ1
 62
    7
 10
834.99949950400003
 20
475.49839952450003
 40
16
 41
1
 50
0
  1
枚
  0
TEXT
  8
_0-b_レイヤ1
 62
    7
 10
167.90803450400006
 20
445.63618452450004
 40
16
 41
1
 50
0
  1
５
  0
TEXT
  8
_0-b_レイヤ1
 62
    7
 10
167.90803450400006
 20
415.63618452450004
 40
16
 41
1
 50
0
  1
６
  0
TEXT
  8
_0-b_レイヤ1
 62
    7
 10
834.99949950400003
 20
415.49839952450003
 40
16
 41
1
 50
0
  1
〃
  0
TEXT
  8
_0-b_レイヤ1
 62
    7
 10
167.90803450400006
 20
385.63615702450005
 40
16
 41
1
 50
0
  1
７
  0
TEXT
  8
_0-b_レイヤ1
 62
    7
 10
834.99949950400003
 20
385.49836952450005
 40
16
 41
1
 50
0
  1
〃
  0
TEXT
  8
_0-b_レイヤ1
 62
    7
 10
167.90803450400006
 20
355.63615702450005
 40
16
 41
1
 50
0
  1
８
  0
TEXT
  8
_0-b_レイヤ1
 62
    7
 10
191.973912004
 20
355.49842702450002
 40
16
 41
1
 50
0
  1
ステンワッシャー
  0
TEXT
  8
_0-b_レイヤ1
 62
    7
 10
476.97399700400001
 20
355.49842702450002
 40
16
 41
1
 50
0
  1
１．５×１８×５．５穴
  0
TEXT
  8
_0-b_レイヤ1
 62
    7
 10
834.99949950400003
 20
355.49842702450002
 40
16
 41
1
 50
0
  1
枚
  0
LINE
  8
_0-b_レイヤ1
  6
CONTINUOUS
 62
    7
 10
1860.7238745039999
 20
589.49837952450002
 11
1149.9738745039999
 21
589.49837952450002
  0
LINE
  8
_0-b_レイヤ1
  6
CONTINUOUS
 62
    7
 10
1860.7238745039999
 20
559.49837952450002
 11
1149.9738745039999
 21
559.49837952450002
  0
LINE
  8
_0-b_レイヤ1
  6
CONTINUOUS
 62
    7
 10
1860.7238745039999
 20
529.49837952450002
 11
1149.9738745039999
 21
529.49837952450002
  0
LINE
  8
_0-b_レイヤ1
  6
CONTINUOUS
 62
    7
 10
1860.7238745039999
 20
499.49837952450002
 11
1149.9738745039999
 21
499.49837952450002
  0
LINE
  8
_0-b_レイヤ1
  6
CONTINUOUS
 62
    7
 10
1860.7238745039999
 20
469.49837952450002
 11
1149.9738745039999
 21
469.49837952450002
  0
LINE
  8
_0-b_レイヤ1
  6
CONTINUOUS
 62
    7
 10
1860.7238745039999
 20
439.49837952450002
 11
1149.9738745039999
 21
439.49837952450002
  0
LINE
  8
_0-b_レイヤ1
  6
CONTINUOUS
 62
    7
 10
1860.7238745039999
 20
409.49837952450002
 11
1149.9738745039999
 21
409.49837952450002
  0
LINE
  8
_0-b_レイヤ1
  6
CONTINUOUS
 62
    7
 10
1860.7238745039999
 20
379.49837952450002
 11
1149.9738745039999
 21
379.49837952450002
  0
LINE
  8
_0-b_レイヤ1
  6
CONTINUOUS
 62
    7
 10
1860.7238745039999
 20
349.49837952450002
 11
1149.9738745039999
 21
349.49837952450002
  0
LINE
  8
_0-b_レイヤ1
  6
CONTINUOUS
 62
    7
 10
1860.7238745039999
 20
319.49837952450002
 11
1149.9738745039999
 21
319.49837952450002
  0
LINE
  8
_0-b_レイヤ1
  6
CONTINUOUS
 62
    7
 10
1860.7238745039999
 20
259.49837952450002
 11
1149.9738745039999
 21
259.49837952450002
  0
LINE
  8
_0-b_レイヤ1
  6
CONTINUOUS
 62
    7
 10
1860.7238745039999
 20
643.49837952450002
 11
1149.9738745039999
 21
643.49837952450002
  0
LINE
  8
_0-b_レイヤ1
  6
CONTINUOUS
 62
    7
 10
1860.7238745039999
 20
289.49837952450002
 11
1149.9738745039999
 21
289.49837952450002
  0
LINE
  8
_0-b_レイヤ1
  6
CONTINUOUS
 62
    7
 10
1860.7238745039999
 20
229.49837952450002
 11
1149.9738745039999
 21
229.49837952450002
  0
TEXT
  8
_0-b_レイヤ1
 62
    7
 10
1152.459127004
 20
565.63612702450007
 40
16
 41
1
 50
0
  1
　１
  0
TEXT
  8
_0-b_レイヤ1
 62
    7
 10
1696.3259720040001
 20
565.49839952449997
 40
16
 41
1
 50
0
  1
３０００
  0
TEXT
  8
_0-b_レイヤ1
 62
    7
 10
1799.2750595040002
 20
565.74833702450007
 40
16
 41
1
 50
0
  1
１
  0
TEXT
  8
_0-b_レイヤ1
 62
    7
 10
1834.9993845039999
 20
565.49839952449997
 40
16
 41
1
 50
0
  1
本
  0
TEXT
  8
_0-b_レイヤ1
 62
    7
 10
1167.9079470040001
 20
535.63612702449996
 40
16
 41
1
 50
0
  1
２
  0
TEXT
  8
_0-b_レイヤ1
 62
    7
 10
1696.3259720040001
 20
535.49839952449997
 40
16
 41
1
 50
0
  1
３０００
  0
TEXT
  8
_0-b_レイヤ1
 62
    7
 10
1799.2750595040002
 20
535.7483945245001
 40
16
 41
1
 50
0
  1
１
  0
TEXT
  8
_0-b_レイヤ1
 62
    7
 10
1834.9993845039999
 20
535.49839952449997
 40
16
 41
1
 50
0
  1
〃
  0
TEXT
  8
_0-b_レイヤ1
 62
    7
 10
1167.9079470040001
 20
505.63612702450001
 40
16
 41
1
 50
0
  1
３
  0
TEXT
  8
_0-b_レイヤ1
 62
    7
 10
1696.3259720040001
 20
505.49839952450003
 40
16
 41
1
 50
0
  1
３０００
  0
TEXT
  8
_0-b_レイヤ1
 62
    7
 10
1799.2750595040002
 20
505.74833702450002
 40
16
 41
1
 50
0
  1
１
  0
TEXT
  8
_0-b_レイヤ1
 62
    7
 10
1834.9993845039999
 20
505.49839952450003
 40
16
 41
1
 50
0
  1
〃
  0
TEXT
  8
_0-b_レイヤ1
 62
    7
 10
1167.9079470040001
 20
475.63612702450001
 40
16
 41
1
 50
0
  1
４
  0
TEXT
  8
_0-b_レイヤ1
 62
    7
 10
1696.3259720040001
 20
475.49839952450003
 40
16
 41
1
 50
0
  1
３０００
  0
TEXT
  8
_0-b_レイヤ1
 62
    7
 10
1799.2750595040002
 20
475.74839452450004
 40
16
 41
1
 50
0
  1
１
  0
TEXT
  8
_0-b_レイヤ1
 62
    7
 10
1834.9993845039999
 20
475.49839952450003
 40
16
 41
1
 50
0
  1
〃
  0
TEXT
  8
_0-b_レイヤ1
 62
    7
 10
1167.9079470040001
 20
445.63618452450004
 40
16
 41
1
 50
0
  1
５
  0
TEXT
  8
_0-b_レイヤ1
 62
    7
 10
1167.9079470040001
 20
415.63618452450004
 40
16
 41
1
 50
0
  1
６
  0
TEXT
  8
_0-b_レイヤ1
 62
    7
 10
1167.9079470040001
 20
385.63618452450004
 40
16
 41
1
 50
0
  1
７
  0
TEXT
  8
_0-b_レイヤ1
 62
    7
 10
1167.9079470040001
 20
355.63615702450005
 40
16
 41
1
 50
0
  1
８
  0
TEXT
  8
_0-b_レイヤ1
 62
    7
 10
1167.9079470040001
 20
325.63615702450005
 40
16
 41
1
 50
0
  1
９
  0
TEXT
  8
_0-b_レイヤ1
 62
    7
 10
1167.9079470040001
 20
235.63615702449999
 40
16
 41
1
 50
0
  1
※
  0
TEXT
  8
_0-b_レイヤ1
 62
    7
 10
696.32625950400006
 20
505.49839952450003
 40
16
 41
1
 50
0
  1
３０００
  0
TEXT
  8
_0-b_レイヤ1
 62
    7
 10
167.90803450400006
 20
325.63615702450005
 40
16
 41
1
 50
0
  1
※
  0
LINE
  8
_0-b_レイヤ1
  6
CONTINUOUS
 62
    7
 10
149.97387450400004
 20
319.49837952450002
 11
149.97387450400004
 21
643.49837952450002
  0
LINE
  8
_0-b_レイヤ1
  6
CONTINUOUS
 62
    7
 10
185.97387450400004
 20
319.49837952450002
 11
185.97387450400004
 21
643.49837952450002
  0
LINE
  8
_0-b_レイヤ1
  6
CONTINUOUS
 62
    7
 10
470.97387450400004
 20
319.49837952450002
 11
470.97387450400004
 21
643.49837952450002
  0
LINE
  8
_0-b_レイヤ1
  6
CONTINUOUS
 62
    7
 10
860.72387450400004
 20
319.49837952450002
 11
860.72387450400004
 21
643.49837952450002
  0
LINE
  8
_0-b_レイヤ1
  6
CONTINUOUS
 62
    7
 10
764.72387450400004
 20
319.49837952450002
 11
764.72387450400004
 21
643.49837952450002
  0
LINE
  8
_0-b_レイヤ1
  6
CONTINUOUS
 62
    7
 10
689.72387450400004
 20
319.49837952450002
 11
689.72387450400004
 21
643.49837952450002
  0
LINE
  8
_0-b_レイヤ1
  6
CONTINUOUS
 62
    7
 10
824.72387450400004
 20
319.49837952450002
 11
824.72387450400004
 21
643.49837952450002
  0
LINE
  8
_0-b_レイヤ1
  6
CONTINUOUS
 62
    7
 10
684.72387450400004
 20
319.49837952450002
 11
684.72387450400004
 21
643.49837952450002
  0
TEXT
  8
_0-b_レイヤ1
 62
    7
 10
476.97399700400001
 20
445.49839952450003
 40
16
 41
1
 50
0
  1
皿４×１６
  0
TEXT
  8
_0-b_レイヤ1
 62
    7
 10
191.973912004
 20
415.49839952450003
 40
16
 41
1
 50
0
  1
アンカープラグ
  0
TEXT
  8
_0-b_レイヤ1
 62
    7
 10
476.97393950399999
 20
415.49839952450003
 40
16
 41
1
 50
0
  1
フィッシャープラグＳ８
  0
TEXT
  8
_0-b_レイヤ1
 62
    7
 10
191.973912004
 20
385.49842702450002
 40
16
 41
1
 50
0
  1
ステンタッピンねじ
  0
TEXT
  8
_0-b_レイヤ1
 62
    7
 10
476.97393950399999
 20
385.49842702450002
 40
16
 41
1
 50
0
  1
なべ５×５０
  0
TEXT
  8
_0-b_レイヤ1
 62
    7
 10
796.77498200399998
 20
325.74839452450004
 40
16
 41
1
 50
0
  1
１
  0
TEXT
  8
_0-b_レイヤ1
 62
    7
 10
191.973912004
 20
325.49839952450003
 40
16
 41
1
 50
0
  1
ブチルテープ
  0
TEXT
  8
_0-b_レイヤ1
 62
    7
 10
476.97393950399999
 20
325.49839952450003
 40
16
 41
1
 50
0
  1
ｔ１．０×ｗ３０
  0
LINE
  8
_0-b_レイヤ1
  6
CONTINUOUS
 62
    7
 10
1149.9738745039999
 20
229.49837952450002
 11
1149.9738745039999
 21
643.49837952450002
  0
LINE
  8
_0-b_レイヤ1
  6
CONTINUOUS
 62
    7
 10
1185.9738745039999
 20
229.49837952450002
 11
1185.9738745039999
 21
643.49837952450002
  0
LINE
  8
_0-b_レイヤ1
  6
CONTINUOUS
 62
    7
 10
1470.9738745039999
 20
229.49837952450002
 11
1470.9738745039999
 21
643.49837952450002
  0
LINE
  8
_0-b_レイヤ1
  6
CONTINUOUS
 62
    7
 10
1684.7238745039999
 20
229.49837952450002
 11
1684.7238745039999
 21
643.49837952450002
  0
LINE
  8
_0-b_レイヤ1
  6
CONTINUOUS
 62
    7
 10
1860.7238745039999
 20
229.49837952450002
 11
1860.7238745039999
 21
643.49837952450002
  0
LINE
  8
_0-b_レイヤ1
  6
CONTINUOUS
 62
    7
 10
1824.7238745039999
 20
229.49837952450002
 11
1824.7238745039999
 21
643.49837952450002
  0
LINE
  8
_0-b_レイヤ1
  6
CONTINUOUS
 62
    7
 10
1764.7238745039999
 20
229.49837952450002
 11
1764.7238745039999
 21
643.49837952450002
  0
LINE
  8
_0-b_レイヤ1
  6
CONTINUOUS
 62
    7
 10
1689.7238745039999
 20
229.49837952450002
 11
1689.7238745039999
 21
643.49837952450002
  0
TEXT
  8
_0-b_レイヤ1
 62
    7
 10
1152.459127004
 20
295.63615702449999
 40
16
 41
1
 50
0
  1
１０
  0
TEXT
  8
_0-b_レイヤ1
 62
    7
 10
1152.459127004
 20
265.63615702449999
 40
16
 41
1
 50
0
  1
１１
  0
TEXT
  8
_0-b_レイヤ1
 62
    7
 10
1696.3259720040001
 20
445.49839952450003
 40
16
 41
1
 50
0
  1
３０００
  0
TEXT
  8
_0-b_レイヤ1
 62
    7
 10
1799.2750595040002
 20
445.74839452450004
 40
16
 41
1
 50
0
  1
１
  0
TEXT
  8
_0-b_レイヤ1
 62
    7
 10
1834.9993845039999
 20
445.49839952450003
 40
16
 41
1
 50
0
  1
〃
  0
TEXT
  8
_0-b_レイヤ1
 62
    7
 10
1799.2750595040002
 20
415.74839452450004
 40
16
 41
1
 50
0
  1
１
  0
TEXT
  8
_0-b_レイヤ1
 62
    7
 10
1191.9739395040001
 20
415.49839952450003
 40
16
 41
1
 50
0
  1
止水補助板
  0
TEXT
  8
_0-b_レイヤ1
 62
    7
 10
1696.3259720040001
 20
415.49839952450003
 40
16
 41
1
 50
0
  1
３１００
  0
TEXT
  8
_0-b_レイヤ1
 62
    7
 10
1834.9993845039999
 20
415.49839952450003
 40
16
 41
1
 50
0
  1
枚
  0
TEXT
  8
_0-b_レイヤ1
 62
    7
 10
1799.2750595040002
 20
385.74839452450004
 40
16
 41
1
 50
0
  1
１
  0
TEXT
  8
_0-b_レイヤ1
 62
    7
 10
1834.9994995040001
 20
355.49839952450003
 40
16
 41
1
 50
0
  1
〃
  0
TEXT
  8
_0-b_レイヤ1
 62
    7
 10
1476.973997004
 20
355.49839952450003
 40
16
 41
1
 50
0
  1
皿４×１６
  0
TEXT
  8
_0-b_レイヤ1
 62
    7
 10
1834.9993845039999
 20
385.49839952450003
 40
16
 41
1
 50
0
  1
本
  0
TEXT
  8
_0-b_レイヤ1
 62
    7
 10
1696.3262020040002
 20
385.49842702450002
 40
16
 41
1
 50
0
  1
３０００
  0
TEXT
  8
_0-b_レイヤ1
 62
    7
 10
1834.9994995040001
 20
325.49839952450003
 40
16
 41
1
 50
0
  1
〃
  0
TEXT
  8
_0-b_レイヤ1
 62
    7
 10
1191.9739120039999
 20
325.49839952450003
 40
16
 41
1
 50
0
  1
アンカープラグ
  0
TEXT
  8
_0-b_レイヤ1
 62
    7
 10
1476.9739395040001
 20
325.49839952450003
 40
16
 41
1
 50
0
  1
フィッシャープラグＳ８
  0
TEXT
  8
_0-b_レイヤ1
 62
    7
 10
1834.9994995040001
 20
295.49839952450003
 40
16
 41
1
 50
0
  1
〃
  0
TEXT
  8
_0-b_レイヤ1
 62
    7
 10
1834.9993845039999
 20
265.49839952450003
 40
16
 41
1
 50
0
  1
枚
  0
TEXT
  8
_0-b_レイヤ1
 62
    7
 10
1834.9993845039999
 20
235.49839952450003
 40
16
 41
1
 50
0
  1
巻
  0
TEXT
  8
_0-b_レイヤ1
 62
    7
 10
1799.2750595040002
 20
235.74839452449999
 40
16
 41
1
 50
0
  1
１
  0
TEXT
  8
_0-b_レイヤ1
 62
    7
 10
1696.3262020040002
 20
235.49842702450002
 40
16
 41
1
 50
0
  1
６０００
  0
TEXT
  8
_0-b_レイヤ1
 62
    7
 10
1191.9739120039999
 20
265.49842702450002
 40
16
 41
1
 50
0
  1
ステンワッシャー
  0
TEXT
  8
_0-b_レイヤ1
 62
    7
 10
1476.973997004
 20
265.49842702450002
 40
16
 41
1
 50
0
  1
１．５×１８×５．５穴
  0
TEXT
  8
_0-b_レイヤ1
 62
    7
 10
1191.9739120039999
 20
295.49842702450002
 40
16
 41
1
 50
0
  1
ステンタッピンねじ
  0
TEXT
  8
_0-b_レイヤ1
 62
    7
 10
1476.9739395040001
 20
295.49842702450002
 40
16
 41
1
 50
0
  1
なべ５×５０
  0
TEXT
  8
_0-b_レイヤ1
 62
    7
 10
1191.9739120039999
 20
235.49839952450003
 40
16
 41
1
 50
0
  1
ブチルテープ
  0
TEXT
  8
_0-b_レイヤ1
 62
    7
 10
1476.9739395040001
 20
235.49839952450003
 40
16
 41
1
 50
0
  1
ｔ１．０×ｗ３０
  0
TEXT
  8
_0-b_レイヤ1
 62
    7
 10
834.99949950400003
 20
445.49839952450003
 40
16
 41
1
 50
0
  1
本
  0
TEXT
  8
_0-b_レイヤ1
 62
    7
 10
834.99949950400003
 20
325.49839952450003
 40
16
 41
1
 50
0
  1
巻
  0
TEXT
  8
_0-b_レイヤ1
 62
    7
 10
696.32625950400006
 20
325.49839952450003
 40
16
 41
1
 50
0
  1
６０００
  0
TEXT
  8
_0-b_レイヤ1
 62
    7
 10
152.4592145040001
 20
565.63612702450007
 40
16
 41
1
 50
0
  1
　１
  0
TEXT
  8
_0-b_レイヤ1
 62
    7
 10
476.97393950399999
 20
475.49839952450003
 40
16
 41
1
 50
0
  1
ＦＳ４００
  0
TEXT
  8
_0-b_レイヤ1
 62
    7
 10
1191.9739395040001
 20
505.49839952450003
 40
16
 41
1
 50
0
  1
ＴＴフレーム（Ｃ）
  0
TEXT
  8
_0-b_レイヤ1
 62
    7
 10
1191.9738245039998
 20
385.49842702450002
 40
16
 41
1
 50
0
  1
ガスケットＫ
  0
TEXT
  8
_0-b_レイヤ1
 62
    7
 10
1149.9738945039999
 20
197.58980663570003
 40
16
 41
1
 50
0
  1
注）　ガスケットＫはＴＣサイドキャップ（Ｃ）Ｓ にセット済み。
  0
TEXT
  8
_0-b_レイヤ1
 62
    7
 10
1476.9739395040001
 20
415.49842702450002
 40
16
 41
1
 50
0
  1
ＦＳ４００
  0
TEXT
  8
_0-b_レイヤ1
 62
    7
 10
1191.9739395040001
 20
445.49839952450003
 40
16
 41
1
 50
0
  1
ＴＣ壁フレーム（Ｃ）
  0
TEXT
  8
_0-b_レイヤ1
 62
    7
 10
191.973912004
 20
505.49839952450003
 40
16
 41
1
 50
0
  1
ＴＴフレーム（Ｃ）
  0
TEXT
  8
_0-b_レイヤ1
 62
    7
 10
1191.9739395040001
 20
475.49839952450003
 40
16
 41
1
 50
0
  1
ＴＣサイドキャップ（Ｃ）Ｓ
  0
TEXT
  8
_0-b_レイヤ1
 62
    7
 10
191.973912004
 20
445.49839952450003
 40
16
 41
1
 50
0
  1
ステンドリリングねじ
  0
TEXT
  8
_0-b_レイヤ1
 62
    7
 10
1191.9739120039999
 20
355.49839952450003
 40
16
 41
1
 50
0
  1
ステンドリリングねじ
  0
TEXT
  8
_0-b_レイヤ1
 62
    7
 10
781.32616200400003
 20
415.74833702450002
 40
16
 41
1
 50
0
  1
２４
  0
TEXT
  8
_0-b_レイヤ1
 62
    7
 10
781.32616200400003
 20
385.74833702450002
 40
16
 41
1
 50
0
  1
２４
  0
TEXT
  8
_0-b_レイヤ1
 62
    7
 10
781.32616200400003
 20
355.74842202450003
 40
16
 41
1
 50
0
  1
２４
  0
TEXT
  8
_0-b_レイヤ1
 62
    7
 10
1781.3261620040003
 20
325.74833702450002
 40
16
 41
1
 50
0
  1
１８
  0
TEXT
  8
_0-b_レイヤ1
 62
    7
 10
1781.3261620040003
 20
295.74833702450002
 40
16
 41
1
 50
0
  1
１８
  0
TEXT
  8
_0-b_レイヤ1
 62
    7
 10
1781.3261620040003
 20
265.74833702450002
 40
16
 41
1
 50
0
  1
１８
  0
TEXT
  8
_0-b_レイヤ1
 62
    7
 10
191.973912004
 20
565.49839952449997
 40
16
 41
1
 50
0
  1
ＴＴサイドプレート（Ｃ）Ｓ
  0
TEXT
  8
_0-b_レイヤ1
 62
    7
 10
1191.9739395040001
 20
565.49839952449997
 40
16
 41
1
 50
0
  1
ＴＴサイドプレート（Ｃ）Ｓ
  0
TEXT
  8
_0-b_レイヤ1
 62
    7
 10
191.973912004
 20
535.49839952449997
 40
16
 41
1
 50
0
  1
ＴＴセンタープレート（Ｃ）ＧＰＳ
  0
TEXT
  8
_0-c_レイヤ8
 62
    7
 10
459.56122746940002
 20
761.44501341010005
 40
16
 41
1
 50
0
  1
Ｓ＝１／５
  0
TEXT
  8
_0-c_レイヤ8
 62
    7
 10
1518.071040496
 20
755.07707385650008
 40
16
 41
1
 50
0
  1
Ｓ＝１／５
  0
TEXT
  8
_0-b_レイヤ1
 62
    7
 10
1191.9739395040001
 20
535.49839952449997
 40
16
 41
1
 50
0
  1
ＴＣセンタープレート（Ｄ）ＧＰＳ
  0
TEXT
  8
_0-b_レイヤ1
 62
    7
 10
781.32616200400003
 20
445.7483670245
 40
16
 41
1
 50
0
  1
２２
  0
TEXT
  8
_0-b_レイヤ1
 62
    7
 10
1781.3261620040003
 20
355.74833702450002
 40
16
 41
1
 50
0
  1
１７
  0
TEXT
  8
_0-b_レイヤ1
 62
    7
 10
296.47387450400004
 20
608.49837952450002
 40
16
 41
1
 50
0
  1
部材名称
  0
TEXT
  8
_0-b_レイヤ1
 62
    7
 10
553.84887450400004
 20
608.49837952450002
 40
16
 41
1
 50
0
  1
規　格
  0
TEXT
  8
_0-b_レイヤ1
 62
    7
 10
834.72387450400004
 20
632.49837952450002
 40
16
 41
1
 50
-90.000000000000014
  1
単位
  0
TEXT
  8
_0-b_レイヤ1
 62
    7
 10
703.22387450400004
 20
621.99837952450002
 40
16
 41
1
 50
0
  1
定　尺
  0
TEXT
  8
_0-b_レイヤ1
 62
    7
 10
695.22387450400004
 20
594.99837952450002
 40
16
 41
1
 50
0
  1
（ｍｍ）
  0
TEXT
  8
_0-b_レイヤ1
 62
    7
 10
778.72387450400004
 20
594.99837952450002
 40
16
 41
1
 50
0
  1
数量
  0
TEXT
  8
_0-b_レイヤ1
 62
    7
 10
778.72387450400004
 20
621.99837952450002
 40
16
 41
1
 50
0
  1
使用
  0
TEXT
  8
_0-b_レイヤ1
 62
    7
 10
1296.4738745039999
 20
608.49837952450002
 40
16
 41
1
 50
0
  1
部材名称
  0
TEXT
  8
_0-b_レイヤ1
 62
    7
 10
1553.8488745039999
 20
608.49837952450002
 40
16
 41
1
 50
0
  1
規　格
  0
TEXT
  8
_0-b_レイヤ1
 62
    7
 10
1834.7238745039999
 20
632.49837952450002
 40
16
 41
1
 50
-90
  1
単位
  0
TEXT
  8
_0-b_レイヤ1
 62
    7
 10
1703.2238745039999
 20
621.99837952450002
 40
16
 41
1
 50
0
  1
定　尺
  0
TEXT
  8
_0-b_レイヤ1
 62
    7
 10
1695.2238745039999
 20
594.99837952450002
 40
16
 41
1
 50
0
  1
（ｍｍ）
  0
TEXT
  8
_0-b_レイヤ1
 62
    7
 10
1778.7238745039999
 20
594.99837952450002
 40
16
 41
1
 50
0
  1
数量
  0
TEXT
  8
_0-b_レイヤ1
 62
    7
 10
1778.7238745039999
 20
621.99837952450002
 40
16
 41
1
 50
0
  1
使用
  0
LINE
  8
_0-7_サイド
  6
CONTINUOUS
 62
    7
 10
433.56122746940002
 20
1018.4266304759
 11
434.56122746940002
 21
1017.4266304759
  0
LINE
  8
_0-7_サイド
  6
HIDDEN
 62
    7
 10
343.31122746940002
 20
1016.4266304759
 11
341.31122746940002
 21
1018.4266304759
  0
LINE
  8
_0-7_サイド
  6
HIDDEN
 62
    7
 10
348.81122746940002
 20
1016.4266304759
 11
350.81122746940002
 21
1018.4266304759
  0
LINE
  8
_0-7_サイド
  6
CONTINUOUS
 62
    7
 10
433.56122746940002
 20
1018.4266304759
 11
336.56122746940002
 21
1018.4266304759
  0
LINE
  8
_0-7_サイド
  6
CONTINUOUS
 62
    7
 10
336.56122746940002
 20
1018.4266304759
 11
336.56122746940002
 21
1016.4266304759
  0
LINE
  8
_0-7_サイド
  6
CONTINUOUS
 62
    7
 10
434.56122746940002
 20
1016.4266304759
 11
434.56122746940002
 21
1017.4266304759
  0
LINE
  8
_0-7_サイド
  6
CONTINUOUS
 62
    7
 10
336.56122746940002
 20
1016.4266304759
 11
434.56122746940002
 21
1016.4266304759
  0
LINE
  8
_0-7_サイド
  6
CONTINUOUS
 62
    7
 10
565.56122746940002
 20
1018.4266304759
 11
564.56122746940002
 21
1017.4266304759
  0
LINE
  8
_0-7_サイド
  6
HIDDEN
 62
    7
 10
655.81122746940002
 20
1016.4266304759
 11
657.81122746940002
 21
1018.4266304759
  0
LINE
  8
_0-7_サイド
  6
HIDDEN
 62
    7
 10
650.31122746940002
 20
1016.4266304759
 11
648.31122746940002
 21
1018.4266304759
  0
LINE
  8
_0-7_サイド
  6
CONTINUOUS
 62
    7
 10
565.56122746940002
 20
1018.4266304759
 11
662.56122746940002
 21
1018.4266304759
  0
LINE
  8
_0-7_サイド
  6
CONTINUOUS
 62
    7
 10
662.56122746940002
 20
1018.4266304759
 11
662.56122746940002
 21
1016.4266304759
  0
LINE
  8
_0-7_サイド
  6
CONTINUOUS
 62
    7
 10
564.56122746940002
 20
1016.4266304759
 11
564.56122746940002
 21
1017.4266304759
  0
LINE
  8
_0-7_サイド
  6
CONTINUOUS
 62
    7
 10
662.56122746940002
 20
1016.4266304759
 11
564.56122746940002
 21
1016.4266304759
  0
LINE
  8
_0-7_サイド
  6
CONTINUOUS
 62
    7
 10
1492.071040496
 20
1017.4266304759
 11
1493.071040496
 21
1016.4266304759
  0
LINE
  8
_0-7_サイド
  6
HIDDEN
 62
    7
 10
1401.821040496
 20
1015.4266304759
 11
1399.821040496
 21
1017.4266304759
  0
LINE
  8
_0-7_サイド
  6
HIDDEN
 62
    7
 10
1407.321040496
 20
1015.4266304759
 11
1409.321040496
 21
1017.4266304759
  0
LINE
  8
_0-7_サイド
  6
CONTINUOUS
 62
    7
 10
1492.071040496
 20
1017.4266304759
 11
1395.071040496
 21
1017.4266304759
  0
LINE
  8
_0-7_サイド
  6
CONTINUOUS
 62
    7
 10
1395.071040496
 20
1017.4266304759
 11
1395.071040496
 21
1015.4266304759
  0
LINE
  8
_0-7_サイド
  6
CONTINUOUS
 62
    7
 10
1493.071040496
 20
1015.4266304759
 11
1493.071040496
 21
1016.4266304759
  0
LINE
  8
_0-7_サイド
  6
CONTINUOUS
 62
    7
 10
1395.071040496
 20
1015.4266304759
 11
1493.071040496
 21
1015.4266304759
  0
LINE
  8
_0-8_小物
  6
CONTINUOUS
 62
    7
 10
1648.7363424959999
 20
1053.6599614755
 11
1649.0710434960001
 21
1053.6599614755
  0
LINE
  8
_0-8_小物
  6
CONTINUOUS
 62
    7
 10
1638.0710454959999
 20
1051.3266304755
 11
1638.3710454960001
 21
1051.3266304755
  0
LINE
  8
_0-8_小物
  6
CONTINUOUS
 62
    7
 10
1638.3710454960001
 20
1051.3266304755
 11
1640.3710434959999
 21
1053.6599614755
  0
LINE
  8
_0-8_小物
  6
CONTINUOUS
 62
    7
 10
1640.3710434959999
 20
1053.6599614755
 11
1640.3710434959999
 21
1056.1932964755001
  0
LINE
  8
_0-8_小物
  6
CONTINUOUS
 62
    7
 10
1638.3710454960001
 20
1051.3266304755
 11
1638.3710454960001
 21
1058.5266304755
  0
LINE
  8
_0-8_小物
  6
CONTINUOUS
 62
    7
 10
1638.0710454959999
 20
1058.5266304755
 11
1638.3710454960001
 21
1058.5266304755
  0
LINE
  8
_0-8_小物
  6
CONTINUOUS
 62
    7
 10
1638.3710454960001
 20
1058.5266304755
 11
1640.3710434959999
 21
1056.1932964755001
  0
LINE
  8
_0-8_小物
  6
CONTINUOUS
 62
    7
 10
1640.6317614959999
 20
1053.6599614755
 11
1640.5847814960002
 21
1054.9266304755001
  0
LINE
  8
_0-8_小物
  6
CONTINUOUS
 62
    7
 10
1641.4785414960002
 20
1053.6599614755
 11
1640.5847814960002
 21
1054.9266304755001
  0
LINE
  8
_0-8_小物
  6
CONTINUOUS
 62
    7
 10
1649.0710434960001
 20
1053.6599614755
 11
1653.1472844959999
 21
1053.6599614755
  0
LINE
  8
_0-8_小物
  6
CONTINUOUS
 62
    7
 10
1647.7956024959999
 20
1056.1932964755001
 11
1653.1472844959999
 21
1056.1932964755001
  0
LINE
  8
_0-8_小物
  6
CONTINUOUS
 62
    7
 10
1646.8548624959999
 20
1053.6599614755
 11
1647.8895624960001
 21
1053.6599614755
  0
LINE
  8
_0-8_小物
  6
CONTINUOUS
 62
    7
 10
1646.948822496
 20
1056.1932964755001
 11
1645.9141224959999
 21
1056.1932964755001
  0
LINE
  8
_0-8_小物
  6
CONTINUOUS
 62
    7
 10
1648.7363424959999
 20
1053.6599614755
 11
1647.7956024959999
 21
1056.1932964755001
  0
LINE
  8
_0-8_小物
  6
CONTINUOUS
 62
    7
 10
1647.8895624960001
 20
1053.6599614755
 11
1646.948822496
 21
1056.1932964755001
  0
LINE
  8
_0-8_小物
  6
CONTINUOUS
 62
    7
 10
1648.312952496
 20
1052.9266294755
 11
1647.372212496
 21
1056.9266284754999
  0
LINE
  8
_0-8_小物
  6
CONTINUOUS
 62
    7
 10
1648.312952496
 20
1052.9266294755
 11
1648.7363424959999
 21
1053.6599614755
  0
LINE
  8
_0-8_小物
  6
CONTINUOUS
 62
    7
 10
1648.312952496
 20
1052.9266294755
 11
1647.8895624960001
 21
1053.6599614755
  0
LINE
  8
_0-8_小物
  6
CONTINUOUS
 62
    7
 10
1647.372212496
 20
1056.9266284754999
 11
1647.7956024959999
 21
1056.1932964755001
  0
LINE
  8
_0-8_小物
  6
CONTINUOUS
 62
    7
 10
1646.948822496
 20
1056.1932964755001
 11
1647.372212496
 21
1056.9266284754999
  0
LINE
  8
_0-8_小物
  6
CONTINUOUS
 62
    7
 10
1644.9733794960002
 20
1053.6599614755
 11
1646.008082496
 21
1053.6599614755
  0
LINE
  8
_0-8_小物
  6
CONTINUOUS
 62
    7
 10
1645.0673394959999
 20
1056.1932964755001
 11
1644.0326394960002
 21
1056.1932964755001
  0
LINE
  8
_0-8_小物
  6
CONTINUOUS
 62
    7
 10
1646.8548624959999
 20
1053.6599614755
 11
1645.9141224959999
 21
1056.1932964755001
  0
LINE
  8
_0-8_小物
  6
CONTINUOUS
 62
    7
 10
1646.008082496
 20
1053.6599614755
 11
1645.0673394959999
 21
1056.1932964755001
  0
LINE
  8
_0-8_小物
  6
CONTINUOUS
 62
    7
 10
1646.431472496
 20
1052.9266294755
 11
1645.490732496
 21
1056.9266284754999
  0
LINE
  8
_0-8_小物
  6
CONTINUOUS
 62
    7
 10
1646.431472496
 20
1052.9266294755
 11
1646.8548624959999
 21
1053.6599614755
  0
LINE
  8
_0-8_小物
  6
CONTINUOUS
 62
    7
 10
1646.431472496
 20
1052.9266294755
 11
1646.008082496
 21
1053.6599614755
  0
LINE
  8
_0-8_小物
  6
CONTINUOUS
 62
    7
 10
1645.490732496
 20
1056.9266284754999
 11
1645.9141224959999
 21
1056.1932964755001
  0
LINE
  8
_0-8_小物
  6
CONTINUOUS
 62
    7
 10
1645.0673394959999
 20
1056.1932964755001
 11
1645.490732496
 21
1056.9266284754999
  0
LINE
  8
_0-8_小物
  6
CONTINUOUS
 62
    7
 10
1643.0918994960002
 20
1053.6599614755
 11
1644.1265994959999
 21
1053.6599614755
  0
LINE
  8
_0-8_小物
  6
CONTINUOUS
 62
    7
 10
1643.1858594959999
 20
1056.1932964755001
 11
1642.1511594960002
 21
1056.1932964755001
  0
LINE
  8
_0-8_小物
  6
CONTINUOUS
 62
    7
 10
1644.9733794960002
 20
1053.6599614755
 11
1644.0326394960002
 21
1056.1932964755001
  0
LINE
  8
_0-8_小物
  6
CONTINUOUS
 62
    7
 10
1644.1265994959999
 20
1053.6599614755
 11
1643.1858594959999
 21
1056.1932964755001
  0
LINE
  8
_0-8_小物
  6
CONTINUOUS
 62
    7
 10
1644.5499894959999
 20
1052.9266294755
 11
1643.6092494959998
 21
1056.9266284754999
  0
LINE
  8
_0-8_小物
  6
CONTINUOUS
 62
    7
 10
1644.5499894959999
 20
1052.9266294755
 11
1644.9733794960002
 21
1053.6599614755
  0
LINE
  8
_0-8_小物
  6
CONTINUOUS
 62
    7
 10
1644.5499894959999
 20
1052.9266294755
 11
1644.1265994959999
 21
1053.6599614755
  0
LINE
  8
_0-8_小物
  6
CONTINUOUS
 62
    7
 10
1643.6092494959998
 20
1056.9266284754999
 11
1644.0326394960002
 21
1056.1932964755001
  0
LINE
  8
_0-8_小物
  6
CONTINUOUS
 62
    7
 10
1643.1858594959999
 20
1056.1932964755001
 11
1643.6092494959998
 21
1056.9266284754999
  0
LINE
  8
_0-8_小物
  6
CONTINUOUS
 62
    7
 10
1642.0071054959999
 20
1053.6599614755
 11
1642.2451194959999
 21
1053.6599614755
  0
LINE
  8
_0-8_小物
  6
CONTINUOUS
 62
    7
 10
1640.3710434959999
 20
1056.1932964755001
 11
1641.3043764960003
 21
1056.1932964755001
  0
LINE
  8
_0-8_小物
  6
CONTINUOUS
 62
    7
 10
1643.0918994960002
 20
1053.6599614755
 11
1642.1511594960002
 21
1056.1932964755001
  0
LINE
  8
_0-8_小物
  6
CONTINUOUS
 62
    7
 10
1642.2451194959999
 20
1053.6599614755
 11
1641.3043764960003
 21
1056.1932964755001
  0
LINE
  8
_0-8_小物
  6
CONTINUOUS
 62
    7
 10
1642.6685094959998
 20
1052.9266294755
 11
1641.7277694959998
 21
1056.9266284754999
  0
LINE
  8
_0-8_小物
  6
CONTINUOUS
 62
    7
 10
1642.6685094959998
 20
1052.9266294755
 11
1643.0918994960002
 21
1053.6599614755
  0
LINE
  8
_0-8_小物
  6
CONTINUOUS
 62
    7
 10
1642.6685094959998
 20
1052.9266294755
 11
1642.2451194959999
 21
1053.6599614755
  0
LINE
  8
_0-8_小物
  6
CONTINUOUS
 62
    7
 10
1642.1511594960002
 20
1056.1932964755001
 11
1641.7277694959998
 21
1056.9266284754999
  0
LINE
  8
_0-8_小物
  6
CONTINUOUS
 62
    7
 10
1641.3043764960003
 20
1056.1932964755001
 11
1641.7277694959998
 21
1056.9266284754999
  0
LINE
  8
_0-8_小物
  6
CONTINUOUS
 62
    7
 10
1640.3710434959999
 20
1053.6599614755
 11
1640.6317614959999
 21
1053.6599614755
  0
LINE
  8
_0-8_小物
  6
CONTINUOUS
 62
    7
 10
1640.5847814960002
 20
1054.9266304755001
 11
1641.0551514960002
 21
1052.9266294755
  0
LINE
  8
_0-8_小物
  6
CONTINUOUS
 62
    7
 10
1641.0551514960002
 20
1052.9266294755
 11
1641.4785414960002
 21
1053.6599614755
  0
LINE
  8
_0-8_小物
  6
CONTINUOUS
 62
    7
 10
1641.0551514960002
 20
1052.9266294755
 11
1640.6317614959999
 21
1053.6599614755
  0
LINE
  8
_0-8_小物
  6
CONTINUOUS
 62
    7
 10
1641.4785414960002
 20
1053.6599614755
 11
1642.0071054959999
 21
1053.6599614755
  0
LINE
  8
_0-8_小物
  6
CONTINUOUS
 62
    7
 10
1652.0710434960001
 20
1054.9266304755001
 11
1654.071044496
 21
1054.9266304755001
  0
LINE
  8
_0-8_小物
  6
CONTINUOUS
 62
    7
 10
1649.0710434960001
 20
1056.1932964755001
 11
1649.0710434960001
 21
1053.6599764755001
  0
LINE
  8
_0-8_小物
  6
CONTINUOUS
 62
    7
 10
1654.071044496
 20
1054.9266304755001
 11
1653.1472844959999
 21
1053.6599644755001
  0
LINE
  8
_0-8_小物
  6
CONTINUOUS
 62
    7
 10
1654.071044496
 20
1054.9266304755001
 11
1653.1472844959999
 21
1056.1932964755001
  0
ARC
  8
_0-8_小物
  6
CONTINUOUS
 62
    7
 10
1653.7956414959999
 20
1055.3014024755
 40
1.7648489999999999
 50
192.26032900000004
 51
248.446304
  0
ARC
  8
_0-8_小物
  6
CONTINUOUS
 62
    7
 10
1652.8396224960002
 20
1060.9329124755
 40
6.0552599999999996
 50
231.51097799999994
 51
262.70791799999995
  0
LINE
  8
_0-8_小物
  6
CONTINUOUS
 62
    7
 10
1638.0710454959999
 20
1051.3266304755
 11
1638.0710454959999
 21
1058.5266304755
  0
LINE
  8
_0-8_小物
  6
CONTINUOUS
 62
    7
 10
344.79455846940004
 20
1007.7613334759001
 11
344.79455846940004
 21
1007.4266324759001
  0
LINE
  8
_0-8_小物
  6
CONTINUOUS
 62
    7
 10
342.46122746940006
 20
1018.4266304759
 11
342.46122746940006
 21
1018.1266304759
  0
LINE
  8
_0-8_小物
  6
CONTINUOUS
 62
    7
 10
342.46122746940006
 20
1018.1266304759
 11
344.79455846940004
 21
1016.1266324759
  0
LINE
  8
_0-8_小物
  6
CONTINUOUS
 62
    7
 10
344.79455846940004
 20
1016.1266324759
 11
347.32789346940001
 21
1016.1266324759
  0
LINE
  8
_0-8_小物
  6
CONTINUOUS
 62
    7
 10
342.46122746940006
 20
1018.1266304759
 11
349.66122746940005
 21
1018.1266304759
  0
LINE
  8
_0-8_小物
  6
CONTINUOUS
 62
    7
 10
349.66122746940005
 20
1018.4266304759
 11
349.66122746940005
 21
1018.1266304759
  0
LINE
  8
_0-8_小物
  6
CONTINUOUS
 62
    7
 10
349.66122746940005
 20
1018.1266304759
 11
347.32789346940001
 21
1016.1266324759
  0
LINE
  8
_0-8_小物
  6
CONTINUOUS
 62
    7
 10
344.79455846940004
 20
1015.8659144759
 11
346.06122746940002
 21
1015.9128944759
  0
LINE
  8
_0-8_小物
  6
CONTINUOUS
 62
    7
 10
344.79455846940004
 20
1015.0191344759
 11
346.06122746940002
 21
1015.9128944759
  0
LINE
  8
_0-8_小物
  6
CONTINUOUS
 62
    7
 10
344.79455846940004
 20
1007.4266324759001
 11
344.79455846940004
 21
1003.3503914759
  0
LINE
  8
_0-8_小物
  6
CONTINUOUS
 62
    7
 10
347.32789346940001
 20
1008.7020734759001
 11
347.32789346940001
 21
1003.3503914759
  0
LINE
  8
_0-8_小物
  6
CONTINUOUS
 62
    7
 10
344.79455846940004
 20
1009.6428134759
 11
344.79455846940004
 21
1008.6081134759
  0
LINE
  8
_0-8_小物
  6
CONTINUOUS
 62
    7
 10
347.32789346940001
 20
1009.5488534759
 11
347.32789346940001
 21
1010.5835534759
  0
LINE
  8
_0-8_小物
  6
CONTINUOUS
 62
    7
 10
344.79455846940004
 20
1007.7613334759001
 11
347.32789346940001
 21
1008.7020734759001
  0
LINE
  8
_0-8_小物
  6
CONTINUOUS
 62
    7
 10
344.79455846940004
 20
1008.6081134759
 11
347.32789346940001
 21
1009.5488534759
  0
LINE
  8
_0-8_小物
  6
CONTINUOUS
 62
    7
 10
344.06122646940003
 20
1008.1847234759
 11
348.06122546940003
 21
1009.1254634759
  0
LINE
  8
_0-8_小物
  6
CONTINUOUS
 62
    7
 10
344.06122646940003
 20
1008.1847234759
 11
344.79455846940004
 21
1007.7613334759001
  0
LINE
  8
_0-8_小物
  6
CONTINUOUS
 62
    7
 10
344.06122646940003
 20
1008.1847234759
 11
344.79455846940004
 21
1008.6081134759
  0
LINE
  8
_0-8_小物
  6
CONTINUOUS
 62
    7
 10
348.06122546940003
 20
1009.1254634759
 11
347.32789346940001
 21
1008.7020734759001
  0
LINE
  8
_0-8_小物
  6
CONTINUOUS
 62
    7
 10
347.32789346940001
 20
1009.5488534759
 11
348.06122546940003
 21
1009.1254634759
  0
LINE
  8
_0-8_小物
  6
CONTINUOUS
 62
    7
 10
344.79455846940004
 20
1011.5242964759
 11
344.79455846940004
 21
1010.4895934759001
  0
LINE
  8
_0-8_小物
  6
CONTINUOUS
 62
    7
 10
347.32789346940001
 20
1011.4303364759
 11
347.32789346940001
 21
1012.4650364759
  0
LINE
  8
_0-8_小物
  6
CONTINUOUS
 62
    7
 10
344.79455846940004
 20
1009.6428134759
 11
347.32789346940001
 21
1010.5835534759
  0
LINE
  8
_0-8_小物
  6
CONTINUOUS
 62
    7
 10
344.79455846940004
 20
1010.4895934759001
 11
347.32789346940001
 21
1011.4303364759
  0
LINE
  8
_0-8_小物
  6
CONTINUOUS
 62
    7
 10
344.06122646940003
 20
1010.0662034759
 11
348.06122546940003
 21
1011.0069434759
  0
LINE
  8
_0-8_小物
  6
CONTINUOUS
 62
    7
 10
344.06122646940003
 20
1010.0662034759
 11
344.79455846940004
 21
1009.6428134759
  0
LINE
  8
_0-8_小物
  6
CONTINUOUS
 62
    7
 10
344.06122646940003
 20
1010.0662034759
 11
344.79455846940004
 21
1010.4895934759001
  0
LINE
  8
_0-8_小物
  6
CONTINUOUS
 62
    7
 10
348.06122546940003
 20
1011.0069434759
 11
347.32789346940001
 21
1010.5835534759
  0
LINE
  8
_0-8_小物
  6
CONTINUOUS
 62
    7
 10
347.32789346940001
 20
1011.4303364759
 11
348.06122546940003
 21
1011.0069434759
  0
LINE
  8
_0-8_小物
  6
CONTINUOUS
 62
    7
 10
344.79455846940004
 20
1013.4057764759
 11
344.79455846940004
 21
1012.3710764759001
  0
LINE
  8
_0-8_小物
  6
CONTINUOUS
 62
    7
 10
347.32789346940001
 20
1013.3118164759001
 11
347.32789346940001
 21
1014.3465164759
  0
LINE
  8
_0-8_小物
  6
CONTINUOUS
 62
    7
 10
344.79455846940004
 20
1011.5242964759
 11
347.32789346940001
 21
1012.4650364759
  0
LINE
  8
_0-8_小物
  6
CONTINUOUS
 62
    7
 10
344.79455846940004
 20
1012.3710764759001
 11
347.32789346940001
 21
1013.3118164759001
  0
LINE
  8
_0-8_小物
  6
CONTINUOUS
 62
    7
 10
344.06122646940003
 20
1011.9476864759
 11
348.06122546940003
 21
1012.8884264759
  0
LINE
  8
_0-8_小物
  6
CONTINUOUS
 62
    7
 10
344.06122646940003
 20
1011.9476864759
 11
344.79455846940004
 21
1011.5242964759
  0
LINE
  8
_0-8_小物
  6
CONTINUOUS
 62
    7
 10
344.06122646940003
 20
1011.9476864759
 11
344.79455846940004
 21
1012.3710764759001
  0
LINE
  8
_0-8_小物
  6
CONTINUOUS
 62
    7
 10
348.06122546940003
 20
1012.8884264759
 11
347.32789346940001
 21
1012.4650364759
  0
LINE
  8
_0-8_小物
  6
CONTINUOUS
 62
    7
 10
347.32789346940001
 20
1013.3118164759001
 11
348.06122546940003
 21
1012.8884264759
  0
LINE
  8
_0-8_小物
  6
CONTINUOUS
 62
    7
 10
344.79455846940004
 20
1014.4905704759
 11
344.79455846940004
 21
1014.2525564759001
  0
LINE
  8
_0-8_小物
  6
CONTINUOUS
 62
    7
 10
347.32789346940001
 20
1016.1266324759
 11
347.32789346940001
 21
1015.1932994759001
  0
LINE
  8
_0-8_小物
  6
CONTINUOUS
 62
    7
 10
344.79455846940004
 20
1013.4057764759
 11
347.32789346940001
 21
1014.3465164759
  0
LINE
  8
_0-8_小物
  6
CONTINUOUS
 62
    7
 10
344.79455846940004
 20
1014.2525564759001
 11
347.32789346940001
 21
1015.1932994759001
  0
LINE
  8
_0-8_小物
  6
CONTINUOUS
 62
    7
 10
344.06122646940003
 20
1013.8291664759
 11
348.06122546940003
 21
1014.7699064759
  0
LINE
  8
_0-8_小物
  6
CONTINUOUS
 62
    7
 10
344.06122646940003
 20
1013.8291664759
 11
344.79455846940004
 21
1013.4057764759
  0
LINE
  8
_0-8_小物
  6
CONTINUOUS
 62
    7
 10
344.06122646940003
 20
1013.8291664759
 11
344.79455846940004
 21
1014.2525564759001
  0
LINE
  8
_0-8_小物
  6
CONTINUOUS
 62
    7
 10
347.32789346940001
 20
1014.3465164759
 11
348.06122546940003
 21
1014.7699064759
  0
LINE
  8
_0-8_小物
  6
CONTINUOUS
 62
    7
 10
347.32789346940001
 20
1015.1932994759001
 11
348.06122546940003
 21
1014.7699064759
  0
LINE
  8
_0-8_小物
  6
CONTINUOUS
 62
    7
 10
344.79455846940004
 20
1016.1266324759
 11
344.79455846940004
 21
1015.8659144759
  0
LINE
  8
_0-8_小物
  6
CONTINUOUS
 62
    7
 10
346.06122746940002
 20
1015.9128944759
 11
344.06122646940003
 21
1015.4425244759
  0
LINE
  8
_0-8_小物
  6
CONTINUOUS
 62
    7
 10
344.06122646940003
 20
1015.4425244759
 11
344.79455846940004
 21
1015.0191344759
  0
LINE
  8
_0-8_小物
  6
CONTINUOUS
 62
    7
 10
344.06122646940003
 20
1015.4425244759
 11
344.79455846940004
 21
1015.8659144759
  0
LINE
  8
_0-8_小物
  6
CONTINUOUS
 62
    7
 10
344.79455846940004
 20
1015.0191344759
 11
344.79455846940004
 21
1014.4905704759
  0
LINE
  8
_0-8_小物
  6
CONTINUOUS
 62
    7
 10
346.06122746940002
 20
1004.4266324759001
 11
346.06122746940002
 21
1002.4266314759
  0
LINE
  8
_0-8_小物
  6
CONTINUOUS
 62
    7
 10
347.32789346940001
 20
1007.4266324759001
 11
344.79457346940006
 21
1007.4266324759001
  0
LINE
  8
_0-8_小物
  6
CONTINUOUS
 62
    7
 10
346.06122746940002
 20
1002.4266314759
 11
344.79456146940004
 21
1003.3503914759
  0
LINE
  8
_0-8_小物
  6
CONTINUOUS
 62
    7
 10
346.06122746940002
 20
1002.4266314759
 11
347.32789346940001
 21
1003.3503914759
  0
ARC
  8
_0-8_小物
  6
CONTINUOUS
 62
    7
 10
346.43599946940003
 20
1002.7020344759001
 40
1.7648489999999999
 50
102.260329
 51
158.446304
  0
ARC
  8
_0-8_小物
  6
CONTINUOUS
 62
    7
 10
352.06750946940002
 20
1003.6580534759
 40
6.0552599999999996
 50
141.51097799999997
 51
172.70791799999998
  0
LINE
  8
_0-8_小物
  6
CONTINUOUS
 62
    7
 10
342.46122746940006
 20
1018.4266304759
 11
349.66122746940005
 21
1018.4266304759
  0
LINE
  8
_0-8_小物
  6
CONTINUOUS
 62
    7
 10
651.79455846940004
 20
1007.7613334759001
 11
651.79455846940004
 21
1007.4266324759001
  0
LINE
  8
_0-8_小物
  6
CONTINUOUS
 62
    7
 10
649.4612274694
 20
1018.4266304759
 11
649.4612274694
 21
1018.1266304759
  0
LINE
  8
_0-8_小物
  6
CONTINUOUS
 62
    7
 10
649.4612274694
 20
1018.1266304759
 11
651.79455846940004
 21
1016.1266324759
  0
LINE
  8
_0-8_小物
  6
CONTINUOUS
 62
    7
 10
651.79455846940004
 20
1016.1266324759
 11
654.32789346940001
 21
1016.1266324759
  0
LINE
  8
_0-8_小物
  6
CONTINUOUS
 62
    7
 10
649.4612274694
 20
1018.1266304759
 11
656.66122746940005
 21
1018.1266304759
  0
LINE
  8
_0-8_小物
  6
CONTINUOUS
 62
    7
 10
656.66122746940005
 20
1018.4266304759
 11
656.66122746940005
 21
1018.1266304759
  0
LINE
  8
_0-8_小物
  6
CONTINUOUS
 62
    7
 10
656.66122746940005
 20
1018.1266304759
 11
654.32789346940001
 21
1016.1266324759
  0
LINE
  8
_0-8_小物
  6
CONTINUOUS
 62
    7
 10
651.79455846940004
 20
1015.8659144759
 11
653.06122746940002
 21
1015.9128944759
  0
LINE
  8
_0-8_小物
  6
CONTINUOUS
 62
    7
 10
651.79455846940004
 20
1015.0191344759
 11
653.06122746940002
 21
1015.9128944759
  0
LINE
  8
_0-8_小物
  6
CONTINUOUS
 62
    7
 10
651.79455846940004
 20
1007.4266324759001
 11
651.79455846940004
 21
1003.3503914759
  0
LINE
  8
_0-8_小物
  6
CONTINUOUS
 62
    7
 10
654.32789346940001
 20
1008.7020734759001
 11
654.32789346940001
 21
1003.3503914759
  0
LINE
  8
_0-8_小物
  6
CONTINUOUS
 62
    7
 10
651.79455846940004
 20
1009.6428134759
 11
651.79455846940004
 21
1008.6081134759
  0
LINE
  8
_0-8_小物
  6
CONTINUOUS
 62
    7
 10
654.32789346940001
 20
1009.5488534759
 11
654.32789346940001
 21
1010.5835534759
  0
LINE
  8
_0-8_小物
  6
CONTINUOUS
 62
    7
 10
651.79455846940004
 20
1007.7613334759001
 11
654.32789346940001
 21
1008.7020734759001
  0
LINE
  8
_0-8_小物
  6
CONTINUOUS
 62
    7
 10
651.79455846940004
 20
1008.6081134759
 11
654.32789346940001
 21
1009.5488534759
  0
LINE
  8
_0-8_小物
  6
CONTINUOUS
 62
    7
 10
651.06122646940003
 20
1008.1847234759
 11
655.06122546940003
 21
1009.1254634759
  0
LINE
  8
_0-8_小物
  6
CONTINUOUS
 62
    7
 10
651.06122646940003
 20
1008.1847234759
 11
651.79455846940004
 21
1007.7613334759001
  0
LINE
  8
_0-8_小物
  6
CONTINUOUS
 62
    7
 10
651.06122646940003
 20
1008.1847234759
 11
651.79455846940004
 21
1008.6081134759
  0
LINE
  8
_0-8_小物
  6
CONTINUOUS
 62
    7
 10
655.06122546940003
 20
1009.1254634759
 11
654.32789346940001
 21
1008.7020734759001
  0
LINE
  8
_0-8_小物
  6
CONTINUOUS
 62
    7
 10
654.32789346940001
 20
1009.5488534759
 11
655.06122546940003
 21
1009.1254634759
  0
LINE
  8
_0-8_小物
  6
CONTINUOUS
 62
    7
 10
651.79455846940004
 20
1011.5242964759
 11
651.79455846940004
 21
1010.4895934759001
  0
LINE
  8
_0-8_小物
  6
CONTINUOUS
 62
    7
 10
654.32789346940001
 20
1011.4303364759
 11
654.32789346940001
 21
1012.4650364759
  0
LINE
  8
_0-8_小物
  6
CONTINUOUS
 62
    7
 10
651.79455846940004
 20
1009.6428134759
 11
654.32789346940001
 21
1010.5835534759
  0
LINE
  8
_0-8_小物
  6
CONTINUOUS
 62
    7
 10
651.79455846940004
 20
1010.4895934759001
 11
654.32789346940001
 21
1011.4303364759
  0
LINE
  8
_0-8_小物
  6
CONTINUOUS
 62
    7
 10
651.06122646940003
 20
1010.0662034759
 11
655.06122546940003
 21
1011.0069434759
  0
LINE
  8
_0-8_小物
  6
CONTINUOUS
 62
    7
 10
651.06122646940003
 20
1010.0662034759
 11
651.79455846940004
 21
1009.6428134759
  0
LINE
  8
_0-8_小物
  6
CONTINUOUS
 62
    7
 10
651.06122646940003
 20
1010.0662034759
 11
651.79455846940004
 21
1010.4895934759001
  0
LINE
  8
_0-8_小物
  6
CONTINUOUS
 62
    7
 10
655.06122546940003
 20
1011.0069434759
 11
654.32789346940001
 21
1010.5835534759
  0
LINE
  8
_0-8_小物
  6
CONTINUOUS
 62
    7
 10
654.32789346940001
 20
1011.4303364759
 11
655.06122546940003
 21
1011.0069434759
  0
LINE
  8
_0-8_小物
  6
CONTINUOUS
 62
    7
 10
651.79455846940004
 20
1013.4057764759
 11
651.79455846940004
 21
1012.3710764759001
  0
LINE
  8
_0-8_小物
  6
CONTINUOUS
 62
    7
 10
654.32789346940001
 20
1013.3118164759001
 11
654.32789346940001
 21
1014.3465164759
  0
LINE
  8
_0-8_小物
  6
CONTINUOUS
 62
    7
 10
651.79455846940004
 20
1011.5242964759
 11
654.32789346940001
 21
1012.4650364759
  0
LINE
  8
_0-8_小物
  6
CONTINUOUS
 62
    7
 10
651.79455846940004
 20
1012.3710764759001
 11
654.32789346940001
 21
1013.3118164759001
  0
LINE
  8
_0-8_小物
  6
CONTINUOUS
 62
    7
 10
651.06122646940003
 20
1011.9476864759
 11
655.06122546940003
 21
1012.8884264759
  0
LINE
  8
_0-8_小物
  6
CONTINUOUS
 62
    7
 10
651.06122646940003
 20
1011.9476864759
 11
651.79455846940004
 21
1011.5242964759
  0
LINE
  8
_0-8_小物
  6
CONTINUOUS
 62
    7
 10
651.06122646940003
 20
1011.9476864759
 11
651.79455846940004
 21
1012.3710764759001
  0
LINE
  8
_0-8_小物
  6
CONTINUOUS
 62
    7
 10
655.06122546940003
 20
1012.8884264759
 11
654.32789346940001
 21
1012.4650364759
  0
LINE
  8
_0-8_小物
  6
CONTINUOUS
 62
    7
 10
654.32789346940001
 20
1013.3118164759001
 11
655.06122546940003
 21
1012.8884264759
  0
LINE
  8
_0-8_小物
  6
CONTINUOUS
 62
    7
 10
651.79455846940004
 20
1014.4905704759
 11
651.79455846940004
 21
1014.2525564759001
  0
LINE
  8
_0-8_小物
  6
CONTINUOUS
 62
    7
 10
654.32789346940001
 20
1016.1266324759
 11
654.32789346940001
 21
1015.1932994759001
  0
LINE
  8
_0-8_小物
  6
CONTINUOUS
 62
    7
 10
651.79455846940004
 20
1013.4057764759
 11
654.32789346940001
 21
1014.3465164759
  0
LINE
  8
_0-8_小物
  6
CONTINUOUS
 62
    7
 10
651.79455846940004
 20
1014.2525564759001
 11
654.32789346940001
 21
1015.1932994759001
  0
LINE
  8
_0-8_小物
  6
CONTINUOUS
 62
    7
 10
651.06122646940003
 20
1013.8291664759
 11
655.06122546940003
 21
1014.7699064759
  0
LINE
  8
_0-8_小物
  6
CONTINUOUS
 62
    7
 10
651.06122646940003
 20
1013.8291664759
 11
651.79455846940004
 21
1013.4057764759
  0
LINE
  8
_0-8_小物
  6
CONTINUOUS
 62
    7
 10
651.06122646940003
 20
1013.8291664759
 11
651.79455846940004
 21
1014.2525564759001
  0
LINE
  8
_0-8_小物
  6
CONTINUOUS
 62
    7
 10
654.32789346940001
 20
1014.3465164759
 11
655.06122546940003
 21
1014.7699064759
  0
LINE
  8
_0-8_小物
  6
CONTINUOUS
 62
    7
 10
654.32789346940001
 20
1015.1932994759001
 11
655.06122546940003
 21
1014.7699064759
  0
LINE
  8
_0-8_小物
  6
CONTINUOUS
 62
    7
 10
651.79455846940004
 20
1016.1266324759
 11
651.79455846940004
 21
1015.8659144759
  0
LINE
  8
_0-8_小物
  6
CONTINUOUS
 62
    7
 10
653.06122746940002
 20
1015.9128944759
 11
651.06122646940003
 21
1015.4425244759
  0
LINE
  8
_0-8_小物
  6
CONTINUOUS
 62
    7
 10
651.06122646940003
 20
1015.4425244759
 11
651.79455846940004
 21
1015.0191344759
  0
LINE
  8
_0-8_小物
  6
CONTINUOUS
 62
    7
 10
651.06122646940003
 20
1015.4425244759
 11
651.79455846940004
 21
1015.8659144759
  0
LINE
  8
_0-8_小物
  6
CONTINUOUS
 62
    7
 10
651.79455846940004
 20
1015.0191344759
 11
651.79455846940004
 21
1014.4905704759
  0
LINE
  8
_0-8_小物
  6
CONTINUOUS
 62
    7
 10
653.06122746940002
 20
1004.4266324759001
 11
653.06122746940002
 21
1002.4266314759
  0
LINE
  8
_0-8_小物
  6
CONTINUOUS
 62
    7
 10
654.32789346940001
 20
1007.4266324759001
 11
651.79457346940001
 21
1007.4266324759001
  0
LINE
  8
_0-8_小物
  6
CONTINUOUS
 62
    7
 10
653.06122746940002
 20
1002.4266314759
 11
651.79456146940004
 21
1003.3503914759
  0
LINE
  8
_0-8_小物
  6
CONTINUOUS
 62
    7
 10
653.06122746940002
 20
1002.4266314759
 11
654.32789346940001
 21
1003.3503914759
  0
ARC
  8
_0-8_小物
  6
CONTINUOUS
 62
    7
 10
653.43599946940003
 20
1002.7020344759001
 40
1.7648489999999999
 50
102.260329
 51
158.446304
  0
ARC
  8
_0-8_小物
  6
CONTINUOUS
 62
    7
 10
659.06750946940008
 20
1003.6580534759
 40
6.0552599999999996
 50
141.51097799999997
 51
172.70791799999998
  0
LINE
  8
_0-8_小物
  6
CONTINUOUS
 62
    7
 10
649.4612274694
 20
1018.4266304759
 11
656.66122746940005
 21
1018.4266304759
  0
LINE
  8
_0-8_小物
  6
CONTINUOUS
 62
    7
 10
1403.131166444
 20
1006.7613334759001
 11
1403.131166444
 21
1006.4266324759001
  0
LINE
  8
_0-8_小物
  6
CONTINUOUS
 62
    7
 10
1400.7978354440002
 20
1017.4266304759
 11
1400.7978354440002
 21
1017.1266304759
  0
LINE
  8
_0-8_小物
  6
CONTINUOUS
 62
    7
 10
1400.7978354440002
 20
1017.1266304759
 11
1403.131166444
 21
1015.1266324759
  0
LINE
  8
_0-8_小物
  6
CONTINUOUS
 62
    7
 10
1403.131166444
 20
1015.1266324759
 11
1405.6645014440001
 21
1015.1266324759
  0
LINE
  8
_0-8_小物
  6
CONTINUOUS
 62
    7
 10
1400.7978354440002
 20
1017.1266304759
 11
1407.997835444
 21
1017.1266304759
  0
LINE
  8
_0-8_小物
  6
CONTINUOUS
 62
    7
 10
1407.997835444
 20
1017.4266304759
 11
1407.997835444
 21
1017.1266304759
  0
LINE
  8
_0-8_小物
  6
CONTINUOUS
 62
    7
 10
1407.997835444
 20
1017.1266304759
 11
1405.6645014440001
 21
1015.1266324759
  0
LINE
  8
_0-8_小物
  6
CONTINUOUS
 62
    7
 10
1403.131166444
 20
1014.8659144759
 11
1404.3978354440001
 21
1014.9128944759
  0
LINE
  8
_0-8_小物
  6
CONTINUOUS
 62
    7
 10
1403.131166444
 20
1014.0191344759
 11
1404.3978354440001
 21
1014.9128944759
  0
LINE
  8
_0-8_小物
  6
CONTINUOUS
 62
    7
 10
1403.131166444
 20
1006.4266324759001
 11
1403.131166444
 21
1002.3503914759
  0
LINE
  8
_0-8_小物
  6
CONTINUOUS
 62
    7
 10
1405.6645014440001
 20
1007.7020734759001
 11
1405.6645014440001
 21
1002.3503914759
  0
LINE
  8
_0-8_小物
  6
CONTINUOUS
 62
    7
 10
1403.131166444
 20
1008.6428134759
 11
1403.131166444
 21
1007.6081134759
  0
LINE
  8
_0-8_小物
  6
CONTINUOUS
 62
    7
 10
1405.6645014440001
 20
1008.5488534759
 11
1405.6645014440001
 21
1009.5835534759
  0
LINE
  8
_0-8_小物
  6
CONTINUOUS
 62
    7
 10
1403.131166444
 20
1006.7613334759001
 11
1405.6645014440001
 21
1007.7020734759001
  0
LINE
  8
_0-8_小物
  6
CONTINUOUS
 62
    7
 10
1403.131166444
 20
1007.6081134759
 11
1405.6645014440001
 21
1008.5488534759
  0
LINE
  8
_0-8_小物
  6
CONTINUOUS
 62
    7
 10
1402.3978344440002
 20
1007.1847234759
 11
1406.3978334439998
 21
1008.1254634759
  0
LINE
  8
_0-8_小物
  6
CONTINUOUS
 62
    7
 10
1402.3978344440002
 20
1007.1847234759
 11
1403.131166444
 21
1006.7613334759001
  0
LINE
  8
_0-8_小物
  6
CONTINUOUS
 62
    7
 10
1402.3978344440002
 20
1007.1847234759
 11
1403.131166444
 21
1007.6081134759
  0
LINE
  8
_0-8_小物
  6
CONTINUOUS
 62
    7
 10
1406.3978334439998
 20
1008.1254634759
 11
1405.6645014440001
 21
1007.7020734759001
  0
LINE
  8
_0-8_小物
  6
CONTINUOUS
 62
    7
 10
1405.6645014440001
 20
1008.5488534759
 11
1406.3978334439998
 21
1008.1254634759
  0
LINE
  8
_0-8_小物
  6
CONTINUOUS
 62
    7
 10
1403.131166444
 20
1010.5242964759
 11
1403.131166444
 21
1009.4895934759001
  0
LINE
  8
_0-8_小物
  6
CONTINUOUS
 62
    7
 10
1405.6645014440001
 20
1010.4303364759
 11
1405.6645014440001
 21
1011.4650364759
  0
LINE
  8
_0-8_小物
  6
CONTINUOUS
 62
    7
 10
1403.131166444
 20
1008.6428134759
 11
1405.6645014440001
 21
1009.5835534759
  0
LINE
  8
_0-8_小物
  6
CONTINUOUS
 62
    7
 10
1403.131166444
 20
1009.4895934759001
 11
1405.6645014440001
 21
1010.4303364759
  0
LINE
  8
_0-8_小物
  6
CONTINUOUS
 62
    7
 10
1402.3978344440002
 20
1009.0662034759
 11
1406.3978334439998
 21
1010.0069434759
  0
LINE
  8
_0-8_小物
  6
CONTINUOUS
 62
    7
 10
1402.3978344440002
 20
1009.0662034759
 11
1403.131166444
 21
1008.6428134759
  0
LINE
  8
_0-8_小物
  6
CONTINUOUS
 62
    7
 10
1402.3978344440002
 20
1009.0662034759
 11
1403.131166444
 21
1009.4895934759001
  0
LINE
  8
_0-8_小物
  6
CONTINUOUS
 62
    7
 10
1406.3978334439998
 20
1010.0069434759
 11
1405.6645014440001
 21
1009.5835534759
  0
LINE
  8
_0-8_小物
  6
CONTINUOUS
 62
    7
 10
1405.6645014440001
 20
1010.4303364759
 11
1406.3978334439998
 21
1010.0069434759
  0
LINE
  8
_0-8_小物
  6
CONTINUOUS
 62
    7
 10
1403.131166444
 20
1012.4057764759
 11
1403.131166444
 21
1011.3710764759001
  0
LINE
  8
_0-8_小物
  6
CONTINUOUS
 62
    7
 10
1405.6645014440001
 20
1012.3118164759001
 11
1405.6645014440001
 21
1013.3465164759
  0
LINE
  8
_0-8_小物
  6
CONTINUOUS
 62
    7
 10
1403.131166444
 20
1010.5242964759
 11
1405.6645014440001
 21
1011.4650364759
  0
LINE
  8
_0-8_小物
  6
CONTINUOUS
 62
    7
 10
1403.131166444
 20
1011.3710764759001
 11
1405.6645014440001
 21
1012.3118164759001
  0
LINE
  8
_0-8_小物
  6
CONTINUOUS
 62
    7
 10
1402.3978344440002
 20
1010.9476864759
 11
1406.3978334439998
 21
1011.8884264759
  0
LINE
  8
_0-8_小物
  6
CONTINUOUS
 62
    7
 10
1402.3978344440002
 20
1010.9476864759
 11
1403.131166444
 21
1010.5242964759
  0
LINE
  8
_0-8_小物
  6
CONTINUOUS
 62
    7
 10
1402.3978344440002
 20
1010.9476864759
 11
1403.131166444
 21
1011.3710764759001
  0
LINE
  8
_0-8_小物
  6
CONTINUOUS
 62
    7
 10
1406.3978334439998
 20
1011.8884264759
 11
1405.6645014440001
 21
1011.4650364759
  0
LINE
  8
_0-8_小物
  6
CONTINUOUS
 62
    7
 10
1405.6645014440001
 20
1012.3118164759001
 11
1406.3978334439998
 21
1011.8884264759
  0
LINE
  8
_0-8_小物
  6
CONTINUOUS
 62
    7
 10
1403.131166444
 20
1013.4905704759
 11
1403.131166444
 21
1013.2525564759001
  0
LINE
  8
_0-8_小物
  6
CONTINUOUS
 62
    7
 10
1405.6645014440001
 20
1015.1266324759
 11
1405.6645014440001
 21
1014.1932994759001
  0
LINE
  8
_0-8_小物
  6
CONTINUOUS
 62
    7
 10
1403.131166444
 20
1012.4057764759
 11
1405.6645014440001
 21
1013.3465164759
  0
LINE
  8
_0-8_小物
  6
CONTINUOUS
 62
    7
 10
1403.131166444
 20
1013.2525564759001
 11
1405.6645014440001
 21
1014.1932994759001
  0
LINE
  8
_0-8_小物
  6
CONTINUOUS
 62
    7
 10
1402.3978344440002
 20
1012.8291664759
 11
1406.3978334439998
 21
1013.7699064759
  0
LINE
  8
_0-8_小物
  6
CONTINUOUS
 62
    7
 10
1402.3978344440002
 20
1012.8291664759
 11
1403.131166444
 21
1012.4057764759
  0
LINE
  8
_0-8_小物
  6
CONTINUOUS
 62
    7
 10
1402.3978344440002
 20
1012.8291664759
 11
1403.131166444
 21
1013.2525564759001
  0
LINE
  8
_0-8_小物
  6
CONTINUOUS
 62
    7
 10
1405.6645014440001
 20
1013.3465164759
 11
1406.3978334439998
 21
1013.7699064759
  0
LINE
  8
_0-8_小物
  6
CONTINUOUS
 62
    7
 10
1405.6645014440001
 20
1014.1932994759001
 11
1406.3978334439998
 21
1013.7699064759
  0
LINE
  8
_0-8_小物
  6
CONTINUOUS
 62
    7
 10
1403.131166444
 20
1015.1266324759
 11
1403.131166444
 21
1014.8659144759
  0
LINE
  8
_0-8_小物
  6
CONTINUOUS
 62
    7
 10
1404.3978354440001
 20
1014.9128944759
 11
1402.3978344440002
 21
1014.4425244759
  0
LINE
  8
_0-8_小物
  6
CONTINUOUS
 62
    7
 10
1402.3978344440002
 20
1014.4425244759
 11
1403.131166444
 21
1014.0191344759
  0
LINE
  8
_0-8_小物
  6
CONTINUOUS
 62
    7
 10
1402.3978344440002
 20
1014.4425244759
 11
1403.131166444
 21
1014.8659144759
  0
LINE
  8
_0-8_小物
  6
CONTINUOUS
 62
    7
 10
1403.131166444
 20
1014.0191344759
 11
1403.131166444
 21
1013.4905704759
  0
LINE
  8
_0-8_小物
  6
CONTINUOUS
 62
    7
 10
1404.3978354440001
 20
1003.4266324759001
 11
1404.3978354440001
 21
1001.4266314759
  0
LINE
  8
_0-8_小物
  6
CONTINUOUS
 62
    7
 10
1405.6645014440001
 20
1006.4266324759001
 11
1403.131181444
 21
1006.4266324759001
  0
LINE
  8
_0-8_小物
  6
CONTINUOUS
 62
    7
 10
1404.3978354440001
 20
1001.4266314759
 11
1403.1311694440001
 21
1002.3503914759
  0
LINE
  8
_0-8_小物
  6
CONTINUOUS
 62
    7
 10
1404.3978354440001
 20
1001.4266314759
 11
1405.6645014440001
 21
1002.3503914759
  0
ARC
  8
_0-8_小物
  6
CONTINUOUS
 62
    7
 10
1404.7726074440002
 20
1001.7020344759001
 40
1.7648489999999999
 50
102.260329
 51
158.446304
  0
ARC
  8
_0-8_小物
  6
CONTINUOUS
 62
    7
 10
1410.4041174439999
 20
1002.6580534759
 40
6.0552599999999996
 50
141.51097799999997
 51
172.70791799999998
  0
LINE
  8
_0-8_小物
  6
CONTINUOUS
 62
    7
 10
1400.7978354440002
 20
1017.4266304759
 11
1407.997835444
 21
1017.4266304759
  0
LINE
  8
_0-6_センタ_プレ_ト
  6
CONTINUOUS
 62
    7
 10
498.06174148190007
 20
1017.6302770231
 11
498.0551972449
 21
1017.8801913543
  0
LINE
  8
_0-6_センタ_プレ_ト
  6
CONTINUOUS
 62
    7
 10
495.06276950699998
 20
1017.5517461782
 11
495.05622526989998
 21
1017.8016605094
  0
LINE
  8
_0-6_センタ_プレ_ト
  6
CONTINUOUS
 62
    7
 10
499.56122746940002
 20
1017.6695424455
 11
498.06174148190007
 21
1017.6302770231
  0
LINE
  8
_0-6_センタ_プレ_ト
  6
CONTINUOUS
 62
    7
 10
498.0551972449
 20
1017.8801913543
 11
495.05622526989998
 21
1017.8016605094
  0
LINE
  8
_0-6_センタ_プレ_ト
  6
CONTINUOUS
 62
    7
 10
492.06379753210001
 20
1017.4732153332001
 11
492.05725329500001
 21
1017.7231296645
  0
LINE
  8
_0-6_センタ_プレ_ト
  6
CONTINUOUS
 62
    7
 10
495.06276950699998
 20
1017.5517461782
 11
492.06379753210001
 21
1017.4732153332001
  0
LINE
  8
_0-6_センタ_プレ_ト
  6
CONTINUOUS
 62
    7
 10
489.06482555720004
 20
1017.3946844883001
 11
489.05828132010004
 21
1017.6445988196
  0
LINE
  8
_0-6_センタ_プレ_ト
  6
CONTINUOUS
 62
    7
 10
492.05725329500001
 20
1017.7231296645
 11
489.05828132010004
 21
1017.6445988196
  0
LINE
  8
_0-6_センタ_プレ_ト
  6
CONTINUOUS
 62
    7
 10
486.06585358220002
 20
1017.3161536434001
 11
486.05930934510002
 21
1017.5660679746001
  0
LINE
  8
_0-6_センタ_プレ_ト
  6
CONTINUOUS
 62
    7
 10
489.06482555720004
 20
1017.3946844883001
 11
486.06585358220002
 21
1017.3161536434001
  0
LINE
  8
_0-6_センタ_プレ_ト
  6
CONTINUOUS
 62
    7
 10
483.06688160730005
 20
1017.2376227985001
 11
483.06033737020005
 21
1017.4875371297001
  0
LINE
  8
_0-6_センタ_プレ_ト
  6
CONTINUOUS
 62
    7
 10
486.05930934510002
 20
1017.5660679746001
 11
483.06033737020005
 21
1017.4875371297001
  0
LINE
  8
_0-6_センタ_プレ_ト
  6
CONTINUOUS
 62
    7
 10
480.06790963240007
 20
1017.1590919535
 11
480.06136539530007
 21
1017.4090062848001
  0
LINE
  8
_0-6_センタ_プレ_ト
  6
CONTINUOUS
 62
    7
 10
483.06688160730005
 20
1017.2376227985001
 11
480.06790963240007
 21
1017.1590919535
  0
LINE
  8
_0-6_センタ_プレ_ト
  6
CONTINUOUS
 62
    7
 10
477.06893765740006
 20
1017.0805611086
 11
477.06239342039999
 21
1017.3304754399001
  0
LINE
  8
_0-6_センタ_プレ_ト
  6
CONTINUOUS
 62
    7
 10
480.06136539530007
 20
1017.4090062848001
 11
477.06239342039999
 21
1017.3304754399001
  0
LINE
  8
_0-6_センタ_プレ_ト
  6
CONTINUOUS
 62
    7
 10
474.06996568250008
 20
1017.0020302637
 11
474.06342144540008
 21
1017.2519445949
  0
LINE
  8
_0-6_センタ_プレ_ト
  6
CONTINUOUS
 62
    7
 10
477.06893765740006
 20
1017.0805611086
 11
474.06996568250008
 21
1017.0020302637
  0
LINE
  8
_0-6_センタ_プレ_ト
  6
CONTINUOUS
 62
    7
 10
471.0709937076
 20
1016.9234994188
 11
471.06444947049999
 21
1017.17341375
  0
LINE
  8
_0-6_センタ_プレ_ト
  6
CONTINUOUS
 62
    7
 10
474.06342144540008
 20
1017.2519445949
 11
471.06444947049999
 21
1017.17341375
  0
LINE
  8
_0-6_センタ_プレ_ト
  6
CONTINUOUS
 62
    7
 10
468.07202173270002
 20
1016.8449685738
 11
468.06547749560002
 21
1017.0948829051
  0
LINE
  8
_0-6_センタ_プレ_ト
  6
CONTINUOUS
 62
    7
 10
471.0709937076
 20
1016.9234994188
 11
468.07202173270002
 21
1016.8449685738
  0
LINE
  8
_0-6_センタ_プレ_ト
  6
CONTINUOUS
 62
    7
 10
465.07304975770001
 20
1016.7664377289
 11
465.06650552070005
 21
1017.0163520602
  0
LINE
  8
_0-6_センタ_プレ_ト
  6
CONTINUOUS
 62
    7
 10
468.06547749560002
 20
1017.0948829051
 11
465.06650552070005
 21
1017.0163520602
  0
LINE
  8
_0-6_センタ_プレ_ト
  6
CONTINUOUS
 62
    7
 10
462.07407778280003
 20
1016.687906884
 11
462.06753354570003
 21
1016.9378212152001
  0
LINE
  8
_0-6_センタ_プレ_ト
  6
CONTINUOUS
 62
    7
 10
465.07304975770001
 20
1016.7664377289
 11
462.07407778280003
 21
1016.687906884
  0
LINE
  8
_0-6_センタ_プレ_ト
  6
CONTINUOUS
 62
    7
 10
459.07510580790006
 20
1016.6093760391
 11
459.06856157080006
 21
1016.8592903703001
  0
LINE
  8
_0-6_センタ_プレ_ト
  6
CONTINUOUS
 62
    7
 10
462.06753354570003
 20
1016.9378212152001
 11
459.06856157080006
 21
1016.8592903703001
  0
LINE
  8
_0-6_センタ_プレ_ト
  6
CONTINUOUS
 62
    7
 10
456.07613383300003
 20
1016.5308451942
 11
456.06958959590003
 21
1016.7807595254001
  0
LINE
  8
_0-6_センタ_プレ_ト
  6
CONTINUOUS
 62
    7
 10
459.07510580790006
 20
1016.6093760391
 11
456.07613383300003
 21
1016.5308451942
  0
LINE
  8
_0-6_センタ_プレ_ト
  6
CONTINUOUS
 62
    7
 10
453.07716185800001
 20
1016.4523143492
 11
453.07061762100005
 21
1016.7022286805001
  0
LINE
  8
_0-6_センタ_プレ_ト
  6
CONTINUOUS
 62
    7
 10
456.06958959590003
 20
1016.7807595254001
 11
453.07061762100005
 21
1016.7022286805001
  0
LINE
  8
_0-6_センタ_プレ_ト
  6
CONTINUOUS
 62
    7
 10
450.07818988310004
 20
1016.3737835043
 11
450.07164564600004
 21
1016.6236978355
  0
LINE
  8
_0-6_センタ_プレ_ト
  6
CONTINUOUS
 62
    7
 10
453.07716185800001
 20
1016.4523143492
 11
450.07818988310004
 21
1016.3737835043
  0
LINE
  8
_0-6_センタ_プレ_ト
  6
CONTINUOUS
 62
    7
 10
447.07921790820006
 20
1016.2952526594
 11
447.07267367110006
 21
1016.5451669906
  0
LINE
  8
_0-6_センタ_プレ_ト
  6
CONTINUOUS
 62
    7
 10
450.07164564600004
 20
1016.6236978355
 11
447.07267367110006
 21
1016.5451669906
  0
LINE
  8
_0-6_センタ_プレ_ト
  6
CONTINUOUS
 62
    7
 10
444.08024593330003
 20
1016.2167218145
 11
444.07370169620003
 21
1016.4666361457
  0
LINE
  8
_0-6_センタ_プレ_ト
  6
CONTINUOUS
 62
    7
 10
447.07921790820006
 20
1016.2952526594
 11
444.08024593330003
 21
1016.2167218145
  0
LINE
  8
_0-6_センタ_プレ_ト
  6
CONTINUOUS
 62
    7
 10
441.08127395830002
 20
1016.1381909695
 11
441.07472972120001
 21
1016.3881053008
  0
LINE
  8
_0-6_センタ_プレ_ト
  6
CONTINUOUS
 62
    7
 10
444.07370169620003
 20
1016.4666361457
 11
441.07472972120001
 21
1016.3881053008
  0
LINE
  8
_0-6_センタ_プレ_ト
  6
CONTINUOUS
 62
    7
 10
438.08230198340004
 20
1016.0596601246
 11
438.07575774630004
 21
1016.3095744559
  0
LINE
  8
_0-6_センタ_プレ_ト
  6
CONTINUOUS
 62
    7
 10
441.08127395830002
 20
1016.1381909695
 11
438.08230198340004
 21
1016.0596601246
  0
LINE
  8
_0-6_センタ_プレ_ト
  6
CONTINUOUS
 62
    7
 10
435.08333000850001
 20
1015.9811292797
 11
435.07678577140001
 21
1016.2310436109
  0
LINE
  8
_0-6_センタ_プレ_ト
  6
CONTINUOUS
 62
    7
 10
438.07575774630004
 20
1016.3095744559
 11
435.07678577140001
 21
1016.2310436109
  0
LINE
  8
_0-6_センタ_プレ_ト
  6
CONTINUOUS
 62
    7
 10
432.08435803350005
 20
1015.9025984348
 11
432.07781379650004
 21
1016.152512766
  0
LINE
  8
_0-6_センタ_プレ_ト
  6
CONTINUOUS
 62
    7
 10
435.08333000850001
 20
1015.9811292797
 11
432.08435803350005
 21
1015.9025984348
  0
LINE
  8
_0-6_センタ_プレ_ト
  6
CONTINUOUS
 62
    7
 10
429.08538605860002
 20
1015.8240675898001
 11
429.07884182150002
 21
1016.0739819211
  0
LINE
  8
_0-6_センタ_プレ_ト
  6
CONTINUOUS
 62
    7
 10
432.07781379650004
 20
1016.152512766
 11
429.07884182150002
 21
1016.0739819211
  0
LINE
  8
_0-6_センタ_プレ_ト
  6
CONTINUOUS
 62
    7
 10
426.08641408370005
 20
1015.7455367449001
 11
426.07986984660005
 21
1015.9954510762
  0
LINE
  8
_0-6_センタ_プレ_ト
  6
CONTINUOUS
 62
    7
 10
429.08538605860002
 20
1015.8240675898001
 11
426.08641408370005
 21
1015.7455367449001
  0
LINE
  8
_0-6_センタ_プレ_ト
  6
CONTINUOUS
 62
    7
 10
423.08744210880002
 20
1015.6670059
 11
423.08089787170002
 21
1015.9169202312
  0
LINE
  8
_0-6_センタ_プレ_ト
  6
CONTINUOUS
 62
    7
 10
426.07986984660005
 20
1015.9954510762
 11
423.08089787170002
 21
1015.9169202312
  0
LINE
  8
_0-6_センタ_プレ_ト
  6
CONTINUOUS
 62
    7
 10
420.08847013380006
 20
1015.5884750551
 11
420.08192589680004
 21
1015.8383893863
  0
LINE
  8
_0-6_センタ_プレ_ト
  6
CONTINUOUS
 62
    7
 10
423.08744210880002
 20
1015.6670059
 11
420.08847013380006
 21
1015.5884750551
  0
LINE
  8
_0-6_センタ_プレ_ト
  6
CONTINUOUS
 62
    7
 10
417.08949815890003
 20
1015.5099442101
 11
417.08295392180003
 21
1015.7598585414
  0
LINE
  8
_0-6_センタ_プレ_ト
  6
CONTINUOUS
 62
    7
 10
420.08192589680004
 20
1015.8383893863
 11
417.08295392180003
 21
1015.7598585414
  0
LINE
  8
_0-6_センタ_プレ_ト
  6
CONTINUOUS
 62
    7
 10
414.09052618400005
 20
1015.4314133652
 11
414.08398194690005
 21
1015.6813276965
  0
LINE
  8
_0-6_センタ_プレ_ト
  6
CONTINUOUS
 62
    7
 10
417.08949815890003
 20
1015.5099442101
 11
414.09052618400005
 21
1015.4314133652
  0
LINE
  8
_0-6_センタ_プレ_ト
  6
CONTINUOUS
 62
    7
 10
411.09155420910002
 20
1015.3528825203
 11
411.08500997200002
 21
1015.6027968515
  0
LINE
  8
_0-6_センタ_プレ_ト
  6
CONTINUOUS
 62
    7
 10
414.08398194690005
 20
1015.6813276965
 11
411.08500997200002
 21
1015.6027968515
  0
LINE
  8
_0-6_センタ_プレ_ト
  6
CONTINUOUS
 62
    7
 10
408.09258223410006
 20
1015.2743516754
 11
408.08603799710005
 21
1015.5242660066
  0
LINE
  8
_0-6_センタ_プレ_ト
  6
CONTINUOUS
 62
    7
 10
411.09155420910002
 20
1015.3528825203
 11
408.09258223410006
 21
1015.2743516754
  0
LINE
  8
_0-6_センタ_プレ_ト
  6
CONTINUOUS
 62
    7
 10
405.09361025920003
 20
1015.1958208304001
 11
405.08706602210003
 21
1015.4457351617
  0
LINE
  8
_0-6_センタ_プレ_ト
  6
CONTINUOUS
 62
    7
 10
408.08603799710005
 20
1015.5242660066
 11
405.08706602210003
 21
1015.4457351617
  0
LINE
  8
_0-6_センタ_プレ_ト
  6
CONTINUOUS
 62
    7
 10
402.09463828430006
 20
1015.1172899855001
 11
402.08809404720006
 21
1015.3672043168
  0
LINE
  8
_0-6_センタ_プレ_ト
  6
CONTINUOUS
 62
    7
 10
405.09361025920003
 20
1015.1958208304001
 11
402.09463828430006
 21
1015.1172899855001
  0
LINE
  8
_0-6_センタ_プレ_ト
  6
CONTINUOUS
 62
    7
 10
399.09566630940003
 20
1015.0387591406001
 11
399.08912207230003
 21
1015.2886734718001
  0
LINE
  8
_0-6_センタ_プレ_ト
  6
CONTINUOUS
 62
    7
 10
402.08809404720006
 20
1015.3672043168
 11
399.08912207230003
 21
1015.2886734718001
  0
LINE
  8
_0-6_センタ_プレ_ト
  6
CONTINUOUS
 62
    7
 10
399.09566630940003
 20
1015.0387591406001
 11
397.59618032190002
 21
1014.9994937181
  0
LINE
  8
_0-6_センタ_プレ_ト
  6
CONTINUOUS
 62
    7
 10
396.29714221620003
 20
1014.2494937181
 11
396.17214221620003
 21
1014.4660000691
  0
LINE
  8
_0-6_センタ_プレ_ト
  6
CONTINUOUS
 62
    7
 10
388.50291358220005
 20
1009.7494937181
 11
388.37791358220005
 21
1009.9660000691
  0
LINE
  8
_0-6_センタ_プレ_ト
  6
CONTINUOUS
 62
    7
 10
396.17214221620003
 20
1014.4660000691
 11
393.57406600490003
 21
1012.9660000691
  0
LINE
  8
_0-6_センタ_プレ_ト
  6
CONTINUOUS
 62
    7
 10
390.97598979350005
 20
1011.4660000691
 11
388.37791358220005
 21
1009.9660000691
  0
LINE
  8
_0-6_センタ_プレ_ト
  6
CONTINUOUS
 62
    7
 10
393.69906600490003
 20
1012.7494937181
 11
393.57406600490003
 21
1012.9660000691
  0
LINE
  8
_0-6_センタ_プレ_ト
  6
CONTINUOUS
 62
    7
 10
391.10098979350005
 20
1011.2494937181
 11
390.97598979350005
 21
1011.4660000691
  0
LINE
  8
_0-6_センタ_プレ_ト
  6
CONTINUOUS
 62
    7
 10
397.59618032190002
 20
1014.9994937181
 11
396.29714221620003
 21
1014.2494937181
  0
LINE
  8
_0-6_センタ_プレ_ト
  6
CONTINUOUS
 62
    7
 10
393.69906600490003
 20
1012.7494937181
 11
391.10098979350005
 21
1011.2494937181
  0
LINE
  8
_0-6_センタ_プレ_ト
  6
CONTINUOUS
 62
    7
 10
388.50291358220005
 20
1009.7494937181
 11
387.20387547650006
 21
1008.9994937181
  0
LINE
  8
_0-6_センタ_プレ_ト
  6
CONTINUOUS
 62
    7
 10
388.57887547650006
 20
1006.6179238577
 11
387.20387547650006
 21
1008.9994937181
  0
LINE
  8
_0-6_センタ_プレ_ト
  6
CONTINUOUS
 62
    7
 10
499.56122746940002
 20
1014.9185997662
 11
398.36633862950004
 21
1012.2687183438001
  0
LINE
  8
_0-6_センタ_プレ_ト
  6
CONTINUOUS
 62
    7
 10
398.36633862950004
 20
1012.2687183438001
 11
388.57887547650006
 21
1006.6179238577
  0
LINE
  8
_0-6_センタ_プレ_ト
  6
CONTINUOUS
 62
    7
 10
501.06071345690009
 20
1017.6302770231
 11
501.06725769390005
 21
1017.8801913543
  0
LINE
  8
_0-6_センタ_プレ_ト
  6
CONTINUOUS
 62
    7
 10
504.05968543180006
 20
1017.5517461782
 11
504.06622966890006
 21
1017.8016605094
  0
LINE
  8
_0-6_センタ_プレ_ト
  6
CONTINUOUS
 62
    7
 10
499.56122746940002
 20
1017.6695424455
 11
501.06071345690009
 21
1017.6302770231
  0
LINE
  8
_0-6_センタ_プレ_ト
  6
CONTINUOUS
 62
    7
 10
501.06725769390005
 20
1017.8801913543
 11
504.06622966890006
 21
1017.8016605094
  0
LINE
  8
_0-6_センタ_プレ_ト
  6
CONTINUOUS
 62
    7
 10
507.05865740670004
 20
1017.4732153332001
 11
507.06520164380004
 21
1017.7231296645
  0
LINE
  8
_0-6_センタ_プレ_ト
  6
CONTINUOUS
 62
    7
 10
504.05968543180006
 20
1017.5517461782
 11
507.05865740670004
 21
1017.4732153332001
  0
LINE
  8
_0-6_センタ_プレ_ト
  6
CONTINUOUS
 62
    7
 10
510.05762938160001
 20
1017.3946844883001
 11
510.06417361870001
 21
1017.6445988196
  0
LINE
  8
_0-6_センタ_プレ_ト
  6
CONTINUOUS
 62
    7
 10
507.06520164380004
 20
1017.7231296645
 11
510.06417361870001
 21
1017.6445988196
  0
LINE
  8
_0-6_センタ_プレ_ト
  6
CONTINUOUS
 62
    7
 10
513.05660135660003
 20
1017.3161536434001
 11
513.06314559359998
 21
1017.5660679746001
  0
LINE
  8
_0-6_センタ_プレ_ト
  6
CONTINUOUS
 62
    7
 10
510.05762938160001
 20
1017.3946844883001
 11
513.05660135660003
 21
1017.3161536434001
  0
LINE
  8
_0-6_センタ_プレ_ト
  6
CONTINUOUS
 62
    7
 10
516.0555733315
 20
1017.2376227985001
 11
516.0621175686
 21
1017.4875371297001
  0
LINE
  8
_0-6_センタ_プレ_ト
  6
CONTINUOUS
 62
    7
 10
513.06314559359998
 20
1017.5660679746001
 11
516.0621175686
 21
1017.4875371297001
  0
LINE
  8
_0-6_センタ_プレ_ト
  6
CONTINUOUS
 62
    7
 10
519.05454530640009
 20
1017.1590919535
 11
519.06108954350009
 21
1017.4090062848001
  0
LINE
  8
_0-6_センタ_プレ_ト
  6
CONTINUOUS
 62
    7
 10
516.0555733315
 20
1017.2376227985001
 11
519.05454530640009
 21
1017.1590919535
  0
LINE
  8
_0-6_センタ_プレ_ト
  6
CONTINUOUS
 62
    7
 10
522.05351728130006
 20
1017.0805611086
 11
522.06006151840006
 21
1017.3304754399001
  0
LINE
  8
_0-6_センタ_プレ_ト
  6
CONTINUOUS
 62
    7
 10
519.06108954350009
 20
1017.4090062848001
 11
522.06006151840006
 21
1017.3304754399001
  0
LINE
  8
_0-6_センタ_プレ_ト
  6
CONTINUOUS
 62
    7
 10
525.05248925630008
 20
1017.0020302637
 11
525.05903349330003
 21
1017.2519445949
  0
LINE
  8
_0-6_センタ_プレ_ト
  6
CONTINUOUS
 62
    7
 10
522.05351728130006
 20
1017.0805611086
 11
525.05248925630008
 21
1017.0020302637
  0
LINE
  8
_0-6_センタ_プレ_ト
  6
CONTINUOUS
 62
    7
 10
528.05146123120005
 20
1016.9234994188
 11
528.05800546830005
 21
1017.17341375
  0
LINE
  8
_0-6_センタ_プレ_ト
  6
CONTINUOUS
 62
    7
 10
525.05903349330003
 20
1017.2519445949
 11
528.05800546830005
 21
1017.17341375
  0
LINE
  8
_0-6_センタ_プレ_ト
  6
CONTINUOUS
 62
    7
 10
531.05043320610002
 20
1016.8449685738
 11
531.05697744320003
 21
1017.0948829051
  0
LINE
  8
_0-6_センタ_プレ_ト
  6
CONTINUOUS
 62
    7
 10
528.05146123120005
 20
1016.9234994188
 11
531.05043320610002
 21
1016.8449685738
  0
LINE
  8
_0-6_センタ_プレ_ト
  6
CONTINUOUS
 62
    7
 10
534.04940518110004
 20
1016.7664377289
 11
534.0559494181
 21
1017.0163520602
  0
LINE
  8
_0-6_センタ_プレ_ト
  6
CONTINUOUS
 62
    7
 10
531.05697744320003
 20
1017.0948829051
 11
534.0559494181
 21
1017.0163520602
  0
LINE
  8
_0-6_センタ_プレ_ト
  6
CONTINUOUS
 62
    7
 10
537.04837715600002
 20
1016.687906884
 11
537.05492139310002
 21
1016.9378212152001
  0
LINE
  8
_0-6_センタ_プレ_ト
  6
CONTINUOUS
 62
    7
 10
534.04940518110004
 20
1016.7664377289
 11
537.04837715600002
 21
1016.687906884
  0
LINE
  8
_0-6_センタ_プレ_ト
  6
CONTINUOUS
 62
    7
 10
540.04734913089999
 20
1016.6093760391
 11
540.05389336799999
 21
1016.8592903703001
  0
LINE
  8
_0-6_センタ_プレ_ト
  6
CONTINUOUS
 62
    7
 10
537.05492139310002
 20
1016.9378212152001
 11
540.05389336799999
 21
1016.8592903703001
  0
LINE
  8
_0-6_センタ_プレ_ト
  6
CONTINUOUS
 62
    7
 10
543.04632110580008
 20
1016.5308451942
 11
543.05286534290008
 21
1016.7807595254001
  0
LINE
  8
_0-6_センタ_プレ_ト
  6
CONTINUOUS
 62
    7
 10
540.04734913089999
 20
1016.6093760391
 11
543.04632110580008
 21
1016.5308451942
  0
LINE
  8
_0-6_センタ_プレ_ト
  6
CONTINUOUS
 62
    7
 10
546.04529308080009
 20
1016.4523143492
 11
546.05183731780005
 21
1016.7022286805001
  0
LINE
  8
_0-6_センタ_プレ_ト
  6
CONTINUOUS
 62
    7
 10
543.05286534290008
 20
1016.7807595254001
 11
546.05183731780005
 21
1016.7022286805001
  0
LINE
  8
_0-6_センタ_プレ_ト
  6
CONTINUOUS
 62
    7
 10
549.04426505570007
 20
1016.3737835043
 11
549.05080929280007
 21
1016.6236978355
  0
LINE
  8
_0-6_センタ_プレ_ト
  6
CONTINUOUS
 62
    7
 10
546.04529308080009
 20
1016.4523143492
 11
549.04426505570007
 21
1016.3737835043
  0
LINE
  8
_0-6_センタ_プレ_ト
  6
CONTINUOUS
 62
    7
 10
552.04323703060004
 20
1016.2952526594
 11
552.04978126770004
 21
1016.5451669906
  0
LINE
  8
_0-6_センタ_プレ_ト
  6
CONTINUOUS
 62
    7
 10
549.05080929280007
 20
1016.6236978355
 11
552.04978126770004
 21
1016.5451669906
  0
LINE
  8
_0-6_センタ_プレ_ト
  6
CONTINUOUS
 62
    7
 10
555.04220900550001
 20
1016.2167218145
 11
555.04875324260001
 21
1016.4666361457
  0
LINE
  8
_0-6_センタ_プレ_ト
  6
CONTINUOUS
 62
    7
 10
552.04323703060004
 20
1016.2952526594
 11
555.04220900550001
 21
1016.2167218145
  0
LINE
  8
_0-6_センタ_プレ_ト
  6
CONTINUOUS
 62
    7
 10
558.04118098050003
 20
1016.1381909695
 11
558.04772521749999
 21
1016.3881053008
  0
LINE
  8
_0-6_センタ_プレ_ト
  6
CONTINUOUS
 62
    7
 10
555.04875324260001
 20
1016.4666361457
 11
558.04772521749999
 21
1016.3881053008
  0
LINE
  8
_0-6_センタ_プレ_ト
  6
CONTINUOUS
 62
    7
 10
561.0401529554
 20
1016.0596601246
 11
561.04669719250001
 21
1016.3095744559
  0
LINE
  8
_0-6_センタ_プレ_ト
  6
CONTINUOUS
 62
    7
 10
558.04118098050003
 20
1016.1381909695
 11
561.0401529554
 21
1016.0596601246
  0
LINE
  8
_0-6_センタ_プレ_ト
  6
CONTINUOUS
 62
    7
 10
564.03912493030009
 20
1015.9811292797
 11
564.04566916740009
 21
1016.2310436109
  0
LINE
  8
_0-6_センタ_プレ_ト
  6
CONTINUOUS
 62
    7
 10
561.04669719250001
 20
1016.3095744559
 11
564.04566916740009
 21
1016.2310436109
  0
LINE
  8
_0-6_センタ_プレ_ト
  6
CONTINUOUS
 62
    7
 10
567.03809690520006
 20
1015.9025984348
 11
567.04464114230007
 21
1016.152512766
  0
LINE
  8
_0-6_センタ_プレ_ト
  6
CONTINUOUS
 62
    7
 10
564.03912493030009
 20
1015.9811292797
 11
567.03809690520006
 21
1015.9025984348
  0
LINE
  8
_0-6_センタ_プレ_ト
  6
CONTINUOUS
 62
    7
 10
570.03706888020008
 20
1015.8240675898001
 11
570.04361311720004
 21
1016.0739819211
  0
LINE
  8
_0-6_センタ_プレ_ト
  6
CONTINUOUS
 62
    7
 10
567.04464114230007
 20
1016.152512766
 11
570.04361311720004
 21
1016.0739819211
  0
LINE
  8
_0-6_センタ_プレ_ト
  6
CONTINUOUS
 62
    7
 10
573.03604085510005
 20
1015.7455367449001
 11
573.04258509220006
 21
1015.9954510762
  0
LINE
  8
_0-6_センタ_プレ_ト
  6
CONTINUOUS
 62
    7
 10
570.03706888020008
 20
1015.8240675898001
 11
573.03604085510005
 21
1015.7455367449001
  0
LINE
  8
_0-6_センタ_プレ_ト
  6
CONTINUOUS
 62
    7
 10
576.03501283000003
 20
1015.6670059
 11
576.04155706710003
 21
1015.9169202312
  0
LINE
  8
_0-6_センタ_プレ_ト
  6
CONTINUOUS
 62
    7
 10
573.04258509220006
 20
1015.9954510762
 11
576.04155706710003
 21
1015.9169202312
  0
LINE
  8
_0-6_センタ_プレ_ト
  6
CONTINUOUS
 62
    7
 10
579.03398480500005
 20
1015.5884750551
 11
579.040529042
 21
1015.8383893863
  0
LINE
  8
_0-6_センタ_プレ_ト
  6
CONTINUOUS
 62
    7
 10
576.03501283000003
 20
1015.6670059
 11
579.03398480500005
 21
1015.5884750551
  0
LINE
  8
_0-6_センタ_プレ_ト
  6
CONTINUOUS
 62
    7
 10
582.03295677990002
 20
1015.5099442101
 11
582.03950101700002
 21
1015.7598585414
  0
LINE
  8
_0-6_センタ_プレ_ト
  6
CONTINUOUS
 62
    7
 10
579.040529042
 20
1015.8383893863
 11
582.03950101700002
 21
1015.7598585414
  0
LINE
  8
_0-6_センタ_プレ_ト
  6
CONTINUOUS
 62
    7
 10
585.03192875479999
 20
1015.4314133652
 11
585.03847299189999
 21
1015.6813276965
  0
LINE
  8
_0-6_センタ_プレ_ト
  6
CONTINUOUS
 62
    7
 10
582.03295677990002
 20
1015.5099442101
 11
585.03192875479999
 21
1015.4314133652
  0
LINE
  8
_0-6_センタ_プレ_ト
  6
CONTINUOUS
 62
    7
 10
588.03090072970008
 20
1015.3528825203
 11
588.03744496680008
 21
1015.6027968515
  0
LINE
  8
_0-6_センタ_プレ_ト
  6
CONTINUOUS
 62
    7
 10
585.03847299189999
 20
1015.6813276965
 11
588.03744496680008
 21
1015.6027968515
  0
LINE
  8
_0-6_センタ_プレ_ト
  6
CONTINUOUS
 62
    7
 10
591.02987270469998
 20
1015.2743516754
 11
591.03641694170005
 21
1015.5242660066
  0
LINE
  8
_0-6_センタ_プレ_ト
  6
CONTINUOUS
 62
    7
 10
588.03090072970008
 20
1015.3528825203
 11
591.02987270469998
 21
1015.2743516754
  0
LINE
  8
_0-6_センタ_プレ_ト
  6
CONTINUOUS
 62
    7
 10
594.02884467960007
 20
1015.1958208304001
 11
594.03538891670007
 21
1015.4457351617
  0
LINE
  8
_0-6_センタ_プレ_ト
  6
CONTINUOUS
 62
    7
 10
591.03641694170005
 20
1015.5242660066
 11
594.03538891670007
 21
1015.4457351617
  0
LINE
  8
_0-6_センタ_プレ_ト
  6
CONTINUOUS
 62
    7
 10
597.02781665450004
 20
1015.1172899855001
 11
597.03436089160004
 21
1015.3672043168
  0
LINE
  8
_0-6_センタ_プレ_ト
  6
CONTINUOUS
 62
    7
 10
594.02884467960007
 20
1015.1958208304001
 11
597.02781665450004
 21
1015.1172899855001
  0
LINE
  8
_0-6_センタ_プレ_ト
  6
CONTINUOUS
 62
    7
 10
600.02678862940002
 20
1015.0387591406001
 11
600.03333286650002
 21
1015.2886734718001
  0
LINE
  8
_0-6_センタ_プレ_ト
  6
CONTINUOUS
 62
    7
 10
597.03436089160004
 20
1015.3672043168
 11
600.03333286650002
 21
1015.2886734718001
  0
LINE
  8
_0-6_センタ_プレ_ト
  6
CONTINUOUS
 62
    7
 10
600.02678862940002
 20
1015.0387591406001
 11
601.52627461690008
 21
1014.9994937181
  0
LINE
  8
_0-6_センタ_プレ_ト
  6
CONTINUOUS
 62
    7
 10
602.82531272260007
 20
1014.2494937181
 11
602.95031272260007
 21
1014.4660000691
  0
LINE
  8
_0-6_センタ_プレ_ト
  6
CONTINUOUS
 62
    7
 10
610.61954135660005
 20
1009.7494937181
 11
610.74454135660005
 21
1009.9660000691
  0
LINE
  8
_0-6_センタ_プレ_ト
  6
CONTINUOUS
 62
    7
 10
602.95031272260007
 20
1014.4660000691
 11
605.54838893390001
 21
1012.9660000691
  0
LINE
  8
_0-6_センタ_プレ_ト
  6
CONTINUOUS
 62
    7
 10
608.1464651453
 20
1011.4660000691
 11
610.74454135660005
 21
1009.9660000691
  0
LINE
  8
_0-6_センタ_プレ_ト
  6
CONTINUOUS
 62
    7
 10
605.42338893390001
 20
1012.7494937181
 11
605.54838893390001
 21
1012.9660000691
  0
LINE
  8
_0-6_センタ_プレ_ト
  6
CONTINUOUS
 62
    7
 10
608.0214651453
 20
1011.2494937181
 11
608.1464651453
 21
1011.4660000691
  0
LINE
  8
_0-6_センタ_プレ_ト
  6
CONTINUOUS
 62
    7
 10
601.52627461690008
 20
1014.9994937181
 11
602.82531272260007
 21
1014.2494937181
  0
LINE
  8
_0-6_センタ_プレ_ト
  6
CONTINUOUS
 62
    7
 10
605.42338893390001
 20
1012.7494937181
 11
608.0214651453
 21
1011.2494937181
  0
LINE
  8
_0-6_センタ_プレ_ト
  6
CONTINUOUS
 62
    7
 10
610.61954135660005
 20
1009.7494937181
 11
611.91857946230004
 21
1008.9994937181
  0
LINE
  8
_0-6_センタ_プレ_ト
  6
CONTINUOUS
 62
    7
 10
610.54357946230004
 20
1006.6179238577
 11
611.91857946230004
 21
1008.9994937181
  0
LINE
  8
_0-6_センタ_プレ_ト
  6
CONTINUOUS
 62
    7
 10
499.56122746940002
 20
1014.9185997662
 11
600.75611630930007
 21
1012.2687183438001
  0
LINE
  8
_0-6_センタ_プレ_ト
  6
CONTINUOUS
 62
    7
 10
600.75611630930007
 20
1012.2687183438001
 11
610.54357946230004
 21
1006.6179238577
  0
LINE
  8
_0-6_センタ_プレ_ト
  6
CONTINUOUS
 62
    7
 10
1648.0401997439999
 20
1014.3136170978
 11
1648.7901997439999
 21
1013.0145789922
  0
LINE
  8
_0-6_センタ_プレ_ト
  6
CONTINUOUS
 62
    7
 10
1648.7901997439999
 20
1013.0145789922
 11
1649.006706095
 21
1013.1395789922
  0
LINE
  8
_0-6_センタ_プレ_ト
  6
CONTINUOUS
 62
    7
 10
1649.006706095
 20
1013.1395789922
 11
1650.506706095
 21
1010.5415027808
  0
LINE
  8
_0-6_センタ_プレ_ト
  6
CONTINUOUS
 62
    7
 10
1650.2901997439999
 20
1010.4165027808
 11
1650.506706095
 21
1010.5415027808
  0
LINE
  8
_0-6_センタ_プレ_ト
  6
CONTINUOUS
 62
    7
 10
1650.2901997439999
 20
1010.4165027808
 11
1651.7901997439999
 21
1007.8184265695
  0
LINE
  8
_0-6_センタ_プレ_ト
  6
CONTINUOUS
 62
    7
 10
1651.7901997439999
 20
1007.8184265695
 11
1652.006706095
 21
1007.9434265695
  0
LINE
  8
_0-6_センタ_プレ_ト
  6
CONTINUOUS
 62
    7
 10
1652.006706095
 20
1007.9434265695
 11
1653.506706095
 21
1005.3453503581001
  0
LINE
  8
_0-6_センタ_プレ_ト
  6
CONTINUOUS
 62
    7
 10
1653.2901997439999
 20
1005.2203503581001
 11
1653.506706095
 21
1005.3453503581001
  0
LINE
  8
_0-6_センタ_プレ_ト
  6
CONTINUOUS
 62
    7
 10
1653.2901997439999
 20
1005.2203503581001
 11
1654.0401997439999
 21
1003.9213122524001
  0
LINE
  8
_0-6_センタ_プレ_ト
  6
CONTINUOUS
 62
    7
 10
1556.5715545080002
 20
1016.6302770231
 11
1556.5650102710001
 21
1016.8801913543
  0
LINE
  8
_0-6_センタ_プレ_ト
  6
CONTINUOUS
 62
    7
 10
1553.572582534
 20
1016.5517461782
 11
1553.566038296
 21
1016.8016605094
  0
LINE
  8
_0-6_センタ_プレ_ト
  6
CONTINUOUS
 62
    7
 10
1558.071040496
 20
1016.6695424455
 11
1556.5715545080002
 21
1016.6302770231
  0
LINE
  8
_0-6_センタ_プレ_ト
  6
CONTINUOUS
 62
    7
 10
1556.5650102710001
 20
1016.8801913543
 11
1553.566038296
 21
1016.8016605094
  0
LINE
  8
_0-6_センタ_プレ_ト
  6
CONTINUOUS
 62
    7
 10
1550.5736105589999
 20
1016.4732153332001
 11
1550.5670663219998
 21
1016.7231296645
  0
LINE
  8
_0-6_センタ_プレ_ト
  6
CONTINUOUS
 62
    7
 10
1553.572582534
 20
1016.5517461782
 11
1550.5736105589999
 21
1016.4732153332001
  0
LINE
  8
_0-6_センタ_プレ_ト
  6
CONTINUOUS
 62
    7
 10
1547.5746385840002
 20
1016.3946844883001
 11
1547.5680943470002
 21
1016.6445988196
  0
LINE
  8
_0-6_センタ_プレ_ト
  6
CONTINUOUS
 62
    7
 10
1550.5670663219998
 20
1016.7231296645
 11
1547.5680943470002
 21
1016.6445988196
  0
LINE
  8
_0-6_センタ_プレ_ト
  6
CONTINUOUS
 62
    7
 10
1544.5756666090001
 20
1016.3161536434001
 11
1544.569122372
 21
1016.5660679746001
  0
LINE
  8
_0-6_センタ_プレ_ト
  6
CONTINUOUS
 62
    7
 10
1547.5746385840002
 20
1016.3946844883001
 11
1544.5756666090001
 21
1016.3161536434001
  0
LINE
  8
_0-6_センタ_プレ_ト
  6
CONTINUOUS
 62
    7
 10
1541.576694634
 20
1016.2376227985001
 11
1541.5701503969999
 21
1016.4875371297001
  0
LINE
  8
_0-6_センタ_プレ_ト
  6
CONTINUOUS
 62
    7
 10
1544.569122372
 20
1016.5660679746001
 11
1541.5701503969999
 21
1016.4875371297001
  0
LINE
  8
_0-6_センタ_プレ_ト
  6
CONTINUOUS
 62
    7
 10
1538.5777226589998
 20
1016.1590919535
 11
1538.5711784220002
 21
1016.4090062848001
  0
LINE
  8
_0-6_センタ_プレ_ト
  6
CONTINUOUS
 62
    7
 10
1541.576694634
 20
1016.2376227985001
 11
1538.5777226589998
 21
1016.1590919535
  0
LINE
  8
_0-6_センタ_プレ_ト
  6
CONTINUOUS
 62
    7
 10
1535.5787506840002
 20
1016.0805611086
 11
1535.5722064470001
 21
1016.3304754399001
  0
LINE
  8
_0-6_センタ_プレ_ト
  6
CONTINUOUS
 62
    7
 10
1538.5711784220002
 20
1016.4090062848001
 11
1535.5722064470001
 21
1016.3304754399001
  0
LINE
  8
_0-6_センタ_プレ_ト
  6
CONTINUOUS
 62
    7
 10
1532.579778709
 20
1016.0020302637
 11
1532.573234472
 21
1016.2519445949
  0
LINE
  8
_0-6_センタ_プレ_ト
  6
CONTINUOUS
 62
    7
 10
1535.5787506840002
 20
1016.0805611086
 11
1532.579778709
 21
1016.0020302637
  0
LINE
  8
_0-6_センタ_プレ_ト
  6
CONTINUOUS
 62
    7
 10
1529.5808067339999
 20
1015.9234994188
 11
1529.5742624969998
 21
1016.17341375
  0
LINE
  8
_0-6_センタ_プレ_ト
  6
CONTINUOUS
 62
    7
 10
1532.573234472
 20
1016.2519445949
 11
1529.5742624969998
 21
1016.17341375
  0
LINE
  8
_0-6_センタ_プレ_ト
  6
CONTINUOUS
 62
    7
 10
1526.5818347590002
 20
1015.8449685738
 11
1526.5752905220002
 21
1016.0948829051
  0
LINE
  8
_0-6_センタ_プレ_ト
  6
CONTINUOUS
 62
    7
 10
1529.5808067339999
 20
1015.9234994188
 11
1526.5818347590002
 21
1015.8449685738
  0
LINE
  8
_0-6_センタ_プレ_ト
  6
CONTINUOUS
 62
    7
 10
1523.5828627840001
 20
1015.7664377289
 11
1523.576318547
 21
1016.0163520602
  0
LINE
  8
_0-6_センタ_プレ_ト
  6
CONTINUOUS
 62
    7
 10
1526.5752905220002
 20
1016.0948829051
 11
1523.576318547
 21
1016.0163520602
  0
LINE
  8
_0-6_センタ_プレ_ト
  6
CONTINUOUS
 62
    7
 10
1520.583890809
 20
1015.687906884
 11
1520.5773465719999
 21
1015.9378212152001
  0
LINE
  8
_0-6_センタ_プレ_ト
  6
CONTINUOUS
 62
    7
 10
1523.5828627840001
 20
1015.7664377289
 11
1520.583890809
 21
1015.687906884
  0
LINE
  8
_0-6_センタ_プレ_ト
  6
CONTINUOUS
 62
    7
 10
1517.5849188339998
 20
1015.6093760391
 11
1517.5783745970002
 21
1015.8592903703001
  0
LINE
  8
_0-6_センタ_プレ_ト
  6
CONTINUOUS
 62
    7
 10
1520.5773465719999
 20
1015.9378212152001
 11
1517.5783745970002
 21
1015.8592903703001
  0
LINE
  8
_0-6_センタ_プレ_ト
  6
CONTINUOUS
 62
    7
 10
1514.5859468590002
 20
1015.5308451942
 11
1514.5794026220001
 21
1015.7807595254001
  0
LINE
  8
_0-6_センタ_プレ_ト
  6
CONTINUOUS
 62
    7
 10
1517.5849188339998
 20
1015.6093760391
 11
1514.5859468590002
 21
1015.5308451942
  0
LINE
  8
_0-6_センタ_プレ_ト
  6
CONTINUOUS
 62
    7
 10
1511.586974885
 20
1015.4523143492
 11
1511.580430647
 21
1015.7022286805001
  0
LINE
  8
_0-6_センタ_プレ_ト
  6
CONTINUOUS
 62
    7
 10
1514.5794026220001
 20
1015.7807595254001
 11
1511.580430647
 21
1015.7022286805001
  0
LINE
  8
_0-6_センタ_プレ_ト
  6
CONTINUOUS
 62
    7
 10
1508.5880029099999
 20
1015.3737835043
 11
1508.5814586729998
 21
1015.6236978355
  0
LINE
  8
_0-6_センタ_プレ_ト
  6
CONTINUOUS
 62
    7
 10
1511.586974885
 20
1015.4523143492
 11
1508.5880029099999
 21
1015.3737835043
  0
LINE
  8
_0-6_センタ_プレ_ト
  6
CONTINUOUS
 62
    7
 10
1505.5890309350002
 20
1015.2952526594
 11
1505.5824866980001
 21
1015.5451669906
  0
LINE
  8
_0-6_センタ_プレ_ト
  6
CONTINUOUS
 62
    7
 10
1508.5814586729998
 20
1015.6236978355
 11
1505.5824866980001
 21
1015.5451669906
  0
LINE
  8
_0-6_センタ_プレ_ト
  6
CONTINUOUS
 62
    7
 10
1502.5900589600001
 20
1015.2167218145
 11
1502.583514723
 21
1015.4666361457
  0
LINE
  8
_0-6_センタ_プレ_ト
  6
CONTINUOUS
 62
    7
 10
1505.5890309350002
 20
1015.2952526594
 11
1502.5900589600001
 21
1015.2167218145
  0
LINE
  8
_0-6_センタ_プレ_ト
  6
CONTINUOUS
 62
    7
 10
1499.5910869849999
 20
1015.1381909695
 11
1499.5845427479999
 21
1015.3881053008
  0
LINE
  8
_0-6_センタ_プレ_ト
  6
CONTINUOUS
 62
    7
 10
1502.583514723
 20
1015.4666361457
 11
1499.5845427479999
 21
1015.3881053008
  0
LINE
  8
_0-6_センタ_プレ_ト
  6
CONTINUOUS
 62
    7
 10
1496.5921150099998
 20
1015.0596601246
 11
1496.5855707730002
 21
1015.3095744559
  0
LINE
  8
_0-6_センタ_プレ_ト
  6
CONTINUOUS
 62
    7
 10
1499.5910869849999
 20
1015.1381909695
 11
1496.5921150099998
 21
1015.0596601246
  0
LINE
  8
_0-6_センタ_プレ_ト
  6
CONTINUOUS
 62
    7
 10
1493.5931430350001
 20
1014.9811292797
 11
1493.5865987980001
 21
1015.2310436109
  0
LINE
  8
_0-6_センタ_プレ_ト
  6
CONTINUOUS
 62
    7
 10
1496.5855707730002
 20
1015.3095744559
 11
1493.5865987980001
 21
1015.2310436109
  0
LINE
  8
_0-6_センタ_プレ_ト
  6
CONTINUOUS
 62
    7
 10
1490.59417106
 20
1014.9025984348
 11
1490.5876268229999
 21
1015.152512766
  0
LINE
  8
_0-6_センタ_プレ_ト
  6
CONTINUOUS
 62
    7
 10
1493.5931430350001
 20
1014.9811292797
 11
1490.59417106
 21
1014.9025984348
  0
LINE
  8
_0-6_センタ_プレ_ト
  6
CONTINUOUS
 62
    7
 10
1487.5951990849999
 20
1014.8240675898001
 11
1487.5886548480003
 21
1015.0739819211
  0
LINE
  8
_0-6_センタ_プレ_ト
  6
CONTINUOUS
 62
    7
 10
1490.5876268229999
 20
1015.152512766
 11
1487.5886548480003
 21
1015.0739819211
  0
LINE
  8
_0-6_センタ_プレ_ト
  6
CONTINUOUS
 62
    7
 10
1484.5962271100002
 20
1014.7455367449001
 11
1484.5896828730001
 21
1014.9954510762
  0
LINE
  8
_0-6_センタ_プレ_ト
  6
CONTINUOUS
 62
    7
 10
1487.5951990849999
 20
1014.8240675898001
 11
1484.5962271100002
 21
1014.7455367449001
  0
LINE
  8
_0-6_センタ_プレ_ト
  6
CONTINUOUS
 62
    7
 10
1481.5972551350001
 20
1014.6670059
 11
1481.590710898
 21
1014.9169202312
  0
LINE
  8
_0-6_センタ_プレ_ト
  6
CONTINUOUS
 62
    7
 10
1484.5896828730001
 20
1014.9954510762
 11
1481.590710898
 21
1014.9169202312
  0
LINE
  8
_0-6_センタ_プレ_ト
  6
CONTINUOUS
 62
    7
 10
1478.5982831599999
 20
1014.5884750551
 11
1478.5917389229999
 21
1014.8383893863
  0
LINE
  8
_0-6_センタ_プレ_ト
  6
CONTINUOUS
 62
    7
 10
1481.5972551350001
 20
1014.6670059
 11
1478.5982831599999
 21
1014.5884750551
  0
LINE
  8
_0-6_センタ_プレ_ト
  6
CONTINUOUS
 62
    7
 10
1475.5993111850003
 20
1014.5099442101
 11
1475.5927669480002
 21
1014.7598585414
  0
LINE
  8
_0-6_センタ_プレ_ト
  6
CONTINUOUS
 62
    7
 10
1478.5917389229999
 20
1014.8383893863
 11
1475.5927669480002
 21
1014.7598585414
  0
LINE
  8
_0-6_センタ_プレ_ト
  6
CONTINUOUS
 62
    7
 10
1472.6003392100001
 20
1014.4314133652
 11
1472.5937949730001
 21
1014.6813276965
  0
LINE
  8
_0-6_センタ_プレ_ト
  6
CONTINUOUS
 62
    7
 10
1475.5993111850003
 20
1014.5099442101
 11
1472.6003392100001
 21
1014.4314133652
  0
LINE
  8
_0-6_センタ_プレ_ト
  6
CONTINUOUS
 62
    7
 10
1469.601367236
 20
1014.3528825203
 11
1469.5948229979999
 21
1014.6027968515
  0
LINE
  8
_0-6_センタ_プレ_ト
  6
CONTINUOUS
 62
    7
 10
1472.5937949730001
 20
1014.6813276965
 11
1469.5948229979999
 21
1014.6027968515
  0
LINE
  8
_0-6_センタ_プレ_ト
  6
CONTINUOUS
 62
    7
 10
1466.6023952609999
 20
1014.2743516754
 11
1466.5958510240002
 21
1014.5242660066
  0
LINE
  8
_0-6_センタ_プレ_ト
  6
CONTINUOUS
 62
    7
 10
1469.601367236
 20
1014.3528825203
 11
1466.6023952609999
 21
1014.2743516754
  0
LINE
  8
_0-6_センタ_プレ_ト
  6
CONTINUOUS
 62
    7
 10
1463.6034232860002
 20
1014.1958208304001
 11
1463.5968790490001
 21
1014.4457351617
  0
LINE
  8
_0-6_センタ_プレ_ト
  6
CONTINUOUS
 62
    7
 10
1466.5958510240002
 20
1014.5242660066
 11
1463.5968790490001
 21
1014.4457351617
  0
LINE
  8
_0-6_センタ_プレ_ト
  6
CONTINUOUS
 62
    7
 10
1460.604451311
 20
1014.1172899855001
 11
1460.597907074
 21
1014.3672043168
  0
LINE
  8
_0-6_センタ_プレ_ト
  6
CONTINUOUS
 62
    7
 10
1463.6034232860002
 20
1014.1958208304001
 11
1460.604451311
 21
1014.1172899855001
  0
LINE
  8
_0-6_センタ_プレ_ト
  6
CONTINUOUS
 62
    7
 10
1457.6054793359999
 20
1014.0387591406001
 11
1457.5989350989998
 21
1014.2886734718001
  0
LINE
  8
_0-6_センタ_プレ_ト
  6
CONTINUOUS
 62
    7
 10
1460.597907074
 20
1014.3672043168
 11
1457.5989350989998
 21
1014.2886734718001
  0
LINE
  8
_0-6_センタ_プレ_ト
  6
CONTINUOUS
 62
    7
 10
1457.6054793359999
 20
1014.0387591406001
 11
1456.1059933480001
 21
1013.9994937181
  0
LINE
  8
_0-6_センタ_プレ_ト
  6
CONTINUOUS
 62
    7
 10
1559.5705264829999
 20
1016.6302770231
 11
1559.5770707199999
 21
1016.8801913543
  0
LINE
  8
_0-6_センタ_プレ_ト
  6
CONTINUOUS
 62
    7
 10
1562.569498458
 20
1016.5517461782
 11
1562.5760426950001
 21
1016.8016605094
  0
LINE
  8
_0-6_センタ_プレ_ト
  6
CONTINUOUS
 62
    7
 10
1558.071040496
 20
1016.6695424455
 11
1559.5705264829999
 21
1016.6302770231
  0
LINE
  8
_0-6_センタ_プレ_ト
  6
CONTINUOUS
 62
    7
 10
1559.5770707199999
 20
1016.8801913543
 11
1562.5760426950001
 21
1016.8016605094
  0
LINE
  8
_0-6_センタ_プレ_ト
  6
CONTINUOUS
 62
    7
 10
1565.5684704330001
 20
1016.4732153332001
 11
1565.5750146700002
 21
1016.7231296645
  0
LINE
  8
_0-6_センタ_プレ_ト
  6
CONTINUOUS
 62
    7
 10
1562.569498458
 20
1016.5517461782
 11
1565.5684704330001
 21
1016.4732153332001
  0
LINE
  8
_0-6_センタ_プレ_ト
  6
CONTINUOUS
 62
    7
 10
1568.5674424080003
 20
1016.3946844883001
 11
1568.5739866449999
 21
1016.6445988196
  0
LINE
  8
_0-6_センタ_プレ_ト
  6
CONTINUOUS
 62
    7
 10
1565.5750146700002
 20
1016.7231296645
 11
1568.5739866449999
 21
1016.6445988196
  0
LINE
  8
_0-6_センタ_プレ_ト
  6
CONTINUOUS
 62
    7
 10
1571.5664143829999
 20
1016.3161536434001
 11
1571.57295862
 21
1016.5660679746001
  0
LINE
  8
_0-6_センタ_プレ_ト
  6
CONTINUOUS
 62
    7
 10
1568.5674424080003
 20
1016.3946844883001
 11
1571.5664143829999
 21
1016.3161536434001
  0
LINE
  8
_0-6_センタ_プレ_ト
  6
CONTINUOUS
 62
    7
 10
1574.5653863580001
 20
1016.2376227985001
 11
1574.5719305950001
 21
1016.4875371297001
  0
LINE
  8
_0-6_センタ_プレ_ト
  6
CONTINUOUS
 62
    7
 10
1571.57295862
 20
1016.5660679746001
 11
1574.5719305950001
 21
1016.4875371297001
  0
LINE
  8
_0-6_センタ_プレ_ト
  6
CONTINUOUS
 62
    7
 10
1577.5643583330002
 20
1016.1590919535
 11
1577.5709025699998
 21
1016.4090062848001
  0
LINE
  8
_0-6_センタ_プレ_ト
  6
CONTINUOUS
 62
    7
 10
1574.5653863580001
 20
1016.2376227985001
 11
1577.5643583330002
 21
1016.1590919535
  0
LINE
  8
_0-6_センタ_プレ_ト
  6
CONTINUOUS
 62
    7
 10
1580.5633303079999
 20
1016.0805611086
 11
1580.5698745449999
 21
1016.3304754399001
  0
LINE
  8
_0-6_センタ_プレ_ト
  6
CONTINUOUS
 62
    7
 10
1577.5709025699998
 20
1016.4090062848001
 11
1580.5698745449999
 21
1016.3304754399001
  0
LINE
  8
_0-6_センタ_プレ_ト
  6
CONTINUOUS
 62
    7
 10
1583.562302283
 20
1016.0020302637
 11
1583.5688465200001
 21
1016.2519445949
  0
LINE
  8
_0-6_センタ_プレ_ト
  6
CONTINUOUS
 62
    7
 10
1580.5633303079999
 20
1016.0805611086
 11
1583.562302283
 21
1016.0020302637
  0
LINE
  8
_0-6_センタ_プレ_ト
  6
CONTINUOUS
 62
    7
 10
1586.5612742580001
 20
1015.9234994188
 11
1586.5678184950002
 21
1016.17341375
  0
LINE
  8
_0-6_センタ_プレ_ト
  6
CONTINUOUS
 62
    7
 10
1583.5688465200001
 20
1016.2519445949
 11
1586.5678184950002
 21
1016.17341375
  0
LINE
  8
_0-6_センタ_プレ_ト
  6
CONTINUOUS
 62
    7
 10
1589.5602462329998
 20
1015.8449685738
 11
1589.5667904699999
 21
1016.0948829051
  0
LINE
  8
_0-6_センタ_プレ_ト
  6
CONTINUOUS
 62
    7
 10
1586.5612742580001
 20
1015.9234994188
 11
1589.5602462329998
 21
1015.8449685738
  0
LINE
  8
_0-6_センタ_プレ_ト
  6
CONTINUOUS
 62
    7
 10
1592.5592182079999
 20
1015.7664377289
 11
1592.565762445
 21
1016.0163520602
  0
LINE
  8
_0-6_センタ_プレ_ト
  6
CONTINUOUS
 62
    7
 10
1589.5667904699999
 20
1016.0948829051
 11
1592.565762445
 21
1016.0163520602
  0
LINE
  8
_0-6_センタ_プレ_ト
  6
CONTINUOUS
 62
    7
 10
1595.5581901820001
 20
1015.687906884
 11
1595.5647344200001
 21
1015.9378212152001
  0
LINE
  8
_0-6_センタ_プレ_ト
  6
CONTINUOUS
 62
    7
 10
1592.5592182079999
 20
1015.7664377289
 11
1595.5581901820001
 21
1015.687906884
  0
LINE
  8
_0-6_センタ_プレ_ト
  6
CONTINUOUS
 62
    7
 10
1598.5571621570002
 20
1015.6093760391
 11
1598.5637063939998
 21
1015.8592903703001
  0
LINE
  8
_0-6_センタ_プレ_ト
  6
CONTINUOUS
 62
    7
 10
1595.5647344200001
 20
1015.9378212152001
 11
1598.5637063939998
 21
1015.8592903703001
  0
LINE
  8
_0-6_センタ_プレ_ト
  6
CONTINUOUS
 62
    7
 10
1601.5561341319999
 20
1015.5308451942
 11
1601.562678369
 21
1015.7807595254001
  0
LINE
  8
_0-6_センタ_プレ_ト
  6
CONTINUOUS
 62
    7
 10
1598.5571621570002
 20
1015.6093760391
 11
1601.5561341319999
 21
1015.5308451942
  0
LINE
  8
_0-6_センタ_プレ_ト
  6
CONTINUOUS
 62
    7
 10
1604.555106107
 20
1015.4523143492
 11
1604.5616503440001
 21
1015.7022286805001
  0
LINE
  8
_0-6_センタ_プレ_ト
  6
CONTINUOUS
 62
    7
 10
1601.562678369
 20
1015.7807595254001
 11
1604.5616503440001
 21
1015.7022286805001
  0
LINE
  8
_0-6_センタ_プレ_ト
  6
CONTINUOUS
 62
    7
 10
1607.5540780820002
 20
1015.3737835043
 11
1607.5606223190002
 21
1015.6236978355
  0
LINE
  8
_0-6_センタ_プレ_ト
  6
CONTINUOUS
 62
    7
 10
1604.555106107
 20
1015.4523143492
 11
1607.5540780820002
 21
1015.3737835043
  0
LINE
  8
_0-6_センタ_プレ_ト
  6
CONTINUOUS
 62
    7
 10
1610.5530500569998
 20
1015.2952526594
 11
1610.5595942939999
 21
1015.5451669906
  0
LINE
  8
_0-6_センタ_プレ_ト
  6
CONTINUOUS
 62
    7
 10
1607.5606223190002
 20
1015.6236978355
 11
1610.5595942939999
 21
1015.5451669906
  0
LINE
  8
_0-6_センタ_プレ_ト
  6
CONTINUOUS
 62
    7
 10
1613.552022032
 20
1015.2167218145
 11
1613.558566269
 21
1015.4666361457
  0
LINE
  8
_0-6_センタ_プレ_ト
  6
CONTINUOUS
 62
    7
 10
1610.5530500569998
 20
1015.2952526594
 11
1613.552022032
 21
1015.2167218145
  0
LINE
  8
_0-6_センタ_プレ_ト
  6
CONTINUOUS
 62
    7
 10
1616.5509940070001
 20
1015.1381909695
 11
1616.5575382440002
 21
1015.3881053008
  0
LINE
  8
_0-6_センタ_プレ_ト
  6
CONTINUOUS
 62
    7
 10
1613.558566269
 20
1015.4666361457
 11
1616.5575382440002
 21
1015.3881053008
  0
LINE
  8
_0-6_センタ_プレ_ト
  6
CONTINUOUS
 62
    7
 10
1619.5499659820002
 20
1015.0596601246
 11
1619.5565102189998
 21
1015.3095744559
  0
LINE
  8
_0-6_センタ_プレ_ト
  6
CONTINUOUS
 62
    7
 10
1616.5509940070001
 20
1015.1381909695
 11
1619.5499659820002
 21
1015.0596601246
  0
LINE
  8
_0-6_センタ_プレ_ト
  6
CONTINUOUS
 62
    7
 10
1622.5489379569999
 20
1014.9811292797
 11
1622.555482194
 21
1015.2310436109
  0
LINE
  8
_0-6_センタ_プレ_ト
  6
CONTINUOUS
 62
    7
 10
1619.5565102189998
 20
1015.3095744559
 11
1622.555482194
 21
1015.2310436109
  0
LINE
  8
_0-6_センタ_プレ_ト
  6
CONTINUOUS
 62
    7
 10
1625.547909932
 20
1014.9025984348
 11
1625.5544541690001
 21
1015.152512766
  0
LINE
  8
_0-6_センタ_プレ_ト
  6
CONTINUOUS
 62
    7
 10
1622.5489379569999
 20
1014.9811292797
 11
1625.547909932
 21
1014.9025984348
  0
LINE
  8
_0-6_センタ_プレ_ト
  6
CONTINUOUS
 62
    7
 10
1628.5468819070002
 20
1014.8240675898001
 11
1628.5534261440002
 21
1015.0739819211
  0
LINE
  8
_0-6_センタ_プレ_ト
  6
CONTINUOUS
 62
    7
 10
1625.5544541690001
 20
1015.152512766
 11
1628.5534261440002
 21
1015.0739819211
  0
LINE
  8
_0-6_センタ_プレ_ト
  6
CONTINUOUS
 62
    7
 10
1631.5458538819998
 20
1014.7455367449001
 11
1631.5523981189999
 21
1014.9954510762
  0
LINE
  8
_0-6_センタ_プレ_ト
  6
CONTINUOUS
 62
    7
 10
1628.5468819070002
 20
1014.8240675898001
 11
1631.5458538819998
 21
1014.7455367449001
  0
LINE
  8
_0-6_センタ_プレ_ト
  6
CONTINUOUS
 62
    7
 10
1634.544825857
 20
1014.6670059
 11
1634.551370094
 21
1014.9169202312
  0
LINE
  8
_0-6_センタ_プレ_ト
  6
CONTINUOUS
 62
    7
 10
1631.5523981189999
 20
1014.9954510762
 11
1634.551370094
 21
1014.9169202312
  0
LINE
  8
_0-6_センタ_プレ_ト
  6
CONTINUOUS
 62
    7
 10
1637.5437978310001
 20
1014.5884750551
 11
1637.5503420690002
 21
1014.8383893863
  0
LINE
  8
_0-6_センタ_プレ_ト
  6
CONTINUOUS
 62
    7
 10
1634.544825857
 20
1014.6670059
 11
1637.5437978310001
 21
1014.5884750551
  0
LINE
  8
_0-6_センタ_プレ_ト
  6
CONTINUOUS
 62
    7
 10
1640.5427698060003
 20
1014.5099442101
 11
1640.5493140429999
 21
1014.7598585414
  0
LINE
  8
_0-6_センタ_プレ_ト
  6
CONTINUOUS
 62
    7
 10
1637.5503420690002
 20
1014.8383893863
 11
1640.5493140429999
 21
1014.7598585414
  0
LINE
  8
_0-6_センタ_プレ_ト
  6
CONTINUOUS
 62
    7
 10
1643.5417417809999
 20
1014.4314133652
 11
1643.548286018
 21
1014.6813276965
  0
LINE
  8
_0-6_センタ_プレ_ト
  6
CONTINUOUS
 62
    7
 10
1640.5427698060003
 20
1014.5099442101
 11
1643.5417417809999
 21
1014.4314133652
  0
LINE
  8
_0-6_センタ_プレ_ト
  6
CONTINUOUS
 62
    7
 10
1646.5407137560001
 20
1014.3528825203
 11
1646.5472579930001
 21
1014.6027968515
  0
LINE
  8
_0-6_センタ_プレ_ト
  6
CONTINUOUS
 62
    7
 10
1643.548286018
 20
1014.6813276965
 11
1646.5472579930001
 21
1014.6027968515
  0
LINE
  8
_0-6_センタ_プレ_ト
  6
CONTINUOUS
 62
    7
 10
1646.5407137560001
 20
1014.3528825203
 11
1648.0401997439999
 21
1014.3136170978
  0
LINE
  8
_0-6_センタ_プレ_ト
  6
CONTINUOUS
 62
    7
 10
1454.8069552430002
 20
1013.2494937181
 11
1454.6819552430002
 21
1013.4660000691
  0
LINE
  8
_0-6_センタ_プレ_ト
  6
CONTINUOUS
 62
    7
 10
1447.0127266089999
 20
1008.7494937181
 11
1446.8877266089999
 21
1008.9660000691
  0
LINE
  8
_0-6_センタ_プレ_ト
  6
CONTINUOUS
 62
    7
 10
1454.6819552430002
 20
1013.4660000691
 11
1452.0838790309999
 21
1011.9660000691
  0
LINE
  8
_0-6_センタ_プレ_ト
  6
CONTINUOUS
 62
    7
 10
1449.4858028200001
 20
1010.4660000691
 11
1446.8877266089999
 21
1008.9660000691
  0
LINE
  8
_0-6_センタ_プレ_ト
  6
CONTINUOUS
 62
    7
 10
1452.2088790309999
 20
1011.7494937181
 11
1452.0838790309999
 21
1011.9660000691
  0
LINE
  8
_0-6_センタ_プレ_ト
  6
CONTINUOUS
 62
    7
 10
1449.6108028200001
 20
1010.2494937181
 11
1449.4858028200001
 21
1010.4660000691
  0
LINE
  8
_0-6_センタ_プレ_ト
  6
CONTINUOUS
 62
    7
 10
1456.1059933480001
 20
1013.9994937181
 11
1454.8069552430002
 21
1013.2494937181
  0
LINE
  8
_0-6_センタ_プレ_ト
  6
CONTINUOUS
 62
    7
 10
1452.2088790309999
 20
1011.7494937181
 11
1449.6108028200001
 21
1010.2494937181
  0
LINE
  8
_0-6_センタ_プレ_ト
  6
CONTINUOUS
 62
    7
 10
1447.0127266089999
 20
1008.7494937181
 11
1445.713688503
 21
1007.9994937181
  0
LINE
  8
_0-6_センタ_プレ_ト
  6
CONTINUOUS
 62
    7
 10
1447.088688503
 20
1005.6179238577
 11
1445.713688503
 21
1007.9994937181
  0
LINE
  8
_0-6_センタ_プレ_ト
  6
CONTINUOUS
 62
    7
 10
1646.428666882
 20
1011.6048738916001
 11
1651.6586298830002
 21
1002.5463122524001
  0
LINE
  8
_0-6_センタ_プレ_ト
  6
CONTINUOUS
 62
    7
 10
1651.6586298830002
 20
1002.5463122524001
 11
1654.0401997439999
 21
1003.9213122524001
  0
LINE
  8
_0-6_センタ_プレ_ト
  6
CONTINUOUS
 62
    7
 10
1558.071040496
 20
1013.9185997662
 11
1646.428666882
 21
1011.6048738916001
  0
LINE
  8
_0-6_センタ_プレ_ト
  6
CONTINUOUS
 62
    7
 10
1456.8761516559998
 20
1011.2687183438001
 11
1447.088688503
 21
1005.6179238577
  0
LINE
  8
_0-6_センタ_プレ_ト
  6
CONTINUOUS
 62
    7
 10
1558.071040496
 20
1013.9185997662
 11
1456.8761516559998
 21
1011.2687183438001
  0
TEXT
  8
_0-0_0
 62
    7
 10
248.32997959742011
 20
1356.420353990153
 40
23.333333333333343
 41
0.7365159999999989
 50
0
  1
（ステンレス２００タイプ）
  0
TEXT
  8
_0-0_0
 62
    7
 10
1272.7510954544841
 20
1364.6828744698014
 40
23.333333333333329
 41
0.7365159999999987
 50
0
  1
（ステンレス２００タイプ）
  0
TEXT
  8
_0-0_0
 62
    7
 10
35.579217305753446
 20
1299.481828990153
 40
29.166666666666629
 41
0.8025180000000017
 50
0
  1
◇床－床（２００ＴＴ－ＧＰＳ）　Ｓ＝１／５
  0
TEXT
  8
_0-0_0
 62
    7
 10
1030.504492016983
 20
1302.6260328031349
 40
29.166666666666629
 41
0.803211000000001
 50
0
  1
◇床コーナー（２００ＴＣ－ＧＰＳ）　Ｓ＝１／５
  0
ENDSEC
  0
EOF
