  0
SECTION
  2
HEADER
  9
$ACADVER
  1
AC1009
  9
$INSBASE
 10
0
 20
0
 30
0
  9
$EXTMIN
 10
0
 20
0
  9
$EXTMAX
 10
1260
 20
891
  9
$LIMMIN
 10
0
 20
0
  9
$LIMMAX
 10
1260
 20
891
  9
$LTSCALE
 40
3
  0
ENDSEC
  0
SECTION
  2
TABLES
  0
TABLE
  2
LTYPE
 70
     9
  0
LTYPE
  2
CONTINUOUS
 70
    64
  3
実線
 72
    65
 73
     0
 40
0.0
  0
LTYPE
  2
DASHED1
 70
    64
  3
--  --  --  --  --  --  --  --  
 72
    65
 73
     2
 40
2.5
 49
1.25
 49
-1.25
  0
LTYPE
  2
DASHED2
 70
    64
  3
----    ----    ----    ----    
 72
    65
 73
     2
 40
5.0
 49
2.5
 49
-2.5
  0
LTYPE
  2
DASHED3
 70
    64
  3
------  ------  ------  ------  
 72
    65
 73
     2
 40
5.0
 49
3.75
 49
-1.25
  0
LTYPE
  2
CENTER1
 70
    64
  3
----- - ----- - ----- - ----- - 
 72
    65
 73
     4
 40
10.0
 49
6.25
 49
-1.25
 49
1.25
 49
-1.25
  0
LTYPE
  2
CENTER2
 70
    64
  3
----------  --  ----------  --  
 72
    65
 73
     4
 40
20.0
 49
12.5
 49
-2.5
 49
2.5
 49
-2.5
  0
LTYPE
  2
PHANTOM1
 70
    64
  3
--- - - --- - - --- - - --- - - 
 72
    65
 73
     6
 40
10.0
 49
3.25
 49
-1.25
 49
1.25
 49
-1.25
 49
1.25
 49
-1.25
  0
LTYPE
  2
PHANTOM2
 70
    64
  3
--------  -  -  --------  -  -  
 72
    65
 73
     6
 40
20.0
 49
10.0
 49
-2.5
 49
1.25
 49
-2.5
 49
1.25
 49
-2.5
  0
LTYPE
  2
DOT
 70
    64
  3
-   -   -   -   -   -   -   -   
 72
    65
 73
     2
 40
2.5
 49
0.625
 49
-1.875
  0
LTYPE
  2
DUMMY
 70
    64
  3
ダミー
 72
    65
 73
     0
 40
0.0
  0
LTYPE
  2
RAND1
 70
    64
  3
ランダム線1
 72
    65
 73
     4
 40
10.0
 49
1.0
 49
-2.0
 49
3.0
 49
-4.0
  0
LTYPE
  2
RAND2
 70
    64
  3
ランダム線2
 72
    65
 73
     4
 40
14.0
 49
2.0
 49
-3.0
 49
4.0
 49
-5.0
  0
LTYPE
  2
RAND3
 70
    64
  3
ランダム線3
 72
    65
 73
     4
 40
18.0
 49
3.0
 49
-4.0
 49
5.0
 49
-6.0
  0
LTYPE
  2
RAND4
 70
    64
  3
ランダム線4
 72
    65
 73
     4
 40
22.0
 49
4.0
 49
-5.0
 49
6.0
 49
-7.0
  0
LTYPE
  2
RAND5
 70
    64
  3
ランダム線5
 72
    65
 73
     4
 40
26.0
 49
5.0
 49
-6.0
 49
7.0
 49
-8.0
  0
LTYPE
  2
LONG1
 70
    64
  3
----------  --  ----------  --  
 72
    65
 73
     4
 40
40.0
 49
32.5
 49
-2.5
 49
2.5
 49
-2.5
  0
LTYPE
  2
LONG2
 70
    64
  3
--------  -  -  --------  -  -  
 72
    65
 73
     6
 40
40.0
 49
30.0
 49
-2.5
 49
1.25
 49
-2.5
 49
1.25
 49
-2.5
  0
LTYPE
  2
LONG3
 70
    64
  3
+++++++++++++++..+++++++++++++++
 72
    65
 73
     2
 40
40.0
 49
37.5
 49
-2.5
  0
LTYPE
  2
LONG4
 70
    64
  3
+++++++++++++++..+++++++++++++++
 72
    65
 73
     2
 40
80.0
 49
75.0
 49
-5.0
  0
LTYPE
  2
LONG5
 70
    64
  3
----------  --  ----------  --  
 72
    65
 73
     4
 40
60.0
 49
37.5
 49
-7.5
 49
7.5
 49
-7.5
  0
LTYPE
  2
dashed
 70
   64
  3
-------   -------------   ------
 72
   65
 73
    2
 40
7.5
 49
6
 49
-1.5
  0
LTYPE
  2
dashed_spaced
 70
   64
  3
----        --------        ----
 72
   65
 73
    2
 40
12
 49
6
 49
-6
  0
LTYPE
  2
long_dashed_dotted
 70
   64
  3
------------- --- --------------
 72
   65
 73
    4
 40
15.25
 49
12
 49
-1.5
 49
0.25
 49
-1.5
  0
LTYPE
  2
long_dashed_double-dotted
 70
   64
  3
----------- --- --- ------------
 72
   65
 73
    6
 40
17
 49
12
 49
-1.5
 49
0.25
 49
-1.5
 49
0.25
 49
-1.5
  0
LTYPE
  2
long_dashed_triplicate-dotted
 70
   64
  3
--------- --- --- --- ----------
 72
   65
 73
    8
 40
18.75
 49
12
 49
-1.5
 49
0.25
 49
-1.5
 49
0.25
 49
-1.5
 49
0.25
 49
-1.5
  0
LTYPE
  2
dotted
 70
   64
  3
   -       -       -       -    
 72
   65
 73
    2
 40
1.75
 49
0.25
 49
-1.5
  0
LTYPE
  2
chain
 70
   64
  3
-------------- -- --------------
 72
   65
 73
    4
 40
18.5
 49
12
 49
-1.5
 49
3.5
 49
-1.5
  0
LTYPE
  2
chain_double_dash
 70
   64
  3
------------ -- -- -------------
 72
   65
 73
    6
 40
23.5
 49
12
 49
-1.5
 49
3.5
 49
-1.5
 49
3.5
 49
-1.5
  0
LTYPE
  2
dashed_dotted
 70
   64
  3
-----------     -     ----------
 72
   65
 73
    4
 40
9.25
 49
6
 49
-1.5
 49
0.25
 49
-1.5
  0
LTYPE
  2
double-dashed_dotted
 70
   64
  3
------   -----------   -   -----
 72
   65
 73
    6
 40
16.75
 49
6
 49
-1.5
 49
6
 49
-1.5
 49
0.25
 49
-1.5
  0
LTYPE
  2
dashed_double-dotted
 70
   64
  3
---------    -    -    ---------
 72
   65
 73
    6
 40
11
 49
6
 49
-1.5
 49
0.25
 49
-1.5
 49
0.25
 49
-1.5
  0
LTYPE
  2
double-dashed_double-dotted
 70
   64
  3
-----   ---------   -   -   ----
 72
   65
 73
    8
 40
18.5
 49
6
 49
-1.5
 49
6
 49
-1.5
 49
0.25
 49
-1.5
 49
0.25
 49
-1.5
  0
LTYPE
  2
dashed_triplicate-dotted
 70
   64
  3
-------    -    -    -    ------
 72
   65
 73
    8
 40
12.75
 49
6
 49
-1.5
 49
0.25
 49
-1.5
 49
0.25
 49
-1.5
 49
0.25
 49
-1.5
  0
LTYPE
  2
double-dashed_triplicate-dotted
 70
   64
  3
-----  ---------  -  -  -  -----
 72
   65
 73
   10
 40
20.25
 49
6
 49
-1.5
 49
6
 49
-1.5
 49
0.25
 49
-1.5
 49
0.25
 49
-1.5
 49
0.25
 49
-1.5
  0
LTYPE
  2
undefined
 70
   64
  3
--------------------------------
 72
   65
 73
    0
 40
0
  0
LTYPE
  2
DOT_17
 70
   64
  3
----        --------        ----
 72
   65
 73
    2
 40
2
 49
1
 49
-1
  0
LTYPE
  2
DASHED
 70
   64
  3
----        --------        ----
 72
   65
 73
    2
 40
4
 49
2
 49
-2
  0
LTYPE
  2
DASHED2_19
 70
   64
  3
-----      ----------      -----
 72
   65
 73
    2
 40
8
 49
5
 49
-3
  0
LTYPE
  2
CENTER
 70
   64
  3
--------------- - --------------
 72
   65
 73
    4
 40
23
 49
20
 49
-1
 49
1
 49
-1
  0
LTYPE
  2
CENTERX2
 70
   64
  3
--------------- - --------------
 72
   65
 73
    4
 40
43
 49
40
 49
-1
 49
1
 49
-1
  0
LTYPE
  2
CENTER2_22
 70
   64
  3
-------------  --  -------------
 72
   65
 73
    4
 40
13
 49
10
 49
-1
 49
1
 49
-1
  0
LTYPE
  2
PHANTOM
 70
   64
  3
-------------- - - -------------
 72
   65
 73
    6
 40
25
 49
20
 49
-1
 49
1
 49
-1
 49
1
 49
-1
  0
LTYPE
  2
PHANTOMX2
 70
   64
  3
-------------- - - -------------
 72
   65
 73
    6
 40
45
 49
40
 49
-1
 49
1
 49
-1
 49
1
 49
-1
  0
LTYPE
  2
PHANTOM2_25
 70
   64
  3
-----------  --  --  -----------
 72
   65
 73
    6
 40
15
 49
10
 49
-1
 49
1
 49
-1
 49
1
 49
-1
  0
LTYPE
  2
ACAD_ISO06W100
 70
   64
  3
------------- - - - ------------
 72
   65
 73
    8
 40
47
 49
40
 49
-1
 49
1
 49
-1
 49
1
 49
-1
 49
1
 49
-1
  0
LTYPE
  2
ACAD_ISO14W100
 70
   64
  3
------------- - - - ------------
 72
   65
 73
    8
 40
27
 49
20
 49
-1
 49
1
 49
-1
 49
1
 49
-1
 49
1
 49
-1
  0
LTYPE
  2
ACAD_ISO11W100
 70
   64
  3
------- -------------- - -------
 72
   65
 73
    6
 40
44
 49
20
 49
-1
 49
20
 49
-1
 49
1
 49
-1
  0
LTYPE
  2
ACAD_ISO13W100
 70
   64
  3
------- ------------- - - ------
 72
   65
 73
    8
 40
46
 49
20
 49
-1
 49
20
 49
-1
 49
1
 49
-1
 49
1
 49
-1
  0
LTYPE
  2
HIDDEN
 70
   64
  3
------     -----------     -----
 72
   65
 73
    2
 40
1.5
 49
1
 49
-0.5
  0
ENDTAB
  0
TABLE
  2
STYLE
  5
3
100
AcDbSymbolTable
 70
     1
  0
STYLE
  5
10
100
AcDbSymbolTableRecord
100
AcDbTextStyleTableRecord
  2
STANDARD
 70
     0
 40
0.0
 41
1.0
 50
0.0
 71
     0
 42
0.2
  3
txt
  4
bigfont.shx
  0
STYLE
  5
26
100
AcDbSymbolTableRecord
100
AcDbTextStyleTableRecord
  2
TATEGAKI
 70
    68
 40
0.0
 41
1.0
 50
0.0
 71
     0
 42
1.0
  3
txt
  4
bigfont.shx
  0
ENDTAB
  0
TABLE
  2
LAYER
 70
   13
  0
LAYER
  2
_0-0_0
 70
   64
 62
    7
  6
CONTINUOUS
  0
LAYER
  2
_0-1_図面枠
 70
   64
 62
    7
  6
CONTINUOUS
  0
LAYER
  2
_0-3_躯体
 70
   64
 62
    7
  6
CONTINUOUS
  0
LAYER
  2
_0-4_止水補助板
 70
   64
 62
    7
  6
CONTINUOUS
  0
LAYER
  2
_0-5_フレ_ム
 70
   64
 62
    7
  6
CONTINUOUS
  0
LAYER
  2
_0-6_センタ_プレ_ト
 70
   64
 62
    7
  6
CONTINUOUS
  0
LAYER
  2
_0-7_サイド
 70
   64
 62
    7
  6
CONTINUOUS
  0
LAYER
  2
_0-8_小物
 70
   64
 62
    7
  6
CONTINUOUS
  0
LAYER
  2
_0-9_その他
 70
   64
 62
    7
  6
CONTINUOUS
  0
LAYER
  2
_0-a_寸法
 70
   64
 62
    7
  6
CONTINUOUS
  0
LAYER
  2
_0-b_レイヤ1
 70
   64
 62
    7
  6
CONTINUOUS
  0
LAYER
  2
_0-c_レイヤ8
 70
   64
 62
    7
  6
CONTINUOUS
  0
LAYER
  2
ADD_LINE
 70
   64
 62
    7
  6
CONTINUOUS
  0
ENDTAB
  0
ENDSEC
  0
SECTION
  2
BLOCKS
  0
ENDSEC
  0
SECTION
  2
ENTITIES
  0
LINE
  8
_0-1_図面枠
  6
CONTINUOUS
 62
    7
 10
86.774999999999949
 20
115.54765176114999
 11
1286.7749999999999
 21
115.54765176114999
  0
LINE
  8
_0-1_図面枠
  6
CONTINUOUS
 62
    7
 10
1286.7749999999999
 20
901.54765176114995
 11
86.774999999999949
 21
901.54765176114995
  0
LINE
  8
_0-1_図面枠
  6
CONTINUOUS
 62
    7
 10
86.774999999999949
 20
901.54765176114995
 11
86.774999999999949
 21
115.54765176114999
  0
LINE
  8
_0-1_図面枠
  6
CONTINUOUS
 62
    7
 10
686.77499999999998
 20
901.54765176114995
 11
686.77499999999998
 21
115.54765176114999
  0
LINE
  8
_0-1_図面枠
  6
CONTINUOUS
 62
    7
 10
1286.7749999999999
 20
115.54765176114999
 11
1286.7749999999999
 21
901.54765176114995
  0
LINE
  8
_0-5_フレ_ム
  6
CONTINUOUS
 62
    7
 10
288.86235296539996
 20
663.37735823884998
 11
288.86235296539996
 21
661.37735823885009
  0
LINE
  8
_0-5_フレ_ム
  6
CONTINUOUS
 62
    7
 10
303.86235296539996
 20
663.37735823884998
 11
303.86235296539996
 21
661.37735823885009
  0
LINE
  8
_0-5_フレ_ム
  6
CONTINUOUS
 62
    7
 10
296.86235296539996
 20
663.37735823884998
 11
316.36235296539996
 21
663.37735823884998
  0
ARC
  8
_0-5_フレ_ム
  6
CONTINUOUS
 62
    7
 10
274.86235296539996
 20
665.37735823885009
 40
2
 50
180
 51
270
  0
LINE
  8
_0-5_フレ_ム
  6
CONTINUOUS
 62
    7
 10
295.86235296539996
 20
663.37735823884998
 11
274.86235296539996
 21
663.37735823884998
  0
LINE
  8
_0-5_フレ_ム
  6
CONTINUOUS
 62
    7
 10
365.36235296539996
 20
660.87735823885009
 11
307.86235296539996
 21
660.87735823885009
  0
LINE
  8
_0-5_フレ_ム
  6
CONTINUOUS
 62
    7
 10
272.86235296539996
 20
665.37735823885009
 11
272.86235296539996
 21
676.87735823884998
  0
ARC
  8
_0-5_フレ_ム
  6
CONTINUOUS
 62
    7
 10
269.86235296539996
 20
677.37735823885009
 40
0.5
 50
270
 51
0
  0
LINE
  8
_0-5_フレ_ム
  6
CONTINUOUS
 62
    7
 10
269.86235296539996
 20
676.87735823884998
 11
268.36235296539996
 21
676.87735823884998
  0
LINE
  8
_0-5_フレ_ム
  6
CONTINUOUS
 62
    7
 10
266.86235296539996
 20
675.37735823884998
 11
269.36235296539996
 21
675.37735823884998
  0
ARC
  8
_0-5_フレ_ム
  6
CONTINUOUS
 62
    7
 10
269.36235296539996
 20
674.37735823885009
 40
1
 50
0
 51
90
  0
LINE
  8
_0-5_フレ_ム
  6
CONTINUOUS
 62
    7
 10
270.36235296539996
 20
674.37735823885009
 11
270.36235296539996
 21
665.37735823885009
  0
LINE
  8
_0-5_フレ_ム
  6
CONTINUOUS
 62
    7
 10
270.36235296539996
 20
677.37735823885009
 11
270.36235296539996
 21
681.37735823884998
  0
ARC
  8
_0-5_フレ_ム
  6
CONTINUOUS
 62
    7
 10
360.36235296539996
 20
667.37735823885009
 40
3
 50
270
 51
0
  0
LINE
  8
_0-5_フレ_ム
  6
CONTINUOUS
 62
    7
 10
284.86235296539996
 20
660.87735823885009
 11
284.86235296539996
 21
661.37735823885009
  0
LINE
  8
_0-5_フレ_ム
  6
CONTINUOUS
 62
    7
 10
284.86235296539996
 20
661.37735823885009
 11
289.86235296539996
 21
661.37735823885009
  0
LINE
  8
_0-5_フレ_ム
  6
CONTINUOUS
 62
    7
 10
289.86235296539996
 20
661.37735823885009
 11
289.86235296539996
 21
660.87735823885009
  0
LINE
  8
_0-5_フレ_ム
  6
CONTINUOUS
 62
    7
 10
302.86235296539996
 20
660.87735823885009
 11
302.86235296539996
 21
661.37735823885009
  0
LINE
  8
_0-5_フレ_ム
  6
CONTINUOUS
 62
    7
 10
302.86235296539996
 20
661.37735823885009
 11
307.86235296539996
 21
661.37735823885009
  0
LINE
  8
_0-5_フレ_ム
  6
CONTINUOUS
 62
    7
 10
307.86235296539996
 20
661.37735823885009
 11
307.86235296539996
 21
660.87735823885009
  0
LINE
  8
_0-5_フレ_ム
  6
CONTINUOUS
 62
    7
 10
284.86235296539996
 20
660.87735823885009
 11
267.86235296539996
 21
660.87735823885009
  0
LINE
  8
_0-5_フレ_ム
  6
CONTINUOUS
 62
    7
 10
262.86235296539996
 20
660.87735823885009
 11
249.86235296539996
 21
660.87735823885009
  0
LINE
  8
_0-5_フレ_ム
  6
CONTINUOUS
 62
    7
 10
244.86235296539996
 20
660.87735823885009
 11
241.86235296539996
 21
660.87735823885009
  0
LINE
  8
_0-5_フレ_ム
  6
CONTINUOUS
 62
    7
 10
289.86235296539996
 20
660.87735823885009
 11
302.86235296539996
 21
660.87735823885009
  0
LINE
  8
_0-5_フレ_ム
  6
CONTINUOUS
 62
    7
 10
296.86235296539996
 20
663.37735823884998
 11
296.36235296539996
 21
662.87735823885009
  0
LINE
  8
_0-5_フレ_ム
  6
CONTINUOUS
 62
    7
 10
295.86235296539996
 20
663.37735823884998
 11
296.36235296539996
 21
662.87735823885009
  0
ARC
  8
_0-5_フレ_ム
  6
CONTINUOUS
 62
    7
 10
365.36235296539996
 20
661.87735823884998
 40
1
 50
270
 51
0
  0
LINE
  8
_0-5_フレ_ム
  6
CONTINUOUS
 62
    7
 10
366.36235296539996
 20
670.62735823885009
 11
366.36235296539996
 21
661.87735823884998
  0
ARC
  8
_0-5_フレ_ム
  6
CONTINUOUS
 62
    7
 10
266.86235296539996
 20
675.87735823885009
 40
0.5
 50
180
 51
270
  0
LINE
  8
_0-5_フレ_ム
  6
CONTINUOUS
 62
    7
 10
266.36235296539996
 20
683.62735823884998
 11
266.36235296539996
 21
675.87735823885009
  0
ARC
  8
_0-5_フレ_ム
  6
CONTINUOUS
 62
    7
 10
268.36235296539996
 20
677.37735823885009
 40
0.5
 50
180
 51
270
  0
LINE
  8
_0-5_フレ_ム
  6
CONTINUOUS
 62
    7
 10
267.86235296539996
 20
683.62735823884998
 11
267.86235296539996
 21
677.37735823885009
  0
LINE
  8
_0-5_フレ_ム
  6
CONTINUOUS
 62
    7
 10
273.86235296539996
 20
680.37735823885009
 11
273.86235296539996
 21
681.37735823884998
  0
LINE
  8
_0-5_フレ_ム
  6
CONTINUOUS
 62
    7
 10
281.86235296539996
 20
680.37735823885009
 11
278.36235296539996
 21
680.37735823885009
  0
LINE
  8
_0-5_フレ_ム
  6
CONTINUOUS
 62
    7
 10
273.86235296539996
 20
680.37735823885009
 11
277.36235296539996
 21
680.37735823885009
  0
LINE
  8
_0-5_フレ_ム
  6
CONTINUOUS
 62
    7
 10
281.86235296539996
 20
680.37735823885009
 11
281.86235296539996
 21
681.37735823884998
  0
ARC
  8
_0-5_フレ_ム
  6
CONTINUOUS
 62
    7
 10
282.36235296539996
 20
681.37735823884998
 40
0.5
 50
90
 51
180
  0
ARC
  8
_0-5_フレ_ム
  6
CONTINUOUS
 62
    7
 10
284.86235296539996
 20
681.37735823884998
 40
0.5
 50
0
 51
90
  0
LINE
  8
_0-5_フレ_ム
  6
CONTINUOUS
 62
    7
 10
282.36235296539996
 20
681.87735823885009
 11
284.86235296539996
 21
681.87735823885009
  0
ARC
  8
_0-5_フレ_ム
  6
CONTINUOUS
 62
    7
 10
270.86235296539996
 20
681.37735823884998
 40
0.5
 50
90
 51
180
  0
ARC
  8
_0-5_フレ_ム
  6
CONTINUOUS
 62
    7
 10
273.36235296539996
 20
681.37735823884998
 40
0.5
 50
0
 51
90
  0
LINE
  8
_0-5_フレ_ム
  6
CONTINUOUS
 62
    7
 10
285.36235296539996
 20
679.87735823884998
 11
285.36235296539996
 21
681.37735823884998
  0
ARC
  8
_0-5_フレ_ム
  6
CONTINUOUS
 62
    7
 10
283.36235296539996
 20
679.87735823884998
 40
2
 50
270
 51
0
  0
ARC
  8
_0-5_フレ_ム
  6
CONTINUOUS
 62
    7
 10
273.86235296539996
 20
676.87735823884998
 40
1
 50
90
 51
180
  0
LINE
  8
_0-5_フレ_ム
  6
CONTINUOUS
 62
    7
 10
283.36235296539996
 20
677.87735823885009
 11
273.86235296539996
 21
677.87735823885009
  0
ARC
  8
_0-5_フレ_ム
  6
CONTINUOUS
 62
    7
 10
267.11235296539996
 20
683.62735823884998
 40
0.75
 50
0
 51
180
  0
LINE
  8
_0-5_フレ_ム
  6
CONTINUOUS
 62
    7
 10
278.36235296539996
 20
680.37735823885009
 11
277.86235296539996
 21
679.87735823884998
  0
LINE
  8
_0-5_フレ_ム
  6
CONTINUOUS
 62
    7
 10
277.36235296539996
 20
680.37735823885009
 11
277.86235296539996
 21
679.87735823884998
  0
LINE
  8
_0-5_フレ_ム
  6
CONTINUOUS
 62
    7
 10
282.36235296539996
 20
681.87735823885009
 11
284.86235296539996
 21
681.87735823885009
  0
LINE
  8
_0-5_フレ_ム
  6
CONTINUOUS
 62
    7
 10
248.86235296539996
 20
663.37735823884998
 11
248.86235296539996
 21
661.37735823885009
  0
LINE
  8
_0-5_フレ_ム
  6
CONTINUOUS
 62
    7
 10
263.86235296539996
 20
663.37735823884998
 11
263.86235296539996
 21
661.37735823885009
  0
LINE
  8
_0-5_フレ_ム
  6
CONTINUOUS
 62
    7
 10
244.86235296539996
 20
660.87735823885009
 11
244.86235296539996
 21
661.37735823885009
  0
LINE
  8
_0-5_フレ_ム
  6
CONTINUOUS
 62
    7
 10
244.86235296539996
 20
661.37735823885009
 11
249.86235296539996
 21
661.37735823885009
  0
LINE
  8
_0-5_フレ_ム
  6
CONTINUOUS
 62
    7
 10
249.86235296539996
 20
661.37735823885009
 11
249.86235296539996
 21
660.87735823885009
  0
LINE
  8
_0-5_フレ_ム
  6
CONTINUOUS
 62
    7
 10
262.86235296539996
 20
660.87735823885009
 11
262.86235296539996
 21
661.37735823885009
  0
LINE
  8
_0-5_フレ_ム
  6
CONTINUOUS
 62
    7
 10
262.86235296539996
 20
661.37735823885009
 11
267.86235296539996
 21
661.37735823885009
  0
LINE
  8
_0-5_フレ_ム
  6
CONTINUOUS
 62
    7
 10
267.86235296539996
 20
661.37735823885009
 11
267.86235296539996
 21
660.87735823885009
  0
ARC
  8
_0-5_フレ_ム
  6
CONTINUOUS
 62
    7
 10
268.36235296539996
 20
665.37735823885009
 40
2
 50
270
 51
0
  0
ARC
  8
_0-5_フレ_ム
  6
CONTINUOUS
 62
    7
 10
241.86235296539996
 20
661.37735823885009
 40
0.5
 50
180
 51
270
  0
ARC
  8
_0-5_フレ_ム
  6
CONTINUOUS
 62
    7
 10
241.86235296539996
 20
662.87735823885009
 40
0.5
 50
90
 51
180
  0
LINE
  8
_0-5_フレ_ム
  6
CONTINUOUS
 62
    7
 10
268.36235296539996
 20
663.37735823884998
 11
241.86235296539996
 21
663.37735823884998
  0
LINE
  8
_0-5_フレ_ム
  6
CONTINUOUS
 62
    7
 10
241.36235296539999
 20
662.87735823885009
 11
241.36235296539999
 21
661.37735823885009
  0
LINE
  8
_0-5_フレ_ム
  6
CONTINUOUS
 62
    7
 10
270.86235296539996
 20
681.87735823885009
 11
273.36235296539996
 21
681.87735823885009
  0
LINE
  8
_0-5_フレ_ム
  6
CONTINUOUS
 62
    7
 10
270.86235296539996
 20
681.87735823885009
 11
273.36235296539996
 21
681.87735823885009
  0
LINE
  8
_0-5_フレ_ム
  6
CONTINUOUS
 62
    7
 10
316.36235296539996
 20
663.37735823884998
 11
321.36235296539996
 21
664.37735823885009
  0
LINE
  8
_0-5_フレ_ム
  6
CONTINUOUS
 62
    7
 10
321.36235296539996
 20
664.37735823885009
 11
360.36235296539996
 21
664.37735823885009
  0
LINE
  8
_0-5_フレ_ム
  6
CONTINUOUS
 62
    7
 10
367.86235296539996
 20
675.62735823885009
 11
367.86235296539996
 21
670.62735823885009
  0
LINE
  8
_0-5_フレ_ム
  6
CONTINUOUS
 62
    7
 10
367.86235296539996
 20
670.62735823885009
 11
366.36235296539996
 21
670.62735823885009
  0
LINE
  8
_0-5_フレ_ム
  6
CONTINUOUS
 62
    7
 10
363.36235296539996
 20
670.62735823885009
 11
361.86235296539996
 21
670.62735823885009
  0
LINE
  8
_0-5_フレ_ム
  6
CONTINUOUS
 62
    7
 10
361.86235296539996
 20
670.62735823885009
 11
361.86235296539996
 21
675.62735823885009
  0
LINE
  8
_0-5_フレ_ム
  6
CONTINUOUS
 62
    7
 10
363.36235296539996
 20
675.62735823885009
 11
363.36235796539995
 21
672.62735823885009
  0
LINE
  8
_0-5_フレ_ム
  6
CONTINUOUS
 62
    7
 10
363.36235796539995
 20
670.62735823885009
 11
363.36235296539996
 21
667.37735323885011
  0
LINE
  8
_0-5_フレ_ム
  6
CONTINUOUS
 62
    7
 10
366.36235296539996
 20
675.62735823885009
 11
366.36235296539996
 21
672.62735823885009
  0
ARC
  8
_0-5_フレ_ム
  6
CONTINUOUS
 62
    7
 10
364.86235296539996
 20
675.62735823885009
 40
1.7
 50
0
 51
180
  0
ARC
  8
_0-5_フレ_ム
  6
CONTINUOUS
 62
    7
 10
364.8623629654
 20
675.62735823885009
 40
1.499995
 50
0
 51
180
  0
ARC
  8
_0-5_フレ_ム
  6
CONTINUOUS
 62
    7
 10
364.86235296539996
 20
675.62735823885009
 40
3
 50
0
 51
180
  0
LINE
  8
_0-5_フレ_ム
  6
CONTINUOUS
 62
    7
 10
363.36235796539995
 20
672.62735823885009
 11
363.86235796539995
 21
672.62735823885009
  0
LINE
  8
_0-5_フレ_ム
  6
CONTINUOUS
 62
    7
 10
363.86235796539995
 20
672.62735823885009
 11
363.36235296539996
 21
670.62735823885009
  0
LINE
  8
_0-5_フレ_ム
  6
CONTINUOUS
 62
    7
 10
366.36235296539996
 20
672.62735823885009
 11
365.86235296539996
 21
672.62735823885009
  0
LINE
  8
_0-5_フレ_ム
  6
CONTINUOUS
 62
    7
 10
365.86235296539996
 20
672.62735823885009
 11
366.36235296539996
 21
670.62735823885009
  0
LINE
  8
_0-5_フレ_ム
  6
CONTINUOUS
 62
    7
 10
363.36235796539995
 20
672.62735823885009
 11
363.16235796539996
 21
672.62735823885009
  0
LINE
  8
_0-5_フレ_ム
  6
CONTINUOUS
 62
    7
 10
363.16235796539996
 20
672.62735823885009
 11
363.16235296539998
 21
675.62735823885009
  0
LINE
  8
_0-5_フレ_ム
  6
CONTINUOUS
 62
    7
 10
366.36235296539996
 20
672.62735823885009
 11
366.56235296539995
 21
672.62735823885009
  0
LINE
  8
_0-5_フレ_ム
  6
CONTINUOUS
 62
    7
 10
366.56235296539995
 20
672.62735823885009
 11
366.56235296539995
 21
675.62735823885009
  0
LINE
  8
_0-5_フレ_ム
  6
CONTINUOUS
 62
    7
 10
573.86235296539996
 20
663.37735823884998
 11
573.86235296539996
 21
661.37735823885009
  0
LINE
  8
_0-5_フレ_ム
  6
CONTINUOUS
 62
    7
 10
558.86235296539996
 20
663.37735823884998
 11
558.86235296539996
 21
661.37735823885009
  0
LINE
  8
_0-5_フレ_ム
  6
CONTINUOUS
 62
    7
 10
565.86235296539996
 20
663.37735823884998
 11
546.36235296539996
 21
663.37735823884998
  0
ARC
  8
_0-5_フレ_ム
  6
CONTINUOUS
 62
    7
 10
587.86235296539996
 20
665.37735823885009
 40
2
 50
270
 51
0
  0
LINE
  8
_0-5_フレ_ム
  6
CONTINUOUS
 62
    7
 10
566.86235296539996
 20
663.37735823884998
 11
587.86235296539996
 21
663.37735823884998
  0
LINE
  8
_0-5_フレ_ム
  6
CONTINUOUS
 62
    7
 10
497.36235296539996
 20
660.87735823885009
 11
554.86235296539996
 21
660.87735823885009
  0
LINE
  8
_0-5_フレ_ム
  6
CONTINUOUS
 62
    7
 10
589.86235296539996
 20
665.37735823885009
 11
589.86235296539996
 21
676.87735823884998
  0
ARC
  8
_0-5_フレ_ム
  6
CONTINUOUS
 62
    7
 10
592.86235296539996
 20
677.37735823885009
 40
0.5
 50
180
 51
270
  0
LINE
  8
_0-5_フレ_ム
  6
CONTINUOUS
 62
    7
 10
592.86235296539996
 20
676.87735823884998
 11
594.36235296539996
 21
676.87735823884998
  0
LINE
  8
_0-5_フレ_ム
  6
CONTINUOUS
 62
    7
 10
595.86235296539996
 20
675.37735823884998
 11
593.36235296539996
 21
675.37735823884998
  0
ARC
  8
_0-5_フレ_ム
  6
CONTINUOUS
 62
    7
 10
593.36235296539996
 20
674.37735823885009
 40
1
 50
90
 51
180
  0
LINE
  8
_0-5_フレ_ム
  6
CONTINUOUS
 62
    7
 10
592.36235296539996
 20
674.37735823885009
 11
592.36235296539996
 21
665.37735823885009
  0
LINE
  8
_0-5_フレ_ム
  6
CONTINUOUS
 62
    7
 10
592.36235296539996
 20
677.37735823885009
 11
592.36235296539996
 21
681.37735823884998
  0
ARC
  8
_0-5_フレ_ム
  6
CONTINUOUS
 62
    7
 10
502.36235296539996
 20
667.37735823885009
 40
3
 50
180
 51
270
  0
LINE
  8
_0-5_フレ_ム
  6
CONTINUOUS
 62
    7
 10
577.86235296539996
 20
660.87735823885009
 11
577.86235296539996
 21
661.37735823885009
  0
LINE
  8
_0-5_フレ_ム
  6
CONTINUOUS
 62
    7
 10
577.86235296539996
 20
661.37735823885009
 11
572.86235296539996
 21
661.37735823885009
  0
LINE
  8
_0-5_フレ_ム
  6
CONTINUOUS
 62
    7
 10
572.86235296539996
 20
661.37735823885009
 11
572.86235296539996
 21
660.87735823885009
  0
LINE
  8
_0-5_フレ_ム
  6
CONTINUOUS
 62
    7
 10
559.86235296539996
 20
660.87735823885009
 11
559.86235296539996
 21
661.37735823885009
  0
LINE
  8
_0-5_フレ_ム
  6
CONTINUOUS
 62
    7
 10
559.86235296539996
 20
661.37735823885009
 11
554.86235296539996
 21
661.37735823885009
  0
LINE
  8
_0-5_フレ_ム
  6
CONTINUOUS
 62
    7
 10
554.86235296539996
 20
661.37735823885009
 11
554.86235296539996
 21
660.87735823885009
  0
LINE
  8
_0-5_フレ_ム
  6
CONTINUOUS
 62
    7
 10
577.86235296539996
 20
660.87735823885009
 11
594.86235296539996
 21
660.87735823885009
  0
LINE
  8
_0-5_フレ_ム
  6
CONTINUOUS
 62
    7
 10
599.86235296539996
 20
660.87735823885009
 11
612.86235296539996
 21
660.87735823885009
  0
LINE
  8
_0-5_フレ_ム
  6
CONTINUOUS
 62
    7
 10
617.86235296539996
 20
660.87735823885009
 11
620.86235296539996
 21
660.87735823885009
  0
LINE
  8
_0-5_フレ_ム
  6
CONTINUOUS
 62
    7
 10
572.86235296539996
 20
660.87735823885009
 11
559.86235296539996
 21
660.87735823885009
  0
LINE
  8
_0-5_フレ_ム
  6
CONTINUOUS
 62
    7
 10
565.86235296539996
 20
663.37735823884998
 11
566.36235296539996
 21
662.87735823885009
  0
LINE
  8
_0-5_フレ_ム
  6
CONTINUOUS
 62
    7
 10
566.86235296539996
 20
663.37735823884998
 11
566.36235296539996
 21
662.87735823885009
  0
ARC
  8
_0-5_フレ_ム
  6
CONTINUOUS
 62
    7
 10
497.36235296539996
 20
661.87735823884998
 40
1
 50
180
 51
270
  0
LINE
  8
_0-5_フレ_ム
  6
CONTINUOUS
 62
    7
 10
496.36235296539996
 20
670.62735823885009
 11
496.36235296539996
 21
661.87735823884998
  0
ARC
  8
_0-5_フレ_ム
  6
CONTINUOUS
 62
    7
 10
595.86235296539996
 20
675.87735823885009
 40
0.5
 50
270
 51
0
  0
LINE
  8
_0-5_フレ_ム
  6
CONTINUOUS
 62
    7
 10
596.36235296539996
 20
683.62735823884998
 11
596.36235296539996
 21
675.87735823885009
  0
ARC
  8
_0-5_フレ_ム
  6
CONTINUOUS
 62
    7
 10
594.36235296539996
 20
677.37735823885009
 40
0.5
 50
270
 51
0
  0
LINE
  8
_0-5_フレ_ム
  6
CONTINUOUS
 62
    7
 10
594.86235296539996
 20
683.62735823884998
 11
594.86235296539996
 21
677.37735823885009
  0
LINE
  8
_0-5_フレ_ム
  6
CONTINUOUS
 62
    7
 10
588.86235296539996
 20
680.37735823885009
 11
588.86235296539996
 21
681.37735823884998
  0
LINE
  8
_0-5_フレ_ム
  6
CONTINUOUS
 62
    7
 10
580.86235296539996
 20
680.37735823885009
 11
584.36235296539996
 21
680.37735823885009
  0
LINE
  8
_0-5_フレ_ム
  6
CONTINUOUS
 62
    7
 10
588.86235296539996
 20
680.37735823885009
 11
585.36235296539996
 21
680.37735823885009
  0
LINE
  8
_0-5_フレ_ム
  6
CONTINUOUS
 62
    7
 10
580.86235296539996
 20
680.37735823885009
 11
580.86235296539996
 21
681.37735823884998
  0
ARC
  8
_0-5_フレ_ム
  6
CONTINUOUS
 62
    7
 10
580.36235296539996
 20
681.37735823884998
 40
0.5
 50
0
 51
90
  0
ARC
  8
_0-5_フレ_ム
  6
CONTINUOUS
 62
    7
 10
577.86235296539996
 20
681.37735823884998
 40
0.5
 50
90
 51
180
  0
LINE
  8
_0-5_フレ_ム
  6
CONTINUOUS
 62
    7
 10
580.36235296539996
 20
681.87735823885009
 11
577.86235296539996
 21
681.87735823885009
  0
ARC
  8
_0-5_フレ_ム
  6
CONTINUOUS
 62
    7
 10
591.86235296539996
 20
681.37735823884998
 40
0.5
 50
0
 51
90
  0
ARC
  8
_0-5_フレ_ム
  6
CONTINUOUS
 62
    7
 10
589.36235296539996
 20
681.37735823884998
 40
0.5
 50
90
 51
180
  0
LINE
  8
_0-5_フレ_ム
  6
CONTINUOUS
 62
    7
 10
577.36235296539996
 20
679.87735823884998
 11
577.36235296539996
 21
681.37735823884998
  0
ARC
  8
_0-5_フレ_ム
  6
CONTINUOUS
 62
    7
 10
579.36235296539996
 20
679.87735823884998
 40
2
 50
180
 51
270
  0
ARC
  8
_0-5_フレ_ム
  6
CONTINUOUS
 62
    7
 10
588.86235296539996
 20
676.87735823884998
 40
1
 50
0
 51
90
  0
LINE
  8
_0-5_フレ_ム
  6
CONTINUOUS
 62
    7
 10
579.36235296539996
 20
677.87735823885009
 11
588.86235296539996
 21
677.87735823885009
  0
ARC
  8
_0-5_フレ_ム
  6
CONTINUOUS
 62
    7
 10
595.61235296539996
 20
683.62735823884998
 40
0.75
 50
0
 51
180
  0
LINE
  8
_0-5_フレ_ム
  6
CONTINUOUS
 62
    7
 10
584.36235296539996
 20
680.37735823885009
 11
584.86235296539996
 21
679.87735823884998
  0
LINE
  8
_0-5_フレ_ム
  6
CONTINUOUS
 62
    7
 10
585.36235296539996
 20
680.37735823885009
 11
584.86235296539996
 21
679.87735823884998
  0
LINE
  8
_0-5_フレ_ム
  6
CONTINUOUS
 62
    7
 10
580.36235296539996
 20
681.87735823885009
 11
577.86235296539996
 21
681.87735823885009
  0
LINE
  8
_0-5_フレ_ム
  6
CONTINUOUS
 62
    7
 10
613.86235296539996
 20
663.37735823884998
 11
613.86235296539996
 21
661.37735823885009
  0
LINE
  8
_0-5_フレ_ム
  6
CONTINUOUS
 62
    7
 10
598.86235296539996
 20
663.37735823884998
 11
598.86235296539996
 21
661.37735823885009
  0
LINE
  8
_0-5_フレ_ム
  6
CONTINUOUS
 62
    7
 10
617.86235296539996
 20
660.87735823885009
 11
617.86235296539996
 21
661.37735823885009
  0
LINE
  8
_0-5_フレ_ム
  6
CONTINUOUS
 62
    7
 10
617.86235296539996
 20
661.37735823885009
 11
612.86235296539996
 21
661.37735823885009
  0
LINE
  8
_0-5_フレ_ム
  6
CONTINUOUS
 62
    7
 10
612.86235296539996
 20
661.37735823885009
 11
612.86235296539996
 21
660.87735823885009
  0
LINE
  8
_0-5_フレ_ム
  6
CONTINUOUS
 62
    7
 10
599.86235296539996
 20
660.87735823885009
 11
599.86235296539996
 21
661.37735823885009
  0
LINE
  8
_0-5_フレ_ム
  6
CONTINUOUS
 62
    7
 10
599.86235296539996
 20
661.37735823885009
 11
594.86235296539996
 21
661.37735823885009
  0
LINE
  8
_0-5_フレ_ム
  6
CONTINUOUS
 62
    7
 10
594.86235296539996
 20
661.37735823885009
 11
594.86235296539996
 21
660.87735823885009
  0
ARC
  8
_0-5_フレ_ム
  6
CONTINUOUS
 62
    7
 10
594.36235296539996
 20
665.37735823885009
 40
2
 50
180
 51
270
  0
ARC
  8
_0-5_フレ_ム
  6
CONTINUOUS
 62
    7
 10
620.86235296539996
 20
661.37735823885009
 40
0.5
 50
270
 51
0
  0
ARC
  8
_0-5_フレ_ム
  6
CONTINUOUS
 62
    7
 10
620.86235296539996
 20
662.87735823885009
 40
0.5
 50
0
 51
90
  0
LINE
  8
_0-5_フレ_ム
  6
CONTINUOUS
 62
    7
 10
594.36235296539996
 20
663.37735823884998
 11
620.86235296539996
 21
663.37735823884998
  0
LINE
  8
_0-5_フレ_ム
  6
CONTINUOUS
 62
    7
 10
621.36235296539996
 20
662.87735823885009
 11
621.36235296539996
 21
661.37735823885009
  0
LINE
  8
_0-5_フレ_ム
  6
CONTINUOUS
 62
    7
 10
591.86235296539996
 20
681.87735823885009
 11
589.36235296539996
 21
681.87735823885009
  0
LINE
  8
_0-5_フレ_ム
  6
CONTINUOUS
 62
    7
 10
591.86235296539996
 20
681.87735823885009
 11
589.36235296539996
 21
681.87735823885009
  0
LINE
  8
_0-5_フレ_ム
  6
CONTINUOUS
 62
    7
 10
546.36235296539996
 20
663.37735823884998
 11
541.36235296539996
 21
664.37735823885009
  0
LINE
  8
_0-5_フレ_ム
  6
CONTINUOUS
 62
    7
 10
541.36235296539996
 20
664.37735823885009
 11
502.36235296539996
 21
664.37735823885009
  0
LINE
  8
_0-5_フレ_ム
  6
CONTINUOUS
 62
    7
 10
494.86235296539996
 20
675.62735823885009
 11
494.86235296539996
 21
670.62735823885009
  0
LINE
  8
_0-5_フレ_ム
  6
CONTINUOUS
 62
    7
 10
494.86235296539996
 20
670.62735823885009
 11
496.36235296539996
 21
670.62735823885009
  0
LINE
  8
_0-5_フレ_ム
  6
CONTINUOUS
 62
    7
 10
499.36235296539996
 20
670.62735823885009
 11
500.86235296539996
 21
670.62735823885009
  0
LINE
  8
_0-5_フレ_ム
  6
CONTINUOUS
 62
    7
 10
500.86235296539996
 20
670.62735823885009
 11
500.86235296539996
 21
675.62735823885009
  0
LINE
  8
_0-5_フレ_ム
  6
CONTINUOUS
 62
    7
 10
499.36235296539996
 20
675.62735823885009
 11
499.36234796539998
 21
672.62735823885009
  0
LINE
  8
_0-5_フレ_ム
  6
CONTINUOUS
 62
    7
 10
499.36234796539998
 20
670.62735823885009
 11
499.36235296539996
 21
667.37735323885011
  0
LINE
  8
_0-5_フレ_ム
  6
CONTINUOUS
 62
    7
 10
496.36235296539996
 20
675.62735823885009
 11
496.36235296539996
 21
672.62735823885009
  0
ARC
  8
_0-5_フレ_ム
  6
CONTINUOUS
 62
    7
 10
497.86235296539996
 20
675.62735823885009
 40
1.7
 50
0
 51
180
  0
ARC
  8
_0-5_フレ_ム
  6
CONTINUOUS
 62
    7
 10
497.86234296539999
 20
675.62735823885009
 40
1.499995
 50
0
 51
180
  0
ARC
  8
_0-5_フレ_ム
  6
CONTINUOUS
 62
    7
 10
497.86235296539996
 20
675.62735823885009
 40
3
 50
0
 51
180
  0
LINE
  8
_0-5_フレ_ム
  6
CONTINUOUS
 62
    7
 10
499.36234796539998
 20
672.62735823885009
 11
498.86234796539998
 21
672.62735823885009
  0
LINE
  8
_0-5_フレ_ム
  6
CONTINUOUS
 62
    7
 10
498.86234796539998
 20
672.62735823885009
 11
499.36235296539996
 21
670.62735823885009
  0
LINE
  8
_0-5_フレ_ム
  6
CONTINUOUS
 62
    7
 10
496.36235296539996
 20
672.62735823885009
 11
496.86235296539996
 21
672.62735823885009
  0
LINE
  8
_0-5_フレ_ム
  6
CONTINUOUS
 62
    7
 10
496.86235296539996
 20
672.62735823885009
 11
496.36235296539996
 21
670.62735823885009
  0
LINE
  8
_0-5_フレ_ム
  6
CONTINUOUS
 62
    7
 10
499.36234796539998
 20
672.62735823885009
 11
499.56234796540002
 21
672.62735823885009
  0
LINE
  8
_0-5_フレ_ム
  6
CONTINUOUS
 62
    7
 10
499.56234796540002
 20
672.62735823885009
 11
499.56235296540001
 21
675.62735823885009
  0
LINE
  8
_0-5_フレ_ム
  6
CONTINUOUS
 62
    7
 10
496.36235296539996
 20
672.62735823885009
 11
496.16235296540003
 21
672.62735823885009
  0
LINE
  8
_0-5_フレ_ム
  6
CONTINUOUS
 62
    7
 10
496.16235296540003
 20
672.62735823885009
 11
496.16235296540003
 21
675.62735823885009
  0
LINE
  8
_0-3_躯体
  6
CONTINUOUS
 62
    7
 10
221.36235296539994
 20
659.87735823885009
 11
356.36235296539996
 21
659.87735823885009
  0
LINE
  8
_0-3_躯体
  6
CONTINUOUS
 62
    7
 10
236.36235296539994
 20
659.87735823885009
 11
236.36235296539994
 21
649.87735823884998
  0
LINE
  8
_0-3_躯体
  6
CONTINUOUS
 62
    7
 10
236.36235296539994
 20
649.87735823884998
 11
356.36235296539996
 21
649.87735823884998
  0
LINE
  8
_0-3_躯体
  6
CONTINUOUS
 62
    7
 10
641.36235296539996
 20
659.87735823885009
 11
506.36235296539996
 21
659.87735823885009
  0
LINE
  8
_0-3_躯体
  6
CONTINUOUS
 62
    7
 10
626.36235296539996
 20
659.87735823885009
 11
626.36235296539996
 21
649.87735823884998
  0
LINE
  8
_0-3_躯体
  6
CONTINUOUS
 62
    7
 10
626.36235296539996
 20
649.87735823884998
 11
506.36235296539996
 21
649.87735823884998
  0
LINE
  8
_0-4_止水補助板
  6
CONTINUOUS
 62
    7
 10
241.36235296539999
 20
660.87735823885009
 11
241.36235296539999
 21
659.87735823885009
  0
LINE
  8
_0-4_止水補助板
  6
CONTINUOUS
 62
    7
 10
356.36235296539996
 20
660.87735823885009
 11
241.36235296539999
 21
660.87735823885009
  0
LINE
  8
_0-4_止水補助板
  6
CONTINUOUS
 62
    7
 10
241.36235296539999
 20
659.87735823885009
 11
356.36235296539996
 21
659.87735823885009
  0
ARC
  8
_0-4_止水補助板
  6
CONTINUOUS
 62
    7
 10
356.36235296539996
 20
659.87735823885009
 40
1
 50
14.999999999989999
 51
90
  0
LINE
  8
_0-4_止水補助板
  6
CONTINUOUS
 62
    7
 10
357.32827879169997
 20
660.13617728394991
 11
365.43610491869998
 21
629.87735823884998
  0
LINE
  8
_0-4_止水補助板
  6
CONTINUOUS
 62
    7
 10
356.36235296539996
 20
659.87735823885009
 11
364.40082873829999
 21
629.87735823884998
  0
LINE
  8
_0-4_止水補助板
  6
CONTINUOUS
 62
    7
 10
621.36235296539996
 20
660.87735823885009
 11
621.36235296539996
 21
659.87735823885009
  0
LINE
  8
_0-4_止水補助板
  6
CONTINUOUS
 62
    7
 10
506.36235296539996
 20
660.87735823885009
 11
621.36235296539996
 21
660.87735823885009
  0
LINE
  8
_0-4_止水補助板
  6
CONTINUOUS
 62
    7
 10
621.36235296539996
 20
659.87735823885009
 11
506.36235296539996
 21
659.87735823885009
  0
ARC
  8
_0-4_止水補助板
  6
CONTINUOUS
 62
    7
 10
506.36235296539996
 20
659.87735823885009
 40
1
 50
90
 51
165.00000000000003
  0
LINE
  8
_0-4_止水補助板
  6
CONTINUOUS
 62
    7
 10
505.39642713909996
 20
660.13617728394991
 11
497.2886010121
 21
629.87735823884998
  0
LINE
  8
_0-4_止水補助板
  6
CONTINUOUS
 62
    7
 10
506.36235296539996
 20
659.87735823885009
 11
498.32387719249999
 21
629.87735823884998
  0
ARC
  8
_0-4_止水補助板
  6
CONTINUOUS
 62
    7
 10
431.36235296540002
 20
647.54224316295006
 40
68.251874266510001
 50
194.99999999999997
 51
345
  0
ARC
  8
_0-4_止水補助板
  6
CONTINUOUS
 62
    7
 10
431.36235296540002
 20
647.54224316295006
 40
69.251874266510001
 50
194.77831240809999
 51
345.22168759188003
  0
LINE
  8
_0-a_寸法
  6
CONTINUOUS
 62
    7
 10
266.36235667179994
 20
740.70441323885007
 11
271.36235667179994
 21
741.95441323885007
  0
LINE
  8
_0-a_寸法
  6
CONTINUOUS
 62
    7
 10
266.36235667179994
 20
740.70441323885007
 11
271.36235667179994
 21
739.45441323884995
  0
LINE
  8
_0-a_寸法
  6
CONTINUOUS
 62
    7
 10
596.36235296539996
 20
740.70441323885007
 11
591.36235296539996
 21
739.45441323884995
  0
LINE
  8
_0-a_寸法
  6
CONTINUOUS
 62
    7
 10
596.36235296539996
 20
740.70441323885007
 11
591.36235296539996
 21
741.95441323885007
  0
LINE
  8
_0-3_躯体
  6
CONTINUOUS
 62
    7
 10
266.36235296539996
 20
683.62735823884998
 11
266.36235296539996
 21
684.37735823884998
  0
LINE
  8
_0-3_躯体
  6
CONTINUOUS
 62
    7
 10
266.36235296539996
 20
684.37735823884998
 11
221.36235296539994
 21
684.37735823884998
  0
LINE
  8
_0-3_躯体
  6
CONTINUOUS
 62
    7
 10
221.36235296539994
 20
659.87735823885009
 11
221.36235296539994
 21
684.37735823884998
  0
LINE
  8
_0-3_躯体
  6
CONTINUOUS
 62
    7
 10
596.36235296539996
 20
683.62735823884998
 11
596.36235296539996
 21
684.37735823884998
  0
LINE
  8
_0-3_躯体
  6
CONTINUOUS
 62
    7
 10
596.36235296539996
 20
684.37735823884998
 11
641.36235296539996
 21
684.37735823884998
  0
LINE
  8
_0-3_躯体
  6
CONTINUOUS
 62
    7
 10
641.36235296539996
 20
659.87735823885009
 11
641.36235296539996
 21
684.37735823884998
  0
LINE
  8
_0-3_躯体
  6
CONTINUOUS
 62
    7
 10
221.36263639869998
 20
684.37735823884998
 11
221.36235296539994
 21
684.37707480555002
  0
LINE
  8
_0-3_躯体
  6
CONTINUOUS
 62
    7
 10
356.36235296539996
 20
652.49987444554995
 11
353.73983675879998
 21
649.87735823884998
  0
LINE
  8
_0-3_躯体
  6
CONTINUOUS
 62
    7
 10
356.36235296539996
 20
659.57094225735
 11
346.6687689469
 21
649.87735823884998
  0
LINE
  8
_0-3_躯体
  6
CONTINUOUS
 62
    7
 10
349.59770113499997
 20
659.87735823885009
 11
339.59770113499997
 21
649.87735823884998
  0
LINE
  8
_0-3_躯体
  6
CONTINUOUS
 62
    7
 10
342.52663332319997
 20
659.87735823885009
 11
332.52663332319997
 21
649.87735823884998
  0
LINE
  8
_0-3_躯体
  6
CONTINUOUS
 62
    7
 10
335.45556551129999
 20
659.87735823885009
 11
325.45556551129999
 21
649.87735823884998
  0
LINE
  8
_0-3_躯体
  6
CONTINUOUS
 62
    7
 10
328.38449769939996
 20
659.87735823885009
 11
318.38449769939996
 21
649.87735823884998
  0
LINE
  8
_0-3_躯体
  6
CONTINUOUS
 62
    7
 10
321.31342988759997
 20
659.87735823885009
 11
311.31342988759997
 21
649.87735823884998
  0
LINE
  8
_0-3_躯体
  6
CONTINUOUS
 62
    7
 10
314.24236207569999
 20
659.87735823885009
 11
304.24236207569999
 21
649.87735823884998
  0
LINE
  8
_0-3_躯体
  6
CONTINUOUS
 62
    7
 10
307.17129426379995
 20
659.87735823885009
 11
297.17129426379995
 21
649.87735823884998
  0
LINE
  8
_0-3_躯体
  6
CONTINUOUS
 62
    7
 10
300.10022645200002
 20
659.87735823885009
 11
290.10022645200002
 21
649.87735823884998
  0
LINE
  8
_0-3_躯体
  6
CONTINUOUS
 62
    7
 10
293.02915864009998
 20
659.87735823885009
 11
283.02915864009998
 21
649.87735823884998
  0
LINE
  8
_0-3_躯体
  6
CONTINUOUS
 62
    7
 10
285.95809082819994
 20
659.87735823885009
 11
275.95809082819994
 21
649.87735823884998
  0
LINE
  8
_0-3_躯体
  6
CONTINUOUS
 62
    7
 10
278.88702301640001
 20
659.87735823885009
 11
268.88702301640001
 21
649.87735823884998
  0
LINE
  8
_0-3_躯体
  6
CONTINUOUS
 62
    7
 10
271.81595520449997
 20
659.87735823885009
 11
261.81595520449997
 21
649.87735823884998
  0
LINE
  8
_0-3_躯体
  6
CONTINUOUS
 62
    7
 10
270.36235296539996
 20
665.49482381164989
 11
268.24488739259994
 21
663.37735823884998
  0
LINE
  8
_0-3_躯体
  6
CONTINUOUS
 62
    7
 10
264.74488739259994
 20
659.87735823885009
 11
254.74488739259994
 21
649.87735823884998
  0
LINE
  8
_0-3_躯体
  6
CONTINUOUS
 62
    7
 10
270.36235296539996
 20
672.56589162345006
 11
262.6738195808
 21
664.87735823884998
  0
LINE
  8
_0-3_躯体
  6
CONTINUOUS
 62
    7
 10
257.6738195808
 20
659.87735823885009
 11
247.6738195808
 21
649.87735823884998
  0
LINE
  8
_0-3_躯体
  6
CONTINUOUS
 62
    7
 10
266.40368795029997
 20
675.67829442024993
 11
258.54291053859998
 21
667.81751700855011
  0
LINE
  8
_0-3_躯体
  6
CONTINUOUS
 62
    7
 10
250.60275176889996
 20
659.87735823885009
 11
240.60275176889996
 21
649.87735823884998
  0
LINE
  8
_0-3_躯体
  6
CONTINUOUS
 62
    7
 10
266.36235296539996
 20
682.7080272472499
 11
248.53168395699998
 21
664.87735823884998
  0
LINE
  8
_0-3_躯体
  6
CONTINUOUS
 62
    7
 10
247.36235296539996
 20
663.70802724725002
 11
247.03168395699998
 21
663.37735823884998
  0
LINE
  8
_0-3_躯体
  6
CONTINUOUS
 62
    7
 10
243.53168395699998
 20
659.87735823885009
 11
236.36235296539994
 21
652.7080272472499
  0
LINE
  8
_0-3_躯体
  6
CONTINUOUS
 62
    7
 10
260.96061614519999
 20
684.37735823884998
 11
236.36235296539994
 21
659.77909505904995
  0
LINE
  8
_0-3_躯体
  6
CONTINUOUS
 62
    7
 10
253.88954833330001
 20
684.37735823884998
 11
229.38954833329998
 21
659.87735823885009
  0
LINE
  8
_0-3_躯体
  6
CONTINUOUS
 62
    7
 10
246.81848052149996
 20
684.37735823884998
 11
222.31848052149999
 21
659.87735823885009
  0
LINE
  8
_0-3_躯体
  6
CONTINUOUS
 62
    7
 10
239.74741270959996
 20
684.37735823884998
 11
221.36235296539994
 21
665.99229849464996
  0
LINE
  8
_0-3_躯体
  6
CONTINUOUS
 62
    7
 10
232.67634489770003
 20
684.37735823884998
 11
221.36235296539994
 21
673.06336630655005
  0
LINE
  8
_0-3_躯体
  6
CONTINUOUS
 62
    7
 10
225.60527708589996
 20
684.37735823884998
 11
221.36235296539994
 21
680.13443411844992
  0
LINE
  8
_0-3_躯体
  6
CONTINUOUS
 62
    7
 10
641.36235296539996
 20
661.72822978275008
 11
639.51148142149998
 21
659.87735823885009
  0
LINE
  8
_0-3_躯体
  6
CONTINUOUS
 62
    7
 10
641.36235296539996
 20
668.79929759464994
 11
632.4404136096
 21
659.87735823885009
  0
LINE
  8
_0-3_躯体
  6
CONTINUOUS
 62
    7
 10
626.36235296539996
 20
653.79929759464994
 11
622.4404136096
 21
649.87735823884998
  0
LINE
  8
_0-3_躯体
  6
CONTINUOUS
 62
    7
 10
641.36235296539996
 20
675.87036540644999
 11
615.36934579779995
 21
649.87735823884998
  0
LINE
  8
_0-3_躯体
  6
CONTINUOUS
 62
    7
 10
641.36235296539996
 20
682.94143321835008
 11
621.35868994309999
 21
662.93777019605
  0
LINE
  8
_0-3_躯体
  6
CONTINUOUS
 62
    7
 10
618.29827798589997
 20
659.87735823885009
 11
608.29827798589997
 21
649.87735823884998
  0
LINE
  8
_0-3_躯体
  6
CONTINUOUS
 62
    7
 10
635.72721017409992
 20
684.37735823884998
 11
615.36235296539996
 21
664.01250103024995
  0
LINE
  8
_0-3_躯体
  6
CONTINUOUS
 62
    7
 10
611.22721017409992
 20
659.87735823885009
 11
601.22721017409992
 21
649.87735823884998
  0
LINE
  8
_0-3_躯体
  6
CONTINUOUS
 62
    7
 10
628.65614236219994
 20
684.37735823884998
 11
610.48643601790002
 21
666.2076518946501
  0
LINE
  8
_0-3_躯体
  6
CONTINUOUS
 62
    7
 10
604.15614236219994
 20
659.87735823885009
 11
594.15614236219994
 21
649.87735823884998
  0
LINE
  8
_0-3_躯体
  6
CONTINUOUS
 62
    7
 10
621.58507455029996
 20
684.37735823884998
 11
605.39832726949999
 21
668.19061095805012
  0
LINE
  8
_0-3_躯体
  6
CONTINUOUS
 62
    7
 10
597.08507455029996
 20
659.87735823885009
 11
587.08507455029996
 21
649.87735823884998
  0
LINE
  8
_0-3_躯体
  6
CONTINUOUS
 62
    7
 10
614.51400673850003
 20
684.37735823884998
 11
593.64650520370003
 21
663.50985670415002
  0
LINE
  8
_0-3_躯体
  6
CONTINUOUS
 62
    7
 10
590.01400673850003
 20
659.87735823885009
 11
580.01400673850003
 21
649.87735823884998
  0
LINE
  8
_0-3_躯体
  6
CONTINUOUS
 62
    7
 10
607.44293892659994
 20
684.37735823884998
 11
592.36235296539996
 21
669.29677227765001
  0
LINE
  8
_0-3_躯体
  6
CONTINUOUS
 62
    7
 10
582.94293892659994
 20
659.87735823885009
 11
572.94293892659994
 21
649.87735823884998
  0
LINE
  8
_0-3_躯体
  6
CONTINUOUS
 62
    7
 10
600.37187111469996
 20
684.37735823884998
 11
596.36235296539996
 21
680.3678400895501
  0
LINE
  8
_0-3_躯体
  6
CONTINUOUS
 62
    7
 10
575.87187111469996
 20
659.87735823885009
 11
565.87187111469996
 21
649.87735823884998
  0
LINE
  8
_0-3_躯体
  6
CONTINUOUS
 62
    7
 10
568.80080330290002
 20
659.87735823885009
 11
558.80080330290002
 21
649.87735823884998
  0
LINE
  8
_0-3_躯体
  6
CONTINUOUS
 62
    7
 10
561.72973549100004
 20
659.87735823885009
 11
551.72973549099993
 21
649.87735823884998
  0
LINE
  8
_0-3_躯体
  6
CONTINUOUS
 62
    7
 10
554.65866767909995
 20
659.87735823885009
 11
544.65866767909995
 21
649.87735823884998
  0
LINE
  8
_0-3_躯体
  6
CONTINUOUS
 62
    7
 10
547.5875998672999
 20
659.87735823885009
 11
537.58759986730001
 21
649.87735823884998
  0
LINE
  8
_0-3_躯体
  6
CONTINUOUS
 62
    7
 10
540.51653205540003
 20
659.87735823885009
 11
530.51653205539992
 21
649.87735823884998
  0
LINE
  8
_0-3_躯体
  6
CONTINUOUS
 62
    7
 10
533.44546424350006
 20
659.87735823885009
 11
523.44546424349994
 21
649.87735823884998
  0
LINE
  8
_0-3_躯体
  6
CONTINUOUS
 62
    7
 10
526.37439643169989
 20
659.87735823885009
 11
516.37439643170001
 21
649.87735823884998
  0
LINE
  8
_0-3_躯体
  6
CONTINUOUS
 62
    7
 10
519.30332861980003
 20
659.87735823885009
 11
509.30332861979997
 21
649.87735823884998
  0
LINE
  8
_0-3_躯体
  6
CONTINUOUS
 62
    7
 10
512.23226080790005
 20
659.87735823885009
 11
506.36235296539996
 21
654.0074503963499
  0
LINE
  8
_0-a_寸法
  6
CONTINUOUS
 62
    7
 10
356.36234296539999
 20
579.29775323884996
 11
366.36235296539996
 21
579.29775323884996
  0
LINE
  8
_0-a_寸法
  6
CONTINUOUS
 62
    7
 10
366.36235296539996
 20
659.87735823885009
 11
366.36235296539996
 21
575.29775323885008
  0
LINE
  8
_0-a_寸法
  6
CONTINUOUS
 62
    7
 10
356.36234296539999
 20
579.29775323884996
 11
351.36234296539999
 21
578.04775323884996
  0
LINE
  8
_0-a_寸法
  6
CONTINUOUS
 62
    7
 10
356.36234296539999
 20
579.29775323884996
 11
351.36234296539999
 21
580.54775323885008
  0
LINE
  8
_0-a_寸法
  6
CONTINUOUS
 62
    7
 10
356.36234296539999
 20
579.29775323884996
 11
341.36234296539999
 21
579.29775323884996
  0
LINE
  8
_0-a_寸法
  6
CONTINUOUS
 62
    7
 10
366.36235296539996
 20
579.29775323884996
 11
371.36235296539996
 21
580.54775323885008
  0
LINE
  8
_0-a_寸法
  6
CONTINUOUS
 62
    7
 10
366.36235296539996
 20
579.29775323884996
 11
371.36235296539996
 21
578.04775323884996
  0
LINE
  8
_0-a_寸法
  6
CONTINUOUS
 62
    7
 10
366.36235296539996
 20
579.29775323884996
 11
381.36235296539996
 21
579.29775323884996
  0
LINE
  8
_0-a_寸法
  6
CONTINUOUS
 62
    7
 10
506.36235925899996
 20
579.29775323884996
 11
496.36234925899998
 21
579.29775323884996
  0
LINE
  8
_0-a_寸法
  6
CONTINUOUS
 62
    7
 10
506.36235925899996
 20
579.29775323884996
 11
511.36235925899996
 21
580.54775323885008
  0
LINE
  8
_0-a_寸法
  6
CONTINUOUS
 62
    7
 10
506.36235925899996
 20
579.29775323884996
 11
511.36235925899996
 21
578.04775323884996
  0
LINE
  8
_0-a_寸法
  6
CONTINUOUS
 62
    7
 10
506.36235925899996
 20
579.29775323884996
 11
521.36235925899996
 21
579.29775323884996
  0
LINE
  8
_0-a_寸法
  6
CONTINUOUS
 62
    7
 10
496.36234925899998
 20
579.29775323884996
 11
491.36234925899998
 21
578.04775323884996
  0
LINE
  8
_0-a_寸法
  6
CONTINUOUS
 62
    7
 10
496.36234925899998
 20
579.29775323884996
 11
491.36234925899998
 21
580.54775323885008
  0
LINE
  8
_0-a_寸法
  6
CONTINUOUS
 62
    7
 10
496.36234925899998
 20
579.29775323884996
 11
481.36234925899998
 21
579.29775323884996
  0
LINE
  8
_0-a_寸法
  6
CONTINUOUS
 62
    7
 10
202.1705929654
 20
684.37735823884998
 11
202.1705929654
 21
659.87735823885009
  0
LINE
  8
_0-a_寸法
  6
CONTINUOUS
 62
    7
 10
219.36235296539996
 20
684.37735823884998
 11
198.17059296539998
 21
684.37735823884998
  0
LINE
  8
_0-a_寸法
  6
CONTINUOUS
 62
    7
 10
219.36235296539996
 20
659.87735823885009
 11
198.17059296539998
 21
659.87735823885009
  0
LINE
  8
_0-a_寸法
  6
CONTINUOUS
 62
    7
 10
202.1705929654
 20
684.37735823884998
 11
203.42059296539998
 21
679.37735823885009
  0
LINE
  8
_0-a_寸法
  6
CONTINUOUS
 62
    7
 10
202.1705929654
 20
684.37735823884998
 11
200.92059296539995
 21
679.37735823885009
  0
LINE
  8
_0-a_寸法
  6
CONTINUOUS
 62
    7
 10
202.1705929654
 20
659.87735823885009
 11
200.92059296539995
 21
664.87735823884998
  0
LINE
  8
_0-a_寸法
  6
CONTINUOUS
 62
    7
 10
202.1705929654
 20
659.87735823885009
 11
203.42059296539998
 21
664.87735823884998
  0
LINE
  8
_0-a_寸法
  6
CONTINUOUS
 62
    7
 10
202.1705929654
 20
659.87735823885009
 11
202.1705929654
 21
649.87735823884998
  0
LINE
  8
_0-a_寸法
  6
CONTINUOUS
 62
    7
 10
234.36234296539999
 20
649.87735823884998
 11
198.17059296539998
 21
649.87735823884998
  0
LINE
  8
_0-a_寸法
  6
CONTINUOUS
 62
    7
 10
202.1705929654
 20
649.87735823884998
 11
203.42059296539998
 21
644.87735823885009
  0
LINE
  8
_0-a_寸法
  6
CONTINUOUS
 62
    7
 10
202.1705929654
 20
649.87735823884998
 11
200.92059296539995
 21
644.87735823885009
  0
LINE
  8
_0-a_寸法
  6
CONTINUOUS
 62
    7
 10
202.1705929654
 20
649.87735823884998
 11
202.1705929654
 21
634.87735823885009
  0
CIRCLE
  8
_0-a_寸法
  6
CONTINUOUS
 62
    7
 10
246.66530296539997
 20
655.33573323885003
 40
1.5
  0
CIRCLE
  8
_0-a_寸法
  6
CONTINUOUS
 62
    7
 10
252.74199296539996
 20
620.99834823884999
 40
1.5
  0
LINE
  8
_0-a_寸法
  6
CONTINUOUS
 62
    7
 10
246.66530296539997
 20
655.33573323885003
 11
218.52827269149995
 21
606.60096862525006
  0
LINE
  8
_0-a_寸法
  6
CONTINUOUS
 62
    7
 10
218.52827269149995
 20
606.60096862525006
 11
101.91725947186004
 21
606.60096862525006
  0
LINE
  8
_0-a_寸法
  6
CONTINUOUS
 62
    7
 10
386.71425971570005
 20
595.24831291554995
 11
396.48861971569994
 21
612.17799791554989
  0
CIRCLE
  8
_0-a_寸法
  6
CONTINUOUS
 62
    7
 10
400.23861971569994
 20
618.67319291555009
 40
7.5
  0
CIRCLE
  8
_0-a_寸法
  6
CONTINUOUS
 62
    7
 10
386.71425971570005
 20
595.24831291554995
 40
1
  0
LINE
  8
_0-a_寸法
  6
CONTINUOUS
 62
    7
 10
296.42165796539996
 20
666.57719540605001
 11
280.62906796539994
 21
639.2236254060499
  0
CIRCLE
  8
_0-a_寸法
  6
CONTINUOUS
 62
    7
 10
276.87906796539994
 20
632.72843540604993
 40
7.5
  0
CIRCLE
  8
_0-a_寸法
  6
CONTINUOUS
 62
    7
 10
296.42165796539996
 20
666.57719540605001
 40
1
  0
CIRCLE
  8
_0-a_寸法
  6
CONTINUOUS
 62
    7
 10
302.49479598559998
 20
664.12735823884998
 40
1
  0
LINE
  8
_0-a_寸法
  6
CONTINUOUS
 62
    7
 10
266.36235296539996
 20
685.62735823885009
 11
266.36235296539996
 21
745.70441323885007
  0
LINE
  8
_0-a_寸法
  6
CONTINUOUS
 62
    7
 10
496.36235296539996
 20
684.87735823885009
 11
496.36235296539996
 21
720.98067823884992
  0
LINE
  8
_0-a_寸法
  6
CONTINUOUS
 62
    7
 10
596.36235296539996
 20
685.62735823885009
 11
596.36235296539996
 21
745.70441323885007
  0
LINE
  8
_0-a_寸法
  6
CONTINUOUS
 62
    7
 10
366.36235296539996
 20
684.87735823885009
 11
366.36235296539996
 21
720.98067823884992
  0
LINE
  8
_0-a_寸法
  6
CONTINUOUS
 62
    7
 10
266.36235296539996
 20
716.98067823885003
 11
366.36235296539996
 21
716.98067823885003
  0
LINE
  8
_0-a_寸法
  6
CONTINUOUS
 62
    7
 10
496.36235296539996
 20
716.98067823885003
 11
596.36235296539996
 21
716.98067823885003
  0
LINE
  8
_0-a_寸法
  6
CONTINUOUS
 62
    7
 10
266.36235296539996
 20
740.70441323885007
 11
596.36235296539996
 21
740.70441323885007
  0
LINE
  8
_0-a_寸法
  6
CONTINUOUS
 62
    7
 10
366.36235296539996
 20
716.98067823885003
 11
496.36235296539996
 21
716.98067823885003
  0
LINE
  8
_0-a_寸法
  6
CONTINUOUS
 62
    7
 10
266.36235296539996
 20
716.98067823885003
 11
271.36235296539996
 21
718.23067823885003
  0
LINE
  8
_0-a_寸法
  6
CONTINUOUS
 62
    7
 10
266.36235296539996
 20
716.98067823885003
 11
271.36235296539996
 21
715.73067823884992
  0
LINE
  8
_0-a_寸法
  6
CONTINUOUS
 62
    7
 10
366.36235296539996
 20
716.98067823885003
 11
371.36235296539996
 21
718.23067823885003
  0
LINE
  8
_0-a_寸法
  6
CONTINUOUS
 62
    7
 10
366.36235296539996
 20
716.98067823885003
 11
371.36235296539996
 21
715.73067823884992
  0
LINE
  8
_0-a_寸法
  6
CONTINUOUS
 62
    7
 10
496.36235296539996
 20
716.98067823885003
 11
501.36235296539996
 21
718.23067823885003
  0
LINE
  8
_0-a_寸法
  6
CONTINUOUS
 62
    7
 10
496.36235296539996
 20
716.98067823885003
 11
501.36235296539996
 21
715.73067823884992
  0
LINE
  8
_0-a_寸法
  6
CONTINUOUS
 62
    7
 10
596.36235296539996
 20
716.98067823885003
 11
591.36235296539996
 21
715.73067823884992
  0
LINE
  8
_0-a_寸法
  6
CONTINUOUS
 62
    7
 10
596.36235296539996
 20
716.98067823885003
 11
591.36235296539996
 21
718.23067823885003
  0
LINE
  8
_0-a_寸法
  6
CONTINUOUS
 62
    7
 10
496.36235296539996
 20
716.98067823885003
 11
491.36235296539996
 21
715.73067823884992
  0
LINE
  8
_0-a_寸法
  6
CONTINUOUS
 62
    7
 10
496.36235296539996
 20
716.98067823885003
 11
491.36235296539996
 21
718.23067823885003
  0
LINE
  8
_0-a_寸法
  6
CONTINUOUS
 62
    7
 10
366.36235296539996
 20
716.98067823885003
 11
361.36235296539996
 21
715.73067823884992
  0
LINE
  8
_0-a_寸法
  6
CONTINUOUS
 62
    7
 10
366.36235296539996
 20
716.98067823885003
 11
361.36235296539996
 21
718.23067823885003
  0
TEXT
  8
_0-a_寸法
 62
    7
 10
102.98439769152
 20
606.60096862525006
 40
10.5
 41
1
 50
0
  1
ならしモルタル（別途）
  0
TEXT
  8
_0-a_寸法
 62
    7
 10
423.48735296540002
 20
740.70441323885007
 40
10.5
 41
1
 50
0
  1
330
  0
TEXT
  8
_0-a_寸法
 62
    7
 10
308.48735296539996
 20
716.98067823885003
 40
10.5
 41
1
 50
0
  1
100
  0
TEXT
  8
_0-a_寸法
 62
    7
 10
423.48735296540002
 20
716.98067823885003
 40
10.5
 41
1
 50
0
  1
130
  0
TEXT
  8
_0-a_寸法
 62
    7
 10
538.48735296539996
 20
716.98067823885003
 40
10.5
 41
1
 50
0
  1
100
  0
TEXT
  8
_0-a_寸法
 62
    7
 10
202.17059324029998
 20
666.87735823885009
 40
10.5
 41
1
 50
90.000003000000035
  1
25
  0
TEXT
  8
_0-a_寸法
 62
    7
 10
202.17059324029998
 20
633.37735823885009
 40
10.5
 41
1
 50
90.000003000000035
  1
10
  0
TEXT
  8
_0-a_寸法
 62
    7
 10
423.319373009
 20
554.15710323885003
 40
10.5
 41
1
 50
0
  1
150
  0
TEXT
  8
_0-a_寸法
 62
    7
 10
512.36235925899996
 20
579.29775323884996
 40
10.5
 41
1
 50
0
  1
10
  0
TEXT
  8
_0-a_寸法
 62
    7
 10
339.86234296539999
 20
579.29775323884996
 40
10.5
 41
1
 50
0
  1
10
  0
TEXT
  8
_0-a_寸法
 62
    7
 10
397.83861971569991
 20
613.87319291554991
 40
9.5999999999999996
 41
1
 50
0
  1
4
  0
TEXT
  8
_0-a_寸法
 62
    7
 10
274.47906796539996
 20
627.92843540605008
 40
9.5999999999999996
 41
1
 50
0
  1
7
  0
LINE
  8
_0-a_寸法
  6
CONTINUOUS
 62
    7
 10
506.36235296539996
 20
554.15710323885003
 11
566.36235296539996
 21
554.15710323885003
  0
LINE
  8
_0-a_寸法
  6
CONTINUOUS
 62
    7
 10
566.36235296539996
 20
554.15710323885003
 11
606.36235296539996
 21
554.15710323885003
  0
LINE
  8
_0-8_小物
  6
CONTINUOUS
 62
    7
 10
566.36235296539996
 20
616.14100323885009
 11
566.36235296539996
 21
669.86364823885003
  0
LINE
  8
_0-8_小物
  6
CONTINUOUS
 62
    7
 10
606.36235296539996
 20
616.14100323885009
 11
606.36235296539996
 21
669.86364823885003
  0
ARC
  8
_0-8_小物
  6
CONTINUOUS
 62
    7
 10
567.92442296539991
 20
664.74864823884991
 40
3
 50
2.4589260000049999
 51
51.385362000000001
  0
ARC
  8
_0-8_小物
  6
CONTINUOUS
 62
    7
 10
566.42165796539996
 20
662.87735823885009
 40
5.4000000000000004
 50
51.317813000000001
 51
90
  0
ARC
  8
_0-8_小物
  6
CONTINUOUS
 62
    7
 10
566.42165796539996
 20
662.87735823885009
 40
5.4000000000000004
 50
90
 51
128.85106200000001
  0
ARC
  8
_0-8_小物
  6
CONTINUOUS
 62
    7
 10
564.91889796539999
 20
664.74864823884991
 40
3
 50
128.61463800000001
 51
177.54107400000001
  0
LINE
  8
_0-8_小物
  6
CONTINUOUS
 62
    7
 10
557.42165796539996
 20
664.87735823884998
 11
575.42165796539996
 21
664.87735823884998
  0
LINE
  8
_0-8_小物
  6
CONTINUOUS
 62
    7
 10
575.42165796539996
 20
664.87735823884998
 11
575.42165796539996
 21
663.37735823884998
  0
LINE
  8
_0-8_小物
  6
CONTINUOUS
 62
    7
 10
557.42165796539996
 20
664.87735823884998
 11
557.42165796539996
 21
663.37735823884998
  0
ARC
  8
_0-8_小物
  6
CONTINUOUS
 62
    7
 10
607.86511796540003
 20
664.74864823884991
 40
3
 50
2.4589260000049999
 51
51.385362000000001
  0
ARC
  8
_0-8_小物
  6
CONTINUOUS
 62
    7
 10
606.36235296539996
 20
662.87735823885009
 40
5.4000000000000004
 50
51.317813000000001
 51
90
  0
ARC
  8
_0-8_小物
  6
CONTINUOUS
 62
    7
 10
606.36235296539996
 20
662.87735823885009
 40
5.4000000000000004
 50
90
 51
128.85106200000001
  0
ARC
  8
_0-8_小物
  6
CONTINUOUS
 62
    7
 10
604.8595929654
 20
664.74864823884991
 40
3
 50
128.61463800000001
 51
177.54107400000001
  0
LINE
  8
_0-8_小物
  6
CONTINUOUS
 62
    7
 10
597.36235296539996
 20
664.87735823884998
 11
615.36235296539996
 21
664.87735823884998
  0
LINE
  8
_0-8_小物
  6
CONTINUOUS
 62
    7
 10
615.36235296539996
 20
664.87735823884998
 11
615.36235296539996
 21
663.37735823884998
  0
LINE
  8
_0-8_小物
  6
CONTINUOUS
 62
    7
 10
597.36235296539996
 20
664.87735823884998
 11
597.36235296539996
 21
663.37735823884998
  0
LINE
  8
_0-8_小物
  6
CONTINUOUS
 62
    7
 10
296.36235296539996
 20
616.14100323885009
 11
296.36235296539996
 21
669.86364823885003
  0
LINE
  8
_0-8_小物
  6
CONTINUOUS
 62
    7
 10
256.36235296539996
 20
616.14100323885009
 11
256.36235296539996
 21
669.86364823885003
  0
ARC
  8
_0-8_小物
  6
CONTINUOUS
 62
    7
 10
294.80028296540002
 20
664.74864823884991
 40
3
 50
128.61463800000001
 51
177.54107400000001
  0
ARC
  8
_0-8_小物
  6
CONTINUOUS
 62
    7
 10
296.30304796539997
 20
662.87735823885009
 40
5.4000000000000004
 50
90
 51
128.682187
  0
ARC
  8
_0-8_小物
  6
CONTINUOUS
 62
    7
 10
296.30304796539997
 20
662.87735823885009
 40
5.4000000000000004
 50
51.148938000000001
 51
90
  0
ARC
  8
_0-8_小物
  6
CONTINUOUS
 62
    7
 10
297.80580796539994
 20
664.74864823884991
 40
3
 50
2.4589260000049999
 51
51.385362000000001
  0
LINE
  8
_0-8_小物
  6
CONTINUOUS
 62
    7
 10
305.30304796539997
 20
664.87735823884998
 11
287.30304796539997
 21
664.87735823884998
  0
LINE
  8
_0-8_小物
  6
CONTINUOUS
 62
    7
 10
287.30304796539997
 20
664.87735823884998
 11
287.30304796539997
 21
663.37735823884998
  0
LINE
  8
_0-8_小物
  6
CONTINUOUS
 62
    7
 10
305.30304796539997
 20
664.87735823884998
 11
305.30304796539997
 21
663.37735823884998
  0
ARC
  8
_0-8_小物
  6
CONTINUOUS
 62
    7
 10
254.85958796540001
 20
664.74864823884991
 40
3
 50
128.61463800000001
 51
177.54107400000001
  0
ARC
  8
_0-8_小物
  6
CONTINUOUS
 62
    7
 10
256.36235296539996
 20
662.87735823885009
 40
5.4000000000000004
 50
90
 51
128.682187
  0
ARC
  8
_0-8_小物
  6
CONTINUOUS
 62
    7
 10
256.36235296539996
 20
662.87735823885009
 40
5.4000000000000004
 50
51.148938000000001
 51
90
  0
ARC
  8
_0-8_小物
  6
CONTINUOUS
 62
    7
 10
257.86511296539999
 20
664.74864823884991
 40
3
 50
2.4589260000049999
 51
51.385362000000001
  0
LINE
  8
_0-8_小物
  6
CONTINUOUS
 62
    7
 10
265.36235296539996
 20
664.87735823884998
 11
247.36235296539996
 21
664.87735823884998
  0
LINE
  8
_0-8_小物
  6
CONTINUOUS
 62
    7
 10
247.36235296539996
 20
664.87735823884998
 11
247.36235296539996
 21
663.37735823884998
  0
LINE
  8
_0-8_小物
  6
CONTINUOUS
 62
    7
 10
265.36235296539996
 20
664.87735823884998
 11
265.36235296539996
 21
663.37735823884998
  0
LINE
  8
_0-5_フレ_ム
  6
CONTINUOUS
 62
    7
 10
889.69630566799992
 20
663.37735823884998
 11
889.69630566799992
 21
661.37735823885009
  0
LINE
  8
_0-5_フレ_ム
  6
CONTINUOUS
 62
    7
 10
904.69630566799992
 20
663.37735823884998
 11
904.69630566799992
 21
661.37735823885009
  0
LINE
  8
_0-5_フレ_ム
  6
CONTINUOUS
 62
    7
 10
897.69630566799992
 20
663.37735823884998
 11
917.19630566799992
 21
663.37735823884998
  0
ARC
  8
_0-5_フレ_ム
  6
CONTINUOUS
 62
    7
 10
875.69630566799992
 20
665.37735823885009
 40
2
 50
180
 51
270
  0
LINE
  8
_0-5_フレ_ム
  6
CONTINUOUS
 62
    7
 10
896.69630566799992
 20
663.37735823884998
 11
875.69630566799992
 21
663.37735823884998
  0
LINE
  8
_0-5_フレ_ム
  6
CONTINUOUS
 62
    7
 10
966.19630566799992
 20
660.87735823885009
 11
908.69630566799992
 21
660.87735823885009
  0
LINE
  8
_0-5_フレ_ム
  6
CONTINUOUS
 62
    7
 10
873.69630566799992
 20
665.37735823885009
 11
873.69630566799992
 21
676.87735823884998
  0
ARC
  8
_0-5_フレ_ム
  6
CONTINUOUS
 62
    7
 10
870.69630566799992
 20
677.37735823885009
 40
0.5
 50
270
 51
0
  0
LINE
  8
_0-5_フレ_ム
  6
CONTINUOUS
 62
    7
 10
870.69630566799992
 20
676.87735823884998
 11
869.19630566799992
 21
676.87735823884998
  0
LINE
  8
_0-5_フレ_ム
  6
CONTINUOUS
 62
    7
 10
867.69630566799992
 20
675.37735823884998
 11
870.19630566799992
 21
675.37735823884998
  0
ARC
  8
_0-5_フレ_ム
  6
CONTINUOUS
 62
    7
 10
870.19630566799992
 20
674.37735823885009
 40
1
 50
0
 51
90
  0
LINE
  8
_0-5_フレ_ム
  6
CONTINUOUS
 62
    7
 10
871.19630566799992
 20
674.37735823885009
 11
871.19630566799992
 21
665.37735823885009
  0
LINE
  8
_0-5_フレ_ム
  6
CONTINUOUS
 62
    7
 10
871.19630566799992
 20
677.37735823885009
 11
871.19630566799992
 21
681.37735823884998
  0
ARC
  8
_0-5_フレ_ム
  6
CONTINUOUS
 62
    7
 10
961.19630566799992
 20
667.37735823885009
 40
3
 50
270
 51
0
  0
LINE
  8
_0-5_フレ_ム
  6
CONTINUOUS
 62
    7
 10
885.69630566799992
 20
660.87735823885009
 11
885.69630566799992
 21
661.37735823885009
  0
LINE
  8
_0-5_フレ_ム
  6
CONTINUOUS
 62
    7
 10
885.69630566799992
 20
661.37735823885009
 11
890.69630566799992
 21
661.37735823885009
  0
LINE
  8
_0-5_フレ_ム
  6
CONTINUOUS
 62
    7
 10
890.69630566799992
 20
661.37735823885009
 11
890.69630566799992
 21
660.87735823885009
  0
LINE
  8
_0-5_フレ_ム
  6
CONTINUOUS
 62
    7
 10
903.69630566799992
 20
660.87735823885009
 11
903.69630566799992
 21
661.37735823885009
  0
LINE
  8
_0-5_フレ_ム
  6
CONTINUOUS
 62
    7
 10
903.69630566799992
 20
661.37735823885009
 11
908.69630566799992
 21
661.37735823885009
  0
LINE
  8
_0-5_フレ_ム
  6
CONTINUOUS
 62
    7
 10
908.69630566799992
 20
661.37735823885009
 11
908.69630566799992
 21
660.87735823885009
  0
LINE
  8
_0-5_フレ_ム
  6
CONTINUOUS
 62
    7
 10
885.69630566799992
 20
660.87735823885009
 11
868.69630566799992
 21
660.87735823885009
  0
LINE
  8
_0-5_フレ_ム
  6
CONTINUOUS
 62
    7
 10
863.69630566799992
 20
660.87735823885009
 11
850.69630566799992
 21
660.87735823885009
  0
LINE
  8
_0-5_フレ_ム
  6
CONTINUOUS
 62
    7
 10
845.69630566799992
 20
660.87735823885009
 11
842.69630566799992
 21
660.87735823885009
  0
LINE
  8
_0-5_フレ_ム
  6
CONTINUOUS
 62
    7
 10
890.69630566799992
 20
660.87735823885009
 11
903.69630566799992
 21
660.87735823885009
  0
LINE
  8
_0-5_フレ_ム
  6
CONTINUOUS
 62
    7
 10
897.69630566799992
 20
663.37735823884998
 11
897.19630566799992
 21
662.87735823885009
  0
LINE
  8
_0-5_フレ_ム
  6
CONTINUOUS
 62
    7
 10
896.69630566799992
 20
663.37735823884998
 11
897.19630566799992
 21
662.87735823885009
  0
ARC
  8
_0-5_フレ_ム
  6
CONTINUOUS
 62
    7
 10
966.19630566799992
 20
661.87735823884998
 40
1
 50
270
 51
0
  0
LINE
  8
_0-5_フレ_ム
  6
CONTINUOUS
 62
    7
 10
967.19630566799992
 20
670.62735823885009
 11
967.19630566799992
 21
661.87735823884998
  0
ARC
  8
_0-5_フレ_ム
  6
CONTINUOUS
 62
    7
 10
867.69630566799992
 20
675.87735823885009
 40
0.5
 50
180
 51
270
  0
LINE
  8
_0-5_フレ_ム
  6
CONTINUOUS
 62
    7
 10
867.19630566799992
 20
683.62735823884998
 11
867.19630566799992
 21
675.87735823885009
  0
ARC
  8
_0-5_フレ_ム
  6
CONTINUOUS
 62
    7
 10
869.19630566799992
 20
677.37735823885009
 40
0.5
 50
180
 51
270
  0
LINE
  8
_0-5_フレ_ム
  6
CONTINUOUS
 62
    7
 10
868.69630566799992
 20
683.62735823884998
 11
868.69630566799992
 21
677.37735823885009
  0
LINE
  8
_0-5_フレ_ム
  6
CONTINUOUS
 62
    7
 10
874.69630566799992
 20
680.37735823885009
 11
874.69630566799992
 21
681.37735823884998
  0
LINE
  8
_0-5_フレ_ム
  6
CONTINUOUS
 62
    7
 10
882.69630566799992
 20
680.37735823885009
 11
879.19630566799992
 21
680.37735823885009
  0
LINE
  8
_0-5_フレ_ム
  6
CONTINUOUS
 62
    7
 10
874.69630566799992
 20
680.37735823885009
 11
878.19630566799992
 21
680.37735823885009
  0
LINE
  8
_0-5_フレ_ム
  6
CONTINUOUS
 62
    7
 10
882.69630566799992
 20
680.37735823885009
 11
882.69630566799992
 21
681.37735823884998
  0
ARC
  8
_0-5_フレ_ム
  6
CONTINUOUS
 62
    7
 10
883.19630566799992
 20
681.37735823884998
 40
0.5
 50
90
 51
180
  0
ARC
  8
_0-5_フレ_ム
  6
CONTINUOUS
 62
    7
 10
885.69630566799992
 20
681.37735823884998
 40
0.5
 50
0
 51
90
  0
LINE
  8
_0-5_フレ_ム
  6
CONTINUOUS
 62
    7
 10
883.19630566799992
 20
681.87735823885009
 11
885.69630566799992
 21
681.87735823885009
  0
ARC
  8
_0-5_フレ_ム
  6
CONTINUOUS
 62
    7
 10
871.69630566799992
 20
681.37735823884998
 40
0.5
 50
90
 51
180
  0
ARC
  8
_0-5_フレ_ム
  6
CONTINUOUS
 62
    7
 10
874.19630566799992
 20
681.37735823884998
 40
0.5
 50
0
 51
90
  0
LINE
  8
_0-5_フレ_ム
  6
CONTINUOUS
 62
    7
 10
886.19630566799992
 20
679.87735823884998
 11
886.19630566799992
 21
681.37735823884998
  0
ARC
  8
_0-5_フレ_ム
  6
CONTINUOUS
 62
    7
 10
884.19630566799992
 20
679.87735823884998
 40
2
 50
270
 51
0
  0
ARC
  8
_0-5_フレ_ム
  6
CONTINUOUS
 62
    7
 10
874.69630566799992
 20
676.87735823884998
 40
1
 50
90
 51
180
  0
LINE
  8
_0-5_フレ_ム
  6
CONTINUOUS
 62
    7
 10
884.19630566799992
 20
677.87735823885009
 11
874.69630566799992
 21
677.87735823885009
  0
ARC
  8
_0-5_フレ_ム
  6
CONTINUOUS
 62
    7
 10
867.94630566799992
 20
683.62735823884998
 40
0.75
 50
0
 51
180
  0
LINE
  8
_0-5_フレ_ム
  6
CONTINUOUS
 62
    7
 10
879.19630566799992
 20
680.37735823885009
 11
878.69630566799992
 21
679.87735823884998
  0
LINE
  8
_0-5_フレ_ム
  6
CONTINUOUS
 62
    7
 10
878.19630566799992
 20
680.37735823885009
 11
878.69630566799992
 21
679.87735823884998
  0
LINE
  8
_0-5_フレ_ム
  6
CONTINUOUS
 62
    7
 10
883.19630566799992
 20
681.87735823885009
 11
885.69630566799992
 21
681.87735823885009
  0
LINE
  8
_0-5_フレ_ム
  6
CONTINUOUS
 62
    7
 10
849.69630566799992
 20
663.37735823884998
 11
849.69630566799992
 21
661.37735823885009
  0
LINE
  8
_0-5_フレ_ム
  6
CONTINUOUS
 62
    7
 10
864.69630566799992
 20
663.37735823884998
 11
864.69630566799992
 21
661.37735823885009
  0
LINE
  8
_0-5_フレ_ム
  6
CONTINUOUS
 62
    7
 10
845.69630566799992
 20
660.87735823885009
 11
845.69630566799992
 21
661.37735823885009
  0
LINE
  8
_0-5_フレ_ム
  6
CONTINUOUS
 62
    7
 10
845.69630566799992
 20
661.37735823885009
 11
850.69630566799992
 21
661.37735823885009
  0
LINE
  8
_0-5_フレ_ム
  6
CONTINUOUS
 62
    7
 10
850.69630566799992
 20
661.37735823885009
 11
850.69630566799992
 21
660.87735823885009
  0
LINE
  8
_0-5_フレ_ム
  6
CONTINUOUS
 62
    7
 10
863.69630566799992
 20
660.87735823885009
 11
863.69630566799992
 21
661.37735823885009
  0
LINE
  8
_0-5_フレ_ム
  6
CONTINUOUS
 62
    7
 10
863.69630566799992
 20
661.37735823885009
 11
868.69630566799992
 21
661.37735823885009
  0
LINE
  8
_0-5_フレ_ム
  6
CONTINUOUS
 62
    7
 10
868.69630566799992
 20
661.37735823885009
 11
868.69630566799992
 21
660.87735823885009
  0
ARC
  8
_0-5_フレ_ム
  6
CONTINUOUS
 62
    7
 10
869.19630566799992
 20
665.37735823885009
 40
2
 50
270
 51
0
  0
ARC
  8
_0-5_フレ_ム
  6
CONTINUOUS
 62
    7
 10
842.69630566799992
 20
661.37735823885009
 40
0.5
 50
180
 51
270
  0
ARC
  8
_0-5_フレ_ム
  6
CONTINUOUS
 62
    7
 10
842.69630566799992
 20
662.87735823885009
 40
0.5
 50
90
 51
180
  0
LINE
  8
_0-5_フレ_ム
  6
CONTINUOUS
 62
    7
 10
869.19630566799992
 20
663.37735823884998
 11
842.69630566799992
 21
663.37735823884998
  0
LINE
  8
_0-5_フレ_ム
  6
CONTINUOUS
 62
    7
 10
842.19630566799992
 20
662.87735823885009
 11
842.19630566799992
 21
661.37735823885009
  0
LINE
  8
_0-5_フレ_ム
  6
CONTINUOUS
 62
    7
 10
871.69630566799992
 20
681.87735823885009
 11
874.19630566799992
 21
681.87735823885009
  0
LINE
  8
_0-5_フレ_ム
  6
CONTINUOUS
 62
    7
 10
871.69630566799992
 20
681.87735823885009
 11
874.19630566799992
 21
681.87735823885009
  0
LINE
  8
_0-5_フレ_ム
  6
CONTINUOUS
 62
    7
 10
917.19630566799992
 20
663.37735823884998
 11
922.19630566799992
 21
664.37735823885009
  0
LINE
  8
_0-5_フレ_ム
  6
CONTINUOUS
 62
    7
 10
922.19630566799992
 20
664.37735823885009
 11
961.19630566799992
 21
664.37735823885009
  0
LINE
  8
_0-5_フレ_ム
  6
CONTINUOUS
 62
    7
 10
968.69630566799992
 20
675.62735823885009
 11
968.69630566799992
 21
670.62735823885009
  0
LINE
  8
_0-5_フレ_ム
  6
CONTINUOUS
 62
    7
 10
968.69630566799992
 20
670.62735823885009
 11
967.19630566799992
 21
670.62735823885009
  0
LINE
  8
_0-5_フレ_ム
  6
CONTINUOUS
 62
    7
 10
964.19630566799992
 20
670.62735823885009
 11
962.69630566799992
 21
670.62735823885009
  0
LINE
  8
_0-5_フレ_ム
  6
CONTINUOUS
 62
    7
 10
962.69630566799992
 20
670.62735823885009
 11
962.69630566799992
 21
675.62735823885009
  0
LINE
  8
_0-5_フレ_ム
  6
CONTINUOUS
 62
    7
 10
964.19630566799992
 20
675.62735823885009
 11
964.19631066800002
 21
672.62735823885009
  0
LINE
  8
_0-5_フレ_ム
  6
CONTINUOUS
 62
    7
 10
964.19631066800002
 20
670.62735823885009
 11
964.19630566799992
 21
667.37735323885011
  0
LINE
  8
_0-5_フレ_ム
  6
CONTINUOUS
 62
    7
 10
967.19630566799992
 20
675.62735823885009
 11
967.19630566799992
 21
672.62735823885009
  0
ARC
  8
_0-5_フレ_ム
  6
CONTINUOUS
 62
    7
 10
965.69630566799992
 20
675.62735823885009
 40
1.7
 50
0
 51
180
  0
ARC
  8
_0-5_フレ_ム
  6
CONTINUOUS
 62
    7
 10
965.6963156679999
 20
675.62735823885009
 40
1.499995
 50
0
 51
180
  0
ARC
  8
_0-5_フレ_ム
  6
CONTINUOUS
 62
    7
 10
965.69630566799992
 20
675.62735823885009
 40
3
 50
0
 51
180
  0
LINE
  8
_0-5_フレ_ム
  6
CONTINUOUS
 62
    7
 10
964.19631066800002
 20
672.62735823885009
 11
964.69631066800002
 21
672.62735823885009
  0
LINE
  8
_0-5_フレ_ム
  6
CONTINUOUS
 62
    7
 10
964.69631066800002
 20
672.62735823885009
 11
964.19630566799992
 21
670.62735823885009
  0
LINE
  8
_0-5_フレ_ム
  6
CONTINUOUS
 62
    7
 10
967.19630566799992
 20
672.62735823885009
 11
966.69630566799992
 21
672.62735823885009
  0
LINE
  8
_0-5_フレ_ム
  6
CONTINUOUS
 62
    7
 10
966.69630566799992
 20
672.62735823885009
 11
967.19630566799992
 21
670.62735823885009
  0
LINE
  8
_0-5_フレ_ム
  6
CONTINUOUS
 62
    7
 10
964.19631066800002
 20
672.62735823885009
 11
963.99631066799998
 21
672.62735823885009
  0
LINE
  8
_0-5_フレ_ム
  6
CONTINUOUS
 62
    7
 10
963.99631066799998
 20
672.62735823885009
 11
963.99630566799999
 21
675.62735823885009
  0
LINE
  8
_0-5_フレ_ム
  6
CONTINUOUS
 62
    7
 10
967.19630566799992
 20
672.62735823885009
 11
967.39630566799997
 21
672.62735823885009
  0
LINE
  8
_0-5_フレ_ム
  6
CONTINUOUS
 62
    7
 10
967.39630566799997
 20
672.62735823885009
 11
967.39630566799997
 21
675.62735823885009
  0
LINE
  8
_0-3_躯体
  6
CONTINUOUS
 62
    7
 10
822.19630566799992
 20
659.87735823885009
 11
957.19630566799992
 21
659.87735823885009
  0
LINE
  8
_0-3_躯体
  6
CONTINUOUS
 62
    7
 10
837.19630566799992
 20
659.87735823885009
 11
837.19630566799992
 21
649.87735823884998
  0
LINE
  8
_0-3_躯体
  6
CONTINUOUS
 62
    7
 10
837.19630566799992
 20
649.87735823884998
 11
957.19630566799992
 21
649.87735823884998
  0
LINE
  8
_0-4_止水補助板
  6
CONTINUOUS
 62
    7
 10
842.19630566799992
 20
660.87735823885009
 11
842.19630566799992
 21
659.87735823885009
  0
LINE
  8
_0-4_止水補助板
  6
CONTINUOUS
 62
    7
 10
957.19630566799992
 20
660.87735823885009
 11
842.19630566799992
 21
660.87735823885009
  0
LINE
  8
_0-4_止水補助板
  6
CONTINUOUS
 62
    7
 10
842.19630566799992
 20
659.87735823885009
 11
957.19630566799992
 21
659.87735823885009
  0
ARC
  8
_0-4_止水補助板
  6
CONTINUOUS
 62
    7
 10
957.19630566799992
 20
659.87735823885009
 40
1
 50
14.999999999989999
 51
90
  0
LINE
  8
_0-3_躯体
  6
CONTINUOUS
 62
    7
 10
867.19630566799992
 20
683.62735823884998
 11
867.19630566799992
 21
684.37735823884998
  0
LINE
  8
_0-3_躯体
  6
CONTINUOUS
 62
    7
 10
867.19630566799992
 20
684.37735823884998
 11
822.19630566799992
 21
684.37735823884998
  0
LINE
  8
_0-3_躯体
  6
CONTINUOUS
 62
    7
 10
822.19630566799992
 20
659.87735823885009
 11
822.19630566799992
 21
684.37735823884998
  0
LINE
  8
_0-3_躯体
  6
CONTINUOUS
 62
    7
 10
822.19658910139992
 20
684.37735823884998
 11
822.19630566799992
 21
684.37707480555002
  0
LINE
  8
_0-3_躯体
  6
CONTINUOUS
 62
    7
 10
957.19630566799992
 20
652.49987444554995
 11
954.57378946139988
 21
649.87735823884998
  0
LINE
  8
_0-3_躯体
  6
CONTINUOUS
 62
    7
 10
957.19630566799992
 20
659.57094225735
 11
947.50272164950002
 21
649.87735823884998
  0
LINE
  8
_0-3_躯体
  6
CONTINUOUS
 62
    7
 10
950.43165383769997
 20
659.87735823885009
 11
940.43165383769997
 21
649.87735823884998
  0
LINE
  8
_0-3_躯体
  6
CONTINUOUS
 62
    7
 10
943.3605860258001
 20
659.87735823885009
 11
933.36058602579988
 21
649.87735823884998
  0
LINE
  8
_0-3_躯体
  6
CONTINUOUS
 62
    7
 10
936.28951821390001
 20
659.87735823885009
 11
926.28951821390001
 21
649.87735823884998
  0
LINE
  8
_0-3_躯体
  6
CONTINUOUS
 62
    7
 10
929.21845040209996
 20
659.87735823885009
 11
919.21845040209996
 21
649.87735823884998
  0
LINE
  8
_0-3_躯体
  6
CONTINUOUS
 62
    7
 10
922.1473825902001
 20
659.87735823885009
 11
912.14738259019987
 21
649.87735823884998
  0
LINE
  8
_0-3_躯体
  6
CONTINUOUS
 62
    7
 10
915.0763147783
 20
659.87735823885009
 11
905.0763147783
 21
649.87735823884998
  0
LINE
  8
_0-3_躯体
  6
CONTINUOUS
 62
    7
 10
908.00524696649995
 20
659.87735823885009
 11
898.00524696649995
 21
649.87735823884998
  0
LINE
  8
_0-3_躯体
  6
CONTINUOUS
 62
    7
 10
900.93417915460009
 20
659.87735823885009
 11
890.93417915459986
 21
649.87735823884998
  0
LINE
  8
_0-3_躯体
  6
CONTINUOUS
 62
    7
 10
893.86311134269999
 20
659.87735823885009
 11
883.86311134269999
 21
649.87735823884998
  0
LINE
  8
_0-3_躯体
  6
CONTINUOUS
 62
    7
 10
886.79204353089995
 20
659.87735823885009
 11
876.79204353089995
 21
649.87735823884998
  0
LINE
  8
_0-3_躯体
  6
CONTINUOUS
 62
    7
 10
879.72097571900008
 20
659.87735823885009
 11
869.72097571899985
 21
649.87735823884998
  0
LINE
  8
_0-3_躯体
  6
CONTINUOUS
 62
    7
 10
872.64990790709999
 20
659.87735823885009
 11
862.64990790709999
 21
649.87735823884998
  0
LINE
  8
_0-3_躯体
  6
CONTINUOUS
 62
    7
 10
871.19630566799992
 20
665.49482381164989
 11
869.07884009529994
 21
663.37735823884998
  0
LINE
  8
_0-3_躯体
  6
CONTINUOUS
 62
    7
 10
865.57884009529994
 20
659.87735823885009
 11
855.57884009529994
 21
649.87735823884998
  0
LINE
  8
_0-3_躯体
  6
CONTINUOUS
 62
    7
 10
871.19630566799992
 20
672.56589162345006
 11
863.50777228339985
 21
664.87735823884998
  0
LINE
  8
_0-3_躯体
  6
CONTINUOUS
 62
    7
 10
858.50777228340007
 20
659.87735823885009
 11
848.50777228339985
 21
649.87735823884998
  0
LINE
  8
_0-3_躯体
  6
CONTINUOUS
 62
    7
 10
867.23764065289993
 20
675.67829442024993
 11
859.3768632412
 21
667.81751700855011
  0
LINE
  8
_0-3_躯体
  6
CONTINUOUS
 62
    7
 10
851.43670447149998
 20
659.87735823885009
 11
841.43670447149998
 21
649.87735823884998
  0
LINE
  8
_0-3_躯体
  6
CONTINUOUS
 62
    7
 10
867.19630566799992
 20
682.7080272472499
 11
849.36563665969993
 21
664.87735823884998
  0
LINE
  8
_0-3_躯体
  6
CONTINUOUS
 62
    7
 10
848.19630566799992
 20
663.70802724725002
 11
847.86563665969993
 21
663.37735823884998
  0
LINE
  8
_0-3_躯体
  6
CONTINUOUS
 62
    7
 10
844.36563665969993
 20
659.87735823885009
 11
837.19630566799992
 21
652.7080272472499
  0
LINE
  8
_0-3_躯体
  6
CONTINUOUS
 62
    7
 10
861.79456884779984
 20
684.37735823884998
 11
837.19630566799992
 21
659.77909505904995
  0
LINE
  8
_0-3_躯体
  6
CONTINUOUS
 62
    7
 10
854.72350103589997
 20
684.37735823884998
 11
830.22350103589997
 21
659.87735823885009
  0
LINE
  8
_0-3_躯体
  6
CONTINUOUS
 62
    7
 10
847.65243322409992
 20
684.37735823884998
 11
823.15243322409992
 21
659.87735823885009
  0
LINE
  8
_0-3_躯体
  6
CONTINUOUS
 62
    7
 10
840.58136541219983
 20
684.37735823884998
 11
822.19630566799992
 21
665.99229849464996
  0
LINE
  8
_0-3_躯体
  6
CONTINUOUS
 62
    7
 10
833.51029760029996
 20
684.37735823884998
 11
822.19630566799992
 21
673.06336630655005
  0
LINE
  8
_0-3_躯体
  6
CONTINUOUS
 62
    7
 10
826.43922978849992
 20
684.37735823884998
 11
822.19630566799992
 21
680.13443411844992
  0
LINE
  8
_0-8_小物
  6
CONTINUOUS
 62
    7
 10
897.19630566799992
 20
616.14100323885009
 11
897.19630566799992
 21
669.86364823885003
  0
LINE
  8
_0-8_小物
  6
CONTINUOUS
 62
    7
 10
857.19630566799992
 20
616.14100323885009
 11
857.19630566799992
 21
669.86364823885003
  0
ARC
  8
_0-8_小物
  6
CONTINUOUS
 62
    7
 10
895.63423566799997
 20
664.74864823884991
 40
3
 50
128.61463800000001
 51
177.54107400000001
  0
ARC
  8
_0-8_小物
  6
CONTINUOUS
 62
    7
 10
897.13700066799993
 20
662.87735823885009
 40
5.4000000000000004
 50
90
 51
128.682187
  0
ARC
  8
_0-8_小物
  6
CONTINUOUS
 62
    7
 10
897.13700066799993
 20
662.87735823885009
 40
5.4000000000000004
 50
51.148938000000001
 51
90
  0
ARC
  8
_0-8_小物
  6
CONTINUOUS
 62
    7
 10
898.63976066800001
 20
664.74864823884991
 40
3
 50
2.4589260000049999
 51
51.385362000000001
  0
LINE
  8
_0-8_小物
  6
CONTINUOUS
 62
    7
 10
906.13700066799993
 20
664.87735823884998
 11
888.13700066799993
 21
664.87735823884998
  0
LINE
  8
_0-8_小物
  6
CONTINUOUS
 62
    7
 10
888.13700066799993
 20
664.87735823884998
 11
888.13700066799993
 21
663.37735823884998
  0
LINE
  8
_0-8_小物
  6
CONTINUOUS
 62
    7
 10
906.13700066799993
 20
664.87735823884998
 11
906.13700066799993
 21
663.37735823884998
  0
ARC
  8
_0-8_小物
  6
CONTINUOUS
 62
    7
 10
855.69354066799997
 20
664.74864823884991
 40
3
 50
128.61463800000001
 51
177.54107400000001
  0
ARC
  8
_0-8_小物
  6
CONTINUOUS
 62
    7
 10
857.19630566799992
 20
662.87735823885009
 40
5.4000000000000004
 50
90
 51
128.682187
  0
ARC
  8
_0-8_小物
  6
CONTINUOUS
 62
    7
 10
857.19630566799992
 20
662.87735823885009
 40
5.4000000000000004
 50
51.148938000000001
 51
90
  0
ARC
  8
_0-8_小物
  6
CONTINUOUS
 62
    7
 10
858.699065668
 20
664.74864823884991
 40
3
 50
2.4589260000049999
 51
51.38536199999001
  0
LINE
  8
_0-8_小物
  6
CONTINUOUS
 62
    7
 10
866.19630566799992
 20
664.87735823884998
 11
848.19630566799992
 21
664.87735823884998
  0
LINE
  8
_0-8_小物
  6
CONTINUOUS
 62
    7
 10
848.19630566799992
 20
664.87735823884998
 11
848.19630566799992
 21
663.37735823884998
  0
LINE
  8
_0-8_小物
  6
CONTINUOUS
 62
    7
 10
866.19630566799992
 20
664.87735823884998
 11
866.19630566799992
 21
663.37735823884998
  0
LINE
  8
_0-3_躯体
  6
HIDDEN
 62
    7
 10
1107.1963056680002
 20
750.27735823885007
 11
1157.1963056679999
 21
750.27735823885007
  0
LINE
  8
_0-4_止水補助板
  6
CONTINUOUS
 62
    7
 10
1106.1963056679999
 20
728.87735823885009
 11
1107.1963056680002
 21
728.87735823885009
  0
LINE
  8
_0-4_止水補助板
  6
CONTINUOUS
 62
    7
 10
1106.1963056679999
 20
659.87735823885009
 11
1106.1963056679999
 21
728.87735823885009
  0
LINE
  8
_0-4_止水補助板
  6
CONTINUOUS
 62
    7
 10
1107.1963056680002
 20
659.74570574125005
 11
1107.1963056680002
 21
728.87735823885009
  0
LINE
  8
_0-8_小物
  6
CONTINUOUS
 62
    7
 10
1151.580040668
 20
687.87735823885009
 11
1097.512755668
 21
687.87735823885009
  0
ARC
  8
_0-8_小物
  6
CONTINUOUS
 62
    7
 10
1103.0250156679999
 20
686.37459823885001
 40
3
 50
218.61463800000001
 51
267.54107399997997
  0
ARC
  8
_0-8_小物
  6
CONTINUOUS
 62
    7
 10
1104.896305668
 20
687.87735823885009
 40
5.4000000000000004
 50
180
 51
218.682187
  0
ARC
  8
_0-8_小物
  6
CONTINUOUS
 62
    7
 10
1104.896305668
 20
687.87735823885009
 40
5.4000000000000004
 50
141.14893799999996
 51
180.00000000000009
  0
ARC
  8
_0-8_小物
  6
CONTINUOUS
 62
    7
 10
1103.0250156679999
 20
689.38012323885005
 40
3
 50
92.45892600002
 51
141.38536199999999
  0
LINE
  8
_0-8_小物
  6
CONTINUOUS
 62
    7
 10
1102.8963056680002
 20
696.87735823885009
 11
1102.8963056680002
 21
678.87735823885009
  0
LINE
  8
_0-8_小物
  6
CONTINUOUS
 62
    7
 10
1102.8963056680002
 20
678.87735823885009
 11
1104.3963056680002
 21
678.87735823885009
  0
LINE
  8
_0-8_小物
  6
CONTINUOUS
 62
    7
 10
1102.8963056680002
 20
696.87735823885009
 11
1104.3963056680002
 21
696.87735823885009
  0
LINE
  8
_0-a_寸法
  6
CONTINUOUS
 62
    7
 10
857.19630566799992
 20
550.60490823885004
 11
897.19630566799992
 21
550.60490823885004
  0
LINE
  8
_0-a_寸法
  6
CONTINUOUS
 62
    7
 10
857.19630566799992
 20
613.64100323885009
 11
857.19630566799992
 21
545.60490823884993
  0
LINE
  8
_0-a_寸法
  6
CONTINUOUS
 62
    7
 10
897.19630566799992
 20
613.64100323885009
 11
897.19630566799992
 21
545.60490823884993
  0
LINE
  8
_0-a_寸法
  6
CONTINUOUS
 62
    7
 10
857.19630566799992
 20
550.60490823885004
 11
862.19630566799992
 21
551.85490823884993
  0
LINE
  8
_0-a_寸法
  6
CONTINUOUS
 62
    7
 10
857.19630566799992
 20
550.60490823885004
 11
862.19630566799992
 21
549.35490823884993
  0
LINE
  8
_0-a_寸法
  6
CONTINUOUS
 62
    7
 10
897.19630566799992
 20
550.60490823885004
 11
892.19630566799992
 21
549.35490823884993
  0
LINE
  8
_0-a_寸法
  6
CONTINUOUS
 62
    7
 10
897.19630566799992
 20
550.60490823885004
 11
892.19630566799992
 21
551.85490823884993
  0
LINE
  8
_0-a_寸法
  6
CONTINUOUS
 62
    7
 10
897.19630566799992
 20
550.60490823885004
 11
957.19630566799992
 21
550.60490823885004
  0
LINE
  8
_0-a_寸法
  6
CONTINUOUS
 62
    7
 10
957.19630566799992
 20
569.63544323885003
 11
957.19630566799992
 21
545.60490823884993
  0
LINE
  8
_0-a_寸法
  6
CONTINUOUS
 62
    7
 10
897.19630566799992
 20
550.60490823885004
 11
902.19630566799992
 21
551.85490823884993
  0
LINE
  8
_0-a_寸法
  6
CONTINUOUS
 62
    7
 10
897.19630566799992
 20
550.60490823885004
 11
902.19630566799992
 21
549.35490823884993
  0
LINE
  8
_0-a_寸法
  6
CONTINUOUS
 62
    7
 10
957.19630566799992
 20
550.60490823885004
 11
952.19630566799992
 21
549.35490823884993
  0
LINE
  8
_0-a_寸法
  6
CONTINUOUS
 62
    7
 10
957.19630566799992
 20
550.60490823885004
 11
952.19630566799992
 21
551.85490823884993
  0
LINE
  8
_0-a_寸法
  6
CONTINUOUS
 62
    7
 10
957.19630566799992
 20
550.60490823885004
 11
1107.1963056680002
 21
550.60490823885004
  0
LINE
  8
_0-a_寸法
  6
CONTINUOUS
 62
    7
 10
957.19630566799992
 20
550.60490823885004
 11
962.19630566799992
 21
551.85490823884993
  0
LINE
  8
_0-a_寸法
  6
CONTINUOUS
 62
    7
 10
957.19630566799992
 20
550.60490823885004
 11
962.19630566799992
 21
549.35490823884993
  0
LINE
  8
_0-a_寸法
  6
CONTINUOUS
 62
    7
 10
1107.1963056680002
 20
550.60490823885004
 11
1102.1963056680002
 21
549.35490823884993
  0
LINE
  8
_0-a_寸法
  6
CONTINUOUS
 62
    7
 10
1107.1963056680002
 20
550.60490823885004
 11
1102.1963056680002
 21
551.85490823884993
  0
LINE
  8
_0-a_寸法
  6
CONTINUOUS
 62
    7
 10
957.19630566799992
 20
572.13544323885003
 11
967.19630566799992
 21
572.13544323885003
  0
LINE
  8
_0-a_寸法
  6
CONTINUOUS
 62
    7
 10
967.19630566799992
 20
659.32473823885005
 11
967.19630566799992
 21
567.13544323885003
  0
LINE
  8
_0-a_寸法
  6
CONTINUOUS
 62
    7
 10
957.19630566799992
 20
572.13544323885003
 11
952.19630566799992
 21
570.88544323885003
  0
LINE
  8
_0-a_寸法
  6
CONTINUOUS
 62
    7
 10
957.19630566799992
 20
572.13544323885003
 11
952.19630566799992
 21
573.38544323885003
  0
LINE
  8
_0-a_寸法
  6
CONTINUOUS
 62
    7
 10
957.19630566799992
 20
572.13544323885003
 11
942.19630566799992
 21
572.13544323885003
  0
LINE
  8
_0-a_寸法
  6
CONTINUOUS
 62
    7
 10
967.19630566799992
 20
572.13544323885003
 11
972.19630566799992
 21
573.38544323885003
  0
LINE
  8
_0-a_寸法
  6
CONTINUOUS
 62
    7
 10
967.19630566799992
 20
572.13544323885003
 11
972.19630566799992
 21
570.88544323885003
  0
LINE
  8
_0-a_寸法
  6
CONTINUOUS
 62
    7
 10
967.19630566799992
 20
572.13544323885003
 11
982.19630566799992
 21
572.13544323885003
  0
CIRCLE
  8
_0-a_寸法
  6
CONTINUOUS
 62
    7
 10
847.49925566799993
 20
655.33573323885003
 40
1.5
  0
CIRCLE
  8
_0-a_寸法
  6
CONTINUOUS
 62
    7
 10
853.57594566800003
 20
620.99834823884999
 40
1.5
  0
LINE
  8
_0-a_寸法
  6
CONTINUOUS
 62
    7
 10
847.49925566799993
 20
655.33573323885003
 11
819.36222539409982
 21
606.60096862525006
  0
LINE
  8
_0-a_寸法
  6
CONTINUOUS
 62
    7
 10
819.36222539409982
 20
606.60096862525006
 11
702.75121217449998
 21
606.60096862525006
  0
TEXT
  8
_0-a_寸法
 62
    7
 10
703.81835039409998
 20
606.60096862525006
 40
10.5
 41
1
 50
0
  1
ならしモルタル（別途）
  0
LINE
  8
_0-a_寸法
  6
CONTINUOUS
 62
    7
 10
803.00482910139999
 20
684.37735823884998
 11
803.00482910139999
 21
659.87735823885009
  0
LINE
  8
_0-a_寸法
  6
CONTINUOUS
 62
    7
 10
820.19658910139992
 20
684.37735823884998
 11
799.00482910139999
 21
684.37735823884998
  0
LINE
  8
_0-a_寸法
  6
CONTINUOUS
 62
    7
 10
820.19658910139992
 20
659.87735823885009
 11
799.00482910139999
 21
659.87735823885009
  0
LINE
  8
_0-a_寸法
  6
CONTINUOUS
 62
    7
 10
803.00482910139999
 20
684.37735823884998
 11
804.25482910139999
 21
679.37735823885009
  0
LINE
  8
_0-a_寸法
  6
CONTINUOUS
 62
    7
 10
803.00482910139999
 20
684.37735823884998
 11
801.75482910139999
 21
679.37735823885009
  0
LINE
  8
_0-a_寸法
  6
CONTINUOUS
 62
    7
 10
803.00482910139999
 20
659.87735823885009
 11
801.75482910139999
 21
664.87735823884998
  0
LINE
  8
_0-a_寸法
  6
CONTINUOUS
 62
    7
 10
803.00482910139999
 20
659.87735823885009
 11
804.25482910139999
 21
664.87735823884998
  0
LINE
  8
_0-a_寸法
  6
CONTINUOUS
 62
    7
 10
803.00482910139999
 20
659.87735823885009
 11
803.00482910139999
 21
649.87735823884998
  0
LINE
  8
_0-a_寸法
  6
CONTINUOUS
 62
    7
 10
835.19657910139995
 20
649.87735823884998
 11
799.00482910139999
 21
649.87735823884998
  0
LINE
  8
_0-a_寸法
  6
CONTINUOUS
 62
    7
 10
803.00482910139999
 20
649.87735823884998
 11
804.25482910139999
 21
644.87735823885009
  0
LINE
  8
_0-a_寸法
  6
CONTINUOUS
 62
    7
 10
803.00482910139999
 20
649.87735823884998
 11
801.75482910139999
 21
644.87735823885009
  0
LINE
  8
_0-a_寸法
  6
CONTINUOUS
 62
    7
 10
803.00482910139999
 20
649.87735823884998
 11
803.00482910139999
 21
634.87735823885009
  0
TEXT
  8
_0-a_寸法
 62
    7
 10
803.00482937619995
 20
666.87735823885009
 40
10.5
 41
1
 50
90.000003000000035
  1
25
  0
TEXT
  8
_0-a_寸法
 62
    7
 10
803.00482937619995
 20
633.37735823885009
 40
10.5
 41
1
 50
90.000003000000035
  1
10
  0
LINE
  8
_0-a_寸法
  6
CONTINUOUS
 62
    7
 10
803.00482910139999
 20
744.87735823885009
 11
803.00482910139999
 21
684.37735823884998
  0
LINE
  8
_0-a_寸法
  6
CONTINUOUS
 62
    7
 10
1096.7283841010001
 20
744.87735823885009
 11
798.00482910139999
 21
744.87735823885009
  0
LINE
  8
_0-a_寸法
  6
CONTINUOUS
 62
    7
 10
803.00482910139999
 20
744.87735823885009
 11
804.25482910139999
 21
739.87735823884998
  0
LINE
  8
_0-a_寸法
  6
CONTINUOUS
 62
    7
 10
803.00482910139999
 20
744.87735823885009
 11
801.75482910139999
 21
739.87735823884998
  0
LINE
  8
_0-a_寸法
  6
CONTINUOUS
 62
    7
 10
803.00482910139999
 20
684.37735823884998
 11
801.75482910139999
 21
689.37735823885009
  0
LINE
  8
_0-a_寸法
  6
CONTINUOUS
 62
    7
 10
803.00482910139999
 20
684.37735823884998
 11
804.25482910139999
 21
689.37735823885009
  0
LINE
  8
_0-a_寸法
  6
CONTINUOUS
 62
    7
 10
876.72837910139992
 20
784.95234823884994
 11
1116.728379101
 21
784.95234823884994
  0
LINE
  8
_0-a_寸法
  6
CONTINUOUS
 62
    7
 10
876.72837910139992
 20
686.12735823885009
 11
876.72837910139992
 21
789.95234823884994
  0
LINE
  8
_0-a_寸法
  6
CONTINUOUS
 62
    7
 10
1116.728379101
 20
754.13421323885007
 11
1116.728379101
 21
789.95234823884994
  0
LINE
  8
_0-a_寸法
  6
CONTINUOUS
 62
    7
 10
876.72837910139992
 20
784.95234823884994
 11
881.72837910139992
 21
786.20234823884994
  0
LINE
  8
_0-a_寸法
  6
CONTINUOUS
 62
    7
 10
876.72837910139992
 20
784.95234823884994
 11
881.72837910139992
 21
783.70234823885005
  0
LINE
  8
_0-a_寸法
  6
CONTINUOUS
 62
    7
 10
1116.728379101
 20
784.95234823884994
 11
1111.728379101
 21
783.70234823885005
  0
LINE
  8
_0-a_寸法
  6
CONTINUOUS
 62
    7
 10
1116.728379101
 20
784.95234823884994
 11
1111.728379101
 21
786.20234823884994
  0
LINE
  8
_0-a_寸法
  6
CONTINUOUS
 62
    7
 10
876.72837910139992
 20
762.09072823884992
 11
976.72837910139992
 21
762.09072823884992
  0
LINE
  8
_0-a_寸法
  6
CONTINUOUS
 62
    7
 10
976.72837910139992
 20
685.37735823885009
 11
976.72837910139992
 21
767.09072823885003
  0
LINE
  8
_0-a_寸法
  6
CONTINUOUS
 62
    7
 10
876.72837910139992
 20
762.09072823884992
 11
881.72837910139992
 21
763.34072823885003
  0
LINE
  8
_0-a_寸法
  6
CONTINUOUS
 62
    7
 10
876.72837910139992
 20
762.09072823884992
 11
881.72837910139992
 21
760.84072823885003
  0
LINE
  8
_0-a_寸法
  6
CONTINUOUS
 62
    7
 10
976.72837910139992
 20
762.09072823884992
 11
971.72837910139992
 21
760.84072823885003
  0
LINE
  8
_0-a_寸法
  6
CONTINUOUS
 62
    7
 10
976.72837910139992
 20
762.09072823884992
 11
971.72837910139992
 21
763.34072823885003
  0
LINE
  8
_0-a_寸法
  6
CONTINUOUS
 62
    7
 10
976.72837910139992
 20
762.09072823884992
 11
1096.7283841010001
 21
762.09072823884992
  0
LINE
  8
_0-a_寸法
  6
CONTINUOUS
 62
    7
 10
1096.7283841010001
 20
744.87735823885009
 11
1096.7283841010001
 21
767.09072823885003
  0
LINE
  8
_0-a_寸法
  6
CONTINUOUS
 62
    7
 10
976.72837910139992
 20
762.09072823884992
 11
981.72837910139992
 21
763.34072823885003
  0
LINE
  8
_0-a_寸法
  6
CONTINUOUS
 62
    7
 10
976.72837910139992
 20
762.09072823884992
 11
981.72837910139992
 21
760.84072823885003
  0
LINE
  8
_0-a_寸法
  6
CONTINUOUS
 62
    7
 10
1096.7283841010001
 20
762.09072823884992
 11
1091.7283841009998
 21
760.84072823885003
  0
LINE
  8
_0-a_寸法
  6
CONTINUOUS
 62
    7
 10
1096.7283841010001
 20
762.09072823884992
 11
1091.7283841009998
 21
763.34072823885003
  0
LINE
  8
_0-a_寸法
  6
CONTINUOUS
 62
    7
 10
1096.7283841010001
 20
762.09072823884992
 11
1116.728379101
 21
762.09072823884992
  0
TEXT
  8
_0-a_寸法
 62
    7
 10
921.97595816800003
 20
549.60490823884993
 40
10.5
 41
1
 50
0
  1
60
  0
TEXT
  8
_0-a_寸法
 62
    7
 10
871.97595816800003
 20
549.60490823884993
 40
10.5
 41
1
 50
0
  1
40
  0
TEXT
  8
_0-a_寸法
 62
    7
 10
940.69629566799995
 20
574.74555823884998
 40
10.5
 41
1
 50
0
  1
10
  0
TEXT
  8
_0-a_寸法
 62
    7
 10
1024.1533257116
 20
550.60490823885004
 40
10.5
 41
1
 50
0
  1
150
  0
LINE
  8
_0-a_寸法
  6
CONTINUOUS
 62
    7
 10
1174.151390668
 20
687.87735823885009
 11
1174.151390668
 21
659.87735823885009
  0
LINE
  8
_0-a_寸法
  6
CONTINUOUS
 62
    7
 10
1154.0800406679998
 20
687.87735823885009
 11
1179.1513906680002
 21
687.87735823885009
  0
LINE
  8
_0-a_寸法
  6
CONTINUOUS
 62
    7
 10
959.69630566799992
 20
659.87735823885009
 11
1179.1513906680002
 21
659.87735823885009
  0
LINE
  8
_0-a_寸法
  6
CONTINUOUS
 62
    7
 10
1174.151390668
 20
687.87735823885009
 11
1175.4013906680002
 21
682.87735823884998
  0
LINE
  8
_0-a_寸法
  6
CONTINUOUS
 62
    7
 10
1174.151390668
 20
687.87735823885009
 11
1172.9013906680002
 21
682.87735823884998
  0
LINE
  8
_0-a_寸法
  6
CONTINUOUS
 62
    7
 10
1174.151390668
 20
659.87735823885009
 11
1172.9013906680002
 21
664.87735823884998
  0
LINE
  8
_0-a_寸法
  6
CONTINUOUS
 62
    7
 10
1174.151390668
 20
659.87735823885009
 11
1175.4013906680002
 21
664.87735823884998
  0
LINE
  8
_0-a_寸法
  6
CONTINUOUS
 62
    7
 10
1103.6463056680002
 20
681.12735938705009
 11
1118.8565806679999
 21
654.78239438705009
  0
CIRCLE
  8
_0-a_寸法
  6
CONTINUOUS
 62
    7
 10
1122.6065806679999
 20
648.28720438705011
 40
7.5
  0
CIRCLE
  8
_0-a_寸法
  6
CONTINUOUS
 62
    7
 10
1103.6463056680002
 20
681.12735938705009
 40
1
  0
TEXT
  8
_0-a_寸法
 62
    7
 10
1117.3565806679999
 20
643.03720438705011
 40
10.5
 41
1
 50
0
  1
11
  0
TEXT
  8
_0-a_寸法
 62
    7
 10
1174.1513909429998
 20
668.62735823884998
 40
10.5
 41
1
 50
90.000003000000035
  1
28
  0
TEXT
  8
_0-a_寸法
 62
    7
 10
988.85337910139992
 20
784.95234823884994
 40
10.5
 41
1
 50
0
  1
240
  0
TEXT
  8
_0-a_寸法
 62
    7
 10
918.85337910139992
 20
762.09072823884992
 40
10.5
 41
1
 50
0
  1
100
  0
TEXT
  8
_0-a_寸法
 62
    7
 10
1028.8533816014001
 20
762.09072823884992
 40
10.5
 41
1
 50
0
  1
120
  0
TEXT
  8
_0-a_寸法
 62
    7
 10
1101.4783816009999
 20
762.09072823884992
 40
10.5
 41
1
 50
0
  1
20
  0
TEXT
  8
_0-a_寸法
 62
    7
 10
803.00482937619995
 20
709.37735823885009
 40
10.5
 41
1
 50
90.000003000000035
  1
60
  0
LINE
  8
_0-a_寸法
  6
CONTINUOUS
 62
    7
 10
984.32016797149993
 20
598.08564209584995
 11
994.86670297149999
 21
616.35277709585012
  0
CIRCLE
  8
_0-a_寸法
  6
CONTINUOUS
 62
    7
 10
998.61670297149999
 20
622.84796709585009
 40
7.5
  0
CIRCLE
  8
_0-a_寸法
  6
CONTINUOUS
 62
    7
 10
984.32016797149993
 20
598.08564209584995
 40
1
  0
TEXT
  8
_0-a_寸法
 62
    7
 10
995.99170297149999
 20
617.59796709585009
 40
10.5
 41
1
 50
0
  1
6
  0
LINE
  8
_0-a_寸法
  6
CONTINUOUS
 62
    7
 10
1107.1963056680002
 20
597.37735823884998
 11
1107.1963056680002
 21
545.60490823884993
  0
LINE
  8
_0-a_寸法
  6
CONTINUOUS
 62
    7
 10
897.21618566799998
 20
666.71451071105002
 11
881.04061566799987
 21
638.69759571104998
  0
CIRCLE
  8
_0-a_寸法
  6
CONTINUOUS
 62
    7
 10
877.29061566799987
 20
632.20240571105001
 40
7.5
  0
CIRCLE
  8
_0-a_寸法
  6
CONTINUOUS
 62
    7
 10
897.21618566799998
 20
666.71451071105002
 40
1
  0
TEXT
  8
_0-a_寸法
 62
    7
 10
872.04061566799987
 20
626.95240571105001
 40
10.5
 41
1
 50
0
  1
10
  0
CIRCLE
  8
_0-a_寸法
  6
CONTINUOUS
 62
    7
 10
903.88699951009994
 20
664.12735823884998
 40
1
  0
LINE
  8
_0-a_寸法
  6
CONTINUOUS
 62
    7
 10
903.88699951009994
 20
664.12735823884998
 11
918.68880345670004
 21
638.48987807444996
  0
CIRCLE
  8
_0-a_寸法
  6
CONTINUOUS
 62
    7
 10
922.43880305240009
 20
631.99468731265006
 40
7.5
  0
TEXT
  8
_0-a_寸法
 62
    7
 10
917.18880305240009
 20
626.74468731265006
 40
10.5
 41
1
 50
0
  1
11
  0
LINE
  8
_0-a_寸法
  6
CONTINUOUS
 62
    7
 10
1087.9463076680001
 20
738.87735823885009
 11
1069.5743076680001
 21
723.46141823885
  0
CIRCLE
  8
_0-a_寸法
  6
CONTINUOUS
 62
    7
 10
1063.828972668
 20
718.64051323885008
 40
7.5
  0
CIRCLE
  8
_0-a_寸法
  6
CONTINUOUS
 62
    7
 10
1087.9463076680001
 20
738.87735823885009
 40
1
  0
TEXT
  8
_0-a_寸法
 62
    7
 10
1061.203972668
 20
713.39051323885008
 40
10.5
 41
1
 50
0
  1
4
  0
CIRCLE
  8
_0-a_寸法
  6
CONTINUOUS
 62
    7
 10
1106.6963046679998
 20
738.21375573885007
 40
1
  0
LINE
  8
_0-a_寸法
  6
CONTINUOUS
 62
    7
 10
1096.7283841010001
 20
762.09072823884992
 11
1101.7283841009998
 21
763.34072823885003
  0
LINE
  8
_0-a_寸法
  6
CONTINUOUS
 62
    7
 10
1096.7283841010001
 20
762.09072823884992
 11
1101.7283841009998
 21
760.84072823885003
  0
LINE
  8
_0-a_寸法
  6
CONTINUOUS
 62
    7
 10
1116.728379101
 20
762.09072823884992
 11
1111.728379101
 21
760.84072823885003
  0
LINE
  8
_0-a_寸法
  6
CONTINUOUS
 62
    7
 10
1116.728379101
 20
762.09072823884992
 11
1111.728379101
 21
763.34072823885003
  0
CIRCLE
  8
_0-a_寸法
  6
CONTINUOUS
 62
    7
 10
1133.942459418
 20
736.02351323885
 40
7.5
  0
CIRCLE
  8
_0-a_寸法
  6
CONTINUOUS
 62
    7
 10
1105.2963044180001
 20
707.37735823885009
 40
1
  0
CIRCLE
  8
_0-a_寸法
  6
CONTINUOUS
 62
    7
 10
1101.1963056680002
 20
687.87735823885009
 40
1
  0
LINE
  8
_0-a_寸法
  6
CONTINUOUS
 62
    7
 10
1106.6963046679998
 20
738.21375573885007
 11
1128.6391594180002
 21
760.15661048884999
  0
LINE
  8
_0-a_寸法
  6
CONTINUOUS
 62
    7
 10
1105.2963044180001
 20
707.37735823885009
 11
1128.6391594180002
 21
730.72021323885008
  0
CIRCLE
  8
_0-a_寸法
  6
CONTINUOUS
 62
    7
 10
1133.9424602769998
 20
765.45991134774999
 40
7.5
  0
TEXT
  8
_0-a_寸法
 62
    7
 10
1131.3174602769998
 20
760.20991134774999
 40
10.5
 41
1
 50
0
  1
7
  0
TEXT
  8
_0-a_寸法
 62
    7
 10
1128.692459418
 20
730.77351323885
 40
10.5
 41
1
 50
0
  1
５
  0
CIRCLE
  8
_0-a_寸法
  6
CONTINUOUS
 62
    7
 10
1127.0817468389998
 20
713.76279941025007
 40
7.5
  0
TEXT
  8
_0-a_寸法
 62
    7
 10
1121.8317468389998
 20
708.51279941025007
 40
10.5
 41
1
 50
0
  1
10
  0
LINE
  8
_0-a_寸法
  6
CONTINUOUS
 62
    7
 10
1101.1963056680002
 20
687.87735823885009
 11
1121.778445981
 21
708.45949855135007
  0
LINE
  8
_0-8_小物
  6
CONTINUOUS
 62
    7
 10
262.68095396539996
 20
644.73495923885002
 11
263.6733089654
 21
651.53858123884993
  0
ARC
  8
_0-8_小物
  6
CONTINUOUS
 62
    7
 10
263.27749696540002
 20
651.59631323885003
 40
0.4
 50
351.70153399999901
 51
81.869897999990016
  0
LINE
  8
_0-8_小物
  6
CONTINUOUS
 62
    7
 10
263.33406596539999
 20
651.99229323884992
 11
263.1372409654
 21
652.0204112388501
  0
ARC
  8
_0-8_小物
  6
CONTINUOUS
 62
    7
 10
263.08067296539997
 20
651.62443123884998
 40
0.4
 50
81.869898000009982
 51
171.86989800000001
  0
LINE
  8
_0-8_小物
  6
CONTINUOUS
 62
    7
 10
262.68469296540002
 20
651.68100023885006
 11
261.74126096539999
 21
645.07697923885007
  0
LINE
  8
_0-8_小物
  6
CONTINUOUS
 62
    7
 10
262.68095396539996
 20
644.73495923885002
 11
263.6733089654
 21
651.53858123884993
  0
ARC
  8
_0-8_小物
  6
CONTINUOUS
 62
    7
 10
263.27749696540002
 20
651.59631323885003
 40
0.4
 50
351.70153399999901
 51
81.869897999990016
  0
LINE
  8
_0-8_小物
  6
CONTINUOUS
 62
    7
 10
263.33406596539999
 20
651.99229323884992
 11
263.1372409654
 21
652.0204112388501
  0
ARC
  8
_0-8_小物
  6
CONTINUOUS
 62
    7
 10
263.08067296539997
 20
651.62443123884998
 40
0.4
 50
81.869898000009982
 51
171.86989800000001
  0
LINE
  8
_0-8_小物
  6
CONTINUOUS
 62
    7
 10
262.68469296540002
 20
651.68100023885006
 11
261.74126096539999
 21
645.07697923885007
  0
LINE
  8
_0-8_小物
  6
CONTINUOUS
 62
    7
 10
250.04375196540002
 20
644.73495923885002
 11
249.05139696539999
 21
651.53858123884993
  0
ARC
  8
_0-8_小物
  6
CONTINUOUS
 62
    7
 10
249.44720896539997
 20
651.59631323885003
 40
0.4
 50
98.130102000009998
 51
188.29846599999999
  0
LINE
  8
_0-8_小物
  6
CONTINUOUS
 62
    7
 10
249.39063996539994
 20
651.99229323884992
 11
249.58746496539999
 21
652.0204112388501
  0
ARC
  8
_0-8_小物
  6
CONTINUOUS
 62
    7
 10
249.64403396540001
 20
651.62443123884998
 40
0.4
 50
8.1301019999920001
 51
98.130102000009984
  0
LINE
  8
_0-8_小物
  6
CONTINUOUS
 62
    7
 10
250.04001296539997
 20
651.68100023885006
 11
250.98344496539994
 21
645.07697923885007
  0
LINE
  8
_0-8_小物
  6
CONTINUOUS
 62
    7
 10
252.36235296539996
 20
647.87735823885009
 11
252.36235296539996
 21
651.87735823885009
  0
LINE
  8
_0-8_小物
  6
CONTINUOUS
 62
    7
 10
254.34460996539997
 20
622.91710223885002
 11
250.84940696539996
 21
623.10027723885003
  0
LINE
  8
_0-8_小物
  6
CONTINUOUS
 62
    7
 10
250.84940696539996
 20
623.10027723885003
 11
252.74199396539996
 21
620.99834623884999
  0
LINE
  8
_0-8_小物
  6
CONTINUOUS
 62
    7
 10
252.74199396539996
 20
620.99834623884999
 11
254.23993796539997
 21
620.91984223885004
  0
LINE
  8
_0-8_小物
  6
CONTINUOUS
 62
    7
 10
254.23993796539997
 20
620.91984223885004
 11
255.86235296539996
 21
651.87735823885009
  0
LINE
  8
_0-8_小物
  6
CONTINUOUS
 62
    7
 10
260.36235296539996
 20
647.87735823885009
 11
260.36235296539996
 21
651.87735823885009
  0
LINE
  8
_0-8_小物
  6
CONTINUOUS
 62
    7
 10
258.38009596539996
 20
622.91710223885002
 11
261.87529896539996
 21
623.10027723885003
  0
LINE
  8
_0-8_小物
  6
CONTINUOUS
 62
    7
 10
261.87529896539996
 20
623.10027723885003
 11
259.98271196539997
 21
620.99834623884999
  0
LINE
  8
_0-8_小物
  6
CONTINUOUS
 62
    7
 10
259.98271196539997
 20
620.99834623884999
 11
258.48476796540001
 21
620.91984223885004
  0
LINE
  8
_0-8_小物
  6
CONTINUOUS
 62
    7
 10
258.48476796540001
 20
620.91984223885004
 11
256.86235296539996
 21
651.87735823885009
  0
LINE
  8
_0-8_小物
  6
CONTINUOUS
 62
    7
 10
251.73911796539994
 20
640.07697923884996
 11
250.04375196540002
 21
644.73495923885002
  0
LINE
  8
_0-8_小物
  6
CONTINUOUS
 62
    7
 10
260.98558796539999
 20
640.07697923884996
 11
262.68095396539996
 21
644.73495923885002
  0
LINE
  8
_0-8_小物
  6
CONTINUOUS
 62
    7
 10
252.36235296539996
 20
647.87735823885009
 11
254.10272896539999
 21
646.96271423885003
  0
LINE
  8
_0-8_小物
  6
CONTINUOUS
 62
    7
 10
254.49290896539998
 20
625.74680223885002
 11
256.36235296539996
 21
623.87735823884998
  0
LINE
  8
_0-8_小物
  6
CONTINUOUS
 62
    7
 10
254.10272896539999
 20
646.96271423885003
 11
253.9980569654
 21
644.96545523885004
  0
LINE
  8
_0-8_小物
  6
CONTINUOUS
 62
    7
 10
253.9980569654
 20
644.96545523885004
 11
252.00079796540001
 21
645.07012723885009
  0
LINE
  8
_0-8_小物
  6
CONTINUOUS
 62
    7
 10
252.00079796540001
 20
645.07012723885009
 11
251.89612596539996
 21
643.07286823885011
  0
LINE
  8
_0-8_小物
  6
CONTINUOUS
 62
    7
 10
251.89612596539996
 20
643.07286823885011
 11
253.84104896539998
 21
641.96956723885
  0
LINE
  8
_0-8_小物
  6
CONTINUOUS
 62
    7
 10
253.84104896539998
 20
641.96956723885
 11
253.73637696539998
 21
639.97230823884991
  0
LINE
  8
_0-8_小物
  6
CONTINUOUS
 62
    7
 10
253.73637696539998
 20
639.97230823884991
 11
251.73911796539994
 21
640.07697923884996
  0
LINE
  8
_0-8_小物
  6
CONTINUOUS
 62
    7
 10
251.73911796539994
 20
640.07697923884996
 11
251.6344459654
 21
638.07972023884997
  0
LINE
  8
_0-8_小物
  6
CONTINUOUS
 62
    7
 10
251.6344459654
 20
638.07972023884997
 11
253.57936896539996
 21
636.97641923884999
  0
LINE
  8
_0-8_小物
  6
CONTINUOUS
 62
    7
 10
253.57936896539996
 20
636.97641923884999
 11
253.47469696539997
 21
634.97916023885
  0
LINE
  8
_0-8_小物
  6
CONTINUOUS
 62
    7
 10
253.47469696539997
 20
634.97916023885
 11
251.47743796539999
 21
635.08383223884994
  0
LINE
  8
_0-8_小物
  6
CONTINUOUS
 62
    7
 10
251.47743796539999
 20
635.08383223884994
 11
251.37276596539994
 21
633.08657323884995
  0
LINE
  8
_0-8_小物
  6
CONTINUOUS
 62
    7
 10
251.37276596539994
 20
633.08657323884995
 11
253.31768996539995
 21
631.98327123885008
  0
LINE
  8
_0-8_小物
  6
CONTINUOUS
 62
    7
 10
253.31768996539995
 20
631.98327123885008
 11
253.21301796540001
 21
629.98601223885009
  0
LINE
  8
_0-8_小物
  6
CONTINUOUS
 62
    7
 10
253.21301796540001
 20
629.98601223885009
 11
251.21575896539997
 21
630.09068423884992
  0
LINE
  8
_0-8_小物
  6
CONTINUOUS
 62
    7
 10
251.21575896539997
 20
630.09068423884992
 11
251.11108696539998
 21
628.09342523884993
  0
LINE
  8
_0-8_小物
  6
CONTINUOUS
 62
    7
 10
251.11108696539998
 20
628.09342523884993
 11
253.05600996539999
 21
626.99012423885006
  0
LINE
  8
_0-8_小物
  6
CONTINUOUS
 62
    7
 10
253.05600996539999
 20
626.99012423885006
 11
252.95133796539994
 21
624.99286523885007
  0
LINE
  8
_0-8_小物
  6
CONTINUOUS
 62
    7
 10
252.95133796539994
 20
624.99286523885007
 11
250.95407896539996
 21
625.09753623885001
  0
LINE
  8
_0-8_小物
  6
CONTINUOUS
 62
    7
 10
250.95407896539996
 20
625.09753623885001
 11
250.84940696539996
 21
623.10027723885003
  0
LINE
  8
_0-8_小物
  6
CONTINUOUS
 62
    7
 10
260.36235296539996
 20
647.87735823885009
 11
258.62197696539999
 21
646.96271423885003
  0
LINE
  8
_0-8_小物
  6
CONTINUOUS
 62
    7
 10
258.62197696539999
 20
646.96271423885003
 11
258.72664896539999
 21
644.96545523885004
  0
LINE
  8
_0-8_小物
  6
CONTINUOUS
 62
    7
 10
258.72664896539999
 20
644.96545523885004
 11
260.72390796539997
 21
645.07012723885009
  0
LINE
  8
_0-8_小物
  6
CONTINUOUS
 62
    7
 10
260.72390796539997
 20
645.07012723885009
 11
260.82857996539997
 21
643.07286823885011
  0
LINE
  8
_0-8_小物
  6
CONTINUOUS
 62
    7
 10
260.82857996539997
 20
643.07286823885011
 11
258.88365696539995
 21
641.96956723885
  0
LINE
  8
_0-8_小物
  6
CONTINUOUS
 62
    7
 10
258.88365696539995
 20
641.96956723885
 11
258.9883289654
 21
639.97230823884991
  0
LINE
  8
_0-8_小物
  6
CONTINUOUS
 62
    7
 10
258.9883289654
 20
639.97230823884991
 11
260.98558796539999
 21
640.07697923884996
  0
LINE
  8
_0-8_小物
  6
CONTINUOUS
 62
    7
 10
260.98558796539999
 20
640.07697923884996
 11
261.09025996539998
 21
638.07972023884997
  0
LINE
  8
_0-8_小物
  6
CONTINUOUS
 62
    7
 10
261.09025996539998
 20
638.07972023884997
 11
259.14533696540002
 21
636.97641923884999
  0
LINE
  8
_0-8_小物
  6
CONTINUOUS
 62
    7
 10
259.14533696540002
 20
636.97641923884999
 11
259.25000896539996
 21
634.97916023885
  0
LINE
  8
_0-8_小物
  6
CONTINUOUS
 62
    7
 10
259.25000896539996
 20
634.97916023885
 11
261.24726796539994
 21
635.08383223884994
  0
LINE
  8
_0-8_小物
  6
CONTINUOUS
 62
    7
 10
261.24726796539994
 20
635.08383223884994
 11
261.35193996539999
 21
633.08657323884995
  0
LINE
  8
_0-8_小物
  6
CONTINUOUS
 62
    7
 10
261.35193996539999
 20
633.08657323884995
 11
259.40701596539998
 21
631.98327123885008
  0
LINE
  8
_0-8_小物
  6
CONTINUOUS
 62
    7
 10
259.40701596539998
 20
631.98327123885008
 11
259.51168796539997
 21
629.98601223885009
  0
LINE
  8
_0-8_小物
  6
CONTINUOUS
 62
    7
 10
259.51168796539997
 20
629.98601223885009
 11
261.50894696540001
 21
630.09068423884992
  0
LINE
  8
_0-8_小物
  6
CONTINUOUS
 62
    7
 10
261.50894696540001
 20
630.09068423884992
 11
261.61361896539995
 21
628.09342523884993
  0
LINE
  8
_0-8_小物
  6
CONTINUOUS
 62
    7
 10
261.61361896539995
 20
628.09342523884993
 11
259.66869596539999
 21
626.99012423885006
  0
LINE
  8
_0-8_小物
  6
CONTINUOUS
 62
    7
 10
259.66869596539999
 20
626.99012423885006
 11
259.77336796539998
 21
624.99286523885007
  0
LINE
  8
_0-8_小物
  6
CONTINUOUS
 62
    7
 10
259.77336796539998
 20
624.99286523885007
 11
261.77062696539997
 21
625.09753623885001
  0
LINE
  8
_0-8_小物
  6
CONTINUOUS
 62
    7
 10
261.77062696539997
 20
625.09753623885001
 11
261.87529896539996
 21
623.10027723885003
  0
LINE
  8
_0-8_小物
  6
CONTINUOUS
 62
    7
 10
255.86235296539996
 20
651.87735823885009
 11
256.36235296539996
 21
651.87735823885009
  0
LINE
  8
_0-8_小物
  6
CONTINUOUS
 62
    7
 10
256.86235296539996
 20
651.87735823885009
 11
256.36235296539996
 21
651.87735823885009
  0
LINE
  8
_0-8_小物
  6
CONTINUOUS
 62
    7
 10
252.36235296539996
 20
659.87735823885009
 11
252.36235296539996
 21
651.87735823885009
  0
LINE
  8
_0-8_小物
  6
CONTINUOUS
 62
    7
 10
251.36235296539996
 20
659.87735823885009
 11
252.36235296539996
 21
654.87735823885009
  0
LINE
  8
_0-8_小物
  6
CONTINUOUS
 62
    7
 10
255.36235296539996
 20
659.87735823885009
 11
256.36235296539996
 21
654.87735823885009
  0
LINE
  8
_0-8_小物
  6
CONTINUOUS
 62
    7
 10
257.36235296539996
 20
659.87735823885009
 11
256.36235296539996
 21
654.87735823885009
  0
LINE
  8
_0-8_小物
  6
CONTINUOUS
 62
    7
 10
256.36235296539996
 20
654.87735823885009
 11
256.36235296539996
 21
659.87735823885009
  0
LINE
  8
_0-8_小物
  6
CONTINUOUS
 62
    7
 10
260.36235296539996
 20
659.87735823885009
 11
260.36235296539996
 21
651.87735823885009
  0
LINE
  8
_0-8_小物
  6
CONTINUOUS
 62
    7
 10
261.36235296539996
 20
659.87735823885009
 11
260.36235296539996
 21
654.87735823885009
  0
LINE
  8
_0-8_小物
  6
CONTINUOUS
 62
    7
 10
258.23179696540001
 20
625.74680223885002
 11
256.36235296539996
 21
623.87735823884998
  0
LINE
  8
_0-8_小物
  6
CONTINUOUS
 62
    7
 10
251.36235296539996
 20
659.87735823885009
 11
261.36235296539996
 21
659.87735823885009
  0
LINE
  8
_0-8_小物
  6
CONTINUOUS
 62
    7
 10
252.82398957039999
 20
640.02012402095011
 11
250.98344496539994
 21
645.07697923885007
  0
LINE
  8
_0-8_小物
  6
CONTINUOUS
 62
    7
 10
259.90071636029995
 20
640.02012402095011
 11
261.74126096539999
 21
645.07697923885007
  0
LINE
  8
_0-8_小物
  6
CONTINUOUS
 62
    7
 10
302.68095396539996
 20
644.73495923885002
 11
303.6733089654
 21
651.53858123884993
  0
ARC
  8
_0-8_小物
  6
CONTINUOUS
 62
    7
 10
303.27749696540002
 20
651.59631323885003
 40
0.4
 50
351.701533999996
 51
81.869897999989959
  0
LINE
  8
_0-8_小物
  6
CONTINUOUS
 62
    7
 10
303.33406596539999
 20
651.99229323884992
 11
303.1372409654
 21
652.0204112388501
  0
ARC
  8
_0-8_小物
  6
CONTINUOUS
 62
    7
 10
303.08067296539997
 20
651.62443123884998
 40
0.4
 50
81.869897999990002
 51
171.86989800000001
  0
LINE
  8
_0-8_小物
  6
CONTINUOUS
 62
    7
 10
302.68469296540002
 20
651.68100023885006
 11
301.74126096539999
 21
645.07697923885007
  0
LINE
  8
_0-8_小物
  6
CONTINUOUS
 62
    7
 10
302.68095396539996
 20
644.73495923885002
 11
303.6733089654
 21
651.53858123884993
  0
ARC
  8
_0-8_小物
  6
CONTINUOUS
 62
    7
 10
303.27749696540002
 20
651.59631323885003
 40
0.4
 50
351.701533999996
 51
81.869897999989959
  0
LINE
  8
_0-8_小物
  6
CONTINUOUS
 62
    7
 10
303.33406596539999
 20
651.99229323884992
 11
303.1372409654
 21
652.0204112388501
  0
ARC
  8
_0-8_小物
  6
CONTINUOUS
 62
    7
 10
303.08067296539997
 20
651.62443123884998
 40
0.4
 50
81.869897999990002
 51
171.86989800000001
  0
LINE
  8
_0-8_小物
  6
CONTINUOUS
 62
    7
 10
302.68469296540002
 20
651.68100023885006
 11
301.74126096539999
 21
645.07697923885007
  0
LINE
  8
_0-8_小物
  6
CONTINUOUS
 62
    7
 10
290.04375196540002
 20
644.73495923885002
 11
289.05139696539999
 21
651.53858123884993
  0
ARC
  8
_0-8_小物
  6
CONTINUOUS
 62
    7
 10
289.44720896539997
 20
651.59631323885003
 40
0.4
 50
98.130101999990003
 51
188.29846599999999
  0
LINE
  8
_0-8_小物
  6
CONTINUOUS
 62
    7
 10
289.39063996539994
 20
651.99229323884992
 11
289.58746496539999
 21
652.0204112388501
  0
ARC
  8
_0-8_小物
  6
CONTINUOUS
 62
    7
 10
289.64403396540001
 20
651.62443123884998
 40
0.4
 50
8.1301019999920001
 51
98.130102000009984
  0
LINE
  8
_0-8_小物
  6
CONTINUOUS
 62
    7
 10
290.04001296539997
 20
651.68100023885006
 11
290.98344496539994
 21
645.07697923885007
  0
LINE
  8
_0-8_小物
  6
CONTINUOUS
 62
    7
 10
292.36235296539996
 20
647.87735823885009
 11
292.36235296539996
 21
651.87735823885009
  0
LINE
  8
_0-8_小物
  6
CONTINUOUS
 62
    7
 10
294.34460996539997
 20
622.91710223885002
 11
290.84940696539996
 21
623.10027723885003
  0
LINE
  8
_0-8_小物
  6
CONTINUOUS
 62
    7
 10
290.84940696539996
 20
623.10027723885003
 11
292.74199396539996
 21
620.99834623884999
  0
LINE
  8
_0-8_小物
  6
CONTINUOUS
 62
    7
 10
292.74199396539996
 20
620.99834623884999
 11
294.23993796539997
 21
620.91984223885004
  0
LINE
  8
_0-8_小物
  6
CONTINUOUS
 62
    7
 10
294.23993796539997
 20
620.91984223885004
 11
295.86235296539996
 21
651.87735823885009
  0
LINE
  8
_0-8_小物
  6
CONTINUOUS
 62
    7
 10
300.36235296539996
 20
647.87735823885009
 11
300.36235296539996
 21
651.87735823885009
  0
LINE
  8
_0-8_小物
  6
CONTINUOUS
 62
    7
 10
298.38009596539996
 20
622.91710223885002
 11
301.87529896539996
 21
623.10027723885003
  0
LINE
  8
_0-8_小物
  6
CONTINUOUS
 62
    7
 10
301.87529896539996
 20
623.10027723885003
 11
299.98271196539997
 21
620.99834623884999
  0
LINE
  8
_0-8_小物
  6
CONTINUOUS
 62
    7
 10
299.98271196539997
 20
620.99834623884999
 11
298.48476796540001
 21
620.91984223885004
  0
LINE
  8
_0-8_小物
  6
CONTINUOUS
 62
    7
 10
298.48476796540001
 20
620.91984223885004
 11
296.86235296539996
 21
651.87735823885009
  0
LINE
  8
_0-8_小物
  6
CONTINUOUS
 62
    7
 10
291.73911796539994
 20
640.07697923884996
 11
290.04375196540002
 21
644.73495923885002
  0
LINE
  8
_0-8_小物
  6
CONTINUOUS
 62
    7
 10
300.98558796539999
 20
640.07697923884996
 11
302.68095396539996
 21
644.73495923885002
  0
LINE
  8
_0-8_小物
  6
CONTINUOUS
 62
    7
 10
292.36235296539996
 20
647.87735823885009
 11
294.10272896539999
 21
646.96271423885003
  0
LINE
  8
_0-8_小物
  6
CONTINUOUS
 62
    7
 10
294.49290896539998
 20
625.74680223885002
 11
296.36235296539996
 21
623.87735823884998
  0
LINE
  8
_0-8_小物
  6
CONTINUOUS
 62
    7
 10
294.10272896539999
 20
646.96271423885003
 11
293.9980569654
 21
644.96545523885004
  0
LINE
  8
_0-8_小物
  6
CONTINUOUS
 62
    7
 10
293.9980569654
 20
644.96545523885004
 11
292.00079796540001
 21
645.07012723885009
  0
LINE
  8
_0-8_小物
  6
CONTINUOUS
 62
    7
 10
292.00079796540001
 20
645.07012723885009
 11
291.89612596539996
 21
643.07286823885011
  0
LINE
  8
_0-8_小物
  6
CONTINUOUS
 62
    7
 10
291.89612596539996
 20
643.07286823885011
 11
293.84104896539998
 21
641.96956723885
  0
LINE
  8
_0-8_小物
  6
CONTINUOUS
 62
    7
 10
293.84104896539998
 20
641.96956723885
 11
293.73637696539998
 21
639.97230823884991
  0
LINE
  8
_0-8_小物
  6
CONTINUOUS
 62
    7
 10
293.73637696539998
 20
639.97230823884991
 11
291.73911796539994
 21
640.07697923884996
  0
LINE
  8
_0-8_小物
  6
CONTINUOUS
 62
    7
 10
291.73911796539994
 20
640.07697923884996
 11
291.6344459654
 21
638.07972023884997
  0
LINE
  8
_0-8_小物
  6
CONTINUOUS
 62
    7
 10
291.6344459654
 20
638.07972023884997
 11
293.57936896539996
 21
636.97641923884999
  0
LINE
  8
_0-8_小物
  6
CONTINUOUS
 62
    7
 10
293.57936896539996
 20
636.97641923884999
 11
293.47469696539997
 21
634.97916023885
  0
LINE
  8
_0-8_小物
  6
CONTINUOUS
 62
    7
 10
293.47469696539997
 20
634.97916023885
 11
291.47743796539999
 21
635.08383223884994
  0
LINE
  8
_0-8_小物
  6
CONTINUOUS
 62
    7
 10
291.47743796539999
 20
635.08383223884994
 11
291.37276596539994
 21
633.08657323884995
  0
LINE
  8
_0-8_小物
  6
CONTINUOUS
 62
    7
 10
291.37276596539994
 20
633.08657323884995
 11
293.31768996539995
 21
631.98327123885008
  0
LINE
  8
_0-8_小物
  6
CONTINUOUS
 62
    7
 10
293.31768996539995
 20
631.98327123885008
 11
293.21301796540001
 21
629.98601223885009
  0
LINE
  8
_0-8_小物
  6
CONTINUOUS
 62
    7
 10
293.21301796540001
 20
629.98601223885009
 11
291.21575896539997
 21
630.09068423884992
  0
LINE
  8
_0-8_小物
  6
CONTINUOUS
 62
    7
 10
291.21575896539997
 20
630.09068423884992
 11
291.11108696539998
 21
628.09342523884993
  0
LINE
  8
_0-8_小物
  6
CONTINUOUS
 62
    7
 10
291.11108696539998
 20
628.09342523884993
 11
293.05600996539999
 21
626.99012423885006
  0
LINE
  8
_0-8_小物
  6
CONTINUOUS
 62
    7
 10
293.05600996539999
 20
626.99012423885006
 11
292.95133796539994
 21
624.99286523885007
  0
LINE
  8
_0-8_小物
  6
CONTINUOUS
 62
    7
 10
292.95133796539994
 20
624.99286523885007
 11
290.95407896539996
 21
625.09753623885001
  0
LINE
  8
_0-8_小物
  6
CONTINUOUS
 62
    7
 10
290.95407896539996
 20
625.09753623885001
 11
290.84940696539996
 21
623.10027723885003
  0
LINE
  8
_0-8_小物
  6
CONTINUOUS
 62
    7
 10
300.36235296539996
 20
647.87735823885009
 11
298.62197696539999
 21
646.96271423885003
  0
LINE
  8
_0-8_小物
  6
CONTINUOUS
 62
    7
 10
298.62197696539999
 20
646.96271423885003
 11
298.72664896539999
 21
644.96545523885004
  0
LINE
  8
_0-8_小物
  6
CONTINUOUS
 62
    7
 10
298.72664896539999
 20
644.96545523885004
 11
300.72390796539997
 21
645.07012723885009
  0
LINE
  8
_0-8_小物
  6
CONTINUOUS
 62
    7
 10
300.72390796539997
 20
645.07012723885009
 11
300.82857996539997
 21
643.07286823885011
  0
LINE
  8
_0-8_小物
  6
CONTINUOUS
 62
    7
 10
300.82857996539997
 20
643.07286823885011
 11
298.88365696539995
 21
641.96956723885
  0
LINE
  8
_0-8_小物
  6
CONTINUOUS
 62
    7
 10
298.88365696539995
 20
641.96956723885
 11
298.9883289654
 21
639.97230823884991
  0
LINE
  8
_0-8_小物
  6
CONTINUOUS
 62
    7
 10
298.9883289654
 20
639.97230823884991
 11
300.98558796539999
 21
640.07697923884996
  0
LINE
  8
_0-8_小物
  6
CONTINUOUS
 62
    7
 10
300.98558796539999
 20
640.07697923884996
 11
301.09025996539998
 21
638.07972023884997
  0
LINE
  8
_0-8_小物
  6
CONTINUOUS
 62
    7
 10
301.09025996539998
 20
638.07972023884997
 11
299.14533696540002
 21
636.97641923884999
  0
LINE
  8
_0-8_小物
  6
CONTINUOUS
 62
    7
 10
299.14533696540002
 20
636.97641923884999
 11
299.25000896539996
 21
634.97916023885
  0
LINE
  8
_0-8_小物
  6
CONTINUOUS
 62
    7
 10
299.25000896539996
 20
634.97916023885
 11
301.24726796539994
 21
635.08383223884994
  0
LINE
  8
_0-8_小物
  6
CONTINUOUS
 62
    7
 10
301.24726796539994
 20
635.08383223884994
 11
301.35193996539999
 21
633.08657323884995
  0
LINE
  8
_0-8_小物
  6
CONTINUOUS
 62
    7
 10
301.35193996539999
 20
633.08657323884995
 11
299.40701596539998
 21
631.98327123885008
  0
LINE
  8
_0-8_小物
  6
CONTINUOUS
 62
    7
 10
299.40701596539998
 20
631.98327123885008
 11
299.51168796539997
 21
629.98601223885009
  0
LINE
  8
_0-8_小物
  6
CONTINUOUS
 62
    7
 10
299.51168796539997
 20
629.98601223885009
 11
301.50894696540001
 21
630.09068423884992
  0
LINE
  8
_0-8_小物
  6
CONTINUOUS
 62
    7
 10
301.50894696540001
 20
630.09068423884992
 11
301.61361896539995
 21
628.09342523884993
  0
LINE
  8
_0-8_小物
  6
CONTINUOUS
 62
    7
 10
301.61361896539995
 20
628.09342523884993
 11
299.66869596539999
 21
626.99012423885006
  0
LINE
  8
_0-8_小物
  6
CONTINUOUS
 62
    7
 10
299.66869596539999
 20
626.99012423885006
 11
299.77336796539998
 21
624.99286523885007
  0
LINE
  8
_0-8_小物
  6
CONTINUOUS
 62
    7
 10
299.77336796539998
 20
624.99286523885007
 11
301.77062696539997
 21
625.09753623885001
  0
LINE
  8
_0-8_小物
  6
CONTINUOUS
 62
    7
 10
301.77062696539997
 20
625.09753623885001
 11
301.87529896539996
 21
623.10027723885003
  0
LINE
  8
_0-8_小物
  6
CONTINUOUS
 62
    7
 10
295.86235296539996
 20
651.87735823885009
 11
296.36235296539996
 21
651.87735823885009
  0
LINE
  8
_0-8_小物
  6
CONTINUOUS
 62
    7
 10
296.86235296539996
 20
651.87735823885009
 11
296.36235296539996
 21
651.87735823885009
  0
LINE
  8
_0-8_小物
  6
CONTINUOUS
 62
    7
 10
292.36235296539996
 20
659.87735823885009
 11
292.36235296539996
 21
651.87735823885009
  0
LINE
  8
_0-8_小物
  6
CONTINUOUS
 62
    7
 10
291.36235296539996
 20
659.87735823885009
 11
292.36235296539996
 21
654.87735823885009
  0
LINE
  8
_0-8_小物
  6
CONTINUOUS
 62
    7
 10
295.36235296539996
 20
659.87735823885009
 11
296.36235296539996
 21
654.87735823885009
  0
LINE
  8
_0-8_小物
  6
CONTINUOUS
 62
    7
 10
297.36235296539996
 20
659.87735823885009
 11
296.36235296539996
 21
654.87735823885009
  0
LINE
  8
_0-8_小物
  6
CONTINUOUS
 62
    7
 10
296.36235296539996
 20
654.87735823885009
 11
296.36235296539996
 21
659.87735823885009
  0
LINE
  8
_0-8_小物
  6
CONTINUOUS
 62
    7
 10
300.36235296539996
 20
659.87735823885009
 11
300.36235296539996
 21
651.87735823885009
  0
LINE
  8
_0-8_小物
  6
CONTINUOUS
 62
    7
 10
301.36235296539996
 20
659.87735823885009
 11
300.36235296539996
 21
654.87735823885009
  0
LINE
  8
_0-8_小物
  6
CONTINUOUS
 62
    7
 10
298.23179696540001
 20
625.74680223885002
 11
296.36235296539996
 21
623.87735823884998
  0
LINE
  8
_0-8_小物
  6
CONTINUOUS
 62
    7
 10
291.36235296539996
 20
659.87735823885009
 11
301.36235296539996
 21
659.87735823885009
  0
LINE
  8
_0-8_小物
  6
CONTINUOUS
 62
    7
 10
292.82398957039999
 20
640.02012402095011
 11
290.98344496539994
 21
645.07697923885007
  0
LINE
  8
_0-8_小物
  6
CONTINUOUS
 62
    7
 10
299.90071636029995
 20
640.02012402095011
 11
301.74126096539999
 21
645.07697923885007
  0
LINE
  8
_0-8_小物
  6
CONTINUOUS
 62
    7
 10
572.68095396540002
 20
644.73495923885002
 11
573.6733089654
 21
651.53858123884993
  0
ARC
  8
_0-8_小物
  6
CONTINUOUS
 62
    7
 10
573.27749696540002
 20
651.59631323885003
 40
0.4
 50
351.701533999996
 51
81.869898000009968
  0
LINE
  8
_0-8_小物
  6
CONTINUOUS
 62
    7
 10
573.33406596539999
 20
651.99229323884992
 11
573.1372409654
 21
652.0204112388501
  0
ARC
  8
_0-8_小物
  6
CONTINUOUS
 62
    7
 10
573.08067296540003
 20
651.62443123884998
 40
0.4
 50
81.869897999990002
 51
171.86989800000001
  0
LINE
  8
_0-8_小物
  6
CONTINUOUS
 62
    7
 10
572.68469296540002
 20
651.68100023885006
 11
571.74126096539999
 21
645.07697923885007
  0
LINE
  8
_0-8_小物
  6
CONTINUOUS
 62
    7
 10
572.68095396540002
 20
644.73495923885002
 11
573.6733089654
 21
651.53858123884993
  0
ARC
  8
_0-8_小物
  6
CONTINUOUS
 62
    7
 10
573.27749696540002
 20
651.59631323885003
 40
0.4
 50
351.701533999996
 51
81.869898000009968
  0
LINE
  8
_0-8_小物
  6
CONTINUOUS
 62
    7
 10
573.33406596539999
 20
651.99229323884992
 11
573.1372409654
 21
652.0204112388501
  0
ARC
  8
_0-8_小物
  6
CONTINUOUS
 62
    7
 10
573.08067296540003
 20
651.62443123884998
 40
0.4
 50
81.869897999990002
 51
171.86989800000001
  0
LINE
  8
_0-8_小物
  6
CONTINUOUS
 62
    7
 10
572.68469296540002
 20
651.68100023885006
 11
571.74126096539999
 21
645.07697923885007
  0
LINE
  8
_0-8_小物
  6
CONTINUOUS
 62
    7
 10
560.04375196539991
 20
644.73495923885002
 11
559.05139696539993
 21
651.53858123884993
  0
ARC
  8
_0-8_小物
  6
CONTINUOUS
 62
    7
 10
559.44720896539991
 20
651.59631323885003
 40
0.4
 50
98.13010199999998
 51
188.29846599999999
  0
LINE
  8
_0-8_小物
  6
CONTINUOUS
 62
    7
 10
559.39063996540006
 20
651.99229323884992
 11
559.58746496540005
 21
652.0204112388501
  0
ARC
  8
_0-8_小物
  6
CONTINUOUS
 62
    7
 10
559.6440339653999
 20
651.62443123884998
 40
0.4
 50
8.130101999991
 51
98.130102000010012
  0
LINE
  8
_0-8_小物
  6
CONTINUOUS
 62
    7
 10
560.04001296540002
 20
651.68100023885006
 11
560.98344496540005
 21
645.07697923885007
  0
LINE
  8
_0-8_小物
  6
CONTINUOUS
 62
    7
 10
562.36235296539996
 20
647.87735823885009
 11
562.36235296539996
 21
651.87735823885009
  0
LINE
  8
_0-8_小物
  6
CONTINUOUS
 62
    7
 10
564.34460996539997
 20
622.91710223885002
 11
560.84940696539991
 21
623.10027723885003
  0
LINE
  8
_0-8_小物
  6
CONTINUOUS
 62
    7
 10
560.84940696539991
 20
623.10027723885003
 11
562.74199396539996
 21
620.99834623884999
  0
LINE
  8
_0-8_小物
  6
CONTINUOUS
 62
    7
 10
562.74199396539996
 20
620.99834623884999
 11
564.23993796539992
 21
620.91984223885004
  0
LINE
  8
_0-8_小物
  6
CONTINUOUS
 62
    7
 10
564.23993796539992
 20
620.91984223885004
 11
565.86235296539996
 21
651.87735823885009
  0
LINE
  8
_0-8_小物
  6
CONTINUOUS
 62
    7
 10
570.36235296539996
 20
647.87735823885009
 11
570.36235296539996
 21
651.87735823885009
  0
LINE
  8
_0-8_小物
  6
CONTINUOUS
 62
    7
 10
568.38009596539996
 20
622.91710223885002
 11
571.87529896540002
 21
623.10027723885003
  0
LINE
  8
_0-8_小物
  6
CONTINUOUS
 62
    7
 10
571.87529896540002
 20
623.10027723885003
 11
569.98271196539997
 21
620.99834623884999
  0
LINE
  8
_0-8_小物
  6
CONTINUOUS
 62
    7
 10
569.98271196539997
 20
620.99834623884999
 11
568.4847679653999
 21
620.91984223885004
  0
LINE
  8
_0-8_小物
  6
CONTINUOUS
 62
    7
 10
568.4847679653999
 20
620.91984223885004
 11
566.86235296539996
 21
651.87735823885009
  0
LINE
  8
_0-8_小物
  6
CONTINUOUS
 62
    7
 10
561.73911796540006
 20
640.07697923884996
 11
560.04375196539991
 21
644.73495923885002
  0
LINE
  8
_0-8_小物
  6
CONTINUOUS
 62
    7
 10
570.98558796539999
 20
640.07697923884996
 11
572.68095396540002
 21
644.73495923885002
  0
LINE
  8
_0-8_小物
  6
CONTINUOUS
 62
    7
 10
562.36235296539996
 20
647.87735823885009
 11
564.10272896540005
 21
646.96271423885003
  0
LINE
  8
_0-8_小物
  6
CONTINUOUS
 62
    7
 10
564.49290896539992
 20
625.74680223885002
 11
566.36235296539996
 21
623.87735823884998
  0
LINE
  8
_0-8_小物
  6
CONTINUOUS
 62
    7
 10
564.10272896540005
 20
646.96271423885003
 11
563.9980569654
 21
644.96545523885004
  0
LINE
  8
_0-8_小物
  6
CONTINUOUS
 62
    7
 10
563.9980569654
 20
644.96545523885004
 11
562.00079796540001
 21
645.07012723885009
  0
LINE
  8
_0-8_小物
  6
CONTINUOUS
 62
    7
 10
562.00079796540001
 20
645.07012723885009
 11
561.89612596539996
 21
643.07286823885011
  0
LINE
  8
_0-8_小物
  6
CONTINUOUS
 62
    7
 10
561.89612596539996
 20
643.07286823885011
 11
563.84104896539998
 21
641.96956723885
  0
LINE
  8
_0-8_小物
  6
CONTINUOUS
 62
    7
 10
563.84104896539998
 20
641.96956723885
 11
563.73637696540004
 21
639.97230823884991
  0
LINE
  8
_0-8_小物
  6
CONTINUOUS
 62
    7
 10
563.73637696540004
 20
639.97230823884991
 11
561.73911796540006
 21
640.07697923884996
  0
LINE
  8
_0-8_小物
  6
CONTINUOUS
 62
    7
 10
561.73911796540006
 20
640.07697923884996
 11
561.6344459654
 21
638.07972023884997
  0
LINE
  8
_0-8_小物
  6
CONTINUOUS
 62
    7
 10
561.6344459654
 20
638.07972023884997
 11
563.57936896539991
 21
636.97641923884999
  0
LINE
  8
_0-8_小物
  6
CONTINUOUS
 62
    7
 10
563.57936896539991
 20
636.97641923884999
 11
563.47469696539997
 21
634.97916023885
  0
LINE
  8
_0-8_小物
  6
CONTINUOUS
 62
    7
 10
563.47469696539997
 20
634.97916023885
 11
561.47743796539999
 21
635.08383223884994
  0
LINE
  8
_0-8_小物
  6
CONTINUOUS
 62
    7
 10
561.47743796539999
 20
635.08383223884994
 11
561.37276596540005
 21
633.08657323884995
  0
LINE
  8
_0-8_小物
  6
CONTINUOUS
 62
    7
 10
561.37276596540005
 20
633.08657323884995
 11
563.31768996539995
 21
631.98327123885008
  0
LINE
  8
_0-8_小物
  6
CONTINUOUS
 62
    7
 10
563.31768996539995
 20
631.98327123885008
 11
563.2130179653999
 21
629.98601223885009
  0
LINE
  8
_0-8_小物
  6
CONTINUOUS
 62
    7
 10
563.2130179653999
 20
629.98601223885009
 11
561.21575896539991
 21
630.09068423884992
  0
LINE
  8
_0-8_小物
  6
CONTINUOUS
 62
    7
 10
561.21575896539991
 20
630.09068423884992
 11
561.11108696539998
 21
628.09342523884993
  0
LINE
  8
_0-8_小物
  6
CONTINUOUS
 62
    7
 10
561.11108696539998
 20
628.09342523884993
 11
563.05600996539999
 21
626.99012423885006
  0
LINE
  8
_0-8_小物
  6
CONTINUOUS
 62
    7
 10
563.05600996539999
 20
626.99012423885006
 11
562.95133796539994
 21
624.99286523885007
  0
LINE
  8
_0-8_小物
  6
CONTINUOUS
 62
    7
 10
562.95133796539994
 20
624.99286523885007
 11
560.95407896539996
 21
625.09753623885001
  0
LINE
  8
_0-8_小物
  6
CONTINUOUS
 62
    7
 10
560.95407896539996
 20
625.09753623885001
 11
560.84940696539991
 21
623.10027723885003
  0
LINE
  8
_0-8_小物
  6
CONTINUOUS
 62
    7
 10
570.36235296539996
 20
647.87735823885009
 11
568.62197696539999
 21
646.96271423885003
  0
LINE
  8
_0-8_小物
  6
CONTINUOUS
 62
    7
 10
568.62197696539999
 20
646.96271423885003
 11
568.72664896540005
 21
644.96545523885004
  0
LINE
  8
_0-8_小物
  6
CONTINUOUS
 62
    7
 10
568.72664896540005
 20
644.96545523885004
 11
570.72390796540003
 21
645.07012723885009
  0
LINE
  8
_0-8_小物
  6
CONTINUOUS
 62
    7
 10
570.72390796540003
 20
645.07012723885009
 11
570.82857996539997
 21
643.07286823885011
  0
LINE
  8
_0-8_小物
  6
CONTINUOUS
 62
    7
 10
570.82857996539997
 20
643.07286823885011
 11
568.88365696539995
 21
641.96956723885
  0
LINE
  8
_0-8_小物
  6
CONTINUOUS
 62
    7
 10
568.88365696539995
 20
641.96956723885
 11
568.9883289654
 21
639.97230823884991
  0
LINE
  8
_0-8_小物
  6
CONTINUOUS
 62
    7
 10
568.9883289654
 20
639.97230823884991
 11
570.98558796539999
 21
640.07697923884996
  0
LINE
  8
_0-8_小物
  6
CONTINUOUS
 62
    7
 10
570.98558796539999
 20
640.07697923884996
 11
571.09025996539992
 21
638.07972023884997
  0
LINE
  8
_0-8_小物
  6
CONTINUOUS
 62
    7
 10
571.09025996539992
 20
638.07972023884997
 11
569.14533696540002
 21
636.97641923884999
  0
LINE
  8
_0-8_小物
  6
CONTINUOUS
 62
    7
 10
569.14533696540002
 20
636.97641923884999
 11
569.25000896539996
 21
634.97916023885
  0
LINE
  8
_0-8_小物
  6
CONTINUOUS
 62
    7
 10
569.25000896539996
 20
634.97916023885
 11
571.24726796539994
 21
635.08383223884994
  0
LINE
  8
_0-8_小物
  6
CONTINUOUS
 62
    7
 10
571.24726796539994
 20
635.08383223884994
 11
571.35193996539999
 21
633.08657323884995
  0
LINE
  8
_0-8_小物
  6
CONTINUOUS
 62
    7
 10
571.35193996539999
 20
633.08657323884995
 11
569.40701596539998
 21
631.98327123885008
  0
LINE
  8
_0-8_小物
  6
CONTINUOUS
 62
    7
 10
569.40701596539998
 20
631.98327123885008
 11
569.51168796540003
 21
629.98601223885009
  0
LINE
  8
_0-8_小物
  6
CONTINUOUS
 62
    7
 10
569.51168796540003
 20
629.98601223885009
 11
571.50894696540001
 21
630.09068423884992
  0
LINE
  8
_0-8_小物
  6
CONTINUOUS
 62
    7
 10
571.50894696540001
 20
630.09068423884992
 11
571.61361896539995
 21
628.09342523884993
  0
LINE
  8
_0-8_小物
  6
CONTINUOUS
 62
    7
 10
571.61361896539995
 20
628.09342523884993
 11
569.66869596539993
 21
626.99012423885006
  0
LINE
  8
_0-8_小物
  6
CONTINUOUS
 62
    7
 10
569.66869596539993
 20
626.99012423885006
 11
569.77336796539998
 21
624.99286523885007
  0
LINE
  8
_0-8_小物
  6
CONTINUOUS
 62
    7
 10
569.77336796539998
 20
624.99286523885007
 11
571.77062696539997
 21
625.09753623885001
  0
LINE
  8
_0-8_小物
  6
CONTINUOUS
 62
    7
 10
571.77062696539997
 20
625.09753623885001
 11
571.87529896540002
 21
623.10027723885003
  0
LINE
  8
_0-8_小物
  6
CONTINUOUS
 62
    7
 10
565.86235296539996
 20
651.87735823885009
 11
566.36235296539996
 21
651.87735823885009
  0
LINE
  8
_0-8_小物
  6
CONTINUOUS
 62
    7
 10
566.86235296539996
 20
651.87735823885009
 11
566.36235296539996
 21
651.87735823885009
  0
LINE
  8
_0-8_小物
  6
CONTINUOUS
 62
    7
 10
562.36235296539996
 20
659.87735823885009
 11
562.36235296539996
 21
651.87735823885009
  0
LINE
  8
_0-8_小物
  6
CONTINUOUS
 62
    7
 10
561.36235296539996
 20
659.87735823885009
 11
562.36235296539996
 21
654.87735823885009
  0
LINE
  8
_0-8_小物
  6
CONTINUOUS
 62
    7
 10
565.36235296539996
 20
659.87735823885009
 11
566.36235296539996
 21
654.87735823885009
  0
LINE
  8
_0-8_小物
  6
CONTINUOUS
 62
    7
 10
567.36235296539996
 20
659.87735823885009
 11
566.36235296539996
 21
654.87735823885009
  0
LINE
  8
_0-8_小物
  6
CONTINUOUS
 62
    7
 10
566.36235296539996
 20
654.87735823885009
 11
566.36235296539996
 21
659.87735823885009
  0
LINE
  8
_0-8_小物
  6
CONTINUOUS
 62
    7
 10
570.36235296539996
 20
659.87735823885009
 11
570.36235296539996
 21
651.87735823885009
  0
LINE
  8
_0-8_小物
  6
CONTINUOUS
 62
    7
 10
571.36235296539996
 20
659.87735823885009
 11
570.36235296539996
 21
654.87735823885009
  0
LINE
  8
_0-8_小物
  6
CONTINUOUS
 62
    7
 10
568.23179696540001
 20
625.74680223885002
 11
566.36235296539996
 21
623.87735823884998
  0
LINE
  8
_0-8_小物
  6
CONTINUOUS
 62
    7
 10
561.36235296539996
 20
659.87735823885009
 11
571.36235296539996
 21
659.87735823885009
  0
LINE
  8
_0-8_小物
  6
CONTINUOUS
 62
    7
 10
562.82398957039993
 20
640.02012402095011
 11
560.98344496540005
 21
645.07697923885007
  0
LINE
  8
_0-8_小物
  6
CONTINUOUS
 62
    7
 10
569.90071636029995
 20
640.02012402095011
 11
571.74126096539999
 21
645.07697923885007
  0
LINE
  8
_0-8_小物
  6
CONTINUOUS
 62
    7
 10
612.68095396540002
 20
644.73495923885002
 11
613.6733089654
 21
651.53858123884993
  0
ARC
  8
_0-8_小物
  6
CONTINUOUS
 62
    7
 10
613.27749696540002
 20
651.59631323885003
 40
0.4
 50
351.701533999996
 51
81.869898000009968
  0
LINE
  8
_0-8_小物
  6
CONTINUOUS
 62
    7
 10
613.33406596539999
 20
651.99229323884992
 11
613.1372409654
 21
652.0204112388501
  0
ARC
  8
_0-8_小物
  6
CONTINUOUS
 62
    7
 10
613.08067296540003
 20
651.62443123884998
 40
0.4
 50
81.869897999990002
 51
171.86989800000001
  0
LINE
  8
_0-8_小物
  6
CONTINUOUS
 62
    7
 10
612.68469296540002
 20
651.68100023885006
 11
611.74126096539999
 21
645.07697923885007
  0
LINE
  8
_0-8_小物
  6
CONTINUOUS
 62
    7
 10
612.68095396540002
 20
644.73495923885002
 11
613.6733089654
 21
651.53858123884993
  0
ARC
  8
_0-8_小物
  6
CONTINUOUS
 62
    7
 10
613.27749696540002
 20
651.59631323885003
 40
0.4
 50
351.701533999996
 51
81.869898000009968
  0
LINE
  8
_0-8_小物
  6
CONTINUOUS
 62
    7
 10
613.33406596539999
 20
651.99229323884992
 11
613.1372409654
 21
652.0204112388501
  0
ARC
  8
_0-8_小物
  6
CONTINUOUS
 62
    7
 10
613.08067296540003
 20
651.62443123884998
 40
0.4
 50
81.869897999990002
 51
171.86989800000001
  0
LINE
  8
_0-8_小物
  6
CONTINUOUS
 62
    7
 10
612.68469296540002
 20
651.68100023885006
 11
611.74126096539999
 21
645.07697923885007
  0
LINE
  8
_0-8_小物
  6
CONTINUOUS
 62
    7
 10
600.04375196540002
 20
644.73495923885002
 11
599.05139696539993
 21
651.53858123884993
  0
ARC
  8
_0-8_小物
  6
CONTINUOUS
 62
    7
 10
599.44720896540002
 20
651.59631323885003
 40
0.4
 50
98.130101999990003
 51
188.29846599999999
  0
LINE
  8
_0-8_小物
  6
CONTINUOUS
 62
    7
 10
599.39063996539994
 20
651.99229323884992
 11
599.58746496539993
 21
652.0204112388501
  0
ARC
  8
_0-8_小物
  6
CONTINUOUS
 62
    7
 10
599.64403396540001
 20
651.62443123884998
 40
0.4
 50
8.1301019999920001
 51
98.130102000009984
  0
LINE
  8
_0-8_小物
  6
CONTINUOUS
 62
    7
 10
600.04001296540002
 20
651.68100023885006
 11
600.98344496539994
 21
645.07697923885007
  0
LINE
  8
_0-8_小物
  6
CONTINUOUS
 62
    7
 10
602.36235296539996
 20
647.87735823885009
 11
602.36235296539996
 21
651.87735823885009
  0
LINE
  8
_0-8_小物
  6
CONTINUOUS
 62
    7
 10
604.34460996539997
 20
622.91710223885002
 11
600.84940696540002
 21
623.10027723885003
  0
LINE
  8
_0-8_小物
  6
CONTINUOUS
 62
    7
 10
600.84940696540002
 20
623.10027723885003
 11
602.74199396539996
 21
620.99834623884999
  0
LINE
  8
_0-8_小物
  6
CONTINUOUS
 62
    7
 10
602.74199396539996
 20
620.99834623884999
 11
604.23993796540003
 21
620.91984223885004
  0
LINE
  8
_0-8_小物
  6
CONTINUOUS
 62
    7
 10
604.23993796540003
 20
620.91984223885004
 11
605.86235296539996
 21
651.87735823885009
  0
LINE
  8
_0-8_小物
  6
CONTINUOUS
 62
    7
 10
610.36235296539996
 20
647.87735823885009
 11
610.36235296539996
 21
651.87735823885009
  0
LINE
  8
_0-8_小物
  6
CONTINUOUS
 62
    7
 10
608.38009596539996
 20
622.91710223885002
 11
611.87529896540002
 21
623.10027723885003
  0
LINE
  8
_0-8_小物
  6
CONTINUOUS
 62
    7
 10
611.87529896540002
 20
623.10027723885003
 11
609.98271196539997
 21
620.99834623884999
  0
LINE
  8
_0-8_小物
  6
CONTINUOUS
 62
    7
 10
609.98271196539997
 20
620.99834623884999
 11
608.48476796540001
 21
620.91984223885004
  0
LINE
  8
_0-8_小物
  6
CONTINUOUS
 62
    7
 10
608.48476796540001
 20
620.91984223885004
 11
606.86235296539996
 21
651.87735823885009
  0
LINE
  8
_0-8_小物
  6
CONTINUOUS
 62
    7
 10
601.73911796539994
 20
640.07697923884996
 11
600.04375196540002
 21
644.73495923885002
  0
LINE
  8
_0-8_小物
  6
CONTINUOUS
 62
    7
 10
610.98558796539999
 20
640.07697923884996
 11
612.68095396540002
 21
644.73495923885002
  0
LINE
  8
_0-8_小物
  6
CONTINUOUS
 62
    7
 10
602.36235296539996
 20
647.87735823885009
 11
604.10272896539993
 21
646.96271423885003
  0
LINE
  8
_0-8_小物
  6
CONTINUOUS
 62
    7
 10
604.49290896540003
 20
625.74680223885002
 11
606.36235296539996
 21
623.87735823884998
  0
LINE
  8
_0-8_小物
  6
CONTINUOUS
 62
    7
 10
604.10272896539993
 20
646.96271423885003
 11
603.9980569654
 21
644.96545523885004
  0
LINE
  8
_0-8_小物
  6
CONTINUOUS
 62
    7
 10
603.9980569654
 20
644.96545523885004
 11
602.00079796540001
 21
645.07012723885009
  0
LINE
  8
_0-8_小物
  6
CONTINUOUS
 62
    7
 10
602.00079796540001
 20
645.07012723885009
 11
601.89612596539996
 21
643.07286823885011
  0
LINE
  8
_0-8_小物
  6
CONTINUOUS
 62
    7
 10
601.89612596539996
 20
643.07286823885011
 11
603.84104896539998
 21
641.96956723885
  0
LINE
  8
_0-8_小物
  6
CONTINUOUS
 62
    7
 10
603.84104896539998
 20
641.96956723885
 11
603.73637696539993
 21
639.97230823884991
  0
LINE
  8
_0-8_小物
  6
CONTINUOUS
 62
    7
 10
603.73637696539993
 20
639.97230823884991
 11
601.73911796539994
 21
640.07697923884996
  0
LINE
  8
_0-8_小物
  6
CONTINUOUS
 62
    7
 10
601.73911796539994
 20
640.07697923884996
 11
601.6344459654
 21
638.07972023884997
  0
LINE
  8
_0-8_小物
  6
CONTINUOUS
 62
    7
 10
601.6344459654
 20
638.07972023884997
 11
603.57936896540002
 21
636.97641923884999
  0
LINE
  8
_0-8_小物
  6
CONTINUOUS
 62
    7
 10
603.57936896540002
 20
636.97641923884999
 11
603.47469696539997
 21
634.97916023885
  0
LINE
  8
_0-8_小物
  6
CONTINUOUS
 62
    7
 10
603.47469696539997
 20
634.97916023885
 11
601.47743796539999
 21
635.08383223884994
  0
LINE
  8
_0-8_小物
  6
CONTINUOUS
 62
    7
 10
601.47743796539999
 20
635.08383223884994
 11
601.37276596539994
 21
633.08657323884995
  0
LINE
  8
_0-8_小物
  6
CONTINUOUS
 62
    7
 10
601.37276596539994
 20
633.08657323884995
 11
603.31768996539995
 21
631.98327123885008
  0
LINE
  8
_0-8_小物
  6
CONTINUOUS
 62
    7
 10
603.31768996539995
 20
631.98327123885008
 11
603.21301796540001
 21
629.98601223885009
  0
LINE
  8
_0-8_小物
  6
CONTINUOUS
 62
    7
 10
603.21301796540001
 20
629.98601223885009
 11
601.21575896540003
 21
630.09068423884992
  0
LINE
  8
_0-8_小物
  6
CONTINUOUS
 62
    7
 10
601.21575896540003
 20
630.09068423884992
 11
601.11108696539998
 21
628.09342523884993
  0
LINE
  8
_0-8_小物
  6
CONTINUOUS
 62
    7
 10
601.11108696539998
 20
628.09342523884993
 11
603.05600996539999
 21
626.99012423885006
  0
LINE
  8
_0-8_小物
  6
CONTINUOUS
 62
    7
 10
603.05600996539999
 20
626.99012423885006
 11
602.95133796539994
 21
624.99286523885007
  0
LINE
  8
_0-8_小物
  6
CONTINUOUS
 62
    7
 10
602.95133796539994
 20
624.99286523885007
 11
600.95407896539996
 21
625.09753623885001
  0
LINE
  8
_0-8_小物
  6
CONTINUOUS
 62
    7
 10
600.95407896539996
 20
625.09753623885001
 11
600.84940696540002
 21
623.10027723885003
  0
LINE
  8
_0-8_小物
  6
CONTINUOUS
 62
    7
 10
610.36235296539996
 20
647.87735823885009
 11
608.62197696539999
 21
646.96271423885003
  0
LINE
  8
_0-8_小物
  6
CONTINUOUS
 62
    7
 10
608.62197696539999
 20
646.96271423885003
 11
608.72664896539993
 21
644.96545523885004
  0
LINE
  8
_0-8_小物
  6
CONTINUOUS
 62
    7
 10
608.72664896539993
 20
644.96545523885004
 11
610.72390796540003
 21
645.07012723885009
  0
LINE
  8
_0-8_小物
  6
CONTINUOUS
 62
    7
 10
610.72390796540003
 20
645.07012723885009
 11
610.82857996539997
 21
643.07286823885011
  0
LINE
  8
_0-8_小物
  6
CONTINUOUS
 62
    7
 10
610.82857996539997
 20
643.07286823885011
 11
608.88365696539995
 21
641.96956723885
  0
LINE
  8
_0-8_小物
  6
CONTINUOUS
 62
    7
 10
608.88365696539995
 20
641.96956723885
 11
608.9883289654
 21
639.97230823884991
  0
LINE
  8
_0-8_小物
  6
CONTINUOUS
 62
    7
 10
608.9883289654
 20
639.97230823884991
 11
610.98558796539999
 21
640.07697923884996
  0
LINE
  8
_0-8_小物
  6
CONTINUOUS
 62
    7
 10
610.98558796539999
 20
640.07697923884996
 11
611.09025996539992
 21
638.07972023884997
  0
LINE
  8
_0-8_小物
  6
CONTINUOUS
 62
    7
 10
611.09025996539992
 20
638.07972023884997
 11
609.14533696540002
 21
636.97641923884999
  0
LINE
  8
_0-8_小物
  6
CONTINUOUS
 62
    7
 10
609.14533696540002
 20
636.97641923884999
 11
609.25000896539996
 21
634.97916023885
  0
LINE
  8
_0-8_小物
  6
CONTINUOUS
 62
    7
 10
609.25000896539996
 20
634.97916023885
 11
611.24726796539994
 21
635.08383223884994
  0
LINE
  8
_0-8_小物
  6
CONTINUOUS
 62
    7
 10
611.24726796539994
 20
635.08383223884994
 11
611.35193996539999
 21
633.08657323884995
  0
LINE
  8
_0-8_小物
  6
CONTINUOUS
 62
    7
 10
611.35193996539999
 20
633.08657323884995
 11
609.40701596539998
 21
631.98327123885008
  0
LINE
  8
_0-8_小物
  6
CONTINUOUS
 62
    7
 10
609.40701596539998
 20
631.98327123885008
 11
609.51168796540003
 21
629.98601223885009
  0
LINE
  8
_0-8_小物
  6
CONTINUOUS
 62
    7
 10
609.51168796540003
 20
629.98601223885009
 11
611.50894696540001
 21
630.09068423884992
  0
LINE
  8
_0-8_小物
  6
CONTINUOUS
 62
    7
 10
611.50894696540001
 20
630.09068423884992
 11
611.61361896539995
 21
628.09342523884993
  0
LINE
  8
_0-8_小物
  6
CONTINUOUS
 62
    7
 10
611.61361896539995
 20
628.09342523884993
 11
609.66869596539993
 21
626.99012423885006
  0
LINE
  8
_0-8_小物
  6
CONTINUOUS
 62
    7
 10
609.66869596539993
 20
626.99012423885006
 11
609.77336796539998
 21
624.99286523885007
  0
LINE
  8
_0-8_小物
  6
CONTINUOUS
 62
    7
 10
609.77336796539998
 20
624.99286523885007
 11
611.77062696539997
 21
625.09753623885001
  0
LINE
  8
_0-8_小物
  6
CONTINUOUS
 62
    7
 10
611.77062696539997
 20
625.09753623885001
 11
611.87529896540002
 21
623.10027723885003
  0
LINE
  8
_0-8_小物
  6
CONTINUOUS
 62
    7
 10
605.86235296539996
 20
651.87735823885009
 11
606.36235296539996
 21
651.87735823885009
  0
LINE
  8
_0-8_小物
  6
CONTINUOUS
 62
    7
 10
606.86235296539996
 20
651.87735823885009
 11
606.36235296539996
 21
651.87735823885009
  0
LINE
  8
_0-8_小物
  6
CONTINUOUS
 62
    7
 10
602.36235296539996
 20
659.87735823885009
 11
602.36235296539996
 21
651.87735823885009
  0
LINE
  8
_0-8_小物
  6
CONTINUOUS
 62
    7
 10
601.36235296539996
 20
659.87735823885009
 11
602.36235296539996
 21
654.87735823885009
  0
LINE
  8
_0-8_小物
  6
CONTINUOUS
 62
    7
 10
605.36235296539996
 20
659.87735823885009
 11
606.36235296539996
 21
654.87735823885009
  0
LINE
  8
_0-8_小物
  6
CONTINUOUS
 62
    7
 10
607.36235296539996
 20
659.87735823885009
 11
606.36235296539996
 21
654.87735823885009
  0
LINE
  8
_0-8_小物
  6
CONTINUOUS
 62
    7
 10
606.36235296539996
 20
654.87735823885009
 11
606.36235296539996
 21
659.87735823885009
  0
LINE
  8
_0-8_小物
  6
CONTINUOUS
 62
    7
 10
610.36235296539996
 20
659.87735823885009
 11
610.36235296539996
 21
651.87735823885009
  0
LINE
  8
_0-8_小物
  6
CONTINUOUS
 62
    7
 10
611.36235296539996
 20
659.87735823885009
 11
610.36235296539996
 21
654.87735823885009
  0
LINE
  8
_0-8_小物
  6
CONTINUOUS
 62
    7
 10
608.23179696540001
 20
625.74680223885002
 11
606.36235296539996
 21
623.87735823884998
  0
LINE
  8
_0-8_小物
  6
CONTINUOUS
 62
    7
 10
601.36235296539996
 20
659.87735823885009
 11
611.36235296539996
 21
659.87735823885009
  0
LINE
  8
_0-8_小物
  6
CONTINUOUS
 62
    7
 10
602.82398957039993
 20
640.02012402095011
 11
600.98344496539994
 21
645.07697923885007
  0
LINE
  8
_0-8_小物
  6
CONTINUOUS
 62
    7
 10
609.90071636029995
 20
640.02012402095011
 11
611.74126096539999
 21
645.07697923885007
  0
LINE
  8
_0-8_小物
  6
CONTINUOUS
 62
    7
 10
863.51490666799987
 20
644.73495923885002
 11
864.50726166799996
 21
651.53858123884993
  0
ARC
  8
_0-8_小物
  6
CONTINUOUS
 62
    7
 10
864.11144966799998
 20
651.59631323885003
 40
0.4
 50
351.701533999996
 51
81.869897999989959
  0
LINE
  8
_0-8_小物
  6
CONTINUOUS
 62
    7
 10
864.16801866800006
 20
651.99229323884992
 11
863.97119366800007
 21
652.0204112388501
  0
ARC
  8
_0-8_小物
  6
CONTINUOUS
 62
    7
 10
863.91462566799987
 20
651.62443123884998
 40
0.4
 50
81.869898000009982
 51
171.86989800000001
  0
LINE
  8
_0-8_小物
  6
CONTINUOUS
 62
    7
 10
863.51864566800009
 20
651.68100023885006
 11
862.57521366800006
 21
645.07697923885007
  0
LINE
  8
_0-8_小物
  6
CONTINUOUS
 62
    7
 10
863.51490666799987
 20
644.73495923885002
 11
864.50726166799996
 21
651.53858123884993
  0
ARC
  8
_0-8_小物
  6
CONTINUOUS
 62
    7
 10
864.11144966799998
 20
651.59631323885003
 40
0.4
 50
351.701533999996
 51
81.869897999989959
  0
LINE
  8
_0-8_小物
  6
CONTINUOUS
 62
    7
 10
864.16801866800006
 20
651.99229323884992
 11
863.97119366800007
 21
652.0204112388501
  0
ARC
  8
_0-8_小物
  6
CONTINUOUS
 62
    7
 10
863.91462566799987
 20
651.62443123884998
 40
0.4
 50
81.869898000009982
 51
171.86989800000001
  0
LINE
  8
_0-8_小物
  6
CONTINUOUS
 62
    7
 10
863.51864566800009
 20
651.68100023885006
 11
862.57521366800006
 21
645.07697923885007
  0
LINE
  8
_0-8_小物
  6
CONTINUOUS
 62
    7
 10
850.87770466799998
 20
644.73495923885002
 11
849.88534966799989
 21
651.53858123884993
  0
ARC
  8
_0-8_小物
  6
CONTINUOUS
 62
    7
 10
850.28116166799987
 20
651.59631323885003
 40
0.4
 50
98.130102000009998
 51
188.29846599999999
  0
LINE
  8
_0-8_小物
  6
CONTINUOUS
 62
    7
 10
850.22459266800001
 20
651.99229323884992
 11
850.421417668
 21
652.0204112388501
  0
ARC
  8
_0-8_小物
  6
CONTINUOUS
 62
    7
 10
850.47798666799986
 20
651.62443123884998
 40
0.4
 50
8.1301019999920001
 51
98.130102000009984
  0
LINE
  8
_0-8_小物
  6
CONTINUOUS
 62
    7
 10
850.87396566799998
 20
651.68100023885006
 11
851.81739766800001
 21
645.07697923885007
  0
LINE
  8
_0-8_小物
  6
CONTINUOUS
 62
    7
 10
853.19630566799992
 20
647.87735823885009
 11
853.19630566799992
 21
651.87735823885009
  0
LINE
  8
_0-8_小物
  6
CONTINUOUS
 62
    7
 10
855.17856266800004
 20
622.91710223885002
 11
851.68335966799987
 21
623.10027723885003
  0
LINE
  8
_0-8_小物
  6
CONTINUOUS
 62
    7
 10
851.68335966799987
 20
623.10027723885003
 11
853.57594666800003
 21
620.99834623884999
  0
LINE
  8
_0-8_小物
  6
CONTINUOUS
 62
    7
 10
853.57594666800003
 20
620.99834623884999
 11
855.07389066799988
 21
620.91984223885004
  0
LINE
  8
_0-8_小物
  6
CONTINUOUS
 62
    7
 10
855.07389066799988
 20
620.91984223885004
 11
856.69630566799992
 21
651.87735823885009
  0
LINE
  8
_0-8_小物
  6
CONTINUOUS
 62
    7
 10
861.19630566799992
 20
647.87735823885009
 11
861.19630566799992
 21
651.87735823885009
  0
LINE
  8
_0-8_小物
  6
CONTINUOUS
 62
    7
 10
859.21404866800003
 20
622.91710223885002
 11
862.70925166799998
 21
623.10027723885003
  0
LINE
  8
_0-8_小物
  6
CONTINUOUS
 62
    7
 10
862.70925166799998
 20
623.10027723885003
 11
860.81666466799993
 21
620.99834623884999
  0
LINE
  8
_0-8_小物
  6
CONTINUOUS
 62
    7
 10
860.81666466799993
 20
620.99834623884999
 11
859.31872066799997
 21
620.91984223885004
  0
LINE
  8
_0-8_小物
  6
CONTINUOUS
 62
    7
 10
859.31872066799997
 20
620.91984223885004
 11
857.69630566799992
 21
651.87735823885009
  0
LINE
  8
_0-8_小物
  6
CONTINUOUS
 62
    7
 10
852.57307066800001
 20
640.07697923884996
 11
850.87770466799998
 21
644.73495923885002
  0
LINE
  8
_0-8_小物
  6
CONTINUOUS
 62
    7
 10
861.81954066799995
 20
640.07697923884996
 11
863.51490666799987
 21
644.73495923885002
  0
LINE
  8
_0-8_小物
  6
CONTINUOUS
 62
    7
 10
853.19630566799992
 20
647.87735823885009
 11
854.93668166800001
 21
646.96271423885003
  0
LINE
  8
_0-8_小物
  6
CONTINUOUS
 62
    7
 10
855.32686166799999
 20
625.74680223885002
 11
857.19630566799992
 21
623.87735823884998
  0
LINE
  8
_0-8_小物
  6
CONTINUOUS
 62
    7
 10
854.93668166800001
 20
646.96271423885003
 11
854.83200966799996
 21
644.96545523885004
  0
LINE
  8
_0-8_小物
  6
CONTINUOUS
 62
    7
 10
854.83200966799996
 20
644.96545523885004
 11
852.83475066799997
 21
645.07012723885009
  0
LINE
  8
_0-8_小物
  6
CONTINUOUS
 62
    7
 10
852.83475066799997
 20
645.07012723885009
 11
852.73007866800003
 21
643.07286823885011
  0
LINE
  8
_0-8_小物
  6
CONTINUOUS
 62
    7
 10
852.73007866800003
 20
643.07286823885011
 11
854.67500166799982
 21
641.96956723885
  0
LINE
  8
_0-8_小物
  6
CONTINUOUS
 62
    7
 10
854.67500166799982
 20
641.96956723885
 11
854.570329668
 21
639.97230823884991
  0
LINE
  8
_0-8_小物
  6
CONTINUOUS
 62
    7
 10
854.570329668
 20
639.97230823884991
 11
852.57307066800001
 21
640.07697923884996
  0
LINE
  8
_0-8_小物
  6
CONTINUOUS
 62
    7
 10
852.57307066800001
 20
640.07697923884996
 11
852.46839866799996
 21
638.07972023884997
  0
LINE
  8
_0-8_小物
  6
CONTINUOUS
 62
    7
 10
852.46839866799996
 20
638.07972023884997
 11
854.41332166799998
 21
636.97641923884999
  0
LINE
  8
_0-8_小物
  6
CONTINUOUS
 62
    7
 10
854.41332166799998
 20
636.97641923884999
 11
854.30864966799982
 21
634.97916023885
  0
LINE
  8
_0-8_小物
  6
CONTINUOUS
 62
    7
 10
854.30864966799982
 20
634.97916023885
 11
852.31139066799983
 21
635.08383223884994
  0
LINE
  8
_0-8_小物
  6
CONTINUOUS
 62
    7
 10
852.31139066799983
 20
635.08383223884994
 11
852.20671866800001
 21
633.08657323884995
  0
LINE
  8
_0-8_小物
  6
CONTINUOUS
 62
    7
 10
852.20671866800001
 20
633.08657323884995
 11
854.15164266800002
 21
631.98327123885008
  0
LINE
  8
_0-8_小物
  6
CONTINUOUS
 62
    7
 10
854.15164266800002
 20
631.98327123885008
 11
854.04697066799986
 21
629.98601223885009
  0
LINE
  8
_0-8_小物
  6
CONTINUOUS
 62
    7
 10
854.04697066799986
 20
629.98601223885009
 11
852.04971166799987
 21
630.09068423884992
  0
LINE
  8
_0-8_小物
  6
CONTINUOUS
 62
    7
 10
852.04971166799987
 20
630.09068423884992
 11
851.94503966799994
 21
628.09342523884993
  0
LINE
  8
_0-8_小物
  6
CONTINUOUS
 62
    7
 10
851.94503966799994
 20
628.09342523884993
 11
853.88996266799995
 21
626.99012423885006
  0
LINE
  8
_0-8_小物
  6
CONTINUOUS
 62
    7
 10
853.88996266799995
 20
626.99012423885006
 11
853.78529066800002
 21
624.99286523885007
  0
LINE
  8
_0-8_小物
  6
CONTINUOUS
 62
    7
 10
853.78529066800002
 20
624.99286523885007
 11
851.78803166800003
 21
625.09753623885001
  0
LINE
  8
_0-8_小物
  6
CONTINUOUS
 62
    7
 10
851.78803166800003
 20
625.09753623885001
 11
851.68335966799987
 21
623.10027723885003
  0
LINE
  8
_0-8_小物
  6
CONTINUOUS
 62
    7
 10
861.19630566799992
 20
647.87735823885009
 11
859.45592966799995
 21
646.96271423885003
  0
LINE
  8
_0-8_小物
  6
CONTINUOUS
 62
    7
 10
859.45592966799995
 20
646.96271423885003
 11
859.56060166800012
 21
644.96545523885004
  0
LINE
  8
_0-8_小物
  6
CONTINUOUS
 62
    7
 10
859.56060166800012
 20
644.96545523885004
 11
861.5578606680001
 21
645.07012723885009
  0
LINE
  8
_0-8_小物
  6
CONTINUOUS
 62
    7
 10
861.5578606680001
 20
645.07012723885009
 11
861.66253266799993
 21
643.07286823885011
  0
LINE
  8
_0-8_小物
  6
CONTINUOUS
 62
    7
 10
861.66253266799993
 20
643.07286823885011
 11
859.71760966800002
 21
641.96956723885
  0
LINE
  8
_0-8_小物
  6
CONTINUOUS
 62
    7
 10
859.71760966800002
 20
641.96956723885
 11
859.82228166799996
 21
639.97230823884991
  0
LINE
  8
_0-8_小物
  6
CONTINUOUS
 62
    7
 10
859.82228166799996
 20
639.97230823884991
 11
861.81954066799995
 21
640.07697923884996
  0
LINE
  8
_0-8_小物
  6
CONTINUOUS
 62
    7
 10
861.81954066799995
 20
640.07697923884996
 11
861.92421266800011
 21
638.07972023884997
  0
LINE
  8
_0-8_小物
  6
CONTINUOUS
 62
    7
 10
861.92421266800011
 20
638.07972023884997
 11
859.97928966799986
 21
636.97641923884999
  0
LINE
  8
_0-8_小物
  6
CONTINUOUS
 62
    7
 10
859.97928966799986
 20
636.97641923884999
 11
860.08396166800003
 21
634.97916023885
  0
LINE
  8
_0-8_小物
  6
CONTINUOUS
 62
    7
 10
860.08396166800003
 20
634.97916023885
 11
862.08122066800001
 21
635.08383223884994
  0
LINE
  8
_0-8_小物
  6
CONTINUOUS
 62
    7
 10
862.08122066800001
 20
635.08383223884994
 11
862.18589266799995
 21
633.08657323884995
  0
LINE
  8
_0-8_小物
  6
CONTINUOUS
 62
    7
 10
862.18589266799995
 20
633.08657323884995
 11
860.24096866799982
 21
631.98327123885008
  0
LINE
  8
_0-8_小物
  6
CONTINUOUS
 62
    7
 10
860.24096866799982
 20
631.98327123885008
 11
860.34564066799999
 21
629.98601223885009
  0
LINE
  8
_0-8_小物
  6
CONTINUOUS
 62
    7
 10
860.34564066799999
 20
629.98601223885009
 11
862.34289966799997
 21
630.09068423884992
  0
LINE
  8
_0-8_小物
  6
CONTINUOUS
 62
    7
 10
862.34289966799997
 20
630.09068423884992
 11
862.44757166799991
 21
628.09342523884993
  0
LINE
  8
_0-8_小物
  6
CONTINUOUS
 62
    7
 10
862.44757166799991
 20
628.09342523884993
 11
860.50264866800001
 21
626.99012423885006
  0
LINE
  8
_0-8_小物
  6
CONTINUOUS
 62
    7
 10
860.50264866800001
 20
626.99012423885006
 11
860.60732066799983
 21
624.99286523885007
  0
LINE
  8
_0-8_小物
  6
CONTINUOUS
 62
    7
 10
860.60732066799983
 20
624.99286523885007
 11
862.60457966799981
 21
625.09753623885001
  0
LINE
  8
_0-8_小物
  6
CONTINUOUS
 62
    7
 10
862.60457966799981
 20
625.09753623885001
 11
862.70925166799998
 21
623.10027723885003
  0
LINE
  8
_0-8_小物
  6
CONTINUOUS
 62
    7
 10
856.69630566799992
 20
651.87735823885009
 11
857.19630566799992
 21
651.87735823885009
  0
LINE
  8
_0-8_小物
  6
CONTINUOUS
 62
    7
 10
857.69630566799992
 20
651.87735823885009
 11
857.19630566799992
 21
651.87735823885009
  0
LINE
  8
_0-8_小物
  6
CONTINUOUS
 62
    7
 10
853.19630566799992
 20
659.87735823885009
 11
853.19630566799992
 21
651.87735823885009
  0
LINE
  8
_0-8_小物
  6
CONTINUOUS
 62
    7
 10
852.19630566799992
 20
659.87735823885009
 11
853.19630566799992
 21
654.87735823885009
  0
LINE
  8
_0-8_小物
  6
CONTINUOUS
 62
    7
 10
856.19630566799992
 20
659.87735823885009
 11
857.19630566799992
 21
654.87735823885009
  0
LINE
  8
_0-8_小物
  6
CONTINUOUS
 62
    7
 10
858.19630566799992
 20
659.87735823885009
 11
857.19630566799992
 21
654.87735823885009
  0
LINE
  8
_0-8_小物
  6
CONTINUOUS
 62
    7
 10
857.19630566799992
 20
654.87735823885009
 11
857.19630566799992
 21
659.87735823885009
  0
LINE
  8
_0-8_小物
  6
CONTINUOUS
 62
    7
 10
861.19630566799992
 20
659.87735823885009
 11
861.19630566799992
 21
651.87735823885009
  0
LINE
  8
_0-8_小物
  6
CONTINUOUS
 62
    7
 10
862.19630566799992
 20
659.87735823885009
 11
861.19630566799992
 21
654.87735823885009
  0
LINE
  8
_0-8_小物
  6
CONTINUOUS
 62
    7
 10
859.06574966799997
 20
625.74680223885002
 11
857.19630566799992
 21
623.87735823884998
  0
LINE
  8
_0-8_小物
  6
CONTINUOUS
 62
    7
 10
852.19630566799992
 20
659.87735823885009
 11
862.19630566799992
 21
659.87735823885009
  0
LINE
  8
_0-8_小物
  6
CONTINUOUS
 62
    7
 10
853.65794227309993
 20
640.02012402095011
 11
851.81739766800001
 21
645.07697923885007
  0
LINE
  8
_0-8_小物
  6
CONTINUOUS
 62
    7
 10
860.73466906299996
 20
640.02012402095011
 11
862.57521366800006
 21
645.07697923885007
  0
LINE
  8
_0-8_小物
  6
CONTINUOUS
 62
    7
 10
903.51490666800009
 20
644.73495923885002
 11
904.50726166799996
 21
651.53858123884993
  0
ARC
  8
_0-8_小物
  6
CONTINUOUS
 62
    7
 10
904.11144966799998
 20
651.59631323885003
 40
0.4
 50
351.701533999996
 51
81.869898000009968
  0
LINE
  8
_0-8_小物
  6
CONTINUOUS
 62
    7
 10
904.16801866799995
 20
651.99229323884992
 11
903.97119366799996
 21
652.0204112388501
  0
ARC
  8
_0-8_小物
  6
CONTINUOUS
 62
    7
 10
903.9146256680001
 20
651.62443123884998
 40
0.4
 50
81.869897999990002
 51
171.86989800000001
  0
LINE
  8
_0-8_小物
  6
CONTINUOUS
 62
    7
 10
903.51864566799998
 20
651.68100023885006
 11
902.57521366799995
 21
645.07697923885007
  0
LINE
  8
_0-8_小物
  6
CONTINUOUS
 62
    7
 10
903.51490666800009
 20
644.73495923885002
 11
904.50726166799996
 21
651.53858123884993
  0
ARC
  8
_0-8_小物
  6
CONTINUOUS
 62
    7
 10
904.11144966799998
 20
651.59631323885003
 40
0.4
 50
351.701533999996
 51
81.869898000009968
  0
LINE
  8
_0-8_小物
  6
CONTINUOUS
 62
    7
 10
904.16801866799995
 20
651.99229323884992
 11
903.97119366799996
 21
652.0204112388501
  0
ARC
  8
_0-8_小物
  6
CONTINUOUS
 62
    7
 10
903.9146256680001
 20
651.62443123884998
 40
0.4
 50
81.869897999990002
 51
171.86989800000001
  0
LINE
  8
_0-8_小物
  6
CONTINUOUS
 62
    7
 10
903.51864566799998
 20
651.68100023885006
 11
902.57521366799995
 21
645.07697923885007
  0
LINE
  8
_0-8_小物
  6
CONTINUOUS
 62
    7
 10
890.87770466799998
 20
644.73495923885002
 11
889.88534966800012
 21
651.53858123884993
  0
ARC
  8
_0-8_小物
  6
CONTINUOUS
 62
    7
 10
890.2811616680001
 20
651.59631323885003
 40
0.4
 50
98.130101999990003
 51
188.29846599999999
  0
LINE
  8
_0-8_小物
  6
CONTINUOUS
 62
    7
 10
890.22459266800001
 20
651.99229323884992
 11
890.421417668
 21
652.0204112388501
  0
ARC
  8
_0-8_小物
  6
CONTINUOUS
 62
    7
 10
890.47798666800009
 20
651.62443123884998
 40
0.4
 50
8.1301019999920001
 51
98.130102000009984
  0
LINE
  8
_0-8_小物
  6
CONTINUOUS
 62
    7
 10
890.87396566799998
 20
651.68100023885006
 11
891.81739766800001
 21
645.07697923885007
  0
LINE
  8
_0-8_小物
  6
CONTINUOUS
 62
    7
 10
893.19630566799992
 20
647.87735823885009
 11
893.19630566799992
 21
651.87735823885009
  0
LINE
  8
_0-8_小物
  6
CONTINUOUS
 62
    7
 10
895.17856266799993
 20
622.91710223885002
 11
891.68335966800009
 21
623.10027723885003
  0
LINE
  8
_0-8_小物
  6
CONTINUOUS
 62
    7
 10
891.68335966800009
 20
623.10027723885003
 11
893.57594666799992
 21
620.99834623884999
  0
LINE
  8
_0-8_小物
  6
CONTINUOUS
 62
    7
 10
893.57594666799992
 20
620.99834623884999
 11
895.0738906680001
 21
620.91984223885004
  0
LINE
  8
_0-8_小物
  6
CONTINUOUS
 62
    7
 10
895.0738906680001
 20
620.91984223885004
 11
896.69630566799992
 21
651.87735823885009
  0
LINE
  8
_0-8_小物
  6
CONTINUOUS
 62
    7
 10
901.19630566799992
 20
647.87735823885009
 11
901.19630566799992
 21
651.87735823885009
  0
LINE
  8
_0-8_小物
  6
CONTINUOUS
 62
    7
 10
899.21404866800003
 20
622.91710223885002
 11
902.70925166799998
 21
623.10027723885003
  0
LINE
  8
_0-8_小物
  6
CONTINUOUS
 62
    7
 10
902.70925166799998
 20
623.10027723885003
 11
900.81666466799993
 21
620.99834623884999
  0
LINE
  8
_0-8_小物
  6
CONTINUOUS
 62
    7
 10
900.81666466799993
 20
620.99834623884999
 11
899.31872066799997
 21
620.91984223885004
  0
LINE
  8
_0-8_小物
  6
CONTINUOUS
 62
    7
 10
899.31872066799997
 20
620.91984223885004
 11
897.69630566799992
 21
651.87735823885009
  0
LINE
  8
_0-8_小物
  6
CONTINUOUS
 62
    7
 10
892.5730706679999
 20
640.07697923884996
 11
890.87770466799998
 21
644.73495923885002
  0
LINE
  8
_0-8_小物
  6
CONTINUOUS
 62
    7
 10
901.81954066799995
 20
640.07697923884996
 11
903.51490666800009
 21
644.73495923885002
  0
LINE
  8
_0-8_小物
  6
CONTINUOUS
 62
    7
 10
893.19630566799992
 20
647.87735823885009
 11
894.93668166799989
 21
646.96271423885003
  0
LINE
  8
_0-8_小物
  6
CONTINUOUS
 62
    7
 10
895.32686166799999
 20
625.74680223885002
 11
897.19630566799992
 21
623.87735823884998
  0
LINE
  8
_0-8_小物
  6
CONTINUOUS
 62
    7
 10
894.93668166799989
 20
646.96271423885003
 11
894.83200966799996
 21
644.96545523885004
  0
LINE
  8
_0-8_小物
  6
CONTINUOUS
 62
    7
 10
894.83200966799996
 20
644.96545523885004
 11
892.83475066799997
 21
645.07012723885009
  0
LINE
  8
_0-8_小物
  6
CONTINUOUS
 62
    7
 10
892.83475066799997
 20
645.07012723885009
 11
892.73007866800003
 21
643.07286823885011
  0
LINE
  8
_0-8_小物
  6
CONTINUOUS
 62
    7
 10
892.73007866800003
 20
643.07286823885011
 11
894.67500166800005
 21
641.96956723885
  0
LINE
  8
_0-8_小物
  6
CONTINUOUS
 62
    7
 10
894.67500166800005
 20
641.96956723885
 11
894.57032966799989
 21
639.97230823884991
  0
LINE
  8
_0-8_小物
  6
CONTINUOUS
 62
    7
 10
894.57032966799989
 20
639.97230823884991
 11
892.5730706679999
 21
640.07697923884996
  0
LINE
  8
_0-8_小物
  6
CONTINUOUS
 62
    7
 10
892.5730706679999
 20
640.07697923884996
 11
892.46839866799996
 21
638.07972023884997
  0
LINE
  8
_0-8_小物
  6
CONTINUOUS
 62
    7
 10
892.46839866799996
 20
638.07972023884997
 11
894.41332166799998
 21
636.97641923884999
  0
LINE
  8
_0-8_小物
  6
CONTINUOUS
 62
    7
 10
894.41332166799998
 20
636.97641923884999
 11
894.30864966800004
 21
634.97916023885
  0
LINE
  8
_0-8_小物
  6
CONTINUOUS
 62
    7
 10
894.30864966800004
 20
634.97916023885
 11
892.31139066800006
 21
635.08383223884994
  0
LINE
  8
_0-8_小物
  6
CONTINUOUS
 62
    7
 10
892.31139066800006
 20
635.08383223884994
 11
892.20671866799989
 21
633.08657323884995
  0
LINE
  8
_0-8_小物
  6
CONTINUOUS
 62
    7
 10
892.20671866799989
 20
633.08657323884995
 11
894.15164266800002
 21
631.98327123885008
  0
LINE
  8
_0-8_小物
  6
CONTINUOUS
 62
    7
 10
894.15164266800002
 20
631.98327123885008
 11
894.04697066800009
 21
629.98601223885009
  0
LINE
  8
_0-8_小物
  6
CONTINUOUS
 62
    7
 10
894.04697066800009
 20
629.98601223885009
 11
892.0497116680001
 21
630.09068423884992
  0
LINE
  8
_0-8_小物
  6
CONTINUOUS
 62
    7
 10
892.0497116680001
 20
630.09068423884992
 11
891.94503966799994
 21
628.09342523884993
  0
LINE
  8
_0-8_小物
  6
CONTINUOUS
 62
    7
 10
891.94503966799994
 20
628.09342523884993
 11
893.88996266799995
 21
626.99012423885006
  0
LINE
  8
_0-8_小物
  6
CONTINUOUS
 62
    7
 10
893.88996266799995
 20
626.99012423885006
 11
893.78529066800002
 21
624.99286523885007
  0
LINE
  8
_0-8_小物
  6
CONTINUOUS
 62
    7
 10
893.78529066800002
 20
624.99286523885007
 11
891.78803166800003
 21
625.09753623885001
  0
LINE
  8
_0-8_小物
  6
CONTINUOUS
 62
    7
 10
891.78803166800003
 20
625.09753623885001
 11
891.68335966800009
 21
623.10027723885003
  0
LINE
  8
_0-8_小物
  6
CONTINUOUS
 62
    7
 10
901.19630566799992
 20
647.87735823885009
 11
899.45592966799995
 21
646.96271423885003
  0
LINE
  8
_0-8_小物
  6
CONTINUOUS
 62
    7
 10
899.45592966799995
 20
646.96271423885003
 11
899.560601668
 21
644.96545523885004
  0
LINE
  8
_0-8_小物
  6
CONTINUOUS
 62
    7
 10
899.560601668
 20
644.96545523885004
 11
901.55786066799999
 21
645.07012723885009
  0
LINE
  8
_0-8_小物
  6
CONTINUOUS
 62
    7
 10
901.55786066799999
 20
645.07012723885009
 11
901.66253266799981
 21
643.07286823885011
  0
LINE
  8
_0-8_小物
  6
CONTINUOUS
 62
    7
 10
901.66253266799981
 20
643.07286823885011
 11
899.71760966800002
 21
641.96956723885
  0
LINE
  8
_0-8_小物
  6
CONTINUOUS
 62
    7
 10
899.71760966800002
 20
641.96956723885
 11
899.82228166799996
 21
639.97230823884991
  0
LINE
  8
_0-8_小物
  6
CONTINUOUS
 62
    7
 10
899.82228166799996
 20
639.97230823884991
 11
901.81954066799995
 21
640.07697923884996
  0
LINE
  8
_0-8_小物
  6
CONTINUOUS
 62
    7
 10
901.81954066799995
 20
640.07697923884996
 11
901.924212668
 21
638.07972023884997
  0
LINE
  8
_0-8_小物
  6
CONTINUOUS
 62
    7
 10
901.924212668
 20
638.07972023884997
 11
899.97928966800009
 21
636.97641923884999
  0
LINE
  8
_0-8_小物
  6
CONTINUOUS
 62
    7
 10
899.97928966800009
 20
636.97641923884999
 11
900.08396166800003
 21
634.97916023885
  0
LINE
  8
_0-8_小物
  6
CONTINUOUS
 62
    7
 10
900.08396166800003
 20
634.97916023885
 11
902.08122066800001
 21
635.08383223884994
  0
LINE
  8
_0-8_小物
  6
CONTINUOUS
 62
    7
 10
902.08122066800001
 20
635.08383223884994
 11
902.18589266799995
 21
633.08657323884995
  0
LINE
  8
_0-8_小物
  6
CONTINUOUS
 62
    7
 10
902.18589266799995
 20
633.08657323884995
 11
900.24096866800005
 21
631.98327123885008
  0
LINE
  8
_0-8_小物
  6
CONTINUOUS
 62
    7
 10
900.24096866800005
 20
631.98327123885008
 11
900.34564066799999
 21
629.98601223885009
  0
LINE
  8
_0-8_小物
  6
CONTINUOUS
 62
    7
 10
900.34564066799999
 20
629.98601223885009
 11
902.34289966799997
 21
630.09068423884992
  0
LINE
  8
_0-8_小物
  6
CONTINUOUS
 62
    7
 10
902.34289966799997
 20
630.09068423884992
 11
902.44757166800014
 21
628.09342523884993
  0
LINE
  8
_0-8_小物
  6
CONTINUOUS
 62
    7
 10
902.44757166800014
 20
628.09342523884993
 11
900.50264866799989
 21
626.99012423885006
  0
LINE
  8
_0-8_小物
  6
CONTINUOUS
 62
    7
 10
900.50264866799989
 20
626.99012423885006
 11
900.60732066800006
 21
624.99286523885007
  0
LINE
  8
_0-8_小物
  6
CONTINUOUS
 62
    7
 10
900.60732066800006
 20
624.99286523885007
 11
902.60457966800004
 21
625.09753623885001
  0
LINE
  8
_0-8_小物
  6
CONTINUOUS
 62
    7
 10
902.60457966800004
 20
625.09753623885001
 11
902.70925166799998
 21
623.10027723885003
  0
LINE
  8
_0-8_小物
  6
CONTINUOUS
 62
    7
 10
896.69630566799992
 20
651.87735823885009
 11
897.19630566799992
 21
651.87735823885009
  0
LINE
  8
_0-8_小物
  6
CONTINUOUS
 62
    7
 10
897.69630566799992
 20
651.87735823885009
 11
897.19630566799992
 21
651.87735823885009
  0
LINE
  8
_0-8_小物
  6
CONTINUOUS
 62
    7
 10
893.19630566799992
 20
659.87735823885009
 11
893.19630566799992
 21
651.87735823885009
  0
LINE
  8
_0-8_小物
  6
CONTINUOUS
 62
    7
 10
892.19630566799992
 20
659.87735823885009
 11
893.19630566799992
 21
654.87735823885009
  0
LINE
  8
_0-8_小物
  6
CONTINUOUS
 62
    7
 10
896.19630566799992
 20
659.87735823885009
 11
897.19630566799992
 21
654.87735823885009
  0
LINE
  8
_0-8_小物
  6
CONTINUOUS
 62
    7
 10
898.19630566799992
 20
659.87735823885009
 11
897.19630566799992
 21
654.87735823885009
  0
LINE
  8
_0-8_小物
  6
CONTINUOUS
 62
    7
 10
897.19630566799992
 20
654.87735823885009
 11
897.19630566799992
 21
659.87735823885009
  0
LINE
  8
_0-8_小物
  6
CONTINUOUS
 62
    7
 10
901.19630566799992
 20
659.87735823885009
 11
901.19630566799992
 21
651.87735823885009
  0
LINE
  8
_0-8_小物
  6
CONTINUOUS
 62
    7
 10
902.19630566799992
 20
659.87735823885009
 11
901.19630566799992
 21
654.87735823885009
  0
LINE
  8
_0-8_小物
  6
CONTINUOUS
 62
    7
 10
899.06574966799985
 20
625.74680223885002
 11
897.19630566799992
 21
623.87735823884998
  0
LINE
  8
_0-8_小物
  6
CONTINUOUS
 62
    7
 10
892.19630566799992
 20
659.87735823885009
 11
902.19630566799992
 21
659.87735823885009
  0
LINE
  8
_0-8_小物
  6
CONTINUOUS
 62
    7
 10
893.65794227309993
 20
640.02012402095011
 11
891.81739766800001
 21
645.07697923885007
  0
LINE
  8
_0-8_小物
  6
CONTINUOUS
 62
    7
 10
900.73466906299996
 20
640.02012402095011
 11
902.57521366799995
 21
645.07697923885007
  0
LINE
  8
_0-8_小物
  6
CONTINUOUS
 62
    7
 10
1122.3387036680001
 20
694.19595923885004
 11
1115.535081668
 21
695.18831423885001
  0
ARC
  8
_0-8_小物
  6
CONTINUOUS
 62
    7
 10
1115.4773496679998
 20
694.79250223885003
 40
0.4
 50
81.701533999999995
 51
171.86989800000001
  0
LINE
  8
_0-8_小物
  6
CONTINUOUS
 62
    7
 10
1115.0813696679998
 20
694.84907123885012
 11
1115.053251668
 21
694.65224623885001
  0
ARC
  8
_0-8_小物
  6
CONTINUOUS
 62
    7
 10
1115.4492316679998
 20
694.59567823885004
 40
0.4
 50
171.86989800000001
 51
261.86989799999998
  0
LINE
  8
_0-8_小物
  6
CONTINUOUS
 62
    7
 10
1115.392662668
 20
694.19969823885003
 11
1121.9966836680001
 21
693.25626623885012
  0
LINE
  8
_0-8_小物
  6
CONTINUOUS
 62
    7
 10
1122.3387036680001
 20
694.19595923885004
 11
1115.535081668
 21
695.18831423885001
  0
ARC
  8
_0-8_小物
  6
CONTINUOUS
 62
    7
 10
1115.4773496679998
 20
694.79250223885003
 40
0.4
 50
81.701533999999995
 51
171.86989800000001
  0
LINE
  8
_0-8_小物
  6
CONTINUOUS
 62
    7
 10
1115.0813696679998
 20
694.84907123885012
 11
1115.053251668
 21
694.65224623885001
  0
ARC
  8
_0-8_小物
  6
CONTINUOUS
 62
    7
 10
1115.4492316679998
 20
694.59567823885004
 40
0.4
 50
171.86989800000001
 51
261.86989799999998
  0
LINE
  8
_0-8_小物
  6
CONTINUOUS
 62
    7
 10
1115.392662668
 20
694.19969823885003
 11
1121.9966836680001
 21
693.25626623885012
  0
LINE
  8
_0-8_小物
  6
CONTINUOUS
 62
    7
 10
1122.3387036680001
 20
681.55875723885003
 11
1115.535081668
 21
680.56640223885006
  0
ARC
  8
_0-8_小物
  6
CONTINUOUS
 62
    7
 10
1115.4773496679998
 20
680.96221423885004
 40
0.4
 50
188.13010199999999
 51
278.29846600000002
  0
LINE
  8
_0-8_小物
  6
CONTINUOUS
 62
    7
 10
1115.0813696679998
 20
680.90564523884996
 11
1115.053251668
 21
681.10247023884995
  0
ARC
  8
_0-8_小物
  6
CONTINUOUS
 62
    7
 10
1115.4492316679998
 20
681.15903923885003
 40
0.4
 50
98.130101999990003
 51
188.13010199999999
  0
LINE
  8
_0-8_小物
  6
CONTINUOUS
 62
    7
 10
1115.392662668
 20
681.55501823884993
 11
1121.9966836680001
 21
682.49845023884995
  0
LINE
  8
_0-8_小物
  6
CONTINUOUS
 62
    7
 10
1119.196304668
 20
683.87735823885009
 11
1115.1963046679998
 21
683.87735823885009
  0
LINE
  8
_0-8_小物
  6
CONTINUOUS
 62
    7
 10
1144.1565606679999
 20
685.8596152388501
 11
1143.973385668
 21
682.36441223885004
  0
LINE
  8
_0-8_小物
  6
CONTINUOUS
 62
    7
 10
1143.973385668
 20
682.36441223885004
 11
1146.0753166679999
 21
684.25699923884997
  0
LINE
  8
_0-8_小物
  6
CONTINUOUS
 62
    7
 10
1146.0753166679999
 20
684.25699923884997
 11
1146.1538206679998
 21
685.75494323885005
  0
LINE
  8
_0-8_小物
  6
CONTINUOUS
 62
    7
 10
1146.1538206679998
 20
685.75494323885005
 11
1115.1963046679998
 21
687.37735823884998
  0
LINE
  8
_0-8_小物
  6
CONTINUOUS
 62
    7
 10
1119.196304668
 20
691.87735823884998
 11
1115.1963046679998
 21
691.87735823884998
  0
LINE
  8
_0-8_小物
  6
CONTINUOUS
 62
    7
 10
1144.1565606679999
 20
689.89510123884997
 11
1143.973385668
 21
693.39030423885004
  0
LINE
  8
_0-8_小物
  6
CONTINUOUS
 62
    7
 10
1143.973385668
 20
693.39030423885004
 11
1146.0753166679999
 21
691.4977172388501
  0
LINE
  8
_0-8_小物
  6
CONTINUOUS
 62
    7
 10
1146.0753166679999
 20
691.4977172388501
 11
1146.1538206679998
 21
689.99977323885003
  0
LINE
  8
_0-8_小物
  6
CONTINUOUS
 62
    7
 10
1146.1538206679998
 20
689.99977323885003
 11
1115.1963046679998
 21
688.37735823885009
  0
LINE
  8
_0-8_小物
  6
CONTINUOUS
 62
    7
 10
1126.9966836679998
 20
683.25412323884996
 11
1122.3387036680001
 21
681.55875723885003
  0
LINE
  8
_0-8_小物
  6
CONTINUOUS
 62
    7
 10
1126.9966836679998
 20
692.50059323885012
 11
1122.3387036680001
 21
694.19595923885004
  0
LINE
  8
_0-8_小物
  6
CONTINUOUS
 62
    7
 10
1119.196304668
 20
683.87735823885009
 11
1120.1109486679998
 21
685.61773423884995
  0
LINE
  8
_0-8_小物
  6
CONTINUOUS
 62
    7
 10
1141.3268606679999
 20
686.00791423884993
 11
1143.196304668
 21
687.87735823885009
  0
LINE
  8
_0-8_小物
  6
CONTINUOUS
 62
    7
 10
1120.1109486679998
 20
685.61773423884995
 11
1122.1082076679997
 21
685.5130622388499
  0
LINE
  8
_0-8_小物
  6
CONTINUOUS
 62
    7
 10
1122.1082076679997
 20
685.5130622388499
 11
1122.003535668
 21
683.51580323884991
  0
LINE
  8
_0-8_小物
  6
CONTINUOUS
 62
    7
 10
1122.003535668
 20
683.51580323884991
 11
1124.000794668
 21
683.41113123884998
  0
LINE
  8
_0-8_小物
  6
CONTINUOUS
 62
    7
 10
1124.000794668
 20
683.41113123884998
 11
1125.1040956679999
 21
685.35605423884999
  0
LINE
  8
_0-8_小物
  6
CONTINUOUS
 62
    7
 10
1125.1040956679999
 20
685.35605423884999
 11
1127.1013546679999
 21
685.25138223884994
  0
LINE
  8
_0-8_小物
  6
CONTINUOUS
 62
    7
 10
1127.1013546679999
 20
685.25138223884994
 11
1126.9966836679998
 21
683.25412323884996
  0
LINE
  8
_0-8_小物
  6
CONTINUOUS
 62
    7
 10
1126.9966836679998
 20
683.25412323884996
 11
1128.9939426679998
 21
683.14945123884991
  0
LINE
  8
_0-8_小物
  6
CONTINUOUS
 62
    7
 10
1128.9939426679998
 20
683.14945123884991
 11
1130.0972436679999
 21
685.09437423885004
  0
LINE
  8
_0-8_小物
  6
CONTINUOUS
 62
    7
 10
1130.0972436679999
 20
685.09437423885004
 11
1132.0945026680001
 21
684.98970223884999
  0
LINE
  8
_0-8_小物
  6
CONTINUOUS
 62
    7
 10
1132.0945026680001
 20
684.98970223884999
 11
1131.989830668
 21
682.99244323885
  0
LINE
  8
_0-8_小物
  6
CONTINUOUS
 62
    7
 10
1131.989830668
 20
682.99244323885
 11
1133.987089668
 21
682.88777123884995
  0
LINE
  8
_0-8_小物
  6
CONTINUOUS
 62
    7
 10
1133.987089668
 20
682.88777123884995
 11
1135.0903916680002
 21
684.83269523885008
  0
LINE
  8
_0-8_小物
  6
CONTINUOUS
 62
    7
 10
1135.0903916680002
 20
684.83269523885008
 11
1137.0876506680002
 21
684.72802323885003
  0
LINE
  8
_0-8_小物
  6
CONTINUOUS
 62
    7
 10
1137.0876506680002
 20
684.72802323885003
 11
1136.9829786679998
 21
682.73076423885004
  0
LINE
  8
_0-8_小物
  6
CONTINUOUS
 62
    7
 10
1136.9829786679998
 20
682.73076423885004
 11
1138.980237668
 21
682.62609223884999
  0
LINE
  8
_0-8_小物
  6
CONTINUOUS
 62
    7
 10
1138.980237668
 20
682.62609223884999
 11
1140.0835386680001
 21
684.5710152388499
  0
LINE
  8
_0-8_小物
  6
CONTINUOUS
 62
    7
 10
1140.0835386680001
 20
684.5710152388499
 11
1142.0807976679998
 21
684.46634323885007
  0
LINE
  8
_0-8_小物
  6
CONTINUOUS
 62
    7
 10
1142.0807976679998
 20
684.46634323885007
 11
1141.9761266679998
 21
682.46908423885009
  0
LINE
  8
_0-8_小物
  6
CONTINUOUS
 62
    7
 10
1141.9761266679998
 20
682.46908423885009
 11
1143.973385668
 21
682.36441223885004
  0
LINE
  8
_0-8_小物
  6
CONTINUOUS
 62
    7
 10
1119.196304668
 20
691.87735823884998
 11
1120.1109486679998
 21
690.1369822388499
  0
LINE
  8
_0-8_小物
  6
CONTINUOUS
 62
    7
 10
1120.1109486679998
 20
690.1369822388499
 11
1122.1082076679997
 21
690.24165423885006
  0
LINE
  8
_0-8_小物
  6
CONTINUOUS
 62
    7
 10
1122.1082076679997
 20
690.24165423885006
 11
1122.003535668
 21
692.23891323885005
  0
LINE
  8
_0-8_小物
  6
CONTINUOUS
 62
    7
 10
1122.003535668
 20
692.23891323885005
 11
1124.000794668
 21
692.34358523884998
  0
LINE
  8
_0-8_小物
  6
CONTINUOUS
 62
    7
 10
1124.000794668
 20
692.34358523884998
 11
1125.1040956679999
 21
690.39866223885008
  0
LINE
  8
_0-8_小物
  6
CONTINUOUS
 62
    7
 10
1125.1040956679999
 20
690.39866223885008
 11
1127.1013546679999
 21
690.5033342388499
  0
LINE
  8
_0-8_小物
  6
CONTINUOUS
 62
    7
 10
1127.1013546679999
 20
690.5033342388499
 11
1126.9966836679998
 21
692.50059323885012
  0
LINE
  8
_0-8_小物
  6
CONTINUOUS
 62
    7
 10
1126.9966836679998
 20
692.50059323885012
 11
1128.9939426679998
 21
692.60526523885005
  0
LINE
  8
_0-8_小物
  6
CONTINUOUS
 62
    7
 10
1128.9939426679998
 20
692.60526523885005
 11
1130.0972436679999
 21
690.66034223885003
  0
LINE
  8
_0-8_小物
  6
CONTINUOUS
 62
    7
 10
1130.0972436679999
 20
690.66034223885003
 11
1132.0945026680001
 21
690.76501423885009
  0
LINE
  8
_0-8_小物
  6
CONTINUOUS
 62
    7
 10
1132.0945026680001
 20
690.76501423885009
 11
1131.989830668
 21
692.76227323885007
  0
LINE
  8
_0-8_小物
  6
CONTINUOUS
 62
    7
 10
1131.989830668
 20
692.76227323885007
 11
1133.987089668
 21
692.86694523884989
  0
LINE
  8
_0-8_小物
  6
CONTINUOUS
 62
    7
 10
1133.987089668
 20
692.86694523884989
 11
1135.0903916680002
 21
690.92202123884999
  0
LINE
  8
_0-8_小物
  6
CONTINUOUS
 62
    7
 10
1135.0903916680002
 20
690.92202123884999
 11
1137.0876506680002
 21
691.02669323885004
  0
LINE
  8
_0-8_小物
  6
CONTINUOUS
 62
    7
 10
1137.0876506680002
 20
691.02669323885004
 11
1136.9829786679998
 21
693.02395223885003
  0
LINE
  8
_0-8_小物
  6
CONTINUOUS
 62
    7
 10
1136.9829786679998
 20
693.02395223885003
 11
1138.980237668
 21
693.12862423885008
  0
LINE
  8
_0-8_小物
  6
CONTINUOUS
 62
    7
 10
1138.980237668
 20
693.12862423885008
 11
1140.0835386680001
 21
691.18370123884995
  0
LINE
  8
_0-8_小物
  6
CONTINUOUS
 62
    7
 10
1140.0835386680001
 20
691.18370123884995
 11
1142.0807976679998
 21
691.28837323885
  0
LINE
  8
_0-8_小物
  6
CONTINUOUS
 62
    7
 10
1142.0807976679998
 20
691.28837323885
 11
1141.9761266679998
 21
693.28563223884998
  0
LINE
  8
_0-8_小物
  6
CONTINUOUS
 62
    7
 10
1141.9761266679998
 20
693.28563223884998
 11
1143.973385668
 21
693.39030423885004
  0
LINE
  8
_0-8_小物
  6
CONTINUOUS
 62
    7
 10
1115.1963046679998
 20
687.37735823884998
 11
1115.1963046679998
 21
687.87735823885009
  0
LINE
  8
_0-8_小物
  6
CONTINUOUS
 62
    7
 10
1115.1963046679998
 20
688.37735823885009
 11
1115.1963046679998
 21
687.87735823885009
  0
LINE
  8
_0-8_小物
  6
CONTINUOUS
 62
    7
 10
1107.196304668
 20
683.87735823885009
 11
1115.1963046679998
 21
683.87735823885009
  0
LINE
  8
_0-8_小物
  6
CONTINUOUS
 62
    7
 10
1107.196304668
 20
682.87735823884998
 11
1112.1963046679998
 21
683.87735823885009
  0
LINE
  8
_0-8_小物
  6
CONTINUOUS
 62
    7
 10
1107.196304668
 20
686.87735823885009
 11
1112.1963046679998
 21
687.87735823885009
  0
LINE
  8
_0-8_小物
  6
CONTINUOUS
 62
    7
 10
1107.196304668
 20
688.87735823884998
 11
1112.1963046679998
 21
687.87735823885009
  0
LINE
  8
_0-8_小物
  6
CONTINUOUS
 62
    7
 10
1112.1963046679998
 20
687.87735823885009
 11
1107.196304668
 21
687.87735823885009
  0
LINE
  8
_0-8_小物
  6
CONTINUOUS
 62
    7
 10
1107.196304668
 20
691.87735823884998
 11
1115.1963046679998
 21
691.87735823884998
  0
LINE
  8
_0-8_小物
  6
CONTINUOUS
 62
    7
 10
1107.196304668
 20
692.87735823885009
 11
1112.1963046679998
 21
691.87735823884998
  0
LINE
  8
_0-8_小物
  6
CONTINUOUS
 62
    7
 10
1141.3268606679999
 20
689.74680223884991
 11
1143.196304668
 21
687.87735823885009
  0
LINE
  8
_0-8_小物
  6
CONTINUOUS
 62
    7
 10
1107.196304668
 20
682.87735823884998
 11
1107.196304668
 21
692.87735823885009
  0
LINE
  8
_0-8_小物
  6
CONTINUOUS
 62
    7
 10
1127.0535388859998
 20
684.33899484394999
 11
1121.9966836680001
 21
682.49845023884995
  0
LINE
  8
_0-8_小物
  6
CONTINUOUS
 62
    7
 10
1127.0535388859998
 20
691.41572163385001
 11
1121.9966836680001
 21
693.25626623885012
  0
LINE
  8
_0-7_サイド
  6
CONTINUOUS
 62
    7
 10
1099.1187396679998
 20
734.87753323884999
 11
1099.1187396679998
 21
741.37753323884999
  0
LINE
  8
_0-7_サイド
  6
CONTINUOUS
 62
    7
 10
1100.118739668
 20
735.17753323885006
 11
1100.118739668
 21
741.37753323884999
  0
ARC
  8
_0-7_サイド
  6
CONTINUOUS
 62
    7
 10
1099.6187396679998
 20
741.37753323884999
 40
0.5
 50
0
 51
180
  0
LINE
  8
_0-7_サイド
  6
CONTINUOUS
 62
    7
 10
1101.4738796680001
 20
734.87753323884999
 11
1100.4187396679999
 21
734.87753323884999
  0
ARC
  8
_0-7_サイド
  6
CONTINUOUS
 62
    7
 10
1101.4738796680001
 20
735.17753323885006
 40
0.2999999999999998
 50
270
 51
0
  0
LINE
  8
_0-7_サイド
  6
CONTINUOUS
 62
    7
 10
1101.7738796679998
 20
742.16631823884995
 11
1101.7738796679998
 21
735.17753323885006
  0
ARC
  8
_0-7_サイド
  6
CONTINUOUS
 62
    7
 10
1101.7738796679998
 20
734.87753323884999
 40
1
 50
270
 51
0
  0
LINE
  8
_0-7_サイド
  6
CONTINUOUS
 62
    7
 10
1102.7738796680001
 20
742.16631823884995
 11
1102.7738796680001
 21
734.87753323884999
  0
LINE
  8
_0-7_サイド
  6
CONTINUOUS
 62
    7
 10
1101.7738796679998
 20
733.87753323884999
 11
1100.118739668
 21
733.87753323884999
  0
ARC
  8
_0-7_サイド
  6
CONTINUOUS
 62
    7
 10
1100.4187396679999
 20
735.17753323885006
 40
0.2999999999999998
 50
180
 51
270
  0
ARC
  8
_0-7_サイド
  6
CONTINUOUS
 62
    7
 10
1100.118739668
 20
734.87753323884999
 40
1
 50
180
 51
270
  0
ARC
  8
_0-7_サイド
  6
CONTINUOUS
 62
    7
 10
1104.4850946680001
 20
742.16631823884995
 40
1.7112149999999997
 50
0
 51
180
  0
ARC
  8
_0-7_サイド
  6
CONTINUOUS
 62
    7
 10
1104.4850946680001
 20
742.16631823884995
 40
2.7112150000000002
 50
0
 51
180
  0
LINE
  8
_0-7_サイド
  6
CONTINUOUS
 62
    7
 10
1106.1963046679998
 20
742.16631823884995
 11
1106.1963046679998
 21
734.26119323884996
  0
ARC
  8
_0-7_サイド
  6
CONTINUOUS
 62
    7
 10
1105.696304668
 20
734.26119323884996
 40
0.5
 50
285.00000000002001
 51
0.0000000000000254
  0
LINE
  8
_0-7_サイド
  6
CONTINUOUS
 62
    7
 10
1104.9680546680001
 20
733.54842323884998
 11
1105.825714668
 21
733.77823323884991
  0
LINE
  8
_0-7_サイド
  6
CONTINUOUS
 62
    7
 10
1105.2268746680002
 20
732.58249823884989
 11
1106.0845346680001
 21
732.81230323885006
  0
LINE
  8
_0-7_サイド
  6
CONTINUOUS
 62
    7
 10
1107.196304668
 20
742.16631823884995
 11
1107.196304668
 21
734.26119323884996
  0
ARC
  8
_0-7_サイド
  6
CONTINUOUS
 62
    7
 10
1105.0974646680002
 20
733.06545823885006
 40
0.5
 50
105.00000000000001
 51
284.99999999990001
  0
ARC
  8
_0-7_サイド
  6
CONTINUOUS
 62
    7
 10
1105.696304668
 20
734.26119323884996
 40
1.5
 50
284.99999999999
 51
0.0000000000000127
  0
LINE
  8
_0-7_サイド
  6
CONTINUOUS
 62
    7
 10
1100.1962946680001
 20
734.87735823885009
 11
1101.6963046679998
 21
734.87735823885009
  0
ARC
  8
_0-7_サイド
  6
CONTINUOUS
 62
    7
 10
1099.1963096680001
 20
742.37735823885009
 40
2.5
 50
0
 51
90
  0
LINE
  8
_0-7_サイド
  6
CONTINUOUS
 62
    7
 10
1101.6963096679999
 20
734.87735823885009
 11
1101.6963096679999
 21
742.37735823885009
  0
LINE
  8
_0-7_サイド
  6
CONTINUOUS
 62
    7
 10
1100.1963096679999
 20
734.87735823885009
 11
1100.1963096679999
 21
742.37735823885009
  0
ARC
  8
_0-7_サイド
  6
CONTINUOUS
 62
    7
 10
1089.6963096679999
 20
684.87732823884994
 40
2.5
 50
180
 51
270.00060200000001
  0
ARC
  8
_0-7_サイド
  6
CONTINUOUS
 62
    7
 10
1089.6963046679998
 20
742.37735823885009
 40
1
 50
90
 51
180
  0
ARC
  8
_0-7_サイド
  6
CONTINUOUS
 62
    7
 10
1099.1963096680001
 20
742.37735823885009
 40
1
 50
0
 51
90
  0
LINE
  8
_0-7_サイド
  6
CONTINUOUS
 62
    7
 10
1089.6963046679998
 20
743.37735823885009
 11
1099.1963096680001
 21
743.37735823885009
  0
ARC
  8
_0-7_サイド
  6
CONTINUOUS
 62
    7
 10
1089.6963096679999
 20
742.37735823885009
 40
2.5
 50
90
 51
180
  0
LINE
  8
_0-7_サイド
  6
CONTINUOUS
 62
    7
 10
1089.6963096679999
 20
744.87735823885009
 11
1099.1963096680001
 21
744.87735823885009
  0
LINE
  8
_0-7_サイド
  6
CONTINUOUS
 62
    7
 10
1097.1963096679999
 20
682.37739823884999
 11
1097.1963096679999
 21
683.87739823884999
  0
ARC
  8
_0-7_サイド
  6
CONTINUOUS
 62
    7
 10
1089.6963046679998
 20
684.87732823884994
 40
1
 50
180
 51
270.00060200000001
  0
LINE
  8
_0-7_サイド
  6
CONTINUOUS
 62
    7
 10
1097.1963096679999
 20
683.87739823884999
 11
1089.696314668
 21
683.87732823884994
  0
LINE
  8
_0-7_サイド
  6
CONTINUOUS
 62
    7
 10
1088.6963046679998
 20
684.87732823884994
 11
1088.6963046679998
 21
742.37735823885009
  0
LINE
  8
_0-7_サイド
  6
CONTINUOUS
 62
    7
 10
1097.1963096679999
 20
682.37739823884999
 11
1089.6963346680002
 21
682.37732823884994
  0
LINE
  8
_0-7_サイド
  6
CONTINUOUS
 62
    7
 10
1087.1963096680001
 20
742.37735823885009
 11
1087.1963096680001
 21
684.87732823884994
  0
LINE
  8
_0-7_サイド
  6
CONTINUOUS
 62
    7
 10
1090.696304668
 20
721.67735823885005
 11
1090.9963046679998
 21
721.37735823885009
  0
LINE
  8
_0-7_サイド
  6
CONTINUOUS
 62
    7
 10
1090.696304668
 20
721.07735823885002
 11
1090.9963046679998
 21
721.37735823885009
  0
LINE
  8
_0-5_フレ_ム
  6
CONTINUOUS
 62
    7
 10
1105.8963056680002
 20
672.87735823885009
 11
1105.8963056680002
 21
682.87735823884998
  0
ARC
  8
_0-5_フレ_ム
  6
CONTINUOUS
 62
    7
 10
1092.6963056679999
 20
715.30357323885005
 40
0.5
 50
180
 51
257.21094599999998
  0
ARC
  8
_0-5_フレ_ム
  6
CONTINUOUS
 62
    7
 10
1092.6963056679999
 20
717.87735823885009
 40
0.5
 50
90
 51
180
  0
LINE
  8
_0-5_フレ_ム
  6
CONTINUOUS
 62
    7
 10
1092.1963056680002
 20
715.30357323885005
 11
1092.1963056680002
 21
717.87735823885009
  0
LINE
  8
_0-5_フレ_ム
  6
CONTINUOUS
 62
    7
 10
1092.1963056680002
 20
726.87735823885009
 11
1092.1963056680002
 21
724.87735823884998
  0
LINE
  8
_0-5_フレ_ム
  6
CONTINUOUS
 62
    7
 10
1106.1963056679999
 20
672.87735823885009
 11
1106.1963056679999
 21
661.87735823884998
  0
LINE
  8
_0-5_フレ_ム
  6
CONTINUOUS
 62
    7
 10
1104.3963056680002
 20
665.37735823885009
 11
1104.3963056680002
 21
689.37735823885009
  0
ARC
  8
_0-5_フレ_ム
  6
CONTINUOUS
 62
    7
 10
1105.1963056680002
 20
727.87735823884998
 40
1
 50
0
 51
90
  0
LINE
  8
_0-5_フレ_ム
  6
CONTINUOUS
 62
    7
 10
1106.1963056679999
 20
682.87735823884998
 11
1106.1963056679999
 21
692.87735823885009
  0
LINE
  8
_0-5_フレ_ム
  6
CONTINUOUS
 62
    7
 10
1106.1963056679999
 20
702.37735823884998
 11
1106.1963056679999
 21
712.37735823885009
  0
LINE
  8
_0-5_フレ_ム
  6
CONTINUOUS
 62
    7
 10
1106.1963056679999
 20
727.87735823884998
 11
1106.1963056679999
 21
718.87735823884998
  0
LINE
  8
_0-5_フレ_ム
  6
CONTINUOUS
 62
    7
 10
1105.1963056680002
 20
728.87735823885009
 11
1089.1963056680002
 21
728.87735823885009
  0
LINE
  8
_0-5_フレ_ム
  6
CONTINUOUS
 62
    7
 10
1104.3963006679999
 20
701.87735823885009
 11
1104.3963056680002
 21
712.87735823884998
  0
ARC
  8
_0-5_フレ_ム
  6
CONTINUOUS
 62
    7
 10
1103.896305668
 20
699.87735823885009
 40
0.5
 50
0
 51
90
  0
LINE
  8
_0-5_フレ_ム
  6
CONTINUOUS
 62
    7
 10
1104.3963056680002
 20
699.87735823885009
 11
1104.3962906679999
 21
688.17735823884993
  0
ARC
  8
_0-5_フレ_ム
  6
CONTINUOUS
 62
    7
 10
1103.896305668
 20
715.17735823884993
 40
0.5
 50
270
 51
0
  0
ARC
  8
_0-5_フレ_ム
  6
CONTINUOUS
 62
    7
 10
1103.8963656679998
 20
726.87735823885009
 40
0.5
 50
0
 51
90
  0
LINE
  8
_0-5_フレ_ム
  6
CONTINUOUS
 62
    7
 10
1104.3963056680002
 20
715.17591823885004
 11
1104.396365668
 21
726.87735823885009
  0
ARC
  8
_0-5_フレ_ム
  6
CONTINUOUS
 62
    7
 10
1103.896305668
 20
712.87735823884998
 40
0.5
 50
0
 51
90
  0
LINE
  8
_0-5_フレ_ム
  6
CONTINUOUS
 62
    7
 10
1098.1963056680002
 20
713.37735823885009
 11
1103.896305668
 21
713.37735823885009
  0
LINE
  8
_0-5_フレ_ム
  6
CONTINUOUS
 62
    7
 10
1096.1963056680002
 20
713.37735823885009
 11
1093.1963056680002
 21
713.37735823885009
  0
LINE
  8
_0-5_フレ_ム
  6
CONTINUOUS
 62
    7
 10
1096.1963056680002
 20
713.37735823885009
 11
1098.1963056680002
 21
712.37735823885009
  0
LINE
  8
_0-5_フレ_ム
  6
CONTINUOUS
 62
    7
 10
1093.1963056680002
 20
714.67735823885005
 11
1103.896305668
 21
714.67735823885005
  0
ARC
  8
_0-5_フレ_ム
  6
CONTINUOUS
 62
    7
 10
1103.8963006680001
 20
701.87735823885009
 40
0.5
 50
270
 51
0
  0
LINE
  8
_0-5_フレ_ム
  6
CONTINUOUS
 62
    7
 10
1098.1963056680002
 20
701.37735823885009
 11
1103.8963006680001
 21
701.37735823885009
  0
LINE
  8
_0-5_フレ_ム
  6
CONTINUOUS
 62
    7
 10
1096.1963056680002
 20
701.37735823885009
 11
1093.1963056680002
 21
701.37735823885009
  0
LINE
  8
_0-5_フレ_ム
  6
CONTINUOUS
 62
    7
 10
1098.1963056680002
 20
702.37735823884998
 11
1098.1963056680002
 21
701.37735823885009
  0
LINE
  8
_0-5_フレ_ム
  6
CONTINUOUS
 62
    7
 10
1096.1963056680002
 20
701.37735823885009
 11
1098.1963056680002
 21
702.37735823884998
  0
LINE
  8
_0-5_フレ_ム
  6
CONTINUOUS
 62
    7
 10
1093.1963056680002
 20
700.37735823885009
 11
1103.896305668
 21
700.37735823885009
  0
LINE
  8
_0-5_フレ_ム
  6
CONTINUOUS
 62
    7
 10
1098.1963056680002
 20
712.37735823885009
 11
1098.1963056680002
 21
713.37735823885009
  0
LINE
  8
_0-5_フレ_ム
  6
CONTINUOUS
 62
    7
 10
1093.1963056680002
 20
701.37735823885009
 11
1088.9312256679998
 21
700.42956323884994
  0
ARC
  8
_0-5_フレ_ム
  6
CONTINUOUS
 62
    7
 10
1088.9963056679999
 20
700.13670823884991
 40
0.2999999999999998
 50
102.52880800010001
 51
180
  0
ARC
  8
_0-5_フレ_ム
  6
CONTINUOUS
 62
    7
 10
1088.9963056679999
 20
699.73161823884993
 40
0.2999999999999998
 50
180
 51
282.78905399989998
  0
LINE
  8
_0-5_フレ_ム
  6
CONTINUOUS
 62
    7
 10
1088.6963056680002
 20
700.13670823884991
 11
1088.6963056680002
 21
699.73161823884993
  0
LINE
  8
_0-5_フレ_ム
  6
CONTINUOUS
 62
    7
 10
1093.1963056680002
 20
700.37735823885009
 11
1089.062715668
 21
699.43905823885007
  0
ARC
  8
_0-5_フレ_ム
  6
CONTINUOUS
 62
    7
 10
1089.1963056680002
 20
714.77844323884995
 40
0.5
 50
180
 51
257.47119199999992
  0
LINE
  8
_0-5_フレ_ム
  6
CONTINUOUS
 62
    7
 10
1093.1963056680002
 20
713.37735823885009
 11
1089.0878406679999
 21
714.29035323885
  0
LINE
  8
_0-5_フレ_ム
  6
CONTINUOUS
 62
    7
 10
1093.1963056680002
 20
714.67735823885005
 11
1092.5856256679999
 21
714.81597823884999
  0
ARC
  8
_0-5_フレ_ム
  6
CONTINUOUS
 62
    7
 10
1089.1963056680002
 20
716.87735823885009
 40
0.5
 50
90
 51
180
  0
LINE
  8
_0-5_フレ_ム
  6
CONTINUOUS
 62
    7
 10
1088.6963056680002
 20
716.87735823885009
 11
1088.6963056680002
 21
714.77844323884995
  0
ARC
  8
_0-5_フレ_ム
  6
CONTINUOUS
 62
    7
 10
1089.1963056680002
 20
728.37735823885009
 40
0.5
 50
90
 51
180
  0
LINE
  8
_0-5_フレ_ム
  6
CONTINUOUS
 62
    7
 10
1088.6963056680002
 20
728.37735823885009
 11
1088.6963056680002
 21
725.87735823885009
  0
ARC
  8
_0-5_フレ_ム
  6
CONTINUOUS
 62
    7
 10
1089.1963056680002
 20
725.87735823885009
 40
0.5
 50
180
 51
270
  0
LINE
  8
_0-5_フレ_ム
  6
CONTINUOUS
 62
    7
 10
1090.6963056680002
 20
725.37735823885009
 11
1089.1963056680002
 21
725.37735823885009
  0
LINE
  8
_0-5_フレ_ム
  6
CONTINUOUS
 62
    7
 10
1090.6963056680002
 20
717.37735823884998
 11
1090.6963056680002
 21
721.07735823885002
  0
LINE
  8
_0-5_フレ_ム
  6
CONTINUOUS
 62
    7
 10
1090.6963056680002
 20
725.37735823885009
 11
1090.6963056680002
 21
721.67735823885005
  0
LINE
  8
_0-5_フレ_ム
  6
CONTINUOUS
 62
    7
 10
1090.6963056680002
 20
717.37735823884998
 11
1089.1963056680002
 21
717.37735823884998
  0
LINE
  8
_0-5_フレ_ム
  6
CONTINUOUS
 62
    7
 10
1093.6963056680002
 20
724.37735823885009
 11
1093.6963056680002
 21
718.37735823885009
  0
LINE
  8
_0-5_フレ_ム
  6
CONTINUOUS
 62
    7
 10
1104.6962906680001
 20
687.87735823885009
 11
1104.3962906679999
 21
688.17735823884993
  0
LINE
  8
_0-5_フレ_ム
  6
CONTINUOUS
 62
    7
 10
1104.6962906680001
 20
687.87735823885009
 11
1104.3963056680002
 21
687.5773732388501
  0
LINE
  8
_0-5_フレ_ム
  6
CONTINUOUS
 62
    7
 10
1106.1963056679999
 20
702.37735823884998
 11
1105.8963056680002
 21
702.37735823884998
  0
LINE
  8
_0-5_フレ_ム
  6
CONTINUOUS
 62
    7
 10
1105.8963056680002
 20
702.37735823884998
 11
1105.8963056680002
 21
692.87735823885009
  0
LINE
  8
_0-5_フレ_ム
  6
CONTINUOUS
 62
    7
 10
1105.8963056680002
 20
692.87735823885009
 11
1106.1963056679999
 21
692.87735823885009
  0
LINE
  8
_0-5_フレ_ム
  6
CONTINUOUS
 62
    7
 10
1106.1963056679999
 20
712.37735823885009
 11
1105.8963056680002
 21
712.37735823885009
  0
LINE
  8
_0-5_フレ_ム
  6
CONTINUOUS
 62
    7
 10
1106.1963056679999
 20
712.37735823885009
 11
1105.8963056680002
 21
712.37735823885009
  0
LINE
  8
_0-5_フレ_ム
  6
CONTINUOUS
 62
    7
 10
1105.8963056680002
 20
712.37735823885009
 11
1105.8963056680002
 21
718.87735823884998
  0
LINE
  8
_0-5_フレ_ム
  6
CONTINUOUS
 62
    7
 10
1105.8963056680002
 20
718.87735823884998
 11
1106.1963056679999
 21
718.87735823884998
  0
LINE
  8
_0-5_フレ_ム
  6
CONTINUOUS
 62
    7
 10
1106.1963056679999
 20
682.87735823884998
 11
1105.8963056680002
 21
682.87735823884998
  0
LINE
  8
_0-5_フレ_ム
  6
CONTINUOUS
 62
    7
 10
1105.8963056680002
 20
672.87735823885009
 11
1106.1963056679999
 21
672.87735823885009
  0
ARC
  8
_0-5_フレ_ム
  6
CONTINUOUS
 62
    7
 10
1092.6963056679999
 20
724.87735823884998
 40
0.5
 50
180
 51
270
  0
LINE
  8
_0-5_フレ_ム
  6
CONTINUOUS
 62
    7
 10
1093.6963056680002
 20
724.37735823885009
 11
1092.6963056679999
 21
724.37735823885009
  0
ARC
  8
_0-5_フレ_ム
  6
CONTINUOUS
 62
    7
 10
1092.6963056679999
 20
726.87735823885009
 40
0.5
 50
90
 51
180
  0
LINE
  8
_0-5_フレ_ム
  6
CONTINUOUS
 62
    7
 10
1103.8963656679998
 20
727.37735823885009
 11
1092.6963056679999
 21
727.37735823885009
  0
LINE
  8
_0-5_フレ_ム
  6
CONTINUOUS
 62
    7
 10
1093.6963056680002
 20
718.37735823885009
 11
1092.6963056679999
 21
718.37735823885009
  0
ARC
  8
_0-5_フレ_ム
  6
CONTINUOUS
 62
    7
 10
1092.1963056680002
 20
665.37735823885009
 40
2
 50
180
 51
270
  0
LINE
  8
_0-5_フレ_ム
  6
CONTINUOUS
 62
    7
 10
1085.6963056680002
 20
675.62735823885009
 11
1085.6963056680002
 21
670.62735823885009
  0
LINE
  8
_0-5_フレ_ム
  6
CONTINUOUS
 62
    7
 10
1085.6963056680002
 20
670.62735823885009
 11
1087.1963056680002
 21
670.62735823885009
  0
LINE
  8
_0-5_フレ_ム
  6
CONTINUOUS
 62
    7
 10
1090.1963056680002
 20
670.62735823885009
 11
1091.6963056680002
 21
670.62735823885009
  0
LINE
  8
_0-5_フレ_ム
  6
CONTINUOUS
 62
    7
 10
1091.6963056680002
 20
670.62735823885009
 11
1091.6963056680002
 21
675.62735823885009
  0
LINE
  8
_0-5_フレ_ム
  6
CONTINUOUS
 62
    7
 10
1090.1963056680002
 20
675.62735823885009
 11
1090.1963006679998
 21
672.62735823885009
  0
LINE
  8
_0-5_フレ_ム
  6
CONTINUOUS
 62
    7
 10
1090.1963006679998
 20
670.62735823885009
 11
1090.1963056680002
 21
665.37735323884999
  0
ARC
  8
_0-5_フレ_ム
  6
CONTINUOUS
 62
    7
 10
1088.1963056679999
 20
661.87735823884998
 40
1
 50
180
 51
270
  0
LINE
  8
_0-5_フレ_ム
  6
CONTINUOUS
 62
    7
 10
1087.1963056680002
 20
675.62735823885009
 11
1087.1963056680002
 21
672.62735823885009
  0
LINE
  8
_0-5_フレ_ム
  6
CONTINUOUS
 62
    7
 10
1087.1963056680002
 20
670.62735823885009
 11
1087.1963056680002
 21
661.87735823884998
  0
ARC
  8
_0-5_フレ_ム
  6
CONTINUOUS
 62
    7
 10
1088.6963056680002
 20
675.62735823885009
 40
1.7
 50
0
 51
180
  0
ARC
  8
_0-5_フレ_ム
  6
CONTINUOUS
 62
    7
 10
1088.6962956680002
 20
675.62735823885009
 40
1.499995
 50
0
 51
180
  0
ARC
  8
_0-5_フレ_ム
  6
CONTINUOUS
 62
    7
 10
1088.6963056680002
 20
675.62735823885009
 40
3
 50
0
 51
180
  0
LINE
  8
_0-5_フレ_ム
  6
CONTINUOUS
 62
    7
 10
1090.1963006679998
 20
672.62735823885009
 11
1089.6963006679998
 21
672.62735823885009
  0
LINE
  8
_0-5_フレ_ム
  6
CONTINUOUS
 62
    7
 10
1089.6963006679998
 20
672.62735823885009
 11
1090.1963056680002
 21
670.62735823885009
  0
LINE
  8
_0-5_フレ_ム
  6
CONTINUOUS
 62
    7
 10
1087.1963056680002
 20
672.62735823885009
 11
1087.6963056680002
 21
672.62735823885009
  0
LINE
  8
_0-5_フレ_ム
  6
CONTINUOUS
 62
    7
 10
1087.6963056680002
 20
672.62735823885009
 11
1087.1963056680002
 21
670.62735823885009
  0
LINE
  8
_0-5_フレ_ム
  6
CONTINUOUS
 62
    7
 10
1090.1963006679998
 20
672.62735823885009
 11
1090.3963006680001
 21
672.62735823885009
  0
LINE
  8
_0-5_フレ_ム
  6
CONTINUOUS
 62
    7
 10
1090.3963006680001
 20
672.62735823885009
 11
1090.396305668
 21
675.62735823885009
  0
LINE
  8
_0-5_フレ_ム
  6
CONTINUOUS
 62
    7
 10
1087.1963056680002
 20
672.62735823885009
 11
1086.9963056679999
 21
672.62735823885009
  0
LINE
  8
_0-5_フレ_ム
  6
CONTINUOUS
 62
    7
 10
1086.9963056679999
 20
672.62735823885009
 11
1086.9963056679999
 21
675.62735823885009
  0
LINE
  8
_0-5_フレ_ム
  6
CONTINUOUS
 62
    7
 10
1102.396305668
 20
663.37735823884998
 11
1092.1963056680002
 21
663.37735823884998
  0
ARC
  8
_0-5_フレ_ム
  6
CONTINUOUS
 62
    7
 10
1102.396305668
 20
665.37735823885009
 40
2
 50
270
 51
0
  0
LINE
  8
_0-5_フレ_ム
  6
CONTINUOUS
 62
    7
 10
1105.1963056680002
 20
660.87735823885009
 11
1088.1963056679999
 21
660.87735823885009
  0
ARC
  8
_0-5_フレ_ム
  6
CONTINUOUS
 62
    7
 10
1105.1963056680002
 20
661.87735823884998
 40
1
 50
270
 51
0
  0
LINE
  8
_0-4_止水補助板
  6
CONTINUOUS
 62
    7
 10
958.16223149429993
 20
660.13617728394991
 11
966.27005762139993
 21
629.87735823884998
  0
LINE
  8
_0-4_止水補助板
  6
CONTINUOUS
 62
    7
 10
957.19630566799992
 20
659.87735823885009
 11
965.23478144089995
 21
629.87735823884998
  0
LINE
  8
_0-4_止水補助板
  6
CONTINUOUS
 62
    7
 10
1106.1963046679998
 20
659.87735823885009
 11
1098.157828895
 21
629.87735823884998
  0
ARC
  8
_0-4_止水補助板
  6
CONTINUOUS
 62
    7
 10
1032.2139432581998
 20
647.54696914105011
 40
68.270134043539997
 50
194.99999999999997
 51
345
  0
ARC
  8
_0-4_止水補助板
  6
CONTINUOUS
 62
    7
 10
1032.2139432581998
 20
647.54696914105011
 40
69.270134043539997
 50
194.7783708449
 51
345
  0
LINE
  8
_0-4_止水補助板
  6
CONTINUOUS
 62
    7
 10
1107.196304668
 20
659.74570574125005
 11
1099.1237547209998
 21
629.61853919375005
  0
LINE
  8
_0-a_寸法
  6
CONTINUOUS
 62
    7
 10
256.36235296539996
 20
554.15710323885003
 11
261.36235296539996
 21
555.40710323885003
  0
LINE
  8
_0-a_寸法
  6
CONTINUOUS
 62
    7
 10
256.36235296539996
 20
554.15710323885003
 11
261.36235296539996
 21
552.90710323885003
  0
LINE
  8
_0-a_寸法
  6
CONTINUOUS
 62
    7
 10
296.42165796539996
 20
554.15710323885003
 11
291.42165796539996
 21
552.90710323885003
  0
LINE
  8
_0-a_寸法
  6
CONTINUOUS
 62
    7
 10
296.42165796539996
 20
554.15710323885003
 11
291.42165796539996
 21
555.40710323885003
  0
LINE
  8
_0-a_寸法
  6
CONTINUOUS
 62
    7
 10
296.42165796539996
 20
554.15710323885003
 11
301.42165796539996
 21
555.40710323885003
  0
LINE
  8
_0-a_寸法
  6
CONTINUOUS
 62
    7
 10
296.42165796539996
 20
554.15710323885003
 11
301.42165796539996
 21
552.90710323885003
  0
LINE
  8
_0-a_寸法
  6
CONTINUOUS
 62
    7
 10
356.36235296539996
 20
554.15710323885003
 11
351.36235296539996
 21
552.90710323885003
  0
LINE
  8
_0-a_寸法
  6
CONTINUOUS
 62
    7
 10
356.36235296539996
 20
554.15710323885003
 11
351.36235296539996
 21
555.40710323885003
  0
LINE
  8
_0-a_寸法
  6
CONTINUOUS
 62
    7
 10
356.36235296539996
 20
554.15710323885003
 11
361.36235296539996
 21
555.40710323885003
  0
LINE
  8
_0-a_寸法
  6
CONTINUOUS
 62
    7
 10
356.36235296539996
 20
554.15710323885003
 11
361.36235296539996
 21
552.90710323885003
  0
TEXT
  8
_0-a_寸法
 62
    7
 10
321.14200546539996
 20
554.15710323885003
 40
10.5
 41
1
 50
0
  1
60
  0
TEXT
  8
_0-a_寸法
 62
    7
 10
271.14200546539996
 20
554.15710323885003
 40
10.5
 41
1
 50
0
  1
40
  0
LINE
  8
_0-a_寸法
  6
CONTINUOUS
 62
    7
 10
356.36235296539996
 20
597.87735823885009
 11
356.36235296539996
 21
550.15710323885003
  0
LINE
  8
_0-a_寸法
  6
CONTINUOUS
 62
    7
 10
256.36235296539996
 20
614.19362323885002
 11
256.36235296539996
 21
550.15710323885003
  0
LINE
  8
_0-a_寸法
  6
CONTINUOUS
 62
    7
 10
296.36235296539996
 20
614.19362323885002
 11
296.36235296539996
 21
550.15710323885003
  0
LINE
  8
_0-a_寸法
  6
CONTINUOUS
 62
    7
 10
256.36235296539996
 20
554.15710323885003
 11
296.42165796539996
 21
554.15710323885003
  0
LINE
  8
_0-a_寸法
  6
CONTINUOUS
 62
    7
 10
296.36235296539996
 20
554.15710323885003
 11
356.36235296539996
 21
554.15710323885003
  0
LINE
  8
_0-a_寸法
  6
CONTINUOUS
 62
    7
 10
356.36235296539996
 20
554.15710323885003
 11
506.36235296539996
 21
554.15710323885003
  0
TEXT
  8
_0-a_寸法
 62
    7
 10
531.11235175900003
 20
554.15710323885003
 40
10.5
 41
1
 50
0
  1
60
  0
TEXT
  8
_0-a_寸法
 62
    7
 10
581.11234925899998
 20
554.15710323885003
 40
10.5
 41
1
 50
0
  1
40
  0
LINE
  8
_0-a_寸法
  6
CONTINUOUS
 62
    7
 10
506.36235296539996
 20
597.87735823885009
 11
506.36235296539996
 21
550.15710323885003
  0
LINE
  8
_0-a_寸法
  6
CONTINUOUS
 62
    7
 10
606.36235296539996
 20
614.19362323885002
 11
606.36235296539996
 21
550.15710323885003
  0
LINE
  8
_0-a_寸法
  6
CONTINUOUS
 62
    7
 10
566.36235296539996
 20
614.19362323885002
 11
566.36235296539996
 21
550.15710323885003
  0
LINE
  8
_0-a_寸法
  6
CONTINUOUS
 62
    7
 10
496.36235296539996
 20
659.87735823885009
 11
496.36235296539996
 21
575.29775323885008
  0
CIRCLE
  8
_0-a_寸法
  6
CONTINUOUS
 62
    7
 10
320.62297121579996
 20
632.72843540604993
 40
7.5
  0
TEXT
  8
_0-a_寸法
 62
    7
 10
318.22297121579999
 20
627.92843540605008
 40
9.5999999999999996
 41
1
 50
0
  1
8
  0
LINE
  8
_0-a_寸法
  6
CONTINUOUS
 62
    7
 10
302.49479598559998
 20
664.12735823884998
 11
316.87297121579996
 21
639.2236254060499
  0
LINE
  8
_0-a_寸法
  6
CONTINUOUS
 62
    7
 10
566.36235296539996
 20
554.15710323885003
 11
571.36235296539996
 21
555.40710323885003
  0
LINE
  8
_0-a_寸法
  6
CONTINUOUS
 62
    7
 10
566.36235296539996
 20
554.15710323885003
 11
571.36235296539996
 21
552.90710323885003
  0
LINE
  8
_0-a_寸法
  6
CONTINUOUS
 62
    7
 10
506.36235296539996
 20
554.15710323885003
 11
511.36235296539996
 21
555.40710323885003
  0
LINE
  8
_0-a_寸法
  6
CONTINUOUS
 62
    7
 10
506.36235296539996
 20
554.15710323885003
 11
511.36235296539996
 21
552.90710323885003
  0
LINE
  8
_0-a_寸法
  6
CONTINUOUS
 62
    7
 10
506.36235296539996
 20
554.15710323885003
 11
501.36235296539996
 21
552.90710323885003
  0
LINE
  8
_0-a_寸法
  6
CONTINUOUS
 62
    7
 10
506.36235296539996
 20
554.15710323885003
 11
501.36235296539996
 21
555.40710323885003
  0
LINE
  8
_0-a_寸法
  6
CONTINUOUS
 62
    7
 10
566.36235296539996
 20
554.15710323885003
 11
561.36235296539996
 21
552.90710323885003
  0
LINE
  8
_0-a_寸法
  6
CONTINUOUS
 62
    7
 10
566.36235296539996
 20
554.15710323885003
 11
561.36235296539996
 21
555.40710323885003
  0
LINE
  8
_0-a_寸法
  6
CONTINUOUS
 62
    7
 10
606.36235296539996
 20
554.15710323885003
 11
601.36235296539996
 21
552.90710323885003
  0
LINE
  8
_0-a_寸法
  6
CONTINUOUS
 62
    7
 10
606.36235296539996
 20
554.15710323885003
 11
601.36235296539996
 21
555.40710323885003
  0
LINE
  8
_0-3_躯体
  6
CONTINUOUS
 62
    7
 10
1107.1963056680002
 20
750.27735823885007
 11
1107.1963056680002
 21
600.87735823885009
  0
LINE
  8
_0-3_躯体
  6
HIDDEN
 62
    7
 10
1107.1963056680002
 20
600.87735823885009
 11
1157.1963056679999
 21
600.87735823885009
  0
LINE
  8
_0-3_躯体
  6
HIDDEN
 62
    7
 10
1157.1963056679999
 20
750.27735823885007
 11
1157.1963056679999
 21
600.87735823885009
  0
LINE
  8
_0-3_躯体
  6
HIDDEN
 62
    7
 10
822.19630566799992
 20
600.87735823885009
 11
957.19630566799992
 21
600.87735823885009
  0
LINE
  8
_0-3_躯体
  6
HIDDEN
 62
    7
 10
822.19630566799992
 20
659.87735823885009
 11
822.19630566799992
 21
600.87735823885009
  0
LINE
  8
_0-3_躯体
  6
CONTINUOUS
 62
    7
 10
506.36235296539996
 20
659.87735823885009
 11
506.36235296539996
 21
599.87735823884998
  0
LINE
  8
_0-3_躯体
  6
HIDDEN
 62
    7
 10
506.36235296539996
 20
599.87735823884998
 11
641.36235296539996
 21
599.87735823884998
  0
LINE
  8
_0-3_躯体
  6
HIDDEN
 62
    7
 10
641.36235296539996
 20
659.87735823885009
 11
641.36235296539996
 21
599.87735823884998
  0
LINE
  8
_0-a_寸法
  6
CONTINUOUS
 62
    7
 10
957.19630566799992
 20
598.87735823885009
 11
957.19630566799992
 21
551.15710323885003
  0
LINE
  8
_0-a_寸法
  6
CENTER
 62
    7
 10
431.36235296540002
 20
694.87735823884998
 11
431.36235296540002
 21
600.87735823885009
  0
LINE
  8
_0-3_躯体
  6
HIDDEN
 62
    7
 10
221.36235296539994
 20
659.87735823885009
 11
221.36235296539994
 21
600.87735823885009
  0
LINE
  8
_0-3_躯体
  6
HIDDEN
 62
    7
 10
221.36235296539994
 20
600.87735823885009
 11
356.36235296539996
 21
600.87735823885009
  0
LINE
  8
_0-3_躯体
  6
CONTINUOUS
 62
    7
 10
957.19630566799992
 20
600.87735823885009
 11
957.19630566799992
 21
659.82473823884993
  0
LINE
  8
_0-a_寸法
  6
CENTER
 62
    7
 10
1032.1963056680002
 20
694.87735823884998
 11
1032.1963056680002
 21
600.87735823885009
  0
LINE
  8
_0-3_躯体
  6
CONTINUOUS
 62
    7
 10
356.36235296539996
 20
600.87735823885009
 11
356.36235296539996
 21
659.87735823885009
  0
LINE
  8
_0-9_その他
  6
CONTINUOUS
 62
    7
 10
1084.2326856680002
 20
721.37735823885009
 11
1105.696314668
 21
721.37735823885009
  0
LINE
  8
_0-9_その他
  6
CONTINUOUS
 62
    7
 10
878.69630566799992
 20
686.84098323884996
 11
878.69630566799992
 21
665.3773542388501
  0
LINE
  8
_0-9_その他
  6
CONTINUOUS
 62
    7
 10
584.86235296539996
 20
686.84098323884996
 11
584.86235296539996
 21
665.3773542388501
  0
LINE
  8
_0-9_その他
  6
CONTINUOUS
 62
    7
 10
277.86235296539996
 20
686.84098323884996
 11
277.86235296539996
 21
665.3773542388501
  0
CIRCLE
  8
_0-a_寸法
  6
CONTINUOUS
 62
    7
 10
380.40600633989999
 20
680.28541712354991
 40
1
  0
LINE
  8
_0-a_寸法
  6
CONTINUOUS
 62
    7
 10
380.40600633989999
 20
680.28541712354991
 11
388.01871356699991
 21
694.96960638855001
  0
CIRCLE
  8
_0-a_寸法
  6
CONTINUOUS
 62
    7
 10
391.47061840520001
 20
701.62801107654991
 40
7.5
  0
TEXT
  8
_0-a_寸法
 62
    7
 10
389.07061840519998
 20
696.82801107654996
 40
9.5999999999999996
 41
1
 50
0
  1
2
  0
CIRCLE
  8
_0-a_寸法
  6
CONTINUOUS
 62
    7
 10
310.70682816980002
 20
662.12735823885009
 40
1
  0
LINE
  8
_0-a_寸法
  6
CONTINUOUS
 62
    7
 10
310.70682816980002
 20
662.12735823885009
 11
329.85571993389999
 21
695.29420753475006
  0
CIRCLE
  8
_0-a_寸法
  6
CONTINUOUS
 62
    7
 10
333.60572016269998
 20
701.78939793104996
 40
7.5
  0
TEXT
  8
_0-a_寸法
 62
    7
 10
331.2057201627
 20
696.98939793105001
 40
9.5999999999999996
 41
1
 50
0
  1
3
  0
CIRCLE
  8
_0-a_寸法
  6
CONTINUOUS
 62
    7
 10
355.20594153809998
 20
701.54017025874998
 40
7.5
  0
TEXT
  8
_0-a_寸法
 62
    7
 10
352.8059415381
 20
696.74017025874991
 40
9.5999999999999996
 41
1
 50
0
  1
1
  0
CIRCLE
  8
_0-a_寸法
  6
CONTINUOUS
 62
    7
 10
344.38562145539998
 20
682.87735823884998
 40
1
  0
LINE
  8
_0-a_寸法
  6
CONTINUOUS
 62
    7
 10
344.38562145539998
 20
682.87735823884998
 11
351.45594130929999
 21
695.12351070735008
  0
LINE
  8
_0-a_寸法
  6
CONTINUOUS
 62
    7
 10
277.86235296539996
 20
682.72735823885012
 11
284.32600296539999
 21
693.92272823884991
  0
CIRCLE
  8
_0-a_寸法
  6
CONTINUOUS
 62
    7
 10
288.07600296539999
 20
700.41791823885001
 40
7.5
  0
CIRCLE
  8
_0-a_寸法
  6
CONTINUOUS
 62
    7
 10
277.86235296539996
 20
682.72735823885012
 40
1
  0
TEXT
  8
_0-a_寸法
 62
    7
 10
285.67600296540002
 20
695.61791823884994
 40
9.5999999999999996
 41
1
 50
0
  1
5
  0
CIRCLE
  8
_0-a_寸法
  6
CONTINUOUS
 62
    7
 10
981.23995904259982
 20
680.28541712354991
 40
1
  0
LINE
  8
_0-a_寸法
  6
CONTINUOUS
 62
    7
 10
981.23995904259982
 20
680.28541712354991
 11
988.85266626959992
 21
694.96960638855001
  0
CIRCLE
  8
_0-a_寸法
  6
CONTINUOUS
 62
    7
 10
992.30457110780003
 20
701.62801107654991
 40
7.5
  0
TEXT
  8
_0-a_寸法
 62
    7
 10
989.90457110779994
 20
696.82801107654996
 40
9.5999999999999996
 41
1
 50
0
  1
2
  0
CIRCLE
  8
_0-a_寸法
  6
CONTINUOUS
 62
    7
 10
911.54078087240009
 20
662.12735823885009
 40
1
  0
LINE
  8
_0-a_寸法
  6
CONTINUOUS
 62
    7
 10
911.54078087240009
 20
662.12735823885009
 11
930.68967263649995
 21
695.29420753475006
  0
CIRCLE
  8
_0-a_寸法
  6
CONTINUOUS
 62
    7
 10
934.43967286529983
 20
701.78939793104996
 40
7.5
  0
TEXT
  8
_0-a_寸法
 62
    7
 10
932.03967286529996
 20
696.98939793105001
 40
9.5999999999999996
 41
1
 50
0
  1
3
  0
CIRCLE
  8
_0-a_寸法
  6
CONTINUOUS
 62
    7
 10
956.03989424070005
 20
701.54017025874998
 40
7.5
  0
TEXT
  8
_0-a_寸法
 62
    7
 10
953.63989424069996
 20
696.74017025874991
 40
9.5999999999999996
 41
1
 50
0
  1
1
  0
CIRCLE
  8
_0-a_寸法
  6
CONTINUOUS
 62
    7
 10
945.21957415809993
 20
682.87735823884998
 40
1
  0
LINE
  8
_0-a_寸法
  6
CONTINUOUS
 62
    7
 10
945.21957415809993
 20
682.87735823884998
 11
952.28989401189983
 21
695.12351070735008
  0
CIRCLE
  8
_0-a_寸法
  6
CONTINUOUS
 62
    7
 10
1088.4963096679999
 20
721.37735748885007
 40
1
  0
CIRCLE
  8
_0-a_寸法
  6
CONTINUOUS
 62
    7
 10
1064.8289717050002
 20
701.51810475255002
 40
7.5
  0
LINE
  8
_0-a_寸法
  6
CONTINUOUS
 62
    7
 10
1088.4963096679999
 20
721.37735748885007
 11
1070.5743067050003
 21
706.33901475254993
  0
TEXT
  8
_0-a_寸法
 62
    7
 10
1062.2039717050002
 20
696.26810475255002
 40
10.5
 41
1
 50
0
  1
8
  0
CIRCLE
  8
_0-a_寸法
  6
CONTINUOUS
 62
    7
 10
878.69630566799992
 20
682.72735823885012
 40
1
  0
CIRCLE
  8
_0-a_寸法
  6
CONTINUOUS
 62
    7
 10
888.44020235710002
 20
699.60428356155012
 40
7.5
  0
LINE
  8
_0-a_寸法
  6
CONTINUOUS
 62
    7
 10
878.69630566799992
 20
682.72735823885012
 11
884.69020212830014
 21
693.10909316535003
  0
TEXT
  8
_0-a_寸法
 62
    7
 10
883.19020235710002
 20
694.35428356155012
 40
10.5
 41
1
 50
0
  1
８
  0
CIRCLE
  8
_0-a_寸法
  6
CONTINUOUS
 62
    7
 10
293.13451396539995
 20
628.48806823885002
 40
1
  0
LINE
  8
_0-a_寸法
  6
CONTINUOUS
 62
    7
 10
293.13451396539995
 20
628.48806823885002
 11
288.78773469989994
 21
620.95922655934999
  0
CIRCLE
  8
_0-a_寸法
  6
CONTINUOUS
 62
    7
 10
285.03773437949997
 20
614.46403621595005
 40
7.5
  0
TEXT
  8
_0-a_寸法
 62
    7
 10
282.63773437949999
 20
609.66403621594998
 40
9.5999999999999996
 41
1
 50
0
  1
6
  0
CIRCLE
  8
_0-a_寸法
  6
CONTINUOUS
 62
    7
 10
893.96846666800002
 20
628.48806823885002
 40
0.5999999999999996
  0
CIRCLE
  8
_0-a_寸法
  6
CONTINUOUS
 62
    7
 10
883.6829561167001
 20
610.67304077065
 40
7.5
  0
TEXT
  8
_0-a_寸法
 62
    7
 10
881.0579561167001
 20
605.42304077065
 40
10.5
 41
1
 50
0
  1
9
  0
LINE
  8
_0-a_寸法
  6
CONTINUOUS
 62
    7
 10
893.96846666800002
 20
628.48806823885002
 11
887.43295602019998
 21
617.16823135484992
  0
CIRCLE
  8
_0-a_寸法
  6
CONTINUOUS
 62
    7
 10
1138.5855946679999
 20
684.64951923885008
 40
1
  0
CIRCLE
  8
_0-a_寸法
  6
CONTINUOUS
 62
    7
 10
1147.7943146750001
 20
668.69955040774994
 40
7.5
  0
TEXT
  8
_0-a_寸法
 62
    7
 10
1145.1693146750001
 20
663.44955040774994
 40
10.5
 41
1
 50
0
  1
9
  0
LINE
  8
_0-a_寸法
  6
CONTINUOUS
 62
    7
 10
1138.5855946679999
 20
684.64951923885008
 11
1144.0443143059999
 21
675.19474072294997
  0
LINE
  8
_0-b_レイヤ1
  6
CONTINUOUS
 62
    7
 10
603.22500000000002
 20
251.14765176115
 11
176.77499999999995
 21
251.14765176115
  0
LINE
  8
_0-b_レイヤ1
  6
CONTINUOUS
 62
    7
 10
603.22500000000002
 20
287.14765176114997
 11
176.77499999999995
 21
287.14765176114997
  0
LINE
  8
_0-b_レイヤ1
  6
CONTINUOUS
 62
    7
 10
603.22500000000002
 20
269.14765176114997
 11
176.77499999999995
 21
269.14765176114997
  0
LINE
  8
_0-b_レイヤ1
  6
CONTINUOUS
 62
    7
 10
603.22500000000002
 20
305.14765176114997
 11
176.77499999999995
 21
305.14765176114997
  0
LINE
  8
_0-b_レイヤ1
  6
CONTINUOUS
 62
    7
 10
603.22500000000002
 20
413.14765176114997
 11
176.77499999999995
 21
413.14765176114997
  0
LINE
  8
_0-b_レイヤ1
  6
CONTINUOUS
 62
    7
 10
603.22500000000002
 20
395.14765176114997
 11
176.77499999999995
 21
395.14765176114997
  0
LINE
  8
_0-b_レイヤ1
  6
CONTINUOUS
 62
    7
 10
603.22500000000002
 20
377.14765176115003
 11
176.77499999999995
 21
377.14765176115003
  0
LINE
  8
_0-b_レイヤ1
  6
CONTINUOUS
 62
    7
 10
603.22500000000002
 20
359.14765176115003
 11
176.77499999999995
 21
359.14765176115003
  0
LINE
  8
_0-b_レイヤ1
  6
CONTINUOUS
 62
    7
 10
603.22500000000002
 20
341.14765176114997
 11
176.77499999999995
 21
341.14765176114997
  0
LINE
  8
_0-b_レイヤ1
  6
CONTINUOUS
 62
    7
 10
603.22500000000002
 20
323.14765176114997
 11
176.77499999999995
 21
323.14765176114997
  0
LINE
  8
_0-b_レイヤ1
  6
CONTINUOUS
 62
    7
 10
603.22500000000002
 20
445.54765176115006
 11
176.77499999999995
 21
445.54765176115006
  0
TEXT
  8
_0-b_レイヤ1
 62
    7
 10
504.58643100000006
 20
398.74766376115002
 40
9.5999999999999996
 41
1
 50
0
  1
３０００
  0
TEXT
  8
_0-b_レイヤ1
 62
    7
 10
564.85566449999999
 20
398.89762626114998
 40
9.5999999999999996
 41
1
 50
0
  1
２
  0
TEXT
  8
_0-b_レイヤ1
 62
    7
 10
587.79037499999993
 20
398.74766376115002
 40
9.5999999999999996
 41
1
 50
0
  1
本
  0
TEXT
  8
_0-b_レイヤ1
 62
    7
 10
187.53549599999999
 20
380.83030026115
 40
9.5999999999999996
 41
1
 50
0
  1
２
  0
TEXT
  8
_0-b_レイヤ1
 62
    7
 10
504.58643100000006
 20
380.74766376115002
 40
9.5999999999999996
 41
1
 50
0
  1
３０００
  0
TEXT
  8
_0-b_レイヤ1
 62
    7
 10
564.85566449999999
 20
380.89766076115001
 40
9.5999999999999996
 41
1
 50
0
  1
１
  0
TEXT
  8
_0-b_レイヤ1
 62
    7
 10
587.79037499999993
 20
380.74766376115002
 40
9.5999999999999996
 41
1
 50
0
  1
〃
  0
TEXT
  8
_0-b_レイヤ1
 62
    7
 10
187.53549599999999
 20
362.83030026115
 40
9.5999999999999996
 41
1
 50
0
  1
３
  0
TEXT
  8
_0-b_レイヤ1
 62
    7
 10
564.85566449999999
 20
362.89762626114998
 40
9.5999999999999996
 41
1
 50
0
  1
２
  0
TEXT
  8
_0-b_レイヤ1
 62
    7
 10
587.79037499999993
 20
362.74766376115002
 40
9.5999999999999996
 41
1
 50
0
  1
〃
  0
TEXT
  8
_0-b_レイヤ1
 62
    7
 10
187.53549599999999
 20
344.83030026115
 40
9.5999999999999996
 41
1
 50
0
  1
４
  0
TEXT
  8
_0-b_レイヤ1
 62
    7
 10
201.97502249999999
 20
344.74766376115002
 40
9.5999999999999996
 41
1
 50
0
  1
止水補助板
  0
TEXT
  8
_0-b_レイヤ1
 62
    7
 10
504.58643100000006
 20
344.74766376115002
 40
9.5999999999999996
 41
1
 50
0
  1
３１００
  0
TEXT
  8
_0-b_レイヤ1
 62
    7
 10
564.85566449999999
 20
344.89766076114995
 40
9.5999999999999996
 41
1
 50
0
  1
１
  0
TEXT
  8
_0-b_レイヤ1
 62
    7
 10
587.79037499999993
 20
344.74766376115002
 40
9.5999999999999996
 41
1
 50
0
  1
枚
  0
TEXT
  8
_0-b_レイヤ1
 62
    7
 10
187.53549599999999
 20
326.83033476115003
 40
9.5999999999999996
 41
1
 50
0
  1
５
  0
TEXT
  8
_0-b_レイヤ1
 62
    7
 10
187.53549599999999
 20
308.83033476115003
 40
9.5999999999999996
 41
1
 50
0
  1
６
  0
TEXT
  8
_0-b_レイヤ1
 62
    7
 10
587.79037499999993
 20
308.74766376115002
 40
9.5999999999999996
 41
1
 50
0
  1
〃
  0
TEXT
  8
_0-b_レイヤ1
 62
    7
 10
187.53549599999999
 20
290.83031826114996
 40
9.5999999999999996
 41
1
 50
0
  1
７
  0
TEXT
  8
_0-b_レイヤ1
 62
    7
 10
587.79037499999993
 20
290.74764576115001
 40
9.5999999999999996
 41
1
 50
0
  1
〃
  0
TEXT
  8
_0-b_レイヤ1
 62
    7
 10
187.53549599999999
 20
272.83031826114996
 40
9.5999999999999996
 41
1
 50
0
  1
８
  0
TEXT
  8
_0-b_レイヤ1
 62
    7
 10
201.97502249999999
 20
272.74768026114998
 40
9.5999999999999996
 41
1
 50
0
  1
ステンワッシャー
  0
TEXT
  8
_0-b_レイヤ1
 62
    7
 10
372.97507349999995
 20
272.74768026114998
 40
9.5999999999999996
 41
1
 50
0
  1
１．５×１８×５．５穴
  0
TEXT
  8
_0-b_レイヤ1
 62
    7
 10
587.79037499999993
 20
272.74768026114998
 40
9.5999999999999996
 41
1
 50
0
  1
枚
  0
LINE
  8
_0-b_レイヤ1
  6
CONTINUOUS
 62
    7
 10
1203.2250000000001
 20
413.14765176114997
 11
776.77500000000009
 21
413.14765176114997
  0
LINE
  8
_0-b_レイヤ1
  6
CONTINUOUS
 62
    7
 10
1203.2250000000001
 20
395.14765176114997
 11
776.77500000000009
 21
395.14765176114997
  0
LINE
  8
_0-b_レイヤ1
  6
CONTINUOUS
 62
    7
 10
1203.2250000000001
 20
377.14765176115003
 11
776.77500000000009
 21
377.14765176115003
  0
LINE
  8
_0-b_レイヤ1
  6
CONTINUOUS
 62
    7
 10
1203.2250000000001
 20
359.14765176115003
 11
776.77500000000009
 21
359.14765176115003
  0
LINE
  8
_0-b_レイヤ1
  6
CONTINUOUS
 62
    7
 10
1203.2250000000001
 20
341.14765176114997
 11
776.77500000000009
 21
341.14765176114997
  0
LINE
  8
_0-b_レイヤ1
  6
CONTINUOUS
 62
    7
 10
1203.2250000000001
 20
323.14765176114997
 11
776.77500000000009
 21
323.14765176114997
  0
LINE
  8
_0-b_レイヤ1
  6
CONTINUOUS
 62
    7
 10
1203.2250000000001
 20
305.14765176114997
 11
776.77500000000009
 21
305.14765176114997
  0
LINE
  8
_0-b_レイヤ1
  6
CONTINUOUS
 62
    7
 10
1203.2250000000001
 20
287.14765176114997
 11
776.77500000000009
 21
287.14765176114997
  0
LINE
  8
_0-b_レイヤ1
  6
CONTINUOUS
 62
    7
 10
1203.2250000000001
 20
269.14765176114997
 11
776.77500000000009
 21
269.14765176114997
  0
LINE
  8
_0-b_レイヤ1
  6
CONTINUOUS
 62
    7
 10
1203.2250000000001
 20
251.14765176115
 11
776.77500000000009
 21
251.14765176115
  0
LINE
  8
_0-b_レイヤ1
  6
CONTINUOUS
 62
    7
 10
1203.2250000000001
 20
215.14765176115
 11
776.77500000000009
 21
215.14765176115
  0
LINE
  8
_0-b_レイヤ1
  6
CONTINUOUS
 62
    7
 10
1203.2250000000001
 20
445.54765176115006
 11
776.77500000000009
 21
445.54765176115006
  0
LINE
  8
_0-b_レイヤ1
  6
CONTINUOUS
 62
    7
 10
1203.2250000000001
 20
233.14765176115
 11
776.77500000000009
 21
233.14765176115
  0
LINE
  8
_0-b_レイヤ1
  6
CONTINUOUS
 62
    7
 10
1203.2250000000001
 20
197.14765176115
 11
776.77500000000009
 21
197.14765176115
  0
TEXT
  8
_0-b_レイヤ1
 62
    7
 10
778.26615149999998
 20
398.83030026115
 40
9.5999999999999996
 41
1
 50
0
  1
　１
  0
TEXT
  8
_0-b_レイヤ1
 62
    7
 10
1104.5862585
 20
398.74766376115002
 40
9.5999999999999996
 41
1
 50
0
  1
３０００
  0
TEXT
  8
_0-b_レイヤ1
 62
    7
 10
1166.3557110000002
 20
398.89762626114998
 40
9.5999999999999996
 41
1
 50
0
  1
１
  0
TEXT
  8
_0-b_レイヤ1
 62
    7
 10
1187.7903060000001
 20
398.74766376115002
 40
9.5999999999999996
 41
1
 50
0
  1
本
  0
TEXT
  8
_0-b_レイヤ1
 62
    7
 10
787.53544349999993
 20
380.83030026115
 40
9.5999999999999996
 41
1
 50
0
  1
２
  0
TEXT
  8
_0-b_レイヤ1
 62
    7
 10
1104.5862585
 20
380.74766376115002
 40
9.5999999999999996
 41
1
 50
0
  1
３０００
  0
TEXT
  8
_0-b_レイヤ1
 62
    7
 10
1166.3557110000002
 20
380.89766076115001
 40
9.5999999999999996
 41
1
 50
0
  1
１
  0
TEXT
  8
_0-b_レイヤ1
 62
    7
 10
1187.7903060000001
 20
380.74766376115002
 40
9.5999999999999996
 41
1
 50
0
  1
〃
  0
TEXT
  8
_0-b_レイヤ1
 62
    7
 10
787.53544349999993
 20
362.83030026115
 40
9.5999999999999996
 41
1
 50
0
  1
３
  0
TEXT
  8
_0-b_レイヤ1
 62
    7
 10
1104.5862585
 20
362.74766376115002
 40
9.5999999999999996
 41
1
 50
0
  1
３０００
  0
TEXT
  8
_0-b_レイヤ1
 62
    7
 10
1166.3557110000002
 20
362.89762626114998
 40
9.5999999999999996
 41
1
 50
0
  1
１
  0
TEXT
  8
_0-b_レイヤ1
 62
    7
 10
1187.7903060000001
 20
362.74766376115002
 40
9.5999999999999996
 41
1
 50
0
  1
〃
  0
TEXT
  8
_0-b_レイヤ1
 62
    7
 10
787.53544349999993
 20
344.83030026115
 40
9.5999999999999996
 41
1
 50
0
  1
４
  0
TEXT
  8
_0-b_レイヤ1
 62
    7
 10
1104.5862585
 20
344.74766376115002
 40
9.5999999999999996
 41
1
 50
0
  1
３０００
  0
TEXT
  8
_0-b_レイヤ1
 62
    7
 10
1166.3557110000002
 20
344.89766076114995
 40
9.5999999999999996
 41
1
 50
0
  1
１
  0
TEXT
  8
_0-b_レイヤ1
 62
    7
 10
1187.7903060000001
 20
344.74766376115002
 40
9.5999999999999996
 41
1
 50
0
  1
〃
  0
TEXT
  8
_0-b_レイヤ1
 62
    7
 10
787.53544349999993
 20
326.83033476115003
 40
9.5999999999999996
 41
1
 50
0
  1
５
  0
TEXT
  8
_0-b_レイヤ1
 62
    7
 10
787.53544349999993
 20
308.83033476115003
 40
9.5999999999999996
 41
1
 50
0
  1
６
  0
TEXT
  8
_0-b_レイヤ1
 62
    7
 10
787.53544349999993
 20
290.83033476115003
 40
9.5999999999999996
 41
1
 50
0
  1
７
  0
TEXT
  8
_0-b_レイヤ1
 62
    7
 10
787.53544349999993
 20
272.83031826114996
 40
9.5999999999999996
 41
1
 50
0
  1
８
  0
TEXT
  8
_0-b_レイヤ1
 62
    7
 10
787.53544349999993
 20
254.83031826114998
 40
9.5999999999999996
 41
1
 50
0
  1
９
  0
TEXT
  8
_0-b_レイヤ1
 62
    7
 10
787.53544349999993
 20
200.83031826115001
 40
9.5999999999999996
 41
1
 50
0
  1
※
  0
TEXT
  8
_0-b_レイヤ1
 62
    7
 10
504.58643100000006
 20
362.74766376115002
 40
9.5999999999999996
 41
1
 50
0
  1
３０００
  0
TEXT
  8
_0-b_レイヤ1
 62
    7
 10
187.53549599999999
 20
254.83031826114998
 40
9.5999999999999996
 41
1
 50
0
  1
※
  0
LINE
  8
_0-b_レイヤ1
  6
CONTINUOUS
 62
    7
 10
176.77499999999995
 20
251.14765176115
 11
176.77499999999995
 21
445.54765176115006
  0
LINE
  8
_0-b_レイヤ1
  6
CONTINUOUS
 62
    7
 10
198.375
 20
251.14765176115
 11
198.375
 21
445.54765176115006
  0
LINE
  8
_0-b_レイヤ1
  6
CONTINUOUS
 62
    7
 10
369.375
 20
251.14765176115
 11
369.375
 21
445.54765176115006
  0
LINE
  8
_0-b_レイヤ1
  6
CONTINUOUS
 62
    7
 10
603.22500000000002
 20
251.14765176115
 11
603.22500000000002
 21
445.54765176115006
  0
LINE
  8
_0-b_レイヤ1
  6
CONTINUOUS
 62
    7
 10
545.625
 20
251.14765176115
 11
545.625
 21
445.54765176115006
  0
LINE
  8
_0-b_レイヤ1
  6
CONTINUOUS
 62
    7
 10
500.625
 20
251.14765176115
 11
500.625
 21
445.54765176115006
  0
LINE
  8
_0-b_レイヤ1
  6
CONTINUOUS
 62
    7
 10
581.625
 20
251.14765176115
 11
581.625
 21
445.54765176115006
  0
LINE
  8
_0-b_レイヤ1
  6
CONTINUOUS
 62
    7
 10
497.625
 20
251.14765176115
 11
497.625
 21
445.54765176115006
  0
TEXT
  8
_0-b_レイヤ1
 62
    7
 10
372.97507349999995
 20
326.74766376115002
 40
9.5999999999999996
 41
1
 50
0
  1
皿４×１６
  0
TEXT
  8
_0-b_レイヤ1
 62
    7
 10
201.97502249999999
 20
308.74766376115002
 40
9.5999999999999996
 41
1
 50
0
  1
アンカープラグ
  0
TEXT
  8
_0-b_レイヤ1
 62
    7
 10
372.97503899999998
 20
308.74766376115002
 40
9.5999999999999996
 41
1
 50
0
  1
フィッシャープラグＳ８
  0
TEXT
  8
_0-b_レイヤ1
 62
    7
 10
201.97502249999999
 20
290.74768026114998
 40
9.5999999999999996
 41
1
 50
0
  1
ステンタッピンねじ
  0
TEXT
  8
_0-b_レイヤ1
 62
    7
 10
372.97503899999998
 20
290.74768026114998
 40
9.5999999999999996
 41
1
 50
0
  1
なべ５×５０
  0
TEXT
  8
_0-b_レイヤ1
 62
    7
 10
564.85566449999999
 20
254.89766076114998
 40
9.5999999999999996
 41
1
 50
0
  1
１
  0
TEXT
  8
_0-b_レイヤ1
 62
    7
 10
201.97502249999999
 20
254.74766376115002
 40
9.5999999999999996
 41
1
 50
0
  1
ブチルテープ
  0
TEXT
  8
_0-b_レイヤ1
 62
    7
 10
372.97503899999998
 20
254.74766376115002
 40
9.5999999999999996
 41
1
 50
0
  1
ｔ１．０×ｗ３０
  0
LINE
  8
_0-b_レイヤ1
  6
CONTINUOUS
 62
    7
 10
776.77500000000009
 20
197.14765176115
 11
776.77500000000009
 21
445.54765176115006
  0
LINE
  8
_0-b_レイヤ1
  6
CONTINUOUS
 62
    7
 10
798.375
 20
197.14765176115
 11
798.375
 21
445.54765176115006
  0
LINE
  8
_0-b_レイヤ1
  6
CONTINUOUS
 62
    7
 10
969.375
 20
197.14765176115
 11
969.375
 21
445.54765176115006
  0
LINE
  8
_0-b_レイヤ1
  6
CONTINUOUS
 62
    7
 10
1097.625
 20
197.14765176115
 11
1097.625
 21
445.54765176115006
  0
LINE
  8
_0-b_レイヤ1
  6
CONTINUOUS
 62
    7
 10
1203.2250000000001
 20
197.14765176115
 11
1203.2250000000001
 21
445.54765176115006
  0
LINE
  8
_0-b_レイヤ1
  6
CONTINUOUS
 62
    7
 10
1181.625
 20
197.14765176115
 11
1181.625
 21
445.54765176115006
  0
LINE
  8
_0-b_レイヤ1
  6
CONTINUOUS
 62
    7
 10
1145.625
 20
197.14765176115
 11
1145.625
 21
445.54765176115006
  0
LINE
  8
_0-b_レイヤ1
  6
CONTINUOUS
 62
    7
 10
1100.625
 20
197.14765176115
 11
1100.625
 21
445.54765176115006
  0
TEXT
  8
_0-b_レイヤ1
 62
    7
 10
778.26615149999998
 20
236.83031826115001
 40
9.5999999999999996
 41
1
 50
0
  1
１０
  0
TEXT
  8
_0-b_レイヤ1
 62
    7
 10
778.26615149999998
 20
218.83031826115001
 40
9.5999999999999996
 41
1
 50
0
  1
１１
  0
TEXT
  8
_0-b_レイヤ1
 62
    7
 10
1104.5862585
 20
326.74766376115002
 40
9.5999999999999996
 41
1
 50
0
  1
３０００
  0
TEXT
  8
_0-b_レイヤ1
 62
    7
 10
1166.3557110000002
 20
326.89766076114995
 40
9.5999999999999996
 41
1
 50
0
  1
１
  0
TEXT
  8
_0-b_レイヤ1
 62
    7
 10
1187.7903060000001
 20
326.74766376115002
 40
9.5999999999999996
 41
1
 50
0
  1
〃
  0
TEXT
  8
_0-b_レイヤ1
 62
    7
 10
1166.3557110000002
 20
308.89766076114995
 40
9.5999999999999996
 41
1
 50
0
  1
１
  0
TEXT
  8
_0-b_レイヤ1
 62
    7
 10
801.97503899999992
 20
308.74766376115002
 40
9.5999999999999996
 41
1
 50
0
  1
止水補助板
  0
TEXT
  8
_0-b_レイヤ1
 62
    7
 10
1104.5862585
 20
308.74766376115002
 40
9.5999999999999996
 41
1
 50
0
  1
３１００
  0
TEXT
  8
_0-b_レイヤ1
 62
    7
 10
1187.7903060000001
 20
308.74766376115002
 40
9.5999999999999996
 41
1
 50
0
  1
枚
  0
TEXT
  8
_0-b_レイヤ1
 62
    7
 10
1166.3557110000002
 20
290.89766076114995
 40
9.5999999999999996
 41
1
 50
0
  1
１
  0
TEXT
  8
_0-b_レイヤ1
 62
    7
 10
1187.790375
 20
272.74766376115002
 40
9.5999999999999996
 41
1
 50
0
  1
〃
  0
TEXT
  8
_0-b_レイヤ1
 62
    7
 10
972.97507350000001
 20
272.74766376115002
 40
9.5999999999999996
 41
1
 50
0
  1
皿４×１６
  0
TEXT
  8
_0-b_レイヤ1
 62
    7
 10
1187.7903060000001
 20
290.74766376115002
 40
9.5999999999999996
 41
1
 50
0
  1
本
  0
TEXT
  8
_0-b_レイヤ1
 62
    7
 10
1104.5863964999999
 20
290.74768026114998
 40
9.5999999999999996
 41
1
 50
0
  1
３０００
  0
TEXT
  8
_0-b_レイヤ1
 62
    7
 10
1187.790375
 20
254.74766376115002
 40
9.5999999999999996
 41
1
 50
0
  1
〃
  0
TEXT
  8
_0-b_レイヤ1
 62
    7
 10
801.97502250000002
 20
254.74766376115002
 40
9.5999999999999996
 41
1
 50
0
  1
アンカープラグ
  0
TEXT
  8
_0-b_レイヤ1
 62
    7
 10
972.97503899999992
 20
254.74766376115002
 40
9.5999999999999996
 41
1
 50
0
  1
フィッシャープラグＳ８
  0
TEXT
  8
_0-b_レイヤ1
 62
    7
 10
1187.790375
 20
236.74766376114997
 40
9.5999999999999996
 41
1
 50
0
  1
〃
  0
TEXT
  8
_0-b_レイヤ1
 62
    7
 10
1187.7903060000001
 20
218.74766376114997
 40
9.5999999999999996
 41
1
 50
0
  1
枚
  0
TEXT
  8
_0-b_レイヤ1
 62
    7
 10
1187.7903060000001
 20
200.74766376115002
 40
9.5999999999999996
 41
1
 50
0
  1
巻
  0
TEXT
  8
_0-b_レイヤ1
 62
    7
 10
1166.3557110000002
 20
200.89766076115001
 40
9.5999999999999996
 41
1
 50
0
  1
１
  0
TEXT
  8
_0-b_レイヤ1
 62
    7
 10
1104.5863964999999
 20
200.74768026115004
 40
9.5999999999999996
 41
1
 50
0
  1
６０００
  0
TEXT
  8
_0-b_レイヤ1
 62
    7
 10
801.97502250000002
 20
218.74768026115004
 40
9.5999999999999996
 41
1
 50
0
  1
ステンワッシャー
  0
TEXT
  8
_0-b_レイヤ1
 62
    7
 10
972.97507350000001
 20
218.74768026115004
 40
9.5999999999999996
 41
1
 50
0
  1
１．５×１８×５．５穴
  0
TEXT
  8
_0-b_レイヤ1
 62
    7
 10
801.97502250000002
 20
236.74768026115004
 40
9.5999999999999996
 41
1
 50
0
  1
ステンタッピンねじ
  0
TEXT
  8
_0-b_レイヤ1
 62
    7
 10
972.97503899999992
 20
236.74768026115004
 40
9.5999999999999996
 41
1
 50
0
  1
なべ５×５０
  0
TEXT
  8
_0-b_レイヤ1
 62
    7
 10
801.97502250000002
 20
200.74766376115002
 40
9.5999999999999996
 41
1
 50
0
  1
ブチルテープ
  0
TEXT
  8
_0-b_レイヤ1
 62
    7
 10
972.97503899999992
 20
200.74766376115002
 40
9.5999999999999996
 41
1
 50
0
  1
ｔ１．０×ｗ３０
  0
TEXT
  8
_0-b_レイヤ1
 62
    7
 10
587.79037499999993
 20
326.74766376115002
 40
9.5999999999999996
 41
1
 50
0
  1
本
  0
TEXT
  8
_0-b_レイヤ1
 62
    7
 10
587.79037499999993
 20
254.74766376115002
 40
9.5999999999999996
 41
1
 50
0
  1
巻
  0
TEXT
  8
_0-b_レイヤ1
 62
    7
 10
504.58643100000006
 20
254.74766376115002
 40
9.5999999999999996
 41
1
 50
0
  1
６０００
  0
TEXT
  8
_0-b_レイヤ1
 62
    7
 10
178.26620399999999
 20
398.83030026115
 40
9.5999999999999996
 41
1
 50
0
  1
　１
  0
TEXT
  8
_0-b_レイヤ1
 62
    7
 10
372.97503899999998
 20
344.74766376115002
 40
9.5999999999999996
 41
1
 50
0
  1
ＦＳ４００
  0
TEXT
  8
_0-b_レイヤ1
 62
    7
 10
801.97503899999992
 20
362.74766376115002
 40
9.5999999999999996
 41
1
 50
0
  1
ＴＴフレーム（Ｃ）
  0
TEXT
  8
_0-b_レイヤ1
 62
    7
 10
801.97496999999998
 20
290.74768026114998
 40
9.5999999999999996
 41
1
 50
0
  1
ガスケットＫ
  0
TEXT
  8
_0-b_レイヤ1
 62
    7
 10
776.77501200000006
 20
178.00250802784001
 40
9.5999999999999996
 41
1
 50
0
  1
注）　ガスケットＫはＴＣサイドキャップ（Ｃ）Ｓ にセット済み。
  0
TEXT
  8
_0-b_レイヤ1
 62
    7
 10
972.97503899999992
 20
308.74768026114998
 40
9.5999999999999996
 41
1
 50
0
  1
ＦＳ４００
  0
TEXT
  8
_0-b_レイヤ1
 62
    7
 10
801.97503899999992
 20
326.74766376115002
 40
9.5999999999999996
 41
1
 50
0
  1
ＴＣ壁フレーム（Ｃ）
  0
TEXT
  8
_0-b_レイヤ1
 62
    7
 10
201.97502249999999
 20
362.74766376115002
 40
9.5999999999999996
 41
1
 50
0
  1
ＴＴフレーム（Ｃ）
  0
TEXT
  8
_0-b_レイヤ1
 62
    7
 10
801.97503899999992
 20
344.74766376115002
 40
9.5999999999999996
 41
1
 50
0
  1
ＴＣサイドキャップ（Ｃ）Ｓ
  0
TEXT
  8
_0-b_レイヤ1
 62
    7
 10
201.97502249999999
 20
326.74766376115002
 40
9.5999999999999996
 41
1
 50
0
  1
ステンドリリングねじ
  0
TEXT
  8
_0-b_レイヤ1
 62
    7
 10
801.97502250000002
 20
272.74766376115002
 40
9.5999999999999996
 41
1
 50
0
  1
ステンドリリングねじ
  0
TEXT
  8
_0-c_レイヤ8
 62
    7
 10
407.36235296540002
 20
516.31563209255
 40
9.5999999999999996
 41
1
 50
0
  1
Ｓ＝１／３
  0
TEXT
  8
_0-c_レイヤ8
 62
    7
 10
981.94251012149994
 20
512.49486836034998
 40
9.5999999999999996
 41
1
 50
0
  1
Ｓ＝１／３
  0
TEXT
  8
_0-b_レイヤ1
 62
    7
 10
555.58637250000004
 20
308.89762626114998
 40
9.5999999999999996
 41
1
 50
0
  1
２４
  0
TEXT
  8
_0-b_レイヤ1
 62
    7
 10
555.58637250000004
 20
290.89762626114998
 40
9.5999999999999996
 41
1
 50
0
  1
２４
  0
TEXT
  8
_0-b_レイヤ1
 62
    7
 10
555.58637250000004
 20
272.89767726115002
 40
9.5999999999999996
 41
1
 50
0
  1
２４
  0
TEXT
  8
_0-b_レイヤ1
 62
    7
 10
1155.5863724999999
 20
254.89762626114998
 40
9.5999999999999996
 41
1
 50
0
  1
１８
  0
TEXT
  8
_0-b_レイヤ1
 62
    7
 10
1155.5863724999999
 20
236.89762626115004
 40
9.5999999999999996
 41
1
 50
0
  1
１８
  0
TEXT
  8
_0-b_レイヤ1
 62
    7
 10
1155.5863724999999
 20
218.89762626115004
 40
9.5999999999999996
 41
1
 50
0
  1
１８
  0
TEXT
  8
_0-b_レイヤ1
 62
    7
 10
201.97502249999999
 20
398.74766376115002
 40
9.5999999999999996
 41
1
 50
0
  1
ＴＴサイドプレート（Ｃ）Ｓ
  0
TEXT
  8
_0-b_レイヤ1
 62
    7
 10
801.97503899999992
 20
398.74766376115002
 40
9.5999999999999996
 41
1
 50
0
  1
ＴＴサイドプレート（Ｃ）Ｓ
  0
TEXT
  8
_0-b_レイヤ1
 62
    7
 10
201.97502249999999
 20
380.74766376115002
 40
9.5999999999999996
 41
1
 50
0
  1
ＴＴセンタープレート（Ｃ）ＧＰＳ
  0
TEXT
  8
_0-b_レイヤ1
 62
    7
 10
801.97503899999992
 20
380.74766376115002
 40
9.5999999999999996
 41
1
 50
0
  1
ＴＣセンタープレート（Ｃ）ＧＰＳ
  0
TEXT
  8
_0-b_レイヤ1
 62
    7
 10
1155.5863724999999
 20
272.89762626114998
 40
9.5999999999999996
 41
1
 50
0
  1
１７
  0
TEXT
  8
_0-b_レイヤ1
 62
    7
 10
555.58637250000004
 20
326.89764426115005
 40
9.5999999999999996
 41
1
 50
0
  1
２２
  0
TEXT
  8
_0-b_レイヤ1
 62
    7
 10
264.67499999999995
 20
424.54765176115006
 40
9.5999999999999996
 41
1
 50
0
  1
部材名称
  0
TEXT
  8
_0-b_レイヤ1
 62
    7
 10
419.09999999999997
 20
424.54765176115006
 40
9.5999999999999996
 41
1
 50
0
  1
規　格
  0
TEXT
  8
_0-b_レイヤ1
 62
    7
 10
587.625
 20
438.94765176114998
 40
9.5999999999999996
 41
1
 50
-90.000000000000014
  1
単位
  0
TEXT
  8
_0-b_レイヤ1
 62
    7
 10
508.72499999999997
 20
432.64765176114997
 40
9.5999999999999996
 41
1
 50
0
  1
定　尺
  0
TEXT
  8
_0-b_レイヤ1
 62
    7
 10
503.92499999999995
 20
416.44765176114998
 40
9.5999999999999996
 41
1
 50
0
  1
（ｍｍ）
  0
TEXT
  8
_0-b_レイヤ1
 62
    7
 10
554.02499999999998
 20
416.44765176114998
 40
9.5999999999999996
 41
1
 50
0
  1
数量
  0
TEXT
  8
_0-b_レイヤ1
 62
    7
 10
554.02499999999998
 20
432.64765176114997
 40
9.5999999999999996
 41
1
 50
0
  1
使用
  0
TEXT
  8
_0-b_レイヤ1
 62
    7
 10
864.67499999999995
 20
424.54765176115006
 40
9.5999999999999996
 41
1
 50
0
  1
部材名称
  0
TEXT
  8
_0-b_レイヤ1
 62
    7
 10
1019.1000000000001
 20
424.54765176115006
 40
9.5999999999999996
 41
1
 50
0
  1
規　格
  0
TEXT
  8
_0-b_レイヤ1
 62
    7
 10
1187.625
 20
438.94765176114998
 40
9.5999999999999996
 41
1
 50
-90
  1
単位
  0
TEXT
  8
_0-b_レイヤ1
 62
    7
 10
1108.7250000000001
 20
432.64765176114997
 40
9.5999999999999996
 41
1
 50
0
  1
定　尺
  0
TEXT
  8
_0-b_レイヤ1
 62
    7
 10
1103.9250000000002
 20
416.44765176114998
 40
9.5999999999999996
 41
1
 50
0
  1
（ｍｍ）
  0
TEXT
  8
_0-b_レイヤ1
 62
    7
 10
1154.0249999999999
 20
416.44765176114998
 40
9.5999999999999996
 41
1
 50
0
  1
数量
  0
TEXT
  8
_0-b_レイヤ1
 62
    7
 10
1154.0249999999999
 20
432.64765176114997
 40
9.5999999999999996
 41
1
 50
0
  1
使用
  0
LINE
  8
_0-7_サイド
  6
CONTINUOUS
 62
    7
 10
365.36235296539996
 20
683.87735823885009
 11
366.36235296539991
 21
682.87735823884998
  0
LINE
  8
_0-7_サイド
  6
HIDDEN
 62
    7
 10
275.11235296539996
 20
681.87735823885009
 11
273.11235296539996
 21
683.87735823885009
  0
LINE
  8
_0-7_サイド
  6
HIDDEN
 62
    7
 10
280.61235296539996
 20
681.87735823885009
 11
282.61235296539996
 21
683.87735823885009
  0
LINE
  8
_0-7_サイド
  6
CONTINUOUS
 62
    7
 10
365.36235296539996
 20
683.87735823885009
 11
268.36235296539996
 21
683.87735823885009
  0
LINE
  8
_0-7_サイド
  6
CONTINUOUS
 62
    7
 10
268.36235296539996
 20
683.87735823885009
 11
268.36235296539996
 21
681.87735823885009
  0
LINE
  8
_0-7_サイド
  6
CONTINUOUS
 62
    7
 10
366.36235296539991
 20
681.87735823885009
 11
366.36235296539991
 21
682.87735823884998
  0
LINE
  8
_0-7_サイド
  6
CONTINUOUS
 62
    7
 10
268.36235296539996
 20
681.87735823885009
 11
366.36235296539991
 21
681.87735823885009
  0
LINE
  8
_0-7_サイド
  6
CONTINUOUS
 62
    7
 10
966.19630566800004
 20
683.87735823885009
 11
967.19630566799981
 21
682.87735823884998
  0
LINE
  8
_0-7_サイド
  6
HIDDEN
 62
    7
 10
875.94630566799992
 20
681.87735823885009
 11
873.94630566800004
 21
683.87735823885009
  0
LINE
  8
_0-7_サイド
  6
HIDDEN
 62
    7
 10
881.44630566800004
 20
681.87735823885009
 11
883.44630566799992
 21
683.87735823885009
  0
LINE
  8
_0-7_サイド
  6
CONTINUOUS
 62
    7
 10
966.19630566800004
 20
683.87735823885009
 11
869.19630566799992
 21
683.87735823885009
  0
LINE
  8
_0-7_サイド
  6
CONTINUOUS
 62
    7
 10
869.19630566799992
 20
683.87735823885009
 11
869.19630566799992
 21
681.87735823885009
  0
LINE
  8
_0-7_サイド
  6
CONTINUOUS
 62
    7
 10
967.19630566799981
 20
681.87735823885009
 11
967.19630566799981
 21
682.87735823884998
  0
LINE
  8
_0-7_サイド
  6
CONTINUOUS
 62
    7
 10
869.19630566799992
 20
681.87735823885009
 11
967.19630566799981
 21
681.87735823885009
  0
LINE
  8
_0-7_サイド
  6
CONTINUOUS
 62
    7
 10
497.36235296539996
 20
683.87735823885009
 11
496.36235296539991
 21
682.87735823884998
  0
LINE
  8
_0-7_サイド
  6
HIDDEN
 62
    7
 10
587.61235296539996
 20
681.87735823885009
 11
589.61235296539996
 21
683.87735823885009
  0
LINE
  8
_0-7_サイド
  6
HIDDEN
 62
    7
 10
582.11235296539996
 20
681.87735823885009
 11
580.11235296539996
 21
683.87735823885009
  0
LINE
  8
_0-7_サイド
  6
CONTINUOUS
 62
    7
 10
497.36235296539996
 20
683.87735823885009
 11
594.36235296539996
 21
683.87735823885009
  0
LINE
  8
_0-7_サイド
  6
CONTINUOUS
 62
    7
 10
594.36235296539996
 20
683.87735823885009
 11
594.36235296539996
 21
681.87735823885009
  0
LINE
  8
_0-7_サイド
  6
CONTINUOUS
 62
    7
 10
496.36235296539991
 20
681.87735823885009
 11
496.36235296539991
 21
682.87735823884998
  0
LINE
  8
_0-7_サイド
  6
CONTINUOUS
 62
    7
 10
594.36235296539996
 20
681.87735823885009
 11
496.36235296539991
 21
681.87735823885009
  0
LINE
  8
_0-8_小物
  6
CONTINUOUS
 62
    7
 10
276.59568396539999
 20
673.21206123884997
 11
276.59568396539999
 21
672.87736023885009
  0
LINE
  8
_0-8_小物
  6
CONTINUOUS
 62
    7
 10
274.26235296539994
 20
683.87735823885009
 11
274.26235296539994
 21
683.57735823885002
  0
LINE
  8
_0-8_小物
  6
CONTINUOUS
 62
    7
 10
274.26235296539994
 20
683.57735823885002
 11
276.59568396539999
 21
681.57736023884991
  0
LINE
  8
_0-8_小物
  6
CONTINUOUS
 62
    7
 10
276.59568396539999
 20
681.57736023884991
 11
279.12901896539995
 21
681.57736023884991
  0
LINE
  8
_0-8_小物
  6
CONTINUOUS
 62
    7
 10
274.26235296539994
 20
683.57735823885002
 11
281.46235296539999
 21
683.57735823885002
  0
LINE
  8
_0-8_小物
  6
CONTINUOUS
 62
    7
 10
281.46235296539999
 20
683.87735823885009
 11
281.46235296539999
 21
683.57735823885002
  0
LINE
  8
_0-8_小物
  6
CONTINUOUS
 62
    7
 10
281.46235296539999
 20
683.57735823885002
 11
279.12901896539995
 21
681.57736023884991
  0
LINE
  8
_0-8_小物
  6
CONTINUOUS
 62
    7
 10
276.59568396539999
 20
681.31664223884991
 11
277.86235296539991
 21
681.36362223884998
  0
LINE
  8
_0-8_小物
  6
CONTINUOUS
 62
    7
 10
276.59568396539999
 20
680.46986223884994
 11
277.86235296539991
 21
681.36362223884998
  0
LINE
  8
_0-8_小物
  6
CONTINUOUS
 62
    7
 10
276.59568396539999
 20
672.87736023885009
 11
276.59568396539999
 21
668.80111923885011
  0
LINE
  8
_0-8_小物
  6
CONTINUOUS
 62
    7
 10
279.12901896539995
 20
674.15280123884997
 11
279.12901896539995
 21
668.80111923885011
  0
LINE
  8
_0-8_小物
  6
CONTINUOUS
 62
    7
 10
276.59568396539999
 20
675.09354123884998
 11
276.59568396539999
 21
674.05884123884994
  0
LINE
  8
_0-8_小物
  6
CONTINUOUS
 62
    7
 10
279.12901896539995
 20
674.99958123884994
 11
279.12901896539995
 21
676.03428123884999
  0
LINE
  8
_0-8_小物
  6
CONTINUOUS
 62
    7
 10
276.59568396539999
 20
673.21206123884997
 11
279.12901896539995
 21
674.15280123884997
  0
LINE
  8
_0-8_小物
  6
CONTINUOUS
 62
    7
 10
276.59568396539999
 20
674.05884123884994
 11
279.12901896539995
 21
674.99958123884994
  0
LINE
  8
_0-8_小物
  6
CONTINUOUS
 62
    7
 10
275.86235196539997
 20
673.6354512388499
 11
279.86235096539997
 21
674.5761912388499
  0
LINE
  8
_0-8_小物
  6
CONTINUOUS
 62
    7
 10
275.86235196539997
 20
673.6354512388499
 11
276.59568396539999
 21
673.21206123884997
  0
LINE
  8
_0-8_小物
  6
CONTINUOUS
 62
    7
 10
275.86235196539997
 20
673.6354512388499
 11
276.59568396539999
 21
674.05884123884994
  0
LINE
  8
_0-8_小物
  6
CONTINUOUS
 62
    7
 10
279.86235096539997
 20
674.5761912388499
 11
279.12901896539995
 21
674.15280123884997
  0
LINE
  8
_0-8_小物
  6
CONTINUOUS
 62
    7
 10
279.12901896539995
 20
674.99958123884994
 11
279.86235096539997
 21
674.5761912388499
  0
LINE
  8
_0-8_小物
  6
CONTINUOUS
 62
    7
 10
276.59568396539999
 20
676.97502423884998
 11
276.59568396539999
 21
675.94032123884995
  0
LINE
  8
_0-8_小物
  6
CONTINUOUS
 62
    7
 10
279.12901896539995
 20
676.88106423885006
 11
279.12901896539995
 21
677.91576423884999
  0
LINE
  8
_0-8_小物
  6
CONTINUOUS
 62
    7
 10
276.59568396539999
 20
675.09354123884998
 11
279.12901896539995
 21
676.03428123884999
  0
LINE
  8
_0-8_小物
  6
CONTINUOUS
 62
    7
 10
276.59568396539999
 20
675.94032123884995
 11
279.12901896539995
 21
676.88106423885006
  0
LINE
  8
_0-8_小物
  6
CONTINUOUS
 62
    7
 10
275.86235196539997
 20
675.51693123884991
 11
279.86235096539997
 21
676.45767123884991
  0
LINE
  8
_0-8_小物
  6
CONTINUOUS
 62
    7
 10
275.86235196539997
 20
675.51693123884991
 11
276.59568396539999
 21
675.09354123884998
  0
LINE
  8
_0-8_小物
  6
CONTINUOUS
 62
    7
 10
275.86235196539997
 20
675.51693123884991
 11
276.59568396539999
 21
675.94032123884995
  0
LINE
  8
_0-8_小物
  6
CONTINUOUS
 62
    7
 10
279.86235096539997
 20
676.45767123884991
 11
279.12901896539995
 21
676.03428123884999
  0
LINE
  8
_0-8_小物
  6
CONTINUOUS
 62
    7
 10
279.12901896539995
 20
676.88106423885006
 11
279.86235096539997
 21
676.45767123884991
  0
LINE
  8
_0-8_小物
  6
CONTINUOUS
 62
    7
 10
276.59568396539999
 20
678.85650423884999
 11
276.59568396539999
 21
677.82180423885006
  0
LINE
  8
_0-8_小物
  6
CONTINUOUS
 62
    7
 10
279.12901896539995
 20
678.76254423885007
 11
279.12901896539995
 21
679.79724423885
  0
LINE
  8
_0-8_小物
  6
CONTINUOUS
 62
    7
 10
276.59568396539999
 20
676.97502423884998
 11
279.12901896539995
 21
677.91576423884999
  0
LINE
  8
_0-8_小物
  6
CONTINUOUS
 62
    7
 10
276.59568396539999
 20
677.82180423885006
 11
279.12901896539995
 21
678.76254423885007
  0
LINE
  8
_0-8_小物
  6
CONTINUOUS
 62
    7
 10
275.86235196539997
 20
677.39841423884991
 11
279.86235096539997
 21
678.33915423884991
  0
LINE
  8
_0-8_小物
  6
CONTINUOUS
 62
    7
 10
275.86235196539997
 20
677.39841423884991
 11
276.59568396539999
 21
676.97502423884998
  0
LINE
  8
_0-8_小物
  6
CONTINUOUS
 62
    7
 10
275.86235196539997
 20
677.39841423884991
 11
276.59568396539999
 21
677.82180423885006
  0
LINE
  8
_0-8_小物
  6
CONTINUOUS
 62
    7
 10
279.86235096539997
 20
678.33915423884991
 11
279.12901896539995
 21
677.91576423884999
  0
LINE
  8
_0-8_小物
  6
CONTINUOUS
 62
    7
 10
279.12901896539995
 20
678.76254423885007
 11
279.86235096539997
 21
678.33915423884991
  0
LINE
  8
_0-8_小物
  6
CONTINUOUS
 62
    7
 10
276.59568396539999
 20
679.9412982388501
 11
276.59568396539999
 21
679.70328423885007
  0
LINE
  8
_0-8_小物
  6
CONTINUOUS
 62
    7
 10
279.12901896539995
 20
681.57736023884991
 11
279.12901896539995
 21
680.64402723884996
  0
LINE
  8
_0-8_小物
  6
CONTINUOUS
 62
    7
 10
276.59568396539999
 20
678.85650423884999
 11
279.12901896539995
 21
679.79724423885
  0
LINE
  8
_0-8_小物
  6
CONTINUOUS
 62
    7
 10
276.59568396539999
 20
679.70328423885007
 11
279.12901896539995
 21
680.64402723884996
  0
LINE
  8
_0-8_小物
  6
CONTINUOUS
 62
    7
 10
275.86235196539997
 20
679.27989423884992
 11
279.86235096539997
 21
680.22063423884993
  0
LINE
  8
_0-8_小物
  6
CONTINUOUS
 62
    7
 10
275.86235196539997
 20
679.27989423884992
 11
276.59568396539999
 21
678.85650423884999
  0
LINE
  8
_0-8_小物
  6
CONTINUOUS
 62
    7
 10
275.86235196539997
 20
679.27989423884992
 11
276.59568396539999
 21
679.70328423885007
  0
LINE
  8
_0-8_小物
  6
CONTINUOUS
 62
    7
 10
279.12901896539995
 20
679.79724423885
 11
279.86235096539997
 21
680.22063423884993
  0
LINE
  8
_0-8_小物
  6
CONTINUOUS
 62
    7
 10
279.12901896539995
 20
680.64402723884996
 11
279.86235096539997
 21
680.22063423884993
  0
LINE
  8
_0-8_小物
  6
CONTINUOUS
 62
    7
 10
276.59568396539999
 20
681.57736023884991
 11
276.59568396539999
 21
681.31664223884991
  0
LINE
  8
_0-8_小物
  6
CONTINUOUS
 62
    7
 10
277.86235296539991
 20
681.36362223884998
 11
275.86235196539997
 21
680.89325223884998
  0
LINE
  8
_0-8_小物
  6
CONTINUOUS
 62
    7
 10
275.86235196539997
 20
680.89325223884998
 11
276.59568396539999
 21
680.46986223884994
  0
LINE
  8
_0-8_小物
  6
CONTINUOUS
 62
    7
 10
275.86235196539997
 20
680.89325223884998
 11
276.59568396539999
 21
681.31664223884991
  0
LINE
  8
_0-8_小物
  6
CONTINUOUS
 62
    7
 10
276.59568396539999
 20
680.46986223884994
 11
276.59568396539999
 21
679.9412982388501
  0
LINE
  8
_0-8_小物
  6
CONTINUOUS
 62
    7
 10
277.86235296539991
 20
669.87736023885009
 11
277.86235296539991
 21
667.87735923884998
  0
LINE
  8
_0-8_小物
  6
CONTINUOUS
 62
    7
 10
279.12901896539995
 20
672.87736023885009
 11
276.59569896539995
 21
672.87736023885009
  0
LINE
  8
_0-8_小物
  6
CONTINUOUS
 62
    7
 10
277.86235296539991
 20
667.87735923884998
 11
276.59568696539998
 21
668.80111923885011
  0
LINE
  8
_0-8_小物
  6
CONTINUOUS
 62
    7
 10
277.86235296539991
 20
667.87735923884998
 11
279.12901896539995
 21
668.80111923885011
  0
ARC
  8
_0-8_小物
  6
CONTINUOUS
 62
    7
 10
278.23712496539997
 20
668.15276223885007
 40
1.7648489999999999
 50
102.260329
 51
158.446304
  0
ARC
  8
_0-8_小物
  6
CONTINUOUS
 62
    7
 10
283.86863496539996
 20
669.10878123885004
 40
6.0552599999999996
 50
141.51097799999997
 51
172.70791799999998
  0
LINE
  8
_0-8_小物
  6
CONTINUOUS
 62
    7
 10
274.26235296539994
 20
683.87735823885009
 11
281.46235296539999
 21
683.87735823885009
  0
LINE
  8
_0-8_小物
  6
CONTINUOUS
 62
    7
 10
583.59568396539999
 20
673.21206123884997
 11
583.59568396539999
 21
672.87736023885009
  0
LINE
  8
_0-8_小物
  6
CONTINUOUS
 62
    7
 10
581.26235296539994
 20
683.87735823885009
 11
581.26235296539994
 21
683.57735823885002
  0
LINE
  8
_0-8_小物
  6
CONTINUOUS
 62
    7
 10
581.26235296539994
 20
683.57735823885002
 11
583.59568396539999
 21
681.57736023884991
  0
LINE
  8
_0-8_小物
  6
CONTINUOUS
 62
    7
 10
583.59568396539999
 20
681.57736023884991
 11
586.12901896539995
 21
681.57736023884991
  0
LINE
  8
_0-8_小物
  6
CONTINUOUS
 62
    7
 10
581.26235296539994
 20
683.57735823885002
 11
588.46235296539999
 21
683.57735823885002
  0
LINE
  8
_0-8_小物
  6
CONTINUOUS
 62
    7
 10
588.46235296539999
 20
683.87735823885009
 11
588.46235296539999
 21
683.57735823885002
  0
LINE
  8
_0-8_小物
  6
CONTINUOUS
 62
    7
 10
588.46235296539999
 20
683.57735823885002
 11
586.12901896539995
 21
681.57736023884991
  0
LINE
  8
_0-8_小物
  6
CONTINUOUS
 62
    7
 10
583.59568396539999
 20
681.31664223884991
 11
584.86235296539985
 21
681.36362223884998
  0
LINE
  8
_0-8_小物
  6
CONTINUOUS
 62
    7
 10
583.59568396539999
 20
680.46986223884994
 11
584.86235296539985
 21
681.36362223884998
  0
LINE
  8
_0-8_小物
  6
CONTINUOUS
 62
    7
 10
583.59568396539999
 20
672.87736023885009
 11
583.59568396539999
 21
668.80111923885011
  0
LINE
  8
_0-8_小物
  6
CONTINUOUS
 62
    7
 10
586.12901896539995
 20
674.15280123884997
 11
586.12901896539995
 21
668.80111923885011
  0
LINE
  8
_0-8_小物
  6
CONTINUOUS
 62
    7
 10
583.59568396539999
 20
675.09354123884998
 11
583.59568396539999
 21
674.05884123884994
  0
LINE
  8
_0-8_小物
  6
CONTINUOUS
 62
    7
 10
586.12901896539995
 20
674.99958123884994
 11
586.12901896539995
 21
676.03428123884999
  0
LINE
  8
_0-8_小物
  6
CONTINUOUS
 62
    7
 10
583.59568396539999
 20
673.21206123884997
 11
586.12901896539995
 21
674.15280123884997
  0
LINE
  8
_0-8_小物
  6
CONTINUOUS
 62
    7
 10
583.59568396539999
 20
674.05884123884994
 11
586.12901896539995
 21
674.99958123884994
  0
LINE
  8
_0-8_小物
  6
CONTINUOUS
 62
    7
 10
582.86235196539997
 20
673.6354512388499
 11
586.86235096539997
 21
674.5761912388499
  0
LINE
  8
_0-8_小物
  6
CONTINUOUS
 62
    7
 10
582.86235196539997
 20
673.6354512388499
 11
583.59568396539999
 21
673.21206123884997
  0
LINE
  8
_0-8_小物
  6
CONTINUOUS
 62
    7
 10
582.86235196539997
 20
673.6354512388499
 11
583.59568396539999
 21
674.05884123884994
  0
LINE
  8
_0-8_小物
  6
CONTINUOUS
 62
    7
 10
586.86235096539997
 20
674.5761912388499
 11
586.12901896539995
 21
674.15280123884997
  0
LINE
  8
_0-8_小物
  6
CONTINUOUS
 62
    7
 10
586.12901896539995
 20
674.99958123884994
 11
586.86235096539997
 21
674.5761912388499
  0
LINE
  8
_0-8_小物
  6
CONTINUOUS
 62
    7
 10
583.59568396539999
 20
676.97502423884998
 11
583.59568396539999
 21
675.94032123884995
  0
LINE
  8
_0-8_小物
  6
CONTINUOUS
 62
    7
 10
586.12901896539995
 20
676.88106423885006
 11
586.12901896539995
 21
677.91576423884999
  0
LINE
  8
_0-8_小物
  6
CONTINUOUS
 62
    7
 10
583.59568396539999
 20
675.09354123884998
 11
586.12901896539995
 21
676.03428123884999
  0
LINE
  8
_0-8_小物
  6
CONTINUOUS
 62
    7
 10
583.59568396539999
 20
675.94032123884995
 11
586.12901896539995
 21
676.88106423885006
  0
LINE
  8
_0-8_小物
  6
CONTINUOUS
 62
    7
 10
582.86235196539997
 20
675.51693123884991
 11
586.86235096539997
 21
676.45767123884991
  0
LINE
  8
_0-8_小物
  6
CONTINUOUS
 62
    7
 10
582.86235196539997
 20
675.51693123884991
 11
583.59568396539999
 21
675.09354123884998
  0
LINE
  8
_0-8_小物
  6
CONTINUOUS
 62
    7
 10
582.86235196539997
 20
675.51693123884991
 11
583.59568396539999
 21
675.94032123884995
  0
LINE
  8
_0-8_小物
  6
CONTINUOUS
 62
    7
 10
586.86235096539997
 20
676.45767123884991
 11
586.12901896539995
 21
676.03428123884999
  0
LINE
  8
_0-8_小物
  6
CONTINUOUS
 62
    7
 10
586.12901896539995
 20
676.88106423885006
 11
586.86235096539997
 21
676.45767123884991
  0
LINE
  8
_0-8_小物
  6
CONTINUOUS
 62
    7
 10
583.59568396539999
 20
678.85650423884999
 11
583.59568396539999
 21
677.82180423885006
  0
LINE
  8
_0-8_小物
  6
CONTINUOUS
 62
    7
 10
586.12901896539995
 20
678.76254423885007
 11
586.12901896539995
 21
679.79724423885
  0
LINE
  8
_0-8_小物
  6
CONTINUOUS
 62
    7
 10
583.59568396539999
 20
676.97502423884998
 11
586.12901896539995
 21
677.91576423884999
  0
LINE
  8
_0-8_小物
  6
CONTINUOUS
 62
    7
 10
583.59568396539999
 20
677.82180423885006
 11
586.12901896539995
 21
678.76254423885007
  0
LINE
  8
_0-8_小物
  6
CONTINUOUS
 62
    7
 10
582.86235196539997
 20
677.39841423884991
 11
586.86235096539997
 21
678.33915423884991
  0
LINE
  8
_0-8_小物
  6
CONTINUOUS
 62
    7
 10
582.86235196539997
 20
677.39841423884991
 11
583.59568396539999
 21
676.97502423884998
  0
LINE
  8
_0-8_小物
  6
CONTINUOUS
 62
    7
 10
582.86235196539997
 20
677.39841423884991
 11
583.59568396539999
 21
677.82180423885006
  0
LINE
  8
_0-8_小物
  6
CONTINUOUS
 62
    7
 10
586.86235096539997
 20
678.33915423884991
 11
586.12901896539995
 21
677.91576423884999
  0
LINE
  8
_0-8_小物
  6
CONTINUOUS
 62
    7
 10
586.12901896539995
 20
678.76254423885007
 11
586.86235096539997
 21
678.33915423884991
  0
LINE
  8
_0-8_小物
  6
CONTINUOUS
 62
    7
 10
583.59568396539999
 20
679.9412982388501
 11
583.59568396539999
 21
679.70328423885007
  0
LINE
  8
_0-8_小物
  6
CONTINUOUS
 62
    7
 10
586.12901896539995
 20
681.57736023884991
 11
586.12901896539995
 21
680.64402723884996
  0
LINE
  8
_0-8_小物
  6
CONTINUOUS
 62
    7
 10
583.59568396539999
 20
678.85650423884999
 11
586.12901896539995
 21
679.79724423885
  0
LINE
  8
_0-8_小物
  6
CONTINUOUS
 62
    7
 10
583.59568396539999
 20
679.70328423885007
 11
586.12901896539995
 21
680.64402723884996
  0
LINE
  8
_0-8_小物
  6
CONTINUOUS
 62
    7
 10
582.86235196539997
 20
679.27989423884992
 11
586.86235096539997
 21
680.22063423884993
  0
LINE
  8
_0-8_小物
  6
CONTINUOUS
 62
    7
 10
582.86235196539997
 20
679.27989423884992
 11
583.59568396539999
 21
678.85650423884999
  0
LINE
  8
_0-8_小物
  6
CONTINUOUS
 62
    7
 10
582.86235196539997
 20
679.27989423884992
 11
583.59568396539999
 21
679.70328423885007
  0
LINE
  8
_0-8_小物
  6
CONTINUOUS
 62
    7
 10
586.12901896539995
 20
679.79724423885
 11
586.86235096539997
 21
680.22063423884993
  0
LINE
  8
_0-8_小物
  6
CONTINUOUS
 62
    7
 10
586.12901896539995
 20
680.64402723884996
 11
586.86235096539997
 21
680.22063423884993
  0
LINE
  8
_0-8_小物
  6
CONTINUOUS
 62
    7
 10
583.59568396539999
 20
681.57736023884991
 11
583.59568396539999
 21
681.31664223884991
  0
LINE
  8
_0-8_小物
  6
CONTINUOUS
 62
    7
 10
584.86235296539985
 20
681.36362223884998
 11
582.86235196539997
 21
680.89325223884998
  0
LINE
  8
_0-8_小物
  6
CONTINUOUS
 62
    7
 10
582.86235196539997
 20
680.89325223884998
 11
583.59568396539999
 21
680.46986223884994
  0
LINE
  8
_0-8_小物
  6
CONTINUOUS
 62
    7
 10
582.86235196539997
 20
680.89325223884998
 11
583.59568396539999
 21
681.31664223884991
  0
LINE
  8
_0-8_小物
  6
CONTINUOUS
 62
    7
 10
583.59568396539999
 20
680.46986223884994
 11
583.59568396539999
 21
679.9412982388501
  0
LINE
  8
_0-8_小物
  6
CONTINUOUS
 62
    7
 10
584.86235296539985
 20
669.87736023885009
 11
584.86235296539985
 21
667.87735923884998
  0
LINE
  8
_0-8_小物
  6
CONTINUOUS
 62
    7
 10
586.12901896539995
 20
672.87736023885009
 11
583.59569896539995
 21
672.87736023885009
  0
LINE
  8
_0-8_小物
  6
CONTINUOUS
 62
    7
 10
584.86235296539985
 20
667.87735923884998
 11
583.59568696539998
 21
668.80111923885011
  0
LINE
  8
_0-8_小物
  6
CONTINUOUS
 62
    7
 10
584.86235296539985
 20
667.87735923884998
 11
586.12901896539995
 21
668.80111923885011
  0
ARC
  8
_0-8_小物
  6
CONTINUOUS
 62
    7
 10
585.23712496539997
 20
668.15276223885007
 40
1.7648489999999999
 50
102.260329
 51
158.446304
  0
ARC
  8
_0-8_小物
  6
CONTINUOUS
 62
    7
 10
590.86863496540002
 20
669.10878123885004
 40
6.0552599999999996
 50
141.51097799999997
 51
172.70791799999998
  0
LINE
  8
_0-8_小物
  6
CONTINUOUS
 62
    7
 10
581.26235296539994
 20
683.87735823885009
 11
588.46235296539999
 21
683.87735823885009
  0
LINE
  8
_0-8_小物
  6
CONTINUOUS
 62
    7
 10
877.42963666800006
 20
673.21206123884997
 11
877.42963666800006
 21
672.87736023885009
  0
LINE
  8
_0-8_小物
  6
CONTINUOUS
 62
    7
 10
875.09630566800001
 20
683.87735823885009
 11
875.09630566800001
 21
683.57735823885002
  0
LINE
  8
_0-8_小物
  6
CONTINUOUS
 62
    7
 10
875.09630566800001
 20
683.57735823885002
 11
877.42963666800006
 21
681.57736023884991
  0
LINE
  8
_0-8_小物
  6
CONTINUOUS
 62
    7
 10
877.42963666800006
 20
681.57736023884991
 11
879.96297166799991
 21
681.57736023884991
  0
LINE
  8
_0-8_小物
  6
CONTINUOUS
 62
    7
 10
875.09630566800001
 20
683.57735823885002
 11
882.29630566799995
 21
683.57735823885002
  0
LINE
  8
_0-8_小物
  6
CONTINUOUS
 62
    7
 10
882.29630566799995
 20
683.87735823885009
 11
882.29630566799995
 21
683.57735823885002
  0
LINE
  8
_0-8_小物
  6
CONTINUOUS
 62
    7
 10
882.29630566799995
 20
683.57735823885002
 11
879.96297166799991
 21
681.57736023884991
  0
LINE
  8
_0-8_小物
  6
CONTINUOUS
 62
    7
 10
877.42963666800006
 20
681.31664223884991
 11
878.69630566799981
 21
681.36362223884998
  0
LINE
  8
_0-8_小物
  6
CONTINUOUS
 62
    7
 10
877.42963666800006
 20
680.46986223884994
 11
878.69630566799981
 21
681.36362223884998
  0
LINE
  8
_0-8_小物
  6
CONTINUOUS
 62
    7
 10
877.42963666800006
 20
672.87736023885009
 11
877.42963666800006
 21
668.80111923885011
  0
LINE
  8
_0-8_小物
  6
CONTINUOUS
 62
    7
 10
879.96297166799991
 20
674.15280123884997
 11
879.96297166799991
 21
668.80111923885011
  0
LINE
  8
_0-8_小物
  6
CONTINUOUS
 62
    7
 10
877.42963666800006
 20
675.09354123884998
 11
877.42963666800006
 21
674.05884123884994
  0
LINE
  8
_0-8_小物
  6
CONTINUOUS
 62
    7
 10
879.96297166799991
 20
674.99958123884994
 11
879.96297166799991
 21
676.03428123884999
  0
LINE
  8
_0-8_小物
  6
CONTINUOUS
 62
    7
 10
877.42963666800006
 20
673.21206123884997
 11
879.96297166799991
 21
674.15280123884997
  0
LINE
  8
_0-8_小物
  6
CONTINUOUS
 62
    7
 10
877.42963666800006
 20
674.05884123884994
 11
879.96297166799991
 21
674.99958123884994
  0
LINE
  8
_0-8_小物
  6
CONTINUOUS
 62
    7
 10
876.69630466799993
 20
673.6354512388499
 11
880.69630366800004
 21
674.5761912388499
  0
LINE
  8
_0-8_小物
  6
CONTINUOUS
 62
    7
 10
876.69630466799993
 20
673.6354512388499
 11
877.42963666800006
 21
673.21206123884997
  0
LINE
  8
_0-8_小物
  6
CONTINUOUS
 62
    7
 10
876.69630466799993
 20
673.6354512388499
 11
877.42963666800006
 21
674.05884123884994
  0
LINE
  8
_0-8_小物
  6
CONTINUOUS
 62
    7
 10
880.69630366800004
 20
674.5761912388499
 11
879.96297166799991
 21
674.15280123884997
  0
LINE
  8
_0-8_小物
  6
CONTINUOUS
 62
    7
 10
879.96297166799991
 20
674.99958123884994
 11
880.69630366800004
 21
674.5761912388499
  0
LINE
  8
_0-8_小物
  6
CONTINUOUS
 62
    7
 10
877.42963666800006
 20
676.97502423884998
 11
877.42963666800006
 21
675.94032123884995
  0
LINE
  8
_0-8_小物
  6
CONTINUOUS
 62
    7
 10
879.96297166799991
 20
676.88106423885006
 11
879.96297166799991
 21
677.91576423884999
  0
LINE
  8
_0-8_小物
  6
CONTINUOUS
 62
    7
 10
877.42963666800006
 20
675.09354123884998
 11
879.96297166799991
 21
676.03428123884999
  0
LINE
  8
_0-8_小物
  6
CONTINUOUS
 62
    7
 10
877.42963666800006
 20
675.94032123884995
 11
879.96297166799991
 21
676.88106423885006
  0
LINE
  8
_0-8_小物
  6
CONTINUOUS
 62
    7
 10
876.69630466799993
 20
675.51693123884991
 11
880.69630366800004
 21
676.45767123884991
  0
LINE
  8
_0-8_小物
  6
CONTINUOUS
 62
    7
 10
876.69630466799993
 20
675.51693123884991
 11
877.42963666800006
 21
675.09354123884998
  0
LINE
  8
_0-8_小物
  6
CONTINUOUS
 62
    7
 10
876.69630466799993
 20
675.51693123884991
 11
877.42963666800006
 21
675.94032123884995
  0
LINE
  8
_0-8_小物
  6
CONTINUOUS
 62
    7
 10
880.69630366800004
 20
676.45767123884991
 11
879.96297166799991
 21
676.03428123884999
  0
LINE
  8
_0-8_小物
  6
CONTINUOUS
 62
    7
 10
879.96297166799991
 20
676.88106423885006
 11
880.69630366800004
 21
676.45767123884991
  0
LINE
  8
_0-8_小物
  6
CONTINUOUS
 62
    7
 10
877.42963666800006
 20
678.85650423884999
 11
877.42963666800006
 21
677.82180423885006
  0
LINE
  8
_0-8_小物
  6
CONTINUOUS
 62
    7
 10
879.96297166799991
 20
678.76254423885007
 11
879.96297166799991
 21
679.79724423885
  0
LINE
  8
_0-8_小物
  6
CONTINUOUS
 62
    7
 10
877.42963666800006
 20
676.97502423884998
 11
879.96297166799991
 21
677.91576423884999
  0
LINE
  8
_0-8_小物
  6
CONTINUOUS
 62
    7
 10
877.42963666800006
 20
677.82180423885006
 11
879.96297166799991
 21
678.76254423885007
  0
LINE
  8
_0-8_小物
  6
CONTINUOUS
 62
    7
 10
876.69630466799993
 20
677.39841423884991
 11
880.69630366800004
 21
678.33915423884991
  0
LINE
  8
_0-8_小物
  6
CONTINUOUS
 62
    7
 10
876.69630466799993
 20
677.39841423884991
 11
877.42963666800006
 21
676.97502423884998
  0
LINE
  8
_0-8_小物
  6
CONTINUOUS
 62
    7
 10
876.69630466799993
 20
677.39841423884991
 11
877.42963666800006
 21
677.82180423885006
  0
LINE
  8
_0-8_小物
  6
CONTINUOUS
 62
    7
 10
880.69630366800004
 20
678.33915423884991
 11
879.96297166799991
 21
677.91576423884999
  0
LINE
  8
_0-8_小物
  6
CONTINUOUS
 62
    7
 10
879.96297166799991
 20
678.76254423885007
 11
880.69630366800004
 21
678.33915423884991
  0
LINE
  8
_0-8_小物
  6
CONTINUOUS
 62
    7
 10
877.42963666800006
 20
679.9412982388501
 11
877.42963666800006
 21
679.70328423885007
  0
LINE
  8
_0-8_小物
  6
CONTINUOUS
 62
    7
 10
879.96297166799991
 20
681.57736023884991
 11
879.96297166799991
 21
680.64402723884996
  0
LINE
  8
_0-8_小物
  6
CONTINUOUS
 62
    7
 10
877.42963666800006
 20
678.85650423884999
 11
879.96297166799991
 21
679.79724423885
  0
LINE
  8
_0-8_小物
  6
CONTINUOUS
 62
    7
 10
877.42963666800006
 20
679.70328423885007
 11
879.96297166799991
 21
680.64402723884996
  0
LINE
  8
_0-8_小物
  6
CONTINUOUS
 62
    7
 10
876.69630466799993
 20
679.27989423884992
 11
880.69630366800004
 21
680.22063423884993
  0
LINE
  8
_0-8_小物
  6
CONTINUOUS
 62
    7
 10
876.69630466799993
 20
679.27989423884992
 11
877.42963666800006
 21
678.85650423884999
  0
LINE
  8
_0-8_小物
  6
CONTINUOUS
 62
    7
 10
876.69630466799993
 20
679.27989423884992
 11
877.42963666800006
 21
679.70328423885007
  0
LINE
  8
_0-8_小物
  6
CONTINUOUS
 62
    7
 10
879.96297166799991
 20
679.79724423885
 11
880.69630366800004
 21
680.22063423884993
  0
LINE
  8
_0-8_小物
  6
CONTINUOUS
 62
    7
 10
879.96297166799991
 20
680.64402723884996
 11
880.69630366800004
 21
680.22063423884993
  0
LINE
  8
_0-8_小物
  6
CONTINUOUS
 62
    7
 10
877.42963666800006
 20
681.57736023884991
 11
877.42963666800006
 21
681.31664223884991
  0
LINE
  8
_0-8_小物
  6
CONTINUOUS
 62
    7
 10
878.69630566799981
 20
681.36362223884998
 11
876.69630466799993
 21
680.89325223884998
  0
LINE
  8
_0-8_小物
  6
CONTINUOUS
 62
    7
 10
876.69630466799993
 20
680.89325223884998
 11
877.42963666800006
 21
680.46986223884994
  0
LINE
  8
_0-8_小物
  6
CONTINUOUS
 62
    7
 10
876.69630466799993
 20
680.89325223884998
 11
877.42963666800006
 21
681.31664223884991
  0
LINE
  8
_0-8_小物
  6
CONTINUOUS
 62
    7
 10
877.42963666800006
 20
680.46986223884994
 11
877.42963666800006
 21
679.9412982388501
  0
LINE
  8
_0-8_小物
  6
CONTINUOUS
 62
    7
 10
878.69630566799981
 20
669.87736023885009
 11
878.69630566799981
 21
667.87735923884998
  0
LINE
  8
_0-8_小物
  6
CONTINUOUS
 62
    7
 10
879.96297166799991
 20
672.87736023885009
 11
877.42965166800002
 21
672.87736023885009
  0
LINE
  8
_0-8_小物
  6
CONTINUOUS
 62
    7
 10
878.69630566799981
 20
667.87735923884998
 11
877.42963966800005
 21
668.80111923885011
  0
LINE
  8
_0-8_小物
  6
CONTINUOUS
 62
    7
 10
878.69630566799981
 20
667.87735923884998
 11
879.96297166799991
 21
668.80111923885011
  0
ARC
  8
_0-8_小物
  6
CONTINUOUS
 62
    7
 10
879.07107766800004
 20
668.15276223885007
 40
1.7648489999999999
 50
102.260329
 51
158.446304
  0
ARC
  8
_0-8_小物
  6
CONTINUOUS
 62
    7
 10
884.70258766799998
 20
669.10878123885004
 40
6.0552599999999996
 50
141.51097799999997
 51
172.70791799999998
  0
LINE
  8
_0-8_小物
  6
CONTINUOUS
 62
    7
 10
875.09630566800001
 20
683.87735823885009
 11
882.29630566799995
 21
683.87735823885009
  0
LINE
  8
_0-8_小物
  6
CONTINUOUS
 62
    7
 10
1097.861607668
 20
720.11068923885
 11
1098.196308668
 21
720.11068923885
  0
LINE
  8
_0-8_小物
  6
CONTINUOUS
 62
    7
 10
1087.1963106679998
 20
717.77735823884996
 11
1087.4963106679998
 21
717.77735823884996
  0
LINE
  8
_0-8_小物
  6
CONTINUOUS
 62
    7
 10
1087.4963106679998
 20
717.77735823884996
 11
1089.4963086679998
 21
720.11068923885
  0
LINE
  8
_0-8_小物
  6
CONTINUOUS
 62
    7
 10
1089.4963086679998
 20
720.11068923885
 11
1089.4963086679998
 21
722.64402423885008
  0
LINE
  8
_0-8_小物
  6
CONTINUOUS
 62
    7
 10
1087.4963106679998
 20
717.77735823884996
 11
1087.4963106679998
 21
724.97735823885
  0
LINE
  8
_0-8_小物
  6
CONTINUOUS
 62
    7
 10
1087.1963106679998
 20
724.97735823885
 11
1087.4963106679998
 21
724.97735823885
  0
LINE
  8
_0-8_小物
  6
CONTINUOUS
 62
    7
 10
1087.4963106679998
 20
724.97735823885
 11
1089.4963086679998
 21
722.64402423885008
  0
LINE
  8
_0-8_小物
  6
CONTINUOUS
 62
    7
 10
1089.7570266679998
 20
720.11068923885
 11
1089.7100466679999
 21
721.37735823885009
  0
LINE
  8
_0-8_小物
  6
CONTINUOUS
 62
    7
 10
1090.6038066679998
 20
720.11068923885
 11
1089.7100466679999
 21
721.37735823885009
  0
LINE
  8
_0-8_小物
  6
CONTINUOUS
 62
    7
 10
1098.196308668
 20
720.11068923885
 11
1102.272549668
 21
720.11068923885
  0
LINE
  8
_0-8_小物
  6
CONTINUOUS
 62
    7
 10
1096.920867668
 20
722.64402423885008
 11
1102.272549668
 21
722.64402423885008
  0
LINE
  8
_0-8_小物
  6
CONTINUOUS
 62
    7
 10
1095.980127668
 20
720.11068923885
 11
1097.0148276680002
 21
720.11068923885
  0
LINE
  8
_0-8_小物
  6
CONTINUOUS
 62
    7
 10
1096.0740876680002
 20
722.64402423885008
 11
1095.039387668
 21
722.64402423885008
  0
LINE
  8
_0-8_小物
  6
CONTINUOUS
 62
    7
 10
1097.861607668
 20
720.11068923885
 11
1096.920867668
 21
722.64402423885008
  0
LINE
  8
_0-8_小物
  6
CONTINUOUS
 62
    7
 10
1097.0148276680002
 20
720.11068923885
 11
1096.0740876680002
 21
722.64402423885008
  0
LINE
  8
_0-8_小物
  6
CONTINUOUS
 62
    7
 10
1097.4382176680001
 20
719.37735723884998
 11
1096.4974776680001
 21
723.37735623884998
  0
LINE
  8
_0-8_小物
  6
CONTINUOUS
 62
    7
 10
1097.4382176680001
 20
719.37735723884998
 11
1097.861607668
 21
720.11068923885
  0
LINE
  8
_0-8_小物
  6
CONTINUOUS
 62
    7
 10
1097.4382176680001
 20
719.37735723884998
 11
1097.0148276680002
 21
720.11068923885
  0
LINE
  8
_0-8_小物
  6
CONTINUOUS
 62
    7
 10
1096.4974776680001
 20
723.37735623884998
 11
1096.920867668
 21
722.64402423885008
  0
LINE
  8
_0-8_小物
  6
CONTINUOUS
 62
    7
 10
1096.0740876680002
 20
722.64402423885008
 11
1096.4974776680001
 21
723.37735623884998
  0
LINE
  8
_0-8_小物
  6
CONTINUOUS
 62
    7
 10
1094.0986446679999
 20
720.11068923885
 11
1095.1333476680002
 21
720.11068923885
  0
LINE
  8
_0-8_小物
  6
CONTINUOUS
 62
    7
 10
1094.1926046680001
 20
722.64402423885008
 11
1093.1579046679999
 21
722.64402423885008
  0
LINE
  8
_0-8_小物
  6
CONTINUOUS
 62
    7
 10
1095.980127668
 20
720.11068923885
 11
1095.039387668
 21
722.64402423885008
  0
LINE
  8
_0-8_小物
  6
CONTINUOUS
 62
    7
 10
1095.1333476680002
 20
720.11068923885
 11
1094.1926046680001
 21
722.64402423885008
  0
LINE
  8
_0-8_小物
  6
CONTINUOUS
 62
    7
 10
1095.5567376680001
 20
719.37735723884998
 11
1094.6159976680001
 21
723.37735623884998
  0
LINE
  8
_0-8_小物
  6
CONTINUOUS
 62
    7
 10
1095.5567376680001
 20
719.37735723884998
 11
1095.980127668
 21
720.11068923885
  0
LINE
  8
_0-8_小物
  6
CONTINUOUS
 62
    7
 10
1095.5567376680001
 20
719.37735723884998
 11
1095.1333476680002
 21
720.11068923885
  0
LINE
  8
_0-8_小物
  6
CONTINUOUS
 62
    7
 10
1094.6159976680001
 20
723.37735623884998
 11
1095.039387668
 21
722.64402423885008
  0
LINE
  8
_0-8_小物
  6
CONTINUOUS
 62
    7
 10
1094.1926046680001
 20
722.64402423885008
 11
1094.6159976680001
 21
723.37735623884998
  0
LINE
  8
_0-8_小物
  6
CONTINUOUS
 62
    7
 10
1092.2171646679999
 20
720.11068923885
 11
1093.2518646680001
 21
720.11068923885
  0
LINE
  8
_0-8_小物
  6
CONTINUOUS
 62
    7
 10
1092.311124668
 20
722.64402423885008
 11
1091.2764246679999
 21
722.64402423885008
  0
LINE
  8
_0-8_小物
  6
CONTINUOUS
 62
    7
 10
1094.0986446679999
 20
720.11068923885
 11
1093.1579046679999
 21
722.64402423885008
  0
LINE
  8
_0-8_小物
  6
CONTINUOUS
 62
    7
 10
1093.2518646680001
 20
720.11068923885
 11
1092.311124668
 21
722.64402423885008
  0
LINE
  8
_0-8_小物
  6
CONTINUOUS
 62
    7
 10
1093.675254668
 20
719.37735723884998
 11
1092.734514668
 21
723.37735623884998
  0
LINE
  8
_0-8_小物
  6
CONTINUOUS
 62
    7
 10
1093.675254668
 20
719.37735723884998
 11
1094.0986446679999
 21
720.11068923885
  0
LINE
  8
_0-8_小物
  6
CONTINUOUS
 62
    7
 10
1093.675254668
 20
719.37735723884998
 11
1093.2518646680001
 21
720.11068923885
  0
LINE
  8
_0-8_小物
  6
CONTINUOUS
 62
    7
 10
1092.734514668
 20
723.37735623884998
 11
1093.1579046679999
 21
722.64402423885008
  0
LINE
  8
_0-8_小物
  6
CONTINUOUS
 62
    7
 10
1092.311124668
 20
722.64402423885008
 11
1092.734514668
 21
723.37735623884998
  0
LINE
  8
_0-8_小物
  6
CONTINUOUS
 62
    7
 10
1091.132370668
 20
720.11068923885
 11
1091.370384668
 21
720.11068923885
  0
LINE
  8
_0-8_小物
  6
CONTINUOUS
 62
    7
 10
1089.4963086679998
 20
722.64402423885008
 11
1090.4296416679999
 21
722.64402423885008
  0
LINE
  8
_0-8_小物
  6
CONTINUOUS
 62
    7
 10
1092.2171646679999
 20
720.11068923885
 11
1091.2764246679999
 21
722.64402423885008
  0
LINE
  8
_0-8_小物
  6
CONTINUOUS
 62
    7
 10
1091.370384668
 20
720.11068923885
 11
1090.4296416679999
 21
722.64402423885008
  0
LINE
  8
_0-8_小物
  6
CONTINUOUS
 62
    7
 10
1091.793774668
 20
719.37735723884998
 11
1090.853034668
 21
723.37735623884998
  0
LINE
  8
_0-8_小物
  6
CONTINUOUS
 62
    7
 10
1091.793774668
 20
719.37735723884998
 11
1092.2171646679999
 21
720.11068923885
  0
LINE
  8
_0-8_小物
  6
CONTINUOUS
 62
    7
 10
1091.793774668
 20
719.37735723884998
 11
1091.370384668
 21
720.11068923885
  0
LINE
  8
_0-8_小物
  6
CONTINUOUS
 62
    7
 10
1091.2764246679999
 20
722.64402423885008
 11
1090.853034668
 21
723.37735623884998
  0
LINE
  8
_0-8_小物
  6
CONTINUOUS
 62
    7
 10
1090.4296416679999
 20
722.64402423885008
 11
1090.853034668
 21
723.37735623884998
  0
LINE
  8
_0-8_小物
  6
CONTINUOUS
 62
    7
 10
1089.4963086679998
 20
720.11068923885
 11
1089.7570266679998
 21
720.11068923885
  0
LINE
  8
_0-8_小物
  6
CONTINUOUS
 62
    7
 10
1089.7100466679999
 20
721.37735823885009
 11
1090.1804166679999
 21
719.37735723884998
  0
LINE
  8
_0-8_小物
  6
CONTINUOUS
 62
    7
 10
1090.1804166679999
 20
719.37735723884998
 11
1090.6038066679998
 21
720.11068923885
  0
LINE
  8
_0-8_小物
  6
CONTINUOUS
 62
    7
 10
1090.1804166679999
 20
719.37735723884998
 11
1089.7570266679998
 21
720.11068923885
  0
LINE
  8
_0-8_小物
  6
CONTINUOUS
 62
    7
 10
1090.6038066679998
 20
720.11068923885
 11
1091.132370668
 21
720.11068923885
  0
LINE
  8
_0-8_小物
  6
CONTINUOUS
 62
    7
 10
1101.196308668
 20
721.37735823885009
 11
1103.1963096679999
 21
721.37735823885009
  0
LINE
  8
_0-8_小物
  6
CONTINUOUS
 62
    7
 10
1098.196308668
 20
722.64402423885008
 11
1098.196308668
 21
720.11070423884996
  0
LINE
  8
_0-8_小物
  6
CONTINUOUS
 62
    7
 10
1103.1963096679999
 20
721.37735823885009
 11
1102.272549668
 21
720.11069223884999
  0
LINE
  8
_0-8_小物
  6
CONTINUOUS
 62
    7
 10
1103.1963096679999
 20
721.37735823885009
 11
1102.272549668
 21
722.64402423885008
  0
ARC
  8
_0-8_小物
  6
CONTINUOUS
 62
    7
 10
1102.9209066679998
 20
721.75213023884999
 40
1.7648489999999999
 50
192.26032900000004
 51
248.446304
  0
ARC
  8
_0-8_小物
  6
CONTINUOUS
 62
    7
 10
1101.9648876679998
 20
727.38364023884992
 40
6.0552599999999996
 50
231.51097799999994
 51
262.70791799999995
  0
LINE
  8
_0-8_小物
  6
CONTINUOUS
 62
    7
 10
1087.1963106679998
 20
717.77735823884996
 11
1087.1963106679998
 21
724.97735823885
  0
LINE
  8
_0-6_センタ_プレ_ト
  6
CONTINUOUS
 62
    7
 10
429.86286697789996
 20
683.08100478605002
 11
429.85632274089988
 21
683.33091911725012
  0
LINE
  8
_0-6_センタ_プレ_ト
  6
CONTINUOUS
 62
    7
 10
426.86389500299993
 20
683.0024739411499
 11
426.85735076589992
 21
683.25238827235012
  0
LINE
  8
_0-6_センタ_プレ_ト
  6
CONTINUOUS
 62
    7
 10
431.36235296540002
 20
683.1202702085501
 11
429.86286697789996
 21
683.08100478605002
  0
LINE
  8
_0-6_センタ_プレ_ト
  6
CONTINUOUS
 62
    7
 10
429.85632274089988
 20
683.33091911725012
 11
426.85735076589992
 21
683.25238827235012
  0
LINE
  8
_0-6_センタ_プレ_ト
  6
CONTINUOUS
 62
    7
 10
423.86492302809989
 20
682.9239430962499
 11
423.85837879099989
 21
683.17385742745
  0
LINE
  8
_0-6_センタ_プレ_ト
  6
CONTINUOUS
 62
    7
 10
426.86389500299993
 20
683.0024739411499
 11
423.86492302809989
 21
682.9239430962499
  0
LINE
  8
_0-6_センタ_プレ_ト
  6
CONTINUOUS
 62
    7
 10
420.86595105320004
 20
682.84541225125008
 11
420.85940681610003
 21
683.09532658255011
  0
LINE
  8
_0-6_センタ_プレ_ト
  6
CONTINUOUS
 62
    7
 10
423.85837879099989
 20
683.17385742745
 11
420.85940681610003
 21
683.09532658255011
  0
LINE
  8
_0-6_センタ_プレ_ト
  6
CONTINUOUS
 62
    7
 10
417.8669790781999
 20
682.76688140634997
 11
417.8604348410999
 21
683.01679573754996
  0
LINE
  8
_0-6_センタ_プレ_ト
  6
CONTINUOUS
 62
    7
 10
420.86595105320004
 20
682.84541225125008
 11
417.8669790781999
 21
682.76688140634997
  0
LINE
  8
_0-6_センタ_プレ_ト
  6
CONTINUOUS
 62
    7
 10
414.86800710330004
 20
682.68835056144997
 11
414.86146286620004
 21
682.93826489265007
  0
LINE
  8
_0-6_センタ_プレ_ト
  6
CONTINUOUS
 62
    7
 10
417.8604348410999
 20
683.01679573754996
 11
414.86146286620004
 21
682.93826489265007
  0
LINE
  8
_0-6_センタ_プレ_ト
  6
CONTINUOUS
 62
    7
 10
411.86903512839984
 20
682.60981971655008
 11
411.86249089129984
 21
682.85973404774995
  0
LINE
  8
_0-6_センタ_プレ_ト
  6
CONTINUOUS
 62
    7
 10
414.86800710330004
 20
682.68835056144997
 11
411.86903512839984
 21
682.60981971655008
  0
LINE
  8
_0-6_センタ_プレ_ト
  6
CONTINUOUS
 62
    7
 10
408.87006315340005
 20
682.53128887154992
 11
408.86351891639998
 21
682.78120320284995
  0
LINE
  8
_0-6_センタ_プレ_ト
  6
CONTINUOUS
 62
    7
 10
411.86249089129984
 20
682.85973404774995
 11
408.86351891639998
 21
682.78120320284995
  0
LINE
  8
_0-6_センタ_プレ_ト
  6
CONTINUOUS
 62
    7
 10
405.87109117849985
 20
682.45275802665003
 11
405.86454694139985
 21
682.70267235795006
  0
LINE
  8
_0-6_センタ_プレ_ト
  6
CONTINUOUS
 62
    7
 10
408.87006315340005
 20
682.53128887154992
 11
405.87109117849985
 21
682.45275802665003
  0
LINE
  8
_0-6_センタ_プレ_ト
  6
CONTINUOUS
 62
    7
 10
402.87211920359999
 20
682.37422718175003
 11
402.86557496649999
 21
682.6241415129499
  0
LINE
  8
_0-6_センタ_プレ_ト
  6
CONTINUOUS
 62
    7
 10
405.86454694139985
 20
682.70267235795006
 11
402.86557496649999
 21
682.6241415129499
  0
LINE
  8
_0-6_センタ_プレ_ト
  6
CONTINUOUS
 62
    7
 10
399.87314722869996
 20
682.29569633684991
 11
399.86660299159996
 21
682.54561066805002
  0
LINE
  8
_0-6_センタ_プレ_ト
  6
CONTINUOUS
 62
    7
 10
402.87211920359999
 20
682.37422718175003
 11
399.87314722869996
 21
682.29569633684991
  0
LINE
  8
_0-6_センタ_プレ_ト
  6
CONTINUOUS
 62
    7
 10
396.8741752537
 20
682.2171654918501
 11
396.86763101669993
 21
682.46707982315002
  0
LINE
  8
_0-6_センタ_プレ_ト
  6
CONTINUOUS
 62
    7
 10
399.86660299159996
 20
682.54561066805002
 11
396.86763101669993
 21
682.46707982315002
  0
LINE
  8
_0-6_センタ_プレ_ト
  6
CONTINUOUS
 62
    7
 10
393.87520327879997
 20
682.13863464695009
 11
393.86865904169997
 21
682.3885489782499
  0
LINE
  8
_0-6_センタ_プレ_ト
  6
CONTINUOUS
 62
    7
 10
396.8741752537
 20
682.2171654918501
 11
393.87520327879997
 21
682.13863464695009
  0
LINE
  8
_0-6_センタ_プレ_ト
  6
CONTINUOUS
 62
    7
 10
390.87623130389994
 20
682.06010380204998
 11
390.86968706679994
 21
682.31001813325008
  0
LINE
  8
_0-6_センタ_プレ_ト
  6
CONTINUOUS
 62
    7
 10
393.86865904169997
 20
682.3885489782499
 11
390.86968706679994
 21
682.31001813325008
  0
LINE
  8
_0-6_センタ_プレ_ト
  6
CONTINUOUS
 62
    7
 10
387.87725932899991
 20
681.98157295715009
 11
387.87071509189991
 21
682.23148728835008
  0
LINE
  8
_0-6_センタ_プレ_ト
  6
CONTINUOUS
 62
    7
 10
390.87623130389994
 20
682.06010380204998
 11
387.87725932899991
 21
681.98157295715009
  0
LINE
  8
_0-6_センタ_プレ_ト
  6
CONTINUOUS
 62
    7
 10
384.87828735399995
 20
681.90304211214993
 11
384.87174311699988
 21
682.15295644344997
  0
LINE
  8
_0-6_センタ_プレ_ト
  6
CONTINUOUS
 62
    7
 10
387.87071509189991
 20
682.23148728835008
 11
384.87174311699988
 21
682.15295644344997
  0
LINE
  8
_0-6_センタ_プレ_ト
  6
CONTINUOUS
 62
    7
 10
381.87931537909998
 20
681.82451126725005
 11
381.87277114199998
 21
682.07442559855008
  0
LINE
  8
_0-6_センタ_プレ_ト
  6
CONTINUOUS
 62
    7
 10
384.87828735399995
 20
681.90304211214993
 11
381.87931537909998
 21
681.82451126725005
  0
LINE
  8
_0-6_センタ_プレ_ト
  6
CONTINUOUS
 62
    7
 10
378.88034340419995
 20
681.74598042234993
 11
378.87379916709995
 21
681.99589475354992
  0
LINE
  8
_0-6_センタ_プレ_ト
  6
CONTINUOUS
 62
    7
 10
381.87277114199998
 20
682.07442559855008
 11
378.87379916709995
 21
681.99589475354992
  0
LINE
  8
_0-6_センタ_プレ_ト
  6
CONTINUOUS
 62
    7
 10
375.88137142929997
 20
681.66744957744993
 11
375.87482719219997
 21
681.91736390865003
  0
LINE
  8
_0-6_センタ_プレ_ト
  6
CONTINUOUS
 62
    7
 10
378.88034340419995
 20
681.74598042234993
 11
375.88137142929997
 21
681.66744957744993
  0
LINE
  8
_0-6_センタ_プレ_ト
  6
CONTINUOUS
 62
    7
 10
372.88239945429996
 20
681.58891873245011
 11
372.87585521719996
 21
681.83883306374992
  0
LINE
  8
_0-6_センタ_プレ_ト
  6
CONTINUOUS
 62
    7
 10
375.87482719219997
 20
681.91736390865003
 11
372.87585521719996
 21
681.83883306374992
  0
LINE
  8
_0-6_センタ_プレ_ト
  6
CONTINUOUS
 62
    7
 10
369.88342747939998
 20
681.51038788755
 11
369.87688324229998
 21
681.76030221884992
  0
LINE
  8
_0-6_センタ_プレ_ト
  6
CONTINUOUS
 62
    7
 10
372.88239945429996
 20
681.58891873245011
 11
369.88342747939998
 21
681.51038788755
  0
LINE
  8
_0-6_センタ_プレ_ト
  6
CONTINUOUS
 62
    7
 10
366.8844555044999
 20
681.43185704264999
 11
366.8779112673999
 21
681.6817713738501
  0
LINE
  8
_0-6_センタ_プレ_ト
  6
CONTINUOUS
 62
    7
 10
369.87688324229998
 20
681.76030221884992
 11
366.8779112673999
 21
681.6817713738501
  0
LINE
  8
_0-6_センタ_プレ_ト
  6
CONTINUOUS
 62
    7
 10
363.88548352949999
 20
681.35332619775011
 11
363.87893929249992
 21
681.60324052894998
  0
LINE
  8
_0-6_センタ_プレ_ト
  6
CONTINUOUS
 62
    7
 10
366.8844555044999
 20
681.43185704264999
 11
363.88548352949999
 21
681.35332619775011
  0
LINE
  8
_0-6_センタ_プレ_ト
  6
CONTINUOUS
 62
    7
 10
360.88651155459991
 20
681.27479535285011
 11
360.8799673174999
 21
681.52470968404998
  0
LINE
  8
_0-6_センタ_プレ_ト
  6
CONTINUOUS
 62
    7
 10
363.87893929249992
 20
681.60324052894998
 11
360.8799673174999
 21
681.52470968404998
  0
LINE
  8
_0-6_センタ_プレ_ト
  6
CONTINUOUS
 62
    7
 10
357.88753957969993
 20
681.19626450785006
 11
357.88099534259993
 21
681.44617883915009
  0
LINE
  8
_0-6_センタ_プレ_ト
  6
CONTINUOUS
 62
    7
 10
360.88651155459991
 20
681.27479535285011
 11
357.88753957969993
 21
681.19626450785006
  0
LINE
  8
_0-6_センタ_プレ_ト
  6
CONTINUOUS
 62
    7
 10
354.8885676047999
 20
681.11773366295006
 11
354.8820233676999
 21
681.36764799414993
  0
LINE
  8
_0-6_センタ_プレ_ト
  6
CONTINUOUS
 62
    7
 10
357.88099534259993
 20
681.44617883915009
 11
354.8820233676999
 21
681.36764799425009
  0
LINE
  8
_0-6_センタ_プレ_ト
  6
CONTINUOUS
 62
    7
 10
351.88959562979994
 20
681.03920281804994
 11
351.88305139279998
 21
681.28911714925005
  0
LINE
  8
_0-6_センタ_プレ_ト
  6
CONTINUOUS
 62
    7
 10
354.8885676047999
 20
681.11773366295006
 11
351.88959562979994
 21
681.03920281804994
  0
LINE
  8
_0-6_センタ_プレ_ト
  6
CONTINUOUS
 62
    7
 10
348.89062365489991
 20
680.96067197315006
 11
348.88407941779991
 21
681.21058630435004
  0
LINE
  8
_0-6_センタ_プレ_ト
  6
CONTINUOUS
 62
    7
 10
351.88305139279998
 20
681.28911714925005
 11
348.88407941779991
 21
681.21058630435004
  0
LINE
  8
_0-6_センタ_プレ_ト
  6
CONTINUOUS
 62
    7
 10
345.89165168
 20
680.8821411281499
 11
345.88510744289999
 21
681.13205545944993
  0
LINE
  8
_0-6_センタ_プレ_ト
  6
CONTINUOUS
 62
    7
 10
348.89062365489991
 20
680.96067197315006
 11
345.89165168
 21
680.8821411281499
  0
LINE
  8
_0-6_センタ_プレ_ト
  6
CONTINUOUS
 62
    7
 10
342.89267970509997
 20
680.80361028325001
 11
342.88613546799996
 21
681.05352461455004
  0
LINE
  8
_0-6_センタ_プレ_ト
  6
CONTINUOUS
 62
    7
 10
345.88510744289999
 20
681.13205545944993
 11
342.88613546799996
 21
681.05352461455004
  0
LINE
  8
_0-6_センタ_プレ_ト
  6
CONTINUOUS
 62
    7
 10
339.8937077301
 20
680.72507943834989
 11
339.88716349309993
 21
680.97499376955011
  0
LINE
  8
_0-6_センタ_プレ_ト
  6
CONTINUOUS
 62
    7
 10
342.89267970509997
 20
680.80361028325001
 11
339.8937077301
 21
680.72507943834989
  0
LINE
  8
_0-6_センタ_プレ_ト
  6
CONTINUOUS
 62
    7
 10
336.89473575519997
 20
680.64654859345001
 11
336.88819151809997
 21
680.89646292465
  0
LINE
  8
_0-6_センタ_プレ_ト
  6
CONTINUOUS
 62
    7
 10
339.88716349309993
 20
680.97499376955011
 11
336.88819151809997
 21
680.89646292465
  0
LINE
  8
_0-6_センタ_プレ_ト
  6
CONTINUOUS
 62
    7
 10
333.89576378029994
 20
680.56801774845007
 11
333.88921954319994
 21
680.81793207975011
  0
LINE
  8
_0-6_センタ_プレ_ト
  6
CONTINUOUS
 62
    7
 10
336.89473575519997
 20
680.64654859345001
 11
333.89576378029994
 21
680.56801774845007
  0
LINE
  8
_0-6_センタ_プレ_ト
  6
CONTINUOUS
 62
    7
 10
330.89679180539997
 20
680.48948690354996
 11
330.89024756829997
 21
680.73940123484999
  0
LINE
  8
_0-6_センタ_プレ_ト
  6
CONTINUOUS
 62
    7
 10
333.88921954319994
 20
680.81793207975011
 11
330.89024756829997
 21
680.73940123484999
  0
LINE
  8
_0-6_センタ_プレ_ト
  6
CONTINUOUS
 62
    7
 10
330.89679180539997
 20
680.48948690354996
 11
329.39730581789991
 21
680.45022148115004
  0
LINE
  8
_0-6_センタ_プレ_ト
  6
CONTINUOUS
 62
    7
 10
328.09826771219991
 20
679.70022148115004
 11
327.97326771219997
 21
679.9167278320499
  0
LINE
  8
_0-6_センタ_プレ_ト
  6
CONTINUOUS
 62
    7
 10
320.30403907819993
 20
675.20022148115004
 11
320.17903907819993
 21
675.4167278320499
  0
LINE
  8
_0-6_センタ_プレ_ト
  6
CONTINUOUS
 62
    7
 10
327.97326771219997
 20
679.9167278320499
 11
325.37519150089997
 21
678.4167278320499
  0
LINE
  8
_0-6_センタ_プレ_ト
  6
CONTINUOUS
 62
    7
 10
322.77711528949999
 20
676.9167278320499
 11
320.17903907819993
 21
675.4167278320499
  0
LINE
  8
_0-6_センタ_プレ_ト
  6
CONTINUOUS
 62
    7
 10
325.50019150089997
 20
678.20022148115004
 11
325.37519150089997
 21
678.4167278320499
  0
LINE
  8
_0-6_センタ_プレ_ト
  6
CONTINUOUS
 62
    7
 10
322.90211528949999
 20
676.70022148115004
 11
322.77711528949999
 21
676.9167278320499
  0
LINE
  8
_0-6_センタ_プレ_ト
  6
CONTINUOUS
 62
    7
 10
329.39730581789991
 20
680.45022148115004
 11
328.09826771219991
 21
679.70022148115004
  0
LINE
  8
_0-6_センタ_プレ_ト
  6
CONTINUOUS
 62
    7
 10
325.50019150089997
 20
678.20022148115004
 11
322.90211528949999
 21
676.70022148115004
  0
LINE
  8
_0-6_センタ_プレ_ト
  6
CONTINUOUS
 62
    7
 10
320.30403907819993
 20
675.20022148115004
 11
319.00500097249994
 21
674.45022148115004
  0
LINE
  8
_0-6_センタ_プレ_ト
  6
CONTINUOUS
 62
    7
 10
320.38000097249994
 20
672.06865162064992
 11
319.00500097249994
 21
674.45022148115004
  0
LINE
  8
_0-6_センタ_プレ_ト
  6
CONTINUOUS
 62
    7
 10
431.36235296540002
 20
680.36932752915004
 11
330.16746412549992
 21
677.71944610674996
  0
LINE
  8
_0-6_センタ_プレ_ト
  6
CONTINUOUS
 62
    7
 10
330.16746412549992
 20
677.71944610674996
 11
320.38000097249994
 21
672.06865162064992
  0
LINE
  8
_0-6_センタ_プレ_ト
  6
CONTINUOUS
 62
    7
 10
432.86183895289992
 20
683.08100478605002
 11
432.86838318989999
 21
683.33091911725012
  0
LINE
  8
_0-6_センタ_プレ_ト
  6
CONTINUOUS
 62
    7
 10
435.86081092779995
 20
683.0024739411499
 11
435.86735516489995
 21
683.25238827235012
  0
LINE
  8
_0-6_センタ_プレ_ト
  6
CONTINUOUS
 62
    7
 10
431.36235296540002
 20
683.1202702085501
 11
432.86183895289992
 21
683.08100478605002
  0
LINE
  8
_0-6_センタ_プレ_ト
  6
CONTINUOUS
 62
    7
 10
432.86838318989999
 20
683.33091911725012
 11
435.86735516489995
 21
683.25238827235012
  0
LINE
  8
_0-6_センタ_プレ_ト
  6
CONTINUOUS
 62
    7
 10
438.85978290269998
 20
682.9239430962499
 11
438.86632713979998
 21
683.17385742745
  0
LINE
  8
_0-6_センタ_プレ_ト
  6
CONTINUOUS
 62
    7
 10
435.86081092779995
 20
683.0024739411499
 11
438.85978290269998
 21
682.9239430962499
  0
LINE
  8
_0-6_センタ_プレ_ト
  6
CONTINUOUS
 62
    7
 10
441.85875487759995
 20
682.84541225125008
 11
441.86529911469995
 21
683.09532658255011
  0
LINE
  8
_0-6_センタ_プレ_ト
  6
CONTINUOUS
 62
    7
 10
438.86632713979998
 20
683.17385742745
 11
441.86529911469995
 21
683.09532658255011
  0
LINE
  8
_0-6_センタ_プレ_ト
  6
CONTINUOUS
 62
    7
 10
444.85772685259997
 20
682.76688140634997
 11
444.86427108959992
 21
683.01679573754996
  0
LINE
  8
_0-6_センタ_プレ_ト
  6
CONTINUOUS
 62
    7
 10
441.85875487759995
 20
682.84541225125008
 11
444.85772685259997
 21
682.76688140634997
  0
LINE
  8
_0-6_センタ_プレ_ト
  6
CONTINUOUS
 62
    7
 10
447.8566988275
 20
682.68835056144997
 11
447.8632430646
 21
682.93826489265007
  0
LINE
  8
_0-6_センタ_プレ_ト
  6
CONTINUOUS
 62
    7
 10
444.86427108959992
 20
683.01679573754996
 11
447.8632430646
 21
682.93826489265007
  0
LINE
  8
_0-6_センタ_プレ_ト
  6
CONTINUOUS
 62
    7
 10
450.85567080239991
 20
682.60981971655008
 11
450.86221503949992
 21
682.85973404774995
  0
LINE
  8
_0-6_センタ_プレ_ト
  6
CONTINUOUS
 62
    7
 10
447.8566988275
 20
682.68835056144997
 11
450.85567080239991
 21
682.60981971655008
  0
LINE
  8
_0-6_センタ_プレ_ト
  6
CONTINUOUS
 62
    7
 10
453.8546427773
 20
682.53128887154992
 11
453.8611870144
 21
682.78120320284995
  0
LINE
  8
_0-6_センタ_プレ_ト
  6
CONTINUOUS
 62
    7
 10
450.86221503949992
 20
682.85973404774995
 11
453.8611870144
 21
682.78120320284995
  0
LINE
  8
_0-6_センタ_プレ_ト
  6
CONTINUOUS
 62
    7
 10
456.8536147522999
 20
682.45275802665003
 11
456.86015898929992
 21
682.70267235795006
  0
LINE
  8
_0-6_センタ_プレ_ト
  6
CONTINUOUS
 62
    7
 10
453.8546427773
 20
682.53128887154992
 11
456.8536147522999
 21
682.45275802665003
  0
LINE
  8
_0-6_センタ_プレ_ト
  6
CONTINUOUS
 62
    7
 10
459.85258672719999
 20
682.37422718175003
 11
459.85913096429999
 21
682.6241415129499
  0
LINE
  8
_0-6_センタ_プレ_ト
  6
CONTINUOUS
 62
    7
 10
456.86015898929992
 20
682.70267235795006
 11
459.85913096429999
 21
682.6241415129499
  0
LINE
  8
_0-6_センタ_プレ_ト
  6
CONTINUOUS
 62
    7
 10
462.85155870209991
 20
682.29569633684991
 11
462.85810293919991
 21
682.54561066805002
  0
LINE
  8
_0-6_センタ_プレ_ト
  6
CONTINUOUS
 62
    7
 10
459.85258672719999
 20
682.37422718175003
 11
462.85155870209991
 21
682.29569633684991
  0
LINE
  8
_0-6_センタ_プレ_ト
  6
CONTINUOUS
 62
    7
 10
465.85053067709998
 20
682.2171654918501
 11
465.85707491409994
 21
682.46707982315002
  0
LINE
  8
_0-6_センタ_プレ_ト
  6
CONTINUOUS
 62
    7
 10
462.85810293919991
 20
682.54561066805002
 11
465.85707491409994
 21
682.46707982315002
  0
LINE
  8
_0-6_センタ_プレ_ト
  6
CONTINUOUS
 62
    7
 10
468.8495026519999
 20
682.13863464695009
 11
468.8560468890999
 21
682.3885489782499
  0
LINE
  8
_0-6_センタ_プレ_ト
  6
CONTINUOUS
 62
    7
 10
465.85053067709998
 20
682.2171654918501
 11
468.8495026519999
 21
682.13863464695009
  0
LINE
  8
_0-6_センタ_プレ_ト
  6
CONTINUOUS
 62
    7
 10
471.84847462689993
 20
682.06010380204998
 11
471.85501886399993
 21
682.31001813325008
  0
LINE
  8
_0-6_センタ_プレ_ト
  6
CONTINUOUS
 62
    7
 10
468.8560468890999
 20
682.3885489782499
 11
471.85501886399993
 21
682.31001813325008
  0
LINE
  8
_0-6_センタ_プレ_ト
  6
CONTINUOUS
 62
    7
 10
474.84744660179996
 20
681.98157295715009
 11
474.85399083889996
 21
682.23148728835008
  0
LINE
  8
_0-6_センタ_プレ_ト
  6
CONTINUOUS
 62
    7
 10
471.84847462689993
 20
682.06010380204998
 11
474.84744660179996
 21
681.98157295715009
  0
LINE
  8
_0-6_センタ_プレ_ト
  6
CONTINUOUS
 62
    7
 10
477.84641857679992
 20
681.90304211214993
 11
477.85296281379999
 21
682.15295644344997
  0
LINE
  8
_0-6_センタ_プレ_ト
  6
CONTINUOUS
 62
    7
 10
474.85399083889996
 20
682.23148728835008
 11
477.85296281379999
 21
682.15295644344997
  0
LINE
  8
_0-6_センタ_プレ_ト
  6
CONTINUOUS
 62
    7
 10
480.84539055169995
 20
681.82451126725005
 11
480.85193478879995
 21
682.07442559855008
  0
LINE
  8
_0-6_センタ_プレ_ト
  6
CONTINUOUS
 62
    7
 10
477.84641857679992
 20
681.90304211214993
 11
480.84539055169995
 21
681.82451126725005
  0
LINE
  8
_0-6_センタ_プレ_ト
  6
CONTINUOUS
 62
    7
 10
483.84436252659998
 20
681.74598042234993
 11
483.85090676369998
 21
681.99589475354992
  0
LINE
  8
_0-6_センタ_プレ_ト
  6
CONTINUOUS
 62
    7
 10
480.85193478879995
 20
682.07442559855008
 11
483.85090676369998
 21
681.99589475354992
  0
LINE
  8
_0-6_センタ_プレ_ト
  6
CONTINUOUS
 62
    7
 10
486.84333450149995
 20
681.66744957744993
 11
486.84987873859995
 21
681.91736390865003
  0
LINE
  8
_0-6_センタ_プレ_ト
  6
CONTINUOUS
 62
    7
 10
483.84436252659998
 20
681.74598042234993
 11
486.84333450149995
 21
681.66744957744993
  0
LINE
  8
_0-6_センタ_プレ_ト
  6
CONTINUOUS
 62
    7
 10
489.84230647649997
 20
681.58891873245011
 11
489.84885071349993
 21
681.83883306374992
  0
LINE
  8
_0-6_センタ_プレ_ト
  6
CONTINUOUS
 62
    7
 10
486.84987873859995
 20
681.91736390865003
 11
489.84885071349993
 21
681.83883306374992
  0
LINE
  8
_0-6_センタ_プレ_ト
  6
CONTINUOUS
 62
    7
 10
492.8412784514
 20
681.51038788755
 11
492.8478226885
 21
681.76030221884992
  0
LINE
  8
_0-6_センタ_プレ_ト
  6
CONTINUOUS
 62
    7
 10
489.84230647649997
 20
681.58891873245011
 11
492.8412784514
 21
681.51038788755
  0
LINE
  8
_0-6_センタ_プレ_ト
  6
CONTINUOUS
 62
    7
 10
495.84025042629992
 20
681.43185704264999
 11
495.84679466339992
 21
681.6817713738501
  0
LINE
  8
_0-6_センタ_プレ_ト
  6
CONTINUOUS
 62
    7
 10
492.8478226885
 20
681.76030221884992
 11
495.84679466339992
 21
681.6817713738501
  0
LINE
  8
_0-6_センタ_プレ_ト
  6
CONTINUOUS
 62
    7
 10
498.8392224012
 20
681.35332619775011
 11
498.84576663829989
 21
681.60324052894998
  0
LINE
  8
_0-6_センタ_プレ_ト
  6
CONTINUOUS
 62
    7
 10
495.84025042629992
 20
681.43185704264999
 11
498.8392224012
 21
681.35332619775011
  0
LINE
  8
_0-6_センタ_プレ_ト
  6
CONTINUOUS
 62
    7
 10
501.83819437619991
 20
681.27479535285011
 11
501.84473861319992
 21
681.52470968404998
  0
LINE
  8
_0-6_センタ_プレ_ト
  6
CONTINUOUS
 62
    7
 10
498.84576663829989
 20
681.60324052894998
 11
501.84473861319992
 21
681.52470968404998
  0
LINE
  8
_0-6_センタ_プレ_ト
  6
CONTINUOUS
 62
    7
 10
504.8371663511
 20
681.19626450785006
 11
504.8437105882
 21
681.44617883915009
  0
LINE
  8
_0-6_センタ_プレ_ト
  6
CONTINUOUS
 62
    7
 10
501.83819437619991
 20
681.27479535285011
 11
504.8371663511
 21
681.19626450785006
  0
LINE
  8
_0-6_センタ_プレ_ト
  6
CONTINUOUS
 62
    7
 10
507.83613832599991
 20
681.11773366295006
 11
507.84268256309991
 21
681.36764799414993
  0
LINE
  8
_0-6_センタ_プレ_ト
  6
CONTINUOUS
 62
    7
 10
504.8437105882
 20
681.44617883915009
 11
507.84268256309991
 21
681.36764799425009
  0
LINE
  8
_0-6_センタ_プレ_ト
  6
CONTINUOUS
 62
    7
 10
510.83511030099999
 20
681.03920281804994
 11
510.84165453799994
 21
681.28911714925005
  0
LINE
  8
_0-6_センタ_プレ_ト
  6
CONTINUOUS
 62
    7
 10
507.83613832599991
 20
681.11773366295006
 11
510.83511030099999
 21
681.03920281804994
  0
LINE
  8
_0-6_センタ_プレ_ト
  6
CONTINUOUS
 62
    7
 10
513.83408227589985
 20
680.96067197315006
 11
513.84062651299996
 21
681.21058630435004
  0
LINE
  8
_0-6_センタ_プレ_ト
  6
CONTINUOUS
 62
    7
 10
510.84165453799994
 20
681.28911714925005
 11
513.84062651299996
 21
681.21058630435004
  0
LINE
  8
_0-6_センタ_プレ_ト
  6
CONTINUOUS
 62
    7
 10
516.83305425079993
 20
680.8821411281499
 11
516.83959848789993
 21
681.13205545944993
  0
LINE
  8
_0-6_センタ_プレ_ト
  6
CONTINUOUS
 62
    7
 10
513.83408227589985
 20
680.96067197315006
 11
516.83305425079993
 21
680.8821411281499
  0
LINE
  8
_0-6_センタ_プレ_ト
  6
CONTINUOUS
 62
    7
 10
519.83202622570002
 20
680.80361028325001
 11
519.83857046279991
 21
681.05352461455004
  0
LINE
  8
_0-6_センタ_プレ_ト
  6
CONTINUOUS
 62
    7
 10
516.83959848789993
 20
681.13205545944993
 11
519.83857046279991
 21
681.05352461455004
  0
LINE
  8
_0-6_センタ_プレ_ト
  6
CONTINUOUS
 62
    7
 10
522.83099820069992
 20
680.72507943834989
 11
522.83754243769999
 21
680.97499376955011
  0
LINE
  8
_0-6_センタ_プレ_ト
  6
CONTINUOUS
 62
    7
 10
519.83202622570002
 20
680.80361028325001
 11
522.83099820069992
 21
680.72507943834989
  0
LINE
  8
_0-6_センタ_プレ_ト
  6
CONTINUOUS
 62
    7
 10
525.82997017560001
 20
680.64654859345001
 11
525.8365144126999
 21
680.89646292465
  0
LINE
  8
_0-6_センタ_プレ_ト
  6
CONTINUOUS
 62
    7
 10
522.83754243769999
 20
680.97499376955011
 11
525.8365144126999
 21
680.89646292465
  0
LINE
  8
_0-6_センタ_プレ_ト
  6
CONTINUOUS
 62
    7
 10
528.82894215049998
 20
680.56801774845007
 11
528.83548638759999
 21
680.81793207975011
  0
LINE
  8
_0-6_センタ_プレ_ト
  6
CONTINUOUS
 62
    7
 10
525.82997017560001
 20
680.64654859345001
 11
528.82894215049998
 21
680.56801774845007
  0
LINE
  8
_0-6_センタ_プレ_ト
  6
CONTINUOUS
 62
    7
 10
531.82791412539996
 20
680.48948690354996
 11
531.83445836249996
 21
680.73940123484999
  0
LINE
  8
_0-6_センタ_プレ_ト
  6
CONTINUOUS
 62
    7
 10
528.83548638759999
 20
680.81793207975011
 11
531.83445836249996
 21
680.73940123484999
  0
LINE
  8
_0-6_センタ_プレ_ト
  6
CONTINUOUS
 62
    7
 10
531.82791412539996
 20
680.48948690354996
 11
533.32740011289991
 21
680.45022148115004
  0
LINE
  8
_0-6_センタ_プレ_ト
  6
CONTINUOUS
 62
    7
 10
534.6264382185999
 20
679.70022148115004
 11
534.75143821860001
 21
679.9167278320499
  0
LINE
  8
_0-6_センタ_プレ_ト
  6
CONTINUOUS
 62
    7
 10
542.42066685259999
 20
675.20022148115004
 11
542.54566685259999
 21
675.4167278320499
  0
LINE
  8
_0-6_センタ_プレ_ト
  6
CONTINUOUS
 62
    7
 10
534.75143821860001
 20
679.9167278320499
 11
537.34951442989995
 21
678.4167278320499
  0
LINE
  8
_0-6_センタ_プレ_ト
  6
CONTINUOUS
 62
    7
 10
539.94759064129994
 20
676.9167278320499
 11
542.54566685259999
 21
675.4167278320499
  0
LINE
  8
_0-6_センタ_プレ_ト
  6
CONTINUOUS
 62
    7
 10
537.22451442989995
 20
678.20022148115004
 11
537.34951442989995
 21
678.4167278320499
  0
LINE
  8
_0-6_センタ_プレ_ト
  6
CONTINUOUS
 62
    7
 10
539.82259064129994
 20
676.70022148115004
 11
539.94759064129994
 21
676.9167278320499
  0
LINE
  8
_0-6_センタ_プレ_ト
  6
CONTINUOUS
 62
    7
 10
533.32740011289991
 20
680.45022148115004
 11
534.6264382185999
 21
679.70022148115004
  0
LINE
  8
_0-6_センタ_プレ_ト
  6
CONTINUOUS
 62
    7
 10
537.22451442989995
 20
678.20022148115004
 11
539.82259064129994
 21
676.70022148115004
  0
LINE
  8
_0-6_センタ_プレ_ト
  6
CONTINUOUS
 62
    7
 10
542.42066685259999
 20
675.20022148115004
 11
543.71970495829999
 21
674.45022148115004
  0
LINE
  8
_0-6_センタ_プレ_ト
  6
CONTINUOUS
 62
    7
 10
542.34470495829999
 20
672.06865162064992
 11
543.71970495829999
 21
674.45022148115004
  0
LINE
  8
_0-6_センタ_プレ_ト
  6
CONTINUOUS
 62
    7
 10
431.36235296540002
 20
680.36932752915004
 11
532.5572418052999
 21
677.71944610674996
  0
LINE
  8
_0-6_センタ_プレ_ト
  6
CONTINUOUS
 62
    7
 10
532.5572418052999
 20
677.71944610674996
 11
542.34470495829999
 21
672.06865162064992
  0
LINE
  8
_0-6_センタ_プレ_ト
  6
CONTINUOUS
 62
    7
 10
1033.6957916555002
 20
683.08100478605002
 11
1033.7023358926001
 21
683.33091911725012
  0
LINE
  8
_0-6_センタ_プレ_ト
  6
CONTINUOUS
 62
    7
 10
1036.6947636303998
 20
683.0024739411499
 11
1036.7013078675
 21
683.25238827235012
  0
LINE
  8
_0-6_センタ_プレ_ト
  6
CONTINUOUS
 62
    7
 10
1032.1963056680002
 20
683.1202702085501
 11
1033.6957916555002
 21
683.08100478605002
  0
LINE
  8
_0-6_センタ_プレ_ト
  6
CONTINUOUS
 62
    7
 10
1033.7023358926001
 20
683.33091911725012
 11
1036.7013078675
 21
683.25238827235012
  0
LINE
  8
_0-6_センタ_プレ_ト
  6
CONTINUOUS
 62
    7
 10
1039.6937356052999
 20
682.9239430962499
 11
1039.7002798423998
 21
683.17385742745
  0
LINE
  8
_0-6_センタ_プレ_ト
  6
CONTINUOUS
 62
    7
 10
1036.6947636303998
 20
683.0024739411499
 11
1039.6937356052999
 21
682.9239430962499
  0
LINE
  8
_0-6_センタ_プレ_ト
  6
CONTINUOUS
 62
    7
 10
1042.6927075803001
 20
682.84541225125008
 11
1042.6992518173001
 21
683.09532658255011
  0
LINE
  8
_0-6_センタ_プレ_ト
  6
CONTINUOUS
 62
    7
 10
1039.7002798423998
 20
683.17385742745
 11
1042.6992518173001
 21
683.09532658255011
  0
LINE
  8
_0-6_センタ_プレ_ト
  6
CONTINUOUS
 62
    7
 10
1045.6916795551997
 20
682.76688140634997
 11
1045.6982237922998
 21
683.01679573754996
  0
LINE
  8
_0-6_センタ_プレ_ト
  6
CONTINUOUS
 62
    7
 10
1042.6927075803001
 20
682.84541225125008
 11
1045.6916795551997
 21
682.76688140634997
  0
LINE
  8
_0-6_センタ_プレ_ト
  6
CONTINUOUS
 62
    7
 10
1048.6906515301
 20
682.68835056144997
 11
1048.6971957671999
 21
682.93826489265007
  0
LINE
  8
_0-6_センタ_プレ_ト
  6
CONTINUOUS
 62
    7
 10
1045.6982237922998
 20
683.01679573754996
 11
1048.6971957671999
 21
682.93826489265007
  0
LINE
  8
_0-6_センタ_プレ_ト
  6
CONTINUOUS
 62
    7
 10
1051.6896235049999
 20
682.60981971655008
 11
1051.6961677421
 21
682.85973404774995
  0
LINE
  8
_0-6_センタ_プレ_ト
  6
CONTINUOUS
 62
    7
 10
1048.6906515301
 20
682.68835056144997
 11
1051.6896235049999
 21
682.60981971655008
  0
LINE
  8
_0-6_センタ_プレ_ト
  6
CONTINUOUS
 62
    7
 10
1054.68859548
 20
682.53128887154992
 11
1054.6951397170001
 21
682.78120320284995
  0
LINE
  8
_0-6_センタ_プレ_ト
  6
CONTINUOUS
 62
    7
 10
1051.6961677421
 20
682.85973404774995
 11
1054.6951397170001
 21
682.78120320284995
  0
LINE
  8
_0-6_センタ_プレ_ト
  6
CONTINUOUS
 62
    7
 10
1057.6875674550001
 20
682.45275802665003
 11
1057.6941116919998
 21
682.70267235795006
  0
LINE
  8
_0-6_センタ_プレ_ト
  6
CONTINUOUS
 62
    7
 10
1054.68859548
 20
682.53128887154992
 11
1057.6875674550001
 21
682.45275802665003
  0
LINE
  8
_0-6_センタ_プレ_ト
  6
CONTINUOUS
 62
    7
 10
1060.6865394299998
 20
682.37422718175003
 11
1060.6930836669999
 21
682.6241415129499
  0
LINE
  8
_0-6_センタ_プレ_ト
  6
CONTINUOUS
 62
    7
 10
1057.6941116919998
 20
682.70267235795006
 11
1060.6930836669999
 21
682.6241415129499
  0
LINE
  8
_0-6_センタ_プレ_ト
  6
CONTINUOUS
 62
    7
 10
1063.6855114049999
 20
682.29569633684991
 11
1063.692055642
 21
682.54561066805002
  0
LINE
  8
_0-6_センタ_プレ_ト
  6
CONTINUOUS
 62
    7
 10
1060.6865394299998
 20
682.37422718175003
 11
1063.6855114049999
 21
682.29569633684991
  0
LINE
  8
_0-6_センタ_プレ_ト
  6
CONTINUOUS
 62
    7
 10
1066.6844833799998
 20
682.2171654918501
 11
1066.6910276169999
 21
682.46707982315002
  0
LINE
  8
_0-6_センタ_プレ_ト
  6
CONTINUOUS
 62
    7
 10
1063.692055642
 20
682.54561066805002
 11
1066.6910276169999
 21
682.46707982315002
  0
LINE
  8
_0-6_センタ_プレ_ト
  6
CONTINUOUS
 62
    7
 10
1069.683455355
 20
682.13863464695009
 11
1069.689999592
 21
682.3885489782499
  0
LINE
  8
_0-6_センタ_プレ_ト
  6
CONTINUOUS
 62
    7
 10
1066.6844833799998
 20
682.2171654918501
 11
1069.683455355
 21
682.13863464695009
  0
LINE
  8
_0-6_センタ_プレ_ト
  6
CONTINUOUS
 62
    7
 10
1072.6824273300001
 20
682.06010380204998
 11
1072.688971567
 21
682.31001813325008
  0
LINE
  8
_0-6_センタ_プレ_ト
  6
CONTINUOUS
 62
    7
 10
1069.689999592
 20
682.3885489782499
 11
1072.688971567
 21
682.31001813325008
  0
LINE
  8
_0-6_センタ_プレ_ト
  6
CONTINUOUS
 62
    7
 10
1075.681399304
 20
681.98157295715009
 11
1075.6879435420001
 21
682.23148728835008
  0
LINE
  8
_0-6_センタ_プレ_ト
  6
CONTINUOUS
 62
    7
 10
1072.6824273300001
 20
682.06010380204998
 11
1075.681399304
 21
681.98157295715009
  0
LINE
  8
_0-6_センタ_プレ_ト
  6
CONTINUOUS
 62
    7
 10
1078.6803712790002
 20
681.90304211214993
 11
1078.6869155160002
 21
682.15295644344997
  0
LINE
  8
_0-6_センタ_プレ_ト
  6
CONTINUOUS
 62
    7
 10
1075.6879435420001
 20
682.23148728835008
 11
1078.6869155160002
 21
682.15295644344997
  0
LINE
  8
_0-6_センタ_プレ_ト
  6
CONTINUOUS
 62
    7
 10
1081.6793432539998
 20
681.82451126725005
 11
1081.6858874909999
 21
682.07442559855008
  0
LINE
  8
_0-6_センタ_プレ_ト
  6
CONTINUOUS
 62
    7
 10
1078.6803712790002
 20
681.90304211214993
 11
1081.6793432539998
 21
681.82451126725005
  0
LINE
  8
_0-6_センタ_プレ_ト
  6
CONTINUOUS
 62
    7
 10
1084.678315229
 20
681.74598042234993
 11
1084.684859466
 21
681.99589475354992
  0
LINE
  8
_0-6_センタ_プレ_ト
  6
CONTINUOUS
 62
    7
 10
1081.6858874909999
 20
682.07442559855008
 11
1084.684859466
 21
681.99589475354992
  0
LINE
  8
_0-6_センタ_プレ_ト
  6
CONTINUOUS
 62
    7
 10
1087.6772872040001
 20
681.66744957744993
 11
1087.6838314410002
 21
681.91736390865003
  0
LINE
  8
_0-6_センタ_プレ_ト
  6
CONTINUOUS
 62
    7
 10
1084.678315229
 20
681.74598042234993
 11
1087.6772872040001
 21
681.66744957744993
  0
LINE
  8
_0-6_センタ_プレ_ト
  6
CONTINUOUS
 62
    7
 10
1090.6762591789998
 20
681.58891873245011
 11
1090.6828034159998
 21
681.83883306374992
  0
LINE
  8
_0-6_センタ_プレ_ト
  6
CONTINUOUS
 62
    7
 10
1087.6838314410002
 20
681.91736390865003
 11
1090.6828034159998
 21
681.83883306374992
  0
LINE
  8
_0-6_センタ_プレ_ト
  6
CONTINUOUS
 62
    7
 10
1090.6762591789998
 20
681.58891873245011
 11
1092.1757451670001
 21
681.54965331004996
  0
LINE
  8
_0-6_センタ_プレ_ト
  6
CONTINUOUS
 62
    7
 10
1092.1757451670001
 20
681.54965331004996
 11
1092.9257451670001
 21
680.25061520434997
  0
LINE
  8
_0-6_センタ_プレ_ト
  6
CONTINUOUS
 62
    7
 10
1092.9257451670001
 20
680.25061520434997
 11
1093.1422515170002
 21
680.37561520434997
  0
LINE
  8
_0-6_センタ_プレ_ト
  6
CONTINUOUS
 62
    7
 10
1093.1422515170002
 20
680.37561520434997
 11
1094.6422515170002
 21
677.77753899305003
  0
LINE
  8
_0-6_センタ_プレ_ト
  6
CONTINUOUS
 62
    7
 10
1094.4257451670001
 20
677.65253899304992
 11
1094.6422515170002
 21
677.77753899305003
  0
LINE
  8
_0-6_センタ_プレ_ト
  6
CONTINUOUS
 62
    7
 10
1094.4257451670001
 20
677.65253899304992
 11
1095.9257451670001
 21
675.05446278164993
  0
LINE
  8
_0-6_センタ_プレ_ト
  6
CONTINUOUS
 62
    7
 10
1095.9257451670001
 20
675.05446278164993
 11
1096.1422515170002
 21
675.17946278165005
  0
LINE
  8
_0-6_センタ_プレ_ト
  6
CONTINUOUS
 62
    7
 10
1096.1422515170002
 20
675.17946278165005
 11
1097.6422515170002
 21
672.58138657025006
  0
LINE
  8
_0-6_センタ_プレ_ト
  6
CONTINUOUS
 62
    7
 10
1097.4257451670001
 20
672.45638657024995
 11
1097.6422515170002
 21
672.58138657025006
  0
LINE
  8
_0-6_センタ_プレ_ト
  6
CONTINUOUS
 62
    7
 10
1097.4257451670001
 20
672.45638657024995
 11
1098.1757451670001
 21
671.15734846465011
  0
LINE
  8
_0-6_センタ_プレ_ト
  6
CONTINUOUS
 62
    7
 10
1030.6968196805999
 20
683.08100478605002
 11
1030.6902754435
 21
683.33091911725012
  0
LINE
  8
_0-6_センタ_プレ_ト
  6
CONTINUOUS
 62
    7
 10
1027.6978477056
 20
683.0024739411499
 11
1027.6913034685001
 21
683.25238827235012
  0
LINE
  8
_0-6_センタ_プレ_ト
  6
CONTINUOUS
 62
    7
 10
1032.1963056680002
 20
683.1202702085501
 11
1030.6968196805999
 21
683.08100478605002
  0
LINE
  8
_0-6_センタ_プレ_ト
  6
CONTINUOUS
 62
    7
 10
1030.6902754435
 20
683.33091911725012
 11
1027.6913034685001
 21
683.25238827235012
  0
LINE
  8
_0-6_センタ_プレ_ト
  6
CONTINUOUS
 62
    7
 10
1024.6988757306999
 20
682.9239430962499
 11
1024.6923314935998
 21
683.17385742745
  0
LINE
  8
_0-6_センタ_プレ_ト
  6
CONTINUOUS
 62
    7
 10
1027.6978477056
 20
683.0024739411499
 11
1024.6988757306999
 21
682.9239430962499
  0
LINE
  8
_0-6_センタ_プレ_ト
  6
CONTINUOUS
 62
    7
 10
1021.6999037558001
 20
682.84541225125008
 11
1021.6933595187
 21
683.09532658255011
  0
LINE
  8
_0-6_センタ_プレ_ト
  6
CONTINUOUS
 62
    7
 10
1024.6923314935998
 20
683.17385742745
 11
1021.6933595187
 21
683.09532658255011
  0
LINE
  8
_0-6_センタ_プレ_ト
  6
CONTINUOUS
 62
    7
 10
1018.7009317807999
 20
682.76688140634997
 11
1018.6943875437998
 21
683.01679573754996
  0
LINE
  8
_0-6_センタ_プレ_ト
  6
CONTINUOUS
 62
    7
 10
1021.6999037558001
 20
682.84541225125008
 11
1018.7009317807999
 21
682.76688140634997
  0
LINE
  8
_0-6_センタ_プレ_ト
  6
CONTINUOUS
 62
    7
 10
1015.7019598059001
 20
682.68835056144997
 11
1015.6954155688001
 21
682.93826489265007
  0
LINE
  8
_0-6_センタ_プレ_ト
  6
CONTINUOUS
 62
    7
 10
1018.6943875437998
 20
683.01679573754996
 11
1015.6954155688001
 21
682.93826489265007
  0
LINE
  8
_0-6_センタ_プレ_ト
  6
CONTINUOUS
 62
    7
 10
1012.7029878309999
 20
682.60981971655008
 11
1012.6964435938999
 21
682.85973404774995
  0
LINE
  8
_0-6_センタ_プレ_ト
  6
CONTINUOUS
 62
    7
 10
1015.7019598059001
 20
682.68835056144997
 11
1012.7029878309999
 21
682.60981971655008
  0
LINE
  8
_0-6_センタ_プレ_ト
  6
CONTINUOUS
 62
    7
 10
1009.7040158561
 20
682.53128887154992
 11
1009.697471619
 21
682.78120320284995
  0
LINE
  8
_0-6_センタ_プレ_ト
  6
CONTINUOUS
 62
    7
 10
1012.6964435938999
 20
682.85973404774995
 11
1009.697471619
 21
682.78120320284995
  0
LINE
  8
_0-6_センタ_プレ_ト
  6
CONTINUOUS
 62
    7
 10
1006.7050438810999
 20
682.45275802665003
 11
1006.6984996441001
 21
682.70267235795006
  0
LINE
  8
_0-6_センタ_プレ_ト
  6
CONTINUOUS
 62
    7
 10
1009.7040158561
 20
682.53128887154992
 11
1006.7050438810999
 21
682.45275802665003
  0
LINE
  8
_0-6_センタ_プレ_ト
  6
CONTINUOUS
 62
    7
 10
1003.7060719062
 20
682.37422718175003
 11
1003.6995276691
 21
682.6241415129499
  0
LINE
  8
_0-6_センタ_プレ_ト
  6
CONTINUOUS
 62
    7
 10
1006.6984996441001
 20
682.70267235795006
 11
1003.6995276691
 21
682.6241415129499
  0
LINE
  8
_0-6_センタ_プレ_ト
  6
CONTINUOUS
 62
    7
 10
1000.7070999312998
 20
682.29569633684991
 11
1000.7005556942001
 21
682.54561066805002
  0
LINE
  8
_0-6_センタ_プレ_ト
  6
CONTINUOUS
 62
    7
 10
1003.7060719062
 20
682.37422718175003
 11
1000.7070999312998
 21
682.29569633684991
  0
LINE
  8
_0-6_センタ_プレ_ト
  6
CONTINUOUS
 62
    7
 10
997.70812795639995
 20
682.2171654918501
 11
997.70158371929995
 21
682.46707982315002
  0
LINE
  8
_0-6_センタ_プレ_ト
  6
CONTINUOUS
 62
    7
 10
1000.7005556942001
 20
682.54561066805002
 11
997.70158371929995
 21
682.46707982315002
  0
LINE
  8
_0-6_センタ_プレ_ト
  6
CONTINUOUS
 62
    7
 10
994.70915598139982
 20
682.13863464695009
 11
994.70261174440009
 21
682.3885489782499
  0
LINE
  8
_0-6_センタ_プレ_ト
  6
CONTINUOUS
 62
    7
 10
997.70812795639995
 20
682.2171654918501
 11
994.70915598139982
 21
682.13863464695009
  0
LINE
  8
_0-6_センタ_プレ_ト
  6
CONTINUOUS
 62
    7
 10
991.71018400649996
 20
682.06010380204998
 11
991.70363976939996
 21
682.31001813325008
  0
LINE
  8
_0-6_センタ_プレ_ト
  6
CONTINUOUS
 62
    7
 10
994.70261174440009
 20
682.3885489782499
 11
991.70363976939996
 21
682.31001813325008
  0
LINE
  8
_0-6_センタ_プレ_ト
  6
CONTINUOUS
 62
    7
 10
988.7112120316001
 20
681.98157295715009
 11
988.7046677945001
 21
682.23148728835008
  0
LINE
  8
_0-6_センタ_プレ_ト
  6
CONTINUOUS
 62
    7
 10
991.71018400649996
 20
682.06010380204998
 11
988.7112120316001
 21
681.98157295715009
  0
LINE
  8
_0-6_センタ_プレ_ト
  6
CONTINUOUS
 62
    7
 10
985.7122400566999
 20
681.90304211214993
 11
985.7056958195999
 21
682.15295644344997
  0
LINE
  8
_0-6_センタ_プレ_ト
  6
CONTINUOUS
 62
    7
 10
988.7046677945001
 20
682.23148728835008
 11
985.7056958195999
 21
682.15295644344997
  0
LINE
  8
_0-6_センタ_プレ_ト
  6
CONTINUOUS
 62
    7
 10
982.71326808170011
 20
681.82451126725005
 11
982.70672384460011
 21
682.07442559855008
  0
LINE
  8
_0-6_センタ_プレ_ト
  6
CONTINUOUS
 62
    7
 10
985.7122400566999
 20
681.90304211214993
 11
982.71326808170011
 21
681.82451126725005
  0
LINE
  8
_0-6_センタ_プレ_ト
  6
CONTINUOUS
 62
    7
 10
979.71429610679991
 20
681.74598042234993
 11
979.70775186969991
 21
681.99589475354992
  0
LINE
  8
_0-6_センタ_プレ_ト
  6
CONTINUOUS
 62
    7
 10
982.70672384460011
 20
682.07442559855008
 11
979.70775186969991
 21
681.99589475354992
  0
LINE
  8
_0-6_センタ_プレ_ト
  6
CONTINUOUS
 62
    7
 10
976.71532413190005
 20
681.66744957744993
 11
976.70877989480005
 21
681.91736390865003
  0
LINE
  8
_0-6_センタ_プレ_ト
  6
CONTINUOUS
 62
    7
 10
979.71429610679991
 20
681.74598042234993
 11
976.71532413190005
 21
681.66744957744993
  0
LINE
  8
_0-6_センタ_プレ_ト
  6
CONTINUOUS
 62
    7
 10
973.71635215689992
 20
681.58891873245011
 11
973.70980791989984
 21
681.83883306374992
  0
LINE
  8
_0-6_センタ_プレ_ト
  6
CONTINUOUS
 62
    7
 10
976.70877989480005
 20
681.91736390865003
 11
973.70980791989984
 21
681.83883306374992
  0
LINE
  8
_0-6_センタ_プレ_ト
  6
CONTINUOUS
 62
    7
 10
970.71738018200006
 20
681.51038788755
 11
970.71083594490005
 21
681.76030221884992
  0
LINE
  8
_0-6_センタ_プレ_ト
  6
CONTINUOUS
 62
    7
 10
973.71635215689992
 20
681.58891873245011
 11
970.71738018200006
 21
681.51038788755
  0
LINE
  8
_0-6_センタ_プレ_ト
  6
CONTINUOUS
 62
    7
 10
967.71840820709986
 20
681.43185704264999
 11
967.71186396999985
 21
681.6817713738501
  0
LINE
  8
_0-6_センタ_プレ_ト
  6
CONTINUOUS
 62
    7
 10
970.71083594490005
 20
681.76030221884992
 11
967.71186396999985
 21
681.6817713738501
  0
LINE
  8
_0-6_センタ_プレ_ト
  6
CONTINUOUS
 62
    7
 10
964.7194362322
 20
681.35332619775011
 11
964.71289199509999
 21
681.60324052894998
  0
LINE
  8
_0-6_センタ_プレ_ト
  6
CONTINUOUS
 62
    7
 10
967.71840820709986
 20
681.43185704264999
 11
964.7194362322
 21
681.35332619775011
  0
LINE
  8
_0-6_センタ_プレ_ト
  6
CONTINUOUS
 62
    7
 10
961.72046425719986
 20
681.27479535285011
 11
961.71392002020013
 21
681.52470968404998
  0
LINE
  8
_0-6_センタ_プレ_ト
  6
CONTINUOUS
 62
    7
 10
964.71289199509999
 20
681.60324052894998
 11
961.71392002020013
 21
681.52470968404998
  0
LINE
  8
_0-6_センタ_プレ_ト
  6
CONTINUOUS
 62
    7
 10
958.72149228230001
 20
681.19626450785006
 11
958.7149480452
 21
681.44617883915009
  0
LINE
  8
_0-6_センタ_プレ_ト
  6
CONTINUOUS
 62
    7
 10
961.72046425719986
 20
681.27479535285011
 11
958.72149228230001
 21
681.19626450785006
  0
LINE
  8
_0-6_センタ_プレ_ト
  6
CONTINUOUS
 62
    7
 10
955.72252030740015
 20
681.11773366295006
 11
955.71597607030014
 21
681.36764799414993
  0
LINE
  8
_0-6_センタ_プレ_ト
  6
CONTINUOUS
 62
    7
 10
958.7149480452
 20
681.44617883915009
 11
955.71597607030014
 21
681.36764799425009
  0
LINE
  8
_0-6_センタ_プレ_ト
  6
CONTINUOUS
 62
    7
 10
952.72354833249994
 20
681.03920281804994
 11
952.71700409539994
 21
681.28911714925005
  0
LINE
  8
_0-6_センタ_プレ_ト
  6
CONTINUOUS
 62
    7
 10
955.72252030740015
 20
681.11773366295006
 11
952.72354833249994
 21
681.03920281804994
  0
LINE
  8
_0-6_センタ_プレ_ト
  6
CONTINUOUS
 62
    7
 10
949.72457635749981
 20
680.96067197315006
 11
949.71803212050008
 21
681.21058630435004
  0
LINE
  8
_0-6_センタ_プレ_ト
  6
CONTINUOUS
 62
    7
 10
952.71700409539994
 20
681.28911714925005
 11
949.71803212050008
 21
681.21058630435004
  0
LINE
  8
_0-6_センタ_プレ_ト
  6
CONTINUOUS
 62
    7
 10
946.72560438259995
 20
680.8821411281499
 11
946.71906014549995
 21
681.13205545944993
  0
LINE
  8
_0-6_センタ_プレ_ト
  6
CONTINUOUS
 62
    7
 10
949.72457635749981
 20
680.96067197315006
 11
946.72560438259995
 21
680.8821411281499
  0
LINE
  8
_0-6_センタ_プレ_ト
  6
CONTINUOUS
 62
    7
 10
943.72663240770009
 20
680.80361028325001
 11
943.72008817060009
 21
681.05352461455004
  0
LINE
  8
_0-6_センタ_プレ_ト
  6
CONTINUOUS
 62
    7
 10
946.71906014549995
 20
681.13205545944993
 11
943.72008817060009
 21
681.05352461455004
  0
LINE
  8
_0-6_センタ_プレ_ト
  6
CONTINUOUS
 62
    7
 10
940.72766043279989
 20
680.72507943834989
 11
940.72111619569989
 21
680.97499376955011
  0
LINE
  8
_0-6_センタ_プレ_ト
  6
CONTINUOUS
 62
    7
 10
943.72663240770009
 20
680.80361028325001
 11
940.72766043279989
 21
680.72507943834989
  0
LINE
  8
_0-6_センタ_プレ_ト
  6
CONTINUOUS
 62
    7
 10
937.7286884578001
 20
680.64654859345001
 11
937.7221442207001
 21
680.89646292465
  0
LINE
  8
_0-6_センタ_プレ_ト
  6
CONTINUOUS
 62
    7
 10
940.72111619569989
 20
680.97499376955011
 11
937.7221442207001
 21
680.89646292465
  0
LINE
  8
_0-6_センタ_プレ_ト
  6
CONTINUOUS
 62
    7
 10
934.7297164828999
 20
680.56801774845007
 11
934.7231722457999
 21
680.81793207975011
  0
LINE
  8
_0-6_センタ_プレ_ト
  6
CONTINUOUS
 62
    7
 10
937.7286884578001
 20
680.64654859345001
 11
934.7297164828999
 21
680.56801774845007
  0
LINE
  8
_0-6_センタ_プレ_ト
  6
CONTINUOUS
 62
    7
 10
931.73074450800004
 20
680.48948690354996
 11
931.72420027090004
 21
680.73940123484999
  0
LINE
  8
_0-6_センタ_プレ_ト
  6
CONTINUOUS
 62
    7
 10
934.7231722457999
 20
680.81793207975011
 11
931.72420027090004
 21
680.73940123484999
  0
LINE
  8
_0-6_センタ_プレ_ト
  6
CONTINUOUS
 62
    7
 10
931.73074450800004
 20
680.48948690354996
 11
930.23125852049998
 21
680.45022148115004
  0
LINE
  8
_0-6_センタ_プレ_ト
  6
CONTINUOUS
 62
    7
 10
1095.7941753060002
 20
669.78234846465011
 11
1098.1757451670001
 21
671.15734846465011
  0
LINE
  8
_0-6_センタ_プレ_ト
  6
CONTINUOUS
 62
    7
 10
928.93222041479999
 20
679.70022148115004
 11
928.8072204148001
 21
679.9167278320499
  0
LINE
  8
_0-6_センタ_プレ_ト
  6
CONTINUOUS
 62
    7
 10
921.13799178079989
 20
675.20022148115004
 11
921.01299178080001
 21
675.4167278320499
  0
LINE
  8
_0-6_センタ_プレ_ト
  6
CONTINUOUS
 62
    7
 10
928.8072204148001
 20
679.9167278320499
 11
926.20914420350005
 21
678.4167278320499
  0
LINE
  8
_0-6_センタ_プレ_ト
  6
CONTINUOUS
 62
    7
 10
923.61106799210006
 20
676.9167278320499
 11
921.01299178080001
 21
675.4167278320499
  0
LINE
  8
_0-6_センタ_プレ_ト
  6
CONTINUOUS
 62
    7
 10
926.33414420349993
 20
678.20022148115004
 11
926.20914420350005
 21
678.4167278320499
  0
LINE
  8
_0-6_センタ_プレ_ト
  6
CONTINUOUS
 62
    7
 10
923.73606799209995
 20
676.70022148115004
 11
923.61106799210006
 21
676.9167278320499
  0
LINE
  8
_0-6_センタ_プレ_ト
  6
CONTINUOUS
 62
    7
 10
930.23125852049998
 20
680.45022148115004
 11
928.93222041479999
 21
679.70022148115004
  0
LINE
  8
_0-6_センタ_プレ_ト
  6
CONTINUOUS
 62
    7
 10
926.33414420349993
 20
678.20022148115004
 11
923.73606799209995
 21
676.70022148115004
  0
LINE
  8
_0-6_センタ_プレ_ト
  6
CONTINUOUS
 62
    7
 10
921.13799178079989
 20
675.20022148115004
 11
919.8389536750999
 21
674.45022148115004
  0
LINE
  8
_0-6_センタ_プレ_ト
  6
CONTINUOUS
 62
    7
 10
921.21395367510002
 20
672.06865162064992
 11
919.8389536750999
 21
674.45022148115004
  0
LINE
  8
_0-6_センタ_プレ_ト
  6
CONTINUOUS
 62
    7
 10
931.00141682809999
 20
677.71944610674996
 11
921.21395367510002
 21
672.06865162064992
  0
LINE
  8
_0-6_センタ_プレ_ト
  6
CONTINUOUS
 62
    7
 10
1032.1963056680002
 20
680.36932752915004
 11
931.00141682809999
 21
677.71944610674996
  0
LINE
  8
_0-6_センタ_プレ_ト
  6
CONTINUOUS
 62
    7
 10
1032.1963056680002
 20
680.36932752915004
 11
1090.5642123050002
 21
678.84091010374993
  0
LINE
  8
_0-6_センタ_プレ_ト
  6
CONTINUOUS
 62
    7
 10
1090.5642123050002
 20
678.84091010374993
 11
1095.7941753060002
 21
669.78234846465011
  0
TEXT
  8
_0-0_0
 62
    7
 10
240.94427505605196
 20
873.8841697738751
 40
13.999999999999998
 41
0.7365159999999999
 50
0
  1
（ステンレス１５０タイプ）
  0
TEXT
  8
_0-0_0
 62
    7
 10
855.59694457029059
 20
878.84168206166407
 40
13.999999999999982
 41
0.7365159999999988
 50
0
  1
（ステンレス１５０タイプ）
  0
TEXT
  8
_0-0_0
 62
    7
 10
120.42676255605204
 20
839.86688810720841
 40
17.500000000000018
 41
0.8025179999999999
 50
0
  1
◇床－床（１５０ＴＴ－ＧＰＳ）　Ｓ＝１／３
  0
TEXT
  8
_0-0_0
 62
    7
 10
718.56388832029006
 20
841.75341039499756
 40
17.500000000000018
 41
0.803210999999998
 50
0
  1
◇床コーナー（１５０ＴＣ－ＧＰＳ）　Ｓ＝１／３
  0
ENDSEC
  0
EOF
