  0
SECTION
  2
HEADER
  9
$ACADVER
  1
AC1009
  9
$INSBASE
 10
0
 20
0
 30
0
  9
$EXTMIN
 10
0
 20
0
  9
$EXTMAX
 10
1188
 20
840
  9
$LIMMIN
 10
0
 20
0
  9
$LIMMAX
 10
1188
 20
840
  9
$LTSCALE
 40
2
  0
ENDSEC
  0
SECTION
  2
TABLES
  0
TABLE
  2
LTYPE
 70
     9
  0
LTYPE
  2
CONTINUOUS
 70
    64
  3
実線
 72
    65
 73
     0
 40
0.0
  0
LTYPE
  2
DASHED1
 70
    64
  3
--  --  --  --  --  --  --  --  
 72
    65
 73
     2
 40
2.5
 49
1.25
 49
-1.25
  0
LTYPE
  2
DASHED2
 70
    64
  3
----    ----    ----    ----    
 72
    65
 73
     2
 40
5.0
 49
2.5
 49
-2.5
  0
LTYPE
  2
DASHED3
 70
    64
  3
------  ------  ------  ------  
 72
    65
 73
     2
 40
5.0
 49
3.75
 49
-1.25
  0
LTYPE
  2
CENTER1
 70
    64
  3
----- - ----- - ----- - ----- - 
 72
    65
 73
     4
 40
10.0
 49
6.25
 49
-1.25
 49
1.25
 49
-1.25
  0
LTYPE
  2
CENTER2
 70
    64
  3
----------  --  ----------  --  
 72
    65
 73
     4
 40
20.0
 49
12.5
 49
-2.5
 49
2.5
 49
-2.5
  0
LTYPE
  2
PHANTOM1
 70
    64
  3
--- - - --- - - --- - - --- - - 
 72
    65
 73
     6
 40
10.0
 49
3.25
 49
-1.25
 49
1.25
 49
-1.25
 49
1.25
 49
-1.25
  0
LTYPE
  2
PHANTOM2
 70
    64
  3
--------  -  -  --------  -  -  
 72
    65
 73
     6
 40
20.0
 49
10.0
 49
-2.5
 49
1.25
 49
-2.5
 49
1.25
 49
-2.5
  0
LTYPE
  2
DOT
 70
    64
  3
-   -   -   -   -   -   -   -   
 72
    65
 73
     2
 40
2.5
 49
0.625
 49
-1.875
  0
LTYPE
  2
DUMMY
 70
    64
  3
ダミー
 72
    65
 73
     0
 40
0.0
  0
LTYPE
  2
RAND1
 70
    64
  3
ランダム線1
 72
    65
 73
     4
 40
10.0
 49
1.0
 49
-2.0
 49
3.0
 49
-4.0
  0
LTYPE
  2
RAND2
 70
    64
  3
ランダム線2
 72
    65
 73
     4
 40
14.0
 49
2.0
 49
-3.0
 49
4.0
 49
-5.0
  0
LTYPE
  2
RAND3
 70
    64
  3
ランダム線3
 72
    65
 73
     4
 40
18.0
 49
3.0
 49
-4.0
 49
5.0
 49
-6.0
  0
LTYPE
  2
RAND4
 70
    64
  3
ランダム線4
 72
    65
 73
     4
 40
22.0
 49
4.0
 49
-5.0
 49
6.0
 49
-7.0
  0
LTYPE
  2
RAND5
 70
    64
  3
ランダム線5
 72
    65
 73
     4
 40
26.0
 49
5.0
 49
-6.0
 49
7.0
 49
-8.0
  0
LTYPE
  2
LONG1
 70
    64
  3
----------  --  ----------  --  
 72
    65
 73
     4
 40
40.0
 49
32.5
 49
-2.5
 49
2.5
 49
-2.5
  0
LTYPE
  2
LONG2
 70
    64
  3
--------  -  -  --------  -  -  
 72
    65
 73
     6
 40
40.0
 49
30.0
 49
-2.5
 49
1.25
 49
-2.5
 49
1.25
 49
-2.5
  0
LTYPE
  2
LONG3
 70
    64
  3
+++++++++++++++..+++++++++++++++
 72
    65
 73
     2
 40
40.0
 49
37.5
 49
-2.5
  0
LTYPE
  2
LONG4
 70
    64
  3
+++++++++++++++..+++++++++++++++
 72
    65
 73
     2
 40
80.0
 49
75.0
 49
-5.0
  0
LTYPE
  2
LONG5
 70
    64
  3
----------  --  ----------  --  
 72
    65
 73
     4
 40
60.0
 49
37.5
 49
-7.5
 49
7.5
 49
-7.5
  0
LTYPE
  2
dashed
 70
   64
  3
-------   -------------   ------
 72
   65
 73
    2
 40
7.5
 49
6
 49
-1.5
  0
LTYPE
  2
dashed_spaced
 70
   64
  3
----        --------        ----
 72
   65
 73
    2
 40
12
 49
6
 49
-6
  0
LTYPE
  2
long_dashed_dotted
 70
   64
  3
------------- --- --------------
 72
   65
 73
    4
 40
15.25
 49
12
 49
-1.5
 49
0.25
 49
-1.5
  0
LTYPE
  2
long_dashed_double-dotted
 70
   64
  3
----------- --- --- ------------
 72
   65
 73
    6
 40
17
 49
12
 49
-1.5
 49
0.25
 49
-1.5
 49
0.25
 49
-1.5
  0
LTYPE
  2
long_dashed_triplicate-dotted
 70
   64
  3
--------- --- --- --- ----------
 72
   65
 73
    8
 40
18.75
 49
12
 49
-1.5
 49
0.25
 49
-1.5
 49
0.25
 49
-1.5
 49
0.25
 49
-1.5
  0
LTYPE
  2
dotted
 70
   64
  3
   -       -       -       -    
 72
   65
 73
    2
 40
1.75
 49
0.25
 49
-1.5
  0
LTYPE
  2
chain
 70
   64
  3
-------------- -- --------------
 72
   65
 73
    4
 40
18.5
 49
12
 49
-1.5
 49
3.5
 49
-1.5
  0
LTYPE
  2
chain_double_dash
 70
   64
  3
------------ -- -- -------------
 72
   65
 73
    6
 40
23.5
 49
12
 49
-1.5
 49
3.5
 49
-1.5
 49
3.5
 49
-1.5
  0
LTYPE
  2
dashed_dotted
 70
   64
  3
-----------     -     ----------
 72
   65
 73
    4
 40
9.25
 49
6
 49
-1.5
 49
0.25
 49
-1.5
  0
LTYPE
  2
double-dashed_dotted
 70
   64
  3
------   -----------   -   -----
 72
   65
 73
    6
 40
16.75
 49
6
 49
-1.5
 49
6
 49
-1.5
 49
0.25
 49
-1.5
  0
LTYPE
  2
dashed_double-dotted
 70
   64
  3
---------    -    -    ---------
 72
   65
 73
    6
 40
11
 49
6
 49
-1.5
 49
0.25
 49
-1.5
 49
0.25
 49
-1.5
  0
LTYPE
  2
double-dashed_double-dotted
 70
   64
  3
-----   ---------   -   -   ----
 72
   65
 73
    8
 40
18.5
 49
6
 49
-1.5
 49
6
 49
-1.5
 49
0.25
 49
-1.5
 49
0.25
 49
-1.5
  0
LTYPE
  2
dashed_triplicate-dotted
 70
   64
  3
-------    -    -    -    ------
 72
   65
 73
    8
 40
12.75
 49
6
 49
-1.5
 49
0.25
 49
-1.5
 49
0.25
 49
-1.5
 49
0.25
 49
-1.5
  0
LTYPE
  2
double-dashed_triplicate-dotted
 70
   64
  3
-----  ---------  -  -  -  -----
 72
   65
 73
   10
 40
20.25
 49
6
 49
-1.5
 49
6
 49
-1.5
 49
0.25
 49
-1.5
 49
0.25
 49
-1.5
 49
0.25
 49
-1.5
  0
LTYPE
  2
undefined
 70
   64
  3
--------------------------------
 72
   65
 73
    0
 40
0
  0
LTYPE
  2
DOT_17
 70
   64
  3
----        --------        ----
 72
   65
 73
    2
 40
2
 49
1
 49
-1
  0
LTYPE
  2
DASHED
 70
   64
  3
----        --------        ----
 72
   65
 73
    2
 40
4
 49
2
 49
-2
  0
LTYPE
  2
DASHED2_19
 70
   64
  3
-----      ----------      -----
 72
   65
 73
    2
 40
8
 49
5
 49
-3
  0
LTYPE
  2
CENTER
 70
   64
  3
--------------- - --------------
 72
   65
 73
    4
 40
23
 49
20
 49
-1
 49
1
 49
-1
  0
LTYPE
  2
CENTERX2
 70
   64
  3
--------------- - --------------
 72
   65
 73
    4
 40
43
 49
40
 49
-1
 49
1
 49
-1
  0
LTYPE
  2
CENTER2_22
 70
   64
  3
-------------  --  -------------
 72
   65
 73
    4
 40
13
 49
10
 49
-1
 49
1
 49
-1
  0
LTYPE
  2
PHANTOM
 70
   64
  3
-------------- - - -------------
 72
   65
 73
    6
 40
25
 49
20
 49
-1
 49
1
 49
-1
 49
1
 49
-1
  0
LTYPE
  2
PHANTOMX2
 70
   64
  3
-------------- - - -------------
 72
   65
 73
    6
 40
45
 49
40
 49
-1
 49
1
 49
-1
 49
1
 49
-1
  0
LTYPE
  2
PHANTOM2_25
 70
   64
  3
-----------  --  --  -----------
 72
   65
 73
    6
 40
15
 49
10
 49
-1
 49
1
 49
-1
 49
1
 49
-1
  0
LTYPE
  2
ACAD_ISO06W100
 70
   64
  3
------------- - - - ------------
 72
   65
 73
    8
 40
47
 49
40
 49
-1
 49
1
 49
-1
 49
1
 49
-1
 49
1
 49
-1
  0
LTYPE
  2
ACAD_ISO14W100
 70
   64
  3
------------- - - - ------------
 72
   65
 73
    8
 40
27
 49
20
 49
-1
 49
1
 49
-1
 49
1
 49
-1
 49
1
 49
-1
  0
LTYPE
  2
ACAD_ISO11W100
 70
   64
  3
------- -------------- - -------
 72
   65
 73
    6
 40
44
 49
20
 49
-1
 49
20
 49
-1
 49
1
 49
-1
  0
LTYPE
  2
ACAD_ISO13W100
 70
   64
  3
------- ------------- - - ------
 72
   65
 73
    8
 40
46
 49
20
 49
-1
 49
20
 49
-1
 49
1
 49
-1
 49
1
 49
-1
  0
LTYPE
  2
HIDDEN
 70
   64
  3
------     -----------     -----
 72
   65
 73
    2
 40
1.5
 49
1
 49
-0.5
  0
ENDTAB
  0
TABLE
  2
STYLE
  5
3
100
AcDbSymbolTable
 70
     1
  0
STYLE
  5
10
100
AcDbSymbolTableRecord
100
AcDbTextStyleTableRecord
  2
STANDARD
 70
     0
 40
0.0
 41
1.0
 50
0.0
 71
     0
 42
0.2
  3
txt
  4
bigfont.shx
  0
STYLE
  5
26
100
AcDbSymbolTableRecord
100
AcDbTextStyleTableRecord
  2
TATEGAKI
 70
    68
 40
0.0
 41
1.0
 50
0.0
 71
     0
 42
1.0
  3
txt
  4
bigfont.shx
  0
ENDTAB
  0
TABLE
  2
LAYER
 70
   11
  0
LAYER
  2
_0-0_0
 70
   64
 62
    7
  6
CONTINUOUS
  0
LAYER
  2
_0-1_図面枠
 70
   64
 62
    7
  6
CONTINUOUS
  0
LAYER
  2
_0-2_レイヤ1
 70
   64
 62
    7
  6
CONTINUOUS
  0
LAYER
  2
_0-3_レイヤ2
 70
   64
 62
    7
  6
CONTINUOUS
  0
LAYER
  2
_0-4_レイヤ3
 70
   64
 62
    7
  6
CONTINUOUS
  0
LAYER
  2
_0-6_レイヤ5
 70
   64
 62
    7
  6
CONTINUOUS
  0
LAYER
  2
_0-7_レイヤ6
 70
   64
 62
    7
  6
CONTINUOUS
  0
LAYER
  2
_0-8_レイヤ7
 70
   64
 62
    7
  6
CONTINUOUS
  0
LAYER
  2
_0-9_レイヤ8
 70
   64
 62
    7
  6
CONTINUOUS
  0
LAYER
  2
_0-a_レイヤ9
 70
   64
 62
    7
  6
CONTINUOUS
  0
LAYER
  2
ADD_LINE
 70
   64
 62
    7
  6
CONTINUOUS
  0
ENDTAB
  0
ENDSEC
  0
SECTION
  2
BLOCKS
  0
ENDSEC
  0
SECTION
  2
ENTITIES
  0
LINE
  8
_0-8_レイヤ7
  6
CONTINUOUS
 62
    7
 10
172.15548508680001
 20
390.45957240039996
 11
191.01782608680003
 21
394.8284354004
  0
LINE
  8
_0-8_レイヤ7
  6
CONTINUOUS
 62
    7
 10
190.95325308680003
 20
395.83943840040001
 11
171.92995308680008
 21
391.43329440039997
  0
LINE
  8
_0-8_レイヤ7
  6
CONTINUOUS
 62
    7
 10
191.01782608680003
 20
394.0288354004
 11
196.01532608680009
 21
394.0288354004
  0
LINE
  8
_0-8_レイヤ7
  6
CONTINUOUS
 62
    7
 10
196.01532608680009
 20
394.0288354004
 11
196.01532608680009
 21
397.62703540039996
  0
LINE
  8
_0-8_レイヤ7
  6
CONTINUOUS
 62
    7
 10
196.01532608680009
 20
397.62703540039996
 11
191.01782608680003
 21
397.62703540039996
  0
LINE
  8
_0-8_レイヤ7
  6
CONTINUOUS
 62
    7
 10
191.01782608680003
 20
397.62703540039996
 11
191.01782608680003
 21
394.0288354004
  0
LINE
  8
_0-8_レイヤ7
  6
CONTINUOUS
 62
    7
 10
171.90432508680004
 20
400.24822140039998
 11
191.01782608680003
 21
396.84317140039997
  0
LINE
  8
_0-8_レイヤ7
  6
CONTINUOUS
 62
    7
 10
171.72902508680005
 20
399.26421340039997
 11
191.01782608680003
 21
395.82793540040001
  0
LINE
  8
_0-8_レイヤ7
  6
CONTINUOUS
 62
    7
 10
285.97032608680007
 20
395.82793540040001
 11
196.01532608680009
 21
395.82793540040001
  0
ARC
  8
_0-8_レイヤ7
  6
CONTINUOUS
 62
    7
 10
198.03370108680008
 20
397.32718540039997
 40
1.49925
 50
270
 51
0
  0
LINE
  8
_0-8_レイヤ7
  6
CONTINUOUS
 62
    7
 10
285.97032608680007
 20
394.8284354004
 11
196.01532608680009
 21
394.8284354004
  0
LINE
  8
_0-8_レイヤ7
  6
CONTINUOUS
 62
    7
 10
196.01532608680009
 20
396.82743540039996
 11
198.03370108680008
 21
396.82743540039996
  0
ARC
  8
_0-8_レイヤ7
  6
CONTINUOUS
 62
    7
 10
198.03370108680008
 20
397.32718540039997
 40
0.49975
 50
270
 51
0
  0
LINE
  8
_0-8_レイヤ7
  6
CONTINUOUS
 62
    7
 10
198.53345108680003
 20
397.62703540039996
 11
198.53345108680003
 21
397.32718540039997
  0
LINE
  8
_0-8_レイヤ7
  6
CONTINUOUS
 62
    7
 10
198.53345108680003
 20
397.62703540039996
 11
199.53295108680004
 21
397.62703540039996
  0
LINE
  8
_0-8_レイヤ7
  6
CONTINUOUS
 62
    7
 10
199.53295108680004
 20
397.62703540039996
 11
199.53295108680004
 21
397.32718540039997
  0
ARC
  8
_0-8_レイヤ7
  6
CONTINUOUS
 62
    7
 10
171.02782608680002
 20
395.3281854004
 40
3.9980000000000002
 50
79.898790000000005
 51
283.040795
  0
ARC
  8
_0-8_レイヤ7
  6
CONTINUOUS
 62
    7
 10
171.02782608680002
 20
395.3281854004
 40
4.9974999999999996
 50
79.898790000000005
 51
283.040795
  0
LINE
  8
_0-8_レイヤ7
  6
CONTINUOUS
 62
    7
 10
409.78016608680002
 20
390.45957240039996
 11
390.91782608680006
 21
394.8284354004
  0
LINE
  8
_0-8_レイヤ7
  6
CONTINUOUS
 62
    7
 10
390.98239908680006
 20
395.83943840040001
 11
410.00569808680007
 21
391.43329440039997
  0
LINE
  8
_0-8_レイヤ7
  6
CONTINUOUS
 62
    7
 10
390.91782608680006
 20
394.0288354004
 11
385.92032608680006
 21
394.0288354004
  0
LINE
  8
_0-8_レイヤ7
  6
CONTINUOUS
 62
    7
 10
385.92032608680006
 20
394.0288354004
 11
385.92032608680006
 21
397.62703540039996
  0
LINE
  8
_0-8_レイヤ7
  6
CONTINUOUS
 62
    7
 10
385.92032608680006
 20
397.62703540039996
 11
390.91782608680006
 21
397.62703540039996
  0
LINE
  8
_0-8_レイヤ7
  6
CONTINUOUS
 62
    7
 10
390.91782608680006
 20
397.62703540039996
 11
390.91782608680006
 21
394.0288354004
  0
LINE
  8
_0-8_レイヤ7
  6
CONTINUOUS
 62
    7
 10
410.03132708680005
 20
400.24822140039998
 11
390.91782608680006
 21
396.84317140039997
  0
LINE
  8
_0-8_レイヤ7
  6
CONTINUOUS
 62
    7
 10
410.20662608680004
 20
399.26421340039997
 11
390.91782608680006
 21
395.82793540040001
  0
LINE
  8
_0-8_レイヤ7
  6
CONTINUOUS
 62
    7
 10
295.96532608680002
 20
395.82793540040001
 11
385.92032608680006
 21
395.82793540040001
  0
ARC
  8
_0-8_レイヤ7
  6
CONTINUOUS
 62
    7
 10
383.90195108680007
 20
397.32718540039997
 40
1.49925
 50
180
 51
270
  0
LINE
  8
_0-8_レイヤ7
  6
CONTINUOUS
 62
    7
 10
295.96532608680002
 20
394.8284354004
 11
385.92032608680006
 21
394.8284354004
  0
LINE
  8
_0-8_レイヤ7
  6
CONTINUOUS
 62
    7
 10
385.92032608680006
 20
396.82743540039996
 11
383.90195108680007
 21
396.82743540039996
  0
ARC
  8
_0-8_レイヤ7
  6
CONTINUOUS
 62
    7
 10
383.90195108680007
 20
397.32718540039997
 40
0.49975
 50
180
 51
270
  0
LINE
  8
_0-8_レイヤ7
  6
CONTINUOUS
 62
    7
 10
383.40220108680006
 20
397.62703540039996
 11
383.40220108680006
 21
397.32718540039997
  0
LINE
  8
_0-8_レイヤ7
  6
CONTINUOUS
 62
    7
 10
383.40220108680006
 20
397.62703540039996
 11
382.40270108680005
 21
397.62703540039996
  0
LINE
  8
_0-8_レイヤ7
  6
CONTINUOUS
 62
    7
 10
382.40270108680005
 20
397.62703540039996
 11
382.40270108680005
 21
397.32718540039997
  0
ARC
  8
_0-8_レイヤ7
  6
CONTINUOUS
 62
    7
 10
410.90782608680007
 20
395.3281854004
 40
3.9980000000000002
 50
256.959205
 51
110.010381
  0
ARC
  8
_0-8_レイヤ7
  6
CONTINUOUS
 62
    7
 10
410.90782608680007
 20
395.3281854004
 40
4.9974999999999996
 50
256.959205
 51
108.02159899999999
  0
TEXT
  8
_0-8_レイヤ7
 62
    7
 10
164.51598808680001
 20
413.2396824004
 40
9
 41
1
 50
0
  1
（落下防止ワイヤー）
  0
LINE
  8
_0-9_レイヤ8
  6
CONTINUOUS
 62
    7
 10
121.03197032900005
 20
83.799999999999955
 11
121.03197032900005
 21
350.19999999999999
  0
LINE
  8
_0-9_レイヤ8
  6
CONTINUOUS
 62
    7
 10
142.63197032900007
 20
83.799999999999955
 11
142.63197032900007
 21
350.19999999999999
  0
LINE
  8
_0-9_レイヤ8
  6
CONTINUOUS
 62
    7
 10
313.63197032900007
 20
83.799999999999955
 11
313.63197032900007
 21
350.19999999999999
  0
LINE
  8
_0-9_レイヤ8
  6
CONTINUOUS
 62
    7
 10
547.48197032900009
 20
155.79999999999995
 11
121.03197032900005
 21
155.79999999999995
  0
LINE
  8
_0-9_レイヤ8
  6
CONTINUOUS
 62
    7
 10
547.48197032900009
 20
191.79999999999998
 11
121.03197032900005
 21
191.79999999999998
  0
LINE
  8
_0-9_レイヤ8
  6
CONTINUOUS
 62
    7
 10
547.48197032900009
 20
173.79999999999998
 11
121.03197032900005
 21
173.79999999999998
  0
LINE
  8
_0-9_レイヤ8
  6
CONTINUOUS
 62
    7
 10
547.48197032900009
 20
209.79999999999998
 11
121.03197032900005
 21
209.79999999999998
  0
LINE
  8
_0-9_レイヤ8
  6
CONTINUOUS
 62
    7
 10
547.48197032900009
 20
317.80000000000001
 11
121.03197032900005
 21
317.80000000000001
  0
LINE
  8
_0-9_レイヤ8
  6
CONTINUOUS
 62
    7
 10
547.48197032900009
 20
299.80000000000001
 11
121.03197032900005
 21
299.80000000000001
  0
LINE
  8
_0-9_レイヤ8
  6
CONTINUOUS
 62
    7
 10
547.48197032900009
 20
281.80000000000001
 11
121.03197032900005
 21
281.80000000000001
  0
LINE
  8
_0-9_レイヤ8
  6
CONTINUOUS
 62
    7
 10
547.48197032900009
 20
263.80000000000001
 11
121.03197032900005
 21
263.80000000000001
  0
LINE
  8
_0-9_レイヤ8
  6
CONTINUOUS
 62
    7
 10
547.48197032900009
 20
245.79999999999998
 11
121.03197032900005
 21
245.79999999999998
  0
LINE
  8
_0-9_レイヤ8
  6
CONTINUOUS
 62
    7
 10
547.48197032900009
 20
227.79999999999998
 11
121.03197032900005
 21
227.79999999999998
  0
LINE
  8
_0-9_レイヤ8
  6
CONTINUOUS
 62
    7
 10
547.48197032900009
 20
350.19999999999999
 11
121.03197032900005
 21
350.19999999999999
  0
LINE
  8
_0-9_レイヤ8
  6
CONTINUOUS
 62
    7
 10
547.48197032900009
 20
137.79999999999995
 11
121.03197032900005
 21
137.79999999999995
  0
LINE
  8
_0-9_レイヤ8
  6
CONTINUOUS
 62
    7
 10
547.48197032900009
 20
119.79999999999995
 11
121.03197032900005
 21
119.79999999999995
  0
LINE
  8
_0-9_レイヤ8
  6
CONTINUOUS
 62
    7
 10
547.48197032900009
 20
83.799999999999955
 11
547.48197032900009
 21
350.19999999999999
  0
LINE
  8
_0-9_レイヤ8
  6
CONTINUOUS
 62
    7
 10
489.88197032900007
 20
83.799999999999955
 11
489.88197032900007
 21
350.19999999999999
  0
LINE
  8
_0-9_レイヤ8
  6
CONTINUOUS
 62
    7
 10
444.88197032900007
 20
83.799999999999955
 11
444.88197032900007
 21
350.19999999999999
  0
LINE
  8
_0-9_レイヤ8
  6
CONTINUOUS
 62
    7
 10
525.88197032900007
 20
83.799999999999955
 11
525.88197032900007
 21
350.19999999999999
  0
LINE
  8
_0-9_レイヤ8
  6
CONTINUOUS
 62
    7
 10
441.88197032900007
 20
83.799999999999955
 11
441.88197032900007
 21
350.19999999999999
  0
LINE
  8
_0-9_レイヤ8
  6
CONTINUOUS
 62
    7
 10
547.48197032900009
 20
101.79999999999995
 11
121.03197032900005
 21
101.79999999999995
  0
LINE
  8
_0-9_レイヤ8
  6
CONTINUOUS
 62
    7
 10
547.48197032900009
 20
83.799999999999955
 11
121.03197032900005
 21
83.799999999999955
  0
TEXT
  8
_0-9_レイヤ8
 62
    7
 10
122.52317432900003
 20
303.48264849999998
 40
9.5999999999999996
 41
1
 50
0
  1
　１
  0
TEXT
  8
_0-9_レイヤ8
 62
    7
 10
448.84340132900007
 20
303.400012
 40
9.5999999999999996
 41
1
 50
0
  1
３０００
  0
TEXT
  8
_0-9_レイヤ8
 62
    7
 10
509.11263482900006
 20
303.54997449999996
 40
9.5999999999999996
 41
1
 50
0
  1
２
  0
TEXT
  8
_0-9_レイヤ8
 62
    7
 10
532.047345329
 20
303.400012
 40
9.5999999999999996
 41
1
 50
0
  1
本
  0
TEXT
  8
_0-9_レイヤ8
 62
    7
 10
131.79246632900004
 20
285.48264849999998
 40
9.5999999999999996
 41
1
 50
0
  1
２
  0
TEXT
  8
_0-9_レイヤ8
 62
    7
 10
448.84340132900007
 20
285.400012
 40
9.5999999999999996
 41
1
 50
0
  1
３０００
  0
TEXT
  8
_0-9_レイヤ8
 62
    7
 10
509.11263482900006
 20
285.55000899999999
 40
9.5999999999999996
 41
1
 50
0
  1
１
  0
TEXT
  8
_0-9_レイヤ8
 62
    7
 10
532.047345329
 20
285.400012
 40
9.5999999999999996
 41
1
 50
0
  1
〃
  0
TEXT
  8
_0-9_レイヤ8
 62
    7
 10
131.79246632900004
 20
267.48264849999998
 40
9.5999999999999996
 41
1
 50
0
  1
３
  0
TEXT
  8
_0-9_レイヤ8
 62
    7
 10
509.11263482900006
 20
267.54997449999996
 40
9.5999999999999996
 41
1
 50
0
  1
２
  0
TEXT
  8
_0-9_レイヤ8
 62
    7
 10
532.047345329
 20
267.400012
 40
9.5999999999999996
 41
1
 50
0
  1
〃
  0
TEXT
  8
_0-9_レイヤ8
 62
    7
 10
131.79246632900004
 20
249.48264849999998
 40
9.5999999999999996
 41
1
 50
0
  1
４
  0
TEXT
  8
_0-9_レイヤ8
 62
    7
 10
146.23199282900003
 20
249.400012
 40
9.5999999999999996
 41
1
 50
0
  1
止水補助板
  0
TEXT
  8
_0-9_レイヤ8
 62
    7
 10
448.84340132900007
 20
249.400012
 40
9.5999999999999996
 41
1
 50
0
  1
３１００
  0
TEXT
  8
_0-9_レイヤ8
 62
    7
 10
509.11263482900006
 20
249.55000899999999
 40
9.5999999999999996
 41
1
 50
0
  1
１
  0
TEXT
  8
_0-9_レイヤ8
 62
    7
 10
532.047345329
 20
249.400012
 40
9.5999999999999996
 41
1
 50
0
  1
枚
  0
TEXT
  8
_0-9_レイヤ8
 62
    7
 10
131.79246632900004
 20
231.48268299999998
 40
9.5999999999999996
 41
1
 50
0
  1
５
  0
TEXT
  8
_0-9_レイヤ8
 62
    7
 10
146.23199282900003
 20
231.40001199999998
 40
9.5999999999999996
 41
1
 50
0
  1
アンカープラグ
  0
TEXT
  8
_0-9_レイヤ8
 62
    7
 10
499.84334282900005
 20
231.54997449999999
 40
9.5999999999999996
 41
1
 50
0
  1
１２
  0
TEXT
  8
_0-9_レイヤ8
 62
    7
 10
317.23200932900005
 20
231.40001199999998
 40
9.5999999999999996
 41
1
 50
0
  1
フィッシャープラグＳ８
  0
TEXT
  8
_0-9_レイヤ8
 62
    7
 10
532.047345329
 20
231.39997749999998
 40
9.5999999999999996
 41
1
 50
0
  1
本
  0
TEXT
  8
_0-9_レイヤ8
 62
    7
 10
146.23199282900003
 20
213.40001199999998
 40
9.5999999999999996
 41
1
 50
0
  1
ステンタッピンねじ
  0
TEXT
  8
_0-9_レイヤ8
 62
    7
 10
131.79246632900004
 20
213.48268299999998
 40
9.5999999999999996
 41
1
 50
0
  1
６
  0
TEXT
  8
_0-9_レイヤ8
 62
    7
 10
499.84334282900005
 20
213.5499925
 40
9.5999999999999996
 41
1
 50
0
  1
１２
  0
TEXT
  8
_0-9_レイヤ8
 62
    7
 10
532.047345329
 20
213.40001199999998
 40
9.5999999999999996
 41
1
 50
0
  1
〃
  0
TEXT
  8
_0-9_レイヤ8
 62
    7
 10
317.23204382900002
 20
213.40001199999998
 40
9.5999999999999996
 41
1
 50
0
  1
なべ５×５０
  0
TEXT
  8
_0-9_レイヤ8
 62
    7
 10
317.23200932900005
 20
195.40002849999999
 40
9.5999999999999996
 41
1
 50
0
  1
４×１３
  0
TEXT
  8
_0-9_レイヤ8
 62
    7
 10
131.79246632900004
 20
195.48266649999999
 40
9.5999999999999996
 41
1
 50
0
  1
７
  0
TEXT
  8
_0-9_レイヤ8
 62
    7
 10
499.84334282900005
 20
195.54997449999999
 40
9.5999999999999996
 41
1
 50
0
  1
１６
  0
TEXT
  8
_0-9_レイヤ8
 62
    7
 10
146.23199282900003
 20
195.40002849999999
 40
9.5999999999999996
 41
1
 50
0
  1
ステンセットシルタップ
  0
TEXT
  8
_0-9_レイヤ8
 62
    7
 10
532.047345329
 20
195.39999399999999
 40
9.5999999999999996
 41
1
 50
0
  1
〃
  0
TEXT
  8
_0-9_レイヤ8
 62
    7
 10
131.79246632900004
 20
177.48266649999999
 40
9.5999999999999996
 41
1
 50
0
  1
８
  0
TEXT
  8
_0-9_レイヤ8
 62
    7
 10
146.23199282900003
 20
177.40002849999999
 40
9.5999999999999996
 41
1
 50
0
  1
ステンワッシャー
  0
TEXT
  8
_0-9_レイヤ8
 62
    7
 10
499.84334282900005
 20
177.55002549999998
 40
9.5999999999999996
 41
1
 50
0
  1
１２
  0
TEXT
  8
_0-9_レイヤ8
 62
    7
 10
317.23204382900002
 20
177.40002849999999
 40
9.5999999999999996
 41
1
 50
0
  1
１．５×１８×５．５穴
  0
TEXT
  8
_0-9_レイヤ8
 62
    7
 10
532.047345329
 20
177.40002849999999
 40
9.5999999999999996
 41
1
 50
0
  1
枚
  0
TEXT
  8
_0-9_レイヤ8
 62
    7
 10
131.79246632900004
 20
159.48266649999999
 40
9.5999999999999996
 41
1
 50
0
  1
９
  0
TEXT
  8
_0-9_レイヤ8
 62
    7
 10
509.11263482900006
 20
159.55002549999995
 40
9.5999999999999996
 41
1
 50
0
  1
２
  0
TEXT
  8
_0-9_レイヤ8
 62
    7
 10
532.047345329
 20
159.40002849999996
 40
9.5999999999999996
 41
1
 50
0
  1
本
  0
TEXT
  8
_0-9_レイヤ8
 62
    7
 10
131.79246632900004
 20
141.48266649999999
 40
9.5999999999999996
 41
1
 50
0
  1
※
  0
TEXT
  8
_0-9_レイヤ8
 62
    7
 10
317.23200932900005
 20
141.40001199999995
 40
9.5999999999999996
 41
1
 50
0
  1
外ジョイント材
  0
TEXT
  8
_0-9_レイヤ8
 62
    7
 10
509.11263482900006
 20
141.55000899999999
 40
9.5999999999999996
 41
1
 50
0
  1
２
  0
TEXT
  8
_0-9_レイヤ8
 62
    7
 10
532.047345329
 20
141.40001199999995
 40
9.5999999999999996
 41
1
 50
0
  1
個
  0
TEXT
  8
_0-9_レイヤ8
 62
    7
 10
131.79246632900004
 20
123.48266649999999
 40
9.5999999999999996
 41
1
 50
0
  1
※
  0
TEXT
  8
_0-9_レイヤ8
 62
    7
 10
317.23200932900005
 20
123.40001199999995
 40
9.5999999999999996
 41
1
 50
0
  1
外ジョイント材
  0
TEXT
  8
_0-9_レイヤ8
 62
    7
 10
509.11263482900006
 20
123.54999250000003
 40
9.5999999999999996
 41
1
 50
0
  1
１
  0
TEXT
  8
_0-9_レイヤ8
 62
    7
 10
532.047345329
 20
123.40001199999995
 40
9.5999999999999996
 41
1
 50
0
  1
〃
  0
TEXT
  8
_0-9_レイヤ8
 62
    7
 10
131.79246632900004
 20
105.48266649999999
 40
9.5999999999999996
 41
1
 50
0
  1
※
  0
TEXT
  8
_0-9_レイヤ8
 62
    7
 10
317.23204382900002
 20
105.40002849999996
 40
9.5999999999999996
 41
1
 50
0
  1
ｔ１．０×ｗ３０
  0
TEXT
  8
_0-9_レイヤ8
 62
    7
 10
448.84340132900007
 20
105.40004499999998
 40
9.5999999999999996
 41
1
 50
0
  1
６０００
  0
TEXT
  8
_0-9_レイヤ8
 62
    7
 10
509.11263482900006
 20
105.55000899999999
 40
9.5999999999999996
 41
1
 50
0
  1
１
  0
TEXT
  8
_0-9_レイヤ8
 62
    7
 10
532.047345329
 20
105.40002849999996
 40
9.5999999999999996
 41
1
 50
0
  1
巻
  0
TEXT
  8
_0-9_レイヤ8
 62
    7
 10
146.23199282900003
 20
105.40002849999996
 40
9.5999999999999996
 41
1
 50
0
  1
ブチルテープ
  0
TEXT
  8
_0-9_レイヤ8
 62
    7
 10
131.79246632900004
 20
87.482683000000009
 40
9.5999999999999996
 41
1
 50
0
  1
※
  0
TEXT
  8
_0-9_レイヤ8
 62
    7
 10
146.23199282900003
 20
87.400028499999962
 40
9.5999999999999996
 41
1
 50
0
  1
落下防止ワイヤー
  0
TEXT
  8
_0-9_レイヤ8
 62
    7
 10
509.11263482900006
 20
87.550008999999989
 40
9.5999999999999996
 41
1
 50
0
  1
２
  0
TEXT
  8
_0-9_レイヤ8
 62
    7
 10
532.047345329
 20
87.400028499999962
 40
9.5999999999999996
 41
1
 50
0
  1
本
  0
TEXT
  8
_0-9_レイヤ8
 62
    7
 10
146.23199282900003
 20
267.400012
 40
9.5999999999999996
 41
1
 50
0
  1
ＳＳＨフレーム（Ｃ）
  0
TEXT
  8
_0-9_レイヤ8
 62
    7
 10
146.23199282900003
 20
303.400012
 40
9.5999999999999996
 41
1
 50
0
  1
ＳＳＨサイドプレート（Ｃ）Ｓ
  0
TEXT
  8
_0-9_レイヤ8
 62
    7
 10
146.23199282900003
 20
285.400012
 40
9.5999999999999996
 41
1
 50
0
  1
ＳＳＨセンタープレート（Ｃ）Ｓ
  0
TEXT
  8
_0-9_レイヤ8
 62
    7
 10
208.93197032900002
 20
329.19999999999999
 40
9.5999999999999996
 41
1
 50
0
  1
部材名称
  0
TEXT
  8
_0-9_レイヤ8
 62
    7
 10
363.35697032900003
 20
329.19999999999999
 40
9.5999999999999996
 41
1
 50
0
  1
規　格
  0
TEXT
  8
_0-9_レイヤ8
 62
    7
 10
531.88197032900007
 20
343.59999999999997
 40
9.5999999999999996
 41
1
 50
-90.000000000000014
  1
単位
  0
LINE
  8
_0-9_レイヤ8
  6
HIDDEN
 62
    7
 10
489.88197032900007
 20
334
 11
525.88197032900007
 21
334
  0
TEXT
  8
_0-9_レイヤ8
 62
    7
 10
498.28197032900005
 20
337.30000000000001
 40
9.5999999999999996
 41
1
 50
0
  1
使用
  0
TEXT
  8
_0-9_レイヤ8
 62
    7
 10
498.28197032900005
 20
321.09999999999997
 40
9.5999999999999996
 41
1
 50
0
  1
数量
  0
LINE
  8
_0-9_レイヤ8
  6
HIDDEN
 62
    7
 10
489.88197032900007
 20
334
 11
444.88197032900007
 21
334
  0
TEXT
  8
_0-9_レイヤ8
 62
    7
 10
452.98197032900003
 20
337.30000000000001
 40
9.5999999999999996
 41
1
 50
0
  1
定　尺
  0
TEXT
  8
_0-9_レイヤ8
 62
    7
 10
448.18197032900002
 20
321.09999999999997
 40
9.5999999999999996
 41
1
 50
0
  1
（ｍｍ）
  0
TEXT
  8
_0-9_レイヤ8
 62
    7
 10
146.23199282900003
 20
159.40002849999996
 40
9.5999999999999996
 41
1
 50
0
  1
ガスケットＳＨＦ
  0
TEXT
  8
_0-9_レイヤ8
 62
    7
 10
121.03198232900002
 20
62.800008999999989
 40
9.5999999999999996
 41
1
 50
0
  1
注）　ガスケットＳＨＦはＳＳＨサイドプレート（Ｃ）Ｓにセット済み。
  0
TEXT
  8
_0-9_レイヤ8
 62
    7
 10
317.23200932900005
 20
249.400012
 40
9.5999999999999996
 41
1
 50
0
  1
ＦＳ４００
  0
TEXT
  8
_0-9_レイヤ8
 62
    7
 10
448.84340132900007
 20
159.40002849999996
 40
9.5999999999999996
 41
1
 50
0
  1
３１００
  0
TEXT
  8
_0-9_レイヤ8
 62
    7
 10
448.84340132900007
 20
267.400012
 40
9.5999999999999996
 41
1
 50
0
  1
３０００
  0
LINE
  8
_0-1_図面枠
  6
CONTINUOUS
 62
    7
 10
31.031970329000046
 20
20.199999999999989
 11
1182.1017682212303
 21
20.199999999999989
  0
LINE
  8
_0-1_図面枠
  6
CONTINUOUS
 62
    7
 10
31.031970329000046
 20
813.46526599784647
 11
31.031970329000046
 21
20.199999999999989
  0
LINE
  8
_0-1_図面枠
  6
CONTINUOUS
 62
    7
 10
631.03197032900005
 20
813.46526599784647
 11
631.03197032900005
 21
20.199999999999989
  0
LINE
  8
_0-a_レイヤ9
  6
CONTINUOUS
 62
    7
 10
157.25332916070005
 20
629.8833558435465
 11
41.180846167560048
 21
629.8833558435465
  0
LINE
  8
_0-3_レイヤ2
  6
CONTINUOUS
 62
    3
 10
182.20816924780002
 20
593.91279284354653
 11
182.20816924780002
 21
592.91279284354653
  0
LINE
  8
_0-3_レイヤ2
  6
CONTINUOUS
 62
    3
 10
492.20816924780007
 20
593.91279284354653
 11
492.20816924780007
 21
592.91279284354653
  0
LINE
  8
_0-3_レイヤ2
  6
CONTINUOUS
 62
    3
 10
492.20816924780007
 20
593.91279284354653
 11
412.20816924780007
 21
593.91279284354653
  0
LINE
  8
_0-3_レイヤ2
  6
CONTINUOUS
 62
    3
 10
492.20816924780007
 20
592.91279284354653
 11
412.20816924780007
 21
592.91279284354653
  0
LINE
  8
_0-2_レイヤ1
  6
CONTINUOUS
 62
    3
 10
262.20816924780007
 20
492.91279284354653
 11
262.20816924780007
 21
592.91279284354653
  0
LINE
  8
_0-2_レイヤ1
  6
CONTINUOUS
 62
    3
 10
412.20816924780007
 20
592.91279284354653
 11
412.20816924780007
 21
492.91279284354653
  0
LINE
  8
_0-2_レイヤ1
  6
CONTINUOUS
 62
    3
 10
412.20816924780007
 20
592.91279284354653
 11
507.20816924780007
 21
592.91279284354653
  0
LINE
  8
_0-2_レイヤ1
  6
CONTINUOUS
 62
    3
 10
167.20816924780002
 20
592.91279284354653
 11
262.20816924780007
 21
592.91279284354653
  0
ARC
  8
_0-4_レイヤ3
  6
CONTINUOUS
 62
    3
 10
184.50816924780008
 20
596.41279284354653
 40
0.5
 50
180
 51
270
  0
LINE
  8
_0-4_レイヤ3
  6
CONTINUOUS
 62
    3
 10
206.90816924780006
 20
595.91279284354653
 11
184.50816924780008
 21
595.91279284354653
  0
LINE
  8
_0-4_レイヤ3
  6
CONTINUOUS
 62
    3
 10
183.70816924780002
 20
594.41279284354653
 11
197.20816924780002
 21
594.41279284354653
  0
LINE
  8
_0-4_レイヤ3
  6
CONTINUOUS
 62
    3
 10
197.20816924780002
 20
594.41279284354653
 11
197.20816924780002
 21
593.91279284354653
  0
LINE
  8
_0-4_レイヤ3
  6
CONTINUOUS
 62
    3
 10
217.20816924780002
 20
594.41279284354653
 11
217.20816924780002
 21
593.91279284354653
  0
LINE
  8
_0-4_レイヤ3
  6
CONTINUOUS
 62
    3
 10
207.20816924780002
 20
595.61279284354646
 11
206.90816924780006
 21
595.91279284354653
  0
LINE
  8
_0-4_レイヤ3
  6
CONTINUOUS
 62
    3
 10
197.20816924780002
 20
593.91279284354653
 11
217.20816924780002
 21
593.91279284354653
  0
LINE
  8
_0-4_レイヤ3
  6
CONTINUOUS
 62
    3
 10
207.20816924780002
 20
595.61279284354646
 11
207.50816924780008
 21
595.91279284354653
  0
LINE
  8
_0-4_レイヤ3
  6
CONTINUOUS
 62
    3
 10
275.70816924780007
 20
593.91279284354653
 11
276.70816924780007
 21
593.91279284354653
  0
ARC
  8
_0-4_レイヤ3
  6
CONTINUOUS
 62
    3
 10
276.70816924780007
 20
594.41279284354653
 40
0.5
 50
270
 51
0
  0
ARC
  8
_0-4_レイヤ3
  6
CONTINUOUS
 62
    3
 10
275.20816924780007
 20
596.41279284354653
 40
0.5
 50
270
 51
0
  0
LINE
  8
_0-4_レイヤ3
  6
CONTINUOUS
 62
    3
 10
275.70816924780007
 20
594.41279284354653
 11
275.70816924780007
 21
593.91279284354653
  0
LINE
  8
_0-4_レイヤ3
  6
CONTINUOUS
 62
    3
 10
259.70816924780007
 20
594.41279284354653
 11
275.70816924780007
 21
594.41279284354653
  0
LINE
  8
_0-4_レイヤ3
  6
CONTINUOUS
 62
    3
 10
258.20816924780007
 20
594.41279284354653
 11
258.20816924780007
 21
593.91279284354653
  0
LINE
  8
_0-4_レイヤ3
  6
CONTINUOUS
 62
    3
 10
259.70816924780007
 20
594.41279284354653
 11
259.70816924780007
 21
593.91279284354653
  0
LINE
  8
_0-4_レイヤ3
  6
CONTINUOUS
 62
    3
 10
258.20816924780007
 20
593.91279284354653
 11
259.70816924780007
 21
593.91279284354653
  0
LINE
  8
_0-4_レイヤ3
  6
CONTINUOUS
 62
    3
 10
207.50816924780008
 20
595.91279284354653
 11
275.20816924780007
 21
595.91279284354653
  0
LINE
  8
_0-4_レイヤ3
  6
CONTINUOUS
 62
    3
 10
233.20816924780002
 20
594.41279284354653
 11
233.20816924780002
 21
593.91279284354653
  0
LINE
  8
_0-4_レイヤ3
  6
CONTINUOUS
 62
    3
 10
234.70816924780002
 20
594.41279284354653
 11
234.70816924780002
 21
593.91279284354653
  0
LINE
  8
_0-4_レイヤ3
  6
CONTINUOUS
 62
    3
 10
233.20816924780002
 20
593.91279284354653
 11
234.70816924780002
 21
593.91279284354653
  0
LINE
  8
_0-4_レイヤ3
  6
CONTINUOUS
 62
    3
 10
217.20816924780002
 20
594.41279284354653
 11
233.20816924780002
 21
594.41279284354653
  0
LINE
  8
_0-4_レイヤ3
  6
CONTINUOUS
 62
    3
 10
234.70816924780002
 20
594.41279284354653
 11
258.20816924780007
 21
594.41279284354653
  0
LINE
  8
_0-4_レイヤ3
  6
CONTINUOUS
 62
    3
 10
182.20816924780002
 20
593.91279284354653
 11
183.70816924780002
 21
593.91279284354653
  0
LINE
  8
_0-4_レイヤ3
  6
CONTINUOUS
 62
    3
 10
183.70816924780002
 20
594.41279284354653
 11
183.70816924780002
 21
593.91279284354653
  0
ARC
  8
_0-4_レイヤ3
  6
CONTINUOUS
 62
    3
 10
489.90816924780006
 20
596.41279284354653
 40
0.5
 50
270
 51
0
  0
LINE
  8
_0-4_レイヤ3
  6
CONTINUOUS
 62
    3
 10
467.50816924780003
 20
595.91279284354653
 11
489.90816924780006
 21
595.91279284354653
  0
LINE
  8
_0-4_レイヤ3
  6
CONTINUOUS
 62
    3
 10
490.70816924780007
 20
594.41279284354653
 11
477.20816924780007
 21
594.41279284354653
  0
LINE
  8
_0-4_レイヤ3
  6
CONTINUOUS
 62
    3
 10
477.20816924780007
 20
594.41279284354653
 11
477.20816924780007
 21
593.91279284354653
  0
LINE
  8
_0-4_レイヤ3
  6
CONTINUOUS
 62
    3
 10
457.20816924780007
 20
594.41279284354653
 11
457.20816924780007
 21
593.91279284354653
  0
LINE
  8
_0-4_レイヤ3
  6
CONTINUOUS
 62
    3
 10
467.20816924780007
 20
595.61279284354646
 11
467.50816924780003
 21
595.91279284354653
  0
LINE
  8
_0-4_レイヤ3
  6
CONTINUOUS
 62
    3
 10
477.20816924780007
 20
593.91279284354653
 11
457.20816924780007
 21
593.91279284354653
  0
LINE
  8
_0-4_レイヤ3
  6
CONTINUOUS
 62
    3
 10
467.20816924780007
 20
595.61279284354646
 11
466.90816924780006
 21
595.91279284354653
  0
LINE
  8
_0-4_レイヤ3
  6
CONTINUOUS
 62
    3
 10
398.70816924780007
 20
593.91279284354653
 11
397.70816924780007
 21
593.91279284354653
  0
ARC
  8
_0-4_レイヤ3
  6
CONTINUOUS
 62
    3
 10
397.70816924780007
 20
594.41279284354653
 40
0.5
 50
180
 51
270
  0
ARC
  8
_0-4_レイヤ3
  6
CONTINUOUS
 62
    3
 10
399.20816924780007
 20
596.41279284354653
 40
0.5
 50
180
 51
270
  0
LINE
  8
_0-4_レイヤ3
  6
CONTINUOUS
 62
    3
 10
398.70816924780007
 20
594.41279284354653
 11
398.70816924780007
 21
593.91279284354653
  0
LINE
  8
_0-4_レイヤ3
  6
CONTINUOUS
 62
    3
 10
414.70816924780007
 20
594.41279284354653
 11
398.70816924780007
 21
594.41279284354653
  0
LINE
  8
_0-4_レイヤ3
  6
CONTINUOUS
 62
    3
 10
416.20816924780007
 20
594.41279284354653
 11
416.20816924780007
 21
593.91279284354653
  0
LINE
  8
_0-4_レイヤ3
  6
CONTINUOUS
 62
    3
 10
414.70816924780007
 20
594.41279284354653
 11
414.70816924780007
 21
593.91279284354653
  0
LINE
  8
_0-4_レイヤ3
  6
CONTINUOUS
 62
    3
 10
416.20816924780007
 20
593.91279284354653
 11
414.70816924780007
 21
593.91279284354653
  0
LINE
  8
_0-4_レイヤ3
  6
CONTINUOUS
 62
    3
 10
466.90816924780006
 20
595.91279284354653
 11
399.20816924780007
 21
595.91279284354653
  0
LINE
  8
_0-4_レイヤ3
  6
CONTINUOUS
 62
    3
 10
441.20816924780007
 20
594.41279284354653
 11
441.20816924780007
 21
593.91279284354653
  0
LINE
  8
_0-4_レイヤ3
  6
CONTINUOUS
 62
    3
 10
439.70816924780007
 20
594.41279284354653
 11
439.70816924780007
 21
593.91279284354653
  0
LINE
  8
_0-4_レイヤ3
  6
CONTINUOUS
 62
    3
 10
441.20816924780007
 20
593.91279284354653
 11
439.70816924780007
 21
593.91279284354653
  0
LINE
  8
_0-4_レイヤ3
  6
CONTINUOUS
 62
    3
 10
457.20816924780007
 20
594.41279284354653
 11
441.20816924780007
 21
594.41279284354653
  0
LINE
  8
_0-4_レイヤ3
  6
CONTINUOUS
 62
    3
 10
439.70816924780007
 20
594.41279284354653
 11
416.20816924780007
 21
594.41279284354653
  0
LINE
  8
_0-4_レイヤ3
  6
CONTINUOUS
 62
    3
 10
492.20816924780007
 20
593.91279284354653
 11
490.70816924780007
 21
593.91279284354653
  0
LINE
  8
_0-4_レイヤ3
  6
CONTINUOUS
 62
    3
 10
490.70816924780007
 20
594.41279284354653
 11
490.70816924780007
 21
593.91279284354653
  0
LINE
  8
_0-2_レイヤ1
  6
HIDDEN
 62
    3
 10
507.20816924780007
 20
592.91279284354653
 11
507.20816924780007
 21
492.91279284354653
  0
LINE
  8
_0-2_レイヤ1
  6
HIDDEN
 62
    3
 10
167.20816924780002
 20
592.91279284354653
 11
167.20816924780002
 21
492.91279284354653
  0
LINE
  8
_0-7_レイヤ6
  6
CONTINUOUS
 62
    3
 10
213.52677024780007
 20
577.77039384354646
 11
214.51912524780005
 21
584.57401584354648
  0
ARC
  8
_0-7_レイヤ6
  6
CONTINUOUS
 62
    3
 10
214.12331324780007
 20
584.63174784354646
 40
0.4
 50
351.701533999996
 51
81.869898000009997
  0
LINE
  8
_0-7_レイヤ6
  6
CONTINUOUS
 62
    3
 10
214.17988224780004
 20
585.02772784354647
 11
213.98305724780005
 21
585.05584584354642
  0
ARC
  8
_0-7_レイヤ6
  6
CONTINUOUS
 62
    3
 10
213.92648924780008
 20
584.65986584354653
 40
0.4
 50
81.869898000009982
 51
171.86989800000001
  0
LINE
  8
_0-7_レイヤ6
  6
CONTINUOUS
 62
    3
 10
213.53050924780007
 20
584.71643484354649
 11
212.58707724780004
 21
578.11241384354651
  0
LINE
  8
_0-7_レイヤ6
  6
CONTINUOUS
 62
    3
 10
213.52677024780007
 20
577.77039384354646
 11
214.51912524780005
 21
584.57401584354648
  0
ARC
  8
_0-7_レイヤ6
  6
CONTINUOUS
 62
    3
 10
214.12331324780007
 20
584.63174784354646
 40
0.4
 50
351.701533999996
 51
81.869898000009997
  0
LINE
  8
_0-7_レイヤ6
  6
CONTINUOUS
 62
    3
 10
214.17988224780004
 20
585.02772784354647
 11
213.98305724780005
 21
585.05584584354642
  0
ARC
  8
_0-7_レイヤ6
  6
CONTINUOUS
 62
    3
 10
213.92648924780008
 20
584.65986584354653
 40
0.4
 50
81.869898000009982
 51
171.86989800000001
  0
LINE
  8
_0-7_レイヤ6
  6
CONTINUOUS
 62
    3
 10
213.53050924780007
 20
584.71643484354649
 11
212.58707724780004
 21
578.11241384354651
  0
LINE
  8
_0-7_レイヤ6
  6
CONTINUOUS
 62
    3
 10
200.88956824780007
 20
577.77039384354646
 11
199.89721324780004
 21
584.57401584354648
  0
ARC
  8
_0-7_レイヤ6
  6
CONTINUOUS
 62
    3
 10
200.29302524780007
 20
584.63174784354646
 40
0.4
 50
98.130102000009998
 51
188.29846599999999
  0
LINE
  8
_0-7_レイヤ6
  6
CONTINUOUS
 62
    3
 10
200.23645624780005
 20
585.02772784354647
 11
200.43328124780004
 21
585.05584584354642
  0
ARC
  8
_0-7_レイヤ6
  6
CONTINUOUS
 62
    3
 10
200.48985024780006
 20
584.65986584354653
 40
0.4
 50
8.130101999991
 51
98.130102000010012
  0
LINE
  8
_0-7_レイヤ6
  6
CONTINUOUS
 62
    3
 10
200.88582924780007
 20
584.71643484354649
 11
201.82926124780005
 21
578.11241384354651
  0
LINE
  8
_0-7_レイヤ6
  6
CONTINUOUS
 62
    3
 10
203.20816924780002
 20
580.91279284354653
 11
203.20816924780002
 21
584.91279284354653
  0
LINE
  8
_0-7_レイヤ6
  6
CONTINUOUS
 62
    3
 10
205.19042624780002
 20
555.95253684354645
 11
201.69522324780007
 21
556.13571184354646
  0
LINE
  8
_0-7_レイヤ6
  6
CONTINUOUS
 62
    3
 10
201.69522324780007
 20
556.13571184354646
 11
203.58781024780001
 21
554.03378084354642
  0
LINE
  8
_0-7_レイヤ6
  6
CONTINUOUS
 62
    3
 10
203.58781024780001
 20
554.03378084354642
 11
205.08575424780008
 21
553.95527684354647
  0
LINE
  8
_0-7_レイヤ6
  6
CONTINUOUS
 62
    3
 10
205.08575424780008
 20
553.95527684354647
 11
206.70816924780002
 21
584.91279284354653
  0
LINE
  8
_0-7_レイヤ6
  6
CONTINUOUS
 62
    3
 10
211.20816924780002
 20
580.91279284354653
 11
211.20816924780002
 21
584.91279284354653
  0
LINE
  8
_0-7_レイヤ6
  6
CONTINUOUS
 62
    3
 10
209.22591224780001
 20
555.95253684354645
 11
212.72111524780007
 21
556.13571184354646
  0
LINE
  8
_0-7_レイヤ6
  6
CONTINUOUS
 62
    3
 10
212.72111524780007
 20
556.13571184354646
 11
210.82852824780002
 21
554.03378084354642
  0
LINE
  8
_0-7_レイヤ6
  6
CONTINUOUS
 62
    3
 10
210.82852824780002
 20
554.03378084354642
 11
209.33058424780006
 21
553.95527684354647
  0
LINE
  8
_0-7_レイヤ6
  6
CONTINUOUS
 62
    3
 10
209.33058424780006
 20
553.95527684354647
 11
207.70816924780002
 21
584.91279284354653
  0
LINE
  8
_0-7_レイヤ6
  6
CONTINUOUS
 62
    3
 10
203.64911224780008
 20
573.11241384354651
 11
201.82926124780005
 21
578.11241384354651
  0
LINE
  8
_0-7_レイヤ6
  6
CONTINUOUS
 62
    3
 10
202.58493424780005
 20
573.11241384354651
 11
200.88956824780007
 21
577.77039384354646
  0
LINE
  8
_0-7_レイヤ6
  6
CONTINUOUS
 62
    3
 10
210.76722624780007
 20
573.11241384354651
 11
212.58707724780004
 21
578.11241384354651
  0
LINE
  8
_0-7_レイヤ6
  6
CONTINUOUS
 62
    3
 10
211.83140424780004
 20
573.11241384354651
 11
213.52677024780007
 21
577.77039384354646
  0
LINE
  8
_0-7_レイヤ6
  6
CONTINUOUS
 62
    3
 10
203.20816924780002
 20
580.91279284354653
 11
204.94854524780004
 21
579.99814884354646
  0
LINE
  8
_0-7_レイヤ6
  6
CONTINUOUS
 62
    3
 10
205.33872524780008
 20
558.78223684354646
 11
207.20816924780002
 21
556.91279284354653
  0
LINE
  8
_0-7_レイヤ6
  6
CONTINUOUS
 62
    3
 10
204.94854524780004
 20
579.99814884354646
 11
204.84387324780005
 21
578.00088984354647
  0
LINE
  8
_0-7_レイヤ6
  6
CONTINUOUS
 62
    3
 10
204.84387324780005
 20
578.00088984354647
 11
202.84661424780006
 21
578.10556184354652
  0
LINE
  8
_0-7_レイヤ6
  6
CONTINUOUS
 62
    3
 10
202.84661424780006
 20
578.10556184354652
 11
202.74194224780001
 21
576.10830284354643
  0
LINE
  8
_0-7_レイヤ6
  6
CONTINUOUS
 62
    3
 10
202.74194224780001
 20
576.10830284354643
 11
204.68686524780003
 21
575.00500184354644
  0
LINE
  8
_0-7_レイヤ6
  6
CONTINUOUS
 62
    3
 10
204.68686524780003
 20
575.00500184354644
 11
204.58219324780003
 21
573.00774284354645
  0
LINE
  8
_0-7_レイヤ6
  6
CONTINUOUS
 62
    3
 10
204.58219324780003
 20
573.00774284354645
 11
202.58493424780005
 21
573.11241384354651
  0
LINE
  8
_0-7_レイヤ6
  6
CONTINUOUS
 62
    3
 10
202.58493424780005
 20
573.11241384354651
 11
202.48026224780006
 21
571.11515484354652
  0
LINE
  8
_0-7_レイヤ6
  6
CONTINUOUS
 62
    3
 10
202.48026224780006
 20
571.11515484354652
 11
204.42518524780007
 21
570.01185384354642
  0
LINE
  8
_0-7_レイヤ6
  6
CONTINUOUS
 62
    3
 10
204.42518524780007
 20
570.01185384354642
 11
204.32051324780002
 21
568.01459484354643
  0
LINE
  8
_0-7_レイヤ6
  6
CONTINUOUS
 62
    3
 10
204.32051324780002
 20
568.01459484354643
 11
202.32325424780004
 21
568.11926684354648
  0
LINE
  8
_0-7_レイヤ6
  6
CONTINUOUS
 62
    3
 10
202.32325424780004
 20
568.11926684354648
 11
202.21858224780004
 21
566.1220078435465
  0
LINE
  8
_0-7_レイヤ6
  6
CONTINUOUS
 62
    3
 10
202.21858224780004
 20
566.1220078435465
 11
204.16350624780006
 21
565.01870584354651
  0
LINE
  8
_0-7_レイヤ6
  6
CONTINUOUS
 62
    3
 10
204.16350624780006
 20
565.01870584354651
 11
204.05883424780006
 21
563.02144684354653
  0
LINE
  8
_0-7_レイヤ6
  6
CONTINUOUS
 62
    3
 10
204.05883424780006
 20
563.02144684354653
 11
202.06157524780008
 21
563.12611884354646
  0
LINE
  8
_0-7_レイヤ6
  6
CONTINUOUS
 62
    3
 10
202.06157524780008
 20
563.12611884354646
 11
201.95690324780003
 21
561.12885984354648
  0
LINE
  8
_0-7_レイヤ6
  6
CONTINUOUS
 62
    3
 10
201.95690324780003
 20
561.12885984354648
 11
203.90182624780005
 21
560.02555884354649
  0
LINE
  8
_0-7_レイヤ6
  6
CONTINUOUS
 62
    3
 10
203.90182624780005
 20
560.02555884354649
 11
203.79715424780005
 21
558.02829984354651
  0
LINE
  8
_0-7_レイヤ6
  6
CONTINUOUS
 62
    3
 10
203.79715424780005
 20
558.02829984354651
 11
201.79989524780001
 21
558.13297084354645
  0
LINE
  8
_0-7_レイヤ6
  6
CONTINUOUS
 62
    3
 10
201.79989524780001
 20
558.13297084354645
 11
201.69522324780007
 21
556.13571184354646
  0
LINE
  8
_0-7_レイヤ6
  6
CONTINUOUS
 62
    3
 10
211.20816924780002
 20
580.91279284354653
 11
209.46779324780005
 21
579.99814884354646
  0
LINE
  8
_0-7_レイヤ6
  6
CONTINUOUS
 62
    3
 10
209.46779324780005
 20
579.99814884354646
 11
209.57246524780004
 21
578.00088984354647
  0
LINE
  8
_0-7_レイヤ6
  6
CONTINUOUS
 62
    3
 10
209.57246524780004
 20
578.00088984354647
 11
211.56972424780008
 21
578.10556184354652
  0
LINE
  8
_0-7_レイヤ6
  6
CONTINUOUS
 62
    3
 10
211.56972424780008
 20
578.10556184354652
 11
211.67439624780002
 21
576.10830284354643
  0
LINE
  8
_0-7_レイヤ6
  6
CONTINUOUS
 62
    3
 10
211.67439624780002
 20
576.10830284354643
 11
209.72947324780006
 21
575.00500184354644
  0
LINE
  8
_0-7_レイヤ6
  6
CONTINUOUS
 62
    3
 10
209.72947324780006
 20
575.00500184354644
 11
209.83414524780005
 21
573.00774284354645
  0
LINE
  8
_0-7_レイヤ6
  6
CONTINUOUS
 62
    3
 10
209.83414524780005
 20
573.00774284354645
 11
211.83140424780004
 21
573.11241384354651
  0
LINE
  8
_0-7_レイヤ6
  6
CONTINUOUS
 62
    3
 10
211.83140424780004
 20
573.11241384354651
 11
211.93607624780009
 21
571.11515484354652
  0
LINE
  8
_0-7_レイヤ6
  6
CONTINUOUS
 62
    3
 10
211.93607624780009
 20
571.11515484354652
 11
209.99115324780007
 21
570.01185384354642
  0
LINE
  8
_0-7_レイヤ6
  6
CONTINUOUS
 62
    3
 10
209.99115324780007
 20
570.01185384354642
 11
210.09582524780001
 21
568.01459484354643
  0
LINE
  8
_0-7_レイヤ6
  6
CONTINUOUS
 62
    3
 10
210.09582524780001
 20
568.01459484354643
 11
212.09308424780005
 21
568.11926684354648
  0
LINE
  8
_0-7_レイヤ6
  6
CONTINUOUS
 62
    3
 10
212.09308424780005
 20
568.11926684354648
 11
212.19775624780004
 21
566.1220078435465
  0
LINE
  8
_0-7_レイヤ6
  6
CONTINUOUS
 62
    3
 10
212.19775624780004
 20
566.1220078435465
 11
210.25283224780003
 21
565.01870584354651
  0
LINE
  8
_0-7_レイヤ6
  6
CONTINUOUS
 62
    3
 10
210.25283224780003
 20
565.01870584354651
 11
210.35750424780008
 21
563.02144684354653
  0
LINE
  8
_0-7_レイヤ6
  6
CONTINUOUS
 62
    3
 10
210.35750424780008
 20
563.02144684354653
 11
212.35476324780007
 21
563.12611884354646
  0
LINE
  8
_0-7_レイヤ6
  6
CONTINUOUS
 62
    3
 10
212.35476324780007
 20
563.12611884354646
 11
212.45943524780006
 21
561.12885984354648
  0
LINE
  8
_0-7_レイヤ6
  6
CONTINUOUS
 62
    3
 10
212.45943524780006
 20
561.12885984354648
 11
210.51451224780004
 21
560.02555884354649
  0
LINE
  8
_0-7_レイヤ6
  6
CONTINUOUS
 62
    3
 10
210.51451224780004
 20
560.02555884354649
 11
210.61918424780004
 21
558.02829984354651
  0
LINE
  8
_0-7_レイヤ6
  6
CONTINUOUS
 62
    3
 10
210.61918424780004
 20
558.02829984354651
 11
212.61644324780002
 21
558.13297084354645
  0
LINE
  8
_0-7_レイヤ6
  6
CONTINUOUS
 62
    3
 10
212.61644324780002
 20
558.13297084354645
 11
212.72111524780007
 21
556.13571184354646
  0
LINE
  8
_0-7_レイヤ6
  6
CONTINUOUS
 62
    3
 10
206.70816924780002
 20
584.91279284354653
 11
207.20816924780002
 21
584.91279284354653
  0
LINE
  8
_0-7_レイヤ6
  6
CONTINUOUS
 62
    3
 10
207.70816924780002
 20
584.91279284354653
 11
207.20816924780002
 21
584.91279284354653
  0
LINE
  8
_0-7_レイヤ6
  6
CONTINUOUS
 62
    3
 10
203.20816924780002
 20
592.91279284354653
 11
203.20816924780002
 21
584.91279284354653
  0
LINE
  8
_0-7_レイヤ6
  6
CONTINUOUS
 62
    3
 10
202.20816924780002
 20
592.91279284354653
 11
203.20816924780002
 21
587.91279284354653
  0
LINE
  8
_0-7_レイヤ6
  6
CONTINUOUS
 62
    3
 10
206.20816924780002
 20
592.91279284354653
 11
207.20816924780002
 21
587.91279284354653
  0
LINE
  8
_0-7_レイヤ6
  6
CONTINUOUS
 62
    3
 10
208.20816924780002
 20
592.91279284354653
 11
207.20816924780002
 21
587.91279284354653
  0
LINE
  8
_0-7_レイヤ6
  6
CONTINUOUS
 62
    3
 10
207.20816924780002
 20
587.91279284354653
 11
207.20816924780002
 21
592.91279284354653
  0
LINE
  8
_0-7_レイヤ6
  6
CONTINUOUS
 62
    3
 10
211.20816924780002
 20
592.91279284354653
 11
211.20816924780002
 21
584.91279284354653
  0
LINE
  8
_0-7_レイヤ6
  6
CONTINUOUS
 62
    3
 10
212.20816924780002
 20
592.91279284354653
 11
211.20816924780002
 21
587.91279284354653
  0
LINE
  8
_0-7_レイヤ6
  6
CONTINUOUS
 62
    3
 10
209.07761324780006
 20
558.78223684354646
 11
207.20816924780002
 21
556.91279284354653
  0
LINE
  8
_0-7_レイヤ6
  6
CONTINUOUS
 62
    3
 10
202.20816924780002
 20
592.91279284354653
 11
212.20816924780002
 21
592.91279284354653
  0
LINE
  8
_0-7_レイヤ6
  6
CONTINUOUS
 62
    3
 10
202.83603424780006
 20
598.87429184354642
 11
202.70816924780002
 21
597.41279284354653
  0
LINE
  8
_0-7_レイヤ6
  6
CONTINUOUS
 62
    3
 10
211.58030424780009
 20
598.87429184354642
 11
211.70816924780002
 21
597.41279284354653
  0
LINE
  8
_0-7_レイヤ6
  6
CONTINUOUS
 62
    3
 10
198.20816924780002
 20
597.41279284354653
 11
198.20816924780002
 21
595.91279284354653
  0
LINE
  8
_0-7_レイヤ6
  6
CONTINUOUS
 62
    3
 10
198.20816924780002
 20
597.41279284354653
 11
216.20816924780002
 21
597.41279284354653
  0
LINE
  8
_0-7_レイヤ6
  6
CONTINUOUS
 62
    3
 10
216.20816924780002
 20
597.41279284354653
 11
216.20816924780002
 21
595.91279284354653
  0
LINE
  8
_0-7_レイヤ6
  6
CONTINUOUS
 62
    3
 10
198.20816924780002
 20
595.91279284354653
 11
216.20816924780002
 21
595.91279284354653
  0
LINE
  8
_0-2_レイヤ1
  6
HIDDEN
 62
    3
 10
167.20816924780002
 20
492.91279284354653
 11
262.20816924780007
 21
492.91279284354653
  0
LINE
  8
_0-2_レイヤ1
  6
HIDDEN
 62
    3
 10
412.20816924780007
 20
492.91279284354653
 11
507.20816924780007
 21
492.91279284354653
  0
ARC
  8
_0-7_レイヤ6
  6
CONTINUOUS
 62
    3
 10
188.20351728600008
 20
612.02945984354642
 40
6.0833329999999997
 50
53.831358000000002
 51
126.16864200000002
  0
ARC
  8
_0-7_レイヤ6
  6
CONTINUOUS
 62
    3
 10
191.20351728600008
 20
616.13314984354645
 40
1
 50
0
 51
53.831358000000002
  0
ARC
  8
_0-7_レイヤ6
  6
CONTINUOUS
 62
    3
 10
185.20351728600008
 20
616.13314984354645
 40
1
 50
126.16864200000002
 51
180
  0
LINE
  8
_0-7_レイヤ6
  6
CONTINUOUS
 62
    3
 10
184.20351728600008
 20
616.13314984354645
 11
184.20351728600008
 21
615.11279284354646
  0
LINE
  8
_0-7_レイヤ6
  6
CONTINUOUS
 62
    3
 10
183.90523728600004
 20
615.11280084354644
 11
192.50160028600004
 21
615.11293884354643
  0
LINE
  8
_0-7_レイヤ6
  6
CONTINUOUS
 62
    3
 10
192.20351728600008
 20
616.13314984354645
 11
192.20351728600008
 21
615.11279284354646
  0
LINE
  8
_0-7_レイヤ6
  6
CONTINUOUS
 62
    3
 10
460.88956824780007
 20
577.77039384354646
 11
459.89721324780004
 21
584.57401584354648
  0
ARC
  8
_0-7_レイヤ6
  6
CONTINUOUS
 62
    3
 10
460.29302524780007
 20
584.63174784354646
 40
0.4
 50
98.130101999990003
 51
188.29846599999999
  0
LINE
  8
_0-7_レイヤ6
  6
CONTINUOUS
 62
    3
 10
460.23645624780005
 20
585.02772784354647
 11
460.43328124780004
 21
585.05584584354642
  0
ARC
  8
_0-7_レイヤ6
  6
CONTINUOUS
 62
    3
 10
460.48984924780007
 20
584.65986584354653
 40
0.4
 50
8.130101999991
 51
98.130101999990018
  0
LINE
  8
_0-7_レイヤ6
  6
CONTINUOUS
 62
    3
 10
460.88582924780002
 20
584.71643484354649
 11
461.82926124780005
 21
578.11241384354651
  0
LINE
  8
_0-7_レイヤ6
  6
CONTINUOUS
 62
    3
 10
460.88956824780007
 20
577.77039384354646
 11
459.89721324780004
 21
584.57401584354648
  0
ARC
  8
_0-7_レイヤ6
  6
CONTINUOUS
 62
    3
 10
460.29302524780007
 20
584.63174784354646
 40
0.4
 50
98.130101999990003
 51
188.29846599999999
  0
LINE
  8
_0-7_レイヤ6
  6
CONTINUOUS
 62
    3
 10
460.23645624780005
 20
585.02772784354647
 11
460.43328124780004
 21
585.05584584354642
  0
ARC
  8
_0-7_レイヤ6
  6
CONTINUOUS
 62
    3
 10
460.48984924780007
 20
584.65986584354653
 40
0.4
 50
8.130101999991
 51
98.130101999990018
  0
LINE
  8
_0-7_レイヤ6
  6
CONTINUOUS
 62
    3
 10
460.88582924780002
 20
584.71643484354649
 11
461.82926124780005
 21
578.11241384354651
  0
LINE
  8
_0-7_レイヤ6
  6
CONTINUOUS
 62
    3
 10
473.52677024780007
 20
577.77039384354646
 11
474.51912524780005
 21
584.57401584354648
  0
ARC
  8
_0-7_レイヤ6
  6
CONTINUOUS
 62
    3
 10
474.12331324780007
 20
584.63174784354646
 40
0.4
 50
351.701533999996
 51
81.869897999990002
  0
LINE
  8
_0-7_レイヤ6
  6
CONTINUOUS
 62
    3
 10
474.17988224780004
 20
585.02772784354647
 11
473.98305724780005
 21
585.05584584354642
  0
ARC
  8
_0-7_レイヤ6
  6
CONTINUOUS
 62
    3
 10
473.92648824780002
 20
584.65986584354653
 40
0.4
 50
81.869897999990002
 51
171.86989800000001
  0
LINE
  8
_0-7_レイヤ6
  6
CONTINUOUS
 62
    3
 10
473.53050924780007
 20
584.71643484354649
 11
472.58707724780004
 21
578.11241384354651
  0
LINE
  8
_0-7_レイヤ6
  6
CONTINUOUS
 62
    3
 10
471.20816924780007
 20
580.91279284354653
 11
471.20816924780007
 21
584.91279284354653
  0
LINE
  8
_0-7_レイヤ6
  6
CONTINUOUS
 62
    3
 10
469.22591224780007
 20
555.95253684354645
 11
472.72111524780007
 21
556.13571184354646
  0
LINE
  8
_0-7_レイヤ6
  6
CONTINUOUS
 62
    3
 10
472.72111524780007
 20
556.13571184354646
 11
470.82852824780002
 21
554.03378084354642
  0
LINE
  8
_0-7_レイヤ6
  6
CONTINUOUS
 62
    3
 10
470.82852824780002
 20
554.03378084354642
 11
469.33058424780006
 21
553.95527684354647
  0
LINE
  8
_0-7_レイヤ6
  6
CONTINUOUS
 62
    3
 10
469.33058424780006
 20
553.95527684354647
 11
467.70816924780007
 21
584.91279284354653
  0
LINE
  8
_0-7_レイヤ6
  6
CONTINUOUS
 62
    3
 10
463.20816924780007
 20
580.91279284354653
 11
463.20816924780007
 21
584.91279284354653
  0
LINE
  8
_0-7_レイヤ6
  6
CONTINUOUS
 62
    3
 10
465.19042624780002
 20
555.95253684354645
 11
461.69522324780007
 21
556.13571184354646
  0
LINE
  8
_0-7_レイヤ6
  6
CONTINUOUS
 62
    3
 10
461.69522324780007
 20
556.13571184354646
 11
463.58781024780006
 21
554.03378084354642
  0
LINE
  8
_0-7_レイヤ6
  6
CONTINUOUS
 62
    3
 10
463.58781024780006
 20
554.03378084354642
 11
465.08575424780003
 21
553.95527684354647
  0
LINE
  8
_0-7_レイヤ6
  6
CONTINUOUS
 62
    3
 10
465.08575424780003
 20
553.95527684354647
 11
466.70816924780007
 21
584.91279284354653
  0
LINE
  8
_0-7_レイヤ6
  6
CONTINUOUS
 62
    3
 10
470.76722624780007
 20
573.11241384354651
 11
472.58707724780004
 21
578.11241384354651
  0
LINE
  8
_0-7_レイヤ6
  6
CONTINUOUS
 62
    3
 10
471.83140424780004
 20
573.11241384354651
 11
473.52677024780007
 21
577.77039384354646
  0
LINE
  8
_0-7_レイヤ6
  6
CONTINUOUS
 62
    3
 10
463.64911224780002
 20
573.11241384354651
 11
461.82926124780005
 21
578.11241384354651
  0
LINE
  8
_0-7_レイヤ6
  6
CONTINUOUS
 62
    3
 10
462.58493424780005
 20
573.11241384354651
 11
460.88956824780007
 21
577.77039384354646
  0
LINE
  8
_0-7_レイヤ6
  6
CONTINUOUS
 62
    3
 10
471.20816924780007
 20
580.91279284354653
 11
469.46779324780005
 21
579.99814884354646
  0
LINE
  8
_0-7_レイヤ6
  6
CONTINUOUS
 62
    3
 10
469.07761324780006
 20
558.78223684354646
 11
467.20816924780007
 21
556.91279284354653
  0
LINE
  8
_0-7_レイヤ6
  6
CONTINUOUS
 62
    3
 10
469.46779324780005
 20
579.99814884354646
 11
469.57246524780004
 21
578.00088984354647
  0
LINE
  8
_0-7_レイヤ6
  6
CONTINUOUS
 62
    3
 10
469.57246524780004
 20
578.00088984354647
 11
471.56972424780002
 21
578.10556184354652
  0
LINE
  8
_0-7_レイヤ6
  6
CONTINUOUS
 62
    3
 10
471.56972424780002
 20
578.10556184354652
 11
471.67439624780002
 21
576.10830284354643
  0
LINE
  8
_0-7_レイヤ6
  6
CONTINUOUS
 62
    3
 10
471.67439624780002
 20
576.10830284354643
 11
469.72947324780006
 21
575.00500184354644
  0
LINE
  8
_0-7_レイヤ6
  6
CONTINUOUS
 62
    3
 10
469.72947324780006
 20
575.00500184354644
 11
469.83414524780005
 21
573.00774284354645
  0
LINE
  8
_0-7_レイヤ6
  6
CONTINUOUS
 62
    3
 10
469.83414524780005
 20
573.00774284354645
 11
471.83140424780004
 21
573.11241384354651
  0
LINE
  8
_0-7_レイヤ6
  6
CONTINUOUS
 62
    3
 10
471.83140424780004
 20
573.11241384354651
 11
471.93607624780003
 21
571.11515484354652
  0
LINE
  8
_0-7_レイヤ6
  6
CONTINUOUS
 62
    3
 10
471.93607624780003
 20
571.11515484354652
 11
469.99115324780007
 21
570.01185384354642
  0
LINE
  8
_0-7_レイヤ6
  6
CONTINUOUS
 62
    3
 10
469.99115324780007
 20
570.01185384354642
 11
470.09582524780006
 21
568.01459484354643
  0
LINE
  8
_0-7_レイヤ6
  6
CONTINUOUS
 62
    3
 10
470.09582524780006
 20
568.01459484354643
 11
472.09308424780005
 21
568.11926684354648
  0
LINE
  8
_0-7_レイヤ6
  6
CONTINUOUS
 62
    3
 10
472.09308424780005
 20
568.11926684354648
 11
472.19775624780004
 21
566.1220078435465
  0
LINE
  8
_0-7_レイヤ6
  6
CONTINUOUS
 62
    3
 10
472.19775624780004
 20
566.1220078435465
 11
470.25283224780003
 21
565.01870584354651
  0
LINE
  8
_0-7_レイヤ6
  6
CONTINUOUS
 62
    3
 10
470.25283224780003
 20
565.01870584354651
 11
470.35750424780002
 21
563.02144684354653
  0
LINE
  8
_0-7_レイヤ6
  6
CONTINUOUS
 62
    3
 10
470.35750424780002
 20
563.02144684354653
 11
472.35476324780007
 21
563.12611884354646
  0
LINE
  8
_0-7_レイヤ6
  6
CONTINUOUS
 62
    3
 10
472.35476324780007
 20
563.12611884354646
 11
472.45943524780006
 21
561.12885984354648
  0
LINE
  8
_0-7_レイヤ6
  6
CONTINUOUS
 62
    3
 10
472.45943524780006
 20
561.12885984354648
 11
470.51451224780004
 21
560.02555884354649
  0
LINE
  8
_0-7_レイヤ6
  6
CONTINUOUS
 62
    3
 10
470.51451224780004
 20
560.02555884354649
 11
470.61918424780004
 21
558.02829984354651
  0
LINE
  8
_0-7_レイヤ6
  6
CONTINUOUS
 62
    3
 10
470.61918424780004
 20
558.02829984354651
 11
472.61644324780002
 21
558.13297084354645
  0
LINE
  8
_0-7_レイヤ6
  6
CONTINUOUS
 62
    3
 10
472.61644324780002
 20
558.13297084354645
 11
472.72111524780007
 21
556.13571184354646
  0
LINE
  8
_0-7_レイヤ6
  6
CONTINUOUS
 62
    3
 10
463.20816924780007
 20
580.91279284354653
 11
464.94854524780004
 21
579.99814884354646
  0
LINE
  8
_0-7_レイヤ6
  6
CONTINUOUS
 62
    3
 10
464.94854524780004
 20
579.99814884354646
 11
464.84387324780005
 21
578.00088984354647
  0
LINE
  8
_0-7_レイヤ6
  6
CONTINUOUS
 62
    3
 10
464.84387324780005
 20
578.00088984354647
 11
462.84661424780006
 21
578.10556184354652
  0
LINE
  8
_0-7_レイヤ6
  6
CONTINUOUS
 62
    3
 10
462.84661424780006
 20
578.10556184354652
 11
462.74194224780007
 21
576.10830284354643
  0
LINE
  8
_0-7_レイヤ6
  6
CONTINUOUS
 62
    3
 10
462.74194224780007
 20
576.10830284354643
 11
464.68686524780003
 21
575.00500184354644
  0
LINE
  8
_0-7_レイヤ6
  6
CONTINUOUS
 62
    3
 10
464.68686524780003
 20
575.00500184354644
 11
464.58219324780003
 21
573.00774284354645
  0
LINE
  8
_0-7_レイヤ6
  6
CONTINUOUS
 62
    3
 10
464.58219324780003
 20
573.00774284354645
 11
462.58493424780005
 21
573.11241384354651
  0
LINE
  8
_0-7_レイヤ6
  6
CONTINUOUS
 62
    3
 10
462.58493424780005
 20
573.11241384354651
 11
462.48026224780006
 21
571.11515484354652
  0
LINE
  8
_0-7_レイヤ6
  6
CONTINUOUS
 62
    3
 10
462.48026224780006
 20
571.11515484354652
 11
464.42518524780007
 21
570.01185384354642
  0
LINE
  8
_0-7_レイヤ6
  6
CONTINUOUS
 62
    3
 10
464.42518524780007
 20
570.01185384354642
 11
464.32051324780002
 21
568.01459484354643
  0
LINE
  8
_0-7_レイヤ6
  6
CONTINUOUS
 62
    3
 10
464.32051324780002
 20
568.01459484354643
 11
462.32325424780004
 21
568.11926684354648
  0
LINE
  8
_0-7_レイヤ6
  6
CONTINUOUS
 62
    3
 10
462.32325424780004
 20
568.11926684354648
 11
462.21858224780004
 21
566.1220078435465
  0
LINE
  8
_0-7_レイヤ6
  6
CONTINUOUS
 62
    3
 10
462.21858224780004
 20
566.1220078435465
 11
464.16350624780006
 21
565.01870584354651
  0
LINE
  8
_0-7_レイヤ6
  6
CONTINUOUS
 62
    3
 10
464.16350624780006
 20
565.01870584354651
 11
464.05883424780006
 21
563.02144684354653
  0
LINE
  8
_0-7_レイヤ6
  6
CONTINUOUS
 62
    3
 10
464.05883424780006
 20
563.02144684354653
 11
462.06157524780002
 21
563.12611884354646
  0
LINE
  8
_0-7_レイヤ6
  6
CONTINUOUS
 62
    3
 10
462.06157524780002
 20
563.12611884354646
 11
461.95690324780003
 21
561.12885984354648
  0
LINE
  8
_0-7_レイヤ6
  6
CONTINUOUS
 62
    3
 10
461.95690324780003
 20
561.12885984354648
 11
463.90182624780005
 21
560.02555884354649
  0
LINE
  8
_0-7_レイヤ6
  6
CONTINUOUS
 62
    3
 10
463.90182624780005
 20
560.02555884354649
 11
463.79715424780005
 21
558.02829984354651
  0
LINE
  8
_0-7_レイヤ6
  6
CONTINUOUS
 62
    3
 10
463.79715424780005
 20
558.02829984354651
 11
461.79989524780007
 21
558.13297084354645
  0
LINE
  8
_0-7_レイヤ6
  6
CONTINUOUS
 62
    3
 10
461.79989524780007
 20
558.13297084354645
 11
461.69522324780007
 21
556.13571184354646
  0
LINE
  8
_0-7_レイヤ6
  6
CONTINUOUS
 62
    3
 10
467.70816924780007
 20
584.91279284354653
 11
467.20816924780007
 21
584.91279284354653
  0
LINE
  8
_0-7_レイヤ6
  6
CONTINUOUS
 62
    3
 10
466.70816924780007
 20
584.91279284354653
 11
467.20816924780007
 21
584.91279284354653
  0
LINE
  8
_0-7_レイヤ6
  6
CONTINUOUS
 62
    3
 10
471.20816924780007
 20
592.91279284354653
 11
471.20816924780007
 21
584.91279284354653
  0
LINE
  8
_0-7_レイヤ6
  6
CONTINUOUS
 62
    3
 10
472.20816924780007
 20
592.91279284354653
 11
471.20816924780007
 21
587.91279284354653
  0
LINE
  8
_0-7_レイヤ6
  6
CONTINUOUS
 62
    3
 10
468.20816924780007
 20
592.91279284354653
 11
467.20816924780007
 21
587.91279284354653
  0
LINE
  8
_0-7_レイヤ6
  6
CONTINUOUS
 62
    3
 10
466.20816924780007
 20
592.91279284354653
 11
467.20816924780007
 21
587.91279284354653
  0
LINE
  8
_0-7_レイヤ6
  6
CONTINUOUS
 62
    3
 10
467.20816924780007
 20
587.91279284354653
 11
467.20816924780007
 21
592.91279284354653
  0
LINE
  8
_0-7_レイヤ6
  6
CONTINUOUS
 62
    3
 10
463.20816924780007
 20
592.91279284354653
 11
463.20816924780007
 21
584.91279284354653
  0
LINE
  8
_0-7_レイヤ6
  6
CONTINUOUS
 62
    3
 10
462.20816924780007
 20
592.91279284354653
 11
463.20816924780007
 21
587.91279284354653
  0
LINE
  8
_0-7_レイヤ6
  6
CONTINUOUS
 62
    3
 10
465.33872524780003
 20
558.78223684354646
 11
467.20816924780007
 21
556.91279284354653
  0
LINE
  8
_0-7_レイヤ6
  6
CONTINUOUS
 62
    3
 10
472.20816924780007
 20
592.91279284354653
 11
462.20816924780007
 21
592.91279284354653
  0
LINE
  8
_0-7_レイヤ6
  6
CONTINUOUS
 62
    3
 10
471.58030424780003
 20
598.87429184354642
 11
471.70816924780007
 21
597.41279284354653
  0
LINE
  8
_0-7_レイヤ6
  6
CONTINUOUS
 62
    3
 10
462.83603424780006
 20
598.87429184354642
 11
462.70816924780007
 21
597.41279284354653
  0
LINE
  8
_0-7_レイヤ6
  6
CONTINUOUS
 62
    3
 10
476.20816924780007
 20
597.41279284354653
 11
476.20816924780007
 21
595.91279284354653
  0
LINE
  8
_0-7_レイヤ6
  6
CONTINUOUS
 62
    3
 10
476.20816924780007
 20
597.41279284354653
 11
458.20816924780007
 21
597.41279284354653
  0
LINE
  8
_0-7_レイヤ6
  6
CONTINUOUS
 62
    3
 10
458.20816924780007
 20
597.41279284354653
 11
458.20816924780007
 21
595.91279284354653
  0
LINE
  8
_0-7_レイヤ6
  6
CONTINUOUS
 62
    3
 10
476.20816924780007
 20
595.91279284354653
 11
458.20816924780007
 21
595.91279284354653
  0
ARC
  8
_0-7_レイヤ6
  6
CONTINUOUS
 62
    3
 10
486.21282120950002
 20
612.02945984354642
 40
6.0833329999999997
 50
53.831358000000002
 51
126.16864200000002
  0
ARC
  8
_0-7_レイヤ6
  6
CONTINUOUS
 62
    3
 10
483.21282120950002
 20
616.13314984354645
 40
1
 50
126.16864200000002
 51
180
  0
ARC
  8
_0-7_レイヤ6
  6
CONTINUOUS
 62
    3
 10
489.21282120950002
 20
616.13314984354645
 40
1
 50
0
 51
53.831358000000002
  0
LINE
  8
_0-7_レイヤ6
  6
CONTINUOUS
 62
    3
 10
490.21282120950002
 20
616.13314984354645
 11
490.21282120950002
 21
615.11279284354646
  0
LINE
  8
_0-7_レイヤ6
  6
CONTINUOUS
 62
    3
 10
490.51110120950005
 20
615.11280084354644
 11
481.91473820950006
 21
615.11293884354643
  0
LINE
  8
_0-7_レイヤ6
  6
CONTINUOUS
 62
    3
 10
482.21282120950002
 20
616.13314984354645
 11
482.21282120950002
 21
615.11279284354646
  0
ARC
  8
_0-4_レイヤ3
  6
CONTINUOUS
 62
    3
 10
181.70816924780002
 20
609.41279284354653
 40
0.5
 50
0
 51
90
  0
LINE
  8
_0-4_レイヤ3
  6
CONTINUOUS
 62
    3
 10
174.45816924780002
 20
609.91279284354653
 11
181.70816924780002
 21
609.91279284354653
  0
LINE
  8
_0-4_レイヤ3
  6
CONTINUOUS
 62
    3
 10
182.20816924780002
 20
609.41279284354653
 11
182.20816924780002
 21
593.91279284354653
  0
ARC
  8
_0-4_レイヤ3
  6
CONTINUOUS
 62
    3
 10
193.20816924780002
 20
610.41279284354653
 40
1
 50
270
 51
0
  0
ARC
  8
_0-4_レイヤ3
  6
CONTINUOUS
 62
    3
 10
184.50816924780008
 20
608.91279284354653
 40
0.5
 50
90
 51
180
  0
LINE
  8
_0-4_レイヤ3
  6
CONTINUOUS
 62
    3
 10
193.20816924780002
 20
609.41279284354653
 11
184.50816924780008
 21
609.41279284354653
  0
LINE
  8
_0-4_レイヤ3
  6
CONTINUOUS
 62
    3
 10
184.00816924780008
 20
608.91279284354653
 11
184.00816924780008
 21
596.41279284354653
  0
ARC
  8
_0-4_レイヤ3
  6
CONTINUOUS
 62
    3
 10
174.45816924780002
 20
610.66279284354653
 40
0.75
 50
90
 51
270
  0
LINE
  8
_0-4_レイヤ3
  6
CONTINUOUS
 62
    3
 10
194.20816924780002
 20
611.41279284354653
 11
194.20816924780002
 21
610.41279284354653
  0
ARC
  8
_0-4_レイヤ3
  6
CONTINUOUS
 62
    3
 10
276.45816924780007
 20
604.16279284354653
 40
0.75
 50
0
 51
180
  0
LINE
  8
_0-4_レイヤ3
  6
CONTINUOUS
 62
    3
 10
275.70816924780007
 20
604.16279284354653
 11
275.70816924780007
 21
596.41279284354653
  0
LINE
  8
_0-4_レイヤ3
  6
CONTINUOUS
 62
    3
 10
277.20816924780007
 20
604.16279284354653
 11
277.20816924780007
 21
594.41279284354653
  0
ARC
  8
_0-4_レイヤ3
  6
CONTINUOUS
 62
    3
 10
492.70816924780007
 20
609.41279284354653
 40
0.5
 50
90
 51
180
  0
LINE
  8
_0-4_レイヤ3
  6
CONTINUOUS
 62
    3
 10
499.95816924780007
 20
609.91279284354653
 11
492.70816924780007
 21
609.91279284354653
  0
LINE
  8
_0-4_レイヤ3
  6
CONTINUOUS
 62
    3
 10
492.20816924780007
 20
609.41279284354653
 11
492.20816924780007
 21
593.91279284354653
  0
ARC
  8
_0-4_レイヤ3
  6
CONTINUOUS
 62
    3
 10
481.20816924780007
 20
610.41279284354653
 40
1
 50
180
 51
270
  0
ARC
  8
_0-4_レイヤ3
  6
CONTINUOUS
 62
    3
 10
489.90816924780006
 20
608.91279284354653
 40
0.5
 50
0
 51
90
  0
LINE
  8
_0-4_レイヤ3
  6
CONTINUOUS
 62
    3
 10
481.20816924780007
 20
609.41279284354653
 11
489.90816924780006
 21
609.41279284354653
  0
LINE
  8
_0-4_レイヤ3
  6
CONTINUOUS
 62
    3
 10
490.40816924780006
 20
608.91279284354653
 11
490.40816924780006
 21
596.41279284354653
  0
ARC
  8
_0-4_レイヤ3
  6
CONTINUOUS
 62
    3
 10
499.95816924780007
 20
610.66279284354653
 40
0.75
 50
270
 51
90
  0
LINE
  8
_0-4_レイヤ3
  6
CONTINUOUS
 62
    3
 10
480.20816924780007
 20
611.41279284354653
 11
480.20816924780007
 21
610.41279284354653
  0
LINE
  8
_0-4_レイヤ3
  6
CONTINUOUS
 62
    3
 10
499.95816924780007
 20
611.41279284354653
 11
480.20816924780007
 21
611.41279284354653
  0
ARC
  8
_0-4_レイヤ3
  6
CONTINUOUS
 62
    3
 10
397.95816924780007
 20
604.16279284354653
 40
0.75
 50
0
 51
180
  0
LINE
  8
_0-4_レイヤ3
  6
CONTINUOUS
 62
    3
 10
398.70816924780007
 20
604.16279284354653
 11
398.70816924780007
 21
596.41279284354653
  0
LINE
  8
_0-4_レイヤ3
  6
CONTINUOUS
 62
    3
 10
397.20816924780007
 20
604.16279284354653
 11
397.20816924780007
 21
594.41279284354653
  0
ARC
  8
_0-7_レイヤ6
  6
CONTINUOUS
 62
    3
 10
207.20816924780002
 20
588.71279284354648
 40
12
 50
74.506032000000005
 51
105.493968
  0
ARC
  8
_0-7_レイヤ6
  6
CONTINUOUS
 62
    3
 10
204.42994524780005
 20
598.73484184354652
 40
1.6000000000000001
 50
105.493968
 51
175
  0
ARC
  8
_0-7_レイヤ6
  6
CONTINUOUS
 62
    3
 10
209.98639324780004
 20
598.73484184354652
 40
1.6000000000000001
 50
4.9999999999969997
 51
74.506032000000019
  0
LINE
  8
_0-4_レイヤ3
  6
CONTINUOUS
 62
    3
 10
174.45816924780002
 20
611.41279284354653
 11
194.20816924780002
 21
611.41279284354653
  0
LINE
  8
_0-6_レイヤ5
  6
CONTINUOUS
 62
    3
 10
172.20816824780002
 20
610.91279284354653
 11
172.20816924780002
 21
604.3127928435465
  0
ARC
  8
_0-6_レイヤ5
  6
CONTINUOUS
 62
    3
 10
173.90816924780006
 20
604.3127928435465
 40
1.7
 50
180
 51
270
  0
LINE
  8
_0-6_レイヤ5
  6
CONTINUOUS
 62
    3
 10
182.20816924780002
 20
602.61279284354646
 11
173.90816924780006
 21
602.61279284354646
  0
LINE
  8
_0-6_レイヤ5
  6
CONTINUOUS
 62
    3
 10
182.20816924780002
 20
603.8127928435465
 11
173.90817424780005
 21
603.8127928435465
  0
ARC
  8
_0-6_レイヤ5
  6
CONTINUOUS
 62
    3
 10
173.90816824780006
 20
610.91279284354653
 40
1.7
 50
90
 51
180
  0
ARC
  8
_0-6_レイヤ5
  6
CONTINUOUS
 62
    3
 10
173.90816924780006
 20
610.91279284354653
 40
0.5
 50
90
 51
180
  0
ARC
  8
_0-6_レイヤ5
  6
CONTINUOUS
 62
    3
 10
173.90817424780005
 20
604.3127928435465
 40
0.5
 50
180
 51
270
  0
LINE
  8
_0-6_レイヤ5
  6
CONTINUOUS
 62
    3
 10
173.40816924780006
 20
610.91279284354653
 11
173.40817424780005
 21
604.3127928435465
  0
LINE
  8
_0-6_レイヤ5
  6
CONTINUOUS
 62
    3
 10
182.20816924780002
 20
603.8127928435465
 11
182.20816924780002
 21
602.61279284354646
  0
LINE
  8
_0-6_レイヤ5
  6
CONTINUOUS
 62
    3
 10
173.90816824780006
 20
612.61279284354646
 11
275.50816924780003
 21
612.61279284354646
  0
LINE
  8
_0-6_レイヤ5
  6
CONTINUOUS
 62
    3
 10
276.00816924780003
 20
607.61279284354646
 11
277.20816924780007
 21
607.61279284354646
  0
ARC
  8
_0-6_レイヤ5
  6
CONTINUOUS
 62
    3
 10
275.50816924780003
 20
610.91279284354653
 40
0.5
 50
0
 51
90
  0
LINE
  8
_0-6_レイヤ5
  6
CONTINUOUS
 62
    3
 10
276.00816924780003
 20
607.61279284354646
 11
276.00816924780003
 21
610.91279284354653
  0
ARC
  8
_0-6_レイヤ5
  6
CONTINUOUS
 62
    3
 10
275.50816924780003
 20
610.91279284354653
 40
1.7
 50
0
 51
90
  0
LINE
  8
_0-6_レイヤ5
  6
CONTINUOUS
 62
    3
 10
277.20816924780007
 20
607.61279284354646
 11
277.20816924780007
 21
610.91279284354653
  0
LINE
  8
_0-6_レイヤ5
  6
CONTINUOUS
 62
    3
 10
275.50816924780003
 20
611.41279284354653
 11
266.00816924780003
 21
611.41279284354653
  0
LINE
  8
_0-6_レイヤ5
  6
CONTINUOUS
 62
    3
 10
266.00816924780003
 20
611.41279284354653
 11
266.00816924780003
 21
606.1127890235465
  0
LINE
  8
_0-6_レイヤ5
  6
CONTINUOUS
 62
    3
 10
271.20449209630004
 20
611.41279284354653
 11
266.00816924780003
 21
606.21646999504651
  0
LINE
  8
_0-6_レイヤ5
  6
CONTINUOUS
 62
    3
 10
269.79027853390005
 20
611.41279284354653
 11
266.00816924780003
 21
607.63068355734652
  0
LINE
  8
_0-6_レイヤ5
  6
CONTINUOUS
 62
    3
 10
268.37606497160004
 20
611.41279284354653
 11
266.00816924780003
 21
609.04489711974645
  0
LINE
  8
_0-6_レイヤ5
  6
CONTINUOUS
 62
    3
 10
266.96185140920005
 20
611.41279284354653
 11
266.00816924780003
 21
610.4591106821465
  0
LINE
  8
_0-6_レイヤ5
  6
CONTINUOUS
 62
    3
 10
272.61870565870004
 20
611.41279284354653
 11
267.31870196970004
 21
606.11278915464652
  0
LINE
  8
_0-6_レイヤ5
  6
CONTINUOUS
 62
    3
 10
274.03291922100004
 20
611.41279284354653
 11
268.73291567350003
 21
606.11278929604646
  0
LINE
  8
_0-6_レイヤ5
  6
CONTINUOUS
 62
    3
 10
275.44713278340004
 20
611.41279284354653
 11
270.14712937730002
 21
606.11278943744651
  0
LINE
  8
_0-6_レイヤ5
  6
CONTINUOUS
 62
    3
 10
276.00816924780003
 20
610.55961574554647
 11
271.56134308110006
 21
606.11278957884645
  0
LINE
  8
_0-6_レイヤ5
  6
CONTINUOUS
 62
    3
 10
276.00816924780003
 20
609.14540218314642
 11
272.97555678490005
 21
606.1127897202465
  0
LINE
  8
_0-6_レイヤ5
  6
CONTINUOUS
 62
    3
 10
276.00816924780003
 20
607.73118862074648
 11
274.38977048870004
 21
606.11278986174648
  0
LINE
  8
_0-6_レイヤ5
  6
CONTINUOUS
 62
    3
 10
276.00816924780003
 20
606.31697505834643
 11
275.80398419250002
 21
606.11279000314653
  0
LINE
  8
_0-6_レイヤ5
  6
CONTINUOUS
 62
    3
 10
276.00816924780003
 20
606.11279002354649
 11
276.00816924780003
 21
610.91279284354653
  0
LINE
  8
_0-6_レイヤ5
  6
CONTINUOUS
 62
    3
 10
502.20817024780007
 20
610.91279284354653
 11
502.20816924780007
 21
604.3127928435465
  0
ARC
  8
_0-6_レイヤ5
  6
CONTINUOUS
 62
    3
 10
500.50816924780003
 20
604.3127928435465
 40
1.7
 50
270
 51
0
  0
LINE
  8
_0-6_レイヤ5
  6
CONTINUOUS
 62
    3
 10
492.20816924780007
 20
602.61279284354646
 11
500.50816924780003
 21
602.61279284354646
  0
LINE
  8
_0-6_レイヤ5
  6
CONTINUOUS
 62
    3
 10
492.20816924780007
 20
603.8127928435465
 11
500.50816424780004
 21
603.8127928435465
  0
ARC
  8
_0-6_レイヤ5
  6
CONTINUOUS
 62
    3
 10
500.50817024780002
 20
610.91279284354653
 40
1.7
 50
0
 51
90
  0
ARC
  8
_0-6_レイヤ5
  6
CONTINUOUS
 62
    3
 10
500.50816924780003
 20
610.91279284354653
 40
0.5
 50
0
 51
90
  0
ARC
  8
_0-6_レイヤ5
  6
CONTINUOUS
 62
    3
 10
500.50816424780004
 20
604.3127928435465
 40
0.5
 50
270
 51
0
  0
LINE
  8
_0-6_レイヤ5
  6
CONTINUOUS
 62
    3
 10
501.00816924780003
 20
610.91279284354653
 11
501.00816424780004
 21
604.3127928435465
  0
LINE
  8
_0-6_レイヤ5
  6
CONTINUOUS
 62
    3
 10
492.20816924780007
 20
603.8127928435465
 11
492.20816924780007
 21
602.61279284354646
  0
LINE
  8
_0-6_レイヤ5
  6
CONTINUOUS
 62
    3
 10
500.50817024780002
 20
612.61279284354646
 11
398.90816924780006
 21
612.61279284354646
  0
LINE
  8
_0-6_レイヤ5
  6
CONTINUOUS
 62
    3
 10
500.50816924780003
 20
611.41279284354653
 11
398.90816924780006
 21
611.41279284354653
  0
LINE
  8
_0-6_レイヤ5
  6
CONTINUOUS
 62
    3
 10
398.40816924780006
 20
607.61279284354646
 11
397.20816924780007
 21
607.61279284354646
  0
ARC
  8
_0-6_レイヤ5
  6
CONTINUOUS
 62
    3
 10
398.90816924780006
 20
610.91279284354653
 40
0.5
 50
90
 51
180
  0
LINE
  8
_0-6_レイヤ5
  6
CONTINUOUS
 62
    3
 10
398.40816924780006
 20
607.61279284354646
 11
398.40816924780006
 21
610.91279284354653
  0
ARC
  8
_0-6_レイヤ5
  6
CONTINUOUS
 62
    3
 10
398.90816924780006
 20
610.91279284354653
 40
1.7
 50
90
 51
180
  0
LINE
  8
_0-6_レイヤ5
  6
CONTINUOUS
 62
    3
 10
397.20816924780007
 20
607.61279284354646
 11
397.20816924780007
 21
610.91279284354653
  0
LINE
  8
_0-6_レイヤ5
  6
CONTINUOUS
 62
    3
 10
398.90816924780006
 20
611.41279284354653
 11
408.40816924780006
 21
611.41279284354653
  0
LINE
  8
_0-6_レイヤ5
  6
CONTINUOUS
 62
    3
 10
408.40816924780006
 20
611.41279284354653
 11
408.40816924780006
 21
606.1127890235465
  0
LINE
  8
_0-6_レイヤ5
  6
CONTINUOUS
 62
    3
 10
403.21184639920006
 20
611.41279284354653
 11
408.40816924780006
 21
606.21646999504651
  0
LINE
  8
_0-6_レイヤ5
  6
CONTINUOUS
 62
    3
 10
404.62605996160005
 20
611.41279284354653
 11
408.40816924780006
 21
607.63068355734652
  0
LINE
  8
_0-6_レイヤ5
  6
CONTINUOUS
 62
    3
 10
406.04027352400004
 20
611.41279284354653
 11
408.40816924780006
 21
609.04489711974645
  0
LINE
  8
_0-6_レイヤ5
  6
CONTINUOUS
 62
    3
 10
407.45448708630005
 20
611.41279284354653
 11
408.40816924780006
 21
610.4591106821465
  0
LINE
  8
_0-6_レイヤ5
  6
CONTINUOUS
 62
    3
 10
401.79763283680006
 20
611.41279284354653
 11
407.09763652580006
 21
606.11278915464652
  0
LINE
  8
_0-6_レイヤ5
  6
CONTINUOUS
 62
    3
 10
400.38341927450006
 20
611.41279284354653
 11
405.68342282200007
 21
606.11278929604646
  0
LINE
  8
_0-6_レイヤ5
  6
CONTINUOUS
 62
    3
 10
398.96920571210006
 20
611.41279284354653
 11
404.26920911820002
 21
606.11278943744651
  0
LINE
  8
_0-6_レイヤ5
  6
CONTINUOUS
 62
    3
 10
398.40816924780006
 20
610.55961574554647
 11
402.85499541440004
 21
606.11278957884645
  0
LINE
  8
_0-6_レイヤ5
  6
CONTINUOUS
 62
    3
 10
398.40816924780006
 20
609.14540218314642
 11
401.44078171060005
 21
606.1127897202465
  0
LINE
  8
_0-6_レイヤ5
  6
CONTINUOUS
 62
    3
 10
398.40816924780006
 20
607.73118862074648
 11
400.02656800680006
 21
606.11278986174648
  0
LINE
  8
_0-6_レイヤ5
  6
CONTINUOUS
 62
    3
 10
398.40816924780006
 20
606.31697505834643
 11
398.61235430300002
 21
606.11279000314653
  0
LINE
  8
_0-6_レイヤ5
  6
CONTINUOUS
 62
    3
 10
398.40816924780006
 20
606.11279002354649
 11
398.40816924780006
 21
610.91279284354653
  0
LINE
  8
_0-7_レイヤ6
  6
CONTINUOUS
 62
    3
 10
182.20351728600008
 20
614.36279284354646
 11
182.20351728600008
 21
613.61279284354646
  0
ARC
  8
_0-7_レイヤ6
  6
CONTINUOUS
 62
    3
 10
183.90523728600004
 20
613.11280084354644
 40
2
 50
90
 51
125.00000000000001
  0
LINE
  8
_0-7_レイヤ6
  6
CONTINUOUS
 62
    3
 10
182.20351728600008
 20
614.36279284354646
 11
182.75808428600004
 21
614.7511048435465
  0
LINE
  8
_0-7_レイヤ6
  6
CONTINUOUS
 62
    3
 10
182.20351728600008
 20
614.36279284354646
 11
194.20351728600008
 21
614.36279284354646
  0
LINE
  8
_0-7_レイヤ6
  6
CONTINUOUS
 62
    3
 10
182.20351728600008
 20
613.61279284354646
 11
194.20351728600008
 21
613.61279284354646
  0
LINE
  8
_0-7_レイヤ6
  6
CONTINUOUS
 62
    3
 10
194.20351728600008
 20
614.36279284354646
 11
194.20351728600008
 21
613.61279284354646
  0
LINE
  8
_0-7_レイヤ6
  6
CONTINUOUS
 62
    3
 10
183.20351728600008
 20
613.61279284354646
 11
183.20351728600008
 21
612.61279284354646
  0
LINE
  8
_0-7_レイヤ6
  6
CONTINUOUS
 62
    3
 10
193.20351728600008
 20
613.61279284354646
 11
193.20351728600008
 21
612.61279284354646
  0
LINE
  8
_0-7_レイヤ6
  6
CONTINUOUS
 62
    3
 10
188.20351728600008
 20
605.21162484354647
 11
189.80351728600004
 21
605.25860484354644
  0
LINE
  8
_0-7_レイヤ6
  6
CONTINUOUS
 62
    3
 10
188.20351728600008
 20
605.21162484354647
 11
189.80351728600004
 21
606.10538584354651
  0
LINE
  8
_0-7_レイヤ6
  6
CONTINUOUS
 62
    3
 10
186.60351728600006
 20
608.08082684354645
 11
186.60351728600006
 21
607.04612584354652
  0
LINE
  8
_0-7_レイヤ6
  6
CONTINUOUS
 62
    3
 10
186.60351728600006
 20
606.19934584354644
 11
186.60351728600006
 21
600.03655284354647
  0
LINE
  8
_0-7_レイヤ6
  6
CONTINUOUS
 62
    3
 10
189.80351728600004
 20
609.02156784354645
 11
189.80351728600004
 21
607.98686684354652
  0
LINE
  8
_0-7_レイヤ6
  6
CONTINUOUS
 62
    3
 10
189.80351728600004
 20
607.14008684354644
 11
189.80351728600004
 21
606.10538584354651
  0
LINE
  8
_0-7_レイヤ6
  6
CONTINUOUS
 62
    3
 10
189.80351728600004
 20
605.25860484354644
 11
189.80351728600004
 21
600.03655284354647
  0
LINE
  8
_0-7_レイヤ6
  6
CONTINUOUS
 62
    3
 10
186.60351728600006
 20
608.08082684354645
 11
189.80351728600004
 21
609.02156784354645
  0
LINE
  8
_0-7_レイヤ6
  6
CONTINUOUS
 62
    3
 10
185.87018428600004
 20
608.50421784354648
 11
186.60351728600006
 21
608.08082684354645
  0
LINE
  8
_0-7_レイヤ6
  6
CONTINUOUS
 62
    3
 10
185.87018428600004
 20
608.50421784354648
 11
186.60351728600006
 21
608.92760784354653
  0
ARC
  8
_0-7_レイヤ6
  6
CONTINUOUS
 62
    3
 10
192.50160028600004
 20
613.11293884354643
 40
2
 50
55.000000000000007
 51
90
  0
LINE
  8
_0-7_レイヤ6
  6
CONTINUOUS
 62
    3
 10
188.20351728600008
 20
601.14903384354648
 11
188.20351728600008
 21
599.11279284354646
  0
LINE
  8
_0-7_レイヤ6
  6
CONTINUOUS
 62
    3
 10
189.80351728600004
 20
604.71279284354648
 11
186.60353228600002
 21
604.71279284354648
  0
LINE
  8
_0-7_レイヤ6
  6
CONTINUOUS
 62
    3
 10
188.20351728600008
 20
599.11279284354646
 11
186.60351828600005
 21
600.03655284354647
  0
LINE
  8
_0-7_レイヤ6
  6
CONTINUOUS
 62
    3
 10
188.20351728600008
 20
599.11279284354646
 11
189.80351728600004
 21
600.03655284354647
  0
ARC
  8
_0-7_レイヤ6
  6
CONTINUOUS
 62
    3
 10
188.22857528600002
 20
599.34812284354643
 40
1.764848
 50
90.813542999999996
 51
157.040875
  0
ARC
  8
_0-7_レイヤ6
  6
CONTINUOUS
 62
    3
 10
194.23592928600004
 20
600.58727684354642
 40
6.0552590000000004
 50
137.05380000000002
 51
175.02122199999999
  0
LINE
  8
_0-7_レイヤ6
  6
CONTINUOUS
 62
    3
 10
186.60351728600006
 20
606.19934584354644
 11
189.80351728600004
 21
607.14008684354644
  0
LINE
  8
_0-7_レイヤ6
  6
CONTINUOUS
 62
    3
 10
186.60351728600006
 20
607.04612584354652
 11
189.80351728600004
 21
607.98686684354652
  0
LINE
  8
_0-7_レイヤ6
  6
CONTINUOUS
 62
    3
 10
185.87018428600004
 20
606.62273584354648
 11
190.53685028600006
 21
607.56347684354648
  0
LINE
  8
_0-7_レイヤ6
  6
CONTINUOUS
 62
    3
 10
185.87018428600004
 20
606.62273584354648
 11
186.60351728600006
 21
606.19934584354644
  0
LINE
  8
_0-7_レイヤ6
  6
CONTINUOUS
 62
    3
 10
185.87018428600004
 20
606.62273584354648
 11
186.60351728600006
 21
607.04612584354652
  0
LINE
  8
_0-7_レイヤ6
  6
CONTINUOUS
 62
    3
 10
190.53685028600006
 20
607.56347684354648
 11
189.80351728600004
 21
607.14008684354644
  0
LINE
  8
_0-7_レイヤ6
  6
CONTINUOUS
 62
    3
 10
189.80351728600004
 20
607.98686684354652
 11
190.53685028600006
 21
607.56347684354648
  0
LINE
  8
_0-7_レイヤ6
  6
CONTINUOUS
 62
    3
 10
188.20351728600008
 20
605.21162484354647
 11
190.53685028600006
 21
605.68199484354648
  0
LINE
  8
_0-7_レイヤ6
  6
CONTINUOUS
 62
    3
 10
190.53685028600006
 20
605.68199484354648
 11
189.80351728600004
 21
605.25860484354644
  0
LINE
  8
_0-7_レイヤ6
  6
CONTINUOUS
 62
    3
 10
189.80351728600004
 20
606.10538584354651
 11
190.53685028600006
 21
605.68199484354648
  0
LINE
  8
_0-7_レイヤ6
  6
CONTINUOUS
 62
    3
 10
194.20351728600008
 20
614.36279284354646
 11
193.64875328600004
 21
614.75124284354649
  0
LINE
  8
_0-7_レイヤ6
  6
CONTINUOUS
 62
    3
 10
186.60816924780005
 20
609.41279284354653
 11
186.60816924780005
 21
608.92760784354653
  0
LINE
  8
_0-7_レイヤ6
  6
CONTINUOUS
 62
    3
 10
186.60816924780005
 20
608.92760784354653
 11
188.25427996580004
 21
609.41153404444651
  0
LINE
  8
_0-7_レイヤ6
  6
CONTINUOUS
 62
    3
 10
190.48113887110003
 20
609.41279284354653
 11
189.80351728600004
 21
609.02156784354645
  0
LINE
  8
_0-7_レイヤ6
  6
CONTINUOUS
 62
    3
 10
185.87018428600004
 20
608.50421784354648
 11
190.37729152170004
 21
609.41279284354653
  0
LINE
  8
_0-7_レイヤ6
  6
DOT_17
 62
    3
 10
189.80351728600004
 20
609.86834884354653
 11
189.80351728600004
 21
610.90304984354646
  0
LINE
  8
_0-7_レイヤ6
  6
DOT_17
 62
    3
 10
189.80351728600004
 20
609.86834884354653
 11
190.53685028600006
 21
609.44495784354649
  0
LINE
  8
_0-7_レイヤ6
  6
DOT_17
 62
    3
 10
186.60351728600006
 20
611.84378984354646
 11
186.60351728600006
 21
610.80908884354642
  0
LINE
  8
_0-7_レイヤ6
  6
DOT_17
 62
    3
 10
189.80351728600004
 20
612.61279284354646
 11
189.80351728600004
 21
611.74982984354642
  0
LINE
  8
_0-7_レイヤ6
  6
DOT_17
 62
    3
 10
186.60351728600006
 20
609.96230884354645
 11
189.80351728600004
 21
610.90304984354646
  0
LINE
  8
_0-7_レイヤ6
  6
DOT_17
 62
    3
 10
186.60351728600006
 20
610.80908884354642
 11
189.80351728600004
 21
611.74982984354642
  0
LINE
  8
_0-7_レイヤ6
  6
DOT_17
 62
    3
 10
185.87018428600004
 20
610.38569884354649
 11
190.53685028600006
 21
611.3264398435465
  0
LINE
  8
_0-7_レイヤ6
  6
DOT_17
 62
    3
 10
185.87018428600004
 20
610.38569884354649
 11
186.60351728600006
 21
609.96230884354645
  0
LINE
  8
_0-7_レイヤ6
  6
DOT_17
 62
    3
 10
185.87018428600004
 20
610.38569884354649
 11
186.60351728600006
 21
610.80908884354642
  0
LINE
  8
_0-7_レイヤ6
  6
DOT_17
 62
    3
 10
190.53685028600006
 20
611.3264398435465
 11
189.80351728600004
 21
610.90304984354646
  0
LINE
  8
_0-7_レイヤ6
  6
DOT_17
 62
    3
 10
189.80351728600004
 20
611.74982984354642
 11
190.53685028600006
 21
611.3264398435465
  0
LINE
  8
_0-7_レイヤ6
  6
DOT_17
 62
    3
 10
189.21933728600004
 20
612.61279284354646
 11
186.60351728600006
 21
611.84378984354646
  0
LINE
  8
_0-7_レイヤ6
  6
DOT_17
 62
    3
 10
187.58463928600008
 20
612.61279284354646
 11
185.87018428600004
 21
612.2671808435465
  0
LINE
  8
_0-7_レイヤ6
  6
DOT_17
 62
    3
 10
185.87018428600004
 20
612.2671808435465
 11
186.60351728600006
 21
611.84378984354646
  0
LINE
  8
_0-7_レイヤ6
  6
DOT_17
 62
    3
 10
186.46880228600003
 20
612.61279284354646
 11
185.87018428600004
 21
612.2671808435465
  0
LINE
  8
_0-7_レイヤ6
  6
DOT_17
 62
    3
 10
186.60351728600006
 20
609.96230884354645
 11
186.60351728600006
 21
609.41279284354653
  0
LINE
  8
_0-7_レイヤ6
  6
DOT_17
 62
    3
 10
188.25390990200003
 20
609.41279284354653
 11
189.80351728600004
 21
609.86834884354653
  0
LINE
  8
_0-7_レイヤ6
  6
DOT_17
 62
    3
 10
190.53685028600006
 20
609.44495784354649
 11
190.48113887110003
 21
609.41279284354653
  0
LINE
  8
_0-7_レイヤ6
  6
DOT_17
 62
    3
 10
190.37729152170004
 20
609.41279284354653
 11
190.53685028600006
 21
609.44495784354649
  0
LINE
  8
_0-6_レイヤ5
  6
CONTINUOUS
 62
    3
 10
173.90816924780006
 20
611.41279284354653
 11
275.50816924780003
 21
611.41279284354653
  0
ARC
  8
_0-7_レイヤ6
  6
CONTINUOUS
 62
    3
 10
467.20816924780007
 20
588.71279284354648
 40
12
 50
74.506032000000005
 51
105.493968
  0
ARC
  8
_0-7_レイヤ6
  6
CONTINUOUS
 62
    3
 10
469.98639324780004
 20
598.73484184354652
 40
1.6000000000000001
 50
4.9999999999969997
 51
74.506032000000019
  0
ARC
  8
_0-7_レイヤ6
  6
CONTINUOUS
 62
    3
 10
464.42994524780005
 20
598.73484184354652
 40
1.6000000000000001
 50
105.493968
 51
175
  0
LINE
  8
_0-7_レイヤ6
  6
CONTINUOUS
 62
    3
 10
492.21282120950002
 20
614.36279284354646
 11
492.21282120950002
 21
613.61279284354646
  0
ARC
  8
_0-7_レイヤ6
  6
CONTINUOUS
 62
    3
 10
490.51110120950005
 20
613.11280084354644
 40
2
 50
55.000000000000007
 51
90
  0
LINE
  8
_0-7_レイヤ6
  6
CONTINUOUS
 62
    3
 10
492.21282120950002
 20
614.36279284354646
 11
491.65825420950006
 21
614.7511048435465
  0
LINE
  8
_0-7_レイヤ6
  6
CONTINUOUS
 62
    3
 10
492.21282120950002
 20
614.36279284354646
 11
480.21282120950002
 21
614.36279284354646
  0
LINE
  8
_0-7_レイヤ6
  6
CONTINUOUS
 62
    3
 10
492.21282120950002
 20
613.61279284354646
 11
480.21282120950002
 21
613.61279284354646
  0
LINE
  8
_0-7_レイヤ6
  6
CONTINUOUS
 62
    3
 10
480.21282120950002
 20
614.36279284354646
 11
480.21282120950002
 21
613.61279284354646
  0
LINE
  8
_0-7_レイヤ6
  6
CONTINUOUS
 62
    3
 10
491.21282120950002
 20
613.61279284354646
 11
491.21282120950002
 21
612.61279284354646
  0
LINE
  8
_0-7_レイヤ6
  6
CONTINUOUS
 62
    3
 10
481.21282120950002
 20
613.61279284354646
 11
481.21282120950002
 21
612.61279284354646
  0
LINE
  8
_0-7_レイヤ6
  6
CONTINUOUS
 62
    3
 10
486.21282120950002
 20
605.21162484354647
 11
484.61282120950005
 21
605.25860484354644
  0
LINE
  8
_0-7_レイヤ6
  6
CONTINUOUS
 62
    3
 10
486.21282120950002
 20
605.21162484354647
 11
484.61282120950005
 21
606.10538584354651
  0
LINE
  8
_0-7_レイヤ6
  6
CONTINUOUS
 62
    3
 10
487.81282120950004
 20
608.08082684354645
 11
487.81282120950004
 21
607.04612584354652
  0
LINE
  8
_0-7_レイヤ6
  6
CONTINUOUS
 62
    3
 10
487.81282120950004
 20
606.19934584354644
 11
487.81282120950004
 21
600.03655284354647
  0
LINE
  8
_0-7_レイヤ6
  6
CONTINUOUS
 62
    3
 10
484.61282120950005
 20
609.02156784354645
 11
484.61282120950005
 21
607.98686684354652
  0
LINE
  8
_0-7_レイヤ6
  6
CONTINUOUS
 62
    3
 10
484.61282120950005
 20
607.14008684354644
 11
484.61282120950005
 21
606.10538584354651
  0
LINE
  8
_0-7_レイヤ6
  6
CONTINUOUS
 62
    3
 10
484.61282120950005
 20
605.25860484354644
 11
484.61282120950005
 21
600.03655284354647
  0
LINE
  8
_0-7_レイヤ6
  6
CONTINUOUS
 62
    3
 10
487.81282120950004
 20
608.08082684354645
 11
484.61282120950005
 21
609.02156784354645
  0
LINE
  8
_0-7_レイヤ6
  6
CONTINUOUS
 62
    3
 10
488.54615420950006
 20
608.50421784354648
 11
487.81282120950004
 21
608.08082684354645
  0
LINE
  8
_0-7_レイヤ6
  6
CONTINUOUS
 62
    3
 10
488.54615420950006
 20
608.50421784354648
 11
487.81282120950004
 21
608.92760784354653
  0
ARC
  8
_0-7_レイヤ6
  6
CONTINUOUS
 62
    3
 10
481.91473820950006
 20
613.11293884354643
 40
2
 50
90
 51
125.00000000000001
  0
LINE
  8
_0-7_レイヤ6
  6
CONTINUOUS
 62
    3
 10
486.21282120950002
 20
601.14903384354648
 11
486.21282120950002
 21
599.11279284354646
  0
LINE
  8
_0-7_レイヤ6
  6
CONTINUOUS
 62
    3
 10
484.61282120950005
 20
604.71279284354648
 11
487.81280620950002
 21
604.71279284354648
  0
LINE
  8
_0-7_レイヤ6
  6
CONTINUOUS
 62
    3
 10
486.21282120950002
 20
599.11279284354646
 11
487.81282020950005
 21
600.03655284354647
  0
LINE
  8
_0-7_レイヤ6
  6
CONTINUOUS
 62
    3
 10
486.21282120950002
 20
599.11279284354646
 11
484.61282120950005
 21
600.03655284354647
  0
ARC
  8
_0-7_レイヤ6
  6
CONTINUOUS
 62
    3
 10
486.18776320950002
 20
599.34812284354643
 40
1.764848
 50
22.959125000000004
 51
89.186457000000004
  0
ARC
  8
_0-7_レイヤ6
  6
CONTINUOUS
 62
    3
 10
480.18040920950006
 20
600.58727684354642
 40
6.0552590000000004
 50
4.9787780000000001
 51
42.946199999999997
  0
LINE
  8
_0-7_レイヤ6
  6
CONTINUOUS
 62
    3
 10
487.81282120950004
 20
606.19934584354644
 11
484.61282120950005
 21
607.14008684354644
  0
LINE
  8
_0-7_レイヤ6
  6
CONTINUOUS
 62
    3
 10
487.81282120950004
 20
607.04612584354652
 11
484.61282120950005
 21
607.98686684354652
  0
LINE
  8
_0-7_レイヤ6
  6
CONTINUOUS
 62
    3
 10
488.54615420950006
 20
606.62273584354648
 11
483.87948820950004
 21
607.56347684354648
  0
LINE
  8
_0-7_レイヤ6
  6
CONTINUOUS
 62
    3
 10
488.54615420950006
 20
606.62273584354648
 11
487.81282120950004
 21
606.19934584354644
  0
LINE
  8
_0-7_レイヤ6
  6
CONTINUOUS
 62
    3
 10
488.54615420950006
 20
606.62273584354648
 11
487.81282120950004
 21
607.04612584354652
  0
LINE
  8
_0-7_レイヤ6
  6
CONTINUOUS
 62
    3
 10
483.87948820950004
 20
607.56347684354648
 11
484.61282120950005
 21
607.14008684354644
  0
LINE
  8
_0-7_レイヤ6
  6
CONTINUOUS
 62
    3
 10
484.61282120950005
 20
607.98686684354652
 11
483.87948820950004
 21
607.56347684354648
  0
LINE
  8
_0-7_レイヤ6
  6
CONTINUOUS
 62
    3
 10
486.21282120950002
 20
605.21162484354647
 11
483.87948820950004
 21
605.68199484354648
  0
LINE
  8
_0-7_レイヤ6
  6
CONTINUOUS
 62
    3
 10
483.87948820950004
 20
605.68199484354648
 11
484.61282120950005
 21
605.25860484354644
  0
LINE
  8
_0-7_レイヤ6
  6
CONTINUOUS
 62
    3
 10
484.61282120950005
 20
606.10538584354651
 11
483.87948820950004
 21
605.68199484354648
  0
LINE
  8
_0-7_レイヤ6
  6
CONTINUOUS
 62
    3
 10
480.21282120950002
 20
614.36279284354646
 11
480.76758520950006
 21
614.75124284354649
  0
LINE
  8
_0-7_レイヤ6
  6
CONTINUOUS
 62
    3
 10
487.80816924780004
 20
609.41279284354653
 11
487.80816924780004
 21
608.92760784354653
  0
LINE
  8
_0-7_レイヤ6
  6
CONTINUOUS
 62
    3
 10
487.80816924780004
 20
608.92760784354653
 11
486.16205852970006
 21
609.41153404444651
  0
LINE
  8
_0-7_レイヤ6
  6
CONTINUOUS
 62
    3
 10
483.93519962440007
 20
609.41279284354653
 11
484.61282120950005
 21
609.02156784354645
  0
LINE
  8
_0-7_レイヤ6
  6
CONTINUOUS
 62
    3
 10
488.54615420950006
 20
608.50421784354648
 11
484.03904697380005
 21
609.41279284354653
  0
LINE
  8
_0-7_レイヤ6
  6
DOT_17
 62
    3
 10
484.61282120950005
 20
609.86834884354653
 11
484.61282120950005
 21
610.90304984354646
  0
LINE
  8
_0-7_レイヤ6
  6
DOT_17
 62
    3
 10
484.61282120950005
 20
609.86834884354653
 11
483.87948820950004
 21
609.44495784354649
  0
LINE
  8
_0-7_レイヤ6
  6
DOT_17
 62
    3
 10
487.81282120950004
 20
611.84378984354646
 11
487.81282120950004
 21
610.80908884354642
  0
LINE
  8
_0-7_レイヤ6
  6
DOT_17
 62
    3
 10
484.61282120950005
 20
612.61279284354646
 11
484.61282120950005
 21
611.74982984354642
  0
LINE
  8
_0-7_レイヤ6
  6
DOT_17
 62
    3
 10
487.81282120950004
 20
609.96230884354645
 11
484.61282120950005
 21
610.90304984354646
  0
LINE
  8
_0-7_レイヤ6
  6
DOT_17
 62
    3
 10
487.81282120950004
 20
610.80908884354642
 11
484.61282120950005
 21
611.74982984354642
  0
LINE
  8
_0-7_レイヤ6
  6
DOT_17
 62
    3
 10
488.54615420950006
 20
610.38569884354649
 11
483.87948820950004
 21
611.3264398435465
  0
LINE
  8
_0-7_レイヤ6
  6
DOT_17
 62
    3
 10
488.54615420950006
 20
610.38569884354649
 11
487.81282120950004
 21
609.96230884354645
  0
LINE
  8
_0-7_レイヤ6
  6
DOT_17
 62
    3
 10
488.54615420950006
 20
610.38569884354649
 11
487.81282120950004
 21
610.80908884354642
  0
LINE
  8
_0-7_レイヤ6
  6
DOT_17
 62
    3
 10
483.87948820950004
 20
611.3264398435465
 11
484.61282120950005
 21
610.90304984354646
  0
LINE
  8
_0-7_レイヤ6
  6
DOT_17
 62
    3
 10
484.61282120950005
 20
611.74982984354642
 11
483.87948820950004
 21
611.3264398435465
  0
LINE
  8
_0-7_レイヤ6
  6
DOT_17
 62
    3
 10
485.19700120950006
 20
612.61279284354646
 11
487.81282120950004
 21
611.84378984354646
  0
LINE
  8
_0-7_レイヤ6
  6
DOT_17
 62
    3
 10
486.83169920950007
 20
612.61279284354646
 11
488.54615420950006
 21
612.2671808435465
  0
LINE
  8
_0-7_レイヤ6
  6
DOT_17
 62
    3
 10
488.54615420950006
 20
612.2671808435465
 11
487.81282120950004
 21
611.84378984354646
  0
LINE
  8
_0-7_レイヤ6
  6
DOT_17
 62
    3
 10
487.94753620950007
 20
612.61279284354646
 11
488.54615420950006
 21
612.2671808435465
  0
LINE
  8
_0-7_レイヤ6
  6
DOT_17
 62
    3
 10
487.81282120950004
 20
609.96230884354645
 11
487.81282120950004
 21
609.41279284354653
  0
LINE
  8
_0-7_レイヤ6
  6
DOT_17
 62
    3
 10
486.16242859350007
 20
609.41279284354653
 11
484.61282120950005
 21
609.86834884354653
  0
LINE
  8
_0-7_レイヤ6
  6
DOT_17
 62
    3
 10
483.87948820950004
 20
609.44495784354649
 11
483.93519962440007
 21
609.41279284354653
  0
LINE
  8
_0-7_レイヤ6
  6
DOT_17
 62
    3
 10
484.03904697380005
 20
609.41279284354653
 11
483.87948820950004
 21
609.44495784354649
  0
LINE
  8
_0-7_レイヤ6
  6
CONTINUOUS
 62
    3
 10
180.20816924780002
 20
602.56678099054648
 11
180.20816924780002
 21
592.91279284354653
  0
LINE
  8
_0-7_レイヤ6
  6
CONTINUOUS
 62
    3
 10
182.20816924780002
 20
592.91279284354653
 11
180.20816924780002
 21
602.56678099054648
  0
ARC
  8
_0-7_レイヤ6
  6
CONTINUOUS
 62
    3
 10
155.16920821770009
 20
597.93388231854647
 40
19.399999999999999
 50
345
 51
13.956251751399998
  0
LINE
  8
_0-7_レイヤ6
  6
CONTINUOUS
 62
    3
 10
494.20816924780007
 20
602.56678099054648
 11
494.20816924780007
 21
592.91279284354653
  0
LINE
  8
_0-7_レイヤ6
  6
CONTINUOUS
 62
    3
 10
492.20816924780007
 20
592.91279284354653
 11
494.20816924780007
 21
602.56678099054648
  0
ARC
  8
_0-7_レイヤ6
  6
CONTINUOUS
 62
    3
 10
519.24713027780001
 20
597.93388231854647
 40
19.399999999999999
 50
166.0437482486
 51
195
  0
ARC
  8
_0-3_レイヤ2
  6
CONTINUOUS
 62
    3
 10
262.88008424780003
 20
582.91279284354653
 40
10
 50
7.6880370000000005
 51
90.000000000000014
  0
ARC
  8
_0-3_レイヤ2
  6
CONTINUOUS
 62
    3
 10
262.88008424780003
 20
582.41279284354653
 40
11.5
 50
7.6880370000000005
 51
90.000000000000014
  0
ARC
  8
_0-3_レイヤ2
  6
CONTINUOUS
 62
    3
 10
336.95816924780007
 20
592.41279284354653
 40
63.25
 50
187.68803700000004
 51
270.22646800000001
  0
ARC
  8
_0-3_レイヤ2
  6
CONTINUOUS
 62
    3
 10
336.95816924780007
 20
592.91279284354653
 40
64.75
 50
187.68803700000004
 51
270.22122100000001
  0
ARC
  8
_0-3_レイヤ2
  6
CONTINUOUS
 62
    3
 10
411.53625424780006
 20
582.91279284354653
 40
10
 50
90
 51
172.31196299999999
  0
ARC
  8
_0-3_レイヤ2
  6
CONTINUOUS
 62
    3
 10
411.53625424780006
 20
582.41279284354653
 40
11.5
 50
90
 51
172.31196299999999
  0
ARC
  8
_0-3_レイヤ2
  6
CONTINUOUS
 62
    3
 10
337.45816924780007
 20
592.41279284354653
 40
63.25
 50
269.77353599999998
 51
352.31196299999999
  0
ARC
  8
_0-3_レイヤ2
  6
CONTINUOUS
 62
    3
 10
337.45816924780007
 20
592.91279284354653
 40
64.75
 50
269.77878199999998
 51
352.31196299999999
  0
LINE
  8
_0-3_レイヤ2
  6
CONTINUOUS
 62
    3
 10
182.20816924780002
 20
593.91279284354653
 11
262.88008424780003
 21
593.91279284354653
  0
LINE
  8
_0-3_レイヤ2
  6
CONTINUOUS
 62
    3
 10
182.20816924780002
 20
592.91279284354653
 11
262.88008424780003
 21
592.91279284354653
  0
LINE
  8
_0-a_レイヤ9
  6
CONTINUOUS
 62
    3
 10
188.20816924780002
 20
622.91279284354653
 11
188.20816924780002
 21
632.91279284354653
  0
LINE
  8
_0-a_レイヤ9
  6
CONTINUOUS
 62
    3
 10
188.20816924780002
 20
632.91279284354653
 11
188.20816924780002
 21
637.71279284354648
  0
LINE
  8
_0-a_レイヤ9
  6
CONTINUOUS
 62
    3
 10
486.20816924780007
 20
622.91279284354653
 11
486.20816924780007
 21
632.91279284354653
  0
LINE
  8
_0-a_レイヤ9
  6
CONTINUOUS
 62
    3
 10
486.20816924780007
 20
632.91279284354653
 11
486.20816924780007
 21
637.71279284354648
  0
LINE
  8
_0-a_レイヤ9
  6
CONTINUOUS
 62
    3
 10
172.20816924780002
 20
642.91279284354653
 11
172.20816924780002
 21
652.91279284354653
  0
LINE
  8
_0-a_レイヤ9
  6
CONTINUOUS
 62
    3
 10
172.20816924780002
 20
652.91279284354653
 11
172.20816924780002
 21
657.71279284354648
  0
LINE
  8
_0-a_レイヤ9
  6
CONTINUOUS
 62
    3
 10
502.20816924780007
 20
642.91279284354653
 11
502.20816924780007
 21
652.91279284354653
  0
LINE
  8
_0-a_レイヤ9
  6
CONTINUOUS
 62
    3
 10
502.20816924780007
 20
652.91279284354653
 11
502.20816924780007
 21
657.71279284354648
  0
LINE
  8
_0-a_レイヤ9
  6
CONTINUOUS
 62
    3
 10
262.20816924780007
 20
482.91279284354653
 11
262.20816924780007
 21
472.91279284354653
  0
LINE
  8
_0-a_レイヤ9
  6
CONTINUOUS
 62
    3
 10
262.20816924780007
 20
472.91279284354653
 11
262.20816924780007
 21
468.11279284354646
  0
LINE
  8
_0-a_レイヤ9
  6
CONTINUOUS
 62
    3
 10
412.20816924780007
 20
482.91279284354653
 11
412.20816924780007
 21
472.91279284354653
  0
LINE
  8
_0-a_レイヤ9
  6
CONTINUOUS
 62
    3
 10
412.20816924780007
 20
472.91279284354653
 11
412.20816924780007
 21
468.11279284354646
  0
LINE
  8
_0-a_レイヤ9
  6
CONTINUOUS
 62
    3
 10
172.20816924780002
 20
622.91279284354653
 11
172.20816924780002
 21
672.91279284354653
  0
LINE
  8
_0-a_レイヤ9
  6
CONTINUOUS
 62
    3
 10
172.20816924780002
 20
672.91279284354653
 11
172.20816924780002
 21
677.71279284354648
  0
LINE
  8
_0-a_レイヤ9
  6
CONTINUOUS
 62
    3
 10
502.20816924780007
 20
622.91279284354653
 11
502.20816924780007
 21
672.91279284354653
  0
LINE
  8
_0-a_レイヤ9
  6
CONTINUOUS
 62
    3
 10
502.20816924780007
 20
672.91279284354653
 11
502.20816924780007
 21
677.71279284354648
  0
LINE
  8
_0-a_レイヤ9
  6
CONTINUOUS
 62
    3
 10
172.20816924780002
 20
617.91279284354653
 11
172.20816924780002
 21
632.91279284354653
  0
LINE
  8
_0-a_レイヤ9
  6
CONTINUOUS
 62
    3
 10
172.20816924780002
 20
632.91279284354653
 11
172.20816924780002
 21
637.71279284354648
  0
LINE
  8
_0-a_レイヤ9
  6
CONTINUOUS
 62
    3
 10
502.20816924780007
 20
617.91279284354653
 11
502.20816924780007
 21
632.91279284354653
  0
LINE
  8
_0-a_レイヤ9
  6
CONTINUOUS
 62
    3
 10
502.20816924780007
 20
632.91279284354653
 11
502.20816924780007
 21
637.71279284354648
  0
LINE
  8
_0-a_レイヤ9
  6
CONTINUOUS
 62
    3
 10
397.20816924780007
 20
617.91279284354653
 11
397.20816924780007
 21
652.91279284354653
  0
LINE
  8
_0-a_レイヤ9
  6
CONTINUOUS
 62
    3
 10
397.20816924780007
 20
652.91279284354653
 11
397.20816924780007
 21
657.71279284354648
  0
LINE
  8
_0-a_レイヤ9
  6
CONTINUOUS
 62
    3
 10
277.20816924780007
 20
617.91279284354653
 11
277.20816924780007
 21
652.91279284354653
  0
LINE
  8
_0-a_レイヤ9
  6
CONTINUOUS
 62
    3
 10
277.20816924780007
 20
652.91279284354653
 11
277.20816924780007
 21
657.71279284354648
  0
LINE
  8
_0-a_レイヤ9
  6
CONTINUOUS
 62
    3
 10
467.20816924780007
 20
535.41279284354653
 11
467.20816924780007
 21
472.91279284354653
  0
LINE
  8
_0-a_レイヤ9
  6
CONTINUOUS
 62
    3
 10
467.20816924780007
 20
472.91279284354653
 11
467.20816924780007
 21
468.11279284354646
  0
LINE
  8
_0-a_レイヤ9
  6
CONTINUOUS
 62
    3
 10
207.20816924780002
 20
535.41279284354653
 11
207.20816924780002
 21
472.91279284354653
  0
LINE
  8
_0-a_レイヤ9
  6
CONTINUOUS
 62
    3
 10
207.20816924780002
 20
472.91279284354653
 11
207.20816924780002
 21
468.11279284354646
  0
LINE
  8
_0-a_レイヤ9
  6
CONTINUOUS
 62
    3
 10
188.20816924780002
 20
618.41279284354653
 11
196.57974815100005
 21
632.91279284354653
  0
CIRCLE
  8
_0-a_レイヤ9
  6
CONTINUOUS
 62
    3
 10
291.54869823120004
 20
642.24291986244646
 40
5
  0
CIRCLE
  8
_0-a_レイヤ9
  6
CONTINUOUS
 62
    3
 10
232.14192597750002
 20
642.24291986244646
 40
5
  0
CIRCLE
  8
_0-a_レイヤ9
  6
CONTINUOUS
 62
    3
 10
199.07974815100005
 20
637.24291986244646
 40
5
  0
CIRCLE
  8
_0-a_レイヤ9
  6
CONTINUOUS
 62
    3
 10
291.25517463150004
 20
622.24291986244646
 40
5
  0
CIRCLE
  8
_0-a_レイヤ9
  6
CONTINUOUS
 62
    3
 10
346.86731258570006
 20
622.24291986244646
 40
5
  0
LINE
  8
_0-a_レイヤ9
  6
CONTINUOUS
 62
    3
 10
283.47019292680005
 20
557.08588755974642
 11
292.60786095290007
 21
572.91279284354653
  0
CIRCLE
  8
_0-a_レイヤ9
  6
CONTINUOUS
 62
    3
 10
294.70816924780007
 20
577.24291986244646
 40
5
  0
CIRCLE
  8
_0-a_レイヤ9
  6
CONTINUOUS
 62
    3
 10
229.53348679510003
 20
573.58266582464648
 40
5
  0
LINE
  8
_0-a_レイヤ9
  6
CONTINUOUS
 62
    3
 10
216.20816924780002
 20
596.66279284354653
 11
227.03348679510003
 21
577.91279284354653
  0
CIRCLE
  8
_0-a_レイヤ9
  6
CONTINUOUS
 62
    3
 10
185.77108041830002
 20
563.58266582464648
 40
5
  0
LINE
  8
_0-a_レイヤ9
  6
CONTINUOUS
 62
    3
 10
203.39048874780008
 20
555.04549434354647
 11
196.38567027070007
 21
542.91279284354653
  0
CIRCLE
  8
_0-a_レイヤ9
  6
CONTINUOUS
 62
    3
 10
193.88567027070007
 20
538.58266582464648
 40
5
  0
LINE
  8
_0-a_レイヤ9
  6
CONTINUOUS
 62
    3
 10
162.20816924780002
 20
602.61279284354646
 11
152.20816924780002
 21
602.61279284354646
  0
LINE
  8
_0-a_レイヤ9
  6
CONTINUOUS
 62
    3
 10
152.20816924780002
 20
602.61279284354646
 11
147.40816924780006
 21
602.61279284354646
  0
LINE
  8
_0-a_レイヤ9
  6
CONTINUOUS
 62
    3
 10
162.20816924780002
 20
592.91279284354653
 11
152.20816924780002
 21
592.91279284354653
  0
LINE
  8
_0-a_レイヤ9
  6
CONTINUOUS
 62
    3
 10
152.20816924780002
 20
592.91279284354653
 11
147.40816924780006
 21
592.91279284354653
  0
LINE
  8
_0-a_レイヤ9
  6
CONTINUOUS
 62
    3
 10
162.20816924780002
 20
612.61279284354646
 11
152.20816924780002
 21
612.61279284354646
  0
LINE
  8
_0-a_レイヤ9
  6
CONTINUOUS
 62
    3
 10
152.20816924780002
 20
612.61279284354646
 11
147.40816924780006
 21
612.61279284354646
  0
LINE
  8
_0-a_レイヤ9
  6
CONTINUOUS
 62
    3
 10
152.20816924780002
 20
592.91279284354653
 11
142.20816924780002
 21
592.91279284354653
  0
LINE
  8
_0-a_レイヤ9
  6
CONTINUOUS
 62
    3
 10
142.20816924780002
 20
592.91279284354653
 11
137.40816924780006
 21
592.91279284354653
  0
LINE
  8
_0-a_レイヤ9
  6
CONTINUOUS
 62
    3
 10
152.20816924780002
 20
612.61279284354646
 11
142.20816924780002
 21
612.61279284354646
  0
LINE
  8
_0-a_レイヤ9
  6
CONTINUOUS
 62
    3
 10
142.20816924780002
 20
612.61279284354646
 11
137.40816924780006
 21
612.61279284354646
  0
LINE
  8
_0-a_レイヤ9
  6
CONTINUOUS
 62
    3
 10
215.20816924780002
 20
612.91279284354653
 11
229.64192597750002
 21
637.91279284354653
  0
LINE
  8
_0-a_レイヤ9
  6
CONTINUOUS
 62
    3
 10
272.50762846310005
 20
609.26281959364644
 11
289.04869823120004
 21
637.91279284354653
  0
LINE
  8
_0-a_レイヤ9
  6
CONTINUOUS
 62
    3
 10
288.75517463150004
 20
617.91279284354653
 11
277.20816924780007
 21
597.91279284354653
  0
LINE
  8
_0-a_レイヤ9
  6
CONTINUOUS
 62
    3
 10
337.20816924780007
 20
605.51279284354644
 11
344.36731258570006
 21
617.91279284354653
  0
LINE
  8
_0-a_レイヤ9
  6
CONTINUOUS
 62
    3
 10
207.20816924780002
 20
600.71279284354648
 11
188.27108041830002
 21
567.91279284354653
  0
LINE
  8
_0-a_レイヤ9
  6
CENTER
 62
    3
 10
188.20351728600008
 20
620.36279284354646
 11
188.20351728600008
 21
597.61279284354646
  0
LINE
  8
_0-a_レイヤ9
  6
CENTER
 62
    3
 10
486.21282120950002
 20
620.36279284354646
 11
486.21282120950002
 21
597.61279284354646
  0
LINE
  8
_0-a_レイヤ9
  6
CONTINUOUS
 62
    3
 10
174.44769191600005
 20
600.10184594764644
 11
157.25332916070005
 21
629.8833558435465
  0
LINE
  8
_0-a_レイヤ9
  6
CENTER
 62
    3
 10
207.20816924780002
 20
606.0627928435465
 11
207.20816924780002
 21
540.31184020164642
  0
LINE
  8
_0-a_レイヤ9
  6
CENTER
 62
    3
 10
467.20816924780007
 20
606.0627928435465
 11
467.20816924780007
 21
540.31184020164642
  0
LINE
  8
_0-a_レイヤ9
  6
CONTINUOUS
 62
    3
 10
172.20816924780002
 20
672.91279284354653
 11
502.20816924780007
 21
672.91279284354653
  0
LINE
  8
_0-a_レイヤ9
  6
CONTINUOUS
 62
    3
 10
178.00372420550002
 20
674.46570711414643
 11
172.20816924780002
 21
672.91279284354653
  0
LINE
  8
_0-a_レイヤ9
  6
CONTINUOUS
 62
    3
 10
172.20816924780002
 20
672.91279284354653
 11
178.00372420550002
 21
671.35987857294651
  0
LINE
  8
_0-a_レイヤ9
  6
CONTINUOUS
 62
    3
 10
496.41261429000002
 20
671.35987857294651
 11
502.20816924780007
 21
672.91279284354653
  0
LINE
  8
_0-a_レイヤ9
  6
CONTINUOUS
 62
    3
 10
502.20816924780007
 20
672.91279284354653
 11
496.41261429000002
 21
674.46570711414643
  0
LINE
  8
_0-a_レイヤ9
  6
CONTINUOUS
 62
    3
 10
502.20816924780007
 20
652.91279284354653
 11
397.20816924780007
 21
652.91279284354653
  0
LINE
  8
_0-a_レイヤ9
  6
CONTINUOUS
 62
    3
 10
496.41261429000002
 20
651.35987857294651
 11
502.20816924780007
 21
652.91279284354653
  0
LINE
  8
_0-a_レイヤ9
  6
CONTINUOUS
 62
    3
 10
502.20816924780007
 20
652.91279284354653
 11
496.41261429000002
 21
654.46570711414643
  0
LINE
  8
_0-a_レイヤ9
  6
CONTINUOUS
 62
    3
 10
403.00372420550002
 20
654.46570711414643
 11
397.20816924780007
 21
652.91279284354653
  0
LINE
  8
_0-a_レイヤ9
  6
CONTINUOUS
 62
    3
 10
397.20816924780007
 20
652.91279284354653
 11
403.00372420550002
 21
651.35987857294651
  0
LINE
  8
_0-a_レイヤ9
  6
CONTINUOUS
 62
    3
 10
397.20816924780007
 20
652.91279284354653
 11
277.20816924780007
 21
652.91279284354653
  0
LINE
  8
_0-a_レイヤ9
  6
CONTINUOUS
 62
    3
 10
391.41261429000002
 20
651.35987857294651
 11
397.20816924780007
 21
652.91279284354653
  0
LINE
  8
_0-a_レイヤ9
  6
CONTINUOUS
 62
    3
 10
397.20816924780007
 20
652.91279284354653
 11
391.41261429000002
 21
654.46570711414643
  0
LINE
  8
_0-a_レイヤ9
  6
CONTINUOUS
 62
    3
 10
283.00372420550002
 20
654.46570711414643
 11
277.20816924780007
 21
652.91279284354653
  0
LINE
  8
_0-a_レイヤ9
  6
CONTINUOUS
 62
    3
 10
277.20816924780007
 20
652.91279284354653
 11
283.00372420550002
 21
651.35987857294651
  0
LINE
  8
_0-a_レイヤ9
  6
CONTINUOUS
 62
    3
 10
277.20816924780007
 20
652.91279284354653
 11
172.20816924780002
 21
652.91279284354653
  0
LINE
  8
_0-a_レイヤ9
  6
CONTINUOUS
 62
    3
 10
271.41261429000002
 20
651.35987857294651
 11
277.20816924780007
 21
652.91279284354653
  0
LINE
  8
_0-a_レイヤ9
  6
CONTINUOUS
 62
    3
 10
277.20816924780007
 20
652.91279284354653
 11
271.41261429000002
 21
654.46570711414643
  0
LINE
  8
_0-a_レイヤ9
  6
CONTINUOUS
 62
    3
 10
178.00372420550002
 20
654.46570711414643
 11
172.20816924780002
 21
652.91279284354653
  0
LINE
  8
_0-a_レイヤ9
  6
CONTINUOUS
 62
    3
 10
172.20816924780002
 20
652.91279284354653
 11
178.00372420550002
 21
651.35987857294651
  0
LINE
  8
_0-a_レイヤ9
  6
CONTINUOUS
 62
    3
 10
172.20816924780002
 20
632.91279284354653
 11
188.20816924780002
 21
632.91279284354653
  0
LINE
  8
_0-a_レイヤ9
  6
CONTINUOUS
 62
    3
 10
178.00372420550002
 20
634.46570711414643
 11
172.20816924780002
 21
632.91279284354653
  0
LINE
  8
_0-a_レイヤ9
  6
CONTINUOUS
 62
    3
 10
172.20816924780002
 20
632.91279284354653
 11
178.00372420550002
 21
631.35987857294651
  0
LINE
  8
_0-a_レイヤ9
  6
CONTINUOUS
 62
    3
 10
182.41261429000008
 20
631.35987857294651
 11
188.20816924780002
 21
632.91279284354653
  0
LINE
  8
_0-a_レイヤ9
  6
CONTINUOUS
 62
    3
 10
188.20816924780002
 20
632.91279284354653
 11
182.41261429000008
 21
634.46570711414643
  0
LINE
  8
_0-a_レイヤ9
  6
CONTINUOUS
 62
    3
 10
486.20816924780007
 20
632.91279284354653
 11
502.20816924780007
 21
632.91279284354653
  0
LINE
  8
_0-a_レイヤ9
  6
CONTINUOUS
 62
    3
 10
492.00372420550002
 20
634.46570711414643
 11
486.20816924780007
 21
632.91279284354653
  0
LINE
  8
_0-a_レイヤ9
  6
CONTINUOUS
 62
    3
 10
486.20816924780007
 20
632.91279284354653
 11
492.00372420550002
 21
631.35987857294651
  0
LINE
  8
_0-a_レイヤ9
  6
CONTINUOUS
 62
    3
 10
496.41261429000002
 20
631.35987857294651
 11
502.20816924780007
 21
632.91279284354653
  0
LINE
  8
_0-a_レイヤ9
  6
CONTINUOUS
 62
    3
 10
502.20816924780007
 20
632.91279284354653
 11
496.41261429000002
 21
634.46570711414643
  0
LINE
  8
_0-a_レイヤ9
  6
CONTINUOUS
 62
    3
 10
467.20816924780007
 20
472.91279284354653
 11
412.20816924780007
 21
472.91279284354653
  0
LINE
  8
_0-a_レイヤ9
  6
CONTINUOUS
 62
    3
 10
461.41261429000002
 20
471.35987857294651
 11
467.20816924780007
 21
472.91279284354653
  0
LINE
  8
_0-a_レイヤ9
  6
CONTINUOUS
 62
    3
 10
467.20816924780007
 20
472.91279284354653
 11
461.41261429000002
 21
474.46570711414643
  0
LINE
  8
_0-a_レイヤ9
  6
CONTINUOUS
 62
    3
 10
418.00372420550002
 20
474.46570711414643
 11
412.20816924780007
 21
472.91279284354653
  0
LINE
  8
_0-a_レイヤ9
  6
CONTINUOUS
 62
    3
 10
412.20816924780007
 20
472.91279284354653
 11
418.00372420550002
 21
471.35987857294651
  0
LINE
  8
_0-a_レイヤ9
  6
CONTINUOUS
 62
    3
 10
412.20816924780007
 20
472.91279284354653
 11
262.20816924780007
 21
472.91279284354653
  0
LINE
  8
_0-a_レイヤ9
  6
CONTINUOUS
 62
    3
 10
406.41261429000002
 20
471.35987857294651
 11
412.20816924780007
 21
472.91279284354653
  0
LINE
  8
_0-a_レイヤ9
  6
CONTINUOUS
 62
    3
 10
412.20816924780007
 20
472.91279284354653
 11
406.41261429000002
 21
474.46570711414643
  0
LINE
  8
_0-a_レイヤ9
  6
CONTINUOUS
 62
    3
 10
268.00372420550002
 20
474.46570711414643
 11
262.20816924780007
 21
472.91279284354653
  0
LINE
  8
_0-a_レイヤ9
  6
CONTINUOUS
 62
    3
 10
262.20816924780007
 20
472.91279284354653
 11
268.00372420550002
 21
471.35987857294651
  0
LINE
  8
_0-a_レイヤ9
  6
CONTINUOUS
 62
    3
 10
262.20816924780007
 20
472.91279284354653
 11
207.20816924780002
 21
472.91279284354653
  0
LINE
  8
_0-a_レイヤ9
  6
CONTINUOUS
 62
    3
 10
256.41261429000008
 20
471.35987857294651
 11
262.20816924780007
 21
472.91279284354653
  0
LINE
  8
_0-a_レイヤ9
  6
CONTINUOUS
 62
    3
 10
262.20816924780007
 20
472.91279284354653
 11
256.41261429000008
 21
474.46570711414643
  0
LINE
  8
_0-a_レイヤ9
  6
CONTINUOUS
 62
    3
 10
213.00372420550002
 20
474.46570711414643
 11
207.20816924780002
 21
472.91279284354653
  0
LINE
  8
_0-a_レイヤ9
  6
CONTINUOUS
 62
    3
 10
207.20816924780002
 20
472.91279284354653
 11
213.00372420550002
 21
471.35987857294651
  0
LINE
  8
_0-a_レイヤ9
  6
CONTINUOUS
 62
    3
 10
188.20816924780002
 20
632.91279284354653
 11
172.20816924780002
 21
632.91279284354653
  0
LINE
  8
_0-a_レイヤ9
  6
CONTINUOUS
 62
    3
 10
182.41261429000008
 20
631.35987857294651
 11
188.20816924780002
 21
632.91279284354653
  0
LINE
  8
_0-a_レイヤ9
  6
CONTINUOUS
 62
    3
 10
188.20816924780002
 20
632.91279284354653
 11
182.41261429000008
 21
634.46570711414643
  0
LINE
  8
_0-a_レイヤ9
  6
CONTINUOUS
 62
    3
 10
178.00372420550002
 20
634.46570711414643
 11
172.20816924780002
 21
632.91279284354653
  0
LINE
  8
_0-a_レイヤ9
  6
CONTINUOUS
 62
    3
 10
172.20816924780002
 20
632.91279284354653
 11
178.00372420550002
 21
631.35987857294651
  0
LINE
  8
_0-a_レイヤ9
  6
CONTINUOUS
 62
    3
 10
142.20816924780002
 20
612.61279284354646
 11
142.20816924780002
 21
592.91279284354653
  0
LINE
  8
_0-a_レイヤ9
  6
CONTINUOUS
 62
    3
 10
143.76108351840003
 20
606.81723788584645
 11
142.20816924780002
 21
612.61279284354646
  0
LINE
  8
_0-a_レイヤ9
  6
CONTINUOUS
 62
    3
 10
142.20816924780002
 20
612.61279284354646
 11
140.65525497710007
 21
606.81723788584645
  0
LINE
  8
_0-a_レイヤ9
  6
CONTINUOUS
 62
    3
 10
140.65525497710007
 20
598.70834780124642
 11
142.20816924780002
 21
592.91279284354653
  0
LINE
  8
_0-a_レイヤ9
  6
CONTINUOUS
 62
    3
 10
142.20816924780002
 20
592.91279284354653
 11
143.76108351840003
 21
598.70834780124642
  0
LINE
  8
_0-a_レイヤ9
  6
CONTINUOUS
 62
    3
 10
152.20816924780002
 20
622.91279284354653
 11
152.20816924780002
 21
577.91279284354653
  0
LINE
  8
_0-a_レイヤ9
  6
CONTINUOUS
 62
    3
 10
152.20816924780002
 20
612.61279284354646
 11
153.76108351840003
 21
618.40834780124646
  0
LINE
  8
_0-a_レイヤ9
  6
CONTINUOUS
 62
    3
 10
152.20816924780002
 20
612.61279284354646
 11
150.65525497710007
 21
618.40834780124646
  0
LINE
  8
_0-a_レイヤ9
  6
CONTINUOUS
 62
    3
 10
152.20816924780002
 20
592.91279284354653
 11
153.76108351840003
 21
587.11723788584652
  0
LINE
  8
_0-a_レイヤ9
  6
CONTINUOUS
 62
    3
 10
152.20816924780002
 20
592.91279284354653
 11
150.65525497710007
 21
587.11723788584652
  0
LINE
  8
_0-a_レイヤ9
  6
CONTINUOUS
 62
    3
 10
152.20816924780002
 20
602.61279284354646
 11
153.76108351840003
 21
608.40834780124646
  0
LINE
  8
_0-a_レイヤ9
  6
CONTINUOUS
 62
    3
 10
152.20816924780002
 20
602.61279284354646
 11
150.65525497710007
 21
608.40834780124646
  0
LINE
  8
_0-a_レイヤ9
  6
CONTINUOUS
 62
    3
 10
152.20816924780002
 20
602.61279284354646
 11
150.65525497710007
 21
596.81723788584645
  0
LINE
  8
_0-a_レイヤ9
  6
CONTINUOUS
 62
    3
 10
152.20816924780002
 20
602.61279284354646
 11
153.76108351840003
 21
596.81723788584645
  0
LINE
  8
_0-2_レイヤ1
  6
CONTINUOUS
 62
    3
 10
441.00816918780004
 20
601.11280370354643
 11
442.20816968780002
 21
601.11280382354653
  0
LINE
  8
_0-2_レイヤ1
  6
CONTINUOUS
 62
    3
 10
232.20816918780008
 20
601.11278282354647
 11
233.40816918780001
 21
601.11278282354647
  0
LINE
  8
_0-2_レイヤ1
  6
DASHED
 62
    3
 10
235.20816918780008
 20
604.91279026414645
 11
235.20816926150007
 21
606.11279077684651
  0
LINE
  8
_0-2_レイヤ1
  6
DASHED
 62
    3
 10
239.20816918780008
 20
604.91279017534646
 11
239.20816926150007
 21
606.11279053114652
  0
LINE
  8
_0-2_レイヤ1
  6
DASHED
 62
    3
 10
439.20816968780002
 20
604.91279026414645
 11
439.20816961400004
 21
606.11279077684651
  0
LINE
  8
_0-2_レイヤ1
  6
DASHED
 62
    3
 10
435.20816968780002
 20
604.91279017534646
 11
435.20816961400004
 21
606.11279053114652
  0
LINE
  8
_0-2_レイヤ1
  6
CONTINUOUS
 62
    3
 10
441.00816917210005
 20
604.41279010164646
 11
441.00816968780003
 21
601.11280366564642
  0
LINE
  8
_0-2_レイヤ1
  6
CONTINUOUS
 62
    3
 10
232.20816918780008
 20
604.41279002354645
 11
232.20816918780008
 21
601.11278282354647
  0
LINE
  8
_0-2_レイヤ1
  6
CONTINUOUS
 62
    3
 10
233.90816918780001
 20
606.11279002354649
 11
440.50816930780007
 21
606.11279002354649
  0
LINE
  8
_0-2_レイヤ1
  6
CONTINUOUS
 62
    3
 10
442.20816935780005
 20
604.41279019354647
 11
442.20816968780002
 21
601.11280382354653
  0
LINE
  8
_0-2_レイヤ1
  6
CONTINUOUS
 62
    3
 10
233.90816918780001
 20
604.91279002354645
 11
440.50816918780004
 21
604.91279002354645
  0
ARC
  8
_0-2_レイヤ1
  6
CONTINUOUS
 62
    3
 10
233.90816918780001
 20
604.41279002354645
 40
1.7
 50
90
 51
180
  0
LINE
  8
_0-2_レイヤ1
  6
CONTINUOUS
 62
    3
 10
233.40816918780001
 20
604.41279002354645
 11
233.40816918780001
 21
601.11278282354647
  0
ARC
  8
_0-2_レイヤ1
  6
CONTINUOUS
 62
    3
 10
233.90816918780001
 20
604.41279002354645
 40
0.5
 50
90
 51
180
  0
ARC
  8
_0-2_レイヤ1
  6
CONTINUOUS
 62
    3
 10
440.50816918780004
 20
604.41279002354645
 40
0.5
 50
0.0000089525206898
 51
90
  0
ARC
  8
_0-2_レイヤ1
  6
CONTINUOUS
 62
    3
 10
440.50816930780007
 20
604.41279002354645
 40
1.7
 50
0.0000057296016546
 51
90
  0
LINE
  8
_0-a_レイヤ9
  6
CONTINUOUS
 62
    3
 10
232.20816918780008
 20
607.91279284354653
 11
232.20816918780008
 21
632.91279284354653
  0
LINE
  8
_0-a_レイヤ9
  6
CONTINUOUS
 62
    3
 10
232.20816918780008
 20
632.91279284354653
 11
232.20816918780008
 21
637.71279284354648
  0
LINE
  8
_0-a_レイヤ9
  6
CONTINUOUS
 62
    3
 10
442.20816968780002
 20
607.91279284354653
 11
442.20816968780002
 21
632.91279284354653
  0
LINE
  8
_0-a_レイヤ9
  6
CONTINUOUS
 62
    3
 10
442.20816968780002
 20
632.91279284354653
 11
442.20816968780002
 21
637.71279284354648
  0
LINE
  8
_0-a_レイヤ9
  6
CONTINUOUS
 62
    3
 10
232.20816918780008
 20
632.91279284354653
 11
442.20816968780002
 21
632.91279284354653
  0
LINE
  8
_0-a_レイヤ9
  6
CONTINUOUS
 62
    3
 10
238.00372414550009
 20
634.46570711414643
 11
232.20816918780008
 21
632.91279284354653
  0
LINE
  8
_0-a_レイヤ9
  6
CONTINUOUS
 62
    3
 10
232.20816918780008
 20
632.91279284354653
 11
238.00372414550009
 21
631.35987857294651
  0
LINE
  8
_0-a_レイヤ9
  6
CONTINUOUS
 62
    3
 10
436.41261473000003
 20
631.35987857294651
 11
442.20816968780002
 21
632.91279284354653
  0
LINE
  8
_0-a_レイヤ9
  6
CONTINUOUS
 62
    3
 10
442.20816968780002
 20
632.91279284354653
 11
436.41261473000003
 21
634.46570711414643
  0
LINE
  8
_0-a_レイヤ9
  6
CENTER
 62
    3
 10
337.20816924780007
 20
490.50898227584651
 11
337.20816924780007
 21
619.51279143354645
  0
LINE
  8
_0-1_図面枠
  6
CONTINUOUS
 62
    7
 10
1182.1017682212303
 20
813.46526599784647
 11
31.031970329000046
 21
813.46526599784647
  0
LINE
  8
_0-1_図面枠
  6
CONTINUOUS
 62
    7
 10
1182.1017682212303
 20
20.199999999999989
 11
1182.1017682212303
 21
813.46526599784647
  0
TEXT
  8
_0-a_レイヤ9
 62
    7
 10
142.20816924780002
 20
593.91424569208914
 40
9.5999999999999996
 41
1
 50
90
  1
19.7
  0
TEXT
  8
_0-a_レイヤ9
 62
    7
 10
152.20816924780002
 20
578.96424569208909
 40
9.5999999999999996
 41
1
 50
90
  1
9.7
  0
TEXT
  8
_0-a_レイヤ9
 62
    7
 10
152.20816924780002
 20
613.71424569208909
 40
9.5999999999999996
 41
1
 50
90
  1
10
  0
TEXT
  8
_0-a_レイヤ9
 62
    7
 10
230.26692597750002
 20
639.24437271098907
 40
7.5
 41
1
 50
0
  1
1
  0
TEXT
  8
_0-a_レイヤ9
 62
    7
 10
289.67369823120004
 20
639.24437271098907
 40
7.5
 41
1
 50
0
  1
9
  0
TEXT
  8
_0-a_レイヤ9
 62
    7
 10
289.38017463150004
 20
619.24437271098907
 40
7.5
 41
1
 50
0
  1
3
  0
TEXT
  8
_0-a_レイヤ9
 62
    7
 10
344.99231258570006
 20
619.24437271098907
 40
7.5
 41
1
 50
0
  1
2
  0
TEXT
  8
_0-a_レイヤ9
 62
    7
 10
292.83316924780007
 20
574.24437271098907
 40
7.5
 41
1
 50
0
  1
4
  0
TEXT
  8
_0-a_レイヤ9
 62
    7
 10
227.65848679510003
 20
570.5841186731891
 40
7.5
 41
1
 50
0
  1
8
  0
TEXT
  8
_0-a_レイヤ9
 62
    7
 10
183.89608041830002
 20
560.5841186731891
 40
7.5
 41
1
 50
0
  1
6
  0
TEXT
  8
_0-a_レイヤ9
 62
    7
 10
192.01067027070007
 20
535.5841186731891
 40
7.5
 41
1
 50
0
  1
5
  0
TEXT
  8
_0-a_レイヤ9
 62
    7
 10
42.05332916068005
 20
630.63480869208911
 40
9.5999999999999996
 41
1
 50
0
  1
コーキング処理(別途工事)
  0
TEXT
  8
_0-0_0
 62
    3
 10
217.50816924780008
 20
653.66424569208914
 40
12
 41
1
 50
0
  1
105
  0
TEXT
  8
_0-0_0
 62
    3
 10
342.00816924780003
 20
673.66424569208914
 40
12
 41
1
 50
0
  1
330
  0
TEXT
  8
_0-0_0
 62
    3
 10
330.00816924780003
 20
653.66424569208914
 40
12
 41
1
 50
0
  1
120
  0
TEXT
  8
_0-0_0
 62
    3
 10
330.00816924780003
 20
633.66424569208914
 40
12
 41
1
 50
0
  1
210
  0
TEXT
  8
_0-0_0
 62
    3
 10
442.50816924780003
 20
653.66424569208914
 40
12
 41
1
 50
0
  1
105
  0
TEXT
  8
_0-0_0
 62
    3
 10
489.40816924780006
 20
633.66424569208914
 40
12
 41
1
 50
0
  1
16
  0
TEXT
  8
_0-0_0
 62
    3
 10
175.40816924780006
 20
633.66424569208914
 40
12
 41
1
 50
0
  1
16
  0
TEXT
  8
_0-0_0
 62
    3
 10
229.90816924780006
 20
473.66424569208914
 40
12
 41
1
 50
0
  1
55
  0
TEXT
  8
_0-0_0
 62
    3
 10
330.00816924780003
 20
473.66424569208914
 40
12
 41
1
 50
0
  1
150
  0
TEXT
  8
_0-0_0
 62
    3
 10
434.90816924780006
 20
473.66424569208914
 40
12
 41
1
 50
0
  1
55
  0
LINE
  8
_0-1_図面枠
  6
HIDDEN
 62
    7
 10
31.031970329000046
 20
435.69999999999999
 11
1182.1017682212305
 21
435.69999999999999
  0
TEXT
  8
_0-a_レイヤ9
 62
    7
 10
197.65388345446058
 20
633.70563091917006
 40
7.5
 41
1
 50
0
  1
7
  0
TEXT
  8
_0-0_0
 62
    2
 10
91.031970329000046
 20
763.21671884638909
 40
14
 41
1
 50
0
  1
◇外壁－外壁（１５０ＳＳＨ－Ｓ）　Ｓ＝１／３
  0
TEXT
  8
_0-0_0
 62
    2
 10
61.031970329000046
 20
793.21671884638909
 40
14
 41
1
 50
0
  1
（ステンレス１５０タイプ）
  0
LINE
  8
_0-0_0
  6
CONTINUOUS
 62
    7
 10
750.17587051979035
 20
390.40170966994174
 11
769.03821151979037
 21
394.77057266994177
  0
LINE
  8
_0-0_0
  6
CONTINUOUS
 62
    7
 10
768.97363851979037
 20
395.78157566994173
 11
749.95033851979042
 21
391.37543166994169
  0
LINE
  8
_0-0_0
  6
CONTINUOUS
 62
    7
 10
769.03821151979037
 20
393.97097266994172
 11
774.03571151979042
 21
393.97097266994172
  0
LINE
  8
_0-0_0
  6
CONTINUOUS
 62
    7
 10
774.03571151979042
 20
393.97097266994172
 11
774.03571151979042
 21
397.56917266994174
  0
LINE
  8
_0-0_0
  6
CONTINUOUS
 62
    7
 10
774.03571151979042
 20
397.56917266994174
 11
769.03821151979037
 21
397.56917266994174
  0
LINE
  8
_0-0_0
  6
CONTINUOUS
 62
    7
 10
769.03821151979037
 20
397.56917266994174
 11
769.03821151979037
 21
393.97097266994172
  0
LINE
  8
_0-0_0
  6
CONTINUOUS
 62
    7
 10
749.92471051979044
 20
400.1903586699417
 11
769.03821151979037
 21
396.78530866994174
  0
LINE
  8
_0-0_0
  6
CONTINUOUS
 62
    7
 10
749.74941051979044
 20
399.20635066994168
 11
769.03821151979037
 21
395.77007266994178
  0
LINE
  8
_0-0_0
  6
CONTINUOUS
 62
    7
 10
863.99071151979047
 20
395.77007266994178
 11
774.03571151979042
 21
395.77007266994178
  0
ARC
  8
_0-0_0
  6
CONTINUOUS
 62
    7
 10
776.05408651979042
 20
397.26932266994174
 40
1.49925
 50
270
 51
0
  0
LINE
  8
_0-0_0
  6
CONTINUOUS
 62
    7
 10
863.99071151979047
 20
394.77057266994177
 11
774.03571151979042
 21
394.77057266994177
  0
LINE
  8
_0-0_0
  6
CONTINUOUS
 62
    7
 10
774.03571151979042
 20
396.76957266994168
 11
776.05408651979042
 21
396.76957266994168
  0
ARC
  8
_0-0_0
  6
CONTINUOUS
 62
    7
 10
776.05408651979042
 20
397.26932266994174
 40
0.49975
 50
270
 51
0
  0
LINE
  8
_0-0_0
  6
CONTINUOUS
 62
    7
 10
776.55383651979037
 20
397.56917266994174
 11
776.55383651979037
 21
397.26932266994174
  0
LINE
  8
_0-0_0
  6
CONTINUOUS
 62
    7
 10
776.55383651979037
 20
397.56917266994174
 11
777.55333651979038
 21
397.56917266994174
  0
LINE
  8
_0-0_0
  6
CONTINUOUS
 62
    7
 10
777.55333651979038
 20
397.56917266994174
 11
777.55333651979038
 21
397.26932266994174
  0
ARC
  8
_0-0_0
  6
CONTINUOUS
 62
    7
 10
749.04821151979036
 20
395.27032266994172
 40
3.9980000000000002
 50
79.898790000000005
 51
283.040795
  0
ARC
  8
_0-0_0
  6
CONTINUOUS
 62
    7
 10
749.04821151979036
 20
395.27032266994172
 40
4.9974999999999996
 50
79.898790000000005
 51
283.040795
  0
LINE
  8
_0-0_0
  6
CONTINUOUS
 62
    7
 10
987.80055151979036
 20
390.40170966994174
 11
968.93821151979046
 21
394.77057266994177
  0
LINE
  8
_0-0_0
  6
CONTINUOUS
 62
    7
 10
969.00278451979045
 20
395.78157566994173
 11
988.0260835197904
 21
391.37543166994169
  0
LINE
  8
_0-0_0
  6
CONTINUOUS
 62
    7
 10
968.93821151979046
 20
393.97097266994172
 11
963.9407115197904
 21
393.97097266994172
  0
LINE
  8
_0-0_0
  6
CONTINUOUS
 62
    7
 10
963.9407115197904
 20
393.97097266994172
 11
963.9407115197904
 21
397.56917266994174
  0
LINE
  8
_0-0_0
  6
CONTINUOUS
 62
    7
 10
963.9407115197904
 20
397.56917266994174
 11
968.93821151979046
 21
397.56917266994174
  0
LINE
  8
_0-0_0
  6
CONTINUOUS
 62
    7
 10
968.93821151979046
 20
397.56917266994174
 11
968.93821151979046
 21
393.97097266994172
  0
LINE
  8
_0-0_0
  6
CONTINUOUS
 62
    7
 10
988.05171251979039
 20
400.1903586699417
 11
968.93821151979046
 21
396.78530866994174
  0
LINE
  8
_0-0_0
  6
CONTINUOUS
 62
    7
 10
988.22701151979038
 20
399.20635066994168
 11
968.93821151979046
 21
395.77007266994178
  0
LINE
  8
_0-0_0
  6
CONTINUOUS
 62
    7
 10
873.98571151979036
 20
395.77007266994178
 11
963.9407115197904
 21
395.77007266994178
  0
ARC
  8
_0-0_0
  6
CONTINUOUS
 62
    7
 10
961.92233651979041
 20
397.26932266994174
 40
1.49925
 50
180
 51
270
  0
LINE
  8
_0-0_0
  6
CONTINUOUS
 62
    7
 10
873.98571151979036
 20
394.77057266994177
 11
963.9407115197904
 21
394.77057266994177
  0
LINE
  8
_0-0_0
  6
CONTINUOUS
 62
    7
 10
963.9407115197904
 20
396.76957266994168
 11
961.92233651979041
 21
396.76957266994168
  0
ARC
  8
_0-0_0
  6
CONTINUOUS
 62
    7
 10
961.92233651979041
 20
397.26932266994174
 40
0.49975
 50
180
 51
270
  0
LINE
  8
_0-0_0
  6
CONTINUOUS
 62
    7
 10
961.42258651979046
 20
397.56917266994174
 11
961.42258651979046
 21
397.26932266994174
  0
LINE
  8
_0-0_0
  6
CONTINUOUS
 62
    7
 10
961.42258651979046
 20
397.56917266994174
 11
960.42308651979044
 21
397.56917266994174
  0
LINE
  8
_0-0_0
  6
CONTINUOUS
 62
    7
 10
960.42308651979044
 20
397.56917266994174
 11
960.42308651979044
 21
397.26932266994174
  0
ARC
  8
_0-0_0
  6
CONTINUOUS
 62
    7
 10
988.92821151979047
 20
395.27032266994172
 40
3.9980000000000002
 50
256.959205
 51
110.010381
  0
ARC
  8
_0-0_0
  6
CONTINUOUS
 62
    7
 10
988.92821151979047
 20
395.27032266994172
 40
4.9974999999999996
 50
256.959205
 51
108.02159899999999
  0
LINE
  8
_0-0_0
  6
CONTINUOUS
 62
    7
 10
699.05235576199038
 20
83.742137269541672
 11
699.05235576199038
 21
350.14213726954176
  0
LINE
  8
_0-0_0
  6
CONTINUOUS
 62
    7
 10
720.65235576199041
 20
83.742137269541672
 11
720.65235576199041
 21
350.14213726954176
  0
LINE
  8
_0-0_0
  6
CONTINUOUS
 62
    7
 10
891.65235576199041
 20
83.742137269541672
 11
891.65235576199041
 21
350.14213726954176
  0
LINE
  8
_0-0_0
  6
CONTINUOUS
 62
    7
 10
1125.5023557619904
 20
155.74213726954167
 11
699.05235576199038
 21
155.74213726954167
  0
LINE
  8
_0-0_0
  6
CONTINUOUS
 62
    7
 10
1125.5023557619904
 20
191.74213726954173
 11
699.05235576199038
 21
191.74213726954173
  0
LINE
  8
_0-0_0
  6
CONTINUOUS
 62
    7
 10
1125.5023557619904
 20
173.74213726954173
 11
699.05235576199038
 21
173.74213726954173
  0
LINE
  8
_0-0_0
  6
CONTINUOUS
 62
    7
 10
1125.5023557619904
 20
209.74213726954173
 11
699.05235576199038
 21
209.74213726954173
  0
LINE
  8
_0-0_0
  6
CONTINUOUS
 62
    7
 10
1125.5023557619904
 20
317.74213726954179
 11
699.05235576199038
 21
317.74213726954179
  0
LINE
  8
_0-0_0
  6
CONTINUOUS
 62
    7
 10
1125.5023557619904
 20
299.74213726954179
 11
699.05235576199038
 21
299.74213726954179
  0
LINE
  8
_0-0_0
  6
CONTINUOUS
 62
    7
 10
1125.5023557619904
 20
281.74213726954179
 11
699.05235576199038
 21
281.74213726954179
  0
LINE
  8
_0-0_0
  6
CONTINUOUS
 62
    7
 10
1125.5023557619904
 20
263.74213726954179
 11
699.05235576199038
 21
263.74213726954179
  0
LINE
  8
_0-0_0
  6
CONTINUOUS
 62
    7
 10
1125.5023557619904
 20
245.74213726954173
 11
699.05235576199038
 21
245.74213726954173
  0
LINE
  8
_0-0_0
  6
CONTINUOUS
 62
    7
 10
1125.5023557619904
 20
227.74213726954173
 11
699.05235576199038
 21
227.74213726954173
  0
LINE
  8
_0-0_0
  6
CONTINUOUS
 62
    7
 10
1125.5023557619904
 20
350.14213726954176
 11
699.05235576199038
 21
350.14213726954176
  0
LINE
  8
_0-0_0
  6
CONTINUOUS
 62
    7
 10
1125.5023557619904
 20
137.74213726954167
 11
699.05235576199038
 21
137.74213726954167
  0
LINE
  8
_0-0_0
  6
CONTINUOUS
 62
    7
 10
1125.5023557619904
 20
119.74213726954167
 11
699.05235576199038
 21
119.74213726954167
  0
LINE
  8
_0-0_0
  6
CONTINUOUS
 62
    7
 10
1125.5023557619904
 20
83.742137269541672
 11
1125.5023557619904
 21
350.14213726954176
  0
LINE
  8
_0-0_0
  6
CONTINUOUS
 62
    7
 10
1067.9023557619905
 20
83.742137269541672
 11
1067.9023557619905
 21
350.14213726954176
  0
LINE
  8
_0-0_0
  6
CONTINUOUS
 62
    7
 10
1022.9023557619904
 20
83.742137269541672
 11
1022.9023557619904
 21
350.14213726954176
  0
LINE
  8
_0-0_0
  6
CONTINUOUS
 62
    7
 10
1103.9023557619905
 20
83.742137269541672
 11
1103.9023557619905
 21
350.14213726954176
  0
LINE
  8
_0-0_0
  6
CONTINUOUS
 62
    7
 10
1019.9023557619904
 20
83.742137269541672
 11
1019.9023557619904
 21
350.14213726954176
  0
LINE
  8
_0-0_0
  6
CONTINUOUS
 62
    7
 10
1125.5023557619904
 20
101.74213726954167
 11
699.05235576199038
 21
101.74213726954167
  0
LINE
  8
_0-0_0
  6
CONTINUOUS
 62
    7
 10
1125.5023557619904
 20
83.742137269541672
 11
699.05235576199038
 21
83.742137269541672
  0
LINE
  8
_0-0_0
  6
CONTINUOUS
 62
    3
 10
795.4706196723904
 20
603.34509618522611
 11
865.4706196723904
 21
603.34509618522611
  0
LINE
  8
_0-0_0
  6
HIDDEN
 62
    3
 10
795.4706196723904
 20
603.34509618522611
 11
795.4706196723904
 21
503.34509618522611
  0
LINE
  8
_0-0_0
  6
HIDDEN
 62
    3
 10
795.4706196723904
 20
503.34509618522611
 11
865.4706196723904
 21
503.34509618522611
  0
LINE
  8
_0-0_0
  6
CONTINUOUS
 62
    3
 10
865.4706196723904
 20
503.34509618522611
 11
865.4706196723904
 21
603.34509618522611
  0
LINE
  8
_0-0_0
  6
HIDDEN
 62
    3
 10
795.4706196723904
 20
503.34509618522611
 11
865.4706196723904
 21
503.34509618522611
  0
LINE
  8
_0-0_0
  6
HIDDEN
 62
    3
 10
1135.4706196723905
 20
503.34509618522611
 11
1065.4706196723905
 21
503.34509618522611
  0
LINE
  8
_0-0_0
  6
CONTINUOUS
 62
    3
 10
1065.4706196723905
 20
603.34509618522611
 11
1135.4706196723905
 21
603.34509618522611
  0
LINE
  8
_0-0_0
  6
HIDDEN
 62
    3
 10
1135.4706196723905
 20
603.34509618522611
 11
1135.4706196723905
 21
503.34509618522611
  0
LINE
  8
_0-0_0
  6
CONTINUOUS
 62
    3
 10
1065.4706196723905
 20
603.34509618522611
 11
1065.4706196723905
 21
503.34509618522611
  0
LINE
  8
_0-0_0
  6
HIDDEN
 62
    3
 10
1135.4706196723905
 20
503.34509618522611
 11
1065.4706196723905
 21
503.34509618522611
  0
LINE
  8
_0-0_0
  6
CONTINUOUS
 62
    3
 10
810.4706196723904
 20
604.34509618522611
 11
810.4706196723904
 21
603.34509618522611
  0
LINE
  8
_0-0_0
  6
CONTINUOUS
 62
    3
 10
1120.4706196723905
 20
604.34509618522611
 11
1120.4706196723905
 21
603.34509618522611
  0
LINE
  8
_0-0_0
  6
CONTINUOUS
 62
    3
 10
810.4706196723904
 20
603.34509618522611
 11
865.4706196723904
 21
603.34509618522611
  0
LINE
  8
_0-0_0
  6
CONTINUOUS
 62
    3
 10
810.4706196723904
 20
604.34509618522611
 11
865.4706196723904
 21
604.34509618522611
  0
LINE
  8
_0-0_0
  6
CONTINUOUS
 62
    3
 10
1120.4706196723905
 20
603.34509618522611
 11
1065.4706196723905
 21
603.34509618522611
  0
LINE
  8
_0-0_0
  6
CONTINUOUS
 62
    3
 10
1120.4706196723905
 20
604.34509618522611
 11
1065.4706196723905
 21
604.34509618522611
  0
LINE
  8
_0-0_0
  6
CONTINUOUS
 62
    3
 10
865.4706196723904
 20
604.34509618522611
 11
938.95411537789039
 21
530.86160047972612
  0
LINE
  8
_0-0_0
  6
CONTINUOUS
 62
    3
 10
1065.4706196723905
 20
604.34509618522611
 11
991.98712396689041
 21
530.86160047972612
  0
ARC
  8
_0-0_0
  6
CONTINUOUS
 62
    3
 10
965.4706196723904
 20
557.37810477422613
 40
37.5
 50
225
 51
315
  0
LINE
  8
_0-0_0
  6
CONTINUOUS
 62
    3
 10
865.4706196723904
 20
603.34509618522611
 11
938.95411537789039
 21
529.86160047972612
  0
LINE
  8
_0-0_0
  6
CONTINUOUS
 62
    3
 10
1065.4706196723905
 20
603.34509618522611
 11
991.98712396689041
 21
529.86160047972612
  0
ARC
  8
_0-0_0
  6
CONTINUOUS
 62
    3
 10
965.4706196723904
 20
556.37810477422613
 40
37.5
 50
225
 51
315
  0
LINE
  8
_0-0_0
  6
CONTINUOUS
 62
    3
 10
822.4706196723904
 20
621.84509618522611
 11
822.4706196723904
 21
620.84509618522611
  0
ARC
  8
_0-0_0
  6
CONTINUOUS
 62
    3
 10
809.9706196723904
 20
619.84509618522611
 40
0.5
 50
0
 51
90
  0
LINE
  8
_0-0_0
  6
CONTINUOUS
 62
    3
 10
802.7206196723904
 20
620.34509618522611
 11
809.9706196723904
 21
620.34509618522611
  0
LINE
  8
_0-0_0
  6
CONTINUOUS
 62
    3
 10
810.4706196723904
 20
619.84509618522611
 11
810.4706196723904
 21
604.34509618522611
  0
ARC
  8
_0-0_0
  6
CONTINUOUS
 62
    3
 10
821.4706196723904
 20
620.84509618522611
 40
1
 50
270
 51
0
  0
ARC
  8
_0-0_0
  6
CONTINUOUS
 62
    3
 10
812.77061967239035
 20
619.34509618522611
 40
0.5
 50
90
 51
180
  0
LINE
  8
_0-0_0
  6
CONTINUOUS
 62
    3
 10
821.4706196723904
 20
619.84509618522611
 11
812.77061967239035
 21
619.84509618522611
  0
LINE
  8
_0-0_0
  6
CONTINUOUS
 62
    3
 10
812.27061967239035
 20
619.34509618522611
 11
812.27061967239035
 21
606.84509618522611
  0
ARC
  8
_0-0_0
  6
CONTINUOUS
 62
    3
 10
812.77061967239035
 20
606.84509618522611
 40
0.5
 50
180
 51
270
  0
LINE
  8
_0-0_0
  6
CONTINUOUS
 62
    3
 10
835.17061967239044
 20
606.34509618522611
 11
812.77061967239035
 21
606.34509618522611
  0
LINE
  8
_0-0_0
  6
CONTINUOUS
 62
    3
 10
811.9706196723904
 20
604.84509618522611
 11
825.4706196723904
 21
604.84509618522611
  0
LINE
  8
_0-0_0
  6
CONTINUOUS
 62
    3
 10
825.4706196723904
 20
604.84509618522611
 11
825.4706196723904
 21
604.34509618522611
  0
LINE
  8
_0-0_0
  6
CONTINUOUS
 62
    3
 10
845.4706196723904
 20
604.84509618522611
 11
845.4706196723904
 21
604.34509618522611
  0
LINE
  8
_0-0_0
  6
CONTINUOUS
 62
    3
 10
835.4706196723904
 20
606.04509618522604
 11
835.17061967239044
 21
606.34509618522611
  0
LINE
  8
_0-0_0
  6
CONTINUOUS
 62
    3
 10
825.4706196723904
 20
604.34509618522611
 11
845.4706196723904
 21
604.34509618522611
  0
LINE
  8
_0-0_0
  6
CONTINUOUS
 62
    3
 10
835.4706196723904
 20
606.04509618522604
 11
835.77061967239047
 21
606.34509618522611
  0
ARC
  8
_0-0_0
  6
CONTINUOUS
 62
    3
 10
802.7206196723904
 20
621.09509618522611
 40
0.75
 50
90
 51
270
  0
LINE
  8
_0-0_0
  6
CONTINUOUS
 62
    3
 10
903.9706196723904
 20
604.34509618522611
 11
904.9706196723904
 21
604.34509618522611
  0
ARC
  8
_0-0_0
  6
CONTINUOUS
 62
    3
 10
904.9706196723904
 20
604.84509618522611
 40
0.5
 50
270
 51
0
  0
ARC
  8
_0-0_0
  6
CONTINUOUS
 62
    3
 10
903.4706196723904
 20
606.84509618522611
 40
0.5
 50
270
 51
0
  0
LINE
  8
_0-0_0
  6
CONTINUOUS
 62
    3
 10
903.9706196723904
 20
604.84509618522611
 11
903.9706196723904
 21
604.34509618522611
  0
LINE
  8
_0-0_0
  6
CONTINUOUS
 62
    3
 10
887.9706196723904
 20
604.84509618522611
 11
903.9706196723904
 21
604.84509618522611
  0
LINE
  8
_0-0_0
  6
CONTINUOUS
 62
    3
 10
886.4706196723904
 20
604.84509618522611
 11
886.4706196723904
 21
604.34509618522611
  0
LINE
  8
_0-0_0
  6
CONTINUOUS
 62
    3
 10
887.9706196723904
 20
604.84509618522611
 11
887.9706196723904
 21
604.34509618522611
  0
LINE
  8
_0-0_0
  6
CONTINUOUS
 62
    3
 10
886.4706196723904
 20
604.34509618522611
 11
887.9706196723904
 21
604.34509618522611
  0
LINE
  8
_0-0_0
  6
CONTINUOUS
 62
    3
 10
835.77061967239047
 20
606.34509618522611
 11
903.4706196723904
 21
606.34509618522611
  0
LINE
  8
_0-0_0
  6
CONTINUOUS
 62
    3
 10
861.4706196723904
 20
604.84509618522611
 11
861.4706196723904
 21
604.34509618522611
  0
LINE
  8
_0-0_0
  6
CONTINUOUS
 62
    3
 10
862.9706196723904
 20
604.84509618522611
 11
862.9706196723904
 21
604.34509618522611
  0
LINE
  8
_0-0_0
  6
CONTINUOUS
 62
    3
 10
861.4706196723904
 20
604.34509618522611
 11
862.9706196723904
 21
604.34509618522611
  0
LINE
  8
_0-0_0
  6
CONTINUOUS
 62
    3
 10
845.4706196723904
 20
604.84509618522611
 11
861.4706196723904
 21
604.84509618522611
  0
LINE
  8
_0-0_0
  6
CONTINUOUS
 62
    3
 10
862.9706196723904
 20
604.84509618522611
 11
886.4706196723904
 21
604.84509618522611
  0
LINE
  8
_0-0_0
  6
CONTINUOUS
 62
    3
 10
810.4706196723904
 20
604.34509618522611
 11
811.9706196723904
 21
604.34509618522611
  0
LINE
  8
_0-0_0
  6
CONTINUOUS
 62
    3
 10
811.9706196723904
 20
604.84509618522611
 11
811.9706196723904
 21
604.34509618522611
  0
ARC
  8
_0-0_0
  6
CONTINUOUS
 62
    3
 10
904.7206196723904
 20
614.59509618522611
 40
0.75
 50
0
 51
180
  0
LINE
  8
_0-0_0
  6
CONTINUOUS
 62
    3
 10
903.9706196723904
 20
614.59509618522611
 11
903.9706196723904
 21
606.84509618522611
  0
LINE
  8
_0-0_0
  6
CONTINUOUS
 62
    3
 10
905.4706196723904
 20
614.59509618522611
 11
905.4706196723904
 21
604.84509618522611
  0
ARC
  8
_0-0_0
  6
CONTINUOUS
 62
    3
 10
1120.9706196723905
 20
619.84509618522611
 40
0.5
 50
90
 51
180
  0
LINE
  8
_0-0_0
  6
CONTINUOUS
 62
    3
 10
1128.2206196723905
 20
620.34509618522611
 11
1120.9706196723905
 21
620.34509618522611
  0
LINE
  8
_0-0_0
  6
CONTINUOUS
 62
    3
 10
1120.4706196723905
 20
619.84509618522611
 11
1120.4706196723905
 21
604.34509618522611
  0
ARC
  8
_0-0_0
  6
CONTINUOUS
 62
    3
 10
1109.4706196723905
 20
620.84509618522611
 40
1
 50
180
 51
270
  0
ARC
  8
_0-0_0
  6
CONTINUOUS
 62
    3
 10
1118.1706196723903
 20
619.34509618522611
 40
0.5
 50
0
 51
90
  0
LINE
  8
_0-0_0
  6
CONTINUOUS
 62
    3
 10
1109.4706196723905
 20
619.84509618522611
 11
1118.1706196723903
 21
619.84509618522611
  0
LINE
  8
_0-0_0
  6
CONTINUOUS
 62
    3
 10
1118.6706196723903
 20
619.34509618522611
 11
1118.6706196723903
 21
606.84509618522611
  0
ARC
  8
_0-0_0
  6
CONTINUOUS
 62
    3
 10
1118.1706196723903
 20
606.84509618522611
 40
0.5
 50
270
 51
0
  0
LINE
  8
_0-0_0
  6
CONTINUOUS
 62
    3
 10
1095.7706196723905
 20
606.34509618522611
 11
1118.1706196723903
 21
606.34509618522611
  0
LINE
  8
_0-0_0
  6
CONTINUOUS
 62
    3
 10
1118.9706196723905
 20
604.84509618522611
 11
1105.4706196723905
 21
604.84509618522611
  0
LINE
  8
_0-0_0
  6
CONTINUOUS
 62
    3
 10
1105.4706196723905
 20
604.84509618522611
 11
1105.4706196723905
 21
604.34509618522611
  0
LINE
  8
_0-0_0
  6
CONTINUOUS
 62
    3
 10
1085.4706196723905
 20
604.84509618522611
 11
1085.4706196723905
 21
604.34509618522611
  0
LINE
  8
_0-0_0
  6
CONTINUOUS
 62
    3
 10
1095.4706196723905
 20
606.04509618522604
 11
1095.7706196723905
 21
606.34509618522611
  0
LINE
  8
_0-0_0
  6
CONTINUOUS
 62
    3
 10
1105.4706196723905
 20
604.34509618522611
 11
1085.4706196723905
 21
604.34509618522611
  0
LINE
  8
_0-0_0
  6
CONTINUOUS
 62
    3
 10
1095.4706196723905
 20
606.04509618522604
 11
1095.1706196723903
 21
606.34509618522611
  0
ARC
  8
_0-0_0
  6
CONTINUOUS
 62
    3
 10
1128.2206196723905
 20
621.09509618522611
 40
0.75
 50
270
 51
90
  0
LINE
  8
_0-0_0
  6
CONTINUOUS
 62
    3
 10
1108.4706196723905
 20
621.84509618522611
 11
1108.4706196723905
 21
620.84509618522611
  0
LINE
  8
_0-0_0
  6
CONTINUOUS
 62
    3
 10
1128.2206196723905
 20
621.84509618522611
 11
1108.4706196723905
 21
621.84509618522611
  0
LINE
  8
_0-0_0
  6
CONTINUOUS
 62
    3
 10
1026.9706196723905
 20
604.34509618522611
 11
1025.9706196723905
 21
604.34509618522611
  0
ARC
  8
_0-0_0
  6
CONTINUOUS
 62
    3
 10
1025.9706196723905
 20
604.84509618522611
 40
0.5
 50
180
 51
270
  0
ARC
  8
_0-0_0
  6
CONTINUOUS
 62
    3
 10
1027.4706196723905
 20
606.84509618522611
 40
0.5
 50
180
 51
270
  0
LINE
  8
_0-0_0
  6
CONTINUOUS
 62
    3
 10
1026.9706196723905
 20
604.84509618522611
 11
1026.9706196723905
 21
604.34509618522611
  0
LINE
  8
_0-0_0
  6
CONTINUOUS
 62
    3
 10
1042.9706196723905
 20
604.84509618522611
 11
1026.9706196723905
 21
604.84509618522611
  0
LINE
  8
_0-0_0
  6
CONTINUOUS
 62
    3
 10
1044.4706196723905
 20
604.84509618522611
 11
1044.4706196723905
 21
604.34509618522611
  0
LINE
  8
_0-0_0
  6
CONTINUOUS
 62
    3
 10
1042.9706196723905
 20
604.84509618522611
 11
1042.9706196723905
 21
604.34509618522611
  0
LINE
  8
_0-0_0
  6
CONTINUOUS
 62
    3
 10
1044.4706196723905
 20
604.34509618522611
 11
1042.9706196723905
 21
604.34509618522611
  0
LINE
  8
_0-0_0
  6
CONTINUOUS
 62
    3
 10
1095.1706196723903
 20
606.34509618522611
 11
1027.4706196723905
 21
606.34509618522611
  0
LINE
  8
_0-0_0
  6
CONTINUOUS
 62
    3
 10
1069.4706196723905
 20
604.84509618522611
 11
1069.4706196723905
 21
604.34509618522611
  0
LINE
  8
_0-0_0
  6
CONTINUOUS
 62
    3
 10
1067.9706196723905
 20
604.84509618522611
 11
1067.9706196723905
 21
604.34509618522611
  0
LINE
  8
_0-0_0
  6
CONTINUOUS
 62
    3
 10
1069.4706196723905
 20
604.34509618522611
 11
1067.9706196723905
 21
604.34509618522611
  0
LINE
  8
_0-0_0
  6
CONTINUOUS
 62
    3
 10
1085.4706196723905
 20
604.84509618522611
 11
1069.4706196723905
 21
604.84509618522611
  0
LINE
  8
_0-0_0
  6
CONTINUOUS
 62
    3
 10
1067.9706196723905
 20
604.84509618522611
 11
1044.4706196723905
 21
604.84509618522611
  0
LINE
  8
_0-0_0
  6
CONTINUOUS
 62
    3
 10
1118.9706196723905
 20
604.84509618522611
 11
1118.9706196723905
 21
604.34509618522611
  0
ARC
  8
_0-0_0
  6
CONTINUOUS
 62
    3
 10
1026.2206196723905
 20
614.59509618522611
 40
0.75
 50
0
 51
180
  0
LINE
  8
_0-0_0
  6
CONTINUOUS
 62
    3
 10
1026.9706196723905
 20
614.59509618522611
 11
1026.9706196723905
 21
606.84509618522611
  0
LINE
  8
_0-0_0
  6
CONTINUOUS
 62
    3
 10
1025.4706196723905
 20
614.59509618522611
 11
1025.4706196723905
 21
604.84509618522611
  0
LINE
  8
_0-0_0
  6
CONTINUOUS
 62
    3
 10
802.7206196723904
 20
621.84509618522611
 11
822.4706196723904
 21
621.84509618522611
  0
LINE
  8
_0-0_0
  6
CONTINUOUS
 62
    3
 10
1118.9706196723905
 20
604.34509618522611
 11
1120.4706196723905
 21
604.34509618522611
  0
LINE
  8
_0-0_0
  6
CONTINUOUS
 62
    3
 10
800.4706186723904
 20
621.34509618522611
 11
800.4706196723904
 21
614.74509618522609
  0
ARC
  8
_0-0_0
  6
CONTINUOUS
 62
    3
 10
802.17061967239044
 20
614.74509618522609
 40
1.7
 50
180
 51
270
  0
LINE
  8
_0-0_0
  6
CONTINUOUS
 62
    3
 10
810.4706196723904
 20
613.04509618522604
 11
802.17061967239044
 21
613.04509618522604
  0
LINE
  8
_0-0_0
  6
CONTINUOUS
 62
    3
 10
810.4706196723904
 20
614.24509618522609
 11
802.17062467239043
 21
614.24509618522609
  0
ARC
  8
_0-0_0
  6
CONTINUOUS
 62
    3
 10
802.17061867239045
 20
621.34509618522611
 40
1.7
 50
90
 51
180
  0
ARC
  8
_0-0_0
  6
CONTINUOUS
 62
    3
 10
802.17061967239044
 20
621.34509618522611
 40
0.5
 50
90
 51
180
  0
ARC
  8
_0-0_0
  6
CONTINUOUS
 62
    3
 10
802.17062467239043
 20
614.74509618522609
 40
0.5
 50
180
 51
270
  0
LINE
  8
_0-0_0
  6
CONTINUOUS
 62
    3
 10
801.67061967239044
 20
621.34509618522611
 11
801.67062467239043
 21
614.74509618522609
  0
LINE
  8
_0-0_0
  6
CONTINUOUS
 62
    3
 10
810.4706196723904
 20
614.24509618522609
 11
810.4706196723904
 21
613.04509618522604
  0
LINE
  8
_0-0_0
  6
CONTINUOUS
 62
    3
 10
802.17061867239045
 20
623.04509618522604
 11
903.77061967239047
 21
623.04509618522604
  0
LINE
  8
_0-0_0
  6
CONTINUOUS
 62
    3
 10
904.27061967239047
 20
618.04509618522604
 11
905.4706196723904
 21
618.04509618522604
  0
ARC
  8
_0-0_0
  6
CONTINUOUS
 62
    3
 10
903.77061967239047
 20
621.34509618522611
 40
0.5
 50
0
 51
90
  0
LINE
  8
_0-0_0
  6
CONTINUOUS
 62
    3
 10
904.27061967239047
 20
618.04509618522604
 11
904.27061967239047
 21
621.34509618522611
  0
ARC
  8
_0-0_0
  6
CONTINUOUS
 62
    3
 10
903.77061967239047
 20
621.34509618522611
 40
1.7
 50
0
 51
90
  0
LINE
  8
_0-0_0
  6
CONTINUOUS
 62
    3
 10
905.4706196723904
 20
618.04509618522604
 11
905.4706196723904
 21
621.34509618522611
  0
LINE
  8
_0-0_0
  6
CONTINUOUS
 62
    3
 10
899.46694252099041
 20
621.84509618522611
 11
894.27061967239047
 21
616.64877333672609
  0
LINE
  8
_0-0_0
  6
CONTINUOUS
 62
    3
 10
898.05272895859036
 20
621.84509618522611
 11
894.27061967239047
 21
618.0629868990261
  0
LINE
  8
_0-0_0
  6
CONTINUOUS
 62
    3
 10
896.63851539619043
 20
621.84509618522611
 11
894.27061967239047
 21
619.47720046142604
  0
LINE
  8
_0-0_0
  6
CONTINUOUS
 62
    3
 10
895.22430183379038
 20
621.84509618522611
 11
894.27061967239047
 21
620.89141402382609
  0
LINE
  8
_0-0_0
  6
CONTINUOUS
 62
    3
 10
894.27061967239047
 20
621.84509618522611
 11
894.27061967239047
 21
616.54508978522608
  0
LINE
  8
_0-0_0
  6
CONTINUOUS
 62
    3
 10
904.27061967239047
 20
616.54508978522608
 11
904.27061967239047
 21
621.34509618522611
  0
LINE
  8
_0-0_0
  6
CONTINUOUS
 62
    3
 10
894.27061967239047
 20
616.54508978522608
 11
904.27061967239047
 21
616.54508978522608
  0
LINE
  8
_0-0_0
  6
CONTINUOUS
 62
    3
 10
900.88115608329042
 20
621.84509618522611
 11
895.58115239439041
 21
616.54509249632611
  0
LINE
  8
_0-0_0
  6
CONTINUOUS
 62
    3
 10
902.29536964569036
 20
621.84509618522611
 11
896.9953660981904
 21
616.54509263772604
  0
LINE
  8
_0-0_0
  6
CONTINUOUS
 62
    3
 10
903.70958320809041
 20
621.84509618522611
 11
898.40957980199039
 21
616.54509277912609
  0
LINE
  8
_0-0_0
  6
CONTINUOUS
 62
    3
 10
904.27061967239047
 20
620.99191908722605
 11
899.82379350579038
 21
616.54509292052603
  0
LINE
  8
_0-0_0
  6
CONTINUOUS
 62
    3
 10
904.27061967239047
 20
619.57770552482611
 11
901.23800720959036
 21
616.54509306192608
  0
LINE
  8
_0-0_0
  6
CONTINUOUS
 62
    3
 10
904.27061967239047
 20
618.16349196242606
 11
902.65222091329042
 21
616.54509320342606
  0
LINE
  8
_0-0_0
  6
CONTINUOUS
 62
    3
 10
904.27061967239047
 20
616.74927840002613
 11
904.06643461709041
 21
616.54509334482611
  0
LINE
  8
_0-0_0
  6
CONTINUOUS
 62
    3
 10
1130.4706206723904
 20
621.34509618522611
 11
1130.4706196723905
 21
614.74509618522609
  0
ARC
  8
_0-0_0
  6
CONTINUOUS
 62
    3
 10
1128.7706196723905
 20
614.74509618522609
 40
1.7
 50
270
 51
0
  0
LINE
  8
_0-0_0
  6
CONTINUOUS
 62
    3
 10
1120.4706196723905
 20
613.04509618522604
 11
1128.7706196723905
 21
613.04509618522604
  0
LINE
  8
_0-0_0
  6
CONTINUOUS
 62
    3
 10
1120.4706196723905
 20
614.24509618522609
 11
1128.7706146723904
 21
614.24509618522609
  0
ARC
  8
_0-0_0
  6
CONTINUOUS
 62
    3
 10
1128.7706206723904
 20
621.34509618522611
 40
1.7
 50
0
 51
90
  0
ARC
  8
_0-0_0
  6
CONTINUOUS
 62
    3
 10
1128.7706196723905
 20
621.34509618522611
 40
0.5
 50
0
 51
90
  0
ARC
  8
_0-0_0
  6
CONTINUOUS
 62
    3
 10
1128.7706146723904
 20
614.74509618522609
 40
0.5
 50
270
 51
0
  0
LINE
  8
_0-0_0
  6
CONTINUOUS
 62
    3
 10
1129.2706196723905
 20
621.34509618522611
 11
1129.2706146723904
 21
614.74509618522609
  0
LINE
  8
_0-0_0
  6
CONTINUOUS
 62
    3
 10
1120.4706196723905
 20
614.24509618522609
 11
1120.4706196723905
 21
613.04509618522604
  0
LINE
  8
_0-0_0
  6
CONTINUOUS
 62
    3
 10
1128.7706206723904
 20
623.04509618522604
 11
1027.1706196723903
 21
623.04509618522604
  0
LINE
  8
_0-0_0
  6
CONTINUOUS
 62
    3
 10
1128.7706196723905
 20
621.84509618522611
 11
1027.1706196723903
 21
621.84509618522611
  0
LINE
  8
_0-0_0
  6
CONTINUOUS
 62
    3
 10
1026.6706196723903
 20
618.04509618522604
 11
1025.4706196723905
 21
618.04509618522604
  0
ARC
  8
_0-0_0
  6
CONTINUOUS
 62
    3
 10
1027.1706196723903
 20
621.34509618522611
 40
0.5
 50
90
 51
180
  0
LINE
  8
_0-0_0
  6
CONTINUOUS
 62
    3
 10
1026.6706196723903
 20
618.04509618522604
 11
1026.6706196723903
 21
621.34509618522611
  0
ARC
  8
_0-0_0
  6
CONTINUOUS
 62
    3
 10
1027.1706196723903
 20
621.34509618522611
 40
1.7
 50
90
 51
180
  0
LINE
  8
_0-0_0
  6
CONTINUOUS
 62
    3
 10
1025.4706196723905
 20
618.04509618522604
 11
1025.4706196723905
 21
621.34509618522611
  0
LINE
  8
_0-0_0
  6
CONTINUOUS
 62
    3
 10
1027.1706196723903
 20
621.84509618522611
 11
1036.6706196723903
 21
621.84509618522611
  0
LINE
  8
_0-0_0
  6
CONTINUOUS
 62
    3
 10
1031.4742968238904
 20
621.84509618522611
 11
1036.6706196723903
 21
616.64877333672609
  0
LINE
  8
_0-0_0
  6
CONTINUOUS
 62
    3
 10
1032.8885103861903
 20
621.84509618522611
 11
1036.6706196723903
 21
618.0629868990261
  0
LINE
  8
_0-0_0
  6
CONTINUOUS
 62
    3
 10
1034.3027239485905
 20
621.84509618522611
 11
1036.6706196723903
 21
619.47720046142604
  0
LINE
  8
_0-0_0
  6
CONTINUOUS
 62
    3
 10
1035.7169375109904
 20
621.84509618522611
 11
1036.6706196723903
 21
620.89141402382609
  0
LINE
  8
_0-0_0
  6
CONTINUOUS
 62
    3
 10
1036.6706196723903
 20
621.84509618522611
 11
1036.6706196723903
 21
616.54508978522608
  0
LINE
  8
_0-0_0
  6
CONTINUOUS
 62
    3
 10
1026.6706196723903
 20
616.54508978522608
 11
1026.6706196723903
 21
621.34509618522611
  0
LINE
  8
_0-0_0
  6
CONTINUOUS
 62
    3
 10
1036.6706196723903
 20
616.54508978522608
 11
1026.6706196723903
 21
616.54508978522608
  0
LINE
  8
_0-0_0
  6
CONTINUOUS
 62
    3
 10
1030.0600832614905
 20
621.84509618522611
 11
1035.3600869503903
 21
616.54509249632611
  0
LINE
  8
_0-0_0
  6
CONTINUOUS
 62
    3
 10
1028.6458696990903
 20
621.84509618522611
 11
1033.9458732465905
 21
616.54509263772604
  0
LINE
  8
_0-0_0
  6
CONTINUOUS
 62
    3
 10
1027.2316561366904
 20
621.84509618522611
 11
1032.5316595428903
 21
616.54509277912609
  0
LINE
  8
_0-0_0
  6
CONTINUOUS
 62
    3
 10
1026.6706196723903
 20
620.99191908722605
 11
1031.1174458390906
 21
616.54509292052603
  0
LINE
  8
_0-0_0
  6
CONTINUOUS
 62
    3
 10
1026.6706196723903
 20
619.57770552482611
 11
1029.7032321352904
 21
616.54509306192608
  0
LINE
  8
_0-0_0
  6
CONTINUOUS
 62
    3
 10
1026.6706196723903
 20
618.16349196242606
 11
1028.2890184314904
 21
616.54509320342606
  0
LINE
  8
_0-0_0
  6
CONTINUOUS
 62
    3
 10
1026.6706196723903
 20
616.74927840002613
 11
1026.8748047276904
 21
616.54509334482611
  0
LINE
  8
_0-0_0
  6
CONTINUOUS
 62
    3
 10
802.17061967239044
 20
621.84509618522611
 11
903.77061967239047
 21
621.84509618522611
  0
LINE
  8
_0-0_0
  6
CONTINUOUS
 62
    3
 10
841.78922067239046
 20
588.20269718522604
 11
842.78157567239043
 21
595.00631918522606
  0
ARC
  8
_0-0_0
  6
CONTINUOUS
 62
    3
 10
842.38576367239045
 20
595.06405118522605
 40
0.4
 50
351.701533999996
 51
81.869898000009997
  0
LINE
  8
_0-0_0
  6
CONTINUOUS
 62
    3
 10
842.44233267239042
 20
595.46003118522606
 11
842.24550767239043
 21
595.48814918522612
  0
ARC
  8
_0-0_0
  6
CONTINUOUS
 62
    3
 10
842.18893967239046
 20
595.09216918522611
 40
0.4
 50
81.869898000009982
 51
171.86989800000001
  0
LINE
  8
_0-0_0
  6
CONTINUOUS
 62
    3
 10
841.79295967239045
 20
595.14873818522608
 11
840.84952767239042
 21
588.54471718522609
  0
LINE
  8
_0-0_0
  6
CONTINUOUS
 62
    3
 10
841.78922067239046
 20
588.20269718522604
 11
842.78157567239043
 21
595.00631918522606
  0
ARC
  8
_0-0_0
  6
CONTINUOUS
 62
    3
 10
842.38576367239045
 20
595.06405118522605
 40
0.4
 50
351.701533999996
 51
81.869898000009997
  0
LINE
  8
_0-0_0
  6
CONTINUOUS
 62
    3
 10
842.44233267239042
 20
595.46003118522606
 11
842.24550767239043
 21
595.48814918522612
  0
ARC
  8
_0-0_0
  6
CONTINUOUS
 62
    3
 10
842.18893967239046
 20
595.09216918522611
 40
0.4
 50
81.869898000009982
 51
171.86989800000001
  0
LINE
  8
_0-0_0
  6
CONTINUOUS
 62
    3
 10
841.79295967239045
 20
595.14873818522608
 11
840.84952767239042
 21
588.54471718522609
  0
LINE
  8
_0-0_0
  6
CONTINUOUS
 62
    3
 10
829.15201867239045
 20
588.20269718522604
 11
828.15966367239037
 21
595.00631918522606
  0
ARC
  8
_0-0_0
  6
CONTINUOUS
 62
    3
 10
828.55547567239034
 20
595.06405118522605
 40
0.4
 50
98.130102000009998
 51
188.29846599999999
  0
LINE
  8
_0-0_0
  6
CONTINUOUS
 62
    3
 10
828.49890667239038
 20
595.46003118522606
 11
828.69573167239037
 21
595.48814918522612
  0
ARC
  8
_0-0_0
  6
CONTINUOUS
 62
    3
 10
828.75230067239045
 20
595.09216918522611
 40
0.4
 50
8.130101999991
 51
98.130102000010012
  0
LINE
  8
_0-0_0
  6
CONTINUOUS
 62
    3
 10
829.14827967239034
 20
595.14873818522608
 11
830.09171167239037
 21
588.54471718522609
  0
LINE
  8
_0-0_0
  6
CONTINUOUS
 62
    3
 10
831.4706196723904
 20
591.34509618522611
 11
831.4706196723904
 21
595.34509618522611
  0
LINE
  8
_0-0_0
  6
CONTINUOUS
 62
    3
 10
833.4528766723904
 20
566.38484018522604
 11
829.95767367239034
 21
566.56801518522605
  0
LINE
  8
_0-0_0
  6
CONTINUOUS
 62
    3
 10
829.95767367239034
 20
566.56801518522605
 11
831.85026067239039
 21
564.46608418522612
  0
LINE
  8
_0-0_0
  6
CONTINUOUS
 62
    3
 10
831.85026067239039
 20
564.46608418522612
 11
833.34820467239035
 21
564.38758018522606
  0
LINE
  8
_0-0_0
  6
CONTINUOUS
 62
    3
 10
833.34820467239035
 20
564.38758018522606
 11
834.9706196723904
 21
595.34509618522611
  0
LINE
  8
_0-0_0
  6
CONTINUOUS
 62
    3
 10
839.4706196723904
 20
591.34509618522611
 11
839.4706196723904
 21
595.34509618522611
  0
LINE
  8
_0-0_0
  6
CONTINUOUS
 62
    3
 10
837.48836267239039
 20
566.38484018522604
 11
840.98356567239045
 21
566.56801518522605
  0
LINE
  8
_0-0_0
  6
CONTINUOUS
 62
    3
 10
840.98356567239045
 20
566.56801518522605
 11
839.09097867239041
 21
564.46608418522612
  0
LINE
  8
_0-0_0
  6
CONTINUOUS
 62
    3
 10
839.09097867239041
 20
564.46608418522612
 11
837.59303467239044
 21
564.38758018522606
  0
LINE
  8
_0-0_0
  6
CONTINUOUS
 62
    3
 10
837.59303467239044
 20
564.38758018522606
 11
835.9706196723904
 21
595.34509618522611
  0
LINE
  8
_0-0_0
  6
CONTINUOUS
 62
    3
 10
831.91156267239035
 20
583.54471718522609
 11
830.09171167239037
 21
588.54471718522609
  0
LINE
  8
_0-0_0
  6
CONTINUOUS
 62
    3
 10
830.84738467239038
 20
583.54471718522609
 11
829.15201867239045
 21
588.20269718522604
  0
LINE
  8
_0-0_0
  6
CONTINUOUS
 62
    3
 10
839.02967667239045
 20
583.54471718522609
 11
840.84952767239042
 21
588.54471718522609
  0
LINE
  8
_0-0_0
  6
CONTINUOUS
 62
    3
 10
840.09385467239042
 20
583.54471718522609
 11
841.78922067239046
 21
588.20269718522604
  0
LINE
  8
_0-0_0
  6
CONTINUOUS
 62
    3
 10
831.4706196723904
 20
591.34509618522611
 11
833.21099567239037
 21
590.43045218522605
  0
LINE
  8
_0-0_0
  6
CONTINUOUS
 62
    3
 10
833.60117567239035
 20
569.21454018522604
 11
835.4706196723904
 21
567.34509618522611
  0
LINE
  8
_0-0_0
  6
CONTINUOUS
 62
    3
 10
833.21099567239037
 20
590.43045218522605
 11
833.10632367239043
 21
588.43319318522606
  0
LINE
  8
_0-0_0
  6
CONTINUOUS
 62
    3
 10
833.10632367239043
 20
588.43319318522606
 11
831.10906467239045
 21
588.53786518522611
  0
LINE
  8
_0-0_0
  6
CONTINUOUS
 62
    3
 10
831.10906467239045
 20
588.53786518522611
 11
831.0043926723904
 21
586.54060618522612
  0
LINE
  8
_0-0_0
  6
CONTINUOUS
 62
    3
 10
831.0043926723904
 20
586.54060618522612
 11
832.94931567239041
 21
585.43730518522614
  0
LINE
  8
_0-0_0
  6
CONTINUOUS
 62
    3
 10
832.94931567239041
 20
585.43730518522614
 11
832.84464367239036
 21
583.44004618522604
  0
LINE
  8
_0-0_0
  6
CONTINUOUS
 62
    3
 10
832.84464367239036
 20
583.44004618522604
 11
830.84738467239038
 21
583.54471718522609
  0
LINE
  8
_0-0_0
  6
CONTINUOUS
 62
    3
 10
830.84738467239038
 20
583.54471718522609
 11
830.74271267239044
 21
581.54745818522611
  0
LINE
  8
_0-0_0
  6
CONTINUOUS
 62
    3
 10
830.74271267239044
 20
581.54745818522611
 11
832.68763567239034
 21
580.44415718522612
  0
LINE
  8
_0-0_0
  6
CONTINUOUS
 62
    3
 10
832.68763567239034
 20
580.44415718522612
 11
832.58296367239041
 21
578.44689818522613
  0
LINE
  8
_0-0_0
  6
CONTINUOUS
 62
    3
 10
832.58296367239041
 20
578.44689818522613
 11
830.58570467239042
 21
578.55157018522607
  0
LINE
  8
_0-0_0
  6
CONTINUOUS
 62
    3
 10
830.58570467239042
 20
578.55157018522607
 11
830.48103267239037
 21
576.55431118522608
  0
LINE
  8
_0-0_0
  6
CONTINUOUS
 62
    3
 10
830.48103267239037
 20
576.55431118522608
 11
832.42595667239038
 21
575.4510091852261
  0
LINE
  8
_0-0_0
  6
CONTINUOUS
 62
    3
 10
832.42595667239038
 20
575.4510091852261
 11
832.32128467239045
 21
573.45375018522611
  0
LINE
  8
_0-0_0
  6
CONTINUOUS
 62
    3
 10
832.32128467239045
 20
573.45375018522611
 11
830.32402567239035
 21
573.55842218522605
  0
LINE
  8
_0-0_0
  6
CONTINUOUS
 62
    3
 10
830.32402567239035
 20
573.55842218522605
 11
830.21935367239041
 21
571.56116318522606
  0
LINE
  8
_0-0_0
  6
CONTINUOUS
 62
    3
 10
830.21935367239041
 20
571.56116318522606
 11
832.16427667239043
 21
570.45786218522608
  0
LINE
  8
_0-0_0
  6
CONTINUOUS
 62
    3
 10
832.16427667239043
 20
570.45786218522608
 11
832.05960467239038
 21
568.46060318522609
  0
LINE
  8
_0-0_0
  6
CONTINUOUS
 62
    3
 10
832.05960467239038
 20
568.46060318522609
 11
830.06234567239039
 21
568.56527418522603
  0
LINE
  8
_0-0_0
  6
CONTINUOUS
 62
    3
 10
830.06234567239039
 20
568.56527418522603
 11
829.95767367239034
 21
566.56801518522605
  0
LINE
  8
_0-0_0
  6
CONTINUOUS
 62
    3
 10
839.4706196723904
 20
591.34509618522611
 11
837.73024367239043
 21
590.43045218522605
  0
LINE
  8
_0-0_0
  6
CONTINUOUS
 62
    3
 10
837.73024367239043
 20
590.43045218522605
 11
837.83491567239037
 21
588.43319318522606
  0
LINE
  8
_0-0_0
  6
CONTINUOUS
 62
    3
 10
837.83491567239037
 20
588.43319318522606
 11
839.83217467239047
 21
588.53786518522611
  0
LINE
  8
_0-0_0
  6
CONTINUOUS
 62
    3
 10
839.83217467239047
 20
588.53786518522611
 11
839.9368466723904
 21
586.54060618522612
  0
LINE
  8
_0-0_0
  6
CONTINUOUS
 62
    3
 10
839.9368466723904
 20
586.54060618522612
 11
837.99192367239039
 21
585.43730518522614
  0
LINE
  8
_0-0_0
  6
CONTINUOUS
 62
    3
 10
837.99192367239039
 20
585.43730518522614
 11
838.09659567239044
 21
583.44004618522604
  0
LINE
  8
_0-0_0
  6
CONTINUOUS
 62
    3
 10
838.09659567239044
 20
583.44004618522604
 11
840.09385467239042
 21
583.54471718522609
  0
LINE
  8
_0-0_0
  6
CONTINUOUS
 62
    3
 10
840.09385467239042
 20
583.54471718522609
 11
840.19852667239036
 21
581.54745818522611
  0
LINE
  8
_0-0_0
  6
CONTINUOUS
 62
    3
 10
840.19852667239036
 20
581.54745818522611
 11
838.25360367239045
 21
580.44415718522612
  0
LINE
  8
_0-0_0
  6
CONTINUOUS
 62
    3
 10
838.25360367239045
 20
580.44415718522612
 11
838.35827567239039
 21
578.44689818522613
  0
LINE
  8
_0-0_0
  6
CONTINUOUS
 62
    3
 10
838.35827567239039
 20
578.44689818522613
 11
840.35553467239038
 21
578.55157018522607
  0
LINE
  8
_0-0_0
  6
CONTINUOUS
 62
    3
 10
840.35553467239038
 20
578.55157018522607
 11
840.46020667239043
 21
576.55431118522608
  0
LINE
  8
_0-0_0
  6
CONTINUOUS
 62
    3
 10
840.46020667239043
 20
576.55431118522608
 11
838.51528267239041
 21
575.4510091852261
  0
LINE
  8
_0-0_0
  6
CONTINUOUS
 62
    3
 10
838.51528267239041
 20
575.4510091852261
 11
838.61995467239046
 21
573.45375018522611
  0
LINE
  8
_0-0_0
  6
CONTINUOUS
 62
    3
 10
838.61995467239046
 20
573.45375018522611
 11
840.61721367239045
 21
573.55842218522605
  0
LINE
  8
_0-0_0
  6
CONTINUOUS
 62
    3
 10
840.61721367239045
 20
573.55842218522605
 11
840.72188567239039
 21
571.56116318522606
  0
LINE
  8
_0-0_0
  6
CONTINUOUS
 62
    3
 10
840.72188567239039
 20
571.56116318522606
 11
838.77696267239037
 21
570.45786218522608
  0
LINE
  8
_0-0_0
  6
CONTINUOUS
 62
    3
 10
838.77696267239037
 20
570.45786218522608
 11
838.88163467239042
 21
568.46060318522609
  0
LINE
  8
_0-0_0
  6
CONTINUOUS
 62
    3
 10
838.88163467239042
 20
568.46060318522609
 11
840.8788936723904
 21
568.56527418522603
  0
LINE
  8
_0-0_0
  6
CONTINUOUS
 62
    3
 10
840.8788936723904
 20
568.56527418522603
 11
840.98356567239045
 21
566.56801518522605
  0
LINE
  8
_0-0_0
  6
CONTINUOUS
 62
    3
 10
834.9706196723904
 20
595.34509618522611
 11
835.4706196723904
 21
595.34509618522611
  0
LINE
  8
_0-0_0
  6
CONTINUOUS
 62
    3
 10
835.9706196723904
 20
595.34509618522611
 11
835.4706196723904
 21
595.34509618522611
  0
LINE
  8
_0-0_0
  6
CONTINUOUS
 62
    3
 10
831.4706196723904
 20
603.34509618522611
 11
831.4706196723904
 21
595.34509618522611
  0
LINE
  8
_0-0_0
  6
CONTINUOUS
 62
    3
 10
830.4706196723904
 20
603.34509618522611
 11
831.4706196723904
 21
598.34509618522611
  0
LINE
  8
_0-0_0
  6
CONTINUOUS
 62
    3
 10
834.4706196723904
 20
603.34509618522611
 11
835.4706196723904
 21
598.34509618522611
  0
LINE
  8
_0-0_0
  6
CONTINUOUS
 62
    3
 10
836.4706196723904
 20
603.34509618522611
 11
835.4706196723904
 21
598.34509618522611
  0
LINE
  8
_0-0_0
  6
CONTINUOUS
 62
    3
 10
835.4706196723904
 20
598.34509618522611
 11
835.4706196723904
 21
603.34509618522611
  0
LINE
  8
_0-0_0
  6
CONTINUOUS
 62
    3
 10
839.4706196723904
 20
603.34509618522611
 11
839.4706196723904
 21
595.34509618522611
  0
LINE
  8
_0-0_0
  6
CONTINUOUS
 62
    3
 10
840.4706196723904
 20
603.34509618522611
 11
839.4706196723904
 21
598.34509618522611
  0
LINE
  8
_0-0_0
  6
CONTINUOUS
 62
    3
 10
837.34006367239044
 20
569.21454018522604
 11
835.4706196723904
 21
567.34509618522611
  0
LINE
  8
_0-0_0
  6
CONTINUOUS
 62
    3
 10
830.4706196723904
 20
603.34509618522611
 11
840.4706196723904
 21
603.34509618522611
  0
LINE
  8
_0-0_0
  6
CONTINUOUS
 62
    3
 10
831.09848467239044
 20
609.30659518522612
 11
830.9706196723904
 21
607.84509618522611
  0
LINE
  8
_0-0_0
  6
CONTINUOUS
 62
    3
 10
839.84275467239036
 20
609.30659518522612
 11
839.9706196723904
 21
607.84509618522611
  0
ARC
  8
_0-0_0
  6
CONTINUOUS
 62
    3
 10
835.4706196723904
 20
599.14509618522607
 40
12
 50
74.506032000000005
 51
105.493968
  0
ARC
  8
_0-0_0
  6
CONTINUOUS
 62
    3
 10
832.69239567239038
 20
609.1671451852261
 40
1.6000000000000001
 50
105.493968
 51
175
  0
ARC
  8
_0-0_0
  6
CONTINUOUS
 62
    3
 10
838.24884367239042
 20
609.1671451852261
 40
1.6000000000000001
 50
5.0000000000010001
 51
74.506032000000005
  0
LINE
  8
_0-0_0
  6
CONTINUOUS
 62
    3
 10
826.4706196723904
 20
607.84509618522611
 11
826.4706196723904
 21
606.34509618522611
  0
LINE
  8
_0-0_0
  6
CONTINUOUS
 62
    3
 10
826.4706196723904
 20
607.84509618522611
 11
844.4706196723904
 21
607.84509618522611
  0
LINE
  8
_0-0_0
  6
CONTINUOUS
 62
    3
 10
844.4706196723904
 20
607.84509618522611
 11
844.4706196723904
 21
606.34509618522611
  0
LINE
  8
_0-0_0
  6
CONTINUOUS
 62
    3
 10
1089.1520186723903
 20
588.20269718522604
 11
1088.1596636723905
 21
595.00631918522606
  0
ARC
  8
_0-0_0
  6
CONTINUOUS
 62
    3
 10
1088.5554756723905
 20
595.06405118522605
 40
0.4
 50
98.130101999990003
 51
188.29846599999999
  0
LINE
  8
_0-0_0
  6
CONTINUOUS
 62
    3
 10
1088.4989066723904
 20
595.46003118522606
 11
1088.6957316723904
 21
595.48814918522612
  0
ARC
  8
_0-0_0
  6
CONTINUOUS
 62
    3
 10
1088.7522996723903
 20
595.09216918522611
 40
0.4
 50
8.130101999991
 51
98.130101999990018
  0
LINE
  8
_0-0_0
  6
CONTINUOUS
 62
    3
 10
1089.1482796723903
 20
595.14873818522608
 11
1090.0917116723904
 21
588.54471718522609
  0
LINE
  8
_0-0_0
  6
CONTINUOUS
 62
    3
 10
1089.1520186723903
 20
588.20269718522604
 11
1088.1596636723905
 21
595.00631918522606
  0
ARC
  8
_0-0_0
  6
CONTINUOUS
 62
    3
 10
1088.5554756723905
 20
595.06405118522605
 40
0.4
 50
98.130101999990003
 51
188.29846599999999
  0
LINE
  8
_0-0_0
  6
CONTINUOUS
 62
    3
 10
1088.4989066723904
 20
595.46003118522606
 11
1088.6957316723904
 21
595.48814918522612
  0
ARC
  8
_0-0_0
  6
CONTINUOUS
 62
    3
 10
1088.7522996723903
 20
595.09216918522611
 40
0.4
 50
8.130101999991
 51
98.130101999990018
  0
LINE
  8
_0-0_0
  6
CONTINUOUS
 62
    3
 10
1089.1482796723903
 20
595.14873818522608
 11
1090.0917116723904
 21
588.54471718522609
  0
LINE
  8
_0-0_0
  6
CONTINUOUS
 62
    3
 10
1101.7892206723905
 20
588.20269718522604
 11
1102.7815756723905
 21
595.00631918522606
  0
ARC
  8
_0-0_0
  6
CONTINUOUS
 62
    3
 10
1102.3857636723903
 20
595.06405118522605
 40
0.4
 50
351.701533999996
 51
81.869898000009997
  0
LINE
  8
_0-0_0
  6
CONTINUOUS
 62
    3
 10
1102.4423326723904
 20
595.46003118522606
 11
1102.2455076723904
 21
595.48814918522612
  0
ARC
  8
_0-0_0
  6
CONTINUOUS
 62
    3
 10
1102.1889386723903
 20
595.09216918522611
 40
0.4
 50
81.869897999979983
 51
171.86989800000001
  0
LINE
  8
_0-0_0
  6
CONTINUOUS
 62
    3
 10
1101.7929596723905
 20
595.14873818522608
 11
1100.8495276723904
 21
588.54471718522609
  0
LINE
  8
_0-0_0
  6
CONTINUOUS
 62
    3
 10
1099.4706196723905
 20
591.34509618522611
 11
1099.4706196723905
 21
595.34509618522611
  0
LINE
  8
_0-0_0
  6
CONTINUOUS
 62
    3
 10
1097.4883626723904
 20
566.38484018522604
 11
1100.9835656723903
 21
566.56801518522605
  0
LINE
  8
_0-0_0
  6
CONTINUOUS
 62
    3
 10
1100.9835656723903
 20
566.56801518522605
 11
1099.0909786723905
 21
564.46608418522612
  0
LINE
  8
_0-0_0
  6
CONTINUOUS
 62
    3
 10
1099.0909786723905
 20
564.46608418522612
 11
1097.5930346723903
 21
564.38758018522606
  0
LINE
  8
_0-0_0
  6
CONTINUOUS
 62
    3
 10
1097.5930346723903
 20
564.38758018522606
 11
1095.9706196723905
 21
595.34509618522611
  0
LINE
  8
_0-0_0
  6
CONTINUOUS
 62
    3
 10
1091.4706196723905
 20
591.34509618522611
 11
1091.4706196723905
 21
595.34509618522611
  0
LINE
  8
_0-0_0
  6
CONTINUOUS
 62
    3
 10
1093.4528766723904
 20
566.38484018522604
 11
1089.9576736723905
 21
566.56801518522605
  0
LINE
  8
_0-0_0
  6
CONTINUOUS
 62
    3
 10
1089.9576736723905
 20
566.56801518522605
 11
1091.8502606723905
 21
564.46608418522612
  0
LINE
  8
_0-0_0
  6
CONTINUOUS
 62
    3
 10
1091.8502606723905
 20
564.46608418522612
 11
1093.3482046723905
 21
564.38758018522606
  0
LINE
  8
_0-0_0
  6
CONTINUOUS
 62
    3
 10
1093.3482046723905
 20
564.38758018522606
 11
1094.9706196723905
 21
595.34509618522611
  0
LINE
  8
_0-0_0
  6
CONTINUOUS
 62
    3
 10
1099.0296766723905
 20
583.54471718522609
 11
1100.8495276723904
 21
588.54471718522609
  0
LINE
  8
_0-0_0
  6
CONTINUOUS
 62
    3
 10
1100.0938546723905
 20
583.54471718522609
 11
1101.7892206723905
 21
588.20269718522604
  0
LINE
  8
_0-0_0
  6
CONTINUOUS
 62
    3
 10
1091.9115626723903
 20
583.54471718522609
 11
1090.0917116723904
 21
588.54471718522609
  0
LINE
  8
_0-0_0
  6
CONTINUOUS
 62
    3
 10
1090.8473846723905
 20
583.54471718522609
 11
1089.1520186723903
 21
588.20269718522604
  0
LINE
  8
_0-0_0
  6
CONTINUOUS
 62
    3
 10
1099.4706196723905
 20
591.34509618522611
 11
1097.7302436723905
 21
590.43045218522605
  0
LINE
  8
_0-0_0
  6
CONTINUOUS
 62
    3
 10
1097.3400636723904
 20
569.21454018522604
 11
1095.4706196723905
 21
567.34509618522611
  0
LINE
  8
_0-0_0
  6
CONTINUOUS
 62
    3
 10
1097.7302436723905
 20
590.43045218522605
 11
1097.8349156723905
 21
588.43319318522606
  0
LINE
  8
_0-0_0
  6
CONTINUOUS
 62
    3
 10
1097.8349156723905
 20
588.43319318522606
 11
1099.8321746723905
 21
588.53786518522611
  0
LINE
  8
_0-0_0
  6
CONTINUOUS
 62
    3
 10
1099.8321746723905
 20
588.53786518522611
 11
1099.9368466723904
 21
586.54060618522612
  0
LINE
  8
_0-0_0
  6
CONTINUOUS
 62
    3
 10
1099.9368466723904
 20
586.54060618522612
 11
1097.9919236723904
 21
585.43730518522614
  0
LINE
  8
_0-0_0
  6
CONTINUOUS
 62
    3
 10
1097.9919236723904
 20
585.43730518522614
 11
1098.0965956723905
 21
583.44004618522604
  0
LINE
  8
_0-0_0
  6
CONTINUOUS
 62
    3
 10
1098.0965956723905
 20
583.44004618522604
 11
1100.0938546723905
 21
583.54471718522609
  0
LINE
  8
_0-0_0
  6
CONTINUOUS
 62
    3
 10
1100.0938546723905
 20
583.54471718522609
 11
1100.1985266723905
 21
581.54745818522611
  0
LINE
  8
_0-0_0
  6
CONTINUOUS
 62
    3
 10
1100.1985266723905
 20
581.54745818522611
 11
1098.2536036723905
 21
580.44415718522612
  0
LINE
  8
_0-0_0
  6
CONTINUOUS
 62
    3
 10
1098.2536036723905
 20
580.44415718522612
 11
1098.3582756723904
 21
578.44689818522613
  0
LINE
  8
_0-0_0
  6
CONTINUOUS
 62
    3
 10
1098.3582756723904
 20
578.44689818522613
 11
1100.3555346723904
 21
578.55157018522607
  0
LINE
  8
_0-0_0
  6
CONTINUOUS
 62
    3
 10
1100.3555346723904
 20
578.55157018522607
 11
1100.4602066723905
 21
576.55431118522608
  0
LINE
  8
_0-0_0
  6
CONTINUOUS
 62
    3
 10
1100.4602066723905
 20
576.55431118522608
 11
1098.5152826723904
 21
575.4510091852261
  0
LINE
  8
_0-0_0
  6
CONTINUOUS
 62
    3
 10
1098.5152826723904
 20
575.4510091852261
 11
1098.6199546723903
 21
573.45375018522611
  0
LINE
  8
_0-0_0
  6
CONTINUOUS
 62
    3
 10
1098.6199546723903
 20
573.45375018522611
 11
1100.6172136723903
 21
573.55842218522605
  0
LINE
  8
_0-0_0
  6
CONTINUOUS
 62
    3
 10
1100.6172136723903
 20
573.55842218522605
 11
1100.7218856723905
 21
571.56116318522606
  0
LINE
  8
_0-0_0
  6
CONTINUOUS
 62
    3
 10
1100.7218856723905
 20
571.56116318522606
 11
1098.7769626723905
 21
570.45786218522608
  0
LINE
  8
_0-0_0
  6
CONTINUOUS
 62
    3
 10
1098.7769626723905
 20
570.45786218522608
 11
1098.8816346723904
 21
568.46060318522609
  0
LINE
  8
_0-0_0
  6
CONTINUOUS
 62
    3
 10
1098.8816346723904
 20
568.46060318522609
 11
1100.8788936723904
 21
568.56527418522603
  0
LINE
  8
_0-0_0
  6
CONTINUOUS
 62
    3
 10
1100.8788936723904
 20
568.56527418522603
 11
1100.9835656723903
 21
566.56801518522605
  0
LINE
  8
_0-0_0
  6
CONTINUOUS
 62
    3
 10
1091.4706196723905
 20
591.34509618522611
 11
1093.2109956723905
 21
590.43045218522605
  0
LINE
  8
_0-0_0
  6
CONTINUOUS
 62
    3
 10
1093.2109956723905
 20
590.43045218522605
 11
1093.1063236723905
 21
588.43319318522606
  0
LINE
  8
_0-0_0
  6
CONTINUOUS
 62
    3
 10
1093.1063236723905
 20
588.43319318522606
 11
1091.1090646723903
 21
588.53786518522611
  0
LINE
  8
_0-0_0
  6
CONTINUOUS
 62
    3
 10
1091.1090646723903
 20
588.53786518522611
 11
1091.0043926723904
 21
586.54060618522612
  0
LINE
  8
_0-0_0
  6
CONTINUOUS
 62
    3
 10
1091.0043926723904
 20
586.54060618522612
 11
1092.9493156723904
 21
585.43730518522614
  0
LINE
  8
_0-0_0
  6
CONTINUOUS
 62
    3
 10
1092.9493156723904
 20
585.43730518522614
 11
1092.8446436723905
 21
583.44004618522604
  0
LINE
  8
_0-0_0
  6
CONTINUOUS
 62
    3
 10
1092.8446436723905
 20
583.44004618522604
 11
1090.8473846723905
 21
583.54471718522609
  0
LINE
  8
_0-0_0
  6
CONTINUOUS
 62
    3
 10
1090.8473846723905
 20
583.54471718522609
 11
1090.7427126723903
 21
581.54745818522611
  0
LINE
  8
_0-0_0
  6
CONTINUOUS
 62
    3
 10
1090.7427126723903
 20
581.54745818522611
 11
1092.6876356723903
 21
580.44415718522612
  0
LINE
  8
_0-0_0
  6
CONTINUOUS
 62
    3
 10
1092.6876356723903
 20
580.44415718522612
 11
1092.5829636723904
 21
578.44689818522613
  0
LINE
  8
_0-0_0
  6
CONTINUOUS
 62
    3
 10
1092.5829636723904
 20
578.44689818522613
 11
1090.5857046723904
 21
578.55157018522607
  0
LINE
  8
_0-0_0
  6
CONTINUOUS
 62
    3
 10
1090.5857046723904
 20
578.55157018522607
 11
1090.4810326723905
 21
576.55431118522608
  0
LINE
  8
_0-0_0
  6
CONTINUOUS
 62
    3
 10
1090.4810326723905
 20
576.55431118522608
 11
1092.4259566723904
 21
575.4510091852261
  0
LINE
  8
_0-0_0
  6
CONTINUOUS
 62
    3
 10
1092.4259566723904
 20
575.4510091852261
 11
1092.3212846723904
 21
573.45375018522611
  0
LINE
  8
_0-0_0
  6
CONTINUOUS
 62
    3
 10
1092.3212846723904
 20
573.45375018522611
 11
1090.3240256723905
 21
573.55842218522605
  0
LINE
  8
_0-0_0
  6
CONTINUOUS
 62
    3
 10
1090.3240256723905
 20
573.55842218522605
 11
1090.2193536723905
 21
571.56116318522606
  0
LINE
  8
_0-0_0
  6
CONTINUOUS
 62
    3
 10
1090.2193536723905
 20
571.56116318522606
 11
1092.1642766723905
 21
570.45786218522608
  0
LINE
  8
_0-0_0
  6
CONTINUOUS
 62
    3
 10
1092.1642766723905
 20
570.45786218522608
 11
1092.0596046723904
 21
568.46060318522609
  0
LINE
  8
_0-0_0
  6
CONTINUOUS
 62
    3
 10
1092.0596046723904
 20
568.46060318522609
 11
1090.0623456723904
 21
568.56527418522603
  0
LINE
  8
_0-0_0
  6
CONTINUOUS
 62
    3
 10
1090.0623456723904
 20
568.56527418522603
 11
1089.9576736723905
 21
566.56801518522605
  0
LINE
  8
_0-0_0
  6
CONTINUOUS
 62
    3
 10
1095.9706196723905
 20
595.34509618522611
 11
1095.4706196723905
 21
595.34509618522611
  0
LINE
  8
_0-0_0
  6
CONTINUOUS
 62
    3
 10
1094.9706196723905
 20
595.34509618522611
 11
1095.4706196723905
 21
595.34509618522611
  0
LINE
  8
_0-0_0
  6
CONTINUOUS
 62
    3
 10
1099.4706196723905
 20
603.34509618522611
 11
1099.4706196723905
 21
595.34509618522611
  0
LINE
  8
_0-0_0
  6
CONTINUOUS
 62
    3
 10
1100.4706196723905
 20
603.34509618522611
 11
1099.4706196723905
 21
598.34509618522611
  0
LINE
  8
_0-0_0
  6
CONTINUOUS
 62
    3
 10
1096.4706196723905
 20
603.34509618522611
 11
1095.4706196723905
 21
598.34509618522611
  0
LINE
  8
_0-0_0
  6
CONTINUOUS
 62
    3
 10
1094.4706196723905
 20
603.34509618522611
 11
1095.4706196723905
 21
598.34509618522611
  0
LINE
  8
_0-0_0
  6
CONTINUOUS
 62
    3
 10
1095.4706196723905
 20
598.34509618522611
 11
1095.4706196723905
 21
603.34509618522611
  0
LINE
  8
_0-0_0
  6
CONTINUOUS
 62
    3
 10
1091.4706196723905
 20
603.34509618522611
 11
1091.4706196723905
 21
595.34509618522611
  0
LINE
  8
_0-0_0
  6
CONTINUOUS
 62
    3
 10
1090.4706196723905
 20
603.34509618522611
 11
1091.4706196723905
 21
598.34509618522611
  0
LINE
  8
_0-0_0
  6
CONTINUOUS
 62
    3
 10
1093.6011756723904
 20
569.21454018522604
 11
1095.4706196723905
 21
567.34509618522611
  0
LINE
  8
_0-0_0
  6
CONTINUOUS
 62
    3
 10
1100.4706196723905
 20
603.34509618522611
 11
1090.4706196723905
 21
603.34509618522611
  0
LINE
  8
_0-0_0
  6
CONTINUOUS
 62
    3
 10
1099.8427546723904
 20
609.30659518522612
 11
1099.9706196723905
 21
607.84509618522611
  0
LINE
  8
_0-0_0
  6
CONTINUOUS
 62
    3
 10
1091.0984846723904
 20
609.30659518522612
 11
1090.9706196723905
 21
607.84509618522611
  0
ARC
  8
_0-0_0
  6
CONTINUOUS
 62
    3
 10
1095.4706196723905
 20
599.14509618522607
 40
12
 50
74.506032000000005
 51
105.493968
  0
ARC
  8
_0-0_0
  6
CONTINUOUS
 62
    3
 10
1098.2488436723904
 20
609.1671451852261
 40
1.6000000000000001
 50
5
 51
74.50603199999999
  0
ARC
  8
_0-0_0
  6
CONTINUOUS
 62
    3
 10
1092.6923956723904
 20
609.1671451852261
 40
1.6000000000000001
 50
105.493968
 51
175
  0
LINE
  8
_0-0_0
  6
CONTINUOUS
 62
    3
 10
1104.4706196723905
 20
607.84509618522611
 11
1104.4706196723905
 21
606.34509618522611
  0
LINE
  8
_0-0_0
  6
CONTINUOUS
 62
    3
 10
1104.4706196723905
 20
607.84509618522611
 11
1086.4706196723905
 21
607.84509618522611
  0
LINE
  8
_0-0_0
  6
CONTINUOUS
 62
    3
 10
1086.4706196723905
 20
607.84509618522611
 11
1086.4706196723905
 21
606.34509618522611
  0
LINE
  8
_0-0_0
  6
CONTINUOUS
 62
    3
 10
1104.4706196723905
 20
606.34509618522611
 11
1086.4706196723905
 21
606.34509618522611
  0
LINE
  8
_0-0_0
  6
CONTINUOUS
 62
    3
 10
808.4706196723904
 20
612.99908433222606
 11
808.4706196723904
 21
603.34509618522611
  0
LINE
  8
_0-0_0
  6
CONTINUOUS
 62
    3
 10
810.4706196723904
 20
603.34509618522611
 11
808.4706196723904
 21
612.99908433222606
  0
ARC
  8
_0-0_0
  6
CONTINUOUS
 62
    3
 10
783.4316586423904
 20
608.36618566022605
 40
19.399999999999999
 50
345
 51
13.956251751399998
  0
LINE
  8
_0-0_0
  6
CONTINUOUS
 62
    3
 10
1122.4706196723905
 20
612.99908433232611
 11
1122.4706196723905
 21
603.34509618522611
  0
LINE
  8
_0-0_0
  6
CONTINUOUS
 62
    3
 10
1120.4706196723905
 20
603.34509618522611
 11
1122.4706196723905
 21
612.99908433232611
  0
ARC
  8
_0-0_0
  6
CONTINUOUS
 62
    3
 10
1147.5095807023904
 20
608.36618566022605
 40
19.399999999999999
 50
166.0437482486
 51
195
  0
ARC
  8
_0-0_0
  6
CONTINUOUS
 62
    3
 10
816.4706196723904
 20
622.46176318522612
 40
6.0833329999999997
 50
53.831358000000002
 51
126.16864200000002
  0
ARC
  8
_0-0_0
  6
CONTINUOUS
 62
    3
 10
819.4706196723904
 20
626.56545318522603
 40
1
 50
0
 51
53.831358000000002
  0
ARC
  8
_0-0_0
  6
CONTINUOUS
 62
    3
 10
813.4706196723904
 20
626.56545318522603
 40
1
 50
126.16864200000002
 51
180
  0
LINE
  8
_0-0_0
  6
CONTINUOUS
 62
    3
 10
810.4706196723904
 20
624.79509618522604
 11
810.4706196723904
 21
624.04509618522604
  0
ARC
  8
_0-0_0
  6
CONTINUOUS
 62
    3
 10
812.17233967239042
 20
623.54510418522614
 40
2
 50
90
 51
125.00000000000001
  0
LINE
  8
_0-0_0
  6
CONTINUOUS
 62
    3
 10
810.4706196723904
 20
624.79509618522604
 11
811.02518667239042
 21
625.18340818522609
  0
LINE
  8
_0-0_0
  6
CONTINUOUS
 62
    3
 10
810.4706196723904
 20
624.79509618522604
 11
822.4706196723904
 21
624.79509618522604
  0
LINE
  8
_0-0_0
  6
CONTINUOUS
 62
    3
 10
810.4706196723904
 20
624.04509618522604
 11
822.4706196723904
 21
624.04509618522604
  0
LINE
  8
_0-0_0
  6
CONTINUOUS
 62
    3
 10
811.4706196723904
 20
624.04509618522604
 11
811.4706196723904
 21
623.04509618522604
  0
LINE
  8
_0-0_0
  6
CONTINUOUS
 62
    3
 10
821.4706196723904
 20
624.04509618522604
 11
821.4706196723904
 21
623.04509618522604
  0
LINE
  8
_0-0_0
  6
CONTINUOUS
 62
    3
 10
816.4706196723904
 20
615.64392818522606
 11
818.07061967239042
 21
615.69090818522614
  0
LINE
  8
_0-0_0
  6
CONTINUOUS
 62
    3
 10
816.4706196723904
 20
615.64392818522606
 11
818.07061967239042
 21
616.5376891852261
  0
LINE
  8
_0-0_0
  6
CONTINUOUS
 62
    3
 10
814.87061967239038
 20
618.51313018522603
 11
814.87061967239038
 21
617.4784291852261
  0
LINE
  8
_0-0_0
  6
CONTINUOUS
 62
    3
 10
814.87061967239038
 20
616.63164918522602
 11
814.87061967239038
 21
610.46885618522606
  0
LINE
  8
_0-0_0
  6
CONTINUOUS
 62
    3
 10
818.07061967239042
 20
619.45387118522603
 11
818.07061967239042
 21
618.41917018522611
  0
LINE
  8
_0-0_0
  6
CONTINUOUS
 62
    3
 10
818.07061967239042
 20
617.57239018522603
 11
818.07061967239042
 21
616.5376891852261
  0
LINE
  8
_0-0_0
  6
CONTINUOUS
 62
    3
 10
818.07061967239042
 20
615.69090818522614
 11
818.07061967239042
 21
610.46885618522606
  0
LINE
  8
_0-0_0
  6
CONTINUOUS
 62
    3
 10
814.87061967239038
 20
618.51313018522603
 11
818.07061967239042
 21
619.45387118522603
  0
LINE
  8
_0-0_0
  6
CONTINUOUS
 62
    3
 10
814.13728667239036
 20
618.93652118522607
 11
814.87061967239038
 21
618.51313018522603
  0
LINE
  8
_0-0_0
  6
CONTINUOUS
 62
    3
 10
814.13728667239036
 20
618.93652118522607
 11
814.87061967239038
 21
619.35991118522611
  0
LINE
  8
_0-0_0
  6
CONTINUOUS
 62
    3
 10
812.4706196723904
 20
626.56545318522603
 11
812.4706196723904
 21
625.54509618522604
  0
ARC
  8
_0-0_0
  6
CONTINUOUS
 62
    3
 10
820.76870267239042
 20
623.54524218522613
 40
2
 50
55.000000000000007
 51
90
  0
LINE
  8
_0-0_0
  6
CONTINUOUS
 62
    3
 10
812.17233967239042
 20
625.54510418522614
 11
820.76870267239042
 21
625.54524218522613
  0
LINE
  8
_0-0_0
  6
CONTINUOUS
 62
    3
 10
820.4706196723904
 20
626.56545318522603
 11
820.4706196723904
 21
625.54509618522604
  0
LINE
  8
_0-0_0
  6
CONTINUOUS
 62
    3
 10
816.4706196723904
 20
611.58133718522606
 11
816.4706196723904
 21
609.54509618522604
  0
LINE
  8
_0-0_0
  6
CONTINUOUS
 62
    3
 10
818.07061967239042
 20
615.14509618522607
 11
814.87063467239045
 21
615.14509618522607
  0
LINE
  8
_0-0_0
  6
CONTINUOUS
 62
    3
 10
816.4706196723904
 20
609.54509618522604
 11
814.87062067239037
 21
610.46885618522606
  0
LINE
  8
_0-0_0
  6
CONTINUOUS
 62
    3
 10
816.4706196723904
 20
609.54509618522604
 11
818.07061967239042
 21
610.46885618522606
  0
ARC
  8
_0-0_0
  6
CONTINUOUS
 62
    3
 10
816.49567767239034
 20
609.78042618522613
 40
1.764848
 50
90.813542999999996
 51
157.040875
  0
ARC
  8
_0-0_0
  6
CONTINUOUS
 62
    3
 10
822.50303167239042
 20
611.01958018522612
 40
6.0552590000000004
 50
137.05380000000002
 51
175.02122199999999
  0
LINE
  8
_0-0_0
  6
CONTINUOUS
 62
    3
 10
814.87061967239038
 20
616.63164918522602
 11
818.07061967239042
 21
617.57239018522603
  0
LINE
  8
_0-0_0
  6
CONTINUOUS
 62
    3
 10
814.87061967239038
 20
617.4784291852261
 11
818.07061967239042
 21
618.41917018522611
  0
LINE
  8
_0-0_0
  6
CONTINUOUS
 62
    3
 10
814.13728667239036
 20
617.05503918522606
 11
818.80395267239044
 21
617.99578018522607
  0
LINE
  8
_0-0_0
  6
CONTINUOUS
 62
    3
 10
814.13728667239036
 20
617.05503918522606
 11
814.87061967239038
 21
616.63164918522602
  0
LINE
  8
_0-0_0
  6
CONTINUOUS
 62
    3
 10
814.13728667239036
 20
617.05503918522606
 11
814.87061967239038
 21
617.4784291852261
  0
LINE
  8
_0-0_0
  6
CONTINUOUS
 62
    3
 10
818.80395267239044
 20
617.99578018522607
 11
818.07061967239042
 21
617.57239018522603
  0
LINE
  8
_0-0_0
  6
CONTINUOUS
 62
    3
 10
818.07061967239042
 20
618.41917018522611
 11
818.80395267239044
 21
617.99578018522607
  0
LINE
  8
_0-0_0
  6
CONTINUOUS
 62
    3
 10
816.4706196723904
 20
615.64392818522606
 11
818.80395267239044
 21
616.11429818522606
  0
LINE
  8
_0-0_0
  6
CONTINUOUS
 62
    3
 10
818.80395267239044
 20
616.11429818522606
 11
818.07061967239042
 21
615.69090818522614
  0
LINE
  8
_0-0_0
  6
CONTINUOUS
 62
    3
 10
818.07061967239042
 20
616.5376891852261
 11
818.80395267239044
 21
616.11429818522606
  0
LINE
  8
_0-0_0
  6
CONTINUOUS
 62
    3
 10
822.4706196723904
 20
624.79509618522604
 11
821.91585567239042
 21
625.18354618522608
  0
LINE
  8
_0-0_0
  6
CONTINUOUS
 62
    3
 10
814.87061967239038
 20
619.35991118522611
 11
816.52101228839035
 21
619.84509618522611
  0
LINE
  8
_0-0_0
  6
CONTINUOUS
 62
    3
 10
814.87061967239038
 20
619.84509618522611
 11
814.87061967239038
 21
619.35991118522611
  0
LINE
  8
_0-0_0
  6
CONTINUOUS
 62
    3
 10
814.13728667239036
 20
618.93652118522607
 11
818.64439390809036
 21
619.84509618522611
  0
LINE
  8
_0-0_0
  6
CONTINUOUS
 62
    3
 10
818.74824125749035
 20
619.84509618522611
 11
818.07061967239042
 21
619.45387118522603
  0
LINE
  8
_0-0_0
  6
DOT_17
 62
    3
 10
818.07061967239042
 20
620.30065218522611
 11
818.07061967239042
 21
621.33535318522604
  0
LINE
  8
_0-0_0
  6
DOT_17
 62
    3
 10
818.07061967239042
 20
620.30065218522611
 11
818.80395267239044
 21
619.87726118522608
  0
LINE
  8
_0-0_0
  6
DOT_17
 62
    3
 10
814.87061967239038
 20
622.27609318522605
 11
814.87061967239038
 21
621.24139218522612
  0
LINE
  8
_0-0_0
  6
DOT_17
 62
    3
 10
818.07061967239042
 20
623.04509618522604
 11
818.07061967239042
 21
622.18213318522612
  0
LINE
  8
_0-0_0
  6
DOT_17
 62
    3
 10
814.87061967239038
 20
620.39461218522604
 11
818.07061967239042
 21
621.33535318522604
  0
LINE
  8
_0-0_0
  6
DOT_17
 62
    3
 10
814.87061967239038
 20
621.24139218522612
 11
818.07061967239042
 21
622.18213318522612
  0
LINE
  8
_0-0_0
  6
DOT_17
 62
    3
 10
814.13728667239036
 20
620.81800218522608
 11
818.80395267239044
 21
621.75874318522608
  0
LINE
  8
_0-0_0
  6
DOT_17
 62
    3
 10
814.13728667239036
 20
620.81800218522608
 11
814.87061967239038
 21
620.39461218522604
  0
LINE
  8
_0-0_0
  6
DOT_17
 62
    3
 10
814.13728667239036
 20
620.81800218522608
 11
814.87061967239038
 21
621.24139218522612
  0
LINE
  8
_0-0_0
  6
DOT_17
 62
    3
 10
818.80395267239044
 20
621.75874318522608
 11
818.07061967239042
 21
621.33535318522604
  0
LINE
  8
_0-0_0
  6
DOT_17
 62
    3
 10
818.07061967239042
 20
622.18213318522612
 11
818.80395267239044
 21
621.75874318522608
  0
LINE
  8
_0-0_0
  6
DOT_17
 62
    3
 10
817.48643967239036
 20
623.04509618522604
 11
814.87061967239038
 21
622.27609318522605
  0
LINE
  8
_0-0_0
  6
DOT_17
 62
    3
 10
815.8517416723904
 20
623.04509618522604
 11
814.13728667239036
 21
622.69948418522608
  0
LINE
  8
_0-0_0
  6
DOT_17
 62
    3
 10
814.13728667239036
 20
622.69948418522608
 11
814.87061967239038
 21
622.27609318522605
  0
LINE
  8
_0-0_0
  6
DOT_17
 62
    3
 10
814.73590467239035
 20
623.04509618522604
 11
814.13728667239036
 21
622.69948418522608
  0
LINE
  8
_0-0_0
  6
DOT_17
 62
    3
 10
816.52101228839035
 20
619.84509618522611
 11
818.07061967239042
 21
620.30065218522611
  0
LINE
  8
_0-0_0
  6
DOT_17
 62
    3
 10
814.87061967239038
 20
620.39461218522604
 11
814.87061967239038
 21
619.84509618522611
  0
LINE
  8
_0-0_0
  6
DOT_17
 62
    3
 10
818.64439390809036
 20
619.84509618522611
 11
818.80395267239044
 21
619.87726118522608
  0
LINE
  8
_0-0_0
  6
DOT_17
 62
    3
 10
818.80395267239044
 20
619.87726118522608
 11
818.74824125749035
 21
619.84509618522611
  0
ARC
  8
_0-0_0
  6
CONTINUOUS
 62
    3
 10
1114.4706196723905
 20
622.46176318522612
 40
6.0833329999999997
 50
53.831358000000002
 51
126.16864200000002
  0
ARC
  8
_0-0_0
  6
CONTINUOUS
 62
    3
 10
1117.4706196723905
 20
626.56545318522603
 40
1
 50
0
 51
53.831358000000002
  0
ARC
  8
_0-0_0
  6
CONTINUOUS
 62
    3
 10
1111.4706196723905
 20
626.56545318522603
 40
1
 50
126.16864200000002
 51
180
  0
LINE
  8
_0-0_0
  6
CONTINUOUS
 62
    3
 10
1108.4706196723905
 20
624.79509618522604
 11
1108.4706196723905
 21
624.04509618522604
  0
ARC
  8
_0-0_0
  6
CONTINUOUS
 62
    3
 10
1110.1723396723905
 20
623.54510418522614
 40
2
 50
90
 51
125.00000000000001
  0
LINE
  8
_0-0_0
  6
CONTINUOUS
 62
    3
 10
1108.4706196723905
 20
624.79509618522604
 11
1109.0251866723904
 21
625.18340818522609
  0
LINE
  8
_0-0_0
  6
CONTINUOUS
 62
    3
 10
1108.4706196723905
 20
624.79509618522604
 11
1120.4706196723905
 21
624.79509618522604
  0
LINE
  8
_0-0_0
  6
CONTINUOUS
 62
    3
 10
1108.4706196723905
 20
624.04509618522604
 11
1120.4706196723905
 21
624.04509618522604
  0
LINE
  8
_0-0_0
  6
CONTINUOUS
 62
    3
 10
1109.4706196723905
 20
624.04509618522604
 11
1109.4706196723905
 21
623.04509618522604
  0
LINE
  8
_0-0_0
  6
CONTINUOUS
 62
    3
 10
1119.4706196723905
 20
624.04509618522604
 11
1119.4706196723905
 21
623.04509618522604
  0
LINE
  8
_0-0_0
  6
CONTINUOUS
 62
    3
 10
1114.4706196723905
 20
615.64392818522606
 11
1116.0706196723904
 21
615.69090818522614
  0
LINE
  8
_0-0_0
  6
CONTINUOUS
 62
    3
 10
1114.4706196723905
 20
615.64392818522606
 11
1116.0706196723904
 21
616.5376891852261
  0
LINE
  8
_0-0_0
  6
CONTINUOUS
 62
    3
 10
1112.8706196723904
 20
618.51313018522603
 11
1112.8706196723904
 21
617.4784291852261
  0
LINE
  8
_0-0_0
  6
CONTINUOUS
 62
    3
 10
1112.8706196723904
 20
616.63164918522602
 11
1112.8706196723904
 21
610.46885618522606
  0
LINE
  8
_0-0_0
  6
CONTINUOUS
 62
    3
 10
1116.0706196723904
 20
619.45387118522603
 11
1116.0706196723904
 21
618.41917018522611
  0
LINE
  8
_0-0_0
  6
CONTINUOUS
 62
    3
 10
1116.0706196723904
 20
617.57239018522603
 11
1116.0706196723904
 21
616.5376891852261
  0
LINE
  8
_0-0_0
  6
CONTINUOUS
 62
    3
 10
1116.0706196723904
 20
615.69090818522614
 11
1116.0706196723904
 21
610.46885618522606
  0
LINE
  8
_0-0_0
  6
CONTINUOUS
 62
    3
 10
1112.8706196723904
 20
618.51313018522603
 11
1116.0706196723904
 21
619.45387118522603
  0
LINE
  8
_0-0_0
  6
CONTINUOUS
 62
    3
 10
1112.1372866723905
 20
618.93652118522607
 11
1112.8706196723904
 21
618.51313018522603
  0
LINE
  8
_0-0_0
  6
CONTINUOUS
 62
    3
 10
1112.1372866723905
 20
618.93652118522607
 11
1112.8706196723904
 21
619.35991118522611
  0
LINE
  8
_0-0_0
  6
CONTINUOUS
 62
    3
 10
1110.4706196723905
 20
626.56545318522603
 11
1110.4706196723905
 21
625.54509618522604
  0
ARC
  8
_0-0_0
  6
CONTINUOUS
 62
    3
 10
1118.7687026723904
 20
623.54524218522613
 40
2
 50
55.000000000000007
 51
90
  0
LINE
  8
_0-0_0
  6
CONTINUOUS
 62
    3
 10
1110.1723396723905
 20
625.54510418522614
 11
1118.7687026723904
 21
625.54524218522613
  0
LINE
  8
_0-0_0
  6
CONTINUOUS
 62
    3
 10
1118.4706196723905
 20
626.56545318522603
 11
1118.4706196723905
 21
625.54509618522604
  0
LINE
  8
_0-0_0
  6
CONTINUOUS
 62
    3
 10
1114.4706196723905
 20
611.58133718522606
 11
1114.4706196723905
 21
609.54509618522604
  0
LINE
  8
_0-0_0
  6
CONTINUOUS
 62
    3
 10
1116.0706196723904
 20
615.14509618522607
 11
1112.8706346723905
 21
615.14509618522607
  0
LINE
  8
_0-0_0
  6
CONTINUOUS
 62
    3
 10
1114.4706196723905
 20
609.54509618522604
 11
1112.8706206723905
 21
610.46885618522606
  0
LINE
  8
_0-0_0
  6
CONTINUOUS
 62
    3
 10
1114.4706196723905
 20
609.54509618522604
 11
1116.0706196723904
 21
610.46885618522606
  0
ARC
  8
_0-0_0
  6
CONTINUOUS
 62
    3
 10
1114.4956776723905
 20
609.78042618522613
 40
1.764848
 50
90.813542999999996
 51
157.040875
  0
ARC
  8
_0-0_0
  6
CONTINUOUS
 62
    3
 10
1120.5030316723905
 20
611.01958018522612
 40
6.0552590000000004
 50
137.05380000000002
 51
175.02122199999999
  0
LINE
  8
_0-0_0
  6
CONTINUOUS
 62
    3
 10
1112.8706196723904
 20
616.63164918522602
 11
1116.0706196723904
 21
617.57239018522603
  0
LINE
  8
_0-0_0
  6
CONTINUOUS
 62
    3
 10
1112.8706196723904
 20
617.4784291852261
 11
1116.0706196723904
 21
618.41917018522611
  0
LINE
  8
_0-0_0
  6
CONTINUOUS
 62
    3
 10
1112.1372866723905
 20
617.05503918522606
 11
1116.8039526723906
 21
617.99578018522607
  0
LINE
  8
_0-0_0
  6
CONTINUOUS
 62
    3
 10
1112.1372866723905
 20
617.05503918522606
 11
1112.8706196723904
 21
616.63164918522602
  0
LINE
  8
_0-0_0
  6
CONTINUOUS
 62
    3
 10
1112.1372866723905
 20
617.05503918522606
 11
1112.8706196723904
 21
617.4784291852261
  0
LINE
  8
_0-0_0
  6
CONTINUOUS
 62
    3
 10
1116.8039526723906
 20
617.99578018522607
 11
1116.0706196723904
 21
617.57239018522603
  0
LINE
  8
_0-0_0
  6
CONTINUOUS
 62
    3
 10
1116.0706196723904
 20
618.41917018522611
 11
1116.8039526723906
 21
617.99578018522607
  0
LINE
  8
_0-0_0
  6
CONTINUOUS
 62
    3
 10
1114.4706196723905
 20
615.64392818522606
 11
1116.8039526723906
 21
616.11429818522606
  0
LINE
  8
_0-0_0
  6
CONTINUOUS
 62
    3
 10
1116.8039526723906
 20
616.11429818522606
 11
1116.0706196723904
 21
615.69090818522614
  0
LINE
  8
_0-0_0
  6
CONTINUOUS
 62
    3
 10
1116.0706196723904
 20
616.5376891852261
 11
1116.8039526723906
 21
616.11429818522606
  0
LINE
  8
_0-0_0
  6
CONTINUOUS
 62
    3
 10
1120.4706196723905
 20
624.79509618522604
 11
1119.9158556723905
 21
625.18354618522608
  0
LINE
  8
_0-0_0
  6
CONTINUOUS
 62
    3
 10
1112.8706196723904
 20
619.35991118522611
 11
1114.5210122883905
 21
619.84509618522611
  0
LINE
  8
_0-0_0
  6
CONTINUOUS
 62
    3
 10
1112.8706196723904
 20
619.84509618522611
 11
1112.8706196723904
 21
619.35991118522611
  0
LINE
  8
_0-0_0
  6
CONTINUOUS
 62
    3
 10
1112.1372866723905
 20
618.93652118522607
 11
1116.6443939080905
 21
619.84509618522611
  0
LINE
  8
_0-0_0
  6
CONTINUOUS
 62
    3
 10
1116.7482412574905
 20
619.84509618522611
 11
1116.0706196723904
 21
619.45387118522603
  0
LINE
  8
_0-0_0
  6
DOT_17
 62
    3
 10
1116.0706196723904
 20
620.30065218522611
 11
1116.0706196723904
 21
621.33535318522604
  0
LINE
  8
_0-0_0
  6
DOT_17
 62
    3
 10
1116.0706196723904
 20
620.30065218522611
 11
1116.8039526723906
 21
619.87726118522608
  0
LINE
  8
_0-0_0
  6
DOT_17
 62
    3
 10
1112.8706196723904
 20
622.27609318522605
 11
1112.8706196723904
 21
621.24139218522612
  0
LINE
  8
_0-0_0
  6
DOT_17
 62
    3
 10
1116.0706196723904
 20
623.04509618522604
 11
1116.0706196723904
 21
622.18213318522612
  0
LINE
  8
_0-0_0
  6
DOT_17
 62
    3
 10
1112.8706196723904
 20
620.39461218522604
 11
1116.0706196723904
 21
621.33535318522604
  0
LINE
  8
_0-0_0
  6
DOT_17
 62
    3
 10
1112.8706196723904
 20
621.24139218522612
 11
1116.0706196723904
 21
622.18213318522612
  0
LINE
  8
_0-0_0
  6
DOT_17
 62
    3
 10
1112.1372866723905
 20
620.81800218522608
 11
1116.8039526723906
 21
621.75874318522608
  0
LINE
  8
_0-0_0
  6
DOT_17
 62
    3
 10
1112.1372866723905
 20
620.81800218522608
 11
1112.8706196723904
 21
620.39461218522604
  0
LINE
  8
_0-0_0
  6
DOT_17
 62
    3
 10
1112.1372866723905
 20
620.81800218522608
 11
1112.8706196723904
 21
621.24139218522612
  0
LINE
  8
_0-0_0
  6
DOT_17
 62
    3
 10
1116.8039526723906
 20
621.75874318522608
 11
1116.0706196723904
 21
621.33535318522604
  0
LINE
  8
_0-0_0
  6
DOT_17
 62
    3
 10
1116.0706196723904
 20
622.18213318522612
 11
1116.8039526723906
 21
621.75874318522608
  0
LINE
  8
_0-0_0
  6
DOT_17
 62
    3
 10
1115.4864396723904
 20
623.04509618522604
 11
1112.8706196723904
 21
622.27609318522605
  0
LINE
  8
_0-0_0
  6
DOT_17
 62
    3
 10
1113.8517416723905
 20
623.04509618522604
 11
1112.1372866723905
 21
622.69948418522608
  0
LINE
  8
_0-0_0
  6
DOT_17
 62
    3
 10
1112.1372866723905
 20
622.69948418522608
 11
1112.8706196723904
 21
622.27609318522605
  0
LINE
  8
_0-0_0
  6
DOT_17
 62
    3
 10
1112.7359046723905
 20
623.04509618522604
 11
1112.1372866723905
 21
622.69948418522608
  0
LINE
  8
_0-0_0
  6
DOT_17
 62
    3
 10
1114.5210122883905
 20
619.84509618522611
 11
1116.0706196723904
 21
620.30065218522611
  0
LINE
  8
_0-0_0
  6
DOT_17
 62
    3
 10
1112.8706196723904
 20
620.39461218522604
 11
1112.8706196723904
 21
619.84509618522611
  0
LINE
  8
_0-0_0
  6
DOT_17
 62
    3
 10
1116.6443939080905
 20
619.84509618522611
 11
1116.8039526723906
 21
619.87726118522608
  0
LINE
  8
_0-0_0
  6
DOT_17
 62
    3
 10
1116.8039526723906
 20
619.87726118522608
 11
1116.7482412574905
 21
619.84509618522611
  0
LINE
  8
_0-0_0
  6
CONTINUOUS
 62
    3
 10
1120.4706196723905
 20
624.79509618522604
 11
1120.4706196723905
 21
624.04509618522604
  0
LINE
  8
_0-0_0
  6
CONTINUOUS
 62
    3
 10
822.4706196723904
 20
624.79465423332613
 11
822.4706196723904
 21
624.04465423332613
  0
LINE
  8
_0-0_0
  6
CONTINUOUS
 62
    3
 10
826.4706196723904
 20
606.34509618522611
 11
844.4706196723904
 21
606.34509618522611
  0
LINE
  8
_0-0_0
  6
CONTINUOUS
 62
    3
 10
1120.4706196723905
 20
604.34509618522611
 11
1120.4706196723905
 21
603.34509618522611
  0
LINE
  8
_0-0_0
  6
CENTER
 62
    3
 10
835.4706196723904
 20
616.49509618522609
 11
835.4706196723904
 21
550.74414354332612
  0
LINE
  8
_0-0_0
  6
CENTER
 62
    3
 10
1095.4706196723905
 20
616.49509618522609
 11
1095.4706196723905
 21
550.74414354332612
  0
LINE
  8
_0-0_0
  6
CONTINUOUS
 62
    3
 10
816.4706196723904
 20
633.34509618522611
 11
816.4706196723904
 21
643.34509618522611
  0
LINE
  8
_0-0_0
  6
CONTINUOUS
 62
    3
 10
816.4706196723904
 20
643.34509618522611
 11
816.4706196723904
 21
648.14509618522607
  0
LINE
  8
_0-0_0
  6
CONTINUOUS
 62
    3
 10
1114.4706196723905
 20
633.34509618522611
 11
1114.4706196723905
 21
643.34509618522611
  0
LINE
  8
_0-0_0
  6
CONTINUOUS
 62
    3
 10
1114.4706196723905
 20
643.34509618522611
 11
1114.4706196723905
 21
648.14509618522607
  0
LINE
  8
_0-0_0
  6
CONTINUOUS
 62
    3
 10
800.4706196723904
 20
653.34509618522611
 11
800.4706196723904
 21
663.34509618522611
  0
LINE
  8
_0-0_0
  6
CONTINUOUS
 62
    3
 10
800.4706196723904
 20
663.34509618522611
 11
800.4706196723904
 21
668.14509618522607
  0
LINE
  8
_0-0_0
  6
CONTINUOUS
 62
    3
 10
1130.4706196723905
 20
653.34509618522611
 11
1130.4706196723905
 21
663.34509618522611
  0
LINE
  8
_0-0_0
  6
CONTINUOUS
 62
    3
 10
1130.4706196723905
 20
663.34509618522611
 11
1130.4706196723905
 21
668.14509618522607
  0
LINE
  8
_0-0_0
  6
CONTINUOUS
 62
    3
 10
800.4706196723904
 20
633.34509618522611
 11
800.4706196723904
 21
683.34509618522611
  0
LINE
  8
_0-0_0
  6
CONTINUOUS
 62
    3
 10
800.4706196723904
 20
683.34509618522611
 11
800.4706196723904
 21
688.14509618522607
  0
LINE
  8
_0-0_0
  6
CONTINUOUS
 62
    3
 10
1130.4706196723905
 20
633.34509618522611
 11
1130.4706196723905
 21
683.34509618522611
  0
LINE
  8
_0-0_0
  6
CONTINUOUS
 62
    3
 10
1130.4706196723905
 20
683.34509618522611
 11
1130.4706196723905
 21
688.14509618522607
  0
LINE
  8
_0-0_0
  6
CONTINUOUS
 62
    3
 10
800.4706196723904
 20
628.34509618522611
 11
800.4706196723904
 21
643.34509618522611
  0
LINE
  8
_0-0_0
  6
CONTINUOUS
 62
    3
 10
800.4706196723904
 20
643.34509618522611
 11
800.4706196723904
 21
648.14509618522607
  0
LINE
  8
_0-0_0
  6
CONTINUOUS
 62
    3
 10
1130.4706196723905
 20
628.34509618522611
 11
1130.4706196723905
 21
643.34509618522611
  0
LINE
  8
_0-0_0
  6
CONTINUOUS
 62
    3
 10
1130.4706196723905
 20
643.34509618522611
 11
1130.4706196723905
 21
648.14509618522607
  0
LINE
  8
_0-0_0
  6
CONTINUOUS
 62
    3
 10
1025.4706196723905
 20
628.34509618522611
 11
1025.4706196723905
 21
663.34509618522611
  0
LINE
  8
_0-0_0
  6
CONTINUOUS
 62
    3
 10
1025.4706196723905
 20
663.34509618522611
 11
1025.4706196723905
 21
668.14509618522607
  0
LINE
  8
_0-0_0
  6
CONTINUOUS
 62
    3
 10
905.4706196723904
 20
628.34509618522611
 11
905.4706196723904
 21
663.34509618522611
  0
LINE
  8
_0-0_0
  6
CONTINUOUS
 62
    3
 10
905.4706196723904
 20
663.34509618522611
 11
905.4706196723904
 21
668.14509618522607
  0
LINE
  8
_0-0_0
  6
CONTINUOUS
 62
    3
 10
843.4706196723904
 20
623.34509618522611
 11
857.90437640209041
 21
648.34509618522611
  0
LINE
  8
_0-0_0
  6
CONTINUOUS
 62
    3
 10
816.4706196723904
 20
628.84509618522611
 11
824.84219857569042
 21
643.34509618522611
  0
LINE
  8
_0-0_0
  6
CONTINUOUS
 62
    3
 10
900.77007888769037
 20
619.69512293532603
 11
917.31114865579036
 21
648.34509618522611
  0
CIRCLE
  8
_0-0_0
  6
CONTINUOUS
 62
    3
 10
919.81114865579036
 20
652.67522320412604
 40
5
  0
CIRCLE
  8
_0-0_0
  6
CONTINUOUS
 62
    3
 10
860.40437640209041
 20
652.67522320412604
 40
5
  0
CIRCLE
  8
_0-0_0
  6
CONTINUOUS
 62
    3
 10
827.34219857569042
 20
647.67522320412604
 40
5
  0
CIRCLE
  8
_0-0_0
  6
CONTINUOUS
 62
    3
 10
919.51762505619047
 20
632.67522320412604
 40
5
  0
LINE
  8
_0-0_0
  6
CONTINUOUS
 62
    3
 10
917.01762505619047
 20
628.34509618522611
 11
905.4706196723904
 21
608.34509618522611
  0
CIRCLE
  8
_0-0_0
  6
CONTINUOUS
 62
    3
 10
975.12976301039043
 20
632.67522320412604
 40
5
  0
LINE
  8
_0-0_0
  6
CONTINUOUS
 62
    3
 10
965.4706196723904
 20
615.94509618522613
 11
972.62976301039043
 21
628.34509618522611
  0
CIRCLE
  8
_0-0_0
  6
CONTINUOUS
 62
    3
 10
857.79593721969036
 20
584.01496916632607
 40
5
  0
LINE
  8
_0-0_0
  6
CONTINUOUS
 62
    3
 10
844.4706196723904
 20
607.09509618522611
 11
855.29593721969036
 21
588.34509618522611
  0
LINE
  8
_0-0_0
  6
CONTINUOUS
 62
    3
 10
835.4706196723904
 20
611.14509618522607
 11
816.53353084299044
 21
578.34509618522611
  0
CIRCLE
  8
_0-0_0
  6
CONTINUOUS
 62
    3
 10
814.03353084299044
 20
574.01496916632607
 40
5
  0
LINE
  8
_0-0_0
  6
CONTINUOUS
 62
    3
 10
831.65293917239035
 20
565.47779768522605
 11
824.64812069539039
 21
553.34509618522611
  0
CIRCLE
  8
_0-0_0
  6
CONTINUOUS
 62
    3
 10
822.14812069539039
 20
549.01496916632607
 40
5
  0
LINE
  8
_0-0_0
  6
CONTINUOUS
 62
    3
 10
865.4706196723904
 20
493.34509618522611
 11
865.4706196723904
 21
483.34509618522611
  0
LINE
  8
_0-0_0
  6
CONTINUOUS
 62
    3
 10
865.4706196723904
 20
483.34509618522611
 11
865.4706196723904
 21
478.54509618522604
  0
LINE
  8
_0-0_0
  6
CONTINUOUS
 62
    3
 10
1065.4706196723905
 20
493.34509618522611
 11
1065.4706196723905
 21
483.34509618522611
  0
LINE
  8
_0-0_0
  6
CONTINUOUS
 62
    3
 10
1065.4706196723905
 20
483.34509618522611
 11
1065.4706196723905
 21
478.54509618522604
  0
LINE
  8
_0-0_0
  6
CONTINUOUS
 62
    3
 10
835.4706196723904
 20
545.84509618522611
 11
835.4706196723904
 21
483.34509618522611
  0
LINE
  8
_0-0_0
  6
CONTINUOUS
 62
    3
 10
835.4706196723904
 20
483.34509618522611
 11
835.4706196723904
 21
478.54509618522604
  0
LINE
  8
_0-0_0
  6
CONTINUOUS
 62
    3
 10
1095.4706196723905
 20
545.84509618522611
 11
1095.4706196723905
 21
483.34509618522611
  0
LINE
  8
_0-0_0
  6
CONTINUOUS
 62
    3
 10
1095.4706196723905
 20
483.34509618522611
 11
1095.4706196723905
 21
478.54509618522604
  0
LINE
  8
_0-0_0
  6
CONTINUOUS
 62
    3
 10
902.21236752519042
 20
567.60334833252602
 11
911.35003555119044
 21
583.43025361632613
  0
CIRCLE
  8
_0-0_0
  6
CONTINUOUS
 62
    3
 10
913.45034384609039
 20
587.76038063522606
 40
5
  0
LINE
  8
_0-0_0
  6
CONTINUOUS
 62
    3
 10
802.69054689789039
 20
610.70182757682608
 11
785.56473108529042
 21
640.36461068522613
  0
LINE
  8
_0-0_0
  6
CONTINUOUS
 62
    3
 10
790.4706196723904
 20
613.04509618522604
 11
780.4706196723904
 21
613.04509618522604
  0
LINE
  8
_0-0_0
  6
CONTINUOUS
 62
    3
 10
780.4706196723904
 20
613.04509618522604
 11
775.67061967239044
 21
613.04509618522604
  0
LINE
  8
_0-0_0
  6
CONTINUOUS
 62
    3
 10
790.4706196723904
 20
603.34509618522611
 11
780.4706196723904
 21
603.34509618522611
  0
LINE
  8
_0-0_0
  6
CONTINUOUS
 62
    3
 10
780.4706196723904
 20
603.34509618522611
 11
775.67061967239044
 21
603.34509618522611
  0
LINE
  8
_0-0_0
  6
CONTINUOUS
 62
    3
 10
790.4706196723904
 20
623.04509618522604
 11
780.4706196723904
 21
623.04509618522604
  0
LINE
  8
_0-0_0
  6
CONTINUOUS
 62
    3
 10
780.4706196723904
 20
623.04509618522604
 11
775.67061967239044
 21
623.04509618522604
  0
LINE
  8
_0-0_0
  6
CONTINUOUS
 62
    3
 10
780.4706196723904
 20
603.34509618522611
 11
770.4706196723904
 21
603.34509618522611
  0
LINE
  8
_0-0_0
  6
CONTINUOUS
 62
    3
 10
770.4706196723904
 20
603.34509618522611
 11
765.67061967239044
 21
603.34509618522611
  0
LINE
  8
_0-0_0
  6
CONTINUOUS
 62
    3
 10
780.4706196723904
 20
623.04509618522604
 11
770.4706196723904
 21
623.04509618522604
  0
LINE
  8
_0-0_0
  6
CONTINUOUS
 62
    3
 10
770.4706196723904
 20
623.04509618522604
 11
765.67061967239044
 21
623.04509618522604
  0
LINE
  8
_0-0_0
  6
CENTER
 62
    3
 10
816.4706196723904
 20
630.79509618522604
 11
816.4706196723904
 21
608.04509618522604
  0
LINE
  8
_0-0_0
  6
CENTER
 62
    3
 10
1114.4706196723905
 20
630.79509618522604
 11
1114.4706196723905
 21
608.04509618522604
  0
LINE
  8
_0-0_0
  6
CENTER
 62
    3
 10
965.4706196723904
 20
500.94128561752609
 11
965.4706196723904
 21
629.94509783522608
  0
LINE
  8
_0-0_0
  6
CONTINUOUS
 62
    3
 10
1130.4706196723905
 20
683.34509618522611
 11
800.4706196723904
 21
683.34509618522611
  0
LINE
  8
_0-0_0
  6
CONTINUOUS
 62
    3
 10
1124.6750647146905
 20
681.7921819146261
 11
1130.4706196723905
 21
683.34509618522611
  0
LINE
  8
_0-0_0
  6
CONTINUOUS
 62
    3
 10
1130.4706196723905
 20
683.34509618522611
 11
1124.6750647146905
 21
684.89801045582612
  0
LINE
  8
_0-0_0
  6
CONTINUOUS
 62
    3
 10
806.2661746300904
 20
684.89801045582612
 11
800.4706196723904
 21
683.34509618522611
  0
LINE
  8
_0-0_0
  6
CONTINUOUS
 62
    3
 10
800.4706196723904
 20
683.34509618522611
 11
806.2661746300904
 21
681.7921819146261
  0
LINE
  8
_0-0_0
  6
CONTINUOUS
 62
    3
 10
905.4706196723904
 20
663.34509618522611
 11
1025.4706196723905
 21
663.34509618522611
  0
LINE
  8
_0-0_0
  6
CONTINUOUS
 62
    3
 10
911.2661746300904
 20
664.89801045582612
 11
905.4706196723904
 21
663.34509618522611
  0
LINE
  8
_0-0_0
  6
CONTINUOUS
 62
    3
 10
905.4706196723904
 20
663.34509618522611
 11
911.2661746300904
 21
661.7921819146261
  0
LINE
  8
_0-0_0
  6
CONTINUOUS
 62
    3
 10
1019.6750647146904
 20
661.7921819146261
 11
1025.4706196723905
 21
663.34509618522611
  0
LINE
  8
_0-0_0
  6
CONTINUOUS
 62
    3
 10
1025.4706196723905
 20
663.34509618522611
 11
1019.6750647146904
 21
664.89801045582612
  0
LINE
  8
_0-0_0
  6
CONTINUOUS
 62
    3
 10
1025.4706196723905
 20
663.34509618522611
 11
1130.4706196723905
 21
663.34509618522611
  0
LINE
  8
_0-0_0
  6
CONTINUOUS
 62
    3
 10
1031.2661746300905
 20
664.89801045582612
 11
1025.4706196723905
 21
663.34509618522611
  0
LINE
  8
_0-0_0
  6
CONTINUOUS
 62
    3
 10
1025.4706196723905
 20
663.34509618522611
 11
1031.2661746300905
 21
661.7921819146261
  0
LINE
  8
_0-0_0
  6
CONTINUOUS
 62
    3
 10
1124.6750647146905
 20
661.7921819146261
 11
1130.4706196723905
 21
663.34509618522611
  0
LINE
  8
_0-0_0
  6
CONTINUOUS
 62
    3
 10
1130.4706196723905
 20
663.34509618522611
 11
1124.6750647146905
 21
664.89801045582612
  0
LINE
  8
_0-0_0
  6
CONTINUOUS
 62
    3
 10
1130.4706196723905
 20
643.34509618522611
 11
1114.4706196723905
 21
643.34509618522611
  0
LINE
  8
_0-0_0
  6
CONTINUOUS
 62
    3
 10
1124.6750647146905
 20
641.7921819146261
 11
1130.4706196723905
 21
643.34509618522611
  0
LINE
  8
_0-0_0
  6
CONTINUOUS
 62
    3
 10
1130.4706196723905
 20
643.34509618522611
 11
1124.6750647146905
 21
644.89801045582612
  0
LINE
  8
_0-0_0
  6
CONTINUOUS
 62
    3
 10
1120.2661746300905
 20
644.89801045582612
 11
1114.4706196723905
 21
643.34509618522611
  0
LINE
  8
_0-0_0
  6
CONTINUOUS
 62
    3
 10
1114.4706196723905
 20
643.34509618522611
 11
1120.2661746300905
 21
641.7921819146261
  0
LINE
  8
_0-0_0
  6
CONTINUOUS
 62
    3
 10
816.4706196723904
 20
643.34509618522611
 11
800.4706196723904
 21
643.34509618522611
  0
LINE
  8
_0-0_0
  6
CONTINUOUS
 62
    3
 10
810.67506471469039
 20
641.7921819146261
 11
816.4706196723904
 21
643.34509618522611
  0
LINE
  8
_0-0_0
  6
CONTINUOUS
 62
    3
 10
816.4706196723904
 20
643.34509618522611
 11
810.67506471469039
 21
644.89801045582612
  0
LINE
  8
_0-0_0
  6
CONTINUOUS
 62
    3
 10
806.2661746300904
 20
644.89801045582612
 11
800.4706196723904
 21
643.34509618522611
  0
LINE
  8
_0-0_0
  6
CONTINUOUS
 62
    3
 10
800.4706196723904
 20
643.34509618522611
 11
806.2661746300904
 21
641.7921819146261
  0
LINE
  8
_0-0_0
  6
CONTINUOUS
 62
    3
 10
835.4706196723904
 20
483.34509618522611
 11
865.4706196723904
 21
483.34509618522611
  0
LINE
  8
_0-0_0
  6
CONTINUOUS
 62
    3
 10
841.2661746300904
 20
484.89801045582612
 11
835.4706196723904
 21
483.34509618522611
  0
LINE
  8
_0-0_0
  6
CONTINUOUS
 62
    3
 10
835.4706196723904
 20
483.34509618522611
 11
841.2661746300904
 21
481.7921819146261
  0
LINE
  8
_0-0_0
  6
CONTINUOUS
 62
    3
 10
859.67506471469039
 20
481.7921819146261
 11
865.4706196723904
 21
483.34509618522611
  0
LINE
  8
_0-0_0
  6
CONTINUOUS
 62
    3
 10
865.4706196723904
 20
483.34509618522611
 11
859.67506471469039
 21
484.89801045582612
  0
LINE
  8
_0-0_0
  6
CONTINUOUS
 62
    3
 10
865.4706196723904
 20
483.34509618522611
 11
1065.4706196723905
 21
483.34509618522611
  0
LINE
  8
_0-0_0
  6
CONTINUOUS
 62
    3
 10
871.2661746300904
 20
484.89801045582612
 11
865.4706196723904
 21
483.34509618522611
  0
LINE
  8
_0-0_0
  6
CONTINUOUS
 62
    3
 10
865.4706196723904
 20
483.34509618522611
 11
871.2661746300904
 21
481.7921819146261
  0
LINE
  8
_0-0_0
  6
CONTINUOUS
 62
    3
 10
1059.6750647146905
 20
481.7921819146261
 11
1065.4706196723905
 21
483.34509618522611
  0
LINE
  8
_0-0_0
  6
CONTINUOUS
 62
    3
 10
1065.4706196723905
 20
483.34509618522611
 11
1059.6750647146905
 21
484.89801045582612
  0
LINE
  8
_0-0_0
  6
CONTINUOUS
 62
    3
 10
1065.4706196723905
 20
483.34509618522611
 11
1095.4706196723905
 21
483.34509618522611
  0
LINE
  8
_0-0_0
  6
CONTINUOUS
 62
    3
 10
1071.2661746300905
 20
484.89801045582612
 11
1065.4706196723905
 21
483.34509618522611
  0
LINE
  8
_0-0_0
  6
CONTINUOUS
 62
    3
 10
1065.4706196723905
 20
483.34509618522611
 11
1071.2661746300905
 21
481.7921819146261
  0
LINE
  8
_0-0_0
  6
CONTINUOUS
 62
    3
 10
1089.6750647146905
 20
481.7921819146261
 11
1095.4706196723905
 21
483.34509618522611
  0
LINE
  8
_0-0_0
  6
CONTINUOUS
 62
    3
 10
1095.4706196723905
 20
483.34509618522611
 11
1089.6750647146905
 21
484.89801045582612
  0
LINE
  8
_0-0_0
  6
CONTINUOUS
 62
    3
 10
770.4706196723904
 20
623.04509618522604
 11
770.4706196723904
 21
603.34509618522611
  0
LINE
  8
_0-0_0
  6
CONTINUOUS
 62
    3
 10
772.02353394299041
 20
617.24954122752604
 11
770.4706196723904
 21
623.04509618522604
  0
LINE
  8
_0-0_0
  6
CONTINUOUS
 62
    3
 10
770.4706196723904
 20
623.04509618522604
 11
768.91770540179039
 21
617.24954122752604
  0
LINE
  8
_0-0_0
  6
CONTINUOUS
 62
    3
 10
768.91770540179039
 20
609.14065114292612
 11
770.4706196723904
 21
603.34509618522611
  0
LINE
  8
_0-0_0
  6
CONTINUOUS
 62
    3
 10
770.4706196723904
 20
603.34509618522611
 11
772.02353394299041
 21
609.14065114292612
  0
LINE
  8
_0-0_0
  6
CONTINUOUS
 62
    3
 10
800.4706196723904
 20
663.34509618522611
 11
905.4706196723904
 21
663.34509618522611
  0
LINE
  8
_0-0_0
  6
CONTINUOUS
 62
    3
 10
806.2661746300904
 20
664.89801045582612
 11
800.4706196723904
 21
663.34509618522611
  0
LINE
  8
_0-0_0
  6
CONTINUOUS
 62
    3
 10
800.4706196723904
 20
663.34509618522611
 11
806.2661746300904
 21
661.7921819146261
  0
LINE
  8
_0-0_0
  6
CONTINUOUS
 62
    3
 10
899.67506471469039
 20
661.7921819146261
 11
905.4706196723904
 21
663.34509618522611
  0
LINE
  8
_0-0_0
  6
CONTINUOUS
 62
    3
 10
905.4706196723904
 20
663.34509618522611
 11
899.67506471469039
 21
664.89801045582612
  0
LINE
  8
_0-0_0
  6
CONTINUOUS
 62
    3
 10
780.4706196723904
 20
633.34509618522611
 11
780.4706196723904
 21
588.09919885152613
  0
LINE
  8
_0-0_0
  6
CONTINUOUS
 62
    3
 10
780.4706196723904
 20
623.04509618522604
 11
782.02353394299041
 21
628.84065114292605
  0
LINE
  8
_0-0_0
  6
CONTINUOUS
 62
    3
 10
780.4706196723904
 20
623.04509618522604
 11
778.91770540179039
 21
628.84065114292605
  0
LINE
  8
_0-0_0
  6
CONTINUOUS
 62
    3
 10
780.4706196723904
 20
613.04509618522604
 11
782.02353394299041
 21
607.24954122752604
  0
LINE
  8
_0-0_0
  6
CONTINUOUS
 62
    3
 10
780.4706196723904
 20
613.04509618522604
 11
778.91770540179039
 21
607.24954122752604
  0
LINE
  8
_0-0_0
  6
CONTINUOUS
 62
    3
 10
780.4706196723904
 20
613.04509618522604
 11
782.02353394299041
 21
618.84065114292605
  0
LINE
  8
_0-0_0
  6
CONTINUOUS
 62
    3
 10
780.4706196723904
 20
613.04509618522604
 11
778.91770540179039
 21
618.84065114292605
  0
LINE
  8
_0-0_0
  6
CONTINUOUS
 62
    3
 10
780.4706196723904
 20
603.34509618522611
 11
782.02353394299041
 21
597.54954122752611
  0
LINE
  8
_0-0_0
  6
CONTINUOUS
 62
    3
 10
780.4706196723904
 20
603.34509618522611
 11
778.91770540179039
 21
597.54954122752611
  0
LINE
  8
_0-0_0
  6
CONTINUOUS
 62
    3
 10
1069.2706080519904
 20
611.5451131652261
 11
1070.4706085519904
 21
611.54511328522608
  0
LINE
  8
_0-0_0
  6
CONTINUOUS
 62
    3
 10
860.47060805199044
 20
611.54509228522613
 11
861.67060805199037
 21
611.54509228522613
  0
LINE
  8
_0-0_0
  6
CONTINUOUS
 62
    3
 10
1069.2706080519904
 20
614.74509948522609
 11
1069.2706080519904
 21
611.5451131652261
  0
LINE
  8
_0-0_0
  6
DASHED
 62
    3
 10
863.47060805199044
 20
615.34509972582612
 11
863.47060812569043
 21
616.54510023852606
  0
LINE
  8
_0-0_0
  6
DASHED
 62
    3
 10
867.47060805199044
 20
615.34509963702612
 11
867.47060812569043
 21
616.54509999282607
  0
LINE
  8
_0-0_0
  6
DASHED
 62
    3
 10
1067.4706085519904
 20
615.34509972582612
 11
1067.4706084782904
 21
616.54510023852606
  0
LINE
  8
_0-0_0
  6
DASHED
 62
    3
 10
1063.4706085519904
 20
615.34509963702612
 11
1063.4706084782904
 21
616.54509999282607
  0
LINE
  8
_0-0_0
  6
CONTINUOUS
 62
    3
 10
1069.2706080363905
 20
614.84509956332613
 11
1069.2706085519903
 21
611.54511312732609
  0
LINE
  8
_0-0_0
  6
CONTINUOUS
 62
    3
 10
860.47060805199044
 20
614.84509948522611
 11
860.47060805199044
 21
611.54509228522613
  0
LINE
  8
_0-0_0
  6
CONTINUOUS
 62
    3
 10
862.17060805199037
 20
616.54509948522605
 11
1068.7706081719905
 21
616.54509948522605
  0
LINE
  8
_0-0_0
  6
CONTINUOUS
 62
    3
 10
1070.4706082219905
 20
614.84509965522614
 11
1070.4706085519904
 21
611.54511328522608
  0
LINE
  8
_0-0_0
  6
CONTINUOUS
 62
    3
 10
862.17060805199037
 20
615.34509948522611
 11
1068.7706080519904
 21
615.34509948522611
  0
ARC
  8
_0-0_0
  6
CONTINUOUS
 62
    3
 10
862.17060805199037
 20
614.84509948522611
 40
1.7
 50
90
 51
180
  0
LINE
  8
_0-0_0
  6
CONTINUOUS
 62
    3
 10
861.67060805199037
 20
614.84509948522611
 11
861.67060805199037
 21
611.54509228522613
  0
ARC
  8
_0-0_0
  6
CONTINUOUS
 62
    3
 10
862.17060805199037
 20
614.84509948522611
 40
0.5
 50
90.000000000010019
 51
180
  0
ARC
  8
_0-0_0
  6
CONTINUOUS
 62
    3
 10
1068.7706080519904
 20
614.84509948522611
 40
0.5
 50
0.0000089525076623
 51
90
  0
ARC
  8
_0-0_0
  6
CONTINUOUS
 62
    3
 10
1068.7706081719905
 20
614.84509948522611
 40
1.7
 50
0.0000057296016546
 51
90
  0
LINE
  8
_0-0_0
  6
CONTINUOUS
 62
    3
 10
860.47060805199044
 20
618.34509618522611
 11
860.47060805199044
 21
643.34509618522611
  0
LINE
  8
_0-0_0
  6
CONTINUOUS
 62
    3
 10
860.47060805199044
 20
643.34509618522611
 11
860.47060805199044
 21
648.14509618522607
  0
LINE
  8
_0-0_0
  6
CONTINUOUS
 62
    3
 10
1070.4706085519904
 20
618.34509618522611
 11
1070.4706085519904
 21
643.34509618522611
  0
LINE
  8
_0-0_0
  6
CONTINUOUS
 62
    3
 10
1070.4706085519904
 20
643.34509618522611
 11
1070.4706085519904
 21
648.14509618522607
  0
LINE
  8
_0-0_0
  6
CONTINUOUS
 62
    3
 10
1070.4706085519904
 20
643.34509618522611
 11
860.47060805199044
 21
643.34509618522611
  0
LINE
  8
_0-0_0
  6
CONTINUOUS
 62
    3
 10
1064.6750535942904
 20
641.7921819146261
 11
1070.4706085519904
 21
643.34509618522611
  0
LINE
  8
_0-0_0
  6
CONTINUOUS
 62
    3
 10
1070.4706085519904
 20
643.34509618522611
 11
1064.6750535942904
 21
644.89801045582612
  0
LINE
  8
_0-0_0
  6
CONTINUOUS
 62
    3
 10
866.26616300969044
 20
644.89801045582612
 11
860.47060805199044
 21
643.34509618522611
  0
LINE
  8
_0-0_0
  6
CONTINUOUS
 62
    3
 10
860.47060805199044
 20
643.34509618522611
 11
866.26616300969044
 21
641.7921819146261
  0
TEXT
  8
_0-0_0
 62
    7
 10
742.24238954499606
 20
414.09440102289011
 40
9
 41
1
 50
0
  1
（落下防止ワイヤー）
  0
TEXT
  8
_0-0_0
 62
    7
 10
1075.4121637871961
 20
336.6547501224901
 40
9.5999999999999996
 41
1
 50
0
  1
使用
  0
TEXT
  8
_0-0_0
 62
    7
 10
1113.643052287196
 20
347.45475162249011
 40
9.5999999999999996
 41
1
 50
-90
  1
単位
  0
TEXT
  8
_0-0_0
 62
    7
 10
1030.2775192871959
 20
336.6547501224901
 40
9.5999999999999996
 41
1
 50
0
  1
定　尺
  0
TEXT
  8
_0-0_0
 62
    7
 10
1023.7890142871961
 20
322.25473062249011
 40
9.5999999999999996
 41
1
 50
0
  1
（ｍｍ）
  0
TEXT
  8
_0-0_0
 62
    7
 10
1075.4121637871961
 20
322.25473062249011
 40
9.5999999999999996
 41
1
 50
0
  1
数量
  0
TEXT
  8
_0-0_0
 62
    7
 10
700.24957578719602
 20
304.33736712249009
 40
9.5999999999999996
 41
1
 50
0
  1
　１
  0
TEXT
  8
_0-0_0
 62
    7
 10
1026.5698027871961
 20
304.25473062249011
 40
9.5999999999999996
 41
1
 50
0
  1
３０００
  0
TEXT
  8
_0-0_0
 62
    7
 10
1086.839036287196
 20
304.40469312249007
 40
9.5999999999999996
 41
1
 50
0
  1
２
  0
TEXT
  8
_0-0_0
 62
    7
 10
1109.7737467871959
 20
304.25473062249011
 40
9.5999999999999996
 41
1
 50
0
  1
本
  0
TEXT
  8
_0-0_0
 62
    7
 10
709.51886778719609
 20
286.33736712249009
 40
9.5999999999999996
 41
1
 50
0
  1
２
  0
TEXT
  8
_0-0_0
 62
    7
 10
1026.5698027871961
 20
286.25473062249011
 40
9.5999999999999996
 41
1
 50
0
  1
３０００
  0
TEXT
  8
_0-0_0
 62
    7
 10
1086.839036287196
 20
286.4047276224901
 40
9.5999999999999996
 41
1
 50
0
  1
１
  0
TEXT
  8
_0-0_0
 62
    7
 10
1109.7737467871959
 20
286.25473062249011
 40
9.5999999999999996
 41
1
 50
0
  1
〃
  0
TEXT
  8
_0-0_0
 62
    7
 10
709.51886778719609
 20
268.33736712249009
 40
9.5999999999999996
 41
1
 50
0
  1
３
  0
TEXT
  8
_0-0_0
 62
    7
 10
1086.839036287196
 20
268.40469312249007
 40
9.5999999999999996
 41
1
 50
0
  1
２
  0
TEXT
  8
_0-0_0
 62
    7
 10
1109.7737467871959
 20
268.25473062249011
 40
9.5999999999999996
 41
1
 50
0
  1
〃
  0
TEXT
  8
_0-0_0
 62
    7
 10
709.51886778719609
 20
250.33736712249009
 40
9.5999999999999996
 41
1
 50
0
  1
４
  0
TEXT
  8
_0-0_0
 62
    7
 10
723.95839428719603
 20
250.25473062249011
 40
9.5999999999999996
 41
1
 50
0
  1
止水補助板
  0
TEXT
  8
_0-0_0
 62
    7
 10
1026.5698027871961
 20
250.25473062249011
 40
9.5999999999999996
 41
1
 50
0
  1
３１００
  0
TEXT
  8
_0-0_0
 62
    7
 10
1086.839036287196
 20
250.4047276224901
 40
9.5999999999999996
 41
1
 50
0
  1
１
  0
TEXT
  8
_0-0_0
 62
    7
 10
1109.7737467871959
 20
250.25473062249011
 40
9.5999999999999996
 41
1
 50
0
  1
枚
  0
TEXT
  8
_0-0_0
 62
    7
 10
709.51886778719609
 20
232.33740162249012
 40
9.5999999999999996
 41
1
 50
0
  1
５
  0
TEXT
  8
_0-0_0
 62
    7
 10
723.95839428719603
 20
232.25473062249011
 40
9.5999999999999996
 41
1
 50
0
  1
アンカープラグ
  0
TEXT
  8
_0-0_0
 62
    7
 10
1077.569744287196
 20
232.40469312249013
 40
9.5999999999999996
 41
1
 50
0
  1
１２
  0
TEXT
  8
_0-0_0
 62
    7
 10
894.95841078719604
 20
232.25473062249011
 40
9.5999999999999996
 41
1
 50
0
  1
フィッシャープラグＳ８
  0
TEXT
  8
_0-0_0
 62
    7
 10
1109.7737467871959
 20
232.25469612249009
 40
9.5999999999999996
 41
1
 50
0
  1
本
  0
TEXT
  8
_0-0_0
 62
    7
 10
723.95839428719603
 20
214.25473062249011
 40
9.5999999999999996
 41
1
 50
0
  1
ステンタッピンねじ
  0
TEXT
  8
_0-0_0
 62
    7
 10
709.51886778719609
 20
214.33740162249012
 40
9.5999999999999996
 41
1
 50
0
  1
６
  0
TEXT
  8
_0-0_0
 62
    7
 10
1077.569744287196
 20
214.40471112249014
 40
9.5999999999999996
 41
1
 50
0
  1
１２
  0
TEXT
  8
_0-0_0
 62
    7
 10
1109.7737467871959
 20
214.25473062249011
 40
9.5999999999999996
 41
1
 50
0
  1
〃
  0
TEXT
  8
_0-0_0
 62
    7
 10
894.95844528719601
 20
214.25473062249011
 40
9.5999999999999996
 41
1
 50
0
  1
なべ５×５０
  0
TEXT
  8
_0-0_0
 62
    7
 10
894.95841078719604
 20
196.25474712249013
 40
9.5999999999999996
 41
1
 50
0
  1
４×１３
  0
TEXT
  8
_0-0_0
 62
    7
 10
709.51886778719609
 20
196.3373851224901
 40
9.5999999999999996
 41
1
 50
0
  1
７
  0
TEXT
  8
_0-0_0
 62
    7
 10
1077.569744287196
 20
196.40469312249013
 40
9.5999999999999996
 41
1
 50
0
  1
１６
  0
TEXT
  8
_0-0_0
 62
    7
 10
723.95839428719603
 20
196.25474712249013
 40
9.5999999999999996
 41
1
 50
0
  1
ステンセットシルタップ
  0
TEXT
  8
_0-0_0
 62
    7
 10
1109.7737467871959
 20
196.2547126224901
 40
9.5999999999999996
 41
1
 50
0
  1
〃
  0
TEXT
  8
_0-0_0
 62
    7
 10
709.51886778719609
 20
178.3373851224901
 40
9.5999999999999996
 41
1
 50
0
  1
８
  0
TEXT
  8
_0-0_0
 62
    7
 10
723.95839428719603
 20
178.25474712249007
 40
9.5999999999999996
 41
1
 50
0
  1
ステンワッシャー
  0
TEXT
  8
_0-0_0
 62
    7
 10
1077.569744287196
 20
178.40474412249006
 40
9.5999999999999996
 41
1
 50
0
  1
１２
  0
TEXT
  8
_0-0_0
 62
    7
 10
894.95844528719601
 20
178.25474712249007
 40
9.5999999999999996
 41
1
 50
0
  1
１．５×１８×５．５穴
  0
TEXT
  8
_0-0_0
 62
    7
 10
1109.7737467871959
 20
178.25474712249007
 40
9.5999999999999996
 41
1
 50
0
  1
枚
  0
TEXT
  8
_0-0_0
 62
    7
 10
709.51886778719609
 20
160.3373851224901
 40
9.5999999999999996
 41
1
 50
0
  1
９
  0
TEXT
  8
_0-0_0
 62
    7
 10
1086.839036287196
 20
160.40474412249006
 40
9.5999999999999996
 41
1
 50
0
  1
２
  0
TEXT
  8
_0-0_0
 62
    7
 10
1109.7737467871959
 20
160.25474712249007
 40
9.5999999999999996
 41
1
 50
0
  1
本
  0
TEXT
  8
_0-0_0
 62
    7
 10
709.51886778719609
 20
142.3373851224901
 40
9.5999999999999996
 41
1
 50
0
  1
※
  0
TEXT
  8
_0-0_0
 62
    7
 10
894.95841078719604
 20
142.25473062249006
 40
9.5999999999999996
 41
1
 50
0
  1
外ジョイント材
  0
TEXT
  8
_0-0_0
 62
    7
 10
1086.839036287196
 20
142.4047276224901
 40
9.5999999999999996
 41
1
 50
0
  1
２
  0
TEXT
  8
_0-0_0
 62
    7
 10
1109.7737467871959
 20
142.25473062249006
 40
9.5999999999999996
 41
1
 50
0
  1
個
  0
TEXT
  8
_0-0_0
 62
    7
 10
709.51886778719609
 20
124.3373851224901
 40
9.5999999999999996
 41
1
 50
0
  1
※
  0
TEXT
  8
_0-0_0
 62
    7
 10
894.95841078719604
 20
124.25473062249006
 40
9.5999999999999996
 41
1
 50
0
  1
外ジョイント材
  0
TEXT
  8
_0-0_0
 62
    7
 10
1086.839036287196
 20
124.40471112249014
 40
9.5999999999999996
 41
1
 50
0
  1
１
  0
TEXT
  8
_0-0_0
 62
    7
 10
1109.7737467871959
 20
124.25473062249006
 40
9.5999999999999996
 41
1
 50
0
  1
〃
  0
TEXT
  8
_0-0_0
 62
    7
 10
709.51886778719609
 20
106.3373851224901
 40
9.5999999999999996
 41
1
 50
0
  1
※
  0
TEXT
  8
_0-0_0
 62
    7
 10
894.95844528719601
 20
106.25474712249007
 40
9.5999999999999996
 41
1
 50
0
  1
ｔ１．０×ｗ３０
  0
TEXT
  8
_0-0_0
 62
    7
 10
1026.5698027871961
 20
106.25476362249009
 40
9.5999999999999996
 41
1
 50
0
  1
６０００
  0
TEXT
  8
_0-0_0
 62
    7
 10
1086.839036287196
 20
106.4047276224901
 40
9.5999999999999996
 41
1
 50
0
  1
１
  0
TEXT
  8
_0-0_0
 62
    7
 10
1109.7737467871959
 20
106.25474712249007
 40
9.5999999999999996
 41
1
 50
0
  1
巻
  0
TEXT
  8
_0-0_0
 62
    7
 10
723.95839428719603
 20
106.25474712249007
 40
9.5999999999999996
 41
1
 50
0
  1
ブチルテープ
  0
TEXT
  8
_0-0_0
 62
    7
 10
709.51886778719609
 20
88.33740162249012
 40
9.5999999999999996
 41
1
 50
0
  1
※
  0
TEXT
  8
_0-0_0
 62
    7
 10
723.95839428719603
 20
88.254747122490073
 40
9.5999999999999996
 41
1
 50
0
  1
落下防止ワイヤー
  0
TEXT
  8
_0-0_0
 62
    7
 10
1086.839036287196
 20
88.4047276224901
 40
9.5999999999999996
 41
1
 50
0
  1
２
  0
TEXT
  8
_0-0_0
 62
    7
 10
1109.7737467871959
 20
88.254747122490073
 40
9.5999999999999996
 41
1
 50
0
  1
本
  0
TEXT
  8
_0-0_0
 62
    7
 10
723.95839428719603
 20
268.25473062249011
 40
9.5999999999999996
 41
1
 50
0
  1
ＳＳＨフレーム（Ｃ）
  0
TEXT
  8
_0-0_0
 62
    7
 10
723.95839428719603
 20
160.25474712249007
 40
9.5999999999999996
 41
1
 50
0
  1
ガスケットＳＨＦ
  0
TEXT
  8
_0-0_0
 62
    7
 10
698.75838378719595
 20
63.6547276224901
 40
9.5999999999999996
 41
1
 50
0
  1
注）　ガスケットＳＨＦはＳＳＨサイドプレート（Ｃ）Ｓにセット済み。
  0
TEXT
  8
_0-0_0
 62
    7
 10
723.95839428719603
 20
304.25473062249011
 40
9.5999999999999996
 41
1
 50
0
  1
ＳＳＨサイドプレート（Ｃ）Ｓ
  0
TEXT
  8
_0-0_0
 62
    7
 10
894.95841078719604
 20
250.25473062249011
 40
9.5999999999999996
 41
1
 50
0
  1
ＦＳ４００
  0
TEXT
  8
_0-0_0
 62
    7
 10
1026.5698027871961
 20
160.25474712249007
 40
9.5999999999999996
 41
1
 50
0
  1
３１００
  0
TEXT
  8
_0-0_0
 62
    7
 10
723.95839428719603
 20
286.25473062249011
 40
9.5999999999999996
 41
1
 50
0
  1
ＳＳＨセンタープレート（Ｃ）Ｓ
  0
TEXT
  8
_0-0_0
 62
    7
 10
1026.5698027871961
 20
268.25473062249011
 40
9.5999999999999996
 41
1
 50
0
  1
３０００
  0
TEXT
  8
_0-0_0
 62
    7
 10
819.97913672059599
 20
546.74749446985504
 40
7.5
 41
1
 50
0
  1
5
  0
TEXT
  8
_0-0_0
 62
    7
 10
911.28135987129599
 20
585.49290593875503
 40
7.5
 41
1
 50
0
  1
4
  0
TEXT
  8
_0-0_0
 62
    3
 10
845.47663569759607
 20
664.82762148875509
 40
12
 41
1
 50
0
  1
105
  0
TEXT
  8
_0-0_0
 62
    3
 10
957.97663569759607
 20
684.82762148875509
 40
12
 41
1
 50
0
  1
330
  0
TEXT
  8
_0-0_0
 62
    3
 10
957.97663569759607
 20
644.82762148875509
 40
12
 41
1
 50
0
  1
210
  0
TEXT
  8
_0-0_0
 62
    3
 10
957.97663569759607
 20
664.82762148875509
 40
12
 41
1
 50
0
  1
120
  0
TEXT
  8
_0-0_0
 62
    3
 10
1070.4766356975961
 20
664.82762148875509
 40
12
 41
1
 50
0
  1
105
  0
TEXT
  8
_0-0_0
 62
    3
 10
1117.3766356975959
 20
644.82762148875509
 40
12
 41
1
 50
0
  1
16
  0
TEXT
  8
_0-0_0
 62
    3
 10
1075.3766356975959
 20
484.82762148875509
 40
12
 41
1
 50
0
  1
30
  0
TEXT
  8
_0-0_0
 62
    3
 10
957.97663569759607
 20
484.82762148875509
 40
12
 41
1
 50
0
  1
200
  0
TEXT
  8
_0-0_0
 62
    3
 10
845.37663569759604
 20
484.82762148875509
 40
12
 41
1
 50
0
  1
30
  0
TEXT
  8
_0-0_0
 62
    3
 10
803.37663569759604
 20
644.82762148875509
 40
12
 41
1
 50
0
  1
16
  0
TEXT
  8
_0-0_0
 62
    3
 10
770.17663569759611
 20
605.07762148875509
 40
12
 41
1
 50
90
  1
19.7
  0
TEXT
  8
_0-0_0
 62
    3
 10
780.17663569759611
 20
624.87762148875504
 40
12
 41
1
 50
90
  1
10
  0
TEXT
  8
_0-0_0
 62
    3
 10
780.17663569759611
 20
590.12762148875504
 40
12
 41
1
 50
90
  1
9.7
  0
TEXT
  8
_0-0_0
 62
    7
 10
658.87520008990941
 20
642.67433285124685
 40
9.5999999999999996
 41
1
 50
0
  1
コーキング処理(別途工事)
  0
TEXT
  8
_0-0_0
 62
    7
 10
723.95839428719603
 20
142.25473062249006
 40
9.5999999999999996
 41
0.8333333333333333
 50
0
  1
サイドプレートジョイントカバー
  0
TEXT
  8
_0-0_0
 62
    7
 10
723.95839428719603
 20
124.25473062249006
 40
9.5999999999999996
 41
0.8333333333333333
 50
0
  1
センタープレートジョイントカバー
  0
TEXT
  8
_0-0_0
 62
    7
 10
780.77473155702717
 20
328.33813491184338
 40
9.5999999999999996
 41
1
 50
0
  1
部材名称
  0
TEXT
  8
_0-0_0
 62
    7
 10
936.03250050841075
 20
329.76908209111878
 40
9.5999999999999996
 41
1
 50
0
  1
規　格
  0
TEXT
  8
_0-0_0
 62
    7
 10
917.38057399235197
 20
649.18810315985013
 40
7.5
 41
1
 50
0
  1
9
  0
TEXT
  8
_0-0_0
 62
    7
 10
972.57779853472402
 20
629.27157884043754
 40
7.5
 41
1
 50
0
  1
2
  0
TEXT
  8
_0-0_0
 62
    7
 10
916.81153044036876
 20
628.13349173647111
 40
7.5
 41
1
 50
0
  1
3
  0
TEXT
  8
_0-0_0
 62
    7
 10
858.76908813808052
 20
649.18810315985013
 40
7.5
 41
1
 50
0
  1
1
  0
TEXT
  8
_0-0_0
 62
    7
 10
825.19551857107069
 20
643.49766764001788
 40
7.5
 41
1
 50
0
  1
7
  0
TEXT
  8
_0-0_0
 62
    7
 10
811.53847332347345
 20
570.09104943418288
 40
7.5
 41
1
 50
0
  1
6
  0
TEXT
  8
_0-0_0
 62
    7
 10
855.92387037816445
 20
580.90287692186394
 40
7.5
 41
1
 50
0
  1
8
  0
TEXT
  8
_0-0_0
 62
    2
 10
667.99307958477505
 20
766.67128027681656
 40
14
 41
1
 50
0
  1
◇外壁－外壁（２００ＳＳＨ－Ｓ）　Ｓ＝１／３
  0
TEXT
  8
_0-0_0
 62
    2
 10
648.80968858131484
 20
791.33564013840828
 40
14
 41
1
 50
0
  1
（ステンレス２００タイプ）
  0
LINE
  8
_0-0_0
  6
CONTINUOUS
 62
    7
 10
785.56473108529042
 20
640.36461068522613
 11
658.40138408304495
 21
640.36461068522613
  0
TEXT
  8
_0-0_0
 62
    7
 10
146.23199282900003
 20
141.40001199999995
 40
9.5999999999999996
 41
0.9375
 50
0
  1
サイドプレートジョイントカバー
  0
TEXT
  8
_0-0_0
 62
    7
 10
144.48627291339903
 20
123.56619293351378
 40
9.5999999999999996
 41
0.9375
 50
0
  1
センタープレートジョイントカバー
  0
ENDSEC
  0
EOF
