  0
SECTION
  2
HEADER
  9
$ACADVER
  1
AC1009
  9
$INSBASE
 10
0
 20
0
 30
0
  9
$EXTMIN
 10
0
 20
0
  9
$EXTMAX
 10
1188
 20
840
  9
$LIMMIN
 10
0
 20
0
  9
$LIMMAX
 10
1188
 20
840
  9
$LTSCALE
 40
2
  0
ENDSEC
  0
SECTION
  2
TABLES
  0
TABLE
  2
LTYPE
 70
     9
  0
LTYPE
  2
CONTINUOUS
 70
    64
  3
実線
 72
    65
 73
     0
 40
0.0
  0
LTYPE
  2
DASHED1
 70
    64
  3
--  --  --  --  --  --  --  --  
 72
    65
 73
     2
 40
2.5
 49
1.25
 49
-1.25
  0
LTYPE
  2
DASHED2
 70
    64
  3
----    ----    ----    ----    
 72
    65
 73
     2
 40
5.0
 49
2.5
 49
-2.5
  0
LTYPE
  2
DASHED3
 70
    64
  3
------  ------  ------  ------  
 72
    65
 73
     2
 40
5.0
 49
3.75
 49
-1.25
  0
LTYPE
  2
CENTER1
 70
    64
  3
----- - ----- - ----- - ----- - 
 72
    65
 73
     4
 40
10.0
 49
6.25
 49
-1.25
 49
1.25
 49
-1.25
  0
LTYPE
  2
CENTER2
 70
    64
  3
----------  --  ----------  --  
 72
    65
 73
     4
 40
20.0
 49
12.5
 49
-2.5
 49
2.5
 49
-2.5
  0
LTYPE
  2
PHANTOM1
 70
    64
  3
--- - - --- - - --- - - --- - - 
 72
    65
 73
     6
 40
10.0
 49
3.25
 49
-1.25
 49
1.25
 49
-1.25
 49
1.25
 49
-1.25
  0
LTYPE
  2
PHANTOM2
 70
    64
  3
--------  -  -  --------  -  -  
 72
    65
 73
     6
 40
20.0
 49
10.0
 49
-2.5
 49
1.25
 49
-2.5
 49
1.25
 49
-2.5
  0
LTYPE
  2
DOT
 70
    64
  3
-   -   -   -   -   -   -   -   
 72
    65
 73
     2
 40
2.5
 49
0.625
 49
-1.875
  0
LTYPE
  2
DUMMY
 70
    64
  3
ダミー
 72
    65
 73
     0
 40
0.0
  0
LTYPE
  2
RAND1
 70
    64
  3
ランダム線1
 72
    65
 73
     4
 40
10.0
 49
1.0
 49
-2.0
 49
3.0
 49
-4.0
  0
LTYPE
  2
RAND2
 70
    64
  3
ランダム線2
 72
    65
 73
     4
 40
14.0
 49
2.0
 49
-3.0
 49
4.0
 49
-5.0
  0
LTYPE
  2
RAND3
 70
    64
  3
ランダム線3
 72
    65
 73
     4
 40
18.0
 49
3.0
 49
-4.0
 49
5.0
 49
-6.0
  0
LTYPE
  2
RAND4
 70
    64
  3
ランダム線4
 72
    65
 73
     4
 40
22.0
 49
4.0
 49
-5.0
 49
6.0
 49
-7.0
  0
LTYPE
  2
RAND5
 70
    64
  3
ランダム線5
 72
    65
 73
     4
 40
26.0
 49
5.0
 49
-6.0
 49
7.0
 49
-8.0
  0
LTYPE
  2
LONG1
 70
    64
  3
----------  --  ----------  --  
 72
    65
 73
     4
 40
40.0
 49
32.5
 49
-2.5
 49
2.5
 49
-2.5
  0
LTYPE
  2
LONG2
 70
    64
  3
--------  -  -  --------  -  -  
 72
    65
 73
     6
 40
40.0
 49
30.0
 49
-2.5
 49
1.25
 49
-2.5
 49
1.25
 49
-2.5
  0
LTYPE
  2
LONG3
 70
    64
  3
+++++++++++++++..+++++++++++++++
 72
    65
 73
     2
 40
40.0
 49
37.5
 49
-2.5
  0
LTYPE
  2
LONG4
 70
    64
  3
+++++++++++++++..+++++++++++++++
 72
    65
 73
     2
 40
80.0
 49
75.0
 49
-5.0
  0
LTYPE
  2
LONG5
 70
    64
  3
----------  --  ----------  --  
 72
    65
 73
     4
 40
60.0
 49
37.5
 49
-7.5
 49
7.5
 49
-7.5
  0
LTYPE
  2
dashed
 70
   64
  3
-------   -------------   ------
 72
   65
 73
    2
 40
7.5
 49
6
 49
-1.5
  0
LTYPE
  2
dashed_spaced
 70
   64
  3
----        --------        ----
 72
   65
 73
    2
 40
12
 49
6
 49
-6
  0
LTYPE
  2
long_dashed_dotted
 70
   64
  3
------------- --- --------------
 72
   65
 73
    4
 40
15.25
 49
12
 49
-1.5
 49
0.25
 49
-1.5
  0
LTYPE
  2
long_dashed_double-dotted
 70
   64
  3
----------- --- --- ------------
 72
   65
 73
    6
 40
17
 49
12
 49
-1.5
 49
0.25
 49
-1.5
 49
0.25
 49
-1.5
  0
LTYPE
  2
long_dashed_triplicate-dotted
 70
   64
  3
--------- --- --- --- ----------
 72
   65
 73
    8
 40
18.75
 49
12
 49
-1.5
 49
0.25
 49
-1.5
 49
0.25
 49
-1.5
 49
0.25
 49
-1.5
  0
LTYPE
  2
dotted
 70
   64
  3
   -       -       -       -    
 72
   65
 73
    2
 40
1.75
 49
0.25
 49
-1.5
  0
LTYPE
  2
chain
 70
   64
  3
-------------- -- --------------
 72
   65
 73
    4
 40
18.5
 49
12
 49
-1.5
 49
3.5
 49
-1.5
  0
LTYPE
  2
chain_double_dash
 70
   64
  3
------------ -- -- -------------
 72
   65
 73
    6
 40
23.5
 49
12
 49
-1.5
 49
3.5
 49
-1.5
 49
3.5
 49
-1.5
  0
LTYPE
  2
dashed_dotted
 70
   64
  3
-----------     -     ----------
 72
   65
 73
    4
 40
9.25
 49
6
 49
-1.5
 49
0.25
 49
-1.5
  0
LTYPE
  2
double-dashed_dotted
 70
   64
  3
------   -----------   -   -----
 72
   65
 73
    6
 40
16.75
 49
6
 49
-1.5
 49
6
 49
-1.5
 49
0.25
 49
-1.5
  0
LTYPE
  2
dashed_double-dotted
 70
   64
  3
---------    -    -    ---------
 72
   65
 73
    6
 40
11
 49
6
 49
-1.5
 49
0.25
 49
-1.5
 49
0.25
 49
-1.5
  0
LTYPE
  2
double-dashed_double-dotted
 70
   64
  3
-----   ---------   -   -   ----
 72
   65
 73
    8
 40
18.5
 49
6
 49
-1.5
 49
6
 49
-1.5
 49
0.25
 49
-1.5
 49
0.25
 49
-1.5
  0
LTYPE
  2
dashed_triplicate-dotted
 70
   64
  3
-------    -    -    -    ------
 72
   65
 73
    8
 40
12.75
 49
6
 49
-1.5
 49
0.25
 49
-1.5
 49
0.25
 49
-1.5
 49
0.25
 49
-1.5
  0
LTYPE
  2
double-dashed_triplicate-dotted
 70
   64
  3
-----  ---------  -  -  -  -----
 72
   65
 73
   10
 40
20.25
 49
6
 49
-1.5
 49
6
 49
-1.5
 49
0.25
 49
-1.5
 49
0.25
 49
-1.5
 49
0.25
 49
-1.5
  0
LTYPE
  2
undefined
 70
   64
  3
--------------------------------
 72
   65
 73
    0
 40
0
  0
LTYPE
  2
DOT_17
 70
   64
  3
----        --------        ----
 72
   65
 73
    2
 40
2
 49
1
 49
-1
  0
LTYPE
  2
DASHED
 70
   64
  3
----        --------        ----
 72
   65
 73
    2
 40
4
 49
2
 49
-2
  0
LTYPE
  2
DASHED2_19
 70
   64
  3
-----      ----------      -----
 72
   65
 73
    2
 40
8
 49
5
 49
-3
  0
LTYPE
  2
CENTER
 70
   64
  3
--------------- - --------------
 72
   65
 73
    4
 40
23
 49
20
 49
-1
 49
1
 49
-1
  0
LTYPE
  2
CENTERX2
 70
   64
  3
--------------- - --------------
 72
   65
 73
    4
 40
43
 49
40
 49
-1
 49
1
 49
-1
  0
LTYPE
  2
CENTER2_22
 70
   64
  3
-------------  --  -------------
 72
   65
 73
    4
 40
13
 49
10
 49
-1
 49
1
 49
-1
  0
LTYPE
  2
PHANTOM
 70
   64
  3
-------------- - - -------------
 72
   65
 73
    6
 40
25
 49
20
 49
-1
 49
1
 49
-1
 49
1
 49
-1
  0
LTYPE
  2
PHANTOMX2
 70
   64
  3
-------------- - - -------------
 72
   65
 73
    6
 40
45
 49
40
 49
-1
 49
1
 49
-1
 49
1
 49
-1
  0
LTYPE
  2
PHANTOM2_25
 70
   64
  3
-----------  --  --  -----------
 72
   65
 73
    6
 40
15
 49
10
 49
-1
 49
1
 49
-1
 49
1
 49
-1
  0
LTYPE
  2
ACAD_ISO06W100
 70
   64
  3
------------- - - - ------------
 72
   65
 73
    8
 40
47
 49
40
 49
-1
 49
1
 49
-1
 49
1
 49
-1
 49
1
 49
-1
  0
LTYPE
  2
ACAD_ISO14W100
 70
   64
  3
------------- - - - ------------
 72
   65
 73
    8
 40
27
 49
20
 49
-1
 49
1
 49
-1
 49
1
 49
-1
 49
1
 49
-1
  0
LTYPE
  2
ACAD_ISO11W100
 70
   64
  3
------- -------------- - -------
 72
   65
 73
    6
 40
44
 49
20
 49
-1
 49
20
 49
-1
 49
1
 49
-1
  0
LTYPE
  2
ACAD_ISO13W100
 70
   64
  3
------- ------------- - - ------
 72
   65
 73
    8
 40
46
 49
20
 49
-1
 49
20
 49
-1
 49
1
 49
-1
 49
1
 49
-1
  0
LTYPE
  2
HIDDEN
 70
   64
  3
------     -----------     -----
 72
   65
 73
    2
 40
1.5
 49
1
 49
-0.5
  0
ENDTAB
  0
TABLE
  2
STYLE
  5
3
100
AcDbSymbolTable
 70
     1
  0
STYLE
  5
10
100
AcDbSymbolTableRecord
100
AcDbTextStyleTableRecord
  2
STANDARD
 70
     0
 40
0.0
 41
1.0
 50
0.0
 71
     0
 42
0.2
  3
txt
  4
bigfont.shx
  0
STYLE
  5
26
100
AcDbSymbolTableRecord
100
AcDbTextStyleTableRecord
  2
TATEGAKI
 70
    68
 40
0.0
 41
1.0
 50
0.0
 71
     0
 42
1.0
  3
txt
  4
bigfont.shx
  0
ENDTAB
  0
TABLE
  2
LAYER
 70
   12
  0
LAYER
  2
_0-0_0
 70
   64
 62
    7
  6
CONTINUOUS
  0
LAYER
  2
_0-1_図面枠
 70
   64
 62
    7
  6
CONTINUOUS
  0
LAYER
  2
_0-2_レイヤ1
 70
   64
 62
    7
  6
CONTINUOUS
  0
LAYER
  2
_0-3_レイヤ2
 70
   64
 62
    7
  6
CONTINUOUS
  0
LAYER
  2
_0-4_レイヤ3
 70
   64
 62
    7
  6
CONTINUOUS
  0
LAYER
  2
_0-5_レイヤ4
 70
   64
 62
    7
  6
CONTINUOUS
  0
LAYER
  2
_0-6_レイヤ5
 70
   64
 62
    7
  6
CONTINUOUS
  0
LAYER
  2
_0-7_レイヤ6
 70
   64
 62
    7
  6
CONTINUOUS
  0
LAYER
  2
_0-8_レイヤ7
 70
   64
 62
    7
  6
CONTINUOUS
  0
LAYER
  2
_0-9_レイヤ8
 70
   64
 62
    7
  6
CONTINUOUS
  0
LAYER
  2
_0-a_レイヤ9
 70
   64
 62
    7
  6
CONTINUOUS
  0
LAYER
  2
ADD_LINE
 70
   64
 62
    7
  6
CONTINUOUS
  0
ENDTAB
  0
ENDSEC
  0
SECTION
  2
BLOCKS
  0
ENDSEC
  0
SECTION
  2
ENTITIES
  0
LINE
  8
_0-8_レイヤ7
  6
CONTINUOUS
 62
    7
 10
775.54213363029999
 20
390.45957240039996
 11
794.4044736303
 21
394.8284354004
  0
LINE
  8
_0-8_レイヤ7
  6
CONTINUOUS
 62
    7
 10
794.33990063030001
 20
395.83943840040001
 11
775.31660163030006
 21
391.43329440039997
  0
LINE
  8
_0-8_レイヤ7
  6
CONTINUOUS
 62
    7
 10
794.4044736303
 20
394.0288354004
 11
799.40197363030006
 21
394.0288354004
  0
LINE
  8
_0-8_レイヤ7
  6
CONTINUOUS
 62
    7
 10
799.40197363030006
 20
394.0288354004
 11
799.40197363030006
 21
397.62703540039996
  0
LINE
  8
_0-8_レイヤ7
  6
CONTINUOUS
 62
    7
 10
799.40197363030006
 20
397.62703540039996
 11
794.4044736303
 21
397.62703540039996
  0
LINE
  8
_0-8_レイヤ7
  6
CONTINUOUS
 62
    7
 10
794.4044736303
 20
397.62703540039996
 11
794.4044736303
 21
394.0288354004
  0
LINE
  8
_0-8_レイヤ7
  6
CONTINUOUS
 62
    7
 10
775.29097263030008
 20
400.24822140039998
 11
794.4044736303
 21
396.84317140039997
  0
LINE
  8
_0-8_レイヤ7
  6
CONTINUOUS
 62
    7
 10
775.11567363029997
 20
399.26421340039997
 11
794.4044736303
 21
395.82793540040001
  0
LINE
  8
_0-8_レイヤ7
  6
CONTINUOUS
 62
    7
 10
889.35697363029999
 20
395.82793540040001
 11
799.40197363030006
 21
395.82793540040001
  0
ARC
  8
_0-8_レイヤ7
  6
CONTINUOUS
 62
    7
 10
801.42034863030005
 20
397.32718540039997
 40
1.49925
 50
270
 51
0
  0
LINE
  8
_0-8_レイヤ7
  6
CONTINUOUS
 62
    7
 10
889.35697363029999
 20
394.8284354004
 11
799.40197363030006
 21
394.8284354004
  0
LINE
  8
_0-8_レイヤ7
  6
CONTINUOUS
 62
    7
 10
799.40197363030006
 20
396.82743540039996
 11
801.42034863030005
 21
396.82743540039996
  0
ARC
  8
_0-8_レイヤ7
  6
CONTINUOUS
 62
    7
 10
801.42034863030005
 20
397.32718540039997
 40
0.49975
 50
270
 51
0
  0
LINE
  8
_0-8_レイヤ7
  6
CONTINUOUS
 62
    7
 10
801.9200986303
 20
397.62703540039996
 11
801.9200986303
 21
397.32718540039997
  0
LINE
  8
_0-8_レイヤ7
  6
CONTINUOUS
 62
    7
 10
801.9200986303
 20
397.62703540039996
 11
802.91959863030002
 21
397.62703540039996
  0
LINE
  8
_0-8_レイヤ7
  6
CONTINUOUS
 62
    7
 10
802.91959863030002
 20
397.62703540039996
 11
802.91959863030002
 21
397.32718540039997
  0
ARC
  8
_0-8_レイヤ7
  6
CONTINUOUS
 62
    7
 10
774.41447363029999
 20
395.3281854004
 40
3.9980000000000002
 50
79.898790000000005
 51
283.040795
  0
ARC
  8
_0-8_レイヤ7
  6
CONTINUOUS
 62
    7
 10
774.41447363029999
 20
395.3281854004
 40
4.9974999999999996
 50
79.898790000000005
 51
283.040795
  0
LINE
  8
_0-8_レイヤ7
  6
CONTINUOUS
 62
    7
 10
1013.1668146305
 20
390.45957240039996
 11
994.30447363050007
 21
394.8284354004
  0
LINE
  8
_0-8_レイヤ7
  6
CONTINUOUS
 62
    7
 10
994.36904663050007
 20
395.83943840040001
 11
1013.3923466305
 21
391.43329440039997
  0
LINE
  8
_0-8_レイヤ7
  6
CONTINUOUS
 62
    7
 10
994.30447363050007
 20
394.0288354004
 11
989.30697363030004
 21
394.0288354004
  0
LINE
  8
_0-8_レイヤ7
  6
CONTINUOUS
 62
    7
 10
989.30697363030004
 20
394.0288354004
 11
989.30697363030004
 21
397.62703540039996
  0
LINE
  8
_0-8_レイヤ7
  6
CONTINUOUS
 62
    7
 10
989.30697363030004
 20
397.62703540039996
 11
994.30447363050007
 21
397.62703540039996
  0
LINE
  8
_0-8_レイヤ7
  6
CONTINUOUS
 62
    7
 10
994.30447363050007
 20
397.62703540039996
 11
994.30447363050007
 21
394.0288354004
  0
LINE
  8
_0-8_レイヤ7
  6
CONTINUOUS
 62
    7
 10
1013.4179746305
 20
400.24822140039998
 11
994.30447363050007
 21
396.84317140039997
  0
LINE
  8
_0-8_レイヤ7
  6
CONTINUOUS
 62
    7
 10
1013.5932746305001
 20
399.26421340039997
 11
994.30447363050007
 21
395.82793540040001
  0
LINE
  8
_0-8_レイヤ7
  6
CONTINUOUS
 62
    7
 10
899.35197363029999
 20
395.82793540040001
 11
989.30697363030004
 21
395.82793540040001
  0
ARC
  8
_0-8_レイヤ7
  6
CONTINUOUS
 62
    7
 10
987.28859863030004
 20
397.32718540039997
 40
1.49925
 50
180
 51
270
  0
LINE
  8
_0-8_レイヤ7
  6
CONTINUOUS
 62
    7
 10
899.35197363029999
 20
394.8284354004
 11
989.30697363030004
 21
394.8284354004
  0
LINE
  8
_0-8_レイヤ7
  6
CONTINUOUS
 62
    7
 10
989.30697363030004
 20
396.82743540039996
 11
987.28859863030004
 21
396.82743540039996
  0
ARC
  8
_0-8_レイヤ7
  6
CONTINUOUS
 62
    7
 10
987.28859863030004
 20
397.32718540039997
 40
0.49975
 50
180
 51
270
  0
LINE
  8
_0-8_レイヤ7
  6
CONTINUOUS
 62
    7
 10
986.78884863029998
 20
397.62703540039996
 11
986.78884863029998
 21
397.32718540039997
  0
LINE
  8
_0-8_レイヤ7
  6
CONTINUOUS
 62
    7
 10
986.78884863029998
 20
397.62703540039996
 11
985.78934863029997
 21
397.62703540039996
  0
LINE
  8
_0-8_レイヤ7
  6
CONTINUOUS
 62
    7
 10
985.78934863029997
 20
397.62703540039996
 11
985.78934863029997
 21
397.32718540039997
  0
ARC
  8
_0-8_レイヤ7
  6
CONTINUOUS
 62
    7
 10
1014.2944736305
 20
395.3281854004
 40
3.9980000000000002
 50
256.959205
 51
110.010381
  0
ARC
  8
_0-8_レイヤ7
  6
CONTINUOUS
 62
    7
 10
1014.2944736305
 20
395.3281854004
 40
4.9974999999999996
 50
256.959205
 51
108.02159899999999
  0
TEXT
  8
_0-8_レイヤ7
 62
    7
 10
765.84077563030007
 20
413.2396824004
 40
9
 41
1
 50
0
  1
（落下防止ワイヤー）
  0
LINE
  8
_0-9_レイヤ8
  6
CONTINUOUS
 62
    7
 10
1135.8686178725002
 20
317.80000000000001
 11
709.41861787250002
 21
317.80000000000001
  0
LINE
  8
_0-9_レイヤ8
  6
CONTINUOUS
 62
    7
 10
1135.8686178725002
 20
299.80000000000001
 11
709.41861787250002
 21
299.80000000000001
  0
LINE
  8
_0-9_レイヤ8
  6
CONTINUOUS
 62
    7
 10
1135.8686178725002
 20
281.80000000000001
 11
709.41861787250002
 21
281.80000000000001
  0
LINE
  8
_0-9_レイヤ8
  6
CONTINUOUS
 62
    7
 10
1135.8686178725002
 20
263.80000000000001
 11
709.41861787250002
 21
263.80000000000001
  0
LINE
  8
_0-9_レイヤ8
  6
CONTINUOUS
 62
    7
 10
1135.8686178725002
 20
245.79999999999998
 11
709.41861787250002
 21
245.79999999999998
  0
LINE
  8
_0-9_レイヤ8
  6
CONTINUOUS
 62
    7
 10
1135.8686178725002
 20
227.79999999999998
 11
709.41861787250002
 21
227.79999999999998
  0
LINE
  8
_0-9_レイヤ8
  6
CONTINUOUS
 62
    7
 10
1135.8686178725002
 20
209.79999999999998
 11
709.41861787250002
 21
209.79999999999998
  0
LINE
  8
_0-9_レイヤ8
  6
CONTINUOUS
 62
    7
 10
1135.8686178725002
 20
191.79999999999998
 11
709.41861787250002
 21
191.79999999999998
  0
LINE
  8
_0-9_レイヤ8
  6
CONTINUOUS
 62
    7
 10
1135.8686178725002
 20
173.79999999999998
 11
709.41861787250002
 21
173.79999999999998
  0
LINE
  8
_0-9_レイヤ8
  6
CONTINUOUS
 62
    7
 10
1135.8686178725002
 20
155.79999999999995
 11
709.41861787250002
 21
155.79999999999995
  0
LINE
  8
_0-9_レイヤ8
  6
CONTINUOUS
 62
    7
 10
1135.8686178725002
 20
119.79999999999995
 11
709.41861787250002
 21
119.79999999999995
  0
LINE
  8
_0-9_レイヤ8
  6
CONTINUOUS
 62
    7
 10
1135.8686178725002
 20
350.19999999999999
 11
709.41861787250002
 21
350.19999999999999
  0
LINE
  8
_0-9_レイヤ8
  6
CONTINUOUS
 62
    7
 10
1135.8686178725002
 20
83.799999999999955
 11
709.41861787250002
 21
83.799999999999955
  0
LINE
  8
_0-9_レイヤ8
  6
CONTINUOUS
 62
    7
 10
1135.8686178725002
 20
65.799999999999955
 11
709.41861787250002
 21
65.799999999999955
  0
LINE
  8
_0-9_レイヤ8
  6
CONTINUOUS
 62
    7
 10
1135.8686178725002
 20
137.79999999999995
 11
709.41861787250002
 21
137.79999999999995
  0
LINE
  8
_0-9_レイヤ8
  6
CONTINUOUS
 62
    7
 10
1135.8686178725002
 20
101.79999999999995
 11
709.41861787250002
 21
101.79999999999995
  0
TEXT
  8
_0-9_レイヤ8
 62
    7
 10
792.83955187250001
 20
335.80006600000002
 40
9.5999999999999996
 41
1
 50
0
  1
部材名称
  0
TEXT
  8
_0-9_レイヤ8
 62
    7
 10
1086.0723078725
 20
335.80003149999999
 40
9.5999999999999996
 41
1
 50
0
  1
使用
  0
TEXT
  8
_0-9_レイヤ8
 62
    7
 10
1124.3032293725
 20
346.60006599999997
 40
9.5999999999999996
 41
1
 50
-90
  1
単位
  0
TEXT
  8
_0-9_レイヤ8
 62
    7
 10
947.56266187250003
 20
335.80006600000002
 40
9.5999999999999996
 41
1
 50
0
  1
規　格
  0
TEXT
  8
_0-9_レイヤ8
 62
    7
 10
1040.9375928724999
 20
335.80006600000002
 40
9.5999999999999996
 41
1
 50
0
  1
定　尺
  0
TEXT
  8
_0-9_レイヤ8
 62
    7
 10
1034.4490878725001
 20
321.40004499999998
 40
9.5999999999999996
 41
1
 50
0
  1
（ｍｍ）
  0
TEXT
  8
_0-9_レイヤ8
 62
    7
 10
1086.0723078725
 20
321.400012
 40
9.5999999999999996
 41
1
 50
0
  1
数量
  0
TEXT
  8
_0-9_レイヤ8
 62
    7
 10
710.90976937250002
 20
303.48264849999998
 40
9.5999999999999996
 41
1
 50
0
  1
　１
  0
TEXT
  8
_0-9_レイヤ8
 62
    7
 10
1037.2298763724998
 20
303.400012
 40
9.5999999999999996
 41
1
 50
0
  1
３０００
  0
TEXT
  8
_0-9_レイヤ8
 62
    7
 10
1098.9993288725
 20
303.54997449999996
 40
9.5999999999999996
 41
1
 50
0
  1
１
  0
TEXT
  8
_0-9_レイヤ8
 62
    7
 10
1120.4339238725001
 20
303.400012
 40
9.5999999999999996
 41
1
 50
0
  1
本
  0
TEXT
  8
_0-9_レイヤ8
 62
    7
 10
720.17906137249997
 20
285.48264849999998
 40
9.5999999999999996
 41
1
 50
0
  1
２
  0
TEXT
  8
_0-9_レイヤ8
 62
    7
 10
1037.2298763724998
 20
285.400012
 40
9.5999999999999996
 41
1
 50
0
  1
３０００
  0
TEXT
  8
_0-9_レイヤ8
 62
    7
 10
1098.9993288725
 20
285.55000899999999
 40
9.5999999999999996
 41
1
 50
0
  1
１
  0
TEXT
  8
_0-9_レイヤ8
 62
    7
 10
1120.4339238725001
 20
285.400012
 40
9.5999999999999996
 41
1
 50
0
  1
〃
  0
TEXT
  8
_0-9_レイヤ8
 62
    7
 10
720.17906137249997
 20
267.48264849999998
 40
9.5999999999999996
 41
1
 50
0
  1
３
  0
TEXT
  8
_0-9_レイヤ8
 62
    7
 10
1037.2298763724998
 20
267.400012
 40
9.5999999999999996
 41
1
 50
0
  1
３０００
  0
TEXT
  8
_0-9_レイヤ8
 62
    7
 10
1098.9993288725
 20
267.54997449999996
 40
9.5999999999999996
 41
1
 50
0
  1
１
  0
TEXT
  8
_0-9_レイヤ8
 62
    7
 10
1120.4339238725001
 20
267.400012
 40
9.5999999999999996
 41
1
 50
0
  1
〃
  0
TEXT
  8
_0-9_レイヤ8
 62
    7
 10
720.17906137249997
 20
249.48264849999998
 40
9.5999999999999996
 41
1
 50
0
  1
４
  0
TEXT
  8
_0-9_レイヤ8
 62
    7
 10
734.61865687249997
 20
249.400012
 40
9.5999999999999996
 41
1
 50
0
  1
ＳＣＨ壁フレーム
  0
TEXT
  8
_0-9_レイヤ8
 62
    7
 10
1037.2298763724998
 20
249.400012
 40
9.5999999999999996
 41
1
 50
0
  1
３０００
  0
TEXT
  8
_0-9_レイヤ8
 62
    7
 10
1098.9993288725
 20
249.55000899999999
 40
9.5999999999999996
 41
1
 50
0
  1
１
  0
TEXT
  8
_0-9_レイヤ8
 62
    7
 10
1120.4339238725001
 20
249.400012
 40
9.5999999999999996
 41
1
 50
0
  1
〃
  0
TEXT
  8
_0-9_レイヤ8
 62
    7
 10
720.17906137249997
 20
231.48268299999998
 40
9.5999999999999996
 41
1
 50
0
  1
５
  0
TEXT
  8
_0-9_レイヤ8
 62
    7
 10
720.17906137249997
 20
213.48268299999998
 40
9.5999999999999996
 41
1
 50
0
  1
６
  0
TEXT
  8
_0-9_レイヤ8
 62
    7
 10
720.17906137249997
 20
195.48268299999998
 40
9.5999999999999996
 41
1
 50
0
  1
７
  0
TEXT
  8
_0-9_レイヤ8
 62
    7
 10
720.17906137249997
 20
177.48266649999999
 40
9.5999999999999996
 41
1
 50
0
  1
８
  0
TEXT
  8
_0-9_レイヤ8
 62
    7
 10
720.17906137249997
 20
159.48266649999999
 40
9.5999999999999996
 41
1
 50
0
  1
９
  0
TEXT
  8
_0-9_レイヤ8
 62
    7
 10
710.90976937250002
 20
141.48266649999999
 40
9.5999999999999996
 41
1
 50
0
  1
１０
  0
TEXT
  8
_0-9_レイヤ8
 62
    7
 10
734.61865687249997
 20
267.400012
 40
9.5999999999999996
 41
1
 50
0
  1
ＳＳＨフレーム（Ｃ）
  0
TEXT
  8
_0-9_レイヤ8
 62
    7
 10
734.61865687249997
 20
285.400012
 40
9.5999999999999996
 41
1
 50
0
  1
ＳＣＨセンタープレート（Ｄ）Ｓ
  0
TEXT
  8
_0-9_レイヤ8
 62
    7
 10
734.61865687249997
 20
303.400012
 40
9.5999999999999996
 41
1
 50
0
  1
ＳＳＨサイドプレート（Ｃ）Ｓ
  0
TEXT
  8
_0-9_レイヤ8
 62
    7
 10
720.17906137249997
 20
123.48266649999999
 40
9.5999999999999996
 41
1
 50
0
  1
※
  0
TEXT
  8
_0-9_レイヤ8
 62
    7
 10
720.17906137249997
 20
105.48266649999999
 40
9.5999999999999996
 41
1
 50
0
  1
※
  0
TEXT
  8
_0-9_レイヤ8
 62
    7
 10
720.17906137249997
 20
87.482675499999971
 40
9.5999999999999996
 41
1
 50
0
  1
※
  0
TEXT
  8
_0-9_レイヤ8
 62
    7
 10
720.17906137249997
 20
69.482675499999971
 40
9.5999999999999996
 41
1
 50
0
  1
※
  0
TEXT
  8
_0-9_レイヤ8
 62
    7
 10
734.61865687249997
 20
231.40002849999999
 40
9.5999999999999996
 41
1
 50
0
  1
止水補助板
  0
TEXT
  8
_0-9_レイヤ8
 62
    7
 10
1037.2298763724998
 20
231.40002849999999
 40
9.5999999999999996
 41
1
 50
0
  1
３１００
  0
TEXT
  8
_0-9_レイヤ8
 62
    7
 10
1098.9993288725
 20
231.55000899999999
 40
9.5999999999999996
 41
1
 50
0
  1
１
  0
TEXT
  8
_0-9_レイヤ8
 62
    7
 10
1120.4339238725001
 20
231.40002849999999
 40
9.5999999999999996
 41
1
 50
0
  1
枚
  0
TEXT
  8
_0-9_レイヤ8
 62
    7
 10
734.61865687249997
 20
213.40002849999999
 40
9.5999999999999996
 41
1
 50
0
  1
アンカープラグ
  0
TEXT
  8
_0-9_レイヤ8
 62
    7
 10
1089.7300368725
 20
213.5499925
 40
9.5999999999999996
 41
1
 50
0
  1
１２
  0
TEXT
  8
_0-9_レイヤ8
 62
    7
 10
905.61865687249997
 20
213.40002849999999
 40
9.5999999999999996
 41
1
 50
0
  1
フィッシャープラグＳ８
  0
TEXT
  8
_0-9_レイヤ8
 62
    7
 10
1120.4339238725001
 20
213.40001199999998
 40
9.5999999999999996
 41
1
 50
0
  1
本
  0
TEXT
  8
_0-9_レイヤ8
 62
    7
 10
734.61865687249997
 20
195.40001199999998
 40
9.5999999999999996
 41
1
 50
0
  1
ステンタッピンねじ
  0
TEXT
  8
_0-9_レイヤ8
 62
    7
 10
1089.7300368725
 20
195.55000899999999
 40
9.5999999999999996
 41
1
 50
0
  1
１２
  0
TEXT
  8
_0-9_レイヤ8
 62
    7
 10
1120.4339238725001
 20
195.40001199999998
 40
9.5999999999999996
 41
1
 50
0
  1
〃
  0
TEXT
  8
_0-9_レイヤ8
 62
    7
 10
905.61851887249998
 20
195.40001199999998
 40
9.5999999999999996
 41
1
 50
0
  1
なべ５×５０
  0
TEXT
  8
_0-9_レイヤ8
 62
    7
 10
905.61851887249998
 20
177.40001199999998
 40
9.5999999999999996
 41
1
 50
0
  1
４×１３
  0
TEXT
  8
_0-9_レイヤ8
 62
    7
 10
1089.7300368725
 20
177.55000899999999
 40
9.5999999999999996
 41
1
 50
0
  1
１６
  0
TEXT
  8
_0-9_レイヤ8
 62
    7
 10
1120.4339238725001
 20
177.40001199999998
 40
9.5999999999999996
 41
1
 50
0
  1
〃
  0
TEXT
  8
_0-9_レイヤ8
 62
    7
 10
1089.7300368725
 20
159.54999250000003
 40
9.5999999999999996
 41
1
 50
0
  1
１２
  0
TEXT
  8
_0-9_レイヤ8
 62
    7
 10
905.61851887249998
 20
159.40001199999995
 40
9.5999999999999996
 41
1
 50
0
  1
１．５×１８×５．５穴
  0
TEXT
  8
_0-9_レイヤ8
 62
    7
 10
1120.4339238725001
 20
159.40001199999995
 40
9.5999999999999996
 41
1
 50
0
  1
枚
  0
TEXT
  8
_0-9_レイヤ8
 62
    7
 10
1120.4339238725001
 20
141.40002849999996
 40
9.5999999999999996
 41
1
 50
0
  1
本
  0
TEXT
  8
_0-9_レイヤ8
 62
    7
 10
905.61851887249998
 20
123.40001199999995
 40
9.5999999999999996
 41
1
 50
0
  1
外ジョイント材
  0
TEXT
  8
_0-9_レイヤ8
 62
    7
 10
1098.9993288725
 20
123.55000899999999
 40
9.5999999999999996
 41
1
 50
0
  1
１
  0
TEXT
  8
_0-9_レイヤ8
 62
    7
 10
1120.4339238725001
 20
123.40001199999995
 40
9.5999999999999996
 41
1
 50
0
  1
個
  0
TEXT
  8
_0-9_レイヤ8
 62
    7
 10
905.61851887249998
 20
105.400012
 40
9.5999999999999996
 41
1
 50
0
  1
外ジョイント材
  0
TEXT
  8
_0-9_レイヤ8
 62
    7
 10
1098.9993288725
 20
105.55000899999999
 40
9.5999999999999996
 41
1
 50
0
  1
１
  0
TEXT
  8
_0-9_レイヤ8
 62
    7
 10
1120.4339238725001
 20
105.400012
 40
9.5999999999999996
 41
1
 50
0
  1
〃
  0
TEXT
  8
_0-9_レイヤ8
 62
    7
 10
905.61851887249998
 20
87.400028499999962
 40
9.5999999999999996
 41
1
 50
0
  1
ｔ１．０×ｗ３０
  0
TEXT
  8
_0-9_レイヤ8
 62
    7
 10
1037.2298763724998
 20
87.400028499999962
 40
9.5999999999999996
 41
1
 50
0
  1
６０００
  0
TEXT
  8
_0-9_レイヤ8
 62
    7
 10
1098.9993288725
 20
87.550008999999989
 40
9.5999999999999996
 41
1
 50
0
  1
１
  0
TEXT
  8
_0-9_レイヤ8
 62
    7
 10
1120.4339238725001
 20
87.400028499999962
 40
9.5999999999999996
 41
1
 50
0
  1
巻
  0
TEXT
  8
_0-9_レイヤ8
 62
    7
 10
734.61865687249997
 20
87.400028499999962
 40
9.5999999999999996
 41
1
 50
0
  1
ブチルテープ
  0
TEXT
  8
_0-9_レイヤ8
 62
    7
 10
734.61865687249997
 20
69.400019499999985
 40
9.5999999999999996
 41
1
 50
0
  1
落下防止ワイヤー
  0
TEXT
  8
_0-9_レイヤ8
 62
    7
 10
1098.9993288725
 20
69.550008999999989
 40
9.5999999999999996
 41
1
 50
0
  1
２
  0
TEXT
  8
_0-9_レイヤ8
 62
    7
 10
1120.4339238725001
 20
69.400019499999985
 40
9.5999999999999996
 41
1
 50
0
  1
本
  0
TEXT
  8
_0-9_レイヤ8
 62
    7
 10
734.61858787250003
 20
141.40002849999996
 40
9.5999999999999996
 41
1
 50
0
  1
ガスケットＳＨＦ
  0
TEXT
  8
_0-9_レイヤ8
 62
    7
 10
905.61851887249998
 20
231.40002849999999
 40
9.5999999999999996
 41
1
 50
0
  1
ＦＳ４００
  0
LINE
  8
_0-9_レイヤ8
  6
CONTINUOUS
 62
    7
 10
709.41861787250002
 20
65.799999999999955
 11
709.41861787250002
 21
350.19999999999999
  0
LINE
  8
_0-9_レイヤ8
  6
CONTINUOUS
 62
    7
 10
731.01861787250004
 20
65.799999999999955
 11
731.01861787250004
 21
350.19999999999999
  0
LINE
  8
_0-9_レイヤ8
  6
CONTINUOUS
 62
    7
 10
902.01861787250004
 20
65.799999999999955
 11
902.01861787250004
 21
350.19999999999999
  0
LINE
  8
_0-9_レイヤ8
  6
CONTINUOUS
 62
    7
 10
1030.2686178724998
 20
65.799999999999955
 11
1030.2686178724998
 21
350.19999999999999
  0
LINE
  8
_0-9_レイヤ8
  6
CONTINUOUS
 62
    7
 10
1135.8686178725002
 20
65.799999999999955
 11
1135.8686178725002
 21
350.19999999999999
  0
LINE
  8
_0-9_レイヤ8
  6
CONTINUOUS
 62
    7
 10
1114.2686178724998
 20
65.799999999999955
 11
1114.2686178724998
 21
350.19999999999999
  0
LINE
  8
_0-9_レイヤ8
  6
CONTINUOUS
 62
    7
 10
1078.2686178724998
 20
65.799999999999955
 11
1078.2686178724998
 21
350.19999999999999
  0
LINE
  8
_0-9_レイヤ8
  6
CONTINUOUS
 62
    7
 10
1033.2686178724998
 20
65.799999999999955
 11
1033.2686178724998
 21
350.19999999999999
  0
TEXT
  8
_0-9_レイヤ8
 62
    7
 10
1098.9993288725
 20
141.55000899999999
 40
9.5999999999999996
 41
1
 50
0
  1
１
  0
TEXT
  8
_0-9_レイヤ8
 62
    7
 10
1037.2300143725001
 20
141.40002849999996
 40
9.5999999999999996
 41
1
 50
0
  1
３１００
  0
TEXT
  8
_0-9_レイヤ8
 62
    7
 10
709.41862987249999
 20
44.800008999999989
 40
9.5999999999999996
 41
1
 50
0
  1
注）　ガスケットＳＨＦはＳＳＨサイドプレート（Ｃ）Ｓ にセット済み。
  0
TEXT
  8
_0-9_レイヤ8
 62
    7
 10
733.3347844456448
 20
160.50958643299123
 40
9.5999999999999996
 41
1
 50
0
  1
ステンセットシルタップ
  0
TEXT
  8
_0-9_レイヤ8
 62
    7
 10
734.34075825075001
 20
179.62308872999154
 40
9.5999999999999996
 41
1
 50
0
  1
ステンワッシャー
  0
LINE
  8
_0-1_図面枠
  6
CONTINUOUS
 62
    7
 10
19.418617872500022
 20
20.199999999999989
 11
1175.5164041705796
 21
20.199999999999989
  0
LINE
  8
_0-1_図面枠
  6
CONTINUOUS
 62
    7
 10
19.418617872500022
 20
825.55543206998436
 11
19.418617872500022
 21
20.199999999999989
  0
LINE
  8
_0-1_図面枠
  6
CONTINUOUS
 62
    7
 10
619.41861787250002
 20
825.55543206998436
 11
619.41861787250002
 21
20.199999999999989
  0
LINE
  8
_0-2_レイヤ1
  6
HIDDEN
 62
    3
 10
791.91250883300006
 20
603.40295891568439
 11
791.91250883300006
 21
503.40295891568434
  0
LINE
  8
_0-2_レイヤ1
  6
CONTINUOUS
 62
    3
 10
791.91250883300006
 20
603.40295891568439
 11
861.91250883300006
 21
603.40295891568439
  0
LINE
  8
_0-2_レイヤ1
  6
CONTINUOUS
 62
    3
 10
861.91250883300006
 20
503.40295891568434
 11
861.91250883300006
 21
603.40295891568439
  0
LINE
  8
_0-2_レイヤ1
  6
HIDDEN
 62
    3
 10
791.91250883300006
 20
503.40295891568434
 11
861.91250883300006
 21
503.40295891568434
  0
LINE
  8
_0-2_レイヤ1
  6
HIDDEN
 62
    3
 10
1116.9125088334999
 20
678.40295891568439
 11
1116.9125088334999
 21
503.40295891568434
  0
LINE
  8
_0-2_レイヤ1
  6
HIDDEN
 62
    3
 10
1116.9125088334999
 20
503.40295891568434
 11
1061.9125088334999
 21
503.40295891568434
  0
LINE
  8
_0-2_レイヤ1
  6
HIDDEN
 62
    3
 10
1061.9125088334999
 20
678.40295891568439
 11
1116.9125088334999
 21
678.40295891568439
  0
LINE
  8
_0-2_レイヤ1
  6
CONTINUOUS
 62
    3
 10
1061.9125088334999
 20
678.40295891568439
 11
1061.9125088334999
 21
503.40295891568434
  0
ARC
  8
_0-3_レイヤ2
  6
CONTINUOUS
 62
    3
 10
961.91250883300006
 20
557.43596750468441
 40
37.5
 50
225
 51
315
  0
ARC
  8
_0-3_レイヤ2
  6
CONTINUOUS
 62
    3
 10
961.91250883300006
 20
556.43596750468441
 40
37.5
 50
225
 51
315
  0
LINE
  8
_0-3_レイヤ2
  6
CONTINUOUS
 62
    3
 10
806.91250883300006
 20
604.40295891568439
 11
806.91250883300006
 21
603.40295891568439
  0
LINE
  8
_0-3_レイヤ2
  6
CONTINUOUS
 62
    3
 10
1060.9125088334999
 20
658.40295891568439
 11
1061.9121688334999
 21
658.40295891568439
  0
LINE
  8
_0-3_レイヤ2
  6
CONTINUOUS
 62
    3
 10
1061.9125088334999
 20
658.40295891568439
 11
1061.9125088334999
 21
604.40295891568439
  0
LINE
  8
_0-3_レイヤ2
  6
CONTINUOUS
 62
    3
 10
806.91250883300006
 20
603.40295891568439
 11
861.91250883300006
 21
603.40295891568439
  0
LINE
  8
_0-3_レイヤ2
  6
CONTINUOUS
 62
    3
 10
806.91250883300006
 20
604.40295891568439
 11
861.91250883300006
 21
604.40295891568439
  0
LINE
  8
_0-3_レイヤ2
  6
CONTINUOUS
 62
    3
 10
1060.9125088334999
 20
658.40295891568439
 11
1060.9125088334999
 21
603.40295891568439
  0
LINE
  8
_0-3_レイヤ2
  6
CONTINUOUS
 62
    3
 10
861.91250883300006
 20
604.40295891568439
 11
935.39600453850005
 21
530.9194632101844
  0
LINE
  8
_0-3_レイヤ2
  6
CONTINUOUS
 62
    3
 10
861.91250883300006
 20
603.40295891568439
 11
935.39600453850005
 21
529.9194632101844
  0
LINE
  8
_0-3_レイヤ2
  6
CONTINUOUS
 62
    3
 10
1061.9125088334999
 20
603.40295891568439
 11
988.42901312750007
 21
529.9194632101844
  0
LINE
  8
_0-3_レイヤ2
  6
CONTINUOUS
 62
    3
 10
1060.9125088334999
 20
603.40295891568439
 11
988.42901312750007
 21
530.9194632101844
  0
LINE
  8
_0-5_レイヤ4
  6
CONTINUOUS
 62
    3
 10
1043.4125088334999
 20
668.20295891568435
 11
1043.4125088334999
 21
667.40295891568439
  0
LINE
  8
_0-5_レイヤ4
  6
CONTINUOUS
 62
    3
 10
1046.6125088335002
 20
668.40295891568439
 11
1043.6125088335002
 21
668.40295891568439
  0
ARC
  8
_0-5_レイヤ4
  6
CONTINUOUS
 62
    3
 10
1043.6125088335002
 20
668.20295891568435
 40
0.2
 50
90
 51
180
  0
LINE
  8
_0-5_レイヤ4
  6
CONTINUOUS
 62
    3
 10
855.65657283300004
 20
611.2892077828842
 11
864.47854083300001
 21
615.4029587828843
  0
LINE
  8
_0-5_レイヤ4
  6
CONTINUOUS
 62
    3
 10
855.149430833
 20
612.37677778288435
 11
864.21250883300002
 21
616.60295978288423
  0
LINE
  8
_0-5_レイヤ4
  6
CONTINUOUS
 62
    3
 10
855.149430833
 20
612.37677778288435
 11
855.65657283300004
 21
611.2892077828842
  0
LINE
  8
_0-5_レイヤ4
  6
CONTINUOUS
 62
    3
 10
1041.7125088465
 20
616.60295822418425
 11
864.21250883300002
 21
616.60296020748433
  0
LINE
  8
_0-5_レイヤ4
  6
CONTINUOUS
 62
    3
 10
864.47854083300001
 20
615.4029587828843
 11
1041.7125088335001
 21
615.4029587828843
  0
ARC
  8
_0-5_レイヤ4
  6
CONTINUOUS
 62
    3
 10
1043.9125088334999
 20
667.90295891568439
 40
1.7
 50
90
 51
180
  0
ARC
  8
_0-5_レイヤ4
  6
CONTINUOUS
 62
    3
 10
1050.5125088334999
 20
667.90295891568439
 40
1.7
 50
0
 51
90
  0
ARC
  8
_0-5_レイヤ4
  6
CONTINUOUS
 62
    3
 10
1050.5125088334999
 20
667.90295891568439
 40
0.5
 50
0
 51
90
  0
LINE
  8
_0-5_レイヤ4
  6
CONTINUOUS
 62
    3
 10
1051.0125088334999
 20
667.90295891568439
 11
1051.0125088334999
 21
659.60295891568421
  0
LINE
  8
_0-5_レイヤ4
  6
CONTINUOUS
 62
    3
 10
1050.5125088334999
 20
668.40295891568439
 11
1043.9125088334999
 21
668.40295891568439
  0
LINE
  8
_0-5_レイヤ4
  6
CONTINUOUS
 62
    3
 10
1051.0125088334999
 20
659.60295891568421
 11
1052.2125088335001
 21
659.60295891568421
  0
LINE
  8
_0-5_レイヤ4
  6
CONTINUOUS
 62
    3
 10
1052.2125088335001
 20
659.60295891568421
 11
1052.2125088335001
 21
667.90295891568439
  0
LINE
  8
_0-5_レイヤ4
  6
CONTINUOUS
 62
    3
 10
1043.9125088334999
 20
669.60295891568421
 11
1050.5125088334999
 21
669.60295891568421
  0
LINE
  8
_0-5_レイヤ4
  6
CONTINUOUS
 62
    3
 10
1042.2125088335001
 20
667.90295891568439
 11
1042.2125088335001
 21
617.10295878288434
  0
ARC
  8
_0-5_レイヤ4
  6
CONTINUOUS
 62
    3
 10
1041.7125088335001
 20
617.10295878288434
 40
0.5
 50
270
 51
0
  0
LINE
  8
_0-5_レイヤ4
  6
CONTINUOUS
 62
    3
 10
1043.4125088334999
 20
617.10295878288434
 11
1043.4125088334999
 21
667.90295891568439
  0
ARC
  8
_0-5_レイヤ4
  6
CONTINUOUS
 62
    3
 10
1041.7125088335001
 20
617.10295878288434
 40
1.7
 50
270
 51
0
  0
ARC
  8
_0-4_レイヤ3
  6
CONTINUOUS
 62
    3
 10
806.41250883300006
 20
619.90295891568439
 40
0.5
 50
0
 51
90
  0
LINE
  8
_0-4_レイヤ3
  6
CONTINUOUS
 62
    3
 10
799.16250883300006
 20
620.40295891568439
 11
806.41250883300006
 21
620.40295891568439
  0
LINE
  8
_0-4_レイヤ3
  6
CONTINUOUS
 62
    3
 10
806.91250883300006
 20
619.90295891568439
 11
806.91250883300006
 21
604.40295891568439
  0
ARC
  8
_0-4_レイヤ3
  6
CONTINUOUS
 62
    3
 10
817.91250883300006
 20
620.90295891568439
 40
1
 50
270
 51
0
  0
ARC
  8
_0-4_レイヤ3
  6
CONTINUOUS
 62
    3
 10
809.21250883300002
 20
619.40295891568439
 40
0.5
 50
90
 51
180
  0
LINE
  8
_0-4_レイヤ3
  6
CONTINUOUS
 62
    3
 10
808.71250883300002
 20
619.40295891568439
 11
808.71250883300002
 21
606.90295891568439
  0
ARC
  8
_0-4_レイヤ3
  6
CONTINUOUS
 62
    3
 10
809.21250883300002
 20
606.90295891568439
 40
0.5
 50
180
 51
270
  0
LINE
  8
_0-4_レイヤ3
  6
CONTINUOUS
 62
    3
 10
831.61250883299999
 20
606.40295891568439
 11
809.21250883300002
 21
606.40295891568439
  0
LINE
  8
_0-4_レイヤ3
  6
CONTINUOUS
 62
    3
 10
808.41250883300006
 20
604.90295891568439
 11
821.91250883300006
 21
604.90295891568439
  0
LINE
  8
_0-4_レイヤ3
  6
CONTINUOUS
 62
    3
 10
821.91250883300006
 20
604.90295891568439
 11
821.91250883300006
 21
604.40295891568439
  0
LINE
  8
_0-4_レイヤ3
  6
CONTINUOUS
 62
    3
 10
841.91250883300006
 20
604.90295891568439
 11
841.91250883300006
 21
604.40295891568439
  0
LINE
  8
_0-4_レイヤ3
  6
CONTINUOUS
 62
    3
 10
831.91250883300006
 20
606.10295891568421
 11
831.61250883299999
 21
606.40295891568439
  0
LINE
  8
_0-4_レイヤ3
  6
CONTINUOUS
 62
    3
 10
821.91250883300006
 20
604.40295891568439
 11
841.91250883300006
 21
604.40295891568439
  0
LINE
  8
_0-4_レイヤ3
  6
CONTINUOUS
 62
    3
 10
831.91250883300006
 20
606.10295891568421
 11
832.21250883300002
 21
606.40295891568439
  0
ARC
  8
_0-4_レイヤ3
  6
CONTINUOUS
 62
    3
 10
799.16250883300006
 20
621.15295891568439
 40
0.75
 50
90
 51
270
  0
LINE
  8
_0-4_レイヤ3
  6
CONTINUOUS
 62
    3
 10
818.91250883300006
 20
621.90295891568439
 11
818.91250883300006
 21
620.90295891568439
  0
LINE
  8
_0-4_レイヤ3
  6
CONTINUOUS
 62
    3
 10
900.41250883300006
 20
604.40295891568439
 11
901.41250883300006
 21
604.40295891568439
  0
ARC
  8
_0-4_レイヤ3
  6
CONTINUOUS
 62
    3
 10
901.41250883300006
 20
604.90295891568439
 40
0.5
 50
270
 51
0
  0
ARC
  8
_0-4_レイヤ3
  6
CONTINUOUS
 62
    3
 10
899.91250883300006
 20
606.90295891568439
 40
0.5
 50
270
 51
0
  0
LINE
  8
_0-4_レイヤ3
  6
CONTINUOUS
 62
    3
 10
900.41250883300006
 20
604.90295891568439
 11
900.41250883300006
 21
604.40295891568439
  0
LINE
  8
_0-4_レイヤ3
  6
CONTINUOUS
 62
    3
 10
884.41250883300006
 20
604.90295891568439
 11
900.41250883300006
 21
604.90295891568439
  0
LINE
  8
_0-4_レイヤ3
  6
CONTINUOUS
 62
    3
 10
882.91250883300006
 20
604.90295891568439
 11
882.91250883300006
 21
604.40295891568439
  0
LINE
  8
_0-4_レイヤ3
  6
CONTINUOUS
 62
    3
 10
884.41250883300006
 20
604.90295891568439
 11
884.41250883300006
 21
604.40295891568439
  0
LINE
  8
_0-4_レイヤ3
  6
CONTINUOUS
 62
    3
 10
882.91250883300006
 20
604.40295891568439
 11
884.41250883300006
 21
604.40295891568439
  0
LINE
  8
_0-4_レイヤ3
  6
CONTINUOUS
 62
    3
 10
832.21250883300002
 20
606.40295891568439
 11
899.91250883300006
 21
606.40295891568439
  0
LINE
  8
_0-4_レイヤ3
  6
CONTINUOUS
 62
    3
 10
857.91250883300006
 20
604.90295891568439
 11
857.91250883300006
 21
604.40295891568439
  0
LINE
  8
_0-4_レイヤ3
  6
CONTINUOUS
 62
    3
 10
859.41250883300006
 20
604.90295891568439
 11
859.41250883300006
 21
604.40295891568439
  0
LINE
  8
_0-4_レイヤ3
  6
CONTINUOUS
 62
    3
 10
857.91250883300006
 20
604.40295891568439
 11
859.41250883300006
 21
604.40295891568439
  0
LINE
  8
_0-4_レイヤ3
  6
CONTINUOUS
 62
    3
 10
841.91250883300006
 20
604.90295891568439
 11
857.91250883300006
 21
604.90295891568439
  0
LINE
  8
_0-4_レイヤ3
  6
CONTINUOUS
 62
    3
 10
859.41250883300006
 20
604.90295891568439
 11
882.91250883300006
 21
604.90295891568439
  0
LINE
  8
_0-4_レイヤ3
  6
CONTINUOUS
 62
    3
 10
806.91250883300006
 20
604.40295891568439
 11
808.41250883300006
 21
604.40295891568439
  0
LINE
  8
_0-4_レイヤ3
  6
CONTINUOUS
 62
    3
 10
808.41250883300006
 20
604.90295891568439
 11
808.41250883300006
 21
604.40295891568439
  0
ARC
  8
_0-4_レイヤ3
  6
CONTINUOUS
 62
    3
 10
901.16250883300006
 20
614.65295891568439
 40
0.75
 50
0
 51
180
  0
LINE
  8
_0-4_レイヤ3
  6
CONTINUOUS
 62
    3
 10
900.41250883300006
 20
614.65295891568439
 11
900.41250883300006
 21
606.90295891568439
  0
LINE
  8
_0-4_レイヤ3
  6
CONTINUOUS
 62
    3
 10
901.91250883300006
 20
614.65295891568439
 11
901.91250883300006
 21
604.90295891568439
  0
LINE
  8
_0-4_レイヤ3
  6
CONTINUOUS
 62
    3
 10
1060.9125088334999
 20
639.90295891568439
 11
1060.4125088334999
 21
639.90295891568439
  0
LINE
  8
_0-4_レイヤ3
  6
CONTINUOUS
 62
    3
 10
1060.9125088334999
 20
615.40295891568439
 11
1060.9125088334999
 21
613.90295891568439
  0
LINE
  8
_0-4_レイヤ3
  6
CONTINUOUS
 62
    3
 10
1060.9125088334999
 20
605.40295891568439
 11
1060.9125088334999
 21
603.90295891568439
  0
LINE
  8
_0-4_レイヤ3
  6
CONTINUOUS
 62
    3
 10
1060.9125088334999
 20
605.40295891568439
 11
1060.4125088334999
 21
605.40295891568439
  0
LINE
  8
_0-4_レイヤ3
  6
CONTINUOUS
 62
    3
 10
1060.4125088334999
 20
613.90295891568439
 11
1060.4125088334999
 21
605.40295891568439
  0
LINE
  8
_0-4_レイヤ3
  6
CONTINUOUS
 62
    3
 10
1060.9125088334999
 20
613.90295891568439
 11
1060.4125088334999
 21
613.90295891568439
  0
LINE
  8
_0-4_レイヤ3
  6
CONTINUOUS
 62
    3
 10
1060.9125088334999
 20
615.40295891568439
 11
1060.4125088334999
 21
615.40295891568439
  0
LINE
  8
_0-4_レイヤ3
  6
CONTINUOUS
 62
    3
 10
1060.4125088334999
 20
626.90295891568439
 11
1060.4125088334999
 21
615.40295891568439
  0
LINE
  8
_0-4_レイヤ3
  6
CONTINUOUS
 62
    3
 10
1060.9125088334999
 20
626.90295891568439
 11
1060.4125088334999
 21
626.90295891568439
  0
LINE
  8
_0-4_レイヤ3
  6
CONTINUOUS
 62
    3
 10
1060.4125088334999
 20
656.90295891568439
 11
1060.4125088334999
 21
639.90295891568439
  0
LINE
  8
_0-4_レイヤ3
  6
CONTINUOUS
 62
    3
 10
1060.9125088334999
 20
656.90295891568439
 11
1060.4125088334999
 21
656.90295891568439
  0
LINE
  8
_0-4_レイヤ3
  6
CONTINUOUS
 62
    3
 10
1060.9125088334999
 20
639.90295891568439
 11
1060.9125088334999
 21
626.90295891568439
  0
LINE
  8
_0-4_レイヤ3
  6
CONTINUOUS
 62
    3
 10
1060.9125088334999
 20
603.90295891568439
 11
1049.9125088334999
 21
603.90295891568439
  0
ARC
  8
_0-4_レイヤ3
  6
CONTINUOUS
 62
    3
 10
1049.9125088334999
 20
604.90295891568439
 40
1
 50
180
 51
270
  0
ARC
  8
_0-4_レイヤ3
  6
CONTINUOUS
 62
    3
 10
1057.9125088334999
 20
606.40295891568439
 40
1
 50
270
 51
0
  0
LINE
  8
_0-4_レイヤ3
  6
CONTINUOUS
 62
    3
 10
1059.2125088335001
 20
633.40295891568439
 11
1058.9125088334999
 21
633.70295891568435
  0
LINE
  8
_0-4_レイヤ3
  6
CONTINUOUS
 62
    3
 10
1059.2125088335001
 20
633.40295891568439
 11
1058.9125088334999
 21
633.10295891568421
  0
LINE
  8
_0-4_レイヤ3
  6
CONTINUOUS
 62
    3
 10
1058.9125088334999
 20
633.10295891568421
 11
1058.9125088334999
 21
606.40295891568439
  0
LINE
  8
_0-4_レイヤ3
  6
CONTINUOUS
 62
    3
 10
1044.4125088334999
 20
646.40295891568439
 11
1043.4125088334999
 21
646.40295891568439
  0
ARC
  8
_0-4_レイヤ3
  6
CONTINUOUS
 62
    3
 10
1044.4125088334999
 20
647.40295891568439
 40
1
 50
270
 51
0
  0
LINE
  8
_0-4_レイヤ3
  6
CONTINUOUS
 62
    3
 10
1057.9125088334999
 20
605.40295891568439
 11
1050.9125088334999
 21
605.40295891568439
  0
ARC
  8
_0-4_レイヤ3
  6
CONTINUOUS
 62
    3
 10
1050.9125088334999
 20
605.90295891568439
 40
0.5
 50
180
 51
270
  0
LINE
  8
_0-4_レイヤ3
  6
CONTINUOUS
 62
    3
 10
1058.9125088334999
 20
656.10295891568421
 11
1058.9125088334999
 21
633.70295891568435
  0
ARC
  8
_0-4_レイヤ3
  6
CONTINUOUS
 62
    3
 10
1058.4125088334999
 20
656.10295891568421
 40
0.5
 50
0
 51
90
  0
LINE
  8
_0-4_レイヤ3
  6
CONTINUOUS
 62
    3
 10
1045.4125088334999
 20
656.10295891568421
 11
1045.4125088334999
 21
647.40295891568439
  0
LINE
  8
_0-4_レイヤ3
  6
CONTINUOUS
 62
    3
 10
1058.4125088334999
 20
656.60295891568421
 11
1045.9125088334999
 21
656.60295891568421
  0
ARC
  8
_0-4_レイヤ3
  6
CONTINUOUS
 62
    3
 10
1045.9125088334999
 20
656.10295891568421
 40
0.5
 50
90
 51
180
  0
LINE
  8
_0-4_レイヤ3
  6
CONTINUOUS
 62
    3
 10
1060.9125088334999
 20
658.40295891568439
 11
1045.4125088334999
 21
658.40295891568439
  0
ARC
  8
_0-4_レイヤ3
  6
CONTINUOUS
 62
    3
 10
1045.4125088334999
 20
658.90295891568439
 40
0.5
 50
180
 51
270
  0
ARC
  8
_0-4_レイヤ3
  6
CONTINUOUS
 62
    3
 10
1046.6125088335002
 20
664.20295891568435
 40
0.5
 50
270
 51
0
  0
LINE
  8
_0-4_レイヤ3
  6
CONTINUOUS
 62
    3
 10
1044.9125088334999
 20
663.20295891568435
 11
1044.9125088334999
 21
658.90295891568439
  0
LINE
  8
_0-4_レイヤ3
  6
CONTINUOUS
 62
    3
 10
1046.6125088335002
 20
663.70295891568435
 11
1045.4125088334999
 21
663.70295891568435
  0
ARC
  8
_0-4_レイヤ3
  6
CONTINUOUS
 62
    3
 10
1045.4125088334999
 20
663.20295891568435
 40
0.5
 50
90
 51
180
  0
LINE
  8
_0-4_レイヤ3
  6
CONTINUOUS
 62
    3
 10
1047.1125088335002
 20
667.90295891568439
 11
1047.1125088335002
 21
664.20295891568435
  0
ARC
  8
_0-4_レイヤ3
  6
CONTINUOUS
 62
    3
 10
1046.6125088335002
 20
667.90295891568439
 40
0.5
 50
0
 51
90
  0
ARC
  8
_0-4_レイヤ3
  6
CONTINUOUS
 62
    3
 10
1045.4125088334999
 20
666.40295891568439
 40
0.5
 50
0
 51
90
  0
LINE
  8
_0-4_レイヤ3
  6
CONTINUOUS
 62
    3
 10
1045.9125088334999
 20
666.40295891568439
 11
1045.9125088334999
 21
665.70295891568435
  0
ARC
  8
_0-4_レイヤ3
  6
CONTINUOUS
 62
    3
 10
1045.4125088334999
 20
665.70295891568435
 40
0.5
 50
270
 51
0
  0
LINE
  8
_0-4_レイヤ3
  6
CONTINUOUS
 62
    3
 10
1043.4125088334999
 20
664.70295891568435
 11
1043.4125088334999
 21
646.40295891568439
  0
LINE
  8
_0-4_レイヤ3
  6
CONTINUOUS
 62
    3
 10
1045.4125088334999
 20
665.20295891568435
 11
1043.9125088334999
 21
665.20295891568435
  0
ARC
  8
_0-4_レイヤ3
  6
CONTINUOUS
 62
    3
 10
1043.9125088334999
 20
664.70295891568435
 40
0.5
 50
90
 51
180
  0
LINE
  8
_0-4_レイヤ3
  6
CONTINUOUS
 62
    3
 10
1045.4125088334999
 20
666.90295891568439
 11
1043.9125088334999
 21
666.90295891568439
  0
ARC
  8
_0-4_レイヤ3
  6
CONTINUOUS
 62
    3
 10
1043.9125088334999
 20
667.40295891568439
 40
0.5
 50
180
 51
270
  0
ARC
  8
_0-4_レイヤ3
  6
CONTINUOUS
 62
    3
 10
1049.6625088334999
 20
614.65295891568439
 40
0.75
 50
0
 51
180
  0
LINE
  8
_0-4_レイヤ3
  6
CONTINUOUS
 62
    3
 10
1048.9125088334999
 20
614.65295891568439
 11
1048.9125088334999
 21
604.90295891568439
  0
LINE
  8
_0-4_レイヤ3
  6
CONTINUOUS
 62
    3
 10
1050.4125088334999
 20
614.65295891568439
 11
1050.4125088334999
 21
605.90295891568439
  0
ARC
  8
_0-4_レイヤ3
  6
CONTINUOUS
 62
    3
 10
1043.9125088334999
 20
667.90295891568439
 40
0.5
 50
90
 51
180
  0
LINE
  8
_0-4_レイヤ3
  6
DOT_17
 62
    3
 10
1045.4125088334999
 20
650.42918467998425
 11
1045.3803438334999
 21
650.2696259156844
  0
LINE
  8
_0-4_レイヤ3
  6
DOT_17
 62
    3
 10
1045.3803438334999
 20
650.2696259156844
 11
1045.4125088334999
 21
650.32533733058426
  0
LINE
  8
_0-4_レイヤ3
  6
CONTINUOUS
 62
    3
 10
1060.9125088334999
 20
658.40295891568439
 11
1060.9125088334999
 21
656.90295891568439
  0
LINE
  8
_0-6_レイヤ5
  6
CONTINUOUS
 62
    3
 10
796.91250783300006
 20
621.40295891568439
 11
796.91250883300006
 21
614.80295891568426
  0
ARC
  8
_0-6_レイヤ5
  6
CONTINUOUS
 62
    3
 10
798.61250883299999
 20
614.80295891568426
 40
1.7
 50
180
 51
270
  0
LINE
  8
_0-6_レイヤ5
  6
CONTINUOUS
 62
    3
 10
806.91250883300006
 20
613.10295891568421
 11
798.61250883299999
 21
613.10295891568421
  0
LINE
  8
_0-6_レイヤ5
  6
CONTINUOUS
 62
    3
 10
806.91250883300006
 20
614.30295891568426
 11
798.61251383299998
 21
614.30295891568426
  0
ARC
  8
_0-6_レイヤ5
  6
CONTINUOUS
 62
    3
 10
798.612507833
 20
621.40295891568439
 40
1.7
 50
90
 51
180
  0
ARC
  8
_0-6_レイヤ5
  6
CONTINUOUS
 62
    3
 10
798.61250883299999
 20
621.40295891568439
 40
0.5
 50
90
 51
180
  0
ARC
  8
_0-6_レイヤ5
  6
CONTINUOUS
 62
    3
 10
798.61251383299998
 20
614.80295891568426
 40
0.5
 50
180
 51
270
  0
LINE
  8
_0-6_レイヤ5
  6
CONTINUOUS
 62
    3
 10
798.11250883299999
 20
621.40295891568439
 11
798.11251383299998
 21
614.80295891568426
  0
LINE
  8
_0-6_レイヤ5
  6
CONTINUOUS
 62
    3
 10
806.91250883300006
 20
614.30295891568426
 11
806.91250883300006
 21
613.10295891568421
  0
LINE
  8
_0-6_レイヤ5
  6
CONTINUOUS
 62
    3
 10
798.612507833
 20
623.10295891568421
 11
900.21250883300002
 21
623.10295891568421
  0
LINE
  8
_0-6_レイヤ5
  6
CONTINUOUS
 62
    3
 10
900.71250883300002
 20
618.10295891568421
 11
901.91250883300006
 21
618.10295891568421
  0
ARC
  8
_0-6_レイヤ5
  6
CONTINUOUS
 62
    3
 10
900.21250883300002
 20
621.40295891568439
 40
0.5
 50
0
 51
90
  0
LINE
  8
_0-6_レイヤ5
  6
CONTINUOUS
 62
    3
 10
900.71250883300002
 20
618.10295891568421
 11
900.71250883300002
 21
621.40295891568439
  0
ARC
  8
_0-6_レイヤ5
  6
CONTINUOUS
 62
    3
 10
900.21250883300002
 20
621.40295891568439
 40
1.7
 50
0
 51
90
  0
LINE
  8
_0-6_レイヤ5
  6
CONTINUOUS
 62
    3
 10
901.91250883300006
 20
618.10295891568421
 11
901.91250883300006
 21
621.40295891568439
  0
LINE
  8
_0-6_レイヤ5
  6
CONTINUOUS
 62
    3
 10
900.21250883300002
 20
621.90295891568439
 11
890.71250883300002
 21
621.90295891568439
  0
LINE
  8
_0-6_レイヤ5
  6
CONTINUOUS
 62
    3
 10
895.90883168160008
 20
621.90295891568439
 11
890.71250883300002
 21
616.70663606718426
  0
LINE
  8
_0-6_レイヤ5
  6
CONTINUOUS
 62
    3
 10
894.49461811920003
 20
621.90295891568439
 11
890.71250883300002
 21
618.12084962948438
  0
LINE
  8
_0-6_レイヤ5
  6
CONTINUOUS
 62
    3
 10
893.08040455679998
 20
621.90295891568439
 11
890.71250883300002
 21
619.53506319188432
  0
LINE
  8
_0-6_レイヤ5
  6
CONTINUOUS
 62
    3
 10
891.66619099449997
 20
621.90295891568439
 11
890.71250883300002
 21
620.94927675428426
  0
LINE
  8
_0-6_レイヤ5
  6
CONTINUOUS
 62
    3
 10
900.71250883300002
 20
616.60295979958437
 11
900.71250883300002
 21
621.40295891568439
  0
LINE
  8
_0-6_レイヤ5
  6
CONTINUOUS
 62
    3
 10
900.71250883300002
 20
616.8071411304843
 11
900.50832750439997
 21
616.60295980188425
  0
LINE
  8
_0-6_レイヤ5
  6
CONTINUOUS
 62
    3
 10
900.71250883300002
 20
618.22135469288423
 11
899.0941139578
 21
616.60295981768422
  0
LINE
  8
_0-6_レイヤ5
  6
CONTINUOUS
 62
    3
 10
900.71250883300002
 20
619.6355682552844
 11
897.67990041129997
 21
616.60295983348442
  0
LINE
  8
_0-6_レイヤ5
  6
CONTINUOUS
 62
    3
 10
900.71250883300002
 20
621.04978181768433
 11
896.2656868647
 21
616.60295984928439
  0
LINE
  8
_0-6_レイヤ5
  6
CONTINUOUS
 62
    3
 10
900.15147236870007
 20
621.90295891568439
 11
894.85147331810003
 21
616.60295986508436
  0
LINE
  8
_0-6_レイヤ5
  6
CONTINUOUS
 62
    3
 10
898.73725880630002
 20
621.90295891568439
 11
893.4372597716
 21
616.60295988088433
  0
LINE
  8
_0-6_レイヤ5
  6
CONTINUOUS
 62
    3
 10
897.32304524400001
 20
621.90295891568439
 11
892.02304622500003
 21
616.6029598966843
  0
LINE
  8
_0-6_レイヤ5
  6
CONTINUOUS
 62
    3
 10
890.71250883300002
 20
621.90295891568439
 11
890.71250883300002
 21
616.60295991138423
  0
LINE
  8
_0-4_レイヤ3
  6
CONTINUOUS
 62
    3
 10
817.91250883300006
 20
619.90295891568439
 11
809.21250883300002
 21
619.90295891568439
  0
LINE
  8
_0-4_レイヤ3
  6
CONTINUOUS
 62
    3
 10
799.16250883300006
 20
621.90295891568439
 11
818.91250883300006
 21
621.90295891568439
  0
LINE
  8
_0-6_レイヤ5
  6
CONTINUOUS
 62
    3
 10
798.61250883299999
 20
621.90295891568439
 11
900.21250883300002
 21
621.90295891568439
  0
LINE
  8
_0-7_レイヤ6
  6
CONTINUOUS
 62
    3
 10
838.231109833
 20
588.26055991568433
 11
839.22346483299998
 21
595.06418191568423
  0
ARC
  8
_0-7_レイヤ6
  6
CONTINUOUS
 62
    3
 10
838.827652833
 20
595.12191391568422
 40
0.4
 50
351.701533999996
 51
81.869897999979997
  0
LINE
  8
_0-7_レイヤ6
  6
CONTINUOUS
 62
    3
 10
838.88422183299997
 20
595.51789391568423
 11
838.68739683299998
 21
595.5460119156844
  0
ARC
  8
_0-7_レイヤ6
  6
CONTINUOUS
 62
    3
 10
838.63082883300001
 20
595.15003191568439
 40
0.4
 50
81.869898000009982
 51
171.86989800000001
  0
LINE
  8
_0-7_レイヤ6
  6
CONTINUOUS
 62
    3
 10
838.234848833
 20
595.20660091568425
 11
837.29141683299997
 21
588.60257991568437
  0
LINE
  8
_0-7_レイヤ6
  6
CONTINUOUS
 62
    3
 10
838.231109833
 20
588.26055991568433
 11
839.22346483299998
 21
595.06418191568423
  0
ARC
  8
_0-7_レイヤ6
  6
CONTINUOUS
 62
    3
 10
838.827652833
 20
595.12191391568422
 40
0.4
 50
351.701533999996
 51
81.869897999979997
  0
LINE
  8
_0-7_レイヤ6
  6
CONTINUOUS
 62
    3
 10
838.88422183299997
 20
595.51789391568423
 11
838.68739683299998
 21
595.5460119156844
  0
ARC
  8
_0-7_レイヤ6
  6
CONTINUOUS
 62
    3
 10
838.63082883300001
 20
595.15003191568439
 40
0.4
 50
81.869898000009982
 51
171.86989800000001
  0
LINE
  8
_0-7_レイヤ6
  6
CONTINUOUS
 62
    3
 10
838.234848833
 20
595.20660091568425
 11
837.29141683299997
 21
588.60257991568437
  0
LINE
  8
_0-7_レイヤ6
  6
CONTINUOUS
 62
    3
 10
825.593907833
 20
588.26055991568433
 11
824.60155283300003
 21
595.06418191568423
  0
ARC
  8
_0-7_レイヤ6
  6
CONTINUOUS
 62
    3
 10
824.99736483300001
 20
595.12191391568422
 40
0.4
 50
98.130101999990003
 51
188.29846599999999
  0
LINE
  8
_0-7_レイヤ6
  6
CONTINUOUS
 62
    3
 10
824.94079583300004
 20
595.51789391568423
 11
825.13762083300003
 21
595.5460119156844
  0
ARC
  8
_0-7_レイヤ6
  6
CONTINUOUS
 62
    3
 10
825.194189833
 20
595.15003191568439
 40
0.4
 50
8.1301019999920001
 51
98.130101999990018
  0
LINE
  8
_0-7_レイヤ6
  6
CONTINUOUS
 62
    3
 10
825.59016883300001
 20
595.20660091568425
 11
826.53360083300004
 21
588.60257991568437
  0
LINE
  8
_0-7_レイヤ6
  6
CONTINUOUS
 62
    3
 10
827.91250883300006
 20
591.40295891568439
 11
827.91250883300006
 21
595.40295891568439
  0
LINE
  8
_0-7_レイヤ6
  6
CONTINUOUS
 62
    3
 10
829.89476583300006
 20
566.44270291568432
 11
826.399562833
 21
566.62587791568421
  0
LINE
  8
_0-7_レイヤ6
  6
CONTINUOUS
 62
    3
 10
826.399562833
 20
566.62587791568421
 11
828.29214983300005
 21
564.52394691568429
  0
LINE
  8
_0-7_レイヤ6
  6
CONTINUOUS
 62
    3
 10
828.29214983300005
 20
564.52394691568429
 11
829.79009383300001
 21
564.44544291568423
  0
LINE
  8
_0-7_レイヤ6
  6
CONTINUOUS
 62
    3
 10
829.79009383300001
 20
564.44544291568423
 11
831.41250883300006
 21
595.40295891568439
  0
LINE
  8
_0-7_レイヤ6
  6
CONTINUOUS
 62
    3
 10
835.91250883300006
 20
591.40295891568439
 11
835.91250883300006
 21
595.40295891568439
  0
LINE
  8
_0-7_レイヤ6
  6
CONTINUOUS
 62
    3
 10
833.93025183300006
 20
566.44270291568432
 11
837.425454833
 21
566.62587791568421
  0
LINE
  8
_0-7_レイヤ6
  6
CONTINUOUS
 62
    3
 10
837.425454833
 20
566.62587791568421
 11
835.53286783300007
 21
564.52394691568429
  0
LINE
  8
_0-7_レイヤ6
  6
CONTINUOUS
 62
    3
 10
835.53286783300007
 20
564.52394691568429
 11
834.03492383299999
 21
564.44544291568423
  0
LINE
  8
_0-7_レイヤ6
  6
CONTINUOUS
 62
    3
 10
834.03492383299999
 20
564.44544291568423
 11
832.41250883300006
 21
595.40295891568439
  0
LINE
  8
_0-7_レイヤ6
  6
CONTINUOUS
 62
    3
 10
828.35345183300001
 20
583.60257991568437
 11
826.53360083300004
 21
588.60257991568437
  0
LINE
  8
_0-7_レイヤ6
  6
CONTINUOUS
 62
    3
 10
827.28927383300004
 20
583.60257991568437
 11
825.593907833
 21
588.26055991568433
  0
LINE
  8
_0-7_レイヤ6
  6
CONTINUOUS
 62
    3
 10
835.471565833
 20
583.60257991568437
 11
837.29141683299997
 21
588.60257991568437
  0
LINE
  8
_0-7_レイヤ6
  6
CONTINUOUS
 62
    3
 10
836.53574383299997
 20
583.60257991568437
 11
838.231109833
 21
588.26055991568433
  0
LINE
  8
_0-7_レイヤ6
  6
CONTINUOUS
 62
    3
 10
827.91250883300006
 20
591.40295891568439
 11
829.65288483300003
 21
590.48831491568421
  0
LINE
  8
_0-7_レイヤ6
  6
CONTINUOUS
 62
    3
 10
830.04306483300002
 20
569.27240291568432
 11
831.91250883300006
 21
567.40295891568439
  0
LINE
  8
_0-7_レイヤ6
  6
CONTINUOUS
 62
    3
 10
829.65288483300003
 20
590.48831491568421
 11
829.54821283299998
 21
588.49105591568423
  0
LINE
  8
_0-7_レイヤ6
  6
CONTINUOUS
 62
    3
 10
829.54821283299998
 20
588.49105591568423
 11
827.55095383299999
 21
588.59572791568439
  0
LINE
  8
_0-7_レイヤ6
  6
CONTINUOUS
 62
    3
 10
827.55095383299999
 20
588.59572791568439
 11
827.44628183300006
 21
586.59846891568441
  0
LINE
  8
_0-7_レイヤ6
  6
CONTINUOUS
 62
    3
 10
827.44628183300006
 20
586.59846891568441
 11
829.39120483300007
 21
585.49516791568431
  0
LINE
  8
_0-7_レイヤ6
  6
CONTINUOUS
 62
    3
 10
829.39120483300007
 20
585.49516791568431
 11
829.28653283300002
 21
583.49790891568432
  0
LINE
  8
_0-7_レイヤ6
  6
CONTINUOUS
 62
    3
 10
829.28653283300002
 20
583.49790891568432
 11
827.28927383300004
 21
583.60257991568437
  0
LINE
  8
_0-7_レイヤ6
  6
CONTINUOUS
 62
    3
 10
827.28927383300004
 20
583.60257991568437
 11
827.18460183299999
 21
581.60532091568439
  0
LINE
  8
_0-7_レイヤ6
  6
CONTINUOUS
 62
    3
 10
827.18460183299999
 20
581.60532091568439
 11
829.129524833
 21
580.50201991568429
  0
LINE
  8
_0-7_レイヤ6
  6
CONTINUOUS
 62
    3
 10
829.129524833
 20
580.50201991568429
 11
829.02485283300007
 21
578.5047609156843
  0
LINE
  8
_0-7_レイヤ6
  6
CONTINUOUS
 62
    3
 10
829.02485283300007
 20
578.5047609156843
 11
827.02759383299997
 21
578.60943291568424
  0
LINE
  8
_0-7_レイヤ6
  6
CONTINUOUS
 62
    3
 10
827.02759383299997
 20
578.60943291568424
 11
826.92292183300003
 21
576.61217391568425
  0
LINE
  8
_0-7_レイヤ6
  6
CONTINUOUS
 62
    3
 10
826.92292183300003
 20
576.61217391568425
 11
828.86784583300005
 21
575.50887191568427
  0
LINE
  8
_0-7_レイヤ6
  6
CONTINUOUS
 62
    3
 10
828.86784583300005
 20
575.50887191568427
 11
828.763173833
 21
573.51161291568428
  0
LINE
  8
_0-7_レイヤ6
  6
CONTINUOUS
 62
    3
 10
828.763173833
 20
573.51161291568428
 11
826.76591483300001
 21
573.61628491568422
  0
LINE
  8
_0-7_レイヤ6
  6
CONTINUOUS
 62
    3
 10
826.76591483300001
 20
573.61628491568422
 11
826.66124283300007
 21
571.61902591568423
  0
LINE
  8
_0-7_レイヤ6
  6
CONTINUOUS
 62
    3
 10
826.66124283300007
 20
571.61902591568423
 11
828.60616583299998
 21
570.51572491568436
  0
LINE
  8
_0-7_レイヤ6
  6
CONTINUOUS
 62
    3
 10
828.60616583299998
 20
570.51572491568436
 11
828.50149383300004
 21
568.51846591568437
  0
LINE
  8
_0-7_レイヤ6
  6
CONTINUOUS
 62
    3
 10
828.50149383300004
 20
568.51846591568437
 11
826.50423483300006
 21
568.6231369156842
  0
LINE
  8
_0-7_レイヤ6
  6
CONTINUOUS
 62
    3
 10
826.50423483300006
 20
568.6231369156842
 11
826.399562833
 21
566.62587791568421
  0
LINE
  8
_0-7_レイヤ6
  6
CONTINUOUS
 62
    3
 10
835.91250883300006
 20
591.40295891568439
 11
834.17213283299998
 21
590.48831491568421
  0
LINE
  8
_0-7_レイヤ6
  6
CONTINUOUS
 62
    3
 10
834.17213283299998
 20
590.48831491568421
 11
834.27680483300003
 21
588.49105591568423
  0
LINE
  8
_0-7_レイヤ6
  6
CONTINUOUS
 62
    3
 10
834.27680483300003
 20
588.49105591568423
 11
836.27406383300001
 21
588.59572791568439
  0
LINE
  8
_0-7_レイヤ6
  6
CONTINUOUS
 62
    3
 10
836.27406383300001
 20
588.59572791568439
 11
836.37873583300006
 21
586.59846891568441
  0
LINE
  8
_0-7_レイヤ6
  6
CONTINUOUS
 62
    3
 10
836.37873583300006
 20
586.59846891568441
 11
834.43381283300005
 21
585.49516791568431
  0
LINE
  8
_0-7_レイヤ6
  6
CONTINUOUS
 62
    3
 10
834.43381283300005
 20
585.49516791568431
 11
834.53848483299998
 21
583.49790891568432
  0
LINE
  8
_0-7_レイヤ6
  6
CONTINUOUS
 62
    3
 10
834.53848483299998
 20
583.49790891568432
 11
836.53574383299997
 21
583.60257991568437
  0
LINE
  8
_0-7_レイヤ6
  6
CONTINUOUS
 62
    3
 10
836.53574383299997
 20
583.60257991568437
 11
836.64041583300002
 21
581.60532091568439
  0
LINE
  8
_0-7_レイヤ6
  6
CONTINUOUS
 62
    3
 10
836.64041583300002
 20
581.60532091568439
 11
834.695492833
 21
580.50201991568429
  0
LINE
  8
_0-7_レイヤ6
  6
CONTINUOUS
 62
    3
 10
834.695492833
 20
580.50201991568429
 11
834.80016483300005
 21
578.5047609156843
  0
LINE
  8
_0-7_レイヤ6
  6
CONTINUOUS
 62
    3
 10
834.80016483300005
 20
578.5047609156843
 11
836.79742383300004
 21
578.60943291568424
  0
LINE
  8
_0-7_レイヤ6
  6
CONTINUOUS
 62
    3
 10
836.79742383300004
 20
578.60943291568424
 11
836.90209583299998
 21
576.61217391568425
  0
LINE
  8
_0-7_レイヤ6
  6
CONTINUOUS
 62
    3
 10
836.90209583299998
 20
576.61217391568425
 11
834.95717183300007
 21
575.50887191568427
  0
LINE
  8
_0-7_レイヤ6
  6
CONTINUOUS
 62
    3
 10
834.95717183300007
 20
575.50887191568427
 11
835.06184383300001
 21
573.51161291568428
  0
LINE
  8
_0-7_レイヤ6
  6
CONTINUOUS
 62
    3
 10
835.06184383300001
 20
573.51161291568428
 11
837.059102833
 21
573.61628491568422
  0
LINE
  8
_0-7_レイヤ6
  6
CONTINUOUS
 62
    3
 10
837.059102833
 20
573.61628491568422
 11
837.16377483300005
 21
571.61902591568423
  0
LINE
  8
_0-7_レイヤ6
  6
CONTINUOUS
 62
    3
 10
837.16377483300005
 20
571.61902591568423
 11
835.21885183300003
 21
570.51572491568436
  0
LINE
  8
_0-7_レイヤ6
  6
CONTINUOUS
 62
    3
 10
835.21885183300003
 20
570.51572491568436
 11
835.32352383299997
 21
568.51846591568437
  0
LINE
  8
_0-7_レイヤ6
  6
CONTINUOUS
 62
    3
 10
835.32352383299997
 20
568.51846591568437
 11
837.32078283300007
 21
568.6231369156842
  0
LINE
  8
_0-7_レイヤ6
  6
CONTINUOUS
 62
    3
 10
837.32078283300007
 20
568.6231369156842
 11
837.425454833
 21
566.62587791568421
  0
LINE
  8
_0-7_レイヤ6
  6
CONTINUOUS
 62
    3
 10
831.41250883300006
 20
595.40295891568439
 11
831.91250883300006
 21
595.40295891568439
  0
LINE
  8
_0-7_レイヤ6
  6
CONTINUOUS
 62
    3
 10
832.41250883300006
 20
595.40295891568439
 11
831.91250883300006
 21
595.40295891568439
  0
LINE
  8
_0-7_レイヤ6
  6
CONTINUOUS
 62
    3
 10
827.91250883300006
 20
603.40295891568439
 11
827.91250883300006
 21
595.40295891568439
  0
LINE
  8
_0-7_レイヤ6
  6
CONTINUOUS
 62
    3
 10
826.91250883300006
 20
603.40295891568439
 11
827.91250883300006
 21
598.40295891568439
  0
LINE
  8
_0-7_レイヤ6
  6
CONTINUOUS
 62
    3
 10
830.91250883300006
 20
603.40295891568439
 11
831.91250883300006
 21
598.40295891568439
  0
LINE
  8
_0-7_レイヤ6
  6
CONTINUOUS
 62
    3
 10
832.91250883300006
 20
603.40295891568439
 11
831.91250883300006
 21
598.40295891568439
  0
LINE
  8
_0-7_レイヤ6
  6
CONTINUOUS
 62
    3
 10
831.91250883300006
 20
598.40295891568439
 11
831.91250883300006
 21
603.40295891568439
  0
LINE
  8
_0-7_レイヤ6
  6
CONTINUOUS
 62
    3
 10
835.91250883300006
 20
603.40295891568439
 11
835.91250883300006
 21
595.40295891568439
  0
LINE
  8
_0-7_レイヤ6
  6
CONTINUOUS
 62
    3
 10
836.91250883300006
 20
603.40295891568439
 11
835.91250883300006
 21
598.40295891568439
  0
LINE
  8
_0-7_レイヤ6
  6
CONTINUOUS
 62
    3
 10
833.78195283299999
 20
569.27240291568432
 11
831.91250883300006
 21
567.40295891568439
  0
LINE
  8
_0-7_レイヤ6
  6
CONTINUOUS
 62
    3
 10
826.91250883300006
 20
603.40295891568439
 11
836.91250883300006
 21
603.40295891568439
  0
LINE
  8
_0-7_レイヤ6
  6
CONTINUOUS
 62
    3
 10
827.54037383299999
 20
609.3644579156844
 11
827.41250883300006
 21
607.90295891568439
  0
LINE
  8
_0-7_レイヤ6
  6
CONTINUOUS
 62
    3
 10
836.28464383300002
 20
609.3644579156844
 11
836.41250883300006
 21
607.90295891568439
  0
ARC
  8
_0-7_レイヤ6
  6
CONTINUOUS
 62
    3
 10
831.91250883300006
 20
599.20295891568435
 40
12
 50
74.506032000000005
 51
105.493968
  0
ARC
  8
_0-7_レイヤ6
  6
CONTINUOUS
 62
    3
 10
829.13428483300004
 20
609.22500791568427
 40
1.6000000000000001
 50
105.493968
 51
175
  0
ARC
  8
_0-7_レイヤ6
  6
CONTINUOUS
 62
    3
 10
834.69073283299997
 20
609.22500791568427
 40
1.6000000000000001
 50
5
 51
74.50603199999999
  0
LINE
  8
_0-7_レイヤ6
  6
CONTINUOUS
 62
    3
 10
822.91250883300006
 20
607.90295891568439
 11
822.91250883300006
 21
606.40295891568439
  0
LINE
  8
_0-7_レイヤ6
  6
CONTINUOUS
 62
    3
 10
822.91250883300006
 20
607.90295891568439
 11
840.91250883300006
 21
607.90295891568439
  0
LINE
  8
_0-7_レイヤ6
  6
CONTINUOUS
 62
    3
 10
840.91250883300006
 20
607.90295891568439
 11
840.91250883300006
 21
606.40295891568439
  0
LINE
  8
_0-7_レイヤ6
  6
CONTINUOUS
 62
    3
 10
822.91250883300006
 20
606.40295891568439
 11
840.91250883300006
 21
606.40295891568439
  0
LINE
  8
_0-7_レイヤ6
  6
CONTINUOUS
 62
    3
 10
1077.0549373335002
 20
627.08440791568432
 11
1070.2513153334999
 21
626.09205291568423
  0
ARC
  8
_0-7_レイヤ6
  6
CONTINUOUS
 62
    3
 10
1070.1935833335001
 20
626.48786491568421
 40
0.4
 50
188.13010199999999
 51
278.29846600000002
  0
LINE
  8
_0-7_レイヤ6
  6
CONTINUOUS
 62
    3
 10
1069.7976033334999
 20
626.43129591568436
 11
1069.7694853335001
 21
626.62812091568435
  0
ARC
  8
_0-7_レイヤ6
  6
CONTINUOUS
 62
    3
 10
1070.1654653334999
 20
626.68468891568432
 40
0.4
 50
98.130101999990003
 51
188.13010199999999
  0
LINE
  8
_0-7_レイヤ6
  6
CONTINUOUS
 62
    3
 10
1070.1088963335001
 20
627.08066891568433
 11
1076.7129173335002
 21
628.02410091568436
  0
LINE
  8
_0-7_レイヤ6
  6
CONTINUOUS
 62
    3
 10
1077.0549373335002
 20
627.08440791568432
 11
1070.2513153334999
 21
626.09205291568423
  0
ARC
  8
_0-7_レイヤ6
  6
CONTINUOUS
 62
    3
 10
1070.1935833335001
 20
626.48786491568421
 40
0.4
 50
188.13010199999999
 51
278.29846600000002
  0
LINE
  8
_0-7_レイヤ6
  6
CONTINUOUS
 62
    3
 10
1069.7976033334999
 20
626.43129591568436
 11
1069.7694853335001
 21
626.62812091568435
  0
ARC
  8
_0-7_レイヤ6
  6
CONTINUOUS
 62
    3
 10
1070.1654653334999
 20
626.68468891568432
 40
0.4
 50
98.130101999990003
 51
188.13010199999999
  0
LINE
  8
_0-7_レイヤ6
  6
CONTINUOUS
 62
    3
 10
1070.1088963335001
 20
627.08066891568433
 11
1076.7129173335002
 21
628.02410091568436
  0
LINE
  8
_0-7_レイヤ6
  6
CONTINUOUS
 62
    3
 10
1077.0549373335002
 20
639.72160991568421
 11
1070.2513153334999
 21
640.7139649156843
  0
ARC
  8
_0-7_レイヤ6
  6
CONTINUOUS
 62
    3
 10
1070.1935833335001
 20
640.31815291568432
 40
0.4
 50
81.701534000000009
 51
171.86989800000001
  0
LINE
  8
_0-7_レイヤ6
  6
CONTINUOUS
 62
    3
 10
1069.7976033334999
 20
640.3747219156844
 11
1069.7694853335001
 21
640.17789691568441
  0
ARC
  8
_0-7_レイヤ6
  6
CONTINUOUS
 62
    3
 10
1070.1654653334999
 20
640.12132791568433
 40
0.4
 50
171.86989800000001
 51
261.86989799999998
  0
LINE
  8
_0-7_レイヤ6
  6
CONTINUOUS
 62
    3
 10
1070.1088963335001
 20
639.72534891568421
 11
1076.7129173335002
 21
638.78191691568441
  0
LINE
  8
_0-7_レイヤ6
  6
CONTINUOUS
 62
    3
 10
1073.9125383334999
 20
637.40300891568427
 11
1069.9125383334999
 21
637.40300891568427
  0
LINE
  8
_0-7_レイヤ6
  6
CONTINUOUS
 62
    3
 10
1098.8727943335002
 20
635.42075191568438
 11
1098.6896193335001
 21
638.91595491568432
  0
LINE
  8
_0-7_レイヤ6
  6
CONTINUOUS
 62
    3
 10
1098.6896193335001
 20
638.91595491568432
 11
1100.7915503334998
 21
637.02336791568428
  0
LINE
  8
_0-7_レイヤ6
  6
CONTINUOUS
 62
    3
 10
1100.7915503334998
 20
637.02336791568428
 11
1100.8700543334999
 21
635.52542391568431
  0
LINE
  8
_0-7_レイヤ6
  6
CONTINUOUS
 62
    3
 10
1100.8700543334999
 20
635.52542391568431
 11
1069.9125383334999
 21
633.90300891568427
  0
LINE
  8
_0-7_レイヤ6
  6
CONTINUOUS
 62
    3
 10
1073.9125383334999
 20
629.40300891568427
 11
1069.9125383334999
 21
629.40300891568427
  0
LINE
  8
_0-7_レイヤ6
  6
CONTINUOUS
 62
    3
 10
1098.8727943335002
 20
631.38526591568439
 11
1098.6896193335001
 21
627.89006291568421
  0
LINE
  8
_0-7_レイヤ6
  6
CONTINUOUS
 62
    3
 10
1098.6896193335001
 20
627.89006291568421
 11
1100.7915503334998
 21
629.78264991568426
  0
LINE
  8
_0-7_レイヤ6
  6
CONTINUOUS
 62
    3
 10
1100.7915503334998
 20
629.78264991568426
 11
1100.8700543334999
 21
631.28059391568422
  0
LINE
  8
_0-7_レイヤ6
  6
CONTINUOUS
 62
    3
 10
1100.8700543334999
 20
631.28059391568422
 11
1069.9125383334999
 21
632.90300891568427
  0
LINE
  8
_0-7_レイヤ6
  6
CONTINUOUS
 62
    3
 10
1081.7129173335002
 20
638.02624391568429
 11
1077.0549373335002
 21
639.72160991568421
  0
LINE
  8
_0-7_レイヤ6
  6
CONTINUOUS
 62
    3
 10
1081.7129173335002
 20
628.77977391568425
 11
1077.0549373335002
 21
627.08440791568432
  0
LINE
  8
_0-7_レイヤ6
  6
CONTINUOUS
 62
    3
 10
1073.9125383334999
 20
637.40300891568427
 11
1074.8271823334999
 21
635.6626329156843
  0
LINE
  8
_0-7_レイヤ6
  6
CONTINUOUS
 62
    3
 10
1096.0430943335
 20
635.2724529156842
 11
1097.9125383334999
 21
633.40300891568427
  0
LINE
  8
_0-7_レイヤ6
  6
CONTINUOUS
 62
    3
 10
1074.8271823334999
 20
635.6626329156843
 11
1076.8244413335001
 21
635.76730491568424
  0
LINE
  8
_0-7_レイヤ6
  6
CONTINUOUS
 62
    3
 10
1076.8244413335001
 20
635.76730491568424
 11
1076.7197693335002
 21
637.76456391568422
  0
LINE
  8
_0-7_レイヤ6
  6
CONTINUOUS
 62
    3
 10
1076.7197693335002
 20
637.76456391568422
 11
1078.7170283334999
 21
637.86923591568438
  0
LINE
  8
_0-7_レイヤ6
  6
CONTINUOUS
 62
    3
 10
1078.7170283334999
 20
637.86923591568438
 11
1079.8203293335
 21
635.92431291568437
  0
LINE
  8
_0-7_レイヤ6
  6
CONTINUOUS
 62
    3
 10
1079.8203293335
 20
635.92431291568437
 11
1081.8175883335002
 21
636.0289849156843
  0
LINE
  8
_0-7_レイヤ6
  6
CONTINUOUS
 62
    3
 10
1081.8175883335002
 20
636.0289849156843
 11
1081.7129173335002
 21
638.02624391568429
  0
LINE
  8
_0-7_レイヤ6
  6
CONTINUOUS
 62
    3
 10
1081.7129173335002
 20
638.02624391568429
 11
1083.7101763334999
 21
638.13091591568423
  0
LINE
  8
_0-7_レイヤ6
  6
CONTINUOUS
 62
    3
 10
1083.7101763334999
 20
638.13091591568423
 11
1084.8134773335
 21
636.18599291568421
  0
LINE
  8
_0-7_レイヤ6
  6
CONTINUOUS
 62
    3
 10
1084.8134773335
 20
636.18599291568421
 11
1086.8107363335002
 21
636.29066491568437
  0
LINE
  8
_0-7_レイヤ6
  6
CONTINUOUS
 62
    3
 10
1086.8107363335002
 20
636.29066491568437
 11
1086.7060643334999
 21
638.28792391568436
  0
LINE
  8
_0-7_レイヤ6
  6
CONTINUOUS
 62
    3
 10
1086.7060643334999
 20
638.28792391568436
 11
1088.7033233335001
 21
638.3925959156843
  0
LINE
  8
_0-7_レイヤ6
  6
CONTINUOUS
 62
    3
 10
1088.7033233335001
 20
638.3925959156843
 11
1089.8066253335001
 21
636.4476719156844
  0
LINE
  8
_0-7_レイヤ6
  6
CONTINUOUS
 62
    3
 10
1089.8066253335001
 20
636.4476719156844
 11
1091.8038843334998
 21
636.55234391568433
  0
LINE
  8
_0-7_レイヤ6
  6
CONTINUOUS
 62
    3
 10
1091.8038843334998
 20
636.55234391568433
 11
1091.6992123334999
 21
638.54960291568432
  0
LINE
  8
_0-7_レイヤ6
  6
CONTINUOUS
 62
    3
 10
1091.6992123334999
 20
638.54960291568432
 11
1093.6964713335001
 21
638.65427491568425
  0
LINE
  8
_0-7_レイヤ6
  6
CONTINUOUS
 62
    3
 10
1093.6964713335001
 20
638.65427491568425
 11
1094.7997723335002
 21
636.70935191568424
  0
LINE
  8
_0-7_レイヤ6
  6
CONTINUOUS
 62
    3
 10
1094.7997723335002
 20
636.70935191568424
 11
1096.7970313334999
 21
636.8140239156844
  0
LINE
  8
_0-7_レイヤ6
  6
CONTINUOUS
 62
    3
 10
1096.7970313334999
 20
636.8140239156844
 11
1096.6923603334999
 21
638.81128291568439
  0
LINE
  8
_0-7_レイヤ6
  6
CONTINUOUS
 62
    3
 10
1096.6923603334999
 20
638.81128291568439
 11
1098.6896193335001
 21
638.91595491568432
  0
LINE
  8
_0-7_レイヤ6
  6
CONTINUOUS
 62
    3
 10
1073.9125383334999
 20
629.40300891568427
 11
1074.8271823334999
 21
631.14338491568424
  0
LINE
  8
_0-7_レイヤ6
  6
CONTINUOUS
 62
    3
 10
1074.8271823334999
 20
631.14338491568424
 11
1076.8244413335001
 21
631.0387129156843
  0
LINE
  8
_0-7_レイヤ6
  6
CONTINUOUS
 62
    3
 10
1076.8244413335001
 20
631.0387129156843
 11
1076.7197693335002
 21
629.04145391568431
  0
LINE
  8
_0-7_レイヤ6
  6
CONTINUOUS
 62
    3
 10
1076.7197693335002
 20
629.04145391568431
 11
1078.7170283334999
 21
628.93678191568438
  0
LINE
  8
_0-7_レイヤ6
  6
CONTINUOUS
 62
    3
 10
1078.7170283334999
 20
628.93678191568438
 11
1079.8203293335
 21
630.8817049156844
  0
LINE
  8
_0-7_レイヤ6
  6
CONTINUOUS
 62
    3
 10
1079.8203293335
 20
630.8817049156844
 11
1081.8175883335002
 21
630.77703291568423
  0
LINE
  8
_0-7_レイヤ6
  6
CONTINUOUS
 62
    3
 10
1081.8175883335002
 20
630.77703291568423
 11
1081.7129173335002
 21
628.77977391568425
  0
LINE
  8
_0-7_レイヤ6
  6
CONTINUOUS
 62
    3
 10
1081.7129173335002
 20
628.77977391568425
 11
1083.7101763334999
 21
628.67510191568431
  0
LINE
  8
_0-7_レイヤ6
  6
CONTINUOUS
 62
    3
 10
1083.7101763334999
 20
628.67510191568431
 11
1084.8134773335
 21
630.62002491568433
  0
LINE
  8
_0-7_レイヤ6
  6
CONTINUOUS
 62
    3
 10
1084.8134773335
 20
630.62002491568433
 11
1086.8107363335002
 21
630.51535291568439
  0
LINE
  8
_0-7_レイヤ6
  6
CONTINUOUS
 62
    3
 10
1086.8107363335002
 20
630.51535291568439
 11
1086.7060643334999
 21
628.5180939156844
  0
LINE
  8
_0-7_レイヤ6
  6
CONTINUOUS
 62
    3
 10
1086.7060643334999
 20
628.5180939156844
 11
1088.7033233335001
 21
628.41342191568424
  0
LINE
  8
_0-7_レイヤ6
  6
CONTINUOUS
 62
    3
 10
1088.7033233335001
 20
628.41342191568424
 11
1089.8066253335001
 21
630.35834591568437
  0
LINE
  8
_0-7_レイヤ6
  6
CONTINUOUS
 62
    3
 10
1089.8066253335001
 20
630.35834591568437
 11
1091.8038843334998
 21
630.2536739156842
  0
LINE
  8
_0-7_レイヤ6
  6
CONTINUOUS
 62
    3
 10
1091.8038843334998
 20
630.2536739156842
 11
1091.6992123334999
 21
628.25641491568422
  0
LINE
  8
_0-7_レイヤ6
  6
CONTINUOUS
 62
    3
 10
1091.6992123334999
 20
628.25641491568422
 11
1093.6964713335001
 21
628.15174291568428
  0
LINE
  8
_0-7_レイヤ6
  6
CONTINUOUS
 62
    3
 10
1093.6964713335001
 20
628.15174291568428
 11
1094.7997723335002
 21
630.0966659156843
  0
LINE
  8
_0-7_レイヤ6
  6
CONTINUOUS
 62
    3
 10
1094.7997723335002
 20
630.0966659156843
 11
1096.7970313334999
 21
629.99199391568436
  0
LINE
  8
_0-7_レイヤ6
  6
CONTINUOUS
 62
    3
 10
1096.7970313334999
 20
629.99199391568436
 11
1096.6923603334999
 21
627.99473491568438
  0
LINE
  8
_0-7_レイヤ6
  6
CONTINUOUS
 62
    3
 10
1096.6923603334999
 20
627.99473491568438
 11
1098.6896193335001
 21
627.89006291568421
  0
LINE
  8
_0-7_レイヤ6
  6
CONTINUOUS
 62
    3
 10
1069.9125383334999
 20
633.90300891568427
 11
1069.9125383334999
 21
633.40300891568427
  0
LINE
  8
_0-7_レイヤ6
  6
CONTINUOUS
 62
    3
 10
1069.9125383334999
 20
632.90300891568427
 11
1069.9125383334999
 21
633.40300891568427
  0
LINE
  8
_0-7_レイヤ6
  6
CONTINUOUS
 62
    3
 10
1061.9125383334999
 20
637.40300891568427
 11
1069.9125383334999
 21
637.40300891568427
  0
LINE
  8
_0-7_レイヤ6
  6
CONTINUOUS
 62
    3
 10
1061.9125383334999
 20
638.40300891568427
 11
1066.9125383334999
 21
637.40300891568427
  0
LINE
  8
_0-7_レイヤ6
  6
CONTINUOUS
 62
    3
 10
1061.9125383334999
 20
634.40300891568427
 11
1066.9125383334999
 21
633.40300891568427
  0
LINE
  8
_0-7_レイヤ6
  6
CONTINUOUS
 62
    3
 10
1061.9125383334999
 20
632.40300891568427
 11
1066.9125383334999
 21
633.40300891568427
  0
LINE
  8
_0-7_レイヤ6
  6
CONTINUOUS
 62
    3
 10
1066.9125383334999
 20
633.40300891568427
 11
1061.9125383334999
 21
633.40300891568427
  0
LINE
  8
_0-7_レイヤ6
  6
CONTINUOUS
 62
    3
 10
1061.9125383334999
 20
629.40300891568427
 11
1069.9125383334999
 21
629.40300891568427
  0
LINE
  8
_0-7_レイヤ6
  6
CONTINUOUS
 62
    3
 10
1061.9125383334999
 20
628.40300891568427
 11
1066.9125383334999
 21
629.40300891568427
  0
LINE
  8
_0-7_レイヤ6
  6
CONTINUOUS
 62
    3
 10
1096.0430943335
 20
631.53356491568434
 11
1097.9125383334999
 21
633.40300891568427
  0
LINE
  8
_0-7_レイヤ6
  6
CONTINUOUS
 62
    3
 10
1061.9125383334999
 20
638.40300891568427
 11
1061.9125383334999
 21
628.40300891568427
  0
LINE
  8
_0-7_レイヤ6
  6
CONTINUOUS
 62
    3
 10
1055.9510393334999
 20
637.77514391568434
 11
1057.4125383334999
 21
637.90300891568427
  0
LINE
  8
_0-7_レイヤ6
  6
CONTINUOUS
 62
    3
 10
1055.9510393334999
 20
629.0308739156842
 11
1057.4125383334999
 21
628.90300891568427
  0
ARC
  8
_0-7_レイヤ6
  6
CONTINUOUS
 62
    3
 10
1066.1125383335002
 20
633.40300891568427
 40
12
 50
164.506032
 51
195.493968
  0
ARC
  8
_0-7_レイヤ6
  6
CONTINUOUS
 62
    3
 10
1056.0904893335
 20
636.1812329156844
 40
1.6000000000000001
 50
95
 51
164.506032
  0
ARC
  8
_0-7_レイヤ6
  6
CONTINUOUS
 62
    3
 10
1056.0904893335
 20
630.62478491568436
 40
1.6000000000000001
 50
195.493968
 51
265
  0
LINE
  8
_0-7_レイヤ6
  6
CONTINUOUS
 62
    3
 10
1057.4125383334999
 20
642.40300891568427
 11
1058.9125383334999
 21
642.40300891568427
  0
LINE
  8
_0-7_レイヤ6
  6
CONTINUOUS
 62
    3
 10
1057.4125383334999
 20
642.40300891568427
 11
1057.4125383334999
 21
624.40300891568427
  0
LINE
  8
_0-7_レイヤ6
  6
CONTINUOUS
 62
    3
 10
1057.4125383334999
 20
624.40300891568427
 11
1058.9125383334999
 21
624.40300891568427
  0
LINE
  8
_0-7_レイヤ6
  6
CONTINUOUS
 62
    3
 10
1058.9125383334999
 20
642.40300891568427
 11
1058.9125383334999
 21
624.40300891568427
  0
LINE
  8
_0-7_レイヤ6
  6
CONTINUOUS
 62
    3
 10
1081.7697725515
 20
636.9413723106843
 11
1076.7129173335002
 21
638.78191691568441
  0
LINE
  8
_0-7_レイヤ6
  6
CONTINUOUS
 62
    3
 10
1081.7697725515
 20
629.86464552078428
 11
1076.7129173335002
 21
628.02410091568436
  0
ARC
  8
_0-7_レイヤ6
  6
CONTINUOUS
 62
    3
 10
1042.7958418335002
 20
652.60295891568421
 40
6.0833329999999997
 50
143.83135799999999
 51
216.16864200000001
  0
ARC
  8
_0-7_レイヤ6
  6
CONTINUOUS
 62
    3
 10
1038.6921518335002
 20
649.60295891568421
 40
1
 50
216.16864200000001
 51
270
  0
ARC
  8
_0-7_レイヤ6
  6
CONTINUOUS
 62
    3
 10
1038.6921518335002
 20
655.60295891568421
 40
1
 50
90
 51
143.83135799999999
  0
LINE
  8
_0-7_レイヤ6
  6
CONTINUOUS
 62
    3
 10
1040.4625088335001
 20
658.60295891568421
 11
1041.2125088335001
 21
658.60295891568421
  0
ARC
  8
_0-7_レイヤ6
  6
CONTINUOUS
 62
    3
 10
1041.7125008335001
 20
656.90123891568442
 40
2
 50
145
 51
180
  0
LINE
  8
_0-7_レイヤ6
  6
CONTINUOUS
 62
    3
 10
1040.4625088335001
 20
658.60295891568421
 11
1040.0741968335001
 21
658.04839191568431
  0
LINE
  8
_0-7_レイヤ6
  6
CONTINUOUS
 62
    3
 10
1040.4625088335001
 20
658.60295891568421
 11
1040.4625088335001
 21
646.60295891568421
  0
LINE
  8
_0-7_レイヤ6
  6
CONTINUOUS
 62
    3
 10
1041.2125088335001
 20
658.60295891568421
 11
1041.2125088335001
 21
646.60295891568421
  0
LINE
  8
_0-7_レイヤ6
  6
CONTINUOUS
 62
    3
 10
1040.4625088335001
 20
646.60295891568421
 11
1041.2125088335001
 21
646.60295891568421
  0
LINE
  8
_0-7_レイヤ6
  6
CONTINUOUS
 62
    3
 10
1041.2125088335001
 20
657.60295891568421
 11
1042.2125088335001
 21
657.60295891568421
  0
LINE
  8
_0-7_レイヤ6
  6
CONTINUOUS
 62
    3
 10
1041.2125088335001
 20
647.60295891568421
 11
1042.2125088335001
 21
647.60295891568421
  0
LINE
  8
_0-7_レイヤ6
  6
CONTINUOUS
 62
    3
 10
1049.6136768335
 20
652.60295891568421
 11
1049.5666968334999
 21
651.0029589156843
  0
LINE
  8
_0-7_レイヤ6
  6
CONTINUOUS
 62
    3
 10
1049.6136768335
 20
652.60295891568421
 11
1048.7199158335002
 21
651.0029589156843
  0
LINE
  8
_0-7_レイヤ6
  6
CONTINUOUS
 62
    3
 10
1046.7444748335001
 20
654.20295891568435
 11
1047.7791758335002
 21
654.20295891568435
  0
LINE
  8
_0-7_レイヤ6
  6
CONTINUOUS
 62
    3
 10
1048.6259558335
 20
654.20295891568435
 11
1054.7887488335
 21
654.20295891568435
  0
LINE
  8
_0-7_レイヤ6
  6
CONTINUOUS
 62
    3
 10
1045.8037338335002
 20
651.0029589156843
 11
1046.8384348334998
 21
651.0029589156843
  0
LINE
  8
_0-7_レイヤ6
  6
CONTINUOUS
 62
    3
 10
1047.6852148335001
 20
651.0029589156843
 11
1048.7199158335002
 21
651.0029589156843
  0
LINE
  8
_0-7_レイヤ6
  6
CONTINUOUS
 62
    3
 10
1049.5666968334999
 20
651.0029589156843
 11
1054.7887488335
 21
651.0029589156843
  0
LINE
  8
_0-7_レイヤ6
  6
CONTINUOUS
 62
    3
 10
1046.7444748335001
 20
654.20295891568435
 11
1045.8037338335002
 21
651.0029589156843
  0
LINE
  8
_0-7_レイヤ6
  6
CONTINUOUS
 62
    3
 10
1046.3210838334999
 20
654.93629191568425
 11
1046.7444748335001
 21
654.20295891568435
  0
LINE
  8
_0-7_レイヤ6
  6
CONTINUOUS
 62
    3
 10
1046.3210838334999
 20
654.93629191568425
 11
1045.8976938334999
 21
654.20295891568435
  0
LINE
  8
_0-7_レイヤ6
  6
CONTINUOUS
 62
    3
 10
1038.6921518335002
 20
656.60295891568421
 11
1039.7125088335001
 21
656.60295891568421
  0
ARC
  8
_0-7_レイヤ6
  6
CONTINUOUS
 62
    3
 10
1041.7123628334998
 20
648.30487591568431
 40
2
 50
180
 51
215
  0
LINE
  8
_0-7_レイヤ6
  6
CONTINUOUS
 62
    3
 10
1039.7125008335001
 20
656.90123891568442
 11
1039.7123628334998
 21
648.30487591568431
  0
LINE
  8
_0-7_レイヤ6
  6
CONTINUOUS
 62
    3
 10
1038.6921518335002
 20
648.60295891568421
 11
1039.7125088335001
 21
648.60295891568421
  0
LINE
  8
_0-7_レイヤ6
  6
CONTINUOUS
 62
    3
 10
1053.6762678334999
 20
652.60295891568421
 11
1055.7125088335001
 21
652.60295891568421
  0
LINE
  8
_0-7_レイヤ6
  6
CONTINUOUS
 62
    3
 10
1050.1125088335002
 20
651.0029589156843
 11
1050.1125088335002
 21
654.20294391568427
  0
LINE
  8
_0-7_レイヤ6
  6
CONTINUOUS
 62
    3
 10
1055.7125088335001
 20
652.60295891568421
 11
1054.7887488335
 21
654.20295791568424
  0
LINE
  8
_0-7_レイヤ6
  6
CONTINUOUS
 62
    3
 10
1055.7125088335001
 20
652.60295891568421
 11
1054.7887488335
 21
651.0029589156843
  0
ARC
  8
_0-7_レイヤ6
  6
CONTINUOUS
 62
    3
 10
1055.4771788335001
 20
652.57790091568427
 40
1.764848
 50
112.959125
 51
179.18645699999999
  0
ARC
  8
_0-7_レイヤ6
  6
CONTINUOUS
 62
    3
 10
1054.2380248334998
 20
646.57054691568442
 40
6.0552590000000004
 50
94.978778000000005
 51
132.9462
  0
LINE
  8
_0-7_レイヤ6
  6
CONTINUOUS
 62
    3
 10
1048.6259558335
 20
654.20295891568435
 11
1047.6852148335001
 21
651.0029589156843
  0
LINE
  8
_0-7_レイヤ6
  6
CONTINUOUS
 62
    3
 10
1047.7791758335002
 20
654.20295891568435
 11
1046.8384348334998
 21
651.0029589156843
  0
LINE
  8
_0-7_レイヤ6
  6
CONTINUOUS
 62
    3
 10
1048.2025658335001
 20
654.93629191568425
 11
1047.2618248335002
 21
650.2696259156844
  0
LINE
  8
_0-7_レイヤ6
  6
CONTINUOUS
 62
    3
 10
1048.2025658335001
 20
654.93629191568425
 11
1048.6259558335
 21
654.20295891568435
  0
LINE
  8
_0-7_レイヤ6
  6
CONTINUOUS
 62
    3
 10
1048.2025658335001
 20
654.93629191568425
 11
1047.7791758335002
 21
654.20295891568435
  0
LINE
  8
_0-7_レイヤ6
  6
CONTINUOUS
 62
    3
 10
1047.2618248335002
 20
650.2696259156844
 11
1047.6852148335001
 21
651.0029589156843
  0
LINE
  8
_0-7_レイヤ6
  6
CONTINUOUS
 62
    3
 10
1046.8384348334998
 20
651.0029589156843
 11
1047.2618248335002
 21
650.2696259156844
  0
LINE
  8
_0-7_レイヤ6
  6
CONTINUOUS
 62
    3
 10
1049.6136768335
 20
652.60295891568421
 11
1049.1433068335
 21
650.2696259156844
  0
LINE
  8
_0-7_レイヤ6
  6
CONTINUOUS
 62
    3
 10
1049.1433068335
 20
650.2696259156844
 11
1049.5666968334999
 21
651.0029589156843
  0
LINE
  8
_0-7_レイヤ6
  6
CONTINUOUS
 62
    3
 10
1048.7199158335002
 20
651.0029589156843
 11
1049.1433068335
 21
650.2696259156844
  0
LINE
  8
_0-7_レイヤ6
  6
CONTINUOUS
 62
    3
 10
1040.4625088335001
 20
646.60295891568421
 11
1040.0740588335002
 21
647.15772291568442
  0
LINE
  8
_0-7_レイヤ6
  6
DOT_17
 62
    3
 10
1044.9569528335001
 20
651.0029589156843
 11
1043.9222518335
 21
651.0029589156843
  0
LINE
  8
_0-7_レイヤ6
  6
DOT_17
 62
    3
 10
1044.9569528335001
 20
651.0029589156843
 11
1045.3803438334999
 21
650.2696259156844
  0
LINE
  8
_0-7_レイヤ6
  6
DOT_17
 62
    3
 10
1042.9815118335
 20
654.20295891568435
 11
1044.0162128335
 21
654.20295891568435
  0
LINE
  8
_0-7_レイヤ6
  6
DOT_17
 62
    3
 10
1042.2125088335001
 20
651.0029589156843
 11
1043.0754718335002
 21
651.0029589156843
  0
LINE
  8
_0-7_レイヤ6
  6
DOT_17
 62
    3
 10
1044.8629928334999
 20
654.20295891568435
 11
1043.9222518335
 21
651.0029589156843
  0
LINE
  8
_0-7_レイヤ6
  6
DOT_17
 62
    3
 10
1044.0162128335
 20
654.20295891568435
 11
1043.0754718335002
 21
651.0029589156843
  0
LINE
  8
_0-7_レイヤ6
  6
DOT_17
 62
    3
 10
1044.4396028335
 20
654.93629191568425
 11
1043.4988618335001
 21
650.2696259156844
  0
LINE
  8
_0-7_レイヤ6
  6
DOT_17
 62
    3
 10
1044.4396028335
 20
654.93629191568425
 11
1044.8629928334999
 21
654.20295891568435
  0
LINE
  8
_0-7_レイヤ6
  6
DOT_17
 62
    3
 10
1044.4396028335
 20
654.93629191568425
 11
1044.0162128335
 21
654.20295891568435
  0
LINE
  8
_0-7_レイヤ6
  6
DOT_17
 62
    3
 10
1043.4988618335001
 20
650.2696259156844
 11
1043.9222518335
 21
651.0029589156843
  0
LINE
  8
_0-7_レイヤ6
  6
DOT_17
 62
    3
 10
1043.0754718335002
 20
651.0029589156843
 11
1043.4988618335001
 21
650.2696259156844
  0
LINE
  8
_0-7_レイヤ6
  6
DOT_17
 62
    3
 10
1042.2125088335001
 20
651.58713891568436
 11
1042.9815118335
 21
654.20295891568435
  0
LINE
  8
_0-7_レイヤ6
  6
DOT_17
 62
    3
 10
1042.2125088335001
 20
653.22183691568421
 11
1042.5581208335002
 21
654.93629191568425
  0
LINE
  8
_0-7_レイヤ6
  6
DOT_17
 62
    3
 10
1042.2125088335001
 20
654.33767391568426
 11
1042.5581208335002
 21
654.93629191568425
  0
LINE
  8
_0-7_レイヤ6
  6
DOT_17
 62
    3
 10
1042.5581208335002
 20
654.93629191568425
 11
1042.9815118335
 21
654.20295891568435
  0
LINE
  8
_0-7_レイヤ6
  6
DOT_17
 62
    3
 10
1044.8629928334999
 20
654.20295891568435
 11
1045.4125088334999
 21
654.20295891568435
  0
LINE
  8
_0-7_レイヤ6
  6
CONTINUOUS
 62
    3
 10
1045.4125088334999
 20
654.20295891568435
 11
1045.8976938334999
 21
654.20295891568435
  0
LINE
  8
_0-7_レイヤ6
  6
DOT_17
 62
    3
 10
1045.4125088334999
 20
652.55256629968426
 11
1044.9569528335001
 21
651.0029589156843
  0
LINE
  8
_0-7_レイヤ6
  6
CONTINUOUS
 62
    3
 10
1045.8976938334999
 20
654.20295891568435
 11
1045.4125088334999
 21
652.55256629968426
  0
LINE
  8
_0-7_レイヤ6
  6
CONTINUOUS
 62
    3
 10
1046.3210838334999
 20
654.93629191568425
 11
1045.4125088334999
 21
650.42918467998425
  0
LINE
  8
_0-7_レイヤ6
  6
CONTINUOUS
 62
    3
 10
1045.4125088334999
 20
650.32533733058426
 11
1045.8037338335002
 21
651.0029589156843
  0
ARC
  8
_0-7_レイヤ6
  6
CONTINUOUS
 62
    3
 10
779.87354780300006
 20
608.42404839068422
 40
19.399999999999999
 50
345
 51
13.956251751399998
  0
ARC
  8
_0-7_レイヤ6
  6
CONTINUOUS
 62
    3
 10
1056.8914193585001
 20
686.7302740800842
 40
19.399999999999999
 50
256.04374824859997
 51
285
  0
LINE
  8
_0-7_レイヤ6
  6
CONTINUOUS
 62
    3
 10
804.91250883300006
 20
613.10295891568421
 11
806.91250883300006
 21
603.40295891568439
  0
LINE
  8
_0-7_レイヤ6
  6
CONTINUOUS
 62
    3
 10
804.91250883300006
 20
613.10295891568421
 11
804.91250883300006
 21
603.40295891568439
  0
LINE
  8
_0-7_レイヤ6
  6
CONTINUOUS
 62
    3
 10
1052.2125088335001
 20
660.40295891568439
 11
1061.9125088334999
 21
658.40295891568439
  0
LINE
  8
_0-7_レイヤ6
  6
CONTINUOUS
 62
    3
 10
1061.9125088334999
 20
660.40295891568439
 11
1052.2125088335001
 21
660.40295891568439
  0
LINE
  8
_0-7_レイヤ6
  6
CONTINUOUS
 62
    3
 10
1052.2125088335001
 20
660.40295891568439
 11
1052.2125088335001
 21
658.40295891568439
  0
ARC
  8
_0-7_レイヤ6
  6
CONTINUOUS
 62
    3
 10
812.91250883300006
 20
622.5196259156844
 40
6.0833329999999997
 50
53.831358000000002
 51
126.16864200000002
  0
ARC
  8
_0-7_レイヤ6
  6
CONTINUOUS
 62
    3
 10
815.91250883300006
 20
626.62331591568432
 40
1
 50
0
 51
53.831358000000002
  0
ARC
  8
_0-7_レイヤ6
  6
CONTINUOUS
 62
    3
 10
809.91250883300006
 20
626.62331591568432
 40
1
 50
126.16864200000002
 51
180
  0
LINE
  8
_0-7_レイヤ6
  6
CONTINUOUS
 62
    3
 10
806.91250883300006
 20
624.85295891568421
 11
806.91250883300006
 21
624.10295891568421
  0
ARC
  8
_0-7_レイヤ6
  6
CONTINUOUS
 62
    3
 10
808.61422883299997
 20
623.60296691568442
 40
2
 50
90
 51
125.00000000000001
  0
LINE
  8
_0-7_レイヤ6
  6
CONTINUOUS
 62
    3
 10
806.91250883300006
 20
624.85295891568421
 11
807.46707583299997
 21
625.24127091568425
  0
LINE
  8
_0-7_レイヤ6
  6
CONTINUOUS
 62
    3
 10
806.91250883300006
 20
624.85295891568421
 11
818.91250883300006
 21
624.85295891568421
  0
LINE
  8
_0-7_レイヤ6
  6
CONTINUOUS
 62
    3
 10
806.91250883300006
 20
624.10295891568421
 11
818.91250883300006
 21
624.10295891568421
  0
LINE
  8
_0-7_レイヤ6
  6
CONTINUOUS
 62
    3
 10
818.91250883300006
 20
624.85295891568421
 11
818.91250883300006
 21
624.10295891568421
  0
LINE
  8
_0-7_レイヤ6
  6
CONTINUOUS
 62
    3
 10
807.91250883300006
 20
624.10295891568421
 11
807.91250883300006
 21
623.10295891568421
  0
LINE
  8
_0-7_レイヤ6
  6
CONTINUOUS
 62
    3
 10
817.91250883300006
 20
624.10295891568421
 11
817.91250883300006
 21
623.10295891568421
  0
LINE
  8
_0-7_レイヤ6
  6
CONTINUOUS
 62
    3
 10
812.91250883300006
 20
615.70179091568434
 11
814.51250883299997
 21
615.74877091568442
  0
LINE
  8
_0-7_レイヤ6
  6
CONTINUOUS
 62
    3
 10
812.91250883300006
 20
615.70179091568434
 11
814.51250883299997
 21
616.59555191568438
  0
LINE
  8
_0-7_レイヤ6
  6
CONTINUOUS
 62
    3
 10
811.31250883300004
 20
618.5709929156842
 11
811.31250883300004
 21
617.53629191568439
  0
LINE
  8
_0-7_レイヤ6
  6
CONTINUOUS
 62
    3
 10
811.31250883300004
 20
616.68951191568431
 11
811.31250883300004
 21
610.52671891568434
  0
LINE
  8
_0-7_レイヤ6
  6
CONTINUOUS
 62
    3
 10
814.51250883299997
 20
619.51173391568432
 11
814.51250883299997
 21
618.47703291568428
  0
LINE
  8
_0-7_レイヤ6
  6
CONTINUOUS
 62
    3
 10
814.51250883299997
 20
617.6302529156842
 11
814.51250883299997
 21
616.59555191568438
  0
LINE
  8
_0-7_レイヤ6
  6
CONTINUOUS
 62
    3
 10
814.51250883299997
 20
615.74877091568442
 11
814.51250883299997
 21
610.52671891568434
  0
LINE
  8
_0-7_レイヤ6
  6
CONTINUOUS
 62
    3
 10
811.31250883300004
 20
618.5709929156842
 11
814.51250883299997
 21
619.51173391568432
  0
LINE
  8
_0-7_レイヤ6
  6
CONTINUOUS
 62
    3
 10
810.57917583300002
 20
618.99438391568424
 11
811.31250883300004
 21
618.5709929156842
  0
LINE
  8
_0-7_レイヤ6
  6
CONTINUOUS
 62
    3
 10
810.57917583300002
 20
618.99438391568424
 11
811.31250883300004
 21
619.41777391568439
  0
LINE
  8
_0-7_レイヤ6
  6
CONTINUOUS
 62
    3
 10
808.91250883300006
 20
626.62331591568432
 11
808.91250883300006
 21
625.60295891568421
  0
ARC
  8
_0-7_レイヤ6
  6
CONTINUOUS
 62
    3
 10
817.21059183299997
 20
623.6031049156843
 40
2
 50
55.000000000000007
 51
90
  0
LINE
  8
_0-7_レイヤ6
  6
CONTINUOUS
 62
    3
 10
808.61422883299997
 20
625.60296691568442
 11
817.21059183299997
 21
625.6031049156843
  0
LINE
  8
_0-7_レイヤ6
  6
CONTINUOUS
 62
    3
 10
816.91250883300006
 20
626.62331591568432
 11
816.91250883300006
 21
625.60295891568421
  0
LINE
  8
_0-7_レイヤ6
  6
CONTINUOUS
 62
    3
 10
812.91250883300006
 20
611.63919991568423
 11
812.91250883300006
 21
609.60295891568421
  0
LINE
  8
_0-7_レイヤ6
  6
CONTINUOUS
 62
    3
 10
814.51250883299997
 20
615.20295891568435
 11
811.312523833
 21
615.20295891568435
  0
LINE
  8
_0-7_レイヤ6
  6
CONTINUOUS
 62
    3
 10
812.91250883300006
 20
609.60295891568421
 11
811.31250983300004
 21
610.52671891568434
  0
LINE
  8
_0-7_レイヤ6
  6
CONTINUOUS
 62
    3
 10
812.91250883300006
 20
609.60295891568421
 11
814.51250883299997
 21
610.52671891568434
  0
ARC
  8
_0-7_レイヤ6
  6
CONTINUOUS
 62
    3
 10
812.93756683300001
 20
609.83828891568442
 40
1.764848
 50
90.813542999999996
 51
157.040875
  0
ARC
  8
_0-7_レイヤ6
  6
CONTINUOUS
 62
    3
 10
818.94492083299997
 20
611.07744291568429
 40
6.0552590000000004
 50
137.05380000000002
 51
175.02122199999999
  0
LINE
  8
_0-7_レイヤ6
  6
CONTINUOUS
 62
    3
 10
811.31250883300004
 20
616.68951191568431
 11
814.51250883299997
 21
617.6302529156842
  0
LINE
  8
_0-7_レイヤ6
  6
CONTINUOUS
 62
    3
 10
811.31250883300004
 20
617.53629191568439
 11
814.51250883299997
 21
618.47703291568428
  0
LINE
  8
_0-7_レイヤ6
  6
CONTINUOUS
 62
    3
 10
810.57917583300002
 20
617.11290191568423
 11
815.24584183299999
 21
618.05364291568435
  0
LINE
  8
_0-7_レイヤ6
  6
CONTINUOUS
 62
    3
 10
810.57917583300002
 20
617.11290191568423
 11
811.31250883300004
 21
616.68951191568431
  0
LINE
  8
_0-7_レイヤ6
  6
CONTINUOUS
 62
    3
 10
810.57917583300002
 20
617.11290191568423
 11
811.31250883300004
 21
617.53629191568439
  0
LINE
  8
_0-7_レイヤ6
  6
CONTINUOUS
 62
    3
 10
815.24584183299999
 20
618.05364291568435
 11
814.51250883299997
 21
617.6302529156842
  0
LINE
  8
_0-7_レイヤ6
  6
CONTINUOUS
 62
    3
 10
814.51250883299997
 20
618.47703291568428
 11
815.24584183299999
 21
618.05364291568435
  0
LINE
  8
_0-7_レイヤ6
  6
CONTINUOUS
 62
    3
 10
812.91250883300006
 20
615.70179091568434
 11
815.24584183299999
 21
616.17216091568434
  0
LINE
  8
_0-7_レイヤ6
  6
CONTINUOUS
 62
    3
 10
815.24584183299999
 20
616.17216091568434
 11
814.51250883299997
 21
615.74877091568442
  0
LINE
  8
_0-7_レイヤ6
  6
CONTINUOUS
 62
    3
 10
814.51250883299997
 20
616.59555191568438
 11
815.24584183299999
 21
616.17216091568434
  0
LINE
  8
_0-7_レイヤ6
  6
CONTINUOUS
 62
    3
 10
818.91250883300006
 20
624.85295891568421
 11
818.35774483299997
 21
625.24140891568436
  0
LINE
  8
_0-7_レイヤ6
  6
CONTINUOUS
 62
    3
 10
810.57917583300002
 20
618.99438391568424
 11
813.5980931332
 21
619.60295891568421
  0
LINE
  8
_0-7_レイヤ6
  6
CONTINUOUS
 62
    3
 10
815.24584183299999
 20
619.93512391568424
 11
814.67051516980007
 21
619.60295891568421
  0
LINE
  8
_0-7_レイヤ6
  6
CONTINUOUS
 62
    3
 10
814.67051516980007
 20
619.60295891568421
 11
814.51250883299997
 21
619.51173391568432
  0
LINE
  8
_0-7_レイヤ6
  6
CONTINUOUS
 62
    3
 10
811.31250883300004
 20
619.90295891568439
 11
811.31250883300004
 21
619.41777391568439
  0
LINE
  8
_0-7_レイヤ6
  6
CONTINUOUS
 62
    3
 10
811.31250883300004
 20
619.41777391568439
 11
812.96290144910006
 21
619.90295891568439
  0
LINE
  8
_0-7_レイヤ6
  6
CONTINUOUS
 62
    3
 10
815.08628306880007
 20
619.90295891568439
 11
815.24584183299999
 21
619.93512391568424
  0
LINE
  8
_0-7_レイヤ6
  6
CONTINUOUS
 62
    3
 10
813.5980931332
 20
619.60295891568421
 11
815.08628306880007
 21
619.90295891568439
  0
LINE
  8
_0-7_レイヤ6
  6
DOT_17
 62
    3
 10
814.51250883299997
 20
620.35851491568428
 11
814.51250883299997
 21
621.39321591568432
  0
LINE
  8
_0-7_レイヤ6
  6
DOT_17
 62
    3
 10
814.51250883299997
 20
620.35851491568428
 11
815.24584183299999
 21
619.93512391568424
  0
LINE
  8
_0-7_レイヤ6
  6
DOT_17
 62
    3
 10
811.31250883300004
 20
622.33395591568433
 11
811.31250883300004
 21
621.29925491568429
  0
LINE
  8
_0-7_レイヤ6
  6
DOT_17
 62
    3
 10
814.51250883299997
 20
623.10295891568421
 11
814.51250883299997
 21
622.2399959156844
  0
LINE
  8
_0-7_レイヤ6
  6
DOT_17
 62
    3
 10
811.31250883300004
 20
620.45247491568421
 11
814.51250883299997
 21
621.39321591568432
  0
LINE
  8
_0-7_レイヤ6
  6
DOT_17
 62
    3
 10
811.31250883300004
 20
621.29925491568429
 11
814.51250883299997
 21
622.2399959156844
  0
LINE
  8
_0-7_レイヤ6
  6
DOT_17
 62
    3
 10
810.57917583300002
 20
620.87586491568436
 11
815.24584183299999
 21
621.81660591568425
  0
LINE
  8
_0-7_レイヤ6
  6
DOT_17
 62
    3
 10
810.57917583300002
 20
620.87586491568436
 11
811.31250883300004
 21
620.45247491568421
  0
LINE
  8
_0-7_レイヤ6
  6
DOT_17
 62
    3
 10
810.57917583300002
 20
620.87586491568436
 11
811.31250883300004
 21
621.29925491568429
  0
LINE
  8
_0-7_レイヤ6
  6
DOT_17
 62
    3
 10
815.24584183299999
 20
621.81660591568425
 11
814.51250883299997
 21
621.39321591568432
  0
LINE
  8
_0-7_レイヤ6
  6
DOT_17
 62
    3
 10
814.51250883299997
 20
622.2399959156844
 11
815.24584183299999
 21
621.81660591568425
  0
LINE
  8
_0-7_レイヤ6
  6
DOT_17
 62
    3
 10
813.92832883300002
 20
623.10295891568421
 11
811.31250883300004
 21
622.33395591568433
  0
LINE
  8
_0-7_レイヤ6
  6
DOT_17
 62
    3
 10
812.29363083300007
 20
623.10295891568421
 11
810.57917583300002
 21
622.75734691568437
  0
LINE
  8
_0-7_レイヤ6
  6
DOT_17
 62
    3
 10
810.57917583300002
 20
622.75734691568437
 11
811.31250883300004
 21
622.33395591568433
  0
LINE
  8
_0-7_レイヤ6
  6
DOT_17
 62
    3
 10
811.17779383300001
 20
623.10295891568421
 11
810.57917583300002
 21
622.75734691568437
  0
LINE
  8
_0-7_レイヤ6
  6
DOT_17
 62
    3
 10
811.31250883300004
 20
620.45247491568421
 11
811.31250883300004
 21
619.90295891568439
  0
LINE
  8
_0-7_レイヤ6
  6
DOT_17
 62
    3
 10
812.96290144910006
 20
619.90295891568439
 11
814.51250883299997
 21
620.35851491568428
  0
LINE
  8
_0-a_レイヤ9
  6
CENTER
 62
    3
 10
1048.7625383334998
 20
633.40300891568427
 11
1114.5134909745002
 21
633.40300891568427
  0
LINE
  8
_0-a_レイヤ9
  6
CENTER
 62
    3
 10
831.91250883300006
 20
616.55295891568426
 11
831.91250883300006
 21
550.8020062737844
  0
LINE
  8
_0-a_レイヤ9
  6
CENTER
 62
    3
 10
961.91250883300006
 20
500.99914834798432
 11
961.91250883300006
 21
652.94819910748424
  0
LINE
  8
_0-a_レイヤ9
  6
CONTINUOUS
 62
    3
 10
812.91250883300006
 20
633.40295891568439
 11
812.91250883300006
 21
643.40295891568439
  0
LINE
  8
_0-a_レイヤ9
  6
CONTINUOUS
 62
    3
 10
812.91250883300006
 20
643.40295891568439
 11
812.91250883300006
 21
648.20295891568435
  0
LINE
  8
_0-a_レイヤ9
  6
CONTINUOUS
 62
    3
 10
796.91250883300006
 20
628.40295891568439
 11
796.91250883300006
 21
643.40295891568439
  0
LINE
  8
_0-a_レイヤ9
  6
CONTINUOUS
 62
    3
 10
796.91250883300006
 20
643.40295891568439
 11
796.91250883300006
 21
648.20295891568435
  0
LINE
  8
_0-a_レイヤ9
  6
CONTINUOUS
 62
    3
 10
839.91250883300006
 20
623.40295891568439
 11
854.3462655628
 21
648.40295891568439
  0
LINE
  8
_0-a_レイヤ9
  6
CONTINUOUS
 62
    3
 10
897.21196804839997
 20
619.75298566578431
 11
913.75303781650007
 21
648.40295891568439
  0
CIRCLE
  8
_0-a_レイヤ9
  6
CONTINUOUS
 62
    3
 10
916.25303781650007
 20
652.73308593458432
 40
5
  0
CIRCLE
  8
_0-a_レイヤ9
  6
CONTINUOUS
 62
    3
 10
856.8462655628
 20
652.73308593458432
 40
5
  0
CIRCLE
  8
_0-a_レイヤ9
  6
CONTINUOUS
 62
    3
 10
915.95951421680002
 20
632.73308593458432
 40
5
  0
LINE
  8
_0-a_レイヤ9
  6
CONTINUOUS
 62
    3
 10
913.45951421680002
 20
628.40295891568439
 11
901.91250883300006
 21
608.40295891568439
  0
CIRCLE
  8
_0-a_レイヤ9
  6
CONTINUOUS
 62
    3
 10
854.23782638030002
 20
584.07283189678424
 40
5
  0
LINE
  8
_0-a_レイヤ9
  6
CONTINUOUS
 62
    3
 10
840.91250883300006
 20
607.15295891568439
 11
851.73782638030002
 21
588.40295891568439
  0
LINE
  8
_0-a_レイヤ9
  6
CONTINUOUS
 62
    3
 10
831.91250883300006
 20
611.20295891568435
 11
812.97542000359999
 21
578.40295891568439
  0
CIRCLE
  8
_0-a_レイヤ9
  6
CONTINUOUS
 62
    3
 10
810.47542000359999
 20
574.07283189678424
 40
5
  0
LINE
  8
_0-a_レイヤ9
  6
CONTINUOUS
 62
    3
 10
828.09482833300001
 20
565.53566041568433
 11
821.09000985600005
 21
553.40295891568439
  0
CIRCLE
  8
_0-a_レイヤ9
  6
CONTINUOUS
 62
    3
 10
818.59000985600005
 20
549.07283189678424
 40
5
  0
CIRCLE
  8
_0-a_レイヤ9
  6
CONTINUOUS
 62
    3
 10
973.67165217100001
 20
633.73308593458432
 40
5
  0
LINE
  8
_0-a_レイヤ9
  6
CONTINUOUS
 62
    3
 10
964.01250883299997
 20
617.0029589156843
 11
971.17165217100001
 21
629.40295891568439
  0
LINE
  8
_0-a_レイヤ9
  6
CONTINUOUS
 62
    3
 10
798.40365368790003
 20
611.88824041568432
 11
781.95766874599997
 21
583.40295891568439
  0
LINE
  8
_0-a_レイヤ9
  6
CONTINUOUS
 62
    3
 10
1060.4125088334999
 20
648.40295891568439
 11
1069.5501768595
 21
664.22986419948438
  0
CIRCLE
  8
_0-a_レイヤ9
  6
CONTINUOUS
 62
    3
 10
1071.6504851545001
 20
668.55999121848436
 40
5
  0
LINE
  8
_0-a_レイヤ9
  6
CONTINUOUS
 62
    3
 10
1121.9125088334999
 20
633.40295891568439
 11
1131.9125088334999
 21
633.40295891568439
  0
LINE
  8
_0-a_レイヤ9
  6
CONTINUOUS
 62
    3
 10
1131.9125088334999
 20
633.40295891568439
 11
1136.7125088335001
 21
633.40295891568439
  0
LINE
  8
_0-a_レイヤ9
  6
CONTINUOUS
 62
    3
 10
864.41250883300006
 20
603.40295891568439
 11
1131.9125088334999
 21
603.40295891568439
  0
LINE
  8
_0-a_レイヤ9
  6
CONTINUOUS
 62
    3
 10
1131.9125088334999
 20
603.40295891568439
 11
1136.7125088335001
 21
603.40295891568439
  0
LINE
  8
_0-a_レイヤ9
  6
CONTINUOUS
 62
    3
 10
906.91250883300006
 20
559.40295891568439
 11
916.05017685910002
 21
575.22986419948438
  0
CIRCLE
  8
_0-a_レイヤ9
  6
CONTINUOUS
 62
    3
 10
918.15048515399997
 20
579.55999121848436
 40
5
  0
LINE
  8
_0-a_レイヤ9
  6
CONTINUOUS
 62
    3
 10
861.91250883300006
 20
498.40295891568434
 11
861.91250883300006
 21
488.40295891568434
  0
LINE
  8
_0-a_レイヤ9
  6
CONTINUOUS
 62
    3
 10
861.91250883300006
 20
488.40295891568434
 11
861.91250883300006
 21
483.60295891568427
  0
LINE
  8
_0-a_レイヤ9
  6
CONTINUOUS
 62
    3
 10
831.91250883300006
 20
488.40295891568434
 11
861.91250883300006
 21
488.40295891568434
  0
LINE
  8
_0-a_レイヤ9
  6
CONTINUOUS
 62
    3
 10
1061.9125088334999
 20
498.40295891568434
 11
1061.9125088334999
 21
488.40295891568434
  0
LINE
  8
_0-a_レイヤ9
  6
CONTINUOUS
 62
    3
 10
1061.9125088334999
 20
488.40295891568434
 11
1061.9125088334999
 21
483.60295891568427
  0
LINE
  8
_0-a_レイヤ9
  6
CONTINUOUS
 62
    3
 10
831.91250883300006
 20
548.40295891568439
 11
831.91250883300006
 21
488.40295891568434
  0
LINE
  8
_0-a_レイヤ9
  6
CONTINUOUS
 62
    3
 10
831.91250883300006
 20
488.40295891568434
 11
831.91250883300006
 21
483.60295891568427
  0
LINE
  8
_0-a_レイヤ9
  6
CONTINUOUS
 62
    3
 10
786.91250883300006
 20
603.40295891568439
 11
776.91250883300006
 21
603.40295891568439
  0
LINE
  8
_0-a_レイヤ9
  6
CONTINUOUS
 62
    3
 10
776.91250883300006
 20
603.40295891568439
 11
772.11250883299999
 21
603.40295891568439
  0
LINE
  8
_0-a_レイヤ9
  6
CONTINUOUS
 62
    3
 10
1061.9125088334999
 20
673.40295891568439
 11
1061.9125088334999
 21
683.40295891568439
  0
LINE
  8
_0-a_レイヤ9
  6
CONTINUOUS
 62
    3
 10
1061.9125088334999
 20
683.40295891568439
 11
1061.9125088334999
 21
688.20295891568435
  0
LINE
  8
_0-a_レイヤ9
  6
CONTINUOUS
 62
    3
 10
796.91250883300006
 20
688.40295891568439
 11
796.91250883300006
 21
698.40295891568439
  0
LINE
  8
_0-a_レイヤ9
  6
CONTINUOUS
 62
    3
 10
796.91250883300006
 20
698.40295891568439
 11
796.91250883300006
 21
703.20295891568435
  0
LINE
  8
_0-a_レイヤ9
  6
CONTINUOUS
 62
    3
 10
1061.9125088334999
 20
698.40295891568439
 11
1061.9125088334999
 21
713.40295891568439
  0
LINE
  8
_0-a_レイヤ9
  6
CONTINUOUS
 62
    3
 10
1061.9125088334999
 20
713.40295891568439
 11
1061.9125088334999
 21
718.20295891568435
  0
LINE
  8
_0-a_レイヤ9
  6
CONTINUOUS
 62
    3
 10
796.91250883300006
 20
698.40295891568439
 11
796.91250883300006
 21
713.40295891568439
  0
LINE
  8
_0-a_レイヤ9
  6
CONTINUOUS
 62
    3
 10
796.91250883300006
 20
713.40295891568439
 11
796.91250883300006
 21
718.20295891568435
  0
LINE
  8
_0-a_レイヤ9
  6
CONTINUOUS
 62
    3
 10
796.91250883300006
 20
643.40295891568439
 11
796.91250883300006
 21
683.40295891568439
  0
LINE
  8
_0-a_レイヤ9
  6
CONTINUOUS
 62
    3
 10
796.91250883300006
 20
683.40295891568439
 11
796.91250883300006
 21
688.20295891568435
  0
LINE
  8
_0-a_レイヤ9
  6
CONTINUOUS
 62
    3
 10
901.91250883300006
 20
623.40295891568439
 11
901.91250883300006
 21
683.40295891568439
  0
LINE
  8
_0-a_レイヤ9
  6
CONTINUOUS
 62
    3
 10
901.91250883300006
 20
683.40295891568439
 11
901.91250883300006
 21
688.20295891568435
  0
LINE
  8
_0-a_レイヤ9
  6
CONTINUOUS
 62
    3
 10
1042.2125088335001
 20
669.60295891568421
 11
1042.2125088335001
 21
683.40295891568439
  0
LINE
  8
_0-a_レイヤ9
  6
CONTINUOUS
 62
    3
 10
1042.2125088335001
 20
683.40295891568439
 11
1042.2125088335001
 21
688.20295891568435
  0
LINE
  8
_0-a_レイヤ9
  6
CONTINUOUS
 62
    3
 10
1052.2125088335001
 20
669.60295891568421
 11
1052.2125088335001
 21
683.40295891568439
  0
LINE
  8
_0-a_レイヤ9
  6
CONTINUOUS
 62
    3
 10
1052.2125088335001
 20
683.40295891568439
 11
1052.2125088335001
 21
688.20295891568435
  0
LINE
  8
_0-a_レイヤ9
  6
CONTINUOUS
 62
    3
 10
1061.9125088334999
 20
683.40295891568439
 11
1061.9125088334999
 21
698.40295891568439
  0
LINE
  8
_0-a_レイヤ9
  6
CONTINUOUS
 62
    3
 10
1061.9125088334999
 20
698.40295891568439
 11
1061.9125088334999
 21
703.20295891568435
  0
LINE
  8
_0-a_レイヤ9
  6
CONTINUOUS
 62
    3
 10
1042.2125088335001
 20
683.40295891568439
 11
1042.2125088335001
 21
698.40295891568439
  0
LINE
  8
_0-a_レイヤ9
  6
CONTINUOUS
 62
    3
 10
1042.2125088335001
 20
698.40295891568439
 11
1042.2125088335001
 21
703.20295891568435
  0
LINE
  8
_0-a_レイヤ9
  6
CONTINUOUS
 62
    3
 10
796.91250883300006
 20
623.10295891568421
 11
776.91250883300006
 21
623.10295891568421
  0
LINE
  8
_0-a_レイヤ9
  6
CONTINUOUS
 62
    3
 10
776.91250883300006
 20
623.10295891568421
 11
772.11250883299999
 21
623.10295891568421
  0
LINE
  8
_0-a_レイヤ9
  6
CONTINUOUS
 62
    3
 10
1061.9125088334999
 20
666.7256186975842
 11
1081.5162640455001
 21
686.32937391048426
  0
LINE
  8
_0-a_レイヤ9
  6
CONTINUOUS
 62
    3
 10
781.95766874599997
 20
583.40295891568439
 11
665.86833155099998
 21
583.40295891568439
  0
LINE
  8
_0-a_レイヤ9
  6
CONTINUOUS
 62
    3
 10
1026.9125088334999
 20
669.60295891568421
 11
1016.9125088335001
 21
669.60295891568421
  0
LINE
  8
_0-a_レイヤ9
  6
CONTINUOUS
 62
    3
 10
1016.9125088335001
 20
669.60295891568421
 11
1012.1125088335
 21
669.60295891568421
  0
LINE
  8
_0-a_レイヤ9
  6
CONTINUOUS
 62
    3
 10
1026.9125088334999
 20
652.60295891568421
 11
1016.9125088335001
 21
652.60295891568421
  0
LINE
  8
_0-a_レイヤ9
  6
CONTINUOUS
 62
    3
 10
1016.9125088335001
 20
652.60295891568421
 11
1012.1125088335
 21
652.60295891568421
  0
LINE
  8
_0-a_レイヤ9
  6
CONTINUOUS
 62
    3
 10
1042.2125088335001
 20
669.60295891568421
 11
776.91250883300006
 21
669.60295891568421
  0
LINE
  8
_0-a_レイヤ9
  6
CONTINUOUS
 62
    3
 10
776.91250883300006
 20
669.60295891568421
 11
772.11250883299999
 21
669.60295891568421
  0
LINE
  8
_0-a_レイヤ9
  6
CENTER
 62
    3
 10
812.91250883300006
 20
630.85295891568421
 11
812.91250883300006
 21
608.10295891568421
  0
LINE
  8
_0-a_レイヤ9
  6
CONTINUOUS
 62
    3
 10
812.91250883300006
 20
628.60295891568421
 11
821.28408773629997
 21
643.10295891568421
  0
CIRCLE
  8
_0-a_レイヤ9
  6
CONTINUOUS
 62
    3
 10
823.78408773629997
 20
647.43308593458437
 40
5
  0
LINE
  8
_0-a_レイヤ9
  6
CENTER
 62
    3
 10
1034.4625088335001
 20
652.60295891568421
 11
1057.2125088335001
 21
652.60295891568421
  0
LINE
  8
_0-a_レイヤ9
  6
CONTINUOUS
 62
    3
 10
796.91250883300006
 20
713.40295891568439
 11
1061.9125088334999
 21
713.40295891568439
  0
LINE
  8
_0-a_レイヤ9
  6
CONTINUOUS
 62
    3
 10
802.7080637908
 20
714.95587318628441
 11
796.91250883300006
 21
713.40295891568439
  0
LINE
  8
_0-a_レイヤ9
  6
CONTINUOUS
 62
    3
 10
796.91250883300006
 20
713.40295891568439
 11
802.7080637908
 21
711.85004464508438
  0
LINE
  8
_0-a_レイヤ9
  6
CONTINUOUS
 62
    3
 10
1056.1169538754998
 20
711.85004464508438
 11
1061.9125088334999
 21
713.40295891568439
  0
LINE
  8
_0-a_レイヤ9
  6
CONTINUOUS
 62
    3
 10
1061.9125088334999
 20
713.40295891568439
 11
1056.1169538754998
 21
714.95587318628441
  0
LINE
  8
_0-a_レイヤ9
  6
CONTINUOUS
 62
    3
 10
1061.9125088334999
 20
698.40295891568439
 11
1042.2125088335001
 21
698.40295891568439
  0
LINE
  8
_0-a_レイヤ9
  6
CONTINUOUS
 62
    3
 10
1056.1169538754998
 20
696.85004464508438
 11
1061.9125088334999
 21
698.40295891568439
  0
LINE
  8
_0-a_レイヤ9
  6
CONTINUOUS
 62
    3
 10
1061.9125088334999
 20
698.40295891568439
 11
1056.1169538754998
 21
699.95587318628441
  0
LINE
  8
_0-a_レイヤ9
  6
CONTINUOUS
 62
    3
 10
1048.0080637904998
 20
699.95587318628441
 11
1042.2125088335001
 21
698.40295891568439
  0
LINE
  8
_0-a_レイヤ9
  6
CONTINUOUS
 62
    3
 10
1042.2125088335001
 20
698.40295891568439
 11
1048.0080637904998
 21
696.85004464508438
  0
LINE
  8
_0-a_レイヤ9
  6
CONTINUOUS
 62
    3
 10
1042.2125088335001
 20
698.40295891568439
 11
796.91250883300006
 21
698.40295891568439
  0
LINE
  8
_0-a_レイヤ9
  6
CONTINUOUS
 62
    3
 10
1036.4169538755
 20
696.85004464508438
 11
1042.2125088335001
 21
698.40295891568439
  0
LINE
  8
_0-a_レイヤ9
  6
CONTINUOUS
 62
    3
 10
1042.2125088335001
 20
698.40295891568439
 11
1036.4169538755
 21
699.95587318628441
  0
LINE
  8
_0-a_レイヤ9
  6
CONTINUOUS
 62
    3
 10
802.7080637908
 20
699.95587318628441
 11
796.91250883300006
 21
698.40295891568439
  0
LINE
  8
_0-a_レイヤ9
  6
CONTINUOUS
 62
    3
 10
796.91250883300006
 20
698.40295891568439
 11
802.7080637908
 21
696.85004464508438
  0
LINE
  8
_0-a_レイヤ9
  6
CONTINUOUS
 62
    3
 10
796.91250883300006
 20
683.40295891568439
 11
901.91250883300006
 21
683.40295891568439
  0
LINE
  8
_0-a_レイヤ9
  6
CONTINUOUS
 62
    3
 10
802.7080637908
 20
684.95587318628441
 11
796.91250883300006
 21
683.40295891568439
  0
LINE
  8
_0-a_レイヤ9
  6
CONTINUOUS
 62
    3
 10
796.91250883300006
 20
683.40295891568439
 11
802.7080637908
 21
681.85004464508438
  0
LINE
  8
_0-a_レイヤ9
  6
CONTINUOUS
 62
    3
 10
896.11695387530006
 20
681.85004464508438
 11
901.91250883300006
 21
683.40295891568439
  0
LINE
  8
_0-a_レイヤ9
  6
CONTINUOUS
 62
    3
 10
901.91250883300006
 20
683.40295891568439
 11
896.11695387530006
 21
684.95587318628441
  0
LINE
  8
_0-a_レイヤ9
  6
CONTINUOUS
 62
    3
 10
901.91250883300006
 20
683.40295891568439
 11
1042.2125088335001
 21
683.40295891568439
  0
LINE
  8
_0-a_レイヤ9
  6
CONTINUOUS
 62
    3
 10
907.7080637908
 20
684.95587318628441
 11
901.91250883300006
 21
683.40295891568439
  0
LINE
  8
_0-a_レイヤ9
  6
CONTINUOUS
 62
    3
 10
901.91250883300006
 20
683.40295891568439
 11
907.7080637908
 21
681.85004464508438
  0
LINE
  8
_0-a_レイヤ9
  6
CONTINUOUS
 62
    3
 10
1036.4169538755
 20
681.85004464508438
 11
1042.2125088335001
 21
683.40295891568439
  0
LINE
  8
_0-a_レイヤ9
  6
CONTINUOUS
 62
    3
 10
1042.2125088335001
 20
683.40295891568439
 11
1036.4169538755
 21
684.95587318628441
  0
LINE
  8
_0-a_レイヤ9
  6
CONTINUOUS
 62
    3
 10
1131.9125088334999
 20
633.40295891568439
 11
1131.9125088334999
 21
603.40295891568439
  0
LINE
  8
_0-a_レイヤ9
  6
CONTINUOUS
 62
    3
 10
1133.4654231035001
 20
627.60740395798439
 11
1131.9125088334999
 21
633.40295891568439
  0
LINE
  8
_0-a_レイヤ9
  6
CONTINUOUS
 62
    3
 10
1131.9125088334999
 20
633.40295891568439
 11
1130.3595945625002
 21
627.60740395798439
  0
LINE
  8
_0-a_レイヤ9
  6
CONTINUOUS
 62
    3
 10
1130.3595945625002
 20
609.1985138733844
 11
1131.9125088334999
 21
603.40295891568439
  0
LINE
  8
_0-a_レイヤ9
  6
CONTINUOUS
 62
    3
 10
1131.9125088334999
 20
603.40295891568439
 11
1133.4654231035001
 21
609.1985138733844
  0
LINE
  8
_0-a_レイヤ9
  6
CONTINUOUS
 62
    3
 10
1016.9125088335001
 20
669.60295891568421
 11
1016.9125088335001
 21
652.60295891568421
  0
LINE
  8
_0-a_レイヤ9
  6
CONTINUOUS
 62
    3
 10
1018.4654231035
 20
663.80740395798421
 11
1016.9125088335001
 21
669.60295891568421
  0
LINE
  8
_0-a_レイヤ9
  6
CONTINUOUS
 62
    3
 10
1016.9125088335001
 20
669.60295891568421
 11
1015.3595945625001
 21
663.80740395798421
  0
LINE
  8
_0-a_レイヤ9
  6
CONTINUOUS
 62
    3
 10
1015.3595945625001
 20
658.39851387338422
 11
1016.9125088335001
 21
652.60295891568421
  0
LINE
  8
_0-a_レイヤ9
  6
CONTINUOUS
 62
    3
 10
1016.9125088335001
 20
652.60295891568421
 11
1018.4654231035
 21
658.39851387338422
  0
LINE
  8
_0-a_レイヤ9
  6
CONTINUOUS
 62
    3
 10
796.91250883300006
 20
643.40295891568439
 11
812.91250883300006
 21
643.40295891568439
  0
LINE
  8
_0-a_レイヤ9
  6
CONTINUOUS
 62
    3
 10
802.7080637908
 20
644.95587318628441
 11
796.91250883300006
 21
643.40295891568439
  0
LINE
  8
_0-a_レイヤ9
  6
CONTINUOUS
 62
    3
 10
796.91250883300006
 20
643.40295891568439
 11
802.7080637908
 21
641.85004464508438
  0
LINE
  8
_0-a_レイヤ9
  6
CONTINUOUS
 62
    3
 10
807.11695387530006
 20
641.85004464508438
 11
812.91250883300006
 21
643.40295891568439
  0
LINE
  8
_0-a_レイヤ9
  6
CONTINUOUS
 62
    3
 10
812.91250883300006
 20
643.40295891568439
 11
807.11695387530006
 21
644.95587318628441
  0
LINE
  8
_0-a_レイヤ9
  6
CONTINUOUS
 62
    3
 10
776.91250883300006
 20
669.60295891568421
 11
776.91250883300006
 21
623.10295891568421
  0
LINE
  8
_0-a_レイヤ9
  6
CONTINUOUS
 62
    3
 10
778.4654231037
 20
663.80740395798421
 11
776.91250883300006
 21
669.60295891568421
  0
LINE
  8
_0-a_レイヤ9
  6
CONTINUOUS
 62
    3
 10
776.91250883300006
 20
669.60295891568421
 11
775.35959456240005
 21
663.80740395798421
  0
LINE
  8
_0-a_レイヤ9
  6
CONTINUOUS
 62
    3
 10
775.35959456240005
 20
628.89851387338422
 11
776.91250883300006
 21
623.10295891568421
  0
LINE
  8
_0-a_レイヤ9
  6
CONTINUOUS
 62
    3
 10
776.91250883300006
 20
623.10295891568421
 11
778.4654231037
 21
628.89851387338422
  0
LINE
  8
_0-a_レイヤ9
  6
CONTINUOUS
 62
    3
 10
776.91250883300006
 20
623.10295891568421
 11
776.91250883300006
 21
603.40295891568439
  0
LINE
  8
_0-a_レイヤ9
  6
CONTINUOUS
 62
    3
 10
778.4654231037
 20
617.30740395798421
 11
776.91250883300006
 21
623.10295891568421
  0
LINE
  8
_0-a_レイヤ9
  6
CONTINUOUS
 62
    3
 10
776.91250883300006
 20
623.10295891568421
 11
775.35959456240005
 21
617.30740395798421
  0
LINE
  8
_0-a_レイヤ9
  6
CONTINUOUS
 62
    3
 10
775.35959456240005
 20
609.1985138733844
 11
776.91250883300006
 21
603.40295891568439
  0
LINE
  8
_0-a_レイヤ9
  6
CONTINUOUS
 62
    3
 10
776.91250883300006
 20
603.40295891568439
 11
778.4654231037
 21
609.1985138733844
  0
LINE
  8
_0-a_レイヤ9
  6
CONTINUOUS
 62
    3
 10
831.91250883300006
 20
488.40295891568434
 11
861.91250883300006
 21
488.40295891568434
  0
LINE
  8
_0-a_レイヤ9
  6
CONTINUOUS
 62
    3
 10
837.7080637908
 20
489.95587318628435
 11
831.91250883300006
 21
488.40295891568434
  0
LINE
  8
_0-a_レイヤ9
  6
CONTINUOUS
 62
    3
 10
831.91250883300006
 20
488.40295891568434
 11
837.7080637908
 21
486.85004464508432
  0
LINE
  8
_0-a_レイヤ9
  6
CONTINUOUS
 62
    3
 10
856.11695387530006
 20
486.85004464508432
 11
861.91250883300006
 21
488.40295891568434
  0
LINE
  8
_0-a_レイヤ9
  6
CONTINUOUS
 62
    3
 10
861.91250883300006
 20
488.40295891568434
 11
856.11695387530006
 21
489.95587318628435
  0
LINE
  8
_0-a_レイヤ9
  6
CONTINUOUS
 62
    3
 10
861.91250883300006
 20
488.40295891568434
 11
1061.9125088334999
 21
488.40295891568434
  0
LINE
  8
_0-a_レイヤ9
  6
CONTINUOUS
 62
    3
 10
867.7080637908
 20
489.95587318628435
 11
861.91250883300006
 21
488.40295891568434
  0
LINE
  8
_0-a_レイヤ9
  6
CONTINUOUS
 62
    3
 10
861.91250883300006
 20
488.40295891568434
 11
867.7080637908
 21
486.85004464508432
  0
LINE
  8
_0-a_レイヤ9
  6
CONTINUOUS
 62
    3
 10
1056.1169538754998
 20
486.85004464508432
 11
1061.9125088334999
 21
488.40295891568434
  0
LINE
  8
_0-a_レイヤ9
  6
CONTINUOUS
 62
    3
 10
1061.9125088334999
 20
488.40295891568434
 11
1056.1169538754998
 21
489.95587318628435
  0
LINE
  8
_0-a_レイヤ9
  6
CONTINUOUS
 62
    3
 10
1042.2125088335001
 20
683.40295891568439
 11
1077.5669895655001
 21
683.40295891568439
  0
LINE
  8
_0-a_レイヤ9
  6
CONTINUOUS
 62
    3
 10
1061.9125088334999
 20
683.40295891568439
 11
1067.7080637905001
 21
684.95587318628441
  0
LINE
  8
_0-a_レイヤ9
  6
CONTINUOUS
 62
    3
 10
1061.9125088334999
 20
683.40295891568439
 11
1067.7080637905001
 21
681.85004464508438
  0
LINE
  8
_0-a_レイヤ9
  6
CONTINUOUS
 62
    3
 10
1052.2125088335001
 20
683.40295891568439
 11
1058.0080637904998
 21
684.95587318628441
  0
LINE
  8
_0-a_レイヤ9
  6
CONTINUOUS
 62
    3
 10
1052.2125088335001
 20
683.40295891568439
 11
1058.0080637904998
 21
681.85004464508438
  0
LINE
  8
_0-a_レイヤ9
  6
CONTINUOUS
 62
    3
 10
1052.2125088335001
 20
683.40295891568439
 11
1046.4169538755
 21
684.95587318628441
  0
LINE
  8
_0-a_レイヤ9
  6
CONTINUOUS
 62
    3
 10
1052.2125088335001
 20
683.40295891568439
 11
1046.4169538755
 21
681.85004464508438
  0
LINE
  8
_0-1_図面枠
  6
CONTINUOUS
 62
    7
 10
1175.5164041705796
 20
20.199999999999989
 11
1175.5164041705796
 21
825.55543206998436
  0
LINE
  8
_0-a_レイヤ9
  6
CONTINUOUS
 62
    7
 10
1081.5162640455001
 20
686.32937391048426
 11
1165.4393857588539
 21
686.32937391048426
  0
TEXT
  8
_0-a_レイヤ9
 62
    7
 10
854.9712655628
 20
649.55302988516496
 40
7.5
 41
1
 50
0
  1
1
  0
TEXT
  8
_0-a_レイヤ9
 62
    7
 10
912.50303781650007
 20
649.55302988516496
 40
7.5
 41
1
 50
0
  1
10
  0
TEXT
  8
_0-a_レイヤ9
 62
    7
 10
914.08451421680002
 20
629.55302988516496
 40
7.5
 41
1
 50
0
  1
3
  0
TEXT
  8
_0-a_レイヤ9
 62
    7
 10
971.79665217100001
 20
630.55302988516496
 40
7.5
 41
1
 50
0
  1
2
  0
TEXT
  8
_0-a_レイヤ9
 62
    7
 10
1069.7754851545001
 20
665.37993516906499
 40
7.5
 41
1
 50
0
  1
4
  0
TEXT
  8
_0-a_レイヤ9
 62
    7
 10
916.27548515399997
 20
576.37993516906499
 40
7.5
 41
1
 50
0
  1
5
  0
TEXT
  8
_0-a_レイヤ9
 62
    7
 10
852.36282638030002
 20
580.89277584736499
 40
7.5
 41
1
 50
0
  1
8
  0
TEXT
  8
_0-a_レイヤ9
 62
    7
 10
816.71500985600005
 20
545.89277584736499
 40
7.5
 41
1
 50
0
  1
6
  0
TEXT
  8
_0-a_レイヤ9
 62
    7
 10
808.60042000359999
 20
570.89277584736499
 40
7.5
 41
1
 50
0
  1
7
  0
TEXT
  8
_0-a_レイヤ9
 62
    7
 10
821.90908773629997
 20
644.25302988516501
 40
7.5
 41
1
 50
0
  1
9
  0
TEXT
  8
_0-0_0
 62
    3
 10
922.21250883300002
 20
713.97290286626503
 40
12
 41
1
 50
0
  1
265
  0
TEXT
  8
_0-0_0
 62
    3
 10
907.56250883300004
 20
698.97290286626503
 40
12
 41
1
 50
0
  1
245.3
  0
TEXT
  8
_0-0_0
 62
    3
 10
842.21250883300002
 20
683.97290286626503
 40
12
 41
1
 50
0
  1
105
  0
TEXT
  8
_0-0_0
 62
    3
 10
800.11250883299999
 20
643.97290286626503
 40
12
 41
1
 50
0
  1
16
  0
TEXT
  8
_0-0_0
 62
    3
 10
776.91250883300006
 20
637.32290286626505
 40
12
 41
1
 50
90
  1
46.5
  0
TEXT
  8
_0-0_0
 62
    3
 10
776.91250883300006
 20
604.22290286626503
 40
12
 41
1
 50
90
  1
19.7
  0
TEXT
  8
_0-0_0
 62
    3
 10
960.06250883300004
 20
683.97290286626503
 40
12
 41
1
 50
0
  1
140.3
  0
TEXT
  8
_0-0_0
 62
    3
 10
1042.4625088335001
 20
698.97290286626503
 40
12
 41
1
 50
0
  1
19.7
  0
TEXT
  8
_0-0_0
 62
    3
 10
1042.4125088334999
 20
683.97290286626503
 40
12
 41
1
 50
0
  1
10
  0
TEXT
  8
_0-0_0
 62
    3
 10
1131.9125088334999
 20
614.17290286626496
 40
12
 41
1
 50
90
  1
30
  0
TEXT
  8
_0-0_0
 62
    3
 10
954.71250883300002
 20
488.97290286626503
 40
12
 41
1
 50
0
  1
200
  0
TEXT
  8
_0-0_0
 62
    3
 10
842.11250883299999
 20
488.97290286626503
 40
12
 41
1
 50
0
  1
30
  0
TEXT
  8
_0-0_0
 62
    3
 10
1016.9125088335001
 20
656.87290286626501
 40
12
 41
1
 50
90
  1
17
  0
TEXT
  8
_0-0_0
 62
    3
 10
1061.9125088334999
 20
683.97290286626503
 40
12
 41
1
 50
0
  1
9.7
  0
TEXT
  8
_0-a_レイヤ9
 62
    7
 10
671.52081081462256
 20
585.6727890113732
 40
8
 41
1
 50
0
  1
コーキング処理(別途工事)
  0
TEXT
  8
_0-a_レイヤ9
 62
    7
 10
1082.4757220793385
 20
688.41151682755208
 40
6
 41
1
 50
0
  1
コーキング処理(別途工事)
  0
LINE
  8
_0-1_図面枠
  6
HIDDEN
 62
    7
 10
19.418617872500022
 20
435.69999999999999
 11
1175.5164041705793
 21
435.69999999999999
  0
TEXT
  8
_0-0_0
 62
    2
 10
679.41861787250002
 20
775.125376020565
 40
14
 41
1
 50
0
  1
◇外壁コーナー（２００ＳＣＨ－Ｓ）　Ｓ＝１／３
  0
TEXT
  8
_0-0_0
 62
    2
 10
649.41861787250002
 20
805.125376020565
 40
14
 41
1
 50
0
  1
（ステンレス２００タイプ）
  0
LINE
  8
_0-0_0
  6
CONTINUOUS
 62
    7
 10
1175.5164041705796
 20
825.55543206998436
 11
19.418617872500022
 21
825.55543206998436
  0
LINE
  8
_0-0_0
  6
CONTINUOUS
 62
    7
 10
169.91122221151193
 20
400.89278117711615
 11
188.77356221151194
 21
405.26164417711618
  0
LINE
  8
_0-0_0
  6
CONTINUOUS
 62
    7
 10
188.70898921151195
 20
406.27264717711614
 11
169.685690211512
 21
401.8665031771161
  0
LINE
  8
_0-0_0
  6
CONTINUOUS
 62
    7
 10
188.77356221151194
 20
404.46204417711613
 11
193.771062211512
 21
404.46204417711613
  0
LINE
  8
_0-0_0
  6
CONTINUOUS
 62
    7
 10
193.771062211512
 20
404.46204417711613
 11
193.771062211512
 21
408.06024417711615
  0
LINE
  8
_0-0_0
  6
CONTINUOUS
 62
    7
 10
193.771062211512
 20
408.06024417711615
 11
188.77356221151194
 21
408.06024417711615
  0
LINE
  8
_0-0_0
  6
CONTINUOUS
 62
    7
 10
188.77356221151194
 20
408.06024417711615
 11
188.77356221151194
 21
404.46204417711613
  0
LINE
  8
_0-0_0
  6
CONTINUOUS
 62
    7
 10
169.66006121151202
 20
410.68143017711611
 11
188.77356221151194
 21
407.27638017711615
  0
LINE
  8
_0-0_0
  6
CONTINUOUS
 62
    7
 10
169.48476221151191
 20
409.6974221771161
 11
188.77356221151194
 21
406.26114417711619
  0
LINE
  8
_0-0_0
  6
CONTINUOUS
 62
    7
 10
283.72606221151193
 20
406.26114417711619
 11
193.771062211512
 21
406.26114417711619
  0
ARC
  8
_0-0_0
  6
CONTINUOUS
 62
    7
 10
195.78943721151199
 20
407.76039417711615
 40
1.49925
 50
270
 51
0
  0
LINE
  8
_0-0_0
  6
CONTINUOUS
 62
    7
 10
283.72606221151193
 20
405.26164417711618
 11
193.771062211512
 21
405.26164417711618
  0
LINE
  8
_0-0_0
  6
CONTINUOUS
 62
    7
 10
193.771062211512
 20
407.26064417711609
 11
195.78943721151199
 21
407.26064417711609
  0
ARC
  8
_0-0_0
  6
CONTINUOUS
 62
    7
 10
195.78943721151199
 20
407.76039417711615
 40
0.49975
 50
270
 51
0
  0
LINE
  8
_0-0_0
  6
CONTINUOUS
 62
    7
 10
196.28918721151194
 20
408.06024417711615
 11
196.28918721151194
 21
407.76039417711615
  0
LINE
  8
_0-0_0
  6
CONTINUOUS
 62
    7
 10
196.28918721151194
 20
408.06024417711615
 11
197.28868721151196
 21
408.06024417711615
  0
LINE
  8
_0-0_0
  6
CONTINUOUS
 62
    7
 10
197.28868721151196
 20
408.06024417711615
 11
197.28868721151196
 21
407.76039417711615
  0
ARC
  8
_0-0_0
  6
CONTINUOUS
 62
    7
 10
168.78356221151193
 20
405.76139417711613
 40
3.9980000000000002
 50
79.898790000000005
 51
283.040795
  0
ARC
  8
_0-0_0
  6
CONTINUOUS
 62
    7
 10
168.78356221151193
 20
405.76139417711613
 40
4.9974999999999996
 50
79.898790000000005
 51
283.040795
  0
LINE
  8
_0-0_0
  6
CONTINUOUS
 62
    7
 10
407.53590321171191
 20
400.89278117711615
 11
388.67356221171201
 21
405.26164417711618
  0
LINE
  8
_0-0_0
  6
CONTINUOUS
 62
    7
 10
388.73813521171201
 20
406.27264717711614
 11
407.76143521171196
 21
401.8665031771161
  0
LINE
  8
_0-0_0
  6
CONTINUOUS
 62
    7
 10
388.67356221171201
 20
404.46204417711613
 11
383.67606221151198
 21
404.46204417711613
  0
LINE
  8
_0-0_0
  6
CONTINUOUS
 62
    7
 10
383.67606221151198
 20
404.46204417711613
 11
383.67606221151198
 21
408.06024417711615
  0
LINE
  8
_0-0_0
  6
CONTINUOUS
 62
    7
 10
383.67606221151198
 20
408.06024417711615
 11
388.67356221171201
 21
408.06024417711615
  0
LINE
  8
_0-0_0
  6
CONTINUOUS
 62
    7
 10
388.67356221171201
 20
408.06024417711615
 11
388.67356221171201
 21
404.46204417711613
  0
LINE
  8
_0-0_0
  6
CONTINUOUS
 62
    7
 10
407.78706321171194
 20
410.68143017711611
 11
388.67356221171201
 21
407.27638017711615
  0
LINE
  8
_0-0_0
  6
CONTINUOUS
 62
    7
 10
407.96236321171205
 20
409.6974221771161
 11
388.67356221171201
 21
406.26114417711619
  0
LINE
  8
_0-0_0
  6
CONTINUOUS
 62
    7
 10
293.72106221151193
 20
406.26114417711619
 11
383.67606221151198
 21
406.26114417711619
  0
ARC
  8
_0-0_0
  6
CONTINUOUS
 62
    7
 10
381.65768721151198
 20
407.76039417711615
 40
1.49925
 50
180
 51
270
  0
LINE
  8
_0-0_0
  6
CONTINUOUS
 62
    7
 10
293.72106221151193
 20
405.26164417711618
 11
383.67606221151198
 21
405.26164417711618
  0
LINE
  8
_0-0_0
  6
CONTINUOUS
 62
    7
 10
383.67606221151198
 20
407.26064417711609
 11
381.65768721151198
 21
407.26064417711609
  0
ARC
  8
_0-0_0
  6
CONTINUOUS
 62
    7
 10
381.65768721151198
 20
407.76039417711615
 40
0.49975
 50
180
 51
270
  0
LINE
  8
_0-0_0
  6
CONTINUOUS
 62
    7
 10
381.15793721151192
 20
408.06024417711615
 11
381.15793721151192
 21
407.76039417711615
  0
LINE
  8
_0-0_0
  6
CONTINUOUS
 62
    7
 10
381.15793721151192
 20
408.06024417711615
 11
380.15843721151191
 21
408.06024417711615
  0
LINE
  8
_0-0_0
  6
CONTINUOUS
 62
    7
 10
380.15843721151191
 20
408.06024417711615
 11
380.15843721151191
 21
407.76039417711615
  0
ARC
  8
_0-0_0
  6
CONTINUOUS
 62
    7
 10
408.66356221171191
 20
405.76139417711613
 40
3.9980000000000002
 50
256.959205
 51
110.010381
  0
ARC
  8
_0-0_0
  6
CONTINUOUS
 62
    7
 10
408.66356221171191
 20
405.76139417711613
 40
4.9974999999999996
 50
256.959205
 51
108.02159899999999
  0
LINE
  8
_0-0_0
  6
CONTINUOUS
 62
    7
 10
530.23770645371201
 20
328.2332087767162
 11
103.78770645371196
 21
328.2332087767162
  0
LINE
  8
_0-0_0
  6
CONTINUOUS
 62
    7
 10
530.23770645371201
 20
310.2332087767162
 11
103.78770645371196
 21
310.2332087767162
  0
LINE
  8
_0-0_0
  6
CONTINUOUS
 62
    7
 10
530.23770645371201
 20
292.2332087767162
 11
103.78770645371196
 21
292.2332087767162
  0
LINE
  8
_0-0_0
  6
CONTINUOUS
 62
    7
 10
530.23770645371201
 20
274.2332087767162
 11
103.78770645371196
 21
274.2332087767162
  0
LINE
  8
_0-0_0
  6
CONTINUOUS
 62
    7
 10
530.23770645371201
 20
256.23320877671614
 11
103.78770645371196
 21
256.23320877671614
  0
LINE
  8
_0-0_0
  6
CONTINUOUS
 62
    7
 10
530.23770645371201
 20
238.23320877671614
 11
103.78770645371196
 21
238.23320877671614
  0
LINE
  8
_0-0_0
  6
CONTINUOUS
 62
    7
 10
530.23770645371201
 20
220.23320877671614
 11
103.78770645371196
 21
220.23320877671614
  0
LINE
  8
_0-0_0
  6
CONTINUOUS
 62
    7
 10
530.23770645371201
 20
202.23320877671614
 11
103.78770645371196
 21
202.23320877671614
  0
LINE
  8
_0-0_0
  6
CONTINUOUS
 62
    7
 10
530.23770645371201
 20
184.23320877671614
 11
103.78770645371196
 21
184.23320877671614
  0
LINE
  8
_0-0_0
  6
CONTINUOUS
 62
    7
 10
530.23770645371201
 20
166.23320877671608
 11
103.78770645371196
 21
166.23320877671608
  0
LINE
  8
_0-0_0
  6
CONTINUOUS
 62
    7
 10
530.23770645371201
 20
130.23320877671608
 11
103.78770645371196
 21
130.23320877671608
  0
LINE
  8
_0-0_0
  6
CONTINUOUS
 62
    7
 10
530.23770645371201
 20
360.63320877671617
 11
103.78770645371196
 21
360.63320877671617
  0
LINE
  8
_0-0_0
  6
CONTINUOUS
 62
    7
 10
530.23770645371201
 20
94.233208776716083
 11
103.78770645371196
 21
94.233208776716083
  0
LINE
  8
_0-0_0
  6
CONTINUOUS
 62
    7
 10
530.23770645371201
 20
76.233208776716083
 11
103.78770645371196
 21
76.233208776716083
  0
LINE
  8
_0-0_0
  6
CONTINUOUS
 62
    7
 10
530.23770645371201
 20
148.23320877671608
 11
103.78770645371196
 21
148.23320877671608
  0
LINE
  8
_0-0_0
  6
CONTINUOUS
 62
    7
 10
530.23770645371201
 20
112.23320877671608
 11
103.78770645371196
 21
112.23320877671608
  0
LINE
  8
_0-0_0
  6
HIDDEN
 62
    7
 10
472.63770645371187
 20
344.43320877671613
 11
508.63770645371187
 21
344.43320877671613
  0
LINE
  8
_0-0_0
  6
HIDDEN
 62
    7
 10
472.63770645371187
 20
344.43320877671613
 11
427.63770645371187
 21
344.43320877671613
  0
LINE
  8
_0-0_0
  6
CONTINUOUS
 62
    7
 10
103.78770645371196
 20
76.233208776716083
 11
103.78770645371196
 21
360.63320877671617
  0
LINE
  8
_0-0_0
  6
CONTINUOUS
 62
    7
 10
125.38770645371198
 20
76.233208776716083
 11
125.38770645371198
 21
360.63320877671617
  0
LINE
  8
_0-0_0
  6
CONTINUOUS
 62
    7
 10
296.38770645371198
 20
76.233208776716083
 11
296.38770645371198
 21
360.63320877671617
  0
LINE
  8
_0-0_0
  6
CONTINUOUS
 62
    7
 10
424.63770645371187
 20
76.233208776716083
 11
424.63770645371187
 21
360.63320877671617
  0
LINE
  8
_0-0_0
  6
CONTINUOUS
 62
    7
 10
530.23770645371201
 20
76.233208776716083
 11
530.23770645371201
 21
360.63320877671617
  0
LINE
  8
_0-0_0
  6
CONTINUOUS
 62
    7
 10
508.63770645371187
 20
76.233208776716083
 11
508.63770645371187
 21
360.63320877671617
  0
LINE
  8
_0-0_0
  6
CONTINUOUS
 62
    7
 10
472.63770645371187
 20
76.233208776716083
 11
472.63770645371187
 21
360.63320877671617
  0
LINE
  8
_0-0_0
  6
CONTINUOUS
 62
    7
 10
427.63770645371187
 20
76.233208776716083
 11
427.63770645371187
 21
360.63320877671617
  0
LINE
  8
_0-0_0
  6
CONTINUOUS
 62
    3
 10
228.05489250121195
 20
488.34600162026271
 11
283.05489250121195
 21
488.34600162026271
  0
LINE
  8
_0-0_0
  6
CONTINUOUS
 62
    3
 10
283.05489250121195
 20
488.34600162026271
 11
433.05489250171195
 21
488.34600162026271
  0
LINE
  8
_0-0_0
  6
HIDDEN
 62
    3
 10
488.05489250171195
 20
503.34600162026271
 11
433.05489250171195
 21
503.34600162026271
  0
LINE
  8
_0-0_0
  6
HIDDEN
 62
    3
 10
188.05489250121195
 20
503.34600162026271
 11
283.05489250121195
 21
503.34600162026271
  0
ARC
  8
_0-0_0
  6
CONTINUOUS
 62
    3
 10
415.05489250171195
 20
667.84600162026277
 40
0.5
 50
90
 51
180
  0
ARC
  8
_0-0_0
  6
CONTINUOUS
 62
    3
 10
415.05489250171195
 20
667.84600162026277
 40
1.7
 50
90
 51
180
  0
ARC
  8
_0-0_0
  6
CONTINUOUS
 62
    3
 10
421.65489250171186
 20
667.84600162026277
 40
1.7
 50
0
 51
90
  0
ARC
  8
_0-0_0
  6
CONTINUOUS
 62
    3
 10
421.65489250171186
 20
667.84600162026277
 40
0.5
 50
0
 51
90
  0
LINE
  8
_0-0_0
  6
CONTINUOUS
 62
    3
 10
422.15489250171186
 20
667.84600162026277
 11
422.15489250171186
 21
659.54600162026259
  0
LINE
  8
_0-0_0
  6
CONTINUOUS
 62
    3
 10
421.65489250171186
 20
668.34600162026277
 11
415.05489250171195
 21
668.34600162026277
  0
LINE
  8
_0-0_0
  6
CONTINUOUS
 62
    3
 10
422.15489250171186
 20
659.54600162026259
 11
423.3548925017119
 21
659.54600162026259
  0
LINE
  8
_0-0_0
  6
CONTINUOUS
 62
    3
 10
423.3548925017119
 20
659.54600162026259
 11
423.3548925017119
 21
667.84600162026277
  0
LINE
  8
_0-0_0
  6
CONTINUOUS
 62
    3
 10
415.05489250171195
 20
669.54600162026259
 11
421.65489250171186
 21
669.54600162026259
  0
LINE
  8
_0-0_0
  6
CONTINUOUS
 62
    3
 10
413.3548925017119
 20
667.84600162026277
 11
413.3548925017119
 21
617.04600128646257
  0
ARC
  8
_0-0_0
  6
CONTINUOUS
 62
    3
 10
412.8548925017119
 20
617.04600128646257
 40
0.5
 50
270
 51
0
  0
LINE
  8
_0-0_0
  6
CONTINUOUS
 62
    3
 10
414.55489250171195
 20
617.04600128646257
 11
414.55489250171195
 21
667.84600162026277
  0
ARC
  8
_0-0_0
  6
CONTINUOUS
 62
    3
 10
412.8548925017119
 20
617.04600128646257
 40
1.7
 50
270
 51
0
  0
LINE
  8
_0-0_0
  6
CONTINUOUS
 62
    3
 10
432.05489250171195
 20
658.34550162026267
 11
433.0545525017119
 21
658.34550162026267
  0
LINE
  8
_0-0_0
  6
HIDDEN
 62
    3
 10
488.05489250171195
 20
678.34600162026277
 11
488.05489250171195
 21
503.34600162026271
  0
LINE
  8
_0-0_0
  6
HIDDEN
 62
    3
 10
433.05489250171195
 20
678.34600162026277
 11
488.05489250171195
 21
678.34600162026277
  0
LINE
  8
_0-0_0
  6
CONTINUOUS
 62
    3
 10
433.05489250171195
 20
678.34600162026277
 11
433.05489250171195
 21
503.34600162026271
  0
ARC
  8
_0-0_0
  6
CONTINUOUS
 62
    3
 10
202.55489250121195
 20
619.84600162026277
 40
0.5
 50
0
 51
90
  0
LINE
  8
_0-0_0
  6
CONTINUOUS
 62
    3
 10
195.30489250121195
 20
620.34600162026277
 11
202.55489250121195
 21
620.34600162026277
  0
LINE
  8
_0-0_0
  6
CONTINUOUS
 62
    3
 10
203.05489250121195
 20
619.84600162026277
 11
203.05489250121195
 21
604.34600162026277
  0
ARC
  8
_0-0_0
  6
CONTINUOUS
 62
    3
 10
214.05489250121195
 20
620.84600162026277
 40
1
 50
270
 51
0
  0
ARC
  8
_0-0_0
  6
CONTINUOUS
 62
    3
 10
205.35489250121191
 20
619.34600162026277
 40
0.5
 50
90
 51
180
  0
LINE
  8
_0-0_0
  6
CONTINUOUS
 62
    3
 10
214.05489250121195
 20
619.84600162026277
 11
205.35489250121191
 21
619.84600162026277
  0
LINE
  8
_0-0_0
  6
CONTINUOUS
 62
    3
 10
204.85489250121191
 20
619.34600162026277
 11
204.85489250121191
 21
606.84600162026277
  0
ARC
  8
_0-0_0
  6
CONTINUOUS
 62
    3
 10
205.35489250121191
 20
606.84600162026277
 40
0.5
 50
180
 51
270
  0
LINE
  8
_0-0_0
  6
CONTINUOUS
 62
    3
 10
227.754892501212
 20
606.34600162026277
 11
205.35489250121191
 21
606.34600162026277
  0
LINE
  8
_0-0_0
  6
CONTINUOUS
 62
    3
 10
204.55489250121195
 20
604.84600162026277
 11
218.05489250121195
 21
604.84600162026277
  0
LINE
  8
_0-0_0
  6
CONTINUOUS
 62
    3
 10
218.05489250121195
 20
604.84600162026277
 11
218.05489250121195
 21
604.34600162026277
  0
LINE
  8
_0-0_0
  6
CONTINUOUS
 62
    3
 10
228.05489250121195
 20
606.04600162026259
 11
227.754892501212
 21
606.34600162026277
  0
LINE
  8
_0-0_0
  6
CONTINUOUS
 62
    3
 10
228.05489250121195
 20
606.04600162026259
 11
228.35489250121191
 21
606.34600162026277
  0
ARC
  8
_0-0_0
  6
CONTINUOUS
 62
    3
 10
195.30489250121195
 20
621.09600162026277
 40
0.75
 50
90
 51
270
  0
LINE
  8
_0-0_0
  6
CONTINUOUS
 62
    3
 10
215.05489250121195
 20
621.84600162026277
 11
215.05489250121195
 21
620.84600162026277
  0
LINE
  8
_0-0_0
  6
CONTINUOUS
 62
    3
 10
195.30489250121195
 20
621.84600162026277
 11
215.05489250121195
 21
621.84600162026277
  0
LINE
  8
_0-0_0
  6
CONTINUOUS
 62
    3
 10
203.05489250121195
 20
604.34600162026277
 11
204.55489250121195
 21
604.34600162026277
  0
LINE
  8
_0-0_0
  6
CONTINUOUS
 62
    3
 10
204.55489250121195
 20
604.84600162026277
 11
204.55489250121195
 21
604.34600162026277
  0
LINE
  8
_0-0_0
  6
CONTINUOUS
 62
    3
 10
193.05489150121196
 20
621.34600162026277
 11
193.05489250121195
 21
614.74600162026263
  0
ARC
  8
_0-0_0
  6
CONTINUOUS
 62
    3
 10
194.754892501212
 20
614.74600162026263
 40
1.7
 50
180
 51
270
  0
LINE
  8
_0-0_0
  6
CONTINUOUS
 62
    3
 10
203.05489250121195
 20
613.04600162026259
 11
194.754892501212
 21
613.04600162026259
  0
LINE
  8
_0-0_0
  6
CONTINUOUS
 62
    3
 10
203.05489250121195
 20
614.24600162026263
 11
194.75489750121199
 21
614.24600162026263
  0
ARC
  8
_0-0_0
  6
CONTINUOUS
 62
    3
 10
194.754891501212
 20
621.34600162026277
 40
1.7
 50
90
 51
180
  0
ARC
  8
_0-0_0
  6
CONTINUOUS
 62
    3
 10
194.754892501212
 20
621.34600162026277
 40
0.5
 50
90
 51
180
  0
ARC
  8
_0-0_0
  6
CONTINUOUS
 62
    3
 10
194.75489750121199
 20
614.74600162026263
 40
0.5
 50
180
 51
270
  0
LINE
  8
_0-0_0
  6
CONTINUOUS
 62
    3
 10
194.254892501212
 20
621.34600162026277
 11
194.25489750121199
 21
614.74600162026263
  0
LINE
  8
_0-0_0
  6
CONTINUOUS
 62
    3
 10
203.05489250121195
 20
614.24600162026263
 11
203.05489250121195
 21
613.04600162026259
  0
LINE
  8
_0-0_0
  6
CONTINUOUS
 62
    3
 10
194.754891501212
 20
623.04600162026259
 11
296.35489250121191
 21
623.04600162026259
  0
LINE
  8
_0-0_0
  6
CONTINUOUS
 62
    3
 10
194.754892501212
 20
621.84600162026277
 11
296.35489250121191
 21
621.84600162026277
  0
LINE
  8
_0-0_0
  6
CONTINUOUS
 62
    3
 10
296.85489250121191
 20
618.04600162026259
 11
298.05489250121195
 21
618.04600162026259
  0
ARC
  8
_0-0_0
  6
CONTINUOUS
 62
    3
 10
296.35489250121191
 20
621.34600162026277
 40
0.5
 50
0
 51
90
  0
LINE
  8
_0-0_0
  6
CONTINUOUS
 62
    3
 10
296.85489250121191
 20
618.04600162026259
 11
296.85489250121191
 21
621.34600162026277
  0
ARC
  8
_0-0_0
  6
CONTINUOUS
 62
    3
 10
296.35489250121191
 20
621.34600162026277
 40
1.7
 50
0
 51
90
  0
LINE
  8
_0-0_0
  6
CONTINUOUS
 62
    3
 10
298.05489250121195
 20
618.04600162026259
 11
298.05489250121195
 21
621.34600162026277
  0
LINE
  8
_0-0_0
  6
CONTINUOUS
 62
    3
 10
296.35489250121191
 20
621.84600162026277
 11
286.85489250121191
 21
621.84600162026277
  0
LINE
  8
_0-0_0
  6
CONTINUOUS
 62
    3
 10
286.85489250121191
 20
621.84600162026277
 11
286.85489250121191
 21
616.54600246946256
  0
LINE
  8
_0-0_0
  6
CONTINUOUS
 62
    3
 10
296.85489250121191
 20
616.5460023576627
 11
296.85489250121191
 21
621.34600162026277
  0
LINE
  8
_0-0_0
  6
CONTINUOUS
 62
    3
 10
292.05121534981197
 20
621.84600162026277
 11
286.85489250121191
 21
616.64967877176264
  0
LINE
  8
_0-0_0
  6
CONTINUOUS
 62
    3
 10
290.63700178741192
 20
621.84600162026277
 11
286.85489250121191
 21
618.06389233406276
  0
LINE
  8
_0-0_0
  6
CONTINUOUS
 62
    3
 10
289.22278822501198
 20
621.84600162026277
 11
286.85489250121191
 21
619.47810589646269
  0
LINE
  8
_0-0_0
  6
CONTINUOUS
 62
    3
 10
287.80857466271198
 20
621.84600162026277
 11
286.85489250121191
 21
620.89231945886263
  0
LINE
  8
_0-0_0
  6
CONTINUOUS
 62
    3
 10
296.85489250121191
 20
616.75018383506267
 11
296.65071102611194
 21
616.54600235996259
  0
LINE
  8
_0-0_0
  6
CONTINUOUS
 62
    3
 10
296.85489250121191
 20
618.16439739746261
 11
295.23649747951197
 21
616.54600237576255
  0
LINE
  8
_0-0_0
  6
CONTINUOUS
 62
    3
 10
296.85489250121191
 20
619.57861095986254
 11
293.82228393301193
 21
616.54600239156275
  0
LINE
  8
_0-0_0
  6
CONTINUOUS
 62
    3
 10
296.85489250121191
 20
620.99282452226271
 11
292.40807038641196
 21
616.54600240736272
  0
LINE
  8
_0-0_0
  6
CONTINUOUS
 62
    3
 10
296.29385603691196
 20
621.84600162026277
 11
290.993856839812
 21
616.54600242316269
  0
LINE
  8
_0-0_0
  6
CONTINUOUS
 62
    3
 10
294.87964247451191
 20
621.84600162026277
 11
289.57964329321192
 21
616.54600243896266
  0
LINE
  8
_0-0_0
  6
CONTINUOUS
 62
    3
 10
293.46542891221202
 20
621.84600162026277
 11
288.16542974671199
 21
616.54600245476263
  0
LINE
  8
_0-0_0
  6
CONTINUOUS
 62
    3
 10
203.05489250121195
 20
604.34600162026277
 11
203.05489250121195
 21
603.34600162026277
  0
LINE
  8
_0-0_0
  6
HIDDEN
 62
    3
 10
188.05489250121195
 20
603.34600162026277
 11
188.05489250121195
 21
503.34600162026271
  0
LINE
  8
_0-0_0
  6
CONTINUOUS
 62
    3
 10
238.05489250121195
 20
604.84600162026277
 11
238.05489250121195
 21
604.34600162026277
  0
LINE
  8
_0-0_0
  6
CONTINUOUS
 62
    3
 10
218.05489250121195
 20
604.34600162026277
 11
238.05489250121195
 21
604.34600162026277
  0
LINE
  8
_0-0_0
  6
CONTINUOUS
 62
    3
 10
296.55489250121195
 20
604.34600162026277
 11
297.55489250121195
 21
604.34600162026277
  0
ARC
  8
_0-0_0
  6
CONTINUOUS
 62
    3
 10
297.55489250121195
 20
604.84600162026277
 40
0.5
 50
270
 51
0
  0
ARC
  8
_0-0_0
  6
CONTINUOUS
 62
    3
 10
296.05489250121195
 20
606.84600162026277
 40
0.5
 50
270
 51
0
  0
LINE
  8
_0-0_0
  6
CONTINUOUS
 62
    3
 10
296.55489250121195
 20
604.84600162026277
 11
296.55489250121195
 21
604.34600162026277
  0
LINE
  8
_0-0_0
  6
CONTINUOUS
 62
    3
 10
280.55489250121195
 20
604.84600162026277
 11
296.55489250121195
 21
604.84600162026277
  0
LINE
  8
_0-0_0
  6
CONTINUOUS
 62
    3
 10
279.05489250121195
 20
604.84600162026277
 11
279.05489250121195
 21
604.34600162026277
  0
LINE
  8
_0-0_0
  6
CONTINUOUS
 62
    3
 10
280.55489250121195
 20
604.84600162026277
 11
280.55489250121195
 21
604.34600162026277
  0
LINE
  8
_0-0_0
  6
CONTINUOUS
 62
    3
 10
279.05489250121195
 20
604.34600162026277
 11
280.55489250121195
 21
604.34600162026277
  0
LINE
  8
_0-0_0
  6
CONTINUOUS
 62
    3
 10
228.35489250121191
 20
606.34600162026277
 11
296.05489250121195
 21
606.34600162026277
  0
LINE
  8
_0-0_0
  6
CONTINUOUS
 62
    3
 10
254.05489250121195
 20
604.84600162026277
 11
254.05489250121195
 21
604.34600162026277
  0
LINE
  8
_0-0_0
  6
CONTINUOUS
 62
    3
 10
255.55489250121195
 20
604.84600162026277
 11
255.55489250121195
 21
604.34600162026277
  0
LINE
  8
_0-0_0
  6
CONTINUOUS
 62
    3
 10
254.05489250121195
 20
604.34600162026277
 11
255.55489250121195
 21
604.34600162026277
  0
LINE
  8
_0-0_0
  6
CONTINUOUS
 62
    3
 10
238.05489250121195
 20
604.84600162026277
 11
254.05489250121195
 21
604.84600162026277
  0
LINE
  8
_0-0_0
  6
CONTINUOUS
 62
    3
 10
255.55489250121195
 20
604.84600162026277
 11
279.05489250121195
 21
604.84600162026277
  0
ARC
  8
_0-0_0
  6
CONTINUOUS
 62
    3
 10
297.30489250121195
 20
614.59600162026277
 40
0.75
 50
0
 51
180
  0
LINE
  8
_0-0_0
  6
CONTINUOUS
 62
    3
 10
296.55489250121195
 20
614.59600162026277
 11
296.55489250121195
 21
606.84600162026277
  0
LINE
  8
_0-0_0
  6
CONTINUOUS
 62
    3
 10
298.05489250121195
 20
614.59600162026277
 11
298.05489250121195
 21
604.84600162026277
  0
LINE
  8
_0-0_0
  6
CONTINUOUS
 62
    3
 10
251.79895650121193
 20
611.23225028646266
 11
260.62092450121202
 21
615.34600128646275
  0
LINE
  8
_0-0_0
  6
CONTINUOUS
 62
    3
 10
251.291814501212
 20
612.31982028646257
 11
260.35489250121191
 21
616.54600228646268
  0
LINE
  8
_0-0_0
  6
CONTINUOUS
 62
    3
 10
251.291814501212
 20
612.31982028646257
 11
251.79895650121193
 21
611.23225028646266
  0
LINE
  8
_0-0_0
  6
CONTINUOUS
 62
    3
 10
412.8548925017119
 20
616.54600100706261
 11
260.35489250121191
 21
616.54600271096274
  0
LINE
  8
_0-0_0
  6
CONTINUOUS
 62
    3
 10
260.62092450121202
 20
615.34600128646275
 11
412.8548925017119
 21
615.34600128646275
  0
LINE
  8
_0-0_0
  6
CONTINUOUS
 62
    3
 10
188.05489250121195
 20
603.34600162026277
 11
283.05489250121195
 21
603.34600162026277
  0
LINE
  8
_0-0_0
  6
CONTINUOUS
 62
    3
 10
283.05489250121195
 20
503.34600162026271
 11
283.05489250121195
 21
603.34600162026277
  0
LINE
  8
_0-0_0
  6
CONTINUOUS
 62
    3
 10
234.37349350121201
 20
588.2036026202627
 11
235.36584850121199
 21
595.0072246202626
  0
ARC
  8
_0-0_0
  6
CONTINUOUS
 62
    3
 10
234.97003650121201
 20
595.06495662026259
 40
0.4
 50
351.701533999996
 51
81.869898000009997
  0
LINE
  8
_0-0_0
  6
CONTINUOUS
 62
    3
 10
235.02660550121198
 20
595.4609366202626
 11
234.82978050121199
 21
595.48905462026255
  0
ARC
  8
_0-0_0
  6
CONTINUOUS
 62
    3
 10
234.77321250121202
 20
595.09307462026277
 40
0.4
 50
81.869898000039996
 51
171.86989800000001
  0
LINE
  8
_0-0_0
  6
CONTINUOUS
 62
    3
 10
234.37723250121201
 20
595.14964362026262
 11
233.43380050121198
 21
588.54562262026275
  0
LINE
  8
_0-0_0
  6
CONTINUOUS
 62
    3
 10
234.37349350121201
 20
588.2036026202627
 11
235.36584850121199
 21
595.0072246202626
  0
ARC
  8
_0-0_0
  6
CONTINUOUS
 62
    3
 10
234.97003650121201
 20
595.06495662026259
 40
0.4
 50
351.701533999996
 51
81.869898000009997
  0
LINE
  8
_0-0_0
  6
CONTINUOUS
 62
    3
 10
235.02660550121198
 20
595.4609366202626
 11
234.82978050121199
 21
595.48905462026255
  0
ARC
  8
_0-0_0
  6
CONTINUOUS
 62
    3
 10
234.77321250121202
 20
595.09307462026277
 40
0.4
 50
81.869898000039996
 51
171.86989800000001
  0
LINE
  8
_0-0_0
  6
CONTINUOUS
 62
    3
 10
234.37723250121201
 20
595.14964362026262
 11
233.43380050121198
 21
588.54562262026275
  0
LINE
  8
_0-0_0
  6
CONTINUOUS
 62
    3
 10
221.73629150121201
 20
588.2036026202627
 11
220.74393650121192
 21
595.0072246202626
  0
ARC
  8
_0-0_0
  6
CONTINUOUS
 62
    3
 10
221.13974850121201
 20
595.06495662026259
 40
0.4
 50
98.130102000020003
 51
188.29846599999999
  0
LINE
  8
_0-0_0
  6
CONTINUOUS
 62
    3
 10
221.08317950121193
 20
595.4609366202626
 11
221.28000450121192
 21
595.48905462026255
  0
ARC
  8
_0-0_0
  6
CONTINUOUS
 62
    3
 10
221.336573501212
 20
595.09307462026277
 40
0.4
 50
8.1301019999920001
 51
98.130102000020003
  0
LINE
  8
_0-0_0
  6
CONTINUOUS
 62
    3
 10
221.73255250121201
 20
595.14964362026262
 11
222.67598450121193
 21
588.54562262026275
  0
LINE
  8
_0-0_0
  6
CONTINUOUS
 62
    3
 10
224.05489250121195
 20
591.34600162026277
 11
224.05489250121195
 21
595.34600162026277
  0
LINE
  8
_0-0_0
  6
CONTINUOUS
 62
    3
 10
226.03714950121196
 20
566.3857456202627
 11
222.54194650121201
 21
566.56892062026259
  0
LINE
  8
_0-0_0
  6
CONTINUOUS
 62
    3
 10
222.54194650121201
 20
566.56892062026259
 11
224.43453350121194
 21
564.46698962026267
  0
LINE
  8
_0-0_0
  6
CONTINUOUS
 62
    3
 10
224.43453350121194
 20
564.46698962026267
 11
225.93247750121191
 21
564.3884856202626
  0
LINE
  8
_0-0_0
  6
CONTINUOUS
 62
    3
 10
225.93247750121191
 20
564.3884856202626
 11
227.55489250121195
 21
595.34600162026277
  0
LINE
  8
_0-0_0
  6
CONTINUOUS
 62
    3
 10
232.05489250121195
 20
591.34600162026277
 11
232.05489250121195
 21
595.34600162026277
  0
LINE
  8
_0-0_0
  6
CONTINUOUS
 62
    3
 10
230.07263550121195
 20
566.3857456202627
 11
233.56783850121201
 21
566.56892062026259
  0
LINE
  8
_0-0_0
  6
CONTINUOUS
 62
    3
 10
233.56783850121201
 20
566.56892062026259
 11
231.67525150121196
 21
564.46698962026267
  0
LINE
  8
_0-0_0
  6
CONTINUOUS
 62
    3
 10
231.67525150121196
 20
564.46698962026267
 11
230.177307501212
 21
564.3884856202626
  0
LINE
  8
_0-0_0
  6
CONTINUOUS
 62
    3
 10
230.177307501212
 20
564.3884856202626
 11
228.55489250121195
 21
595.34600162026277
  0
LINE
  8
_0-0_0
  6
CONTINUOUS
 62
    3
 10
224.49583550121201
 20
583.54562262026275
 11
222.67598450121193
 21
588.54562262026275
  0
LINE
  8
_0-0_0
  6
CONTINUOUS
 62
    3
 10
223.43165750121193
 20
583.54562262026275
 11
221.73629150121201
 21
588.2036026202627
  0
LINE
  8
_0-0_0
  6
CONTINUOUS
 62
    3
 10
231.61394950121201
 20
583.54562262026275
 11
233.43380050121198
 21
588.54562262026275
  0
LINE
  8
_0-0_0
  6
CONTINUOUS
 62
    3
 10
232.67812750121197
 20
583.54562262026275
 11
234.37349350121201
 21
588.2036026202627
  0
LINE
  8
_0-0_0
  6
CONTINUOUS
 62
    3
 10
224.05489250121195
 20
591.34600162026277
 11
225.79526850121192
 21
590.43135762026259
  0
LINE
  8
_0-0_0
  6
CONTINUOUS
 62
    3
 10
226.18544850121191
 20
569.2154456202627
 11
228.05489250121195
 21
567.34600162026277
  0
LINE
  8
_0-0_0
  6
CONTINUOUS
 62
    3
 10
225.79526850121192
 20
590.43135762026259
 11
225.69059650121199
 21
588.4340986202626
  0
LINE
  8
_0-0_0
  6
CONTINUOUS
 62
    3
 10
225.69059650121199
 20
588.4340986202626
 11
223.693337501212
 21
588.53877062026277
  0
LINE
  8
_0-0_0
  6
CONTINUOUS
 62
    3
 10
223.693337501212
 20
588.53877062026277
 11
223.58866550121195
 21
586.54151162026255
  0
LINE
  8
_0-0_0
  6
CONTINUOUS
 62
    3
 10
223.58866550121195
 20
586.54151162026255
 11
225.53358850121197
 21
585.43821062026268
  0
LINE
  8
_0-0_0
  6
CONTINUOUS
 62
    3
 10
225.53358850121197
 20
585.43821062026268
 11
225.42891650121192
 21
583.44095162026269
  0
LINE
  8
_0-0_0
  6
CONTINUOUS
 62
    3
 10
225.42891650121192
 20
583.44095162026269
 11
223.43165750121193
 21
583.54562262026275
  0
LINE
  8
_0-0_0
  6
CONTINUOUS
 62
    3
 10
223.43165750121193
 20
583.54562262026275
 11
223.32698550121199
 21
581.54836362026276
  0
LINE
  8
_0-0_0
  6
CONTINUOUS
 62
    3
 10
223.32698550121199
 20
581.54836362026276
 11
225.27190850121201
 21
580.44506262026266
  0
LINE
  8
_0-0_0
  6
CONTINUOUS
 62
    3
 10
225.27190850121201
 20
580.44506262026266
 11
225.16723650121196
 21
578.44780362026268
  0
LINE
  8
_0-0_0
  6
CONTINUOUS
 62
    3
 10
225.16723650121196
 20
578.44780362026268
 11
223.16997750121197
 21
578.55247562026261
  0
LINE
  8
_0-0_0
  6
CONTINUOUS
 62
    3
 10
223.16997750121197
 20
578.55247562026261
 11
223.06530550121192
 21
576.55521662026263
  0
LINE
  8
_0-0_0
  6
CONTINUOUS
 62
    3
 10
223.06530550121192
 20
576.55521662026263
 11
225.01022950121194
 21
575.45191462026264
  0
LINE
  8
_0-0_0
  6
CONTINUOUS
 62
    3
 10
225.01022950121194
 20
575.45191462026264
 11
224.905557501212
 21
573.45465562026266
  0
LINE
  8
_0-0_0
  6
CONTINUOUS
 62
    3
 10
224.905557501212
 20
573.45465562026266
 11
222.90829850121202
 21
573.55932762026259
  0
LINE
  8
_0-0_0
  6
CONTINUOUS
 62
    3
 10
222.90829850121202
 20
573.55932762026259
 11
222.80362650121197
 21
571.56206862026261
  0
LINE
  8
_0-0_0
  6
CONTINUOUS
 62
    3
 10
222.80362650121197
 20
571.56206862026261
 11
224.74854950121198
 21
570.45876762026273
  0
LINE
  8
_0-0_0
  6
CONTINUOUS
 62
    3
 10
224.74854950121198
 20
570.45876762026273
 11
224.64387750121193
 21
568.46150862026275
  0
LINE
  8
_0-0_0
  6
CONTINUOUS
 62
    3
 10
224.64387750121193
 20
568.46150862026275
 11
222.64661850121195
 21
568.56617962026257
  0
LINE
  8
_0-0_0
  6
CONTINUOUS
 62
    3
 10
232.05489250121195
 20
591.34600162026277
 11
230.31451650121198
 21
590.43135762026259
  0
LINE
  8
_0-0_0
  6
CONTINUOUS
 62
    3
 10
230.31451650121198
 20
590.43135762026259
 11
230.41918850121192
 21
588.4340986202626
  0
LINE
  8
_0-0_0
  6
CONTINUOUS
 62
    3
 10
230.41918850121192
 20
588.4340986202626
 11
232.41644750121191
 21
588.53877062026277
  0
LINE
  8
_0-0_0
  6
CONTINUOUS
 62
    3
 10
232.41644750121191
 20
588.53877062026277
 11
232.52111950121196
 21
586.54151162026255
  0
LINE
  8
_0-0_0
  6
CONTINUOUS
 62
    3
 10
232.52111950121196
 20
586.54151162026255
 11
230.57619650121194
 21
585.43821062026268
  0
LINE
  8
_0-0_0
  6
CONTINUOUS
 62
    3
 10
230.57619650121194
 20
585.43821062026268
 11
230.68086850121199
 21
583.44095162026269
  0
LINE
  8
_0-0_0
  6
CONTINUOUS
 62
    3
 10
230.68086850121199
 20
583.44095162026269
 11
232.67812750121197
 21
583.54562262026275
  0
LINE
  8
_0-0_0
  6
CONTINUOUS
 62
    3
 10
232.67812750121197
 20
583.54562262026275
 11
232.78279950121191
 21
581.54836362026276
  0
LINE
  8
_0-0_0
  6
CONTINUOUS
 62
    3
 10
232.78279950121191
 20
581.54836362026276
 11
230.83787650121201
 21
580.44506262026266
  0
LINE
  8
_0-0_0
  6
CONTINUOUS
 62
    3
 10
230.83787650121201
 20
580.44506262026266
 11
230.94254850121195
 21
578.44780362026268
  0
LINE
  8
_0-0_0
  6
CONTINUOUS
 62
    3
 10
230.94254850121195
 20
578.44780362026268
 11
232.93980750121193
 21
578.55247562026261
  0
LINE
  8
_0-0_0
  6
CONTINUOUS
 62
    3
 10
232.93980750121193
 20
578.55247562026261
 11
233.04447950121198
 21
576.55521662026263
  0
LINE
  8
_0-0_0
  6
CONTINUOUS
 62
    3
 10
233.04447950121198
 20
576.55521662026263
 11
231.09955550121197
 21
575.45191462026264
  0
LINE
  8
_0-0_0
  6
CONTINUOUS
 62
    3
 10
231.09955550121197
 20
575.45191462026264
 11
231.20422750121202
 21
573.45465562026266
  0
LINE
  8
_0-0_0
  6
CONTINUOUS
 62
    3
 10
231.20422750121202
 20
573.45465562026266
 11
233.201486501212
 21
573.55932762026259
  0
LINE
  8
_0-0_0
  6
CONTINUOUS
 62
    3
 10
233.201486501212
 20
573.55932762026259
 11
233.30615850121194
 21
571.56206862026261
  0
LINE
  8
_0-0_0
  6
CONTINUOUS
 62
    3
 10
233.30615850121194
 20
571.56206862026261
 11
231.36123550121192
 21
570.45876762026273
  0
LINE
  8
_0-0_0
  6
CONTINUOUS
 62
    3
 10
231.36123550121192
 20
570.45876762026273
 11
231.46590750121197
 21
568.46150862026275
  0
LINE
  8
_0-0_0
  6
CONTINUOUS
 62
    3
 10
231.46590750121197
 20
568.46150862026275
 11
233.46316650121196
 21
568.56617962026257
  0
LINE
  8
_0-0_0
  6
CONTINUOUS
 62
    3
 10
233.46316650121196
 20
568.56617962026257
 11
233.56783850121201
 21
566.56892062026259
  0
LINE
  8
_0-0_0
  6
CONTINUOUS
 62
    3
 10
227.55489250121195
 20
595.34600162026277
 11
228.05489250121195
 21
595.34600162026277
  0
LINE
  8
_0-0_0
  6
CONTINUOUS
 62
    3
 10
228.55489250121195
 20
595.34600162026277
 11
228.05489250121195
 21
595.34600162026277
  0
LINE
  8
_0-0_0
  6
CONTINUOUS
 62
    3
 10
224.05489250121195
 20
603.34600162026277
 11
224.05489250121195
 21
595.34600162026277
  0
LINE
  8
_0-0_0
  6
CONTINUOUS
 62
    3
 10
223.05489250121195
 20
603.34600162026277
 11
224.05489250121195
 21
598.34600162026277
  0
LINE
  8
_0-0_0
  6
CONTINUOUS
 62
    3
 10
227.05489250121195
 20
603.34600162026277
 11
228.05489250121195
 21
598.34600162026277
  0
LINE
  8
_0-0_0
  6
CONTINUOUS
 62
    3
 10
229.05489250121195
 20
603.34600162026277
 11
228.05489250121195
 21
598.34600162026277
  0
LINE
  8
_0-0_0
  6
CONTINUOUS
 62
    3
 10
228.05489250121195
 20
598.34600162026277
 11
228.05489250121195
 21
603.34600162026277
  0
LINE
  8
_0-0_0
  6
CONTINUOUS
 62
    3
 10
232.05489250121195
 20
603.34600162026277
 11
232.05489250121195
 21
595.34600162026277
  0
LINE
  8
_0-0_0
  6
CONTINUOUS
 62
    3
 10
233.05489250121195
 20
603.34600162026277
 11
232.05489250121195
 21
598.34600162026277
  0
LINE
  8
_0-0_0
  6
CONTINUOUS
 62
    3
 10
229.924336501212
 20
569.2154456202627
 11
228.05489250121195
 21
567.34600162026277
  0
LINE
  8
_0-0_0
  6
CONTINUOUS
 62
    3
 10
223.682757501212
 20
609.30750062026254
 11
223.55489250121195
 21
607.84600162026277
  0
LINE
  8
_0-0_0
  6
CONTINUOUS
 62
    3
 10
232.42702750121191
 20
609.30750062026254
 11
232.55489250121195
 21
607.84600162026277
  0
ARC
  8
_0-0_0
  6
CONTINUOUS
 62
    3
 10
228.05489250121195
 20
599.14600162026272
 40
12
 50
74.506032000000005
 51
105.493968
  0
ARC
  8
_0-0_0
  6
CONTINUOUS
 62
    3
 10
225.27666850121193
 20
609.16805062026265
 40
1.6000000000000001
 50
105.493968
 51
175
  0
ARC
  8
_0-0_0
  6
CONTINUOUS
 62
    3
 10
230.83311650121198
 20
609.16805062026265
 40
1.6000000000000001
 50
5
 51
74.50603199999999
  0
LINE
  8
_0-0_0
  6
CONTINUOUS
 62
    3
 10
219.05489250121195
 20
607.84600162026277
 11
219.05489250121195
 21
606.34600162026277
  0
LINE
  8
_0-0_0
  6
CONTINUOUS
 62
    3
 10
219.05489250121195
 20
607.84600162026277
 11
237.05489250121195
 21
607.84600162026277
  0
LINE
  8
_0-0_0
  6
CONTINUOUS
 62
    3
 10
237.05489250121195
 20
607.84600162026277
 11
237.05489250121195
 21
606.34600162026277
  0
LINE
  8
_0-0_0
  6
CONTINUOUS
 62
    3
 10
201.05489250121195
 20
613.04600162026259
 11
201.05489250121195
 21
603.34600162026277
  0
LINE
  8
_0-0_0
  6
CONTINUOUS
 62
    3
 10
203.05489250121195
 20
603.34600162026277
 11
201.05489250121195
 21
613.04600162026259
  0
ARC
  8
_0-0_0
  6
CONTINUOUS
 62
    3
 10
176.01593147121196
 20
608.36709109526259
 40
19.399999999999999
 50
345
 51
14.019465916000001
  0
LINE
  8
_0-0_0
  6
CONTINUOUS
 62
    3
 10
448.197321001712
 20
627.0269506202626
 11
441.39369900171187
 21
626.03459562026273
  0
ARC
  8
_0-0_0
  6
CONTINUOUS
 62
    3
 10
441.33596700171188
 20
626.43040762026271
 40
0.4
 50
188.13010199999999
 51
278.29846600000002
  0
LINE
  8
_0-0_0
  6
CONTINUOUS
 62
    3
 10
440.93998700171187
 20
626.37383862026263
 11
440.91186900171192
 21
626.57066362026262
  0
ARC
  8
_0-0_0
  6
CONTINUOUS
 62
    3
 10
441.30784900171193
 20
626.62723162026259
 40
0.4
 50
98.130101999990003
 51
188.13010199999999
  0
LINE
  8
_0-0_0
  6
CONTINUOUS
 62
    3
 10
441.25128000171208
 20
627.0232116202626
 11
447.85530100171195
 21
627.96664362026263
  0
LINE
  8
_0-0_0
  6
CONTINUOUS
 62
    3
 10
448.197321001712
 20
627.0269506202626
 11
441.39369900171187
 21
626.03459562026273
  0
ARC
  8
_0-0_0
  6
CONTINUOUS
 62
    3
 10
441.33596700171188
 20
626.43040762026271
 40
0.4
 50
188.13010199999999
 51
278.29846600000002
  0
LINE
  8
_0-0_0
  6
CONTINUOUS
 62
    3
 10
440.93998700171187
 20
626.37383862026263
 11
440.91186900171192
 21
626.57066362026262
  0
ARC
  8
_0-0_0
  6
CONTINUOUS
 62
    3
 10
441.30784900171193
 20
626.62723162026259
 40
0.4
 50
98.130101999990003
 51
188.13010199999999
  0
LINE
  8
_0-0_0
  6
CONTINUOUS
 62
    3
 10
441.25128000171208
 20
627.0232116202626
 11
447.85530100171195
 21
627.96664362026263
  0
LINE
  8
_0-0_0
  6
CONTINUOUS
 62
    3
 10
448.197321001712
 20
639.66415262026271
 11
441.39369900171187
 21
640.65650762026257
  0
ARC
  8
_0-0_0
  6
CONTINUOUS
 62
    3
 10
441.33596700171188
 20
640.2606956202626
 40
0.4
 50
81.701534000000009
 51
171.86989800000001
  0
LINE
  8
_0-0_0
  6
CONTINUOUS
 62
    3
 10
440.93998700171187
 20
640.31726462026268
 11
440.91186900171192
 21
640.12043962026269
  0
ARC
  8
_0-0_0
  6
CONTINUOUS
 62
    3
 10
441.30784900171193
 20
640.06387062026261
 40
0.4
 50
171.86989800000001
 51
261.86989799999998
  0
LINE
  8
_0-0_0
  6
CONTINUOUS
 62
    3
 10
441.25128000171208
 20
639.66789162026271
 11
447.85530100171195
 21
638.72445962026268
  0
LINE
  8
_0-0_0
  6
CONTINUOUS
 62
    3
 10
445.05492200171193
 20
637.34555162026277
 11
441.05492200171193
 21
637.34555162026277
  0
LINE
  8
_0-0_0
  6
CONTINUOUS
 62
    3
 10
470.015178001712
 20
635.36329462026265
 11
469.83200300171188
 21
638.8584976202626
  0
LINE
  8
_0-0_0
  6
CONTINUOUS
 62
    3
 10
469.83200300171188
 20
638.8584976202626
 11
471.93393400171203
 21
636.96591062026255
  0
LINE
  8
_0-0_0
  6
CONTINUOUS
 62
    3
 10
471.93393400171203
 20
636.96591062026255
 11
472.01243800171187
 21
635.46796662026259
  0
LINE
  8
_0-0_0
  6
CONTINUOUS
 62
    3
 10
472.01243800171187
 20
635.46796662026259
 11
441.05492200171193
 21
633.84555162026277
  0
LINE
  8
_0-0_0
  6
CONTINUOUS
 62
    3
 10
445.05492200171193
 20
629.34555162026277
 11
441.05492200171193
 21
629.34555162026277
  0
LINE
  8
_0-0_0
  6
CONTINUOUS
 62
    3
 10
470.015178001712
 20
631.32780862026266
 11
469.83200300171188
 21
627.83260562026271
  0
LINE
  8
_0-0_0
  6
CONTINUOUS
 62
    3
 10
469.83200300171188
 20
627.83260562026271
 11
471.93393400171203
 21
629.72519262026276
  0
LINE
  8
_0-0_0
  6
CONTINUOUS
 62
    3
 10
471.93393400171203
 20
629.72519262026276
 11
472.01243800171187
 21
631.22313662026272
  0
LINE
  8
_0-0_0
  6
CONTINUOUS
 62
    3
 10
472.01243800171187
 20
631.22313662026272
 11
441.05492200171193
 21
632.84555162026277
  0
LINE
  8
_0-0_0
  6
CONTINUOUS
 62
    3
 10
452.85530100171195
 20
637.96878662026256
 11
448.197321001712
 21
639.66415262026271
  0
LINE
  8
_0-0_0
  6
CONTINUOUS
 62
    3
 10
452.85530100171195
 20
628.72231662026275
 11
448.197321001712
 21
627.0269506202626
  0
LINE
  8
_0-0_0
  6
CONTINUOUS
 62
    3
 10
445.05492200171193
 20
637.34555162026277
 11
445.96956600171188
 21
635.60517562026257
  0
LINE
  8
_0-0_0
  6
CONTINUOUS
 62
    3
 10
467.185478001712
 20
635.2149956202627
 11
469.05492200171193
 21
633.34555162026277
  0
LINE
  8
_0-0_0
  6
CONTINUOUS
 62
    3
 10
445.96956600171188
 20
635.60517562026257
 11
447.96682500171187
 21
635.70984762026274
  0
LINE
  8
_0-0_0
  6
CONTINUOUS
 62
    3
 10
447.96682500171187
 20
635.70984762026274
 11
447.86215300171193
 21
637.70710662026272
  0
LINE
  8
_0-0_0
  6
CONTINUOUS
 62
    3
 10
447.86215300171193
 20
637.70710662026272
 11
449.85941200171192
 21
637.81177862026266
  0
LINE
  8
_0-0_0
  6
CONTINUOUS
 62
    3
 10
449.85941200171192
 20
637.81177862026266
 11
450.96271300171202
 21
635.86685562026264
  0
LINE
  8
_0-0_0
  6
CONTINUOUS
 62
    3
 10
450.96271300171202
 20
635.86685562026264
 11
452.959972001712
 21
635.97152762026258
  0
LINE
  8
_0-0_0
  6
CONTINUOUS
 62
    3
 10
452.959972001712
 20
635.97152762026258
 11
452.85530100171195
 21
637.96878662026256
  0
LINE
  8
_0-0_0
  6
CONTINUOUS
 62
    3
 10
452.85530100171195
 20
637.96878662026256
 11
454.85256000171194
 21
638.07345862026273
  0
LINE
  8
_0-0_0
  6
CONTINUOUS
 62
    3
 10
454.85256000171194
 20
638.07345862026273
 11
455.95586100171204
 21
636.12853562026271
  0
LINE
  8
_0-0_0
  6
CONTINUOUS
 62
    3
 10
455.95586100171204
 20
636.12853562026271
 11
457.95312000171202
 21
636.23320762026265
  0
LINE
  8
_0-0_0
  6
CONTINUOUS
 62
    3
 10
457.95312000171202
 20
636.23320762026265
 11
457.84844800171186
 21
638.23046662026263
  0
LINE
  8
_0-0_0
  6
CONTINUOUS
 62
    3
 10
457.84844800171186
 20
638.23046662026263
 11
459.84570700171207
 21
638.33513862026257
  0
LINE
  8
_0-0_0
  6
CONTINUOUS
 62
    3
 10
459.84570700171207
 20
638.33513862026257
 11
460.94900900171206
 21
636.39021462026267
  0
LINE
  8
_0-0_0
  6
CONTINUOUS
 62
    3
 10
460.94900900171206
 20
636.39021462026267
 11
462.94626800171204
 21
636.4948866202626
  0
LINE
  8
_0-0_0
  6
CONTINUOUS
 62
    3
 10
462.94626800171204
 20
636.4948866202626
 11
462.84159600171188
 21
638.49214562026259
  0
LINE
  8
_0-0_0
  6
CONTINUOUS
 62
    3
 10
462.84159600171188
 20
638.49214562026259
 11
464.83885500171186
 21
638.59681762026275
  0
LINE
  8
_0-0_0
  6
CONTINUOUS
 62
    3
 10
464.83885500171186
 20
638.59681762026275
 11
465.94215600171196
 21
636.65189462026274
  0
LINE
  8
_0-0_0
  6
CONTINUOUS
 62
    3
 10
465.94215600171196
 20
636.65189462026274
 11
467.93941500171195
 21
636.75656662026267
  0
LINE
  8
_0-0_0
  6
CONTINUOUS
 62
    3
 10
467.93941500171195
 20
636.75656662026267
 11
467.8347440017119
 21
638.75382562026266
  0
LINE
  8
_0-0_0
  6
CONTINUOUS
 62
    3
 10
467.8347440017119
 20
638.75382562026266
 11
469.83200300171188
 21
638.8584976202626
  0
LINE
  8
_0-0_0
  6
CONTINUOUS
 62
    3
 10
445.05492200171193
 20
629.34555162026277
 11
445.96956600171188
 21
631.08592762026274
  0
LINE
  8
_0-0_0
  6
CONTINUOUS
 62
    3
 10
445.96956600171188
 20
631.08592762026274
 11
447.96682500171187
 21
630.98125562026257
  0
LINE
  8
_0-0_0
  6
CONTINUOUS
 62
    3
 10
447.96682500171187
 20
630.98125562026257
 11
447.86215300171193
 21
628.98399662026259
  0
LINE
  8
_0-0_0
  6
CONTINUOUS
 62
    3
 10
447.86215300171193
 20
628.98399662026259
 11
449.85941200171192
 21
628.87932462026265
  0
LINE
  8
_0-0_0
  6
CONTINUOUS
 62
    3
 10
449.85941200171192
 20
628.87932462026265
 11
450.96271300171202
 21
630.82424762026267
  0
LINE
  8
_0-0_0
  6
CONTINUOUS
 62
    3
 10
450.96271300171202
 20
630.82424762026267
 11
452.959972001712
 21
630.71957562026273
  0
LINE
  8
_0-0_0
  6
CONTINUOUS
 62
    3
 10
452.959972001712
 20
630.71957562026273
 11
452.85530100171195
 21
628.72231662026275
  0
LINE
  8
_0-0_0
  6
CONTINUOUS
 62
    3
 10
452.85530100171195
 20
628.72231662026275
 11
454.85256000171194
 21
628.61764462026258
  0
LINE
  8
_0-0_0
  6
CONTINUOUS
 62
    3
 10
454.85256000171194
 20
628.61764462026258
 11
455.95586100171204
 21
630.5625676202626
  0
LINE
  8
_0-0_0
  6
CONTINUOUS
 62
    3
 10
455.95586100171204
 20
630.5625676202626
 11
457.95312000171202
 21
630.45789562026266
  0
LINE
  8
_0-0_0
  6
CONTINUOUS
 62
    3
 10
457.95312000171202
 20
630.45789562026266
 11
457.84844800171186
 21
628.46063662026268
  0
LINE
  8
_0-0_0
  6
CONTINUOUS
 62
    3
 10
457.84844800171186
 20
628.46063662026268
 11
459.84570700171207
 21
628.35596462026274
  0
LINE
  8
_0-0_0
  6
CONTINUOUS
 62
    3
 10
459.84570700171207
 20
628.35596462026274
 11
460.94900900171206
 21
630.30088862026264
  0
LINE
  8
_0-0_0
  6
CONTINUOUS
 62
    3
 10
460.94900900171206
 20
630.30088862026264
 11
462.94626800171204
 21
630.1962166202627
  0
LINE
  8
_0-0_0
  6
CONTINUOUS
 62
    3
 10
462.94626800171204
 20
630.1962166202627
 11
462.84159600171188
 21
628.19895762026272
  0
LINE
  8
_0-0_0
  6
CONTINUOUS
 62
    3
 10
462.84159600171188
 20
628.19895762026272
 11
464.83885500171186
 21
628.09428562026255
  0
LINE
  8
_0-0_0
  6
CONTINUOUS
 62
    3
 10
464.83885500171186
 20
628.09428562026255
 11
465.94215600171196
 21
630.03920862026257
  0
LINE
  8
_0-0_0
  6
CONTINUOUS
 62
    3
 10
465.94215600171196
 20
630.03920862026257
 11
467.93941500171195
 21
629.93453662026263
  0
LINE
  8
_0-0_0
  6
CONTINUOUS
 62
    3
 10
467.93941500171195
 20
629.93453662026263
 11
467.8347440017119
 21
627.93727762026265
  0
LINE
  8
_0-0_0
  6
CONTINUOUS
 62
    3
 10
467.8347440017119
 20
627.93727762026265
 11
469.83200300171188
 21
627.83260562026271
  0
LINE
  8
_0-0_0
  6
CONTINUOUS
 62
    3
 10
441.05492200171193
 20
633.84555162026277
 11
441.05492200171193
 21
633.34555162026277
  0
LINE
  8
_0-0_0
  6
CONTINUOUS
 62
    3
 10
441.05492200171193
 20
632.84555162026277
 11
441.05492200171193
 21
633.34555162026277
  0
LINE
  8
_0-0_0
  6
CONTINUOUS
 62
    3
 10
433.05492200171193
 20
637.34555162026277
 11
441.05492200171193
 21
637.34555162026277
  0
LINE
  8
_0-0_0
  6
CONTINUOUS
 62
    3
 10
433.05492200171193
 20
638.34555162026277
 11
438.05492200171193
 21
637.34555162026277
  0
LINE
  8
_0-0_0
  6
CONTINUOUS
 62
    3
 10
433.05492200171193
 20
634.34555162026277
 11
438.05492200171193
 21
633.34555162026277
  0
LINE
  8
_0-0_0
  6
CONTINUOUS
 62
    3
 10
433.05492200171193
 20
632.34555162026277
 11
438.05492200171193
 21
633.34555162026277
  0
LINE
  8
_0-0_0
  6
CONTINUOUS
 62
    3
 10
438.05492200171193
 20
633.34555162026277
 11
433.05492200171193
 21
633.34555162026277
  0
LINE
  8
_0-0_0
  6
CONTINUOUS
 62
    3
 10
433.05492200171193
 20
629.34555162026277
 11
441.05492200171193
 21
629.34555162026277
  0
LINE
  8
_0-0_0
  6
CONTINUOUS
 62
    3
 10
433.05492200171193
 20
628.34555162026277
 11
438.05492200171193
 21
629.34555162026277
  0
LINE
  8
_0-0_0
  6
CONTINUOUS
 62
    3
 10
467.185478001712
 20
631.47610762026261
 11
469.05492200171193
 21
633.34555162026277
  0
LINE
  8
_0-0_0
  6
CONTINUOUS
 62
    3
 10
427.09342300171193
 20
637.71768662026261
 11
428.55492200171193
 21
637.84555162026277
  0
LINE
  8
_0-0_0
  6
CONTINUOUS
 62
    3
 10
427.09342300171193
 20
628.9734166202627
 11
428.55492200171193
 21
628.84555162026277
  0
ARC
  8
_0-0_0
  6
CONTINUOUS
 62
    3
 10
437.25492200171198
 20
633.34555162026277
 40
12
 50
164.506032
 51
195.493968
  0
ARC
  8
_0-0_0
  6
CONTINUOUS
 62
    3
 10
427.23287300171205
 20
636.12377562026268
 40
1.6000000000000001
 50
95
 51
164.506032
  0
ARC
  8
_0-0_0
  6
CONTINUOUS
 62
    3
 10
427.23287300171205
 20
630.56732762026263
 40
1.6000000000000001
 50
195.493968
 51
265
  0
LINE
  8
_0-0_0
  6
CONTINUOUS
 62
    3
 10
428.55492200171193
 20
642.34555162026277
 11
430.05492200171193
 21
642.34555162026277
  0
LINE
  8
_0-0_0
  6
CONTINUOUS
 62
    3
 10
428.55492200171193
 20
642.34555162026277
 11
428.55492200171193
 21
624.34555162026277
  0
LINE
  8
_0-0_0
  6
CONTINUOUS
 62
    3
 10
428.55492200171193
 20
624.34555162026277
 11
430.05492200171193
 21
624.34555162026277
  0
LINE
  8
_0-0_0
  6
CONTINUOUS
 62
    3
 10
452.91215621971196
 20
636.88391501526257
 11
447.85530100171195
 21
638.72445962026268
  0
LINE
  8
_0-0_0
  6
CONTINUOUS
 62
    3
 10
452.91215621971196
 20
629.80718822536255
 11
447.85530100171195
 21
627.96664362026263
  0
LINE
  8
_0-0_0
  6
CONTINUOUS
 62
    3
 10
433.05489250171195
 20
660.34550162026267
 11
433.05489250171195
 21
658.34550162026267
  0
LINE
  8
_0-0_0
  6
CONTINUOUS
 62
    3
 10
423.3548925017119
 20
660.34550162026267
 11
433.05489250171195
 21
658.34550162026267
  0
ARC
  8
_0-0_0
  6
CONTINUOUS
 62
    3
 10
428.03380302671189
 20
686.58447665026256
 40
19.399999999999999
 50
256.04374824859997
 51
285
  0
LINE
  8
_0-0_0
  6
CONTINUOUS
 62
    3
 10
423.3548925017119
 20
660.34550162026267
 11
433.05489250171195
 21
660.34550162026267
  0
ARC
  8
_0-0_0
  6
CONTINUOUS
 62
    3
 10
413.93822550171194
 20
652.54600162026259
 40
6.0833329999999997
 50
143.83135799999999
 51
216.16864200000001
  0
ARC
  8
_0-0_0
  6
CONTINUOUS
 62
    3
 10
409.83453550171203
 20
655.54600162026259
 40
1
 50
90
 51
143.83135799999999
  0
ARC
  8
_0-0_0
  6
CONTINUOUS
 62
    3
 10
409.83453550171203
 20
649.54600162026259
 40
1
 50
216.16864200000001
 51
270
  0
LINE
  8
_0-0_0
  6
CONTINUOUS
 62
    3
 10
411.6048925017119
 20
646.54600162026259
 11
412.3548925017119
 21
646.54600162026259
  0
ARC
  8
_0-0_0
  6
CONTINUOUS
 62
    3
 10
412.85488450171192
 20
648.24772162026261
 40
2
 50
180
 51
215
  0
LINE
  8
_0-0_0
  6
CONTINUOUS
 62
    3
 10
411.6048925017119
 20
646.54600162026259
 11
411.21658050171186
 21
647.10056862026272
  0
LINE
  8
_0-0_0
  6
CONTINUOUS
 62
    3
 10
411.6048925017119
 20
646.54600162026259
 11
411.6048925017119
 21
658.54600162026259
  0
LINE
  8
_0-0_0
  6
CONTINUOUS
 62
    3
 10
412.3548925017119
 20
646.54600162026259
 11
412.3548925017119
 21
658.54600162026259
  0
LINE
  8
_0-0_0
  6
CONTINUOUS
 62
    3
 10
412.3548925017119
 20
647.54600162026259
 11
413.3548925017119
 21
647.54600162026259
  0
LINE
  8
_0-0_0
  6
CONTINUOUS
 62
    3
 10
412.3548925017119
 20
657.54600162026259
 11
413.3548925017119
 21
657.54600162026259
  0
LINE
  8
_0-0_0
  6
CONTINUOUS
 62
    3
 10
420.756060501712
 20
652.54600162026259
 11
420.70908050171192
 21
654.14600162026272
  0
LINE
  8
_0-0_0
  6
CONTINUOUS
 62
    3
 10
420.756060501712
 20
652.54600162026259
 11
419.86229950171196
 21
654.14600162026272
  0
LINE
  8
_0-0_0
  6
CONTINUOUS
 62
    3
 10
417.88685850171191
 20
650.94600162026268
 11
418.92155950171195
 21
650.94600162026268
  0
LINE
  8
_0-0_0
  6
CONTINUOUS
 62
    3
 10
419.76833950171203
 20
650.94600162026268
 11
425.931132501712
 21
650.94600162026268
  0
LINE
  8
_0-0_0
  6
CONTINUOUS
 62
    3
 10
416.94611750171202
 20
654.14600162026272
 11
417.98081850171206
 21
654.14600162026272
  0
LINE
  8
_0-0_0
  6
CONTINUOUS
 62
    3
 10
418.82759850171192
 20
654.14600162026272
 11
419.86229950171196
 21
654.14600162026272
  0
LINE
  8
_0-0_0
  6
CONTINUOUS
 62
    3
 10
420.70908050171192
 20
654.14600162026272
 11
425.931132501712
 21
654.14600162026272
  0
LINE
  8
_0-0_0
  6
CONTINUOUS
 62
    3
 10
417.88685850171191
 20
650.94600162026268
 11
416.94611750171202
 21
654.14600162026272
  0
LINE
  8
_0-0_0
  6
CONTINUOUS
 62
    3
 10
417.46346750171188
 20
650.21266862026255
 11
417.88685850171191
 21
650.94600162026268
  0
LINE
  8
_0-0_0
  6
CONTINUOUS
 62
    3
 10
417.46346750171188
 20
650.21266862026255
 11
417.04007750171195
 21
650.94600162026268
  0
LINE
  8
_0-0_0
  6
CONTINUOUS
 62
    3
 10
409.83453550171203
 20
648.54600162026259
 11
410.8548925017119
 21
648.54600162026259
  0
ARC
  8
_0-0_0
  6
CONTINUOUS
 62
    3
 10
412.85474650171204
 20
656.84408462026272
 40
2
 50
145
 51
180
  0
LINE
  8
_0-0_0
  6
CONTINUOUS
 62
    3
 10
410.85488450171192
 20
648.24772162026261
 11
410.85474650171204
 21
656.84408462026272
  0
LINE
  8
_0-0_0
  6
CONTINUOUS
 62
    3
 10
409.83453550171203
 20
656.54600162026259
 11
410.8548925017119
 21
656.54600162026259
  0
LINE
  8
_0-0_0
  6
CONTINUOUS
 62
    3
 10
424.81865150171188
 20
652.54600162026259
 11
426.8548925017119
 21
652.54600162026259
  0
LINE
  8
_0-0_0
  6
CONTINUOUS
 62
    3
 10
421.25489250171199
 20
654.14600162026272
 11
421.25489250171199
 21
650.94601662026275
  0
LINE
  8
_0-0_0
  6
CONTINUOUS
 62
    3
 10
426.8548925017119
 20
652.54600162026259
 11
425.931132501712
 21
650.94600262026256
  0
LINE
  8
_0-0_0
  6
CONTINUOUS
 62
    3
 10
426.8548925017119
 20
652.54600162026259
 11
425.931132501712
 21
654.14600162026272
  0
ARC
  8
_0-0_0
  6
CONTINUOUS
 62
    3
 10
426.61956250171193
 20
652.57105962026276
 40
1.764848
 50
180.81354299999998
 51
247.04087499999997
  0
ARC
  8
_0-0_0
  6
CONTINUOUS
 62
    3
 10
425.38040850171205
 20
658.57841362026261
 40
6.0552590000000004
 50
227.0538
 51
265.02122199999997
  0
LINE
  8
_0-0_0
  6
CONTINUOUS
 62
    3
 10
419.76833950171203
 20
650.94600162026268
 11
418.82759850171192
 21
654.14600162026272
  0
LINE
  8
_0-0_0
  6
CONTINUOUS
 62
    3
 10
418.92155950171195
 20
650.94600162026268
 11
417.98081850171206
 21
654.14600162026272
  0
LINE
  8
_0-0_0
  6
CONTINUOUS
 62
    3
 10
419.34494950171188
 20
650.21266862026255
 11
418.40420850171199
 21
654.87933462026263
  0
LINE
  8
_0-0_0
  6
CONTINUOUS
 62
    3
 10
419.34494950171188
 20
650.21266862026255
 11
419.76833950171203
 21
650.94600162026268
  0
LINE
  8
_0-0_0
  6
CONTINUOUS
 62
    3
 10
419.34494950171188
 20
650.21266862026255
 11
418.92155950171195
 21
650.94600162026268
  0
LINE
  8
_0-0_0
  6
CONTINUOUS
 62
    3
 10
418.40420850171199
 20
654.87933462026263
 11
418.82759850171192
 21
654.14600162026272
  0
LINE
  8
_0-0_0
  6
CONTINUOUS
 62
    3
 10
417.98081850171206
 20
654.14600162026272
 11
418.40420850171199
 21
654.87933462026263
  0
LINE
  8
_0-0_0
  6
CONTINUOUS
 62
    3
 10
420.756060501712
 20
652.54600162026259
 11
420.285690501712
 21
654.87933462026263
  0
LINE
  8
_0-0_0
  6
CONTINUOUS
 62
    3
 10
420.285690501712
 20
654.87933462026263
 11
420.70908050171192
 21
654.14600162026272
  0
LINE
  8
_0-0_0
  6
CONTINUOUS
 62
    3
 10
419.86229950171196
 20
654.14600162026272
 11
420.285690501712
 21
654.87933462026263
  0
LINE
  8
_0-0_0
  6
CONTINUOUS
 62
    3
 10
411.6048925017119
 20
658.54600162026259
 11
411.21644250171198
 21
657.99123762026261
  0
LINE
  8
_0-0_0
  6
CONTINUOUS
 62
    3
 10
417.04007750171195
 20
650.94600162026268
 11
416.55489250171195
 21
652.59639423626277
  0
LINE
  8
_0-0_0
  6
CONTINUOUS
 62
    3
 10
416.55489250171195
 20
650.94600162026268
 11
417.04007750171195
 21
650.94600162026268
  0
LINE
  8
_0-0_0
  6
CONTINUOUS
 62
    3
 10
417.46346750171188
 20
650.21266862026255
 11
416.55489250171195
 21
654.71977585596255
  0
LINE
  8
_0-0_0
  6
CONTINUOUS
 62
    3
 10
416.55489250171195
 20
654.82362320536276
 11
416.94611750171202
 21
654.14600162026272
  0
LINE
  8
_0-0_0
  6
DOT_17
 62
    3
 10
416.09933650171206
 20
654.14600162026272
 11
415.06463550171202
 21
654.14600162026272
  0
LINE
  8
_0-0_0
  6
DOT_17
 62
    3
 10
416.09933650171206
 20
654.14600162026272
 11
416.52272750171187
 21
654.87933462026263
  0
LINE
  8
_0-0_0
  6
DOT_17
 62
    3
 10
414.12389550171201
 20
650.94600162026268
 11
415.15859650171205
 21
650.94600162026268
  0
LINE
  8
_0-0_0
  6
DOT_17
 62
    3
 10
413.3548925017119
 20
654.14600162026272
 11
414.21785550171194
 21
654.14600162026272
  0
LINE
  8
_0-0_0
  6
DOT_17
 62
    3
 10
416.00537650171191
 20
650.94600162026268
 11
415.06463550171202
 21
654.14600162026272
  0
LINE
  8
_0-0_0
  6
DOT_17
 62
    3
 10
415.15859650171205
 20
650.94600162026268
 11
414.21785550171194
 21
654.14600162026272
  0
LINE
  8
_0-0_0
  6
DOT_17
 62
    3
 10
415.58198650171198
 20
650.21266862026255
 11
414.64124550171186
 21
654.87933462026263
  0
LINE
  8
_0-0_0
  6
DOT_17
 62
    3
 10
415.58198650171198
 20
650.21266862026255
 11
416.00537650171191
 21
650.94600162026268
  0
LINE
  8
_0-0_0
  6
DOT_17
 62
    3
 10
415.58198650171198
 20
650.21266862026255
 11
415.15859650171205
 21
650.94600162026268
  0
LINE
  8
_0-0_0
  6
DOT_17
 62
    3
 10
414.64124550171186
 20
654.87933462026263
 11
415.06463550171202
 21
654.14600162026272
  0
LINE
  8
_0-0_0
  6
DOT_17
 62
    3
 10
414.21785550171194
 20
654.14600162026272
 11
414.64124550171186
 21
654.87933462026263
  0
LINE
  8
_0-0_0
  6
DOT_17
 62
    3
 10
413.3548925017119
 20
653.56182162026266
 11
414.12389550171201
 21
650.94600162026268
  0
LINE
  8
_0-0_0
  6
DOT_17
 62
    3
 10
413.3548925017119
 20
651.92712362026259
 11
413.70050450171198
 21
650.21266862026255
  0
LINE
  8
_0-0_0
  6
DOT_17
 62
    3
 10
413.70050450171198
 20
650.21266862026255
 11
414.12389550171201
 21
650.94600162026268
  0
LINE
  8
_0-0_0
  6
DOT_17
 62
    3
 10
413.3548925017119
 20
650.81128662026276
 11
413.70050450171198
 21
650.21266862026255
  0
LINE
  8
_0-0_0
  6
DOT_17
 62
    3
 10
416.55489250171195
 20
652.59639423626277
 11
416.09933650171206
 21
654.14600162026272
  0
LINE
  8
_0-0_0
  6
DOT_17
 62
    3
 10
416.00537650171191
 20
650.94600162026268
 11
416.55489250171195
 21
650.94600162026268
  0
LINE
  8
_0-0_0
  6
DOT_17
 62
    3
 10
416.55489250171195
 20
654.71977585596255
 11
416.52272750171187
 21
654.87933462026263
  0
LINE
  8
_0-0_0
  6
CONTINUOUS
 62
    3
 10
411.60533445271199
 20
658.54600162026259
 11
412.35533445271199
 21
658.54600162026259
  0
LINE
  8
_0-0_0
  6
CONTINUOUS
 62
    3
 10
222.64661850121195
 20
568.56617962026257
 11
222.54194650121201
 21
566.56892062026259
  0
LINE
  8
_0-0_0
  6
CONTINUOUS
 62
    3
 10
223.05489250121195
 20
603.34600162026277
 11
233.05489250121195
 21
603.34600162026277
  0
LINE
  8
_0-0_0
  6
CONTINUOUS
 62
    3
 10
219.05489250121195
 20
606.34600162026277
 11
237.05489250121195
 21
606.34600162026277
  0
LINE
  8
_0-0_0
  6
CONTINUOUS
 62
    3
 10
433.05492200171193
 20
638.34555162026277
 11
433.05492200171193
 21
628.34555162026277
  0
LINE
  8
_0-0_0
  6
CONTINUOUS
 62
    3
 10
430.05492200171193
 20
642.34555162026277
 11
430.05492200171193
 21
624.34555162026277
  0
LINE
  8
_0-0_0
  6
CONTINUOUS
 62
    3
 10
433.05489250171195
 20
658.34550162026267
 11
423.3548925017119
 21
658.34550162026267
  0
LINE
  8
_0-0_0
  6
CONTINUOUS
 62
    3
 10
423.3548925017119
 20
660.34550162026267
 11
423.3548925017119
 21
658.34550162026267
  0
LINE
  8
_0-0_0
  6
CONTINUOUS
 62
    3
 10
432.05489250171195
 20
658.34600162026277
 11
432.05489250171195
 21
656.84600162026277
  0
LINE
  8
_0-0_0
  6
CONTINUOUS
 62
    3
 10
432.05489250171195
 20
615.34600162026277
 11
432.05489250171195
 21
613.84600162026277
  0
LINE
  8
_0-0_0
  6
CONTINUOUS
 62
    3
 10
432.05489250171195
 20
605.34600162026277
 11
432.05489250171195
 21
603.84600162026277
  0
LINE
  8
_0-0_0
  6
CONTINUOUS
 62
    3
 10
432.05489250171195
 20
605.34600162026277
 11
431.55489250171195
 21
605.34600162026277
  0
LINE
  8
_0-0_0
  6
CONTINUOUS
 62
    3
 10
431.55489250171195
 20
613.84600162026277
 11
431.55489250171195
 21
605.34600162026277
  0
LINE
  8
_0-0_0
  6
CONTINUOUS
 62
    3
 10
432.05489250171195
 20
613.84600162026277
 11
431.55489250171195
 21
613.84600162026277
  0
LINE
  8
_0-0_0
  6
CONTINUOUS
 62
    3
 10
432.05489250171195
 20
615.34600162026277
 11
431.55489250171195
 21
615.34600162026277
  0
LINE
  8
_0-0_0
  6
CONTINUOUS
 62
    3
 10
431.55489250171195
 20
626.84600162026277
 11
431.55489250171195
 21
615.34600162026277
  0
LINE
  8
_0-0_0
  6
CONTINUOUS
 62
    3
 10
431.55489250171195
 20
656.84600162026277
 11
431.55489250171195
 21
639.84600162026277
  0
LINE
  8
_0-0_0
  6
CONTINUOUS
 62
    3
 10
432.05489250171195
 20
656.84600162026277
 11
431.55489250171195
 21
656.84600162026277
  0
LINE
  8
_0-0_0
  6
CONTINUOUS
 62
    3
 10
432.05489250171195
 20
603.84600162026277
 11
421.05489250171195
 21
603.84600162026277
  0
ARC
  8
_0-0_0
  6
CONTINUOUS
 62
    3
 10
421.05489250171195
 20
604.84600162026277
 40
1
 50
180
 51
270
  0
ARC
  8
_0-0_0
  6
CONTINUOUS
 62
    3
 10
429.05489250171195
 20
606.34600162026277
 40
1
 50
270
 51
0
  0
LINE
  8
_0-0_0
  6
CONTINUOUS
 62
    3
 10
430.3548925017119
 20
633.34600162026277
 11
430.05489250171195
 21
633.64600162026272
  0
LINE
  8
_0-0_0
  6
CONTINUOUS
 62
    3
 10
430.3548925017119
 20
633.34600162026277
 11
430.05489250171195
 21
633.04600162026259
  0
LINE
  8
_0-0_0
  6
CONTINUOUS
 62
    3
 10
430.05489250171195
 20
633.04600162026259
 11
430.05489250171195
 21
606.34600162026277
  0
LINE
  8
_0-0_0
  6
CONTINUOUS
 62
    3
 10
415.55489250171195
 20
646.34600162026277
 11
414.55489250171195
 21
646.34600162026277
  0
ARC
  8
_0-0_0
  6
CONTINUOUS
 62
    3
 10
415.55489250171195
 20
647.34600162026277
 40
1
 50
270
 51
0
  0
LINE
  8
_0-0_0
  6
CONTINUOUS
 62
    3
 10
429.05489250171195
 20
605.34600162026277
 11
422.05489250171195
 21
605.34600162026277
  0
ARC
  8
_0-0_0
  6
CONTINUOUS
 62
    3
 10
422.05489250171195
 20
605.84600162026277
 40
0.5
 50
180
 51
270
  0
LINE
  8
_0-0_0
  6
CONTINUOUS
 62
    3
 10
430.05489250171195
 20
656.04600162026259
 11
430.05489250171195
 21
633.64600162026272
  0
ARC
  8
_0-0_0
  6
CONTINUOUS
 62
    3
 10
429.55489250171195
 20
656.04600162026259
 40
0.5
 50
0
 51
90
  0
LINE
  8
_0-0_0
  6
CONTINUOUS
 62
    3
 10
416.55489250171195
 20
656.04600162026259
 11
416.55489250171195
 21
647.34600162026277
  0
LINE
  8
_0-0_0
  6
CONTINUOUS
 62
    3
 10
429.55489250171195
 20
656.54600162026259
 11
417.05489250171195
 21
656.54600162026259
  0
ARC
  8
_0-0_0
  6
CONTINUOUS
 62
    3
 10
417.05489250171195
 20
656.04600162026259
 40
0.5
 50
90
 51
180
  0
LINE
  8
_0-0_0
  6
CONTINUOUS
 62
    3
 10
432.05489250171195
 20
658.34600162026277
 11
416.55489250171195
 21
658.34600162026277
  0
ARC
  8
_0-0_0
  6
CONTINUOUS
 62
    3
 10
416.55489250171195
 20
658.84600162026277
 40
0.5
 50
180
 51
270
  0
ARC
  8
_0-0_0
  6
CONTINUOUS
 62
    3
 10
417.75489250171199
 20
664.14600162026272
 40
0.5
 50
270
 51
0
  0
LINE
  8
_0-0_0
  6
CONTINUOUS
 62
    3
 10
416.05489250171195
 20
663.14600162026272
 11
416.05489250171195
 21
658.84600162026277
  0
LINE
  8
_0-0_0
  6
CONTINUOUS
 62
    3
 10
417.75489250171199
 20
663.64600162026272
 11
416.55489250171195
 21
663.64600162026272
  0
ARC
  8
_0-0_0
  6
CONTINUOUS
 62
    3
 10
416.55489250171195
 20
663.14600162026272
 40
0.5
 50
90
 51
180
  0
LINE
  8
_0-0_0
  6
CONTINUOUS
 62
    3
 10
418.25489250171199
 20
667.84600162026277
 11
418.25489250171199
 21
664.14600162026272
  0
ARC
  8
_0-0_0
  6
CONTINUOUS
 62
    3
 10
417.75489250171199
 20
667.84600162026277
 40
0.5
 50
0
 51
90
  0
ARC
  8
_0-0_0
  6
CONTINUOUS
 62
    3
 10
416.55489250171195
 20
666.34600162026277
 40
0.5
 50
0
 51
90
  0
LINE
  8
_0-0_0
  6
CONTINUOUS
 62
    3
 10
417.05489250171195
 20
666.34600162026277
 11
417.05489250171195
 21
665.64600162026272
  0
ARC
  8
_0-0_0
  6
CONTINUOUS
 62
    3
 10
416.55489250171195
 20
665.64600162026272
 40
0.5
 50
270
 51
0
  0
LINE
  8
_0-0_0
  6
CONTINUOUS
 62
    3
 10
414.55489250171195
 20
664.64600162026272
 11
414.55489250171195
 21
646.34600162026277
  0
LINE
  8
_0-0_0
  6
CONTINUOUS
 62
    3
 10
416.55489250171195
 20
665.14600162026272
 11
415.05489250171195
 21
665.14600162026272
  0
ARC
  8
_0-0_0
  6
CONTINUOUS
 62
    3
 10
415.05489250171195
 20
664.64600162026272
 40
0.5
 50
90
 51
180
  0
LINE
  8
_0-0_0
  6
CONTINUOUS
 62
    3
 10
416.55489250171195
 20
666.84600162026277
 11
415.05489250171195
 21
666.84600162026277
  0
ARC
  8
_0-0_0
  6
CONTINUOUS
 62
    3
 10
415.05489250171195
 20
667.34600162026277
 40
0.5
 50
180
 51
270
  0
LINE
  8
_0-0_0
  6
CONTINUOUS
 62
    3
 10
414.55489250171195
 20
668.14600162026272
 11
414.55489250171195
 21
667.34600162026277
  0
LINE
  8
_0-0_0
  6
CONTINUOUS
 62
    3
 10
417.75489250171199
 20
668.34600162026277
 11
414.75489250171199
 21
668.34600162026277
  0
ARC
  8
_0-0_0
  6
CONTINUOUS
 62
    3
 10
414.75489250171199
 20
668.14600162026272
 40
0.2
 50
90
 51
180
  0
ARC
  8
_0-0_0
  6
CONTINUOUS
 62
    3
 10
420.80489250171195
 20
614.59600162026277
 40
0.75
 50
0
 51
180
  0
LINE
  8
_0-0_0
  6
CONTINUOUS
 62
    3
 10
420.05489250171195
 20
614.59600162026277
 11
420.05489250171195
 21
604.84600162026277
  0
LINE
  8
_0-0_0
  6
CONTINUOUS
 62
    3
 10
421.55489250171195
 20
614.59600162026277
 11
421.55489250171195
 21
605.84600162026277
  0
LINE
  8
_0-0_0
  6
CONTINUOUS
 62
    3
 10
432.05489250171195
 20
658.34550162026267
 11
416.55489250171195
 21
658.34550162026267
  0
LINE
  8
_0-0_0
  6
CONTINUOUS
 62
    3
 10
432.05489250171195
 20
658.34550162026267
 11
416.55489250171195
 21
658.34550162026267
  0
LINE
  8
_0-0_0
  6
CONTINUOUS
 62
    3
 10
432.05489250171195
 20
639.84600162026277
 11
431.55489250171195
 21
639.84600162026277
  0
LINE
  8
_0-0_0
  6
CONTINUOUS
 62
    3
 10
432.05489250171195
 20
626.84600162026277
 11
431.55489250171195
 21
626.84600162026277
  0
LINE
  8
_0-0_0
  6
CONTINUOUS
 62
    3
 10
432.05489250171195
 20
639.84600162026277
 11
432.05489250171195
 21
626.84600162026277
  0
ARC
  8
_0-0_0
  6
CONTINUOUS
 62
    3
 10
209.05489250121195
 20
622.46266862026255
 40
6.0833329999999997
 50
53.831358000000002
 51
126.16864200000002
  0
ARC
  8
_0-0_0
  6
CONTINUOUS
 62
    3
 10
212.05489250121195
 20
626.56635862026269
 40
1
 50
0
 51
53.831358000000002
  0
ARC
  8
_0-0_0
  6
CONTINUOUS
 62
    3
 10
206.05489250121195
 20
626.56635862026269
 40
1
 50
126.16864200000002
 51
180
  0
LINE
  8
_0-0_0
  6
CONTINUOUS
 62
    3
 10
203.05489250121195
 20
624.79600162026259
 11
203.05489250121195
 21
624.04600162026259
  0
ARC
  8
_0-0_0
  6
CONTINUOUS
 62
    3
 10
204.75661250121198
 20
623.54600962026257
 40
2
 50
90
 51
125.00000000000001
  0
LINE
  8
_0-0_0
  6
CONTINUOUS
 62
    3
 10
203.05489250121195
 20
624.79600162026259
 11
203.60945950121197
 21
625.18431362026263
  0
LINE
  8
_0-0_0
  6
CONTINUOUS
 62
    3
 10
203.05489250121195
 20
624.79600162026259
 11
215.05489250121195
 21
624.79600162026259
  0
LINE
  8
_0-0_0
  6
CONTINUOUS
 62
    3
 10
203.05489250121195
 20
624.04600162026259
 11
215.05489250121195
 21
624.04600162026259
  0
LINE
  8
_0-0_0
  6
CONTINUOUS
 62
    3
 10
204.05489250121195
 20
624.04600162026259
 11
204.05489250121195
 21
623.04600162026259
  0
LINE
  8
_0-0_0
  6
CONTINUOUS
 62
    3
 10
214.05489250121195
 20
624.04600162026259
 11
214.05489250121195
 21
623.04600162026259
  0
LINE
  8
_0-0_0
  6
CONTINUOUS
 62
    3
 10
209.05489250121195
 20
615.64483362026272
 11
210.65489250121198
 21
615.69181362026256
  0
LINE
  8
_0-0_0
  6
CONTINUOUS
 62
    3
 10
209.05489250121195
 20
615.64483362026272
 11
210.65489250121198
 21
616.53859462026276
  0
LINE
  8
_0-0_0
  6
CONTINUOUS
 62
    3
 10
207.45489250121193
 20
618.51403562026258
 11
207.45489250121193
 21
617.47933462026276
  0
LINE
  8
_0-0_0
  6
CONTINUOUS
 62
    3
 10
207.45489250121193
 20
616.63255462026268
 11
207.45489250121193
 21
610.46976162026272
  0
LINE
  8
_0-0_0
  6
CONTINUOUS
 62
    3
 10
210.65489250121198
 20
619.45477662026269
 11
210.65489250121198
 21
618.42007562026265
  0
LINE
  8
_0-0_0
  6
CONTINUOUS
 62
    3
 10
210.65489250121198
 20
617.57329562026257
 11
210.65489250121198
 21
616.53859462026276
  0
LINE
  8
_0-0_0
  6
CONTINUOUS
 62
    3
 10
210.65489250121198
 20
615.69181362026256
 11
210.65489250121198
 21
610.46976162026272
  0
LINE
  8
_0-0_0
  6
CONTINUOUS
 62
    3
 10
207.45489250121193
 20
618.51403562026258
 11
210.65489250121198
 21
619.45477662026269
  0
LINE
  8
_0-0_0
  6
CONTINUOUS
 62
    3
 10
206.72155950121191
 20
618.93742662026261
 11
207.45489250121193
 21
618.51403562026258
  0
LINE
  8
_0-0_0
  6
CONTINUOUS
 62
    3
 10
206.72155950121191
 20
618.93742662026261
 11
207.45489250121193
 21
619.36081662026277
  0
LINE
  8
_0-0_0
  6
CONTINUOUS
 62
    3
 10
205.05489250121195
 20
626.56635862026269
 11
205.05489250121195
 21
625.54600162026259
  0
ARC
  8
_0-0_0
  6
CONTINUOUS
 62
    3
 10
213.35297550121197
 20
623.54614762026267
 40
2
 50
54.99999999999001
 51
90
  0
LINE
  8
_0-0_0
  6
CONTINUOUS
 62
    3
 10
204.75661250121198
 20
625.54600962026257
 11
213.35297550121197
 21
625.54614762026267
  0
LINE
  8
_0-0_0
  6
CONTINUOUS
 62
    3
 10
213.05489250121195
 20
626.56635862026269
 11
213.05489250121195
 21
625.54600162026259
  0
LINE
  8
_0-0_0
  6
CONTINUOUS
 62
    3
 10
209.05489250121195
 20
611.5822426202626
 11
209.05489250121195
 21
609.54600162026259
  0
LINE
  8
_0-0_0
  6
CONTINUOUS
 62
    3
 10
210.65489250121198
 20
615.14600162026272
 11
207.45490750121201
 21
615.14600162026272
  0
LINE
  8
_0-0_0
  6
CONTINUOUS
 62
    3
 10
209.05489250121195
 20
609.54600162026259
 11
207.45489350121193
 21
610.46976162026272
  0
LINE
  8
_0-0_0
  6
CONTINUOUS
 62
    3
 10
209.05489250121195
 20
609.54600162026259
 11
210.65489250121198
 21
610.46976162026272
  0
ARC
  8
_0-0_0
  6
CONTINUOUS
 62
    3
 10
209.07995050121201
 20
609.78133162026256
 40
1.764848
 50
90.813542999990005
 51
157.040875
  0
ARC
  8
_0-0_0
  6
CONTINUOUS
 62
    3
 10
215.08730450121197
 20
611.02048562026266
 40
6.0552590000000004
 50
137.05380000000002
 51
175.02122199999999
  0
LINE
  8
_0-0_0
  6
CONTINUOUS
 62
    3
 10
207.45489250121193
 20
616.63255462026268
 11
210.65489250121198
 21
617.57329562026257
  0
LINE
  8
_0-0_0
  6
CONTINUOUS
 62
    3
 10
207.45489250121193
 20
617.47933462026276
 11
210.65489250121198
 21
618.42007562026265
  0
LINE
  8
_0-0_0
  6
CONTINUOUS
 62
    3
 10
206.72155950121191
 20
617.05594462026261
 11
211.38822550121199
 21
617.99668562026272
  0
LINE
  8
_0-0_0
  6
CONTINUOUS
 62
    3
 10
206.72155950121191
 20
617.05594462026261
 11
207.45489250121193
 21
616.63255462026268
  0
LINE
  8
_0-0_0
  6
CONTINUOUS
 62
    3
 10
206.72155950121191
 20
617.05594462026261
 11
207.45489250121193
 21
617.47933462026276
  0
LINE
  8
_0-0_0
  6
CONTINUOUS
 62
    3
 10
211.38822550121199
 20
617.99668562026272
 11
210.65489250121198
 21
617.57329562026257
  0
LINE
  8
_0-0_0
  6
CONTINUOUS
 62
    3
 10
210.65489250121198
 20
618.42007562026265
 11
211.38822550121199
 21
617.99668562026272
  0
LINE
  8
_0-0_0
  6
CONTINUOUS
 62
    3
 10
209.05489250121195
 20
615.64483362026272
 11
211.38822550121199
 21
616.11520362026272
  0
LINE
  8
_0-0_0
  6
CONTINUOUS
 62
    3
 10
211.38822550121199
 20
616.11520362026272
 11
210.65489250121198
 21
615.69181362026256
  0
LINE
  8
_0-0_0
  6
CONTINUOUS
 62
    3
 10
210.65489250121198
 20
616.53859462026276
 11
211.38822550121199
 21
616.11520362026272
  0
LINE
  8
_0-0_0
  6
CONTINUOUS
 62
    3
 10
215.05489250121195
 20
624.79600162026259
 11
214.50012850121198
 21
625.18445162026273
  0
LINE
  8
_0-0_0
  6
CONTINUOUS
 62
    3
 10
207.45489250121193
 20
619.36081662026277
 11
209.10528511731195
 21
619.84600162026277
  0
LINE
  8
_0-0_0
  6
CONTINUOUS
 62
    3
 10
207.45489250121193
 20
619.84600162026277
 11
207.45489250121193
 21
619.36081662026277
  0
LINE
  8
_0-0_0
  6
CONTINUOUS
 62
    3
 10
206.72155950121191
 20
618.93742662026261
 11
211.22866673701196
 21
619.84600162026277
  0
LINE
  8
_0-0_0
  6
CONTINUOUS
 62
    3
 10
211.33251408641195
 20
619.84600162026277
 11
210.65489250121198
 21
619.45477662026269
  0
LINE
  8
_0-0_0
  6
DOT_17
 62
    3
 10
210.65489250121198
 20
620.30155762026266
 11
210.65489250121198
 21
621.3362586202627
  0
LINE
  8
_0-0_0
  6
DOT_17
 62
    3
 10
210.65489250121198
 20
620.30155762026266
 11
211.38822550121199
 21
619.87816662026262
  0
LINE
  8
_0-0_0
  6
DOT_17
 62
    3
 10
207.45489250121193
 20
622.2769986202627
 11
207.45489250121193
 21
621.24229762026266
  0
LINE
  8
_0-0_0
  6
DOT_17
 62
    3
 10
210.65489250121198
 20
623.04600162026259
 11
210.65489250121198
 21
622.18303862026255
  0
LINE
  8
_0-0_0
  6
DOT_17
 62
    3
 10
207.45489250121193
 20
620.39551762026258
 11
210.65489250121198
 21
621.3362586202627
  0
LINE
  8
_0-0_0
  6
DOT_17
 62
    3
 10
207.45489250121193
 20
621.24229762026266
 11
210.65489250121198
 21
622.18303862026255
  0
LINE
  8
_0-0_0
  6
DOT_17
 62
    3
 10
206.72155950121191
 20
620.81890762026273
 11
211.38822550121199
 21
621.75964862026262
  0
LINE
  8
_0-0_0
  6
DOT_17
 62
    3
 10
206.72155950121191
 20
620.81890762026273
 11
207.45489250121193
 21
620.39551762026258
  0
LINE
  8
_0-0_0
  6
DOT_17
 62
    3
 10
206.72155950121191
 20
620.81890762026273
 11
207.45489250121193
 21
621.24229762026266
  0
LINE
  8
_0-0_0
  6
DOT_17
 62
    3
 10
211.38822550121199
 20
621.75964862026262
 11
210.65489250121198
 21
621.3362586202627
  0
LINE
  8
_0-0_0
  6
DOT_17
 62
    3
 10
210.65489250121198
 20
622.18303862026255
 11
211.38822550121199
 21
621.75964862026262
  0
LINE
  8
_0-0_0
  6
DOT_17
 62
    3
 10
210.07071250121191
 20
623.04600162026259
 11
207.45489250121193
 21
622.2769986202627
  0
LINE
  8
_0-0_0
  6
DOT_17
 62
    3
 10
208.43601450121196
 20
623.04600162026259
 11
206.72155950121191
 21
622.70038962026274
  0
LINE
  8
_0-0_0
  6
DOT_17
 62
    3
 10
206.72155950121191
 20
622.70038962026274
 11
207.45489250121193
 21
622.2769986202627
  0
LINE
  8
_0-0_0
  6
DOT_17
 62
    3
 10
207.32017750121202
 20
623.04600162026259
 11
206.72155950121191
 21
622.70038962026274
  0
LINE
  8
_0-0_0
  6
DOT_17
 62
    3
 10
209.10528511731195
 20
619.84600162026277
 11
210.65489250121198
 21
620.30155762026266
  0
LINE
  8
_0-0_0
  6
DOT_17
 62
    3
 10
207.45489250121193
 20
620.39551762026258
 11
207.45489250121193
 21
619.84600162026277
  0
LINE
  8
_0-0_0
  6
DOT_17
 62
    3
 10
211.22866673701196
 20
619.84600162026277
 11
211.38822550121199
 21
619.87816662026262
  0
LINE
  8
_0-0_0
  6
DOT_17
 62
    3
 10
211.38822550121199
 20
619.87816662026262
 11
211.33251408641195
 21
619.84600162026277
  0
LINE
  8
_0-0_0
  6
CONTINUOUS
 62
    3
 10
215.05489250121195
 20
624.79555966836256
 11
215.05489250121195
 21
624.04555966836256
  0
ARC
  8
_0-0_0
  6
CONTINUOUS
 62
    3
 10
283.72680750121197
 20
593.34600162026277
 40
10
 50
7.6880370000000005
 51
90.000000000000014
  0
ARC
  8
_0-0_0
  6
CONTINUOUS
 62
    3
 10
283.72680750121197
 20
592.84600162026277
 40
11.5
 50
7.6880370000000005
 51
90.000000000000014
  0
ARC
  8
_0-0_0
  6
CONTINUOUS
 62
    3
 10
357.80489250121195
 20
602.84600162026277
 40
63.25
 50
187.68803700000004
 51
270.22646800000001
  0
ARC
  8
_0-0_0
  6
CONTINUOUS
 62
    3
 10
357.80489250121195
 20
603.34600162026277
 40
64.75
 50
187.68803700000004
 51
270.22122100000001
  0
ARC
  8
_0-0_0
  6
CONTINUOUS
 62
    3
 10
358.30489250121195
 20
603.34600162026277
 40
64.75
 50
269.77878199999998
 51
328.78320279383001
  0
ARC
  8
_0-0_0
  6
CONTINUOUS
 62
    3
 10
358.30489250121195
 20
602.84600162026277
 40
63.25
 50
269.77353599999998
 51
329.14665783506996
  0
LINE
  8
_0-0_0
  6
CONTINUOUS
 62
    3
 10
203.05489250121195
 20
604.34600162026277
 11
283.72680750121197
 21
604.34600162026277
  0
LINE
  8
_0-0_0
  6
CONTINUOUS
 62
    3
 10
203.05489250121195
 20
603.34600162026277
 11
283.72680750121197
 21
603.34600162026277
  0
LINE
  8
_0-0_0
  6
CONTINUOUS
 62
    3
 10
432.05489250171195
 20
658.34550162026267
 11
432.05489250171195
 21
603.84600162026277
  0
LINE
  8
_0-0_0
  6
CONTINUOUS
 62
    3
 10
433.05489250171195
 20
658.34550162026267
 11
433.05489250171195
 21
603.09458041846256
  0
LINE
  8
_0-0_0
  6
CONTINUOUS
 62
    3
 10
412.60393052971199
 20
570.40872415756257
 11
432.05489250171195
 21
603.84637162026274
  0
LINE
  8
_0-0_0
  6
CONTINUOUS
 62
    3
 10
413.67989250171195
 20
569.78751722366269
 11
433.05489250171195
 21
603.09458041846256
  0
LINE
  8
_0-0_0
  6
CENTER
 62
    3
 10
358.05489250121195
 20
500.94219105256269
 11
358.05489250121195
 21
652.89124181206262
  0
LINE
  8
_0-0_0
  6
CONTINUOUS
 62
    3
 10
209.05489250121195
 20
633.34600162026277
 11
209.05489250121195
 21
643.34600162026277
  0
LINE
  8
_0-0_0
  6
CONTINUOUS
 62
    3
 10
209.05489250121195
 20
643.34600162026277
 11
209.05489250121195
 21
648.14600162026272
  0
LINE
  8
_0-0_0
  6
CONTINUOUS
 62
    3
 10
193.05489250121195
 20
628.34600162026277
 11
193.05489250121195
 21
643.34600162026277
  0
LINE
  8
_0-0_0
  6
CONTINUOUS
 62
    3
 10
193.05489250121195
 20
643.34600162026277
 11
193.05489250121195
 21
648.14600162026272
  0
LINE
  8
_0-0_0
  6
CONTINUOUS
 62
    3
 10
236.05489250121195
 20
623.34600162026277
 11
250.488649231012
 21
648.34600162026277
  0
LINE
  8
_0-0_0
  6
CONTINUOUS
 62
    3
 10
209.05489250121195
 20
628.84600162026277
 11
217.42647140451197
 21
643.34600162026277
  0
LINE
  8
_0-0_0
  6
CONTINUOUS
 62
    3
 10
293.35435171661197
 20
619.69602837036268
 11
309.89542148471196
 21
648.34600162026277
  0
CIRCLE
  8
_0-0_0
  6
CONTINUOUS
 62
    3
 10
312.39542148471196
 20
652.6761286391627
 40
5
  0
CIRCLE
  8
_0-0_0
  6
CONTINUOUS
 62
    3
 10
252.988649231012
 20
652.6761286391627
 40
5
  0
CIRCLE
  8
_0-0_0
  6
CONTINUOUS
 62
    3
 10
219.92647140451197
 20
647.6761286391627
 40
5
  0
CIRCLE
  8
_0-0_0
  6
CONTINUOUS
 62
    3
 10
312.10189788501191
 20
632.6761286391627
 40
5
  0
LINE
  8
_0-0_0
  6
CONTINUOUS
 62
    3
 10
309.60189788501191
 20
628.34600162026277
 11
298.05489250121195
 21
608.34600162026277
  0
LINE
  8
_0-0_0
  6
CONTINUOUS
 62
    3
 10
304.31691618031198
 20
567.51909633646255
 11
313.45458420631201
 21
583.34600162026277
  0
CIRCLE
  8
_0-0_0
  6
CONTINUOUS
 62
    3
 10
315.55489250121195
 20
587.6761286391627
 40
5
  0
CIRCLE
  8
_0-0_0
  6
CONTINUOUS
 62
    3
 10
369.81403583921201
 20
633.6761286391627
 40
5
  0
LINE
  8
_0-0_0
  6
CONTINUOUS
 62
    3
 10
360.15489250121198
 20
616.94600162026268
 11
367.31403583921201
 21
629.34600162026277
  0
LINE
  8
_0-0_0
  6
CONTINUOUS
 62
    3
 10
283.05489250121195
 20
498.34600162026271
 11
283.05489250121195
 21
488.34600162026271
  0
LINE
  8
_0-0_0
  6
CONTINUOUS
 62
    3
 10
283.05489250121195
 20
488.34600162026271
 11
283.05489250121195
 21
483.54600162026264
  0
LINE
  8
_0-0_0
  6
CONTINUOUS
 62
    3
 10
433.05489250171195
 20
498.34600162026271
 11
433.05489250171195
 21
488.34600162026271
  0
LINE
  8
_0-0_0
  6
CONTINUOUS
 62
    3
 10
433.05489250171195
 20
488.34600162026271
 11
433.05489250171195
 21
483.54600162026264
  0
LINE
  8
_0-0_0
  6
CONTINUOUS
 62
    3
 10
228.05489250121195
 20
543.34600162026277
 11
228.05489250121195
 21
488.34600162026271
  0
LINE
  8
_0-0_0
  6
CONTINUOUS
 62
    3
 10
228.05489250121195
 20
488.34600162026271
 11
228.05489250121195
 21
483.54600162026264
  0
LINE
  8
_0-0_0
  6
CONTINUOUS
 62
    3
 10
183.05489250121195
 20
623.04600162026259
 11
173.05489250121195
 21
623.04600162026259
  0
LINE
  8
_0-0_0
  6
CONTINUOUS
 62
    3
 10
173.05489250121195
 20
623.04600162026259
 11
168.254892501212
 21
623.04600162026259
  0
LINE
  8
_0-0_0
  6
CONTINUOUS
 62
    3
 10
183.05489250121195
 20
603.34600162026277
 11
173.05489250121195
 21
603.34600162026277
  0
LINE
  8
_0-0_0
  6
CONTINUOUS
 62
    3
 10
173.05489250121195
 20
603.34600162026277
 11
168.254892501212
 21
603.34600162026277
  0
LINE
  8
_0-0_0
  6
CONTINUOUS
 62
    3
 10
173.05489250121195
 20
603.34600162026277
 11
173.05489250121195
 21
623.04600162026259
  0
LINE
  8
_0-0_0
  6
CONTINUOUS
 62
    3
 10
431.55489250171195
 20
648.34550162026267
 11
440.69256052771198
 21
664.17240690406265
  0
CIRCLE
  8
_0-0_0
  6
CONTINUOUS
 62
    3
 10
442.79286882171186
 20
668.50253392306263
 40
5
  0
LINE
  8
_0-0_0
  6
CENTER
 62
    3
 10
419.90492200171207
 20
633.34555162026277
 11
485.65587464271198
 21
633.34555162026277
  0
LINE
  8
_0-0_0
  6
CENTER
 62
    3
 10
209.05489250121195
 20
631.09600162026277
 11
209.05489250121195
 21
608.34600162026277
  0
LINE
  8
_0-0_0
  6
CENTER
 62
    3
 10
405.60489250171202
 20
652.54600162026259
 11
428.3548925017119
 21
652.54600162026259
  0
LINE
  8
_0-0_0
  6
CONTINUOUS
 62
    3
 10
183.05489250121195
 20
669.54600162026259
 11
173.05489250121195
 21
669.54600162026259
  0
LINE
  8
_0-0_0
  6
CONTINUOUS
 62
    3
 10
173.05489250121195
 20
669.54600162026259
 11
168.254892501212
 21
669.54600162026259
  0
LINE
  8
_0-0_0
  6
CONTINUOUS
 62
    3
 10
183.05489250121195
 20
623.04600162026259
 11
173.05489250121195
 21
623.04600162026259
  0
LINE
  8
_0-0_0
  6
CONTINUOUS
 62
    3
 10
173.05489250121195
 20
623.04600162026259
 11
168.254892501212
 21
623.04600162026259
  0
LINE
  8
_0-0_0
  6
CONTINUOUS
 62
    3
 10
403.05489250171195
 20
669.54600162026259
 11
393.05489250171195
 21
669.54600162026259
  0
LINE
  8
_0-0_0
  6
CONTINUOUS
 62
    3
 10
393.05489250171195
 20
669.54600162026259
 11
388.25489250171199
 21
669.54600162026259
  0
LINE
  8
_0-0_0
  6
CONTINUOUS
 62
    3
 10
403.05489250171195
 20
652.54600162026259
 11
393.05489250171195
 21
652.54600162026259
  0
LINE
  8
_0-0_0
  6
CONTINUOUS
 62
    3
 10
393.05489250171195
 20
652.54600162026259
 11
388.25489250171199
 21
652.54600162026259
  0
LINE
  8
_0-0_0
  6
CONTINUOUS
 62
    3
 10
393.05489250171195
 20
652.54600162026259
 11
393.05489250171195
 21
669.54600162026259
  0
LINE
  8
_0-0_0
  6
CONTINUOUS
 62
    3
 10
298.05489250121195
 20
673.34600162026277
 11
298.05489250121195
 21
683.34600162026277
  0
LINE
  8
_0-0_0
  6
CONTINUOUS
 62
    3
 10
298.05489250121195
 20
683.34600162026277
 11
298.05489250121195
 21
688.14600162026261
  0
LINE
  8
_0-0_0
  6
CONTINUOUS
 62
    3
 10
193.05489250121195
 20
673.34600162026277
 11
193.05489250121195
 21
683.34600162026277
  0
LINE
  8
_0-0_0
  6
CONTINUOUS
 62
    3
 10
193.05489250121195
 20
683.34600162026277
 11
193.05489250121195
 21
688.14600162026261
  0
LINE
  8
_0-0_0
  6
CONTINUOUS
 62
    3
 10
413.3548925017119
 20
673.34600162026277
 11
413.3548925017119
 21
683.34600162026277
  0
LINE
  8
_0-0_0
  6
CONTINUOUS
 62
    3
 10
413.3548925017119
 20
683.34600162026277
 11
413.3548925017119
 21
688.14600162026261
  0
LINE
  8
_0-0_0
  6
CONTINUOUS
 62
    3
 10
423.3548925017119
 20
673.34600162026277
 11
423.3548925017119
 21
683.34600162026277
  0
LINE
  8
_0-0_0
  6
CONTINUOUS
 62
    3
 10
423.3548925017119
 20
683.34600162026277
 11
423.3548925017119
 21
688.14600162026261
  0
LINE
  8
_0-0_0
  6
CONTINUOUS
 62
    3
 10
433.05489250171195
 20
673.34600162026277
 11
433.05489250171195
 21
683.34600162026277
  0
LINE
  8
_0-0_0
  6
CONTINUOUS
 62
    3
 10
433.05489250171195
 20
683.34600162026277
 11
433.05489250171195
 21
688.14600162026261
  0
LINE
  8
_0-0_0
  6
CONTINUOUS
 62
    3
 10
413.3548925017119
 20
683.34600162026277
 11
413.3548925017119
 21
698.34600162026265
  0
LINE
  8
_0-0_0
  6
CONTINUOUS
 62
    3
 10
413.3548925017119
 20
698.34600162026265
 11
413.3548925017119
 21
703.14600162026261
  0
LINE
  8
_0-0_0
  6
CONTINUOUS
 62
    3
 10
433.05489250171195
 20
683.34600162026277
 11
433.05489250171195
 21
698.34600162026265
  0
LINE
  8
_0-0_0
  6
CONTINUOUS
 62
    3
 10
433.05489250171195
 20
698.34600162026265
 11
433.05489250171195
 21
703.14600162026261
  0
LINE
  8
_0-0_0
  6
CONTINUOUS
 62
    3
 10
193.05489250121195
 20
683.34600162026277
 11
193.05489250121195
 21
698.34600162026265
  0
LINE
  8
_0-0_0
  6
CONTINUOUS
 62
    3
 10
193.05489250121195
 20
698.34600162026265
 11
193.05489250121195
 21
703.14600162026261
  0
LINE
  8
_0-0_0
  6
CONTINUOUS
 62
    3
 10
433.05489250171195
 20
698.34600162026265
 11
433.05489250171195
 21
713.34600162026265
  0
LINE
  8
_0-0_0
  6
CONTINUOUS
 62
    3
 10
433.05489250171195
 20
713.34600162026265
 11
433.05489250171195
 21
718.14600162026261
  0
LINE
  8
_0-0_0
  6
CONTINUOUS
 62
    3
 10
193.05489250121195
 20
698.34600162026265
 11
193.05489250121195
 21
713.34600162026265
  0
LINE
  8
_0-0_0
  6
CONTINUOUS
 62
    3
 10
193.05489250121195
 20
713.34600162026265
 11
193.05489250121195
 21
718.14600162026261
  0
LINE
  8
_0-0_0
  6
CONTINUOUS
 62
    3
 10
433.05489250171195
 20
666.66866140216257
 11
452.65864771371207
 21
686.27241661506264
  0
LINE
  8
_0-0_0
  6
CONTINUOUS
 62
    3
 10
194.95999741481194
 20
612.54828297406266
 11
178.10005241421197
 21
583.34600162026277
  0
LINE
  8
_0-0_0
  6
CONTINUOUS
 62
    3
 10
178.10005241421197
 20
583.34600162026277
 11
57.918400994711988
 21
583.34600162026277
  0
CIRCLE
  8
_0-0_0
  6
CONTINUOUS
 62
    3
 10
250.38021004851191
 20
584.01587460136261
 40
5
  0
LINE
  8
_0-0_0
  6
CONTINUOUS
 62
    3
 10
237.05489250121195
 20
607.09600162026277
 11
247.88021004851191
 21
588.34600162026277
  0
CIRCLE
  8
_0-0_0
  6
CONTINUOUS
 62
    3
 10
206.617803671812
 20
574.01587460136261
 40
5
  0
LINE
  8
_0-0_0
  6
CONTINUOUS
 62
    3
 10
224.23721200121201
 20
565.47870312026271
 11
217.23239352421194
 21
553.34600162026277
  0
CIRCLE
  8
_0-0_0
  6
CONTINUOUS
 62
    3
 10
214.73239352421194
 20
549.01587460136261
 40
5
  0
LINE
  8
_0-0_0
  6
CONTINUOUS
 62
    3
 10
228.05489250121195
 20
611.14600162026272
 11
209.117803671812
 21
578.34600162026277
  0
LINE
  8
_0-0_0
  6
CENTER
 62
    3
 10
228.05489250121195
 20
616.49600162026263
 11
228.05489250121195
 21
550.74504897836255
  0
LINE
  8
_0-0_0
  6
CONTINUOUS
 62
    3
 10
433.05489250171195
 20
713.34600162026265
 11
193.05489250121195
 21
713.34600162026265
  0
LINE
  8
_0-0_0
  6
CONTINUOUS
 62
    3
 10
427.25933754371204
 20
711.79308734966264
 11
433.05489250171195
 21
713.34600162026265
  0
LINE
  8
_0-0_0
  6
CONTINUOUS
 62
    3
 10
433.05489250171195
 20
713.34600162026265
 11
427.25933754371204
 21
714.89891589086255
  0
LINE
  8
_0-0_0
  6
CONTINUOUS
 62
    3
 10
198.850447459012
 20
714.89891589086255
 11
193.05489250121195
 21
713.34600162026265
  0
LINE
  8
_0-0_0
  6
CONTINUOUS
 62
    3
 10
193.05489250121195
 20
713.34600162026265
 11
198.850447459012
 21
711.79308734966264
  0
LINE
  8
_0-0_0
  6
CONTINUOUS
 62
    3
 10
413.3548925017119
 20
698.34600162026265
 11
433.05489250171195
 21
698.34600162026265
  0
LINE
  8
_0-0_0
  6
CONTINUOUS
 62
    3
 10
419.15044745871205
 20
699.89891589086255
 11
413.3548925017119
 21
698.34600162026265
  0
LINE
  8
_0-0_0
  6
CONTINUOUS
 62
    3
 10
413.3548925017119
 20
698.34600162026265
 11
419.15044745871205
 21
696.79308734966264
  0
LINE
  8
_0-0_0
  6
CONTINUOUS
 62
    3
 10
427.25933754371204
 20
696.79308734966264
 11
433.05489250171195
 21
698.34600162026265
  0
LINE
  8
_0-0_0
  6
CONTINUOUS
 62
    3
 10
433.05489250171195
 20
698.34600162026265
 11
427.25933754371204
 21
699.89891589086255
  0
LINE
  8
_0-0_0
  6
CONTINUOUS
 62
    3
 10
413.3548925017119
 20
683.34600162026277
 11
298.05489250121195
 21
683.34600162026277
  0
LINE
  8
_0-0_0
  6
CONTINUOUS
 62
    3
 10
407.55933754371199
 20
681.79308734966276
 11
413.3548925017119
 21
683.34600162026277
  0
LINE
  8
_0-0_0
  6
CONTINUOUS
 62
    3
 10
413.3548925017119
 20
683.34600162026277
 11
407.55933754371199
 21
684.89891589086255
  0
LINE
  8
_0-0_0
  6
CONTINUOUS
 62
    3
 10
303.850447459012
 20
684.89891589086255
 11
298.05489250121195
 21
683.34600162026277
  0
LINE
  8
_0-0_0
  6
CONTINUOUS
 62
    3
 10
298.05489250121195
 20
683.34600162026277
 11
303.850447459012
 21
681.79308734966276
  0
LINE
  8
_0-0_0
  6
CONTINUOUS
 62
    3
 10
298.05489250121195
 20
683.34600162026277
 11
193.05489250121195
 21
683.34600162026277
  0
LINE
  8
_0-0_0
  6
CONTINUOUS
 62
    3
 10
292.25933754351195
 20
681.79308734966276
 11
298.05489250121195
 21
683.34600162026277
  0
LINE
  8
_0-0_0
  6
CONTINUOUS
 62
    3
 10
298.05489250121195
 20
683.34600162026277
 11
292.25933754351195
 21
684.89891589086255
  0
LINE
  8
_0-0_0
  6
CONTINUOUS
 62
    3
 10
198.850447459012
 20
684.89891589086255
 11
193.05489250121195
 21
683.34600162026277
  0
LINE
  8
_0-0_0
  6
CONTINUOUS
 62
    3
 10
193.05489250121195
 20
683.34600162026277
 11
198.850447459012
 21
681.79308734966276
  0
LINE
  8
_0-0_0
  6
CONTINUOUS
 62
    3
 10
173.05489250121195
 20
669.54600162026259
 11
173.05489250121195
 21
623.04600162026259
  0
LINE
  8
_0-0_0
  6
CONTINUOUS
 62
    3
 10
174.60780677191201
 20
663.75044666256258
 11
173.05489250121195
 21
669.54600162026259
  0
LINE
  8
_0-0_0
  6
CONTINUOUS
 62
    3
 10
173.05489250121195
 20
669.54600162026259
 11
171.50197823061194
 21
663.75044666256258
  0
LINE
  8
_0-0_0
  6
CONTINUOUS
 62
    3
 10
171.50197823061194
 20
628.84155657796259
 11
173.05489250121195
 21
623.04600162026259
  0
LINE
  8
_0-0_0
  6
CONTINUOUS
 62
    3
 10
173.05489250121195
 20
623.04600162026259
 11
174.60780677191201
 21
628.84155657796259
  0
LINE
  8
_0-0_0
  6
CONTINUOUS
 62
    3
 10
173.05489250121195
 20
623.04600162026259
 11
173.05489250121195
 21
603.34600162026277
  0
LINE
  8
_0-0_0
  6
CONTINUOUS
 62
    3
 10
174.60780677191201
 20
617.25044666256258
 11
173.05489250121195
 21
623.04600162026259
  0
LINE
  8
_0-0_0
  6
CONTINUOUS
 62
    3
 10
173.05489250121195
 20
623.04600162026259
 11
171.50197823061194
 21
617.25044666256258
  0
LINE
  8
_0-0_0
  6
CONTINUOUS
 62
    3
 10
171.50197823061194
 20
609.14155657796255
 11
173.05489250121195
 21
603.34600162026277
  0
LINE
  8
_0-0_0
  6
CONTINUOUS
 62
    3
 10
173.05489250121195
 20
603.34600162026277
 11
174.60780677191201
 21
609.14155657796255
  0
LINE
  8
_0-0_0
  6
CONTINUOUS
 62
    3
 10
193.05489250121195
 20
643.34600162026277
 11
209.05489250121195
 21
643.34600162026277
  0
LINE
  8
_0-0_0
  6
CONTINUOUS
 62
    3
 10
198.850447459012
 20
644.89891589086255
 11
193.05489250121195
 21
643.34600162026277
  0
LINE
  8
_0-0_0
  6
CONTINUOUS
 62
    3
 10
193.05489250121195
 20
643.34600162026277
 11
198.850447459012
 21
641.79308734966276
  0
LINE
  8
_0-0_0
  6
CONTINUOUS
 62
    3
 10
203.25933754351195
 20
641.79308734966276
 11
209.05489250121195
 21
643.34600162026277
  0
LINE
  8
_0-0_0
  6
CONTINUOUS
 62
    3
 10
209.05489250121195
 20
643.34600162026277
 11
203.25933754351195
 21
644.89891589086255
  0
LINE
  8
_0-0_0
  6
CONTINUOUS
 62
    3
 10
228.05489250121195
 20
488.34600162026271
 11
283.05489250121195
 21
488.34600162026271
  0
LINE
  8
_0-0_0
  6
CONTINUOUS
 62
    3
 10
233.850447459012
 20
489.89891589086261
 11
228.05489250121195
 21
488.34600162026271
  0
LINE
  8
_0-0_0
  6
CONTINUOUS
 62
    3
 10
228.05489250121195
 20
488.34600162026271
 11
233.850447459012
 21
486.7930873496627
  0
LINE
  8
_0-0_0
  6
CONTINUOUS
 62
    3
 10
277.25933754351195
 20
486.7930873496627
 11
283.05489250121195
 21
488.34600162026271
  0
LINE
  8
_0-0_0
  6
CONTINUOUS
 62
    3
 10
283.05489250121195
 20
488.34600162026271
 11
277.25933754351195
 21
489.89891589086261
  0
LINE
  8
_0-0_0
  6
CONTINUOUS
 62
    3
 10
283.05489250121195
 20
488.34600162026271
 11
433.05489250171195
 21
488.34600162026271
  0
LINE
  8
_0-0_0
  6
CONTINUOUS
 62
    3
 10
288.850447459012
 20
489.89891589086261
 11
283.05489250121195
 21
488.34600162026271
  0
LINE
  8
_0-0_0
  6
CONTINUOUS
 62
    3
 10
283.05489250121195
 20
488.34600162026271
 11
288.850447459012
 21
486.7930873496627
  0
LINE
  8
_0-0_0
  6
CONTINUOUS
 62
    3
 10
427.25933754371204
 20
486.7930873496627
 11
433.05489250171195
 21
488.34600162026271
  0
LINE
  8
_0-0_0
  6
CONTINUOUS
 62
    3
 10
433.05489250171195
 20
488.34600162026271
 11
427.25933754371204
 21
489.89891589086261
  0
LINE
  8
_0-0_0
  6
CONTINUOUS
 62
    3
 10
393.05489250171195
 20
669.54600162026259
 11
393.05489250171195
 21
652.54600162026259
  0
LINE
  8
_0-0_0
  6
CONTINUOUS
 62
    3
 10
394.60780677171192
 20
663.75044666256258
 11
393.05489250171195
 21
669.54600162026259
  0
LINE
  8
_0-0_0
  6
CONTINUOUS
 62
    3
 10
393.05489250171195
 20
669.54600162026259
 11
391.50197823071198
 21
663.75044666256258
  0
LINE
  8
_0-0_0
  6
CONTINUOUS
 62
    3
 10
391.50197823071198
 20
658.34155657796259
 11
393.05489250171195
 21
652.54600162026259
  0
LINE
  8
_0-0_0
  6
CONTINUOUS
 62
    3
 10
393.05489250171195
 20
652.54600162026259
 11
394.60780677171192
 21
658.34155657796259
  0
LINE
  8
_0-0_0
  6
CONTINUOUS
 62
    3
 10
193.05489250121195
 20
698.34600162026265
 11
413.3548925017119
 21
698.34600162026265
  0
LINE
  8
_0-0_0
  6
CONTINUOUS
 62
    3
 10
198.850447459012
 20
699.89891589086255
 11
193.05489250121195
 21
698.34600162026265
  0
LINE
  8
_0-0_0
  6
CONTINUOUS
 62
    3
 10
193.05489250121195
 20
698.34600162026265
 11
198.850447459012
 21
696.79308734966264
  0
LINE
  8
_0-0_0
  6
CONTINUOUS
 62
    3
 10
407.55933754371199
 20
696.79308734966264
 11
413.3548925017119
 21
698.34600162026265
  0
LINE
  8
_0-0_0
  6
CONTINUOUS
 62
    3
 10
413.3548925017119
 20
698.34600162026265
 11
407.55933754371199
 21
699.89891589086255
  0
LINE
  8
_0-0_0
  6
CONTINUOUS
 62
    3
 10
413.3548925017119
 20
683.34600162026277
 11
448.70937323371186
 21
683.34600162026277
  0
LINE
  8
_0-0_0
  6
CONTINUOUS
 62
    3
 10
423.3548925017119
 20
683.34600162026277
 11
417.55933754371199
 21
681.79308734966276
  0
LINE
  8
_0-0_0
  6
CONTINUOUS
 62
    3
 10
423.3548925017119
 20
683.34600162026277
 11
417.55933754371199
 21
684.89891589086255
  0
LINE
  8
_0-0_0
  6
CONTINUOUS
 62
    3
 10
423.3548925017119
 20
683.34600162026277
 11
429.15044745871205
 21
684.89891589086255
  0
LINE
  8
_0-0_0
  6
CONTINUOUS
 62
    3
 10
423.3548925017119
 20
683.34600162026277
 11
429.15044745871205
 21
681.79308734966276
  0
LINE
  8
_0-0_0
  6
CONTINUOUS
 62
    3
 10
433.05489250171195
 20
683.34600162026277
 11
438.85044745871187
 21
684.89891589086255
  0
LINE
  8
_0-0_0
  6
CONTINUOUS
 62
    3
 10
433.05489250171195
 20
683.34600162026277
 11
438.85044745871187
 21
681.79308734966276
  0
LINE
  8
_0-0_0
  6
CONTINUOUS
 62
    7
 10
452.65864771371207
 20
686.27241661506264
 11
520.79356368794208
 21
686.27241661506264
  0
TEXT
  8
_0-0_0
 62
    7
 10
159.01771636859985
 20
422.93134153032827
 40
9
 41
1
 50
0
  1
（落下防止ワイヤー）
  0
TEXT
  8
_0-0_0
 62
    7
 10
104.0867101107998
 20
313.17430762992825
 40
9.5999999999999996
 41
1
 50
0
  1
　１
  0
TEXT
  8
_0-0_0
 62
    7
 10
430.40681711079969
 20
313.09167112992827
 40
9.5999999999999996
 41
1
 50
0
  1
３０００
  0
TEXT
  8
_0-0_0
 62
    7
 10
492.17626961079986
 20
313.24163362992823
 40
9.5999999999999996
 41
1
 50
0
  1
１
  0
TEXT
  8
_0-0_0
 62
    7
 10
513.61086461079981
 20
313.09167112992827
 40
9.5999999999999996
 41
1
 50
0
  1
本
  0
TEXT
  8
_0-0_0
 62
    7
 10
113.35600211079975
 20
295.17430762992825
 40
9.5999999999999996
 41
1
 50
0
  1
２
  0
TEXT
  8
_0-0_0
 62
    7
 10
430.40681711079969
 20
295.09167112992827
 40
9.5999999999999996
 41
1
 50
0
  1
３０００
  0
TEXT
  8
_0-0_0
 62
    7
 10
492.17626961079986
 20
295.24166812992826
 40
9.5999999999999996
 41
1
 50
0
  1
１
  0
TEXT
  8
_0-0_0
 62
    7
 10
513.61086461079981
 20
295.09167112992827
 40
9.5999999999999996
 41
1
 50
0
  1
〃
  0
TEXT
  8
_0-0_0
 62
    7
 10
113.35600211079975
 20
277.17430762992825
 40
9.5999999999999996
 41
1
 50
0
  1
３
  0
TEXT
  8
_0-0_0
 62
    7
 10
430.40681711079969
 20
277.09167112992827
 40
9.5999999999999996
 41
1
 50
0
  1
３０００
  0
TEXT
  8
_0-0_0
 62
    7
 10
492.17626961079986
 20
277.24163362992823
 40
9.5999999999999996
 41
1
 50
0
  1
１
  0
TEXT
  8
_0-0_0
 62
    7
 10
513.61086461079981
 20
277.09167112992827
 40
9.5999999999999996
 41
1
 50
0
  1
〃
  0
TEXT
  8
_0-0_0
 62
    7
 10
113.35600211079975
 20
259.17430762992825
 40
9.5999999999999996
 41
1
 50
0
  1
４
  0
TEXT
  8
_0-0_0
 62
    7
 10
127.79559761079975
 20
259.09167112992827
 40
9.5999999999999996
 41
1
 50
0
  1
ＳＣＨ壁フレーム
  0
TEXT
  8
_0-0_0
 62
    7
 10
430.40681711079969
 20
259.09167112992827
 40
9.5999999999999996
 41
1
 50
0
  1
３０００
  0
TEXT
  8
_0-0_0
 62
    7
 10
492.17626961079986
 20
259.24166812992826
 40
9.5999999999999996
 41
1
 50
0
  1
１
  0
TEXT
  8
_0-0_0
 62
    7
 10
513.61086461079981
 20
259.09167112992827
 40
9.5999999999999996
 41
1
 50
0
  1
〃
  0
TEXT
  8
_0-0_0
 62
    7
 10
113.35600211079975
 20
241.17434212992825
 40
9.5999999999999996
 41
1
 50
0
  1
５
  0
TEXT
  8
_0-0_0
 62
    7
 10
113.35600211079975
 20
223.17434212992825
 40
9.5999999999999996
 41
1
 50
0
  1
６
  0
TEXT
  8
_0-0_0
 62
    7
 10
113.35600211079975
 20
205.17434212992825
 40
9.5999999999999996
 41
1
 50
0
  1
７
  0
TEXT
  8
_0-0_0
 62
    7
 10
113.35600211079975
 20
187.17432562992826
 40
9.5999999999999996
 41
1
 50
0
  1
８
  0
TEXT
  8
_0-0_0
 62
    7
 10
113.35600211079975
 20
169.17432562992826
 40
9.5999999999999996
 41
1
 50
0
  1
９
  0
TEXT
  8
_0-0_0
 62
    7
 10
104.0867101107998
 20
151.17432562992826
 40
9.5999999999999996
 41
1
 50
0
  1
１０
  0
TEXT
  8
_0-0_0
 62
    7
 10
127.79559761079975
 20
277.09167112992827
 40
9.5999999999999996
 41
1
 50
0
  1
ＳＳＨフレーム（Ｃ）
  0
TEXT
  8
_0-0_0
 62
    7
 10
127.79559761079975
 20
313.09167112992827
 40
9.5999999999999996
 41
1
 50
0
  1
ＳＳＨサイドプレート（Ｃ）Ｓ
  0
TEXT
  8
_0-0_0
 62
    7
 10
127.79559761079975
 20
295.09167112992827
 40
9.5999999999999996
 41
1
 50
0
  1
ＳＣＨセンタープレート（Ｃ）Ｓ
  0
TEXT
  8
_0-0_0
 62
    7
 10
190.49555861079978
 20
338.89165912992826
 40
9.5999999999999996
 41
1
 50
0
  1
部材名称
  0
TEXT
  8
_0-0_0
 62
    7
 10
344.92055861079984
 20
338.89165912992826
 40
9.5999999999999996
 41
1
 50
0
  1
規　格
  0
TEXT
  8
_0-0_0
 62
    7
 10
513.44555861079971
 20
353.29165912992823
 40
9.5999999999999996
 41
1
 50
-90
  1
単位
  0
TEXT
  8
_0-0_0
 62
    7
 10
479.8455586107998
 20
346.99165912992828
 40
9.5999999999999996
 41
1
 50
0
  1
使用
  0
TEXT
  8
_0-0_0
 62
    7
 10
479.8455586107998
 20
330.79165912992823
 40
9.5999999999999996
 41
1
 50
0
  1
数量
  0
TEXT
  8
_0-0_0
 62
    7
 10
434.54555861079984
 20
346.99165912992828
 40
9.5999999999999996
 41
1
 50
0
  1
定　尺
  0
TEXT
  8
_0-0_0
 62
    7
 10
429.74555861079989
 20
330.79165912992823
 40
9.5999999999999996
 41
1
 50
0
  1
（ｍｍ）
  0
TEXT
  8
_0-0_0
 62
    7
 10
127.79559761079975
 20
241.09168762992826
 40
9.5999999999999996
 41
1
 50
0
  1
止水補助板
  0
TEXT
  8
_0-0_0
 62
    7
 10
430.40681711079969
 20
241.09168762992826
 40
9.5999999999999996
 41
1
 50
0
  1
３１００
  0
TEXT
  8
_0-0_0
 62
    7
 10
492.17626961079986
 20
241.24166812992826
 40
9.5999999999999996
 41
1
 50
0
  1
１
  0
TEXT
  8
_0-0_0
 62
    7
 10
513.61086461079981
 20
241.09168762992826
 40
9.5999999999999996
 41
1
 50
0
  1
枚
  0
TEXT
  8
_0-0_0
 62
    7
 10
127.79559761079975
 20
223.09168762992826
 40
9.5999999999999996
 41
1
 50
0
  1
アンカープラグ
  0
TEXT
  8
_0-0_0
 62
    7
 10
482.90697761079969
 20
223.24165162992827
 40
9.5999999999999996
 41
1
 50
0
  1
１２
  0
TEXT
  8
_0-0_0
 62
    7
 10
298.79559761079975
 20
223.09168762992826
 40
9.5999999999999996
 41
1
 50
0
  1
フィッシャープラグＳ８
  0
TEXT
  8
_0-0_0
 62
    7
 10
513.61086461079981
 20
223.09167112992824
 40
9.5999999999999996
 41
1
 50
0
  1
本
  0
TEXT
  8
_0-0_0
 62
    7
 10
127.79559761079975
 20
205.09167112992824
 40
9.5999999999999996
 41
1
 50
0
  1
ステンタッピンねじ
  0
TEXT
  8
_0-0_0
 62
    7
 10
482.90697761079969
 20
205.24166812992826
 40
9.5999999999999996
 41
1
 50
0
  1
１２
  0
TEXT
  8
_0-0_0
 62
    7
 10
513.61086461079981
 20
205.09167112992824
 40
9.5999999999999996
 41
1
 50
0
  1
〃
  0
TEXT
  8
_0-0_0
 62
    7
 10
298.79545961079975
 20
205.09167112992824
 40
9.5999999999999996
 41
1
 50
0
  1
なべ５×５０
  0
TEXT
  8
_0-0_0
 62
    7
 10
298.79545961079975
 20
187.09167112992824
 40
9.5999999999999996
 41
1
 50
0
  1
４×１３
  0
TEXT
  8
_0-0_0
 62
    7
 10
482.90697761079969
 20
187.24166812992826
 40
9.5999999999999996
 41
1
 50
0
  1
１６
  0
TEXT
  8
_0-0_0
 62
    7
 10
513.61086461079981
 20
187.09167112992824
 40
9.5999999999999996
 41
1
 50
0
  1
〃
  0
TEXT
  8
_0-0_0
 62
    7
 10
482.90697761079969
 20
169.2416516299283
 40
9.5999999999999996
 41
1
 50
0
  1
１２
  0
TEXT
  8
_0-0_0
 62
    7
 10
298.79545961079975
 20
169.09167112992822
 40
9.5999999999999996
 41
1
 50
0
  1
１．５×１８×５．５穴
  0
TEXT
  8
_0-0_0
 62
    7
 10
513.61086461079981
 20
169.09167112992822
 40
9.5999999999999996
 41
1
 50
0
  1
枚
  0
TEXT
  8
_0-0_0
 62
    7
 10
513.61086461079981
 20
151.09168762992823
 40
9.5999999999999996
 41
1
 50
0
  1
本
  0
TEXT
  8
_0-0_0
 62
    7
 10
113.35600211079975
 20
133.17432562992826
 40
9.5999999999999996
 41
1
 50
0
  1
※
  0
TEXT
  8
_0-0_0
 62
    7
 10
298.79545961079975
 20
133.09167112992822
 40
9.5999999999999996
 41
1
 50
0
  1
外ジョイント材
  0
TEXT
  8
_0-0_0
 62
    7
 10
492.17626961079986
 20
133.24166812992826
 40
9.5999999999999996
 41
1
 50
0
  1
１
  0
TEXT
  8
_0-0_0
 62
    7
 10
513.61086461079981
 20
133.09167112992822
 40
9.5999999999999996
 41
1
 50
0
  1
個
  0
TEXT
  8
_0-0_0
 62
    7
 10
113.35600211079975
 20
115.17432562992826
 40
9.5999999999999996
 41
1
 50
0
  1
※
  0
TEXT
  8
_0-0_0
 62
    7
 10
298.79545961079975
 20
115.09167112992827
 40
9.5999999999999996
 41
1
 50
0
  1
外ジョイント材
  0
TEXT
  8
_0-0_0
 62
    7
 10
492.17626961079986
 20
115.24166812992826
 40
9.5999999999999996
 41
1
 50
0
  1
１
  0
TEXT
  8
_0-0_0
 62
    7
 10
513.61086461079981
 20
115.09167112992827
 40
9.5999999999999996
 41
1
 50
0
  1
〃
  0
TEXT
  8
_0-0_0
 62
    7
 10
113.35600211079975
 20
97.174334629928239
 40
9.5999999999999996
 41
1
 50
0
  1
※
  0
TEXT
  8
_0-0_0
 62
    7
 10
298.79545961079975
 20
97.091687629928231
 40
9.5999999999999996
 41
1
 50
0
  1
ｔ１．０×ｗ３０
  0
TEXT
  8
_0-0_0
 62
    7
 10
430.40681711079969
 20
97.091687629928231
 40
9.5999999999999996
 41
1
 50
0
  1
６０００
  0
TEXT
  8
_0-0_0
 62
    7
 10
492.17626961079986
 20
97.241668129928257
 40
9.5999999999999996
 41
1
 50
0
  1
１
  0
TEXT
  8
_0-0_0
 62
    7
 10
513.61086461079981
 20
97.091687629928231
 40
9.5999999999999996
 41
1
 50
0
  1
巻
  0
TEXT
  8
_0-0_0
 62
    7
 10
127.79559761079975
 20
97.091687629928231
 40
9.5999999999999996
 41
1
 50
0
  1
ブチルテープ
  0
TEXT
  8
_0-0_0
 62
    7
 10
113.35600211079975
 20
79.174334629928239
 40
9.5999999999999996
 41
1
 50
0
  1
※
  0
TEXT
  8
_0-0_0
 62
    7
 10
127.79559761079975
 20
79.091678629928253
 40
9.5999999999999996
 41
1
 50
0
  1
落下防止ワイヤー
  0
TEXT
  8
_0-0_0
 62
    7
 10
492.17626961079986
 20
79.241668129928257
 40
9.5999999999999996
 41
1
 50
0
  1
２
  0
TEXT
  8
_0-0_0
 62
    7
 10
513.61086461079981
 20
79.091678629928253
 40
9.5999999999999996
 41
1
 50
0
  1
本
  0
TEXT
  8
_0-0_0
 62
    7
 10
127.79552861079981
 20
151.09168762992823
 40
9.5999999999999996
 41
1
 50
0
  1
ガスケットＳＨＦ
  0
TEXT
  8
_0-0_0
 62
    7
 10
298.79545961079975
 20
241.09168762992826
 40
9.5999999999999996
 41
1
 50
0
  1
ＦＳ４００
  0
TEXT
  8
_0-0_0
 62
    7
 10
492.17626961079986
 20
151.24166812992826
 40
9.5999999999999996
 41
1
 50
0
  1
１
  0
TEXT
  8
_0-0_0
 62
    7
 10
430.4069551107998
 20
151.09168762992823
 40
9.5999999999999996
 41
1
 50
0
  1
３１００
  0
TEXT
  8
_0-0_0
 62
    7
 10
102.59557061079977
 20
54.491668129928257
 40
9.5999999999999996
 41
1
 50
0
  1
注）　ガスケットＳＨＦはＳＳＨサイドプレート（Ｃ）Ｓ にセット済み。
  0
TEXT
  8
_0-0_0
 62
    7
 10
127.89978996858406
 20
186.90041072766712
 40
9.5999999999999996
 41
1
 50
0
  1
ステンワッシャー
  0
TEXT
  8
_0-0_0
 62
    7
 10
127.89978996858406
 20
169.22280367248027
 40
9.5999999999999996
 41
1
 50
0
  1
ステンセットシルタップ
  0
TEXT
  8
_0-0_0
 62
    7
 10
249.92150138809984
 20
648.93603184091739
 40
7.5
 41
1
 50
0
  1
1
  0
TEXT
  8
_0-0_0
 62
    7
 10
216.85932356159981
 20
643.93603184091739
 40
7.5
 41
1
 50
0
  1
9
  0
TEXT
  8
_0-0_0
 62
    7
 10
307.4532736417998
 20
648.93603184091739
 40
7.5
 41
1
 50
0
  1
10
  0
TEXT
  8
_0-0_0
 62
    7
 10
309.03475004209974
 20
628.93603184091739
 40
7.5
 41
1
 50
0
  1
3
  0
TEXT
  8
_0-0_0
 62
    7
 10
312.48774465829979
 20
583.93603184091739
 40
7.5
 41
1
 50
0
  1
5
  0
TEXT
  8
_0-0_0
 62
    7
 10
366.74688799629985
 20
629.93603184091739
 40
7.5
 41
1
 50
0
  1
2
  0
TEXT
  8
_0-0_0
 62
    7
 10
439.7257209787997
 20
664.76243712481744
 40
7.5
 41
1
 50
0
  1
4
  0
TEXT
  8
_0-0_0
 62
    7
 10
203.55065582889983
 20
570.27577780311742
 40
7.5
 41
1
 50
0
  1
7
  0
TEXT
  8
_0-0_0
 62
    7
 10
247.31306220559975
 20
580.27577780311742
 40
7.5
 41
1
 50
0
  1
8
  0
TEXT
  8
_0-0_0
 62
    7
 10
211.66524568129978
 20
545.27577780311742
 40
7.5
 41
1
 50
0
  1
6
  0
TEXT
  8
_0-0_0
 62
    3
 10
349.66274465829974
 20
488.35590482201746
 40
12
 41
1
 50
0
  1
150
  0
TEXT
  8
_0-0_0
 62
    3
 10
249.56274465829983
 20
488.35590482201746
 40
12
 41
1
 50
0
  1
55
  0
TEXT
  8
_0-0_0
 62
    3
 10
195.06274465829983
 20
643.35590482201746
 40
12
 41
1
 50
0
  1
16
  0
TEXT
  8
_0-0_0
 62
    3
 10
171.86274465829979
 20
636.70590482201737
 40
12
 41
1
 50
90
  1
46.5
  0
TEXT
  8
_0-0_0
 62
    3
 10
171.86274465829979
 20
603.60590482201746
 40
12
 41
1
 50
90
  1
19.7
  0
TEXT
  8
_0-0_0
 62
    3
 10
237.16274465829974
 20
683.35590482201746
 40
12
 41
1
 50
0
  1
105
  0
TEXT
  8
_0-0_0
 62
    3
 10
304.66274465829974
 20
713.35590482201735
 40
12
 41
1
 50
0
  1
240
  0
TEXT
  8
_0-0_0
 62
    3
 10
290.01274465829977
 20
698.35590482201735
 40
12
 41
1
 50
0
  1
220.3
  0
TEXT
  8
_0-0_0
 62
    3
 10
412.41274465879974
 20
698.35590482201735
 40
12
 41
1
 50
0
  1
19.7
  0
TEXT
  8
_0-0_0
 62
    3
 10
412.36274465879978
 20
683.35590482201746
 40
12
 41
1
 50
0
  1
10
  0
TEXT
  8
_0-0_0
 62
    3
 10
342.51274465829977
 20
683.35590482201746
 40
12
 41
1
 50
0
  1
115.3
  0
TEXT
  8
_0-0_0
 62
    3
 10
431.86274465879978
 20
683.35590482201746
 40
12
 41
1
 50
0
  1
9.7
  0
TEXT
  8
_0-0_0
 62
    3
 10
391.86274465879978
 20
656.25590482201744
 40
12
 41
1
 50
90
  1
17
  0
TEXT
  8
_0-0_0
 62
    7
 10
451.46649987079991
 20
686.28231981681733
 40
6
 41
1
 50
0
  1
コーキング処理(別途工事)
  0
TEXT
  8
_0-0_0
 62
    7
 10
61.707904571299764
 20
583.35590482201746
 40
6
 41
1
 50
0
  1
コーキング処理(別途工事)
  0
TEXT
  8
_0-0_0
 62
    2
 10
72.595558610799799
 20
772.9083779763173
 40
14
 41
1
 50
0
  1
◇外壁コーナー（１５０ＳＣＨ－Ｓ）　Ｓ＝１／３
  0
TEXT
  8
_0-0_0
 62
    2
 10
42.595558610799799
 20
802.9083779763173
 40
14
 41
1
 50
0
  1
（ステンレス１５０タイプ）
  0
TEXT
  8
_0-0_0
 62
    7
 10
127.79559761079975
 20
133.09167112992822
 40
9.5999999999999996
 41
0.8333333333333333
 50
0
  1
サイドプレートジョイントカバー
  0
TEXT
  8
_0-0_0
 62
    7
 10
127.79559761079975
 20
115.09167112992827
 40
9.5999999999999996
 41
0.8333333333333333
 50
0
  1
センタープレートジョイントカバー
  0
TEXT
  8
_0-9_レイヤ8
 62
    7
 10
734.61865687249997
 20
123.40001199999995
 40
9.5999999999999996
 41
0.9375
 50
0
  1
サイドプレートジョイントカバー
  0
TEXT
  8
_0-0_0
 62
    7
 10
732.48694406632251
 20
105.61525595224606
 40
9.5999999999999996
 41
0.9375
 50
0
  1
センタープレートジョイントカバー
  0
ENDSEC
  0
EOF
