  0
SECTION
  2
HEADER
  9
$ACADVER
  1
AC1009
  9
$INSBASE
 10
0
 20
0
 30
0
  9
$EXTMIN
 10
0
 20
0
  9
$EXTMAX
 10
594
 20
420
  9
$LIMMIN
 10
0
 20
0
  9
$LIMMAX
 10
594
 20
420
  9
$LTSCALE
 40
1
  0
ENDSEC
  0
SECTION
  2
TABLES
  0
TABLE
  2
LTYPE
 70
     9
  0
LTYPE
  2
CONTINUOUS
 70
    64
  3
実線
 72
    65
 73
     0
 40
0.0
  0
LTYPE
  2
DASHED1
 70
    64
  3
--  --  --  --  --  --  --  --  
 72
    65
 73
     2
 40
2.5
 49
1.25
 49
-1.25
  0
LTYPE
  2
DASHED2
 70
    64
  3
----    ----    ----    ----    
 72
    65
 73
     2
 40
5.0
 49
2.5
 49
-2.5
  0
LTYPE
  2
DASHED3
 70
    64
  3
------  ------  ------  ------  
 72
    65
 73
     2
 40
5.0
 49
3.75
 49
-1.25
  0
LTYPE
  2
CENTER1
 70
    64
  3
----- - ----- - ----- - ----- - 
 72
    65
 73
     4
 40
10.0
 49
6.25
 49
-1.25
 49
1.25
 49
-1.25
  0
LTYPE
  2
CENTER2
 70
    64
  3
----------  --  ----------  --  
 72
    65
 73
     4
 40
20.0
 49
12.5
 49
-2.5
 49
2.5
 49
-2.5
  0
LTYPE
  2
PHANTOM1
 70
    64
  3
--- - - --- - - --- - - --- - - 
 72
    65
 73
     6
 40
10.0
 49
3.25
 49
-1.25
 49
1.25
 49
-1.25
 49
1.25
 49
-1.25
  0
LTYPE
  2
PHANTOM2
 70
    64
  3
--------  -  -  --------  -  -  
 72
    65
 73
     6
 40
20.0
 49
10.0
 49
-2.5
 49
1.25
 49
-2.5
 49
1.25
 49
-2.5
  0
LTYPE
  2
DOT
 70
    64
  3
-   -   -   -   -   -   -   -   
 72
    65
 73
     2
 40
2.5
 49
0.625
 49
-1.875
  0
LTYPE
  2
DUMMY
 70
    64
  3
ダミー
 72
    65
 73
     0
 40
0.0
  0
LTYPE
  2
RAND1
 70
    64
  3
ランダム線1
 72
    65
 73
     4
 40
10.0
 49
1.0
 49
-2.0
 49
3.0
 49
-4.0
  0
LTYPE
  2
RAND2
 70
    64
  3
ランダム線2
 72
    65
 73
     4
 40
14.0
 49
2.0
 49
-3.0
 49
4.0
 49
-5.0
  0
LTYPE
  2
RAND3
 70
    64
  3
ランダム線3
 72
    65
 73
     4
 40
18.0
 49
3.0
 49
-4.0
 49
5.0
 49
-6.0
  0
LTYPE
  2
RAND4
 70
    64
  3
ランダム線4
 72
    65
 73
     4
 40
22.0
 49
4.0
 49
-5.0
 49
6.0
 49
-7.0
  0
LTYPE
  2
RAND5
 70
    64
  3
ランダム線5
 72
    65
 73
     4
 40
26.0
 49
5.0
 49
-6.0
 49
7.0
 49
-8.0
  0
LTYPE
  2
LONG1
 70
    64
  3
----------  --  ----------  --  
 72
    65
 73
     4
 40
40.0
 49
32.5
 49
-2.5
 49
2.5
 49
-2.5
  0
LTYPE
  2
LONG2
 70
    64
  3
--------  -  -  --------  -  -  
 72
    65
 73
     6
 40
40.0
 49
30.0
 49
-2.5
 49
1.25
 49
-2.5
 49
1.25
 49
-2.5
  0
LTYPE
  2
LONG3
 70
    64
  3
+++++++++++++++..+++++++++++++++
 72
    65
 73
     2
 40
40.0
 49
37.5
 49
-2.5
  0
LTYPE
  2
LONG4
 70
    64
  3
+++++++++++++++..+++++++++++++++
 72
    65
 73
     2
 40
80.0
 49
75.0
 49
-5.0
  0
LTYPE
  2
LONG5
 70
    64
  3
----------  --  ----------  --  
 72
    65
 73
     4
 40
60.0
 49
37.5
 49
-7.5
 49
7.5
 49
-7.5
  0
LTYPE
  2
dashed
 70
   64
  3
-------   -------------   ------
 72
   65
 73
    2
 40
7.5
 49
6
 49
-1.5
  0
LTYPE
  2
dashed_spaced
 70
   64
  3
----        --------        ----
 72
   65
 73
    2
 40
12
 49
6
 49
-6
  0
LTYPE
  2
long_dashed_dotted
 70
   64
  3
------------- --- --------------
 72
   65
 73
    4
 40
15.25
 49
12
 49
-1.5
 49
0.25
 49
-1.5
  0
LTYPE
  2
long_dashed_double-dotted
 70
   64
  3
----------- --- --- ------------
 72
   65
 73
    6
 40
17
 49
12
 49
-1.5
 49
0.25
 49
-1.5
 49
0.25
 49
-1.5
  0
LTYPE
  2
long_dashed_triplicate-dotted
 70
   64
  3
--------- --- --- --- ----------
 72
   65
 73
    8
 40
18.75
 49
12
 49
-1.5
 49
0.25
 49
-1.5
 49
0.25
 49
-1.5
 49
0.25
 49
-1.5
  0
LTYPE
  2
dotted
 70
   64
  3
   -       -       -       -    
 72
   65
 73
    2
 40
1.75
 49
0.25
 49
-1.5
  0
LTYPE
  2
chain
 70
   64
  3
-------------- -- --------------
 72
   65
 73
    4
 40
18.5
 49
12
 49
-1.5
 49
3.5
 49
-1.5
  0
LTYPE
  2
chain_double_dash
 70
   64
  3
------------ -- -- -------------
 72
   65
 73
    6
 40
23.5
 49
12
 49
-1.5
 49
3.5
 49
-1.5
 49
3.5
 49
-1.5
  0
LTYPE
  2
dashed_dotted
 70
   64
  3
-----------     -     ----------
 72
   65
 73
    4
 40
9.25
 49
6
 49
-1.5
 49
0.25
 49
-1.5
  0
LTYPE
  2
double-dashed_dotted
 70
   64
  3
------   -----------   -   -----
 72
   65
 73
    6
 40
16.75
 49
6
 49
-1.5
 49
6
 49
-1.5
 49
0.25
 49
-1.5
  0
LTYPE
  2
dashed_double-dotted
 70
   64
  3
---------    -    -    ---------
 72
   65
 73
    6
 40
11
 49
6
 49
-1.5
 49
0.25
 49
-1.5
 49
0.25
 49
-1.5
  0
LTYPE
  2
double-dashed_double-dotted
 70
   64
  3
-----   ---------   -   -   ----
 72
   65
 73
    8
 40
18.5
 49
6
 49
-1.5
 49
6
 49
-1.5
 49
0.25
 49
-1.5
 49
0.25
 49
-1.5
  0
LTYPE
  2
dashed_triplicate-dotted
 70
   64
  3
-------    -    -    -    ------
 72
   65
 73
    8
 40
12.75
 49
6
 49
-1.5
 49
0.25
 49
-1.5
 49
0.25
 49
-1.5
 49
0.25
 49
-1.5
  0
LTYPE
  2
double-dashed_triplicate-dotted
 70
   64
  3
-----  ---------  -  -  -  -----
 72
   65
 73
   10
 40
20.25
 49
6
 49
-1.5
 49
6
 49
-1.5
 49
0.25
 49
-1.5
 49
0.25
 49
-1.5
 49
0.25
 49
-1.5
  0
LTYPE
  2
undefined
 70
   64
  3
--------------------------------
 72
   65
 73
    0
 40
0
  0
LTYPE
  2
DOT_17
 70
   64
  3
----        --------        ----
 72
   65
 73
    0
 40
0
  0
LTYPE
  2
DASHED
 70
   64
  3
----        --------        ----
 72
   65
 73
    0
 40
0
  0
LTYPE
  2
DASHED2_19
 70
   64
  3
-----      ----------      -----
 72
   65
 73
    0
 40
0
  0
LTYPE
  2
CENTER
 70
   64
  3
--------------- - --------------
 72
   65
 73
    0
 40
0
  0
LTYPE
  2
CENTERX2
 70
   64
  3
--------------- - --------------
 72
   65
 73
    0
 40
0
  0
LTYPE
  2
CENTER2_22
 70
   64
  3
-------------  --  -------------
 72
   65
 73
    0
 40
0
  0
LTYPE
  2
PHANTOM
 70
   64
  3
-------------- - - -------------
 72
   65
 73
    0
 40
0
  0
LTYPE
  2
PHANTOMX2
 70
   64
  3
-------------- - - -------------
 72
   65
 73
    0
 40
0
  0
LTYPE
  2
PHANTOM2_25
 70
   64
  3
-----------  --  --  -----------
 72
   65
 73
    0
 40
0
  0
LTYPE
  2
ACAD_ISO06W100
 70
   64
  3
------------- - - - ------------
 72
   65
 73
    0
 40
0
  0
LTYPE
  2
ACAD_ISO14W100
 70
   64
  3
------------- - - - ------------
 72
   65
 73
    0
 40
0
  0
LTYPE
  2
ACAD_ISO11W100
 70
   64
  3
------- -------------- - -------
 72
   65
 73
    0
 40
0
  0
LTYPE
  2
ACAD_ISO13W100
 70
   64
  3
------- ------------- - - ------
 72
   65
 73
    0
 40
0
  0
LTYPE
  2
HIDDEN
 70
   64
  3
------     -----------     -----
 72
   65
 73
    0
 40
0
  0
ENDTAB
  0
TABLE
  2
STYLE
  5
3
100
AcDbSymbolTable
 70
     1
  0
STYLE
  5
10
100
AcDbSymbolTableRecord
100
AcDbTextStyleTableRecord
  2
STANDARD
 70
     0
 40
0.0
 41
1.0
 50
0.0
 71
     0
 42
0.2
  3
txt
  4
bigfont.shx
  0
STYLE
  5
26
100
AcDbSymbolTableRecord
100
AcDbTextStyleTableRecord
  2
TATEGAKI
 70
    68
 40
0.0
 41
1.0
 50
0.0
 71
     0
 42
1.0
  3
txt
  4
bigfont.shx
  0
ENDTAB
  0
TABLE
  2
LAYER
 70
    5
  0
LAYER
  2
_0-0_図面枠
 70
   64
 62
    7
  6
CONTINUOUS
  0
LAYER
  2
_0-1_
 70
   64
 62
    7
  6
CONTINUOUS
  0
LAYER
  2
_1-0_
 70
   64
 62
    7
  6
CONTINUOUS
  0
LAYER
  2
_1-c_
 70
   64
 62
    7
  6
CONTINUOUS
  0
LAYER
  2
ADD_LINE
 70
   64
 62
    7
  6
CONTINUOUS
  0
ENDTAB
  0
ENDSEC
  0
SECTION
  2
BLOCKS
  0
ENDSEC
  0
SECTION
  2
ENTITIES
  0
LINE
  8
_1-0_
  6
CONTINUOUS
 62
    4
 10
378.73340446785608
 20
286.70965510335191
 11
345.40006784159266
 21
286.70965510335191
  0
LINE
  8
_1-0_
  6
CONTINUOUS
 62
    4
 10
455.40006684158163
 20
291.70965510335139
 11
345.40006784159266
 21
291.70965510335139
  0
LINE
  8
_0-0_図面枠
  6
CONTINUOUS
 62
    6
 10
497
 20
71.499999999999886
 11
497.00000000000006
 21
348.5
  0
LINE
  8
_0-0_図面枠
  6
CONTINUOUS
 62
    6
 10
497.00000000000006
 20
348.5
 11
97
 21
348.50000000000006
  0
LINE
  8
_0-0_図面枠
  6
CONTINUOUS
 62
    6
 10
96.999999999999915
 20
71.5
 11
497
 21
71.499999999999886
  0
LINE
  8
_0-0_図面枠
  6
CONTINUOUS
 62
    6
 10
97
 20
348.50000000000006
 11
96.999999999999915
 21
71.5
  0
LINE
  8
_0-1_
  6
CONTINUOUS
 62
    4
 10
269.14999999999998
 20
128.69999999999999
 11
127
 21
128.69999999999999
  0
LINE
  8
_0-1_
  6
CONTINUOUS
 62
    4
 10
269.14999999999998
 20
122.69999999999999
 11
127
 21
122.69999999999999
  0
LINE
  8
_0-1_
  6
CONTINUOUS
 62
    4
 10
269.14999999999998
 20
134.69999999999999
 11
127
 21
134.69999999999999
  0
LINE
  8
_0-1_
  6
CONTINUOUS
 62
    4
 10
269.14999999999998
 20
170.70000000000005
 11
127
 21
170.70000000000005
  0
LINE
  8
_0-1_
  6
CONTINUOUS
 62
    4
 10
269.14999999999998
 20
164.70000000000005
 11
127
 21
164.70000000000005
  0
LINE
  8
_0-1_
  6
CONTINUOUS
 62
    4
 10
269.14999999999998
 20
158.70000000000005
 11
127
 21
158.70000000000005
  0
LINE
  8
_0-1_
  6
CONTINUOUS
 62
    4
 10
269.14999999999998
 20
152.70000000000005
 11
127
 21
152.70000000000005
  0
LINE
  8
_0-1_
  6
CONTINUOUS
 62
    4
 10
269.14999999999998
 20
146.70000000000005
 11
127
 21
146.70000000000005
  0
LINE
  8
_0-1_
  6
CONTINUOUS
 62
    4
 10
269.14999999999998
 20
140.69999999999999
 11
127
 21
140.69999999999999
  0
LINE
  8
_0-1_
  6
CONTINUOUS
 62
    4
 10
269.14999999999998
 20
181.5
 11
127
 21
181.5
  0
TEXT
  8
_0-1_
 62
    7
 10
154.807018
 20
176.70001049999996
 40
3.2000000000000002
 41
1
 50
0
  1
部材名称
  0
TEXT
  8
_0-1_
 62
    7
 10
252.55126400000003
 20
176.70001049999996
 40
3.2000000000000002
 41
1
 50
0
  1
使用
  0
TEXT
  8
_0-1_
 62
    7
 10
206.38139350000003
 20
176.70001049999996
 40
3.2000000000000002
 41
1
 50
0
  1
規　格
  0
TEXT
  8
_0-1_
 62
    7
 10
237.50638249999994
 20
176.70001049999996
 40
3.2000000000000002
 41
1
 50
0
  1
定　尺
  0
TEXT
  8
_0-1_
 62
    7
 10
235.34354749999997
 20
171.90000399999997
 40
3.2000000000000002
 41
1
 50
0
  1
（ｍｍ）
  0
TEXT
  8
_0-1_
 62
    7
 10
252.55126400000003
 20
171.90000399999997
 40
3.2000000000000002
 41
1
 50
0
  1
数量
  0
TEXT
  8
_0-1_
 62
    7
 10
127.49706799999998
 20
165.92754949999994
 40
3.2000000000000002
 41
1
 50
0
  1
　１
  0
TEXT
  8
_0-1_
 62
    7
 10
236.270477
 20
165.90000399999997
 40
3.2000000000000002
 41
1
 50
0
  1
３０００
  0
TEXT
  8
_0-1_
 62
    7
 10
256.36022149999997
 20
165.94999150000001
 40
3.2000000000000002
 41
1
 50
0
  1
２
  0
TEXT
  8
_0-1_
 62
    7
 10
264.00512500000002
 20
165.90000399999997
 40
3.2000000000000002
 41
1
 50
0
  1
本
  0
TEXT
  8
_0-1_
 62
    7
 10
130.58683199999999
 20
159.92754949999994
 40
3.2000000000000002
 41
1
 50
0
  1
２
  0
TEXT
  8
_0-1_
 62
    7
 10
236.270477
 20
159.90000399999997
 40
3.2000000000000002
 41
1
 50
0
  1
３０００
  0
TEXT
  8
_0-1_
 62
    7
 10
256.36022149999997
 20
159.95000299999992
 40
3.2000000000000002
 41
1
 50
0
  1
１
  0
TEXT
  8
_0-1_
 62
    7
 10
264.00512500000002
 20
159.90000399999997
 40
3.2000000000000002
 41
1
 50
0
  1
〃
  0
TEXT
  8
_0-1_
 62
    7
 10
130.58683199999999
 20
153.92754949999994
 40
3.2000000000000002
 41
1
 50
0
  1
３
  0
TEXT
  8
_0-1_
 62
    7
 10
256.36022149999997
 20
153.94999150000001
 40
3.2000000000000002
 41
1
 50
0
  1
２
  0
TEXT
  8
_0-1_
 62
    7
 10
264.00512500000002
 20
153.90000399999997
 40
3.2000000000000002
 41
1
 50
0
  1
〃
  0
TEXT
  8
_0-1_
 62
    7
 10
130.58683199999999
 20
147.92754949999994
 40
3.2000000000000002
 41
1
 50
0
  1
４
  0
TEXT
  8
_0-1_
 62
    7
 10
130.58683199999999
 20
141.92756099999997
 40
3.2000000000000002
 41
1
 50
0
  1
５
  0
TEXT
  8
_0-1_
 62
    7
 10
130.58683199999999
 20
135.92756099999997
 40
3.2000000000000002
 41
1
 50
0
  1
６
  0
TEXT
  8
_0-1_
 62
    7
 10
130.58683199999999
 20
129.92755549999998
 40
3.2000000000000002
 41
1
 50
0
  1
７
  0
TEXT
  8
_0-1_
 62
    7
 10
130.58683199999999
 20
123.92755549999998
 40
3.2000000000000002
 41
1
 50
0
  1
８
  0
LINE
  8
_0-0_図面枠
  6
CONTINUOUS
 62
    6
 10
297
 20
348.5
 11
297
 21
71.499999999999943
  0
TEXT
  8
_0-1_
 62
    7
 10
135.40000749999999
 20
153.90000399999997
 40
3.2000000000000002
 41
1
 50
0
  1
ＵＵＨフレーム(Ｃ)
  0
TEXT
  8
_0-1_
 62
    7
 10
236.270477
 20
153.90000399999997
 40
3.2000000000000002
 41
1
 50
0
  1
３０００
  0
TEXT
  8
_0-1_
 62
    7
 10
135.40000749999999
 20
129.90000399999997
 40
3.2000000000000002
 41
1
 50
0
  1
ステンタッピンねじ
  0
TEXT
  8
_0-1_
 62
    7
 10
253.27045749999999
 20
129.94999749999999
 40
3.2000000000000002
 41
1
 50
0
  1
１２
  0
TEXT
  8
_0-1_
 62
    7
 10
264.00512500000002
 20
129.90000399999997
 40
3.2000000000000002
 41
1
 50
0
  1
〃
  0
TEXT
  8
_0-1_
 62
    7
 10
256.36022149999997
 20
141.95000299999992
 40
3.2000000000000002
 41
1
 50
0
  1
２
  0
TEXT
  8
_0-1_
 62
    7
 10
236.270477
 20
135.90000399999997
 40
3.2000000000000002
 41
1
 50
0
  1
３０１０
  0
TEXT
  8
_0-1_
 62
    7
 10
256.36022149999997
 20
135.95000299999992
 40
3.2000000000000002
 41
1
 50
0
  1
２
  0
TEXT
  8
_0-1_
 62
    7
 10
264.00512500000002
 20
135.90000399999997
 40
3.2000000000000002
 41
1
 50
0
  1
〃
  0
TEXT
  8
_0-1_
 62
    7
 10
192.40002450000006
 20
129.90000399999997
 40
3.2000000000000002
 41
1
 50
0
  1
なべ４×３０
  0
TEXT
  8
_0-1_
 62
    7
 10
135.400013
 20
147.90000950000007
 40
3.2000000000000002
 41
1
 50
0
  1
アンカープラグ
  0
TEXT
  8
_0-1_
 62
    7
 10
192.400013
 20
147.90000950000007
 40
3.2000000000000002
 41
1
 50
0
  1
フィッシャープラグＳ６
  0
TEXT
  8
_0-1_
 62
    7
 10
253.27045749999999
 20
147.94999750000005
 40
3.2000000000000002
 41
1
 50
0
  1
１２
  0
TEXT
  8
_0-1_
 62
    7
 10
265.50255190311418
 20
179.15127253687851
 40
3.2000000000000002
 41
1
 50
0
  1
単位
  7
TATEGAKI
  0
TEXT
  8
_0-1_
 62
    7
 10
107
 20
341.5
 40
3.2000000000000002
 41
1
 50
0
  1
（ステン１５０タイプ）
  0
TEXT
  8
_0-1_
 62
    7
 10
117
 20
331.5
 40
3.2000000000000002
 41
1
 50
0
  1
◇内壁－内壁（１５０ＫＫＨ－Ｓ）　Ｓ＝１／３
  0
LINE
  8
_0-0_図面枠
  6
CONTINUOUS
 62
    4
 10
174.05873197291999
 20
240.02425147265743
 11
174.05873197291999
 21
245.95631930652482
  0
LINE
  8
_0-0_図面枠
  6
CONTINUOUS
 62
    4
 10
224.05873197291498
 20
240.02425147265743
 11
224.05873197291498
 21
245.95631930652476
  0
POINT
  8
_0-0_図面枠
 62
    4
 10
174.05873197291999
 20
240.02425147265743
  0
POINT
  8
_0-0_図面枠
 62
    4
 10
224.05873197291498
 20
240.02425147265743
  0
POINT
  8
_0-0_図面枠
 62
    4
 10
224.05873197291498
 20
256.02425080598914
  0
POINT
  8
_0-0_図面枠
 62
    4
 10
174.05873197291999
 20
256.02425080598914
  0
POINT
  8
_0-0_図面枠
 62
    4
 10
220.72539863958201
 20
287.35758447265266
  0
LINE
  8
_0-0_図面枠
  6
CONTINUOUS
 62
    4
 10
254.05873197291197
 20
292.35758447265221
 11
254.05873197291197
 21
276.60714888796372
  0
POINT
  8
_0-0_図面枠
 62
    4
 10
254.05873197291197
 20
287.35758447265266
  0
POINT
  8
_0-0_図面枠
 62
    4
 10
254.05873197291197
 20
292.35758447265221
  0
LINE
  8
_0-0_図面枠
  6
CONTINUOUS
 62
    4
 10
220.72539863958201
 20
287.35758447265266
 11
254.05873197291197
 21
287.35758447265266
  0
LINE
  8
_0-0_図面枠
  6
CONTINUOUS
 62
    4
 10
144.058732972923
 20
292.35758447265221
 11
144.058732972923
 21
276.60714888796383
  0
POINT
  8
_0-0_図面枠
 62
    4
 10
144.058732972923
 20
287.35758447265277
  0
POINT
  8
_0-0_図面枠
 62
    4
 10
144.058732972923
 20
292.35758447265221
  0
LINE
  8
_0-0_図面枠
  6
CONTINUOUS
 62
    4
 10
254.05873197291197
 20
292.35758447265221
 11
144.058732972923
 21
292.35758447265221
  0
LINE
  8
_0-1_
  6
CONTINUOUS
 62
    4
 10
174.05873197291999
 20
246.69091813932343
 11
174.05873197291999
 21
269.02425113932122
  0
LINE
  8
_0-1_
  6
CONTINUOUS
 62
    4
 10
265.39206430624415
 20
246.69091813932349
 11
224.05873197291498
 21
246.69091813932349
  0
LINE
  8
_0-1_
  6
CONTINUOUS
 62
    4
 10
224.05873197291498
 20
246.69091813932349
 11
224.05873197291498
 21
269.02425113932122
  0
LINE
  8
_0-0_図面枠
  6
CONTINUOUS
 62
    4
 10
164.25550773894207
 20
246.69091813932343
 11
174.05873197291999
 21
256.49414237330132
  0
LINE
  8
_0-0_図面枠
  6
CONTINUOUS
 62
    4
 10
163.3126986973601
 20
246.69091813932343
 11
174.05873197291999
 21
257.43695141488331
  0
LINE
  8
_0-0_図面枠
  6
CONTINUOUS
 62
    4
 10
162.36988965577814
 20
246.69091813932343
 11
174.05873197291999
 21
258.37976045646531
  0
LINE
  8
_0-0_図面枠
  6
CONTINUOUS
 62
    4
 10
152.47039471916742
 20
246.69091813932343
 11
174.05873197291999
 21
268.27925539307591
  0
LINE
  8
_0-0_図面枠
  6
CONTINUOUS
 62
    4
 10
173.86091867758324
 20
269.02425113932122
 11
151.52758567758548
 21
246.69091813932343
  0
LINE
  8
_0-0_図面枠
  6
CONTINUOUS
 62
    4
 10
150.58477663600354
 20
246.69091813932343
 11
172.9181096360013
 21
269.02425113932122
  0
LINE
  8
_0-0_図面枠
  6
CONTINUOUS
 62
    4
 10
163.01861469939064
 20
269.02425113932122
 11
140.68528169939287
 21
246.69091813932343
  0
LINE
  8
_0-0_図面枠
  6
CONTINUOUS
 62
    4
 10
162.0758056578087
 20
269.02425113932122
 11
139.74247265781088
 21
246.69091813932343
  0
LINE
  8
_0-0_図面枠
  6
CONTINUOUS
 62
    4
 10
161.13299661622671
 20
269.02425113932122
 11
138.79966361622891
 21
246.69091813932343
  0
LINE
  8
_0-0_図面枠
  6
CONTINUOUS
 62
    4
 10
149.34788359645205
 20
269.02425113932122
 11
132.72539963959082
 21
252.40176718245991
  0
LINE
  8
_0-0_図面枠
  6
CONTINUOUS
 62
    4
 10
150.29069263803405
 20
269.02425113932122
 11
132.72539963959082
 21
251.45895814087802
  0
LINE
  8
_0-0_図面枠
  6
CONTINUOUS
 62
    4
 10
151.23350167961604
 20
269.02425113932122
 11
132.72539963959082
 21
250.51614909929603
  0
LINE
  8
_0-0_図面枠
  6
CONTINUOUS
 62
    4
 10
139.44838865984138
 20
269.02425113932122
 11
132.72539963959082
 21
262.30126211907066
  0
LINE
  8
_0-0_図面枠
  6
CONTINUOUS
 62
    4
 10
138.50557961825942
 20
269.02425113932122
 11
132.72539963959082
 21
263.24407116065265
  0
LINE
  8
_0-0_図面枠
  6
CONTINUOUS
 62
    4
 10
137.56277057667745
 20
269.02425113932122
 11
132.72539963959082
 21
264.18688020223453
  0
LINE
  8
_0-0_図面枠
  6
CONTINUOUS
 62
    4
 10
255.58884007226629
 20
246.69091813932337
 11
265.39206430624415
 21
256.49414237330132
  0
LINE
  8
_0-0_図面枠
  6
CONTINUOUS
 62
    4
 10
254.6460310306843
 20
246.69091813932337
 11
265.39206430624415
 21
257.43695141488331
  0
LINE
  8
_0-0_図面枠
  6
CONTINUOUS
 62
    4
 10
253.7032219891023
 20
246.69091813932337
 11
265.39206430624415
 21
258.37976045646531
  0
LINE
  8
_0-0_図面枠
  6
CONTINUOUS
 62
    4
 10
243.80372705249164
 20
246.69091813932337
 11
265.39206430624415
 21
268.27925539307591
  0
LINE
  8
_0-0_図面枠
  6
CONTINUOUS
 62
    4
 10
265.19425101090746
 20
269.02425113932122
 11
242.8609180109097
 21
246.69091813932337
  0
LINE
  8
_0-0_図面枠
  6
CONTINUOUS
 62
    4
 10
241.9181089693277
 20
246.69091813932337
 11
264.25144196932553
 21
269.02425113932122
  0
LINE
  8
_0-0_図面枠
  6
CONTINUOUS
 62
    4
 10
254.35194703271486
 20
269.02425113932122
 11
232.01861403271704
 21
246.69091813932337
  0
LINE
  8
_0-0_図面枠
  6
CONTINUOUS
 62
    4
 10
253.40913799113287
 20
269.02425113932122
 11
231.0758049911351
 21
246.69091813932337
  0
LINE
  8
_0-0_図面枠
  6
CONTINUOUS
 62
    4
 10
252.46632894955087
 20
269.02425113932122
 11
230.13299594955311
 21
246.69091813932337
  0
LINE
  8
_0-0_図面枠
  6
CONTINUOUS
 62
    4
 10
240.68121592977627
 20
269.02425113932122
 11
224.05873197291498
 21
252.40176718245985
  0
LINE
  8
_0-0_図面枠
  6
CONTINUOUS
 62
    4
 10
241.62402497135821
 20
269.02425113932122
 11
224.05873197291498
 21
251.45895814087797
  0
LINE
  8
_0-0_図面枠
  6
CONTINUOUS
 62
    4
 10
242.56683401294021
 20
269.02425113932122
 11
224.05873197291498
 21
250.51614909929597
  0
LINE
  8
_0-0_図面枠
  6
CONTINUOUS
 62
    4
 10
230.78172099316555
 20
269.02425113932122
 11
224.05873197291498
 21
262.30126211907066
  0
LINE
  8
_0-0_図面枠
  6
CONTINUOUS
 62
    4
 10
229.83891195158361
 20
269.02425113932122
 11
224.05873197291498
 21
263.24407116065254
  0
LINE
  8
_0-0_図面枠
  6
CONTINUOUS
 62
    4
 10
228.89610291000162
 20
269.02425113932122
 11
224.05873197291498
 21
264.18688020223453
  0
POINT
  8
_0-0_図面枠
 62
    4
 10
177.39206630625301
 20
287.35758447265277
  0
LINE
  8
_0-0_図面枠
  6
CONTINUOUS
 62
    4
 10
220.72539863958201
 20
287.35758447265266
 11
177.39206530625296
 21
287.35758447265277
  0
LINE
  8
_0-0_図面枠
  6
CONTINUOUS
 62
    4
 10
177.39206630625301
 20
287.35758447265277
 11
144.058732972923
 21
287.35758447265277
  0
POINT
  8
_0-0_図面枠
 62
    4
 10
260.72539863957797
 20
269.02425113932122
  0
LINE
  8
_0-0_図面枠
  6
CONTINUOUS
 62
    4
 10
177.39206630625301
 20
276.21458070494759
 11
177.39206630625301
 21
287.35758447265277
  0
LINE
  8
_0-0_図面枠
  6
CONTINUOUS
 62
    4
 10
220.72539863958201
 20
287.35758447265266
 11
220.72539863958201
 21
276.21458070494759
  0
ARC
  8
_0-0_図面枠
  6
CONTINUOUS
 62
    4
 10
177.5587344350451
 20
273.19091780598751
 40
0.3333333333333
 50
270
 51
359.9999565941086
  0
ARC
  8
_0-0_図面枠
  6
CONTINUOUS
 62
    4
 10
176.72540059666102
 20
273.19091780598751
 40
0.3333333333333
 50
179.99995659409885
 51
270
  0
LINE
  8
_0-0_図面枠
  6
CONTINUOUS
 62
    4
 10
254.89552936412588
 20
275.69089361406486
 11
260.72539863957797
 21
275.69089361406486
  0
POINT
  8
_0-0_図面枠
 62
    4
 10
260.72539863957797
 20
275.69089361406486
  0
LINE
  8
_0-0_図面枠
  6
CONTINUOUS
 62
    4
 10
260.72539863957797
 20
275.69089361406486
 11
260.72539863957797
 21
269.02425113932122
  0
ARC
  8
_0-0_図面枠
  6
CONTINUOUS
 62
    4
 10
177.64206959918636
 20
274.77425113932077
 40
0.2499999999999749
 50
359.99995659382529
 51
179.99995659409882
  0
ARC
  8
_0-0_図面枠
  6
CONTINUOUS
 62
    4
 10
176.64206959918658
 20
274.27425113932065
 40
0.2499999999999749
 50
359.99995659411189
 51
179.99999999996089
  0
LINE
  8
_0-0_図面枠
  6
CONTINUOUS
 62
    4
 10
177.89206771787326
 20
274.77425094992702
 11
177.89206651837827
 21
273.19091755346324
  0
LINE
  8
_0-0_図面枠
  6
CONTINUOUS
 62
    4
 10
176.39206733908537
 20
274.27425113932259
 11
176.3920665183785
 21
273.19091805851338
  0
LINE
  8
_0-0_図面枠
  6
CONTINUOUS
 62
    7
 10
176.89206959918647
 20
273.35758447265414
 11
177.39206959918644
 21
273.35758447265414
  0
LINE
  8
_0-0_図面枠
  6
CENTER1
 62
    4
 10
199.05873197291749
 20
269.02425113932122
 11
199.05873197291749
 21
275.69091780598728
  0
LINE
  8
_0-0_図面枠
  6
CONTINUOUS
 62
    7
 10
177.39206959918644
 20
273.35758447265414
 11
177.39206959918644
 21
275.02425113932065
  0
ARC
  8
_0-0_図面枠
  6
CONTINUOUS
 62
    7
 10
176.72540293251984
 20
275.02425113932065
 40
0.6666666666666
 50
0
 51
90
  0
LINE
  8
_0-0_図面枠
  6
CONTINUOUS
 62
    7
 10
176.89206959918647
 20
273.35758447265414
 11
176.89206959918647
 21
275.02425113932065
  0
ARC
  8
_0-0_図面枠
  6
CONTINUOUS
 62
    7
 10
176.72540293251984
 20
275.02425113932065
 40
0.16666666666665
 50
0
 51
90
  0
LINE
  8
_0-0_図面枠
  6
CONTINUOUS
 62
    4
 10
146.44223900424277
 20
269.69091780598785
 11
145.77557233757619
 21
269.02425113932122
  0
LINE
  8
_0-0_図面枠
  6
CONTINUOUS
 62
    4
 10
145.02802544186983
 20
269.69091780598785
 11
144.55874191599742
 21
269.2216342801155
  0
LINE
  8
_0-0_図面枠
  6
CONTINUOUS
 62
    4
 10
147.38504804582476
 20
269.69091780598785
 11
146.71838137915813
 21
269.02425113932122
  0
LINE
  8
_0-0_図面枠
  6
CONTINUOUS
 62
    4
 10
146.91364352503376
 20
269.69091780598785
 11
146.24697685836716
 21
269.02425113932122
  0
LINE
  8
_0-0_図面枠
  6
CONTINUOUS
 62
    4
 10
145.9708344834518
 20
269.69091780598785
 11
145.3041678167852
 21
269.02425113932122
  0
LINE
  8
_0-0_図面枠
  6
CONTINUOUS
 62
    4
 10
145.49942996266083
 20
269.69091780598785
 11
144.8327632959942
 21
269.02425113932122
  0
ARC
  8
_0-0_図面枠
  6
CONTINUOUS
 62
    7
 10
144.72540217494486
 20
270.35758245244756
 40
0.16666666666665
 50
180.00004340590115
 51
270
  0
ARC
  8
_0-0_図面枠
  6
CONTINUOUS
 62
    7
 10
144.72540217494486
 20
270.35758245244756
 40
0.6666666666666
 50
180.00004340589626
 51
270
  0
LINE
  8
_0-0_図面枠
  6
CONTINUOUS
 62
    4
 10
144.55874191599742
 20
269.71208357364765
 11
144.55874191599742
 21
269.02425113932122
  0
ARC
  8
_0-0_図面枠
  6
CONTINUOUS
 62
    4
 10
220.55872951078987
 20
273.1909178059874
 40
0.3333333333333
 50
180.00004340589138
 51
270
  0
ARC
  8
_0-0_図面枠
  6
CONTINUOUS
 62
    4
 10
221.39206334917395
 20
273.1909178059874
 40
0.3333333333333
 50
270
 51
0.0000434059011844
  0
ARC
  8
_0-0_図面枠
  6
CONTINUOUS
 62
    4
 10
220.47539434664861
 20
274.77425113932065
 40
0.2499999999999749
 50
0.000043405901159
 51
180.00004340617474
  0
ARC
  8
_0-0_図面枠
  6
CONTINUOUS
 62
    4
 10
221.47539434664839
 20
274.27425113932065
 40
0.2499999999999749
 50
0
 51
180.00004340588814
  0
LINE
  8
_0-0_図面枠
  6
CONTINUOUS
 62
    4
 10
220.22539622796171
 20
274.77425094992691
 11
220.2253974274567
 21
273.19091755346312
  0
LINE
  8
_0-0_図面枠
  6
CONTINUOUS
 62
    4
 10
221.7253966067496
 20
274.27425113932247
 11
221.72539742745647
 21
273.19091805851326
  0
LINE
  8
_0-0_図面枠
  6
CONTINUOUS
 62
    7
 10
221.2253943466485
 20
273.35758447265403
 11
220.7253943466485
 21
273.35758447265403
  0
LINE
  8
_0-0_図面枠
  6
CONTINUOUS
 62
    7
 10
220.7253943466485
 20
273.35758447265403
 11
220.72539434664856
 21
275.02425113932054
  0
ARC
  8
_0-0_図面枠
  6
CONTINUOUS
 62
    7
 10
221.39206101331513
 20
275.02425113932054
 40
0.6666666666666
 50
90
 51
180
  0
LINE
  8
_0-0_図面枠
  6
CONTINUOUS
 62
    7
 10
221.2253943466485
 20
273.35758447265403
 11
221.2253943466485
 21
275.02425113932054
  0
ARC
  8
_0-0_図面枠
  6
CONTINUOUS
 62
    7
 10
221.39206101331513
 20
275.02425113932054
 40
0.16666666666665
 50
90
 51
180
  0
ARC
  8
_0-0_図面枠
  6
CONTINUOUS
 62
    7
 10
253.39206177089011
 20
270.35758245244745
 40
0.16666666666665
 50
270
 51
359.99995659409882
  0
ARC
  8
_0-0_図面枠
  6
CONTINUOUS
 62
    7
 10
253.39206177089011
 20
270.35758245244745
 40
0.6666666666666
 50
270
 51
359.9999565941086
  0
LINE
  8
_0-0_図面枠
  6
CONTINUOUS
 62
    4
 10
253.55872202983755
 20
269.71208357364753
 11
253.55872202983755
 21
269.02425113932111
  0
LINE
  8
_0-0_図面枠
  6
CONTINUOUS
 62
    4
 10
252.60888578474982
 20
269.69091780598774
 11
251.94221911808324
 21
269.02425113932111
  0
LINE
  8
_0-0_図面枠
  6
CONTINUOUS
 62
    4
 10
253.55872202983755
 20
269.22654048870243
 11
253.35643268045618
 21
269.02425113932111
  0
LINE
  8
_0-0_図面枠
  6
CONTINUOUS
 62
    4
 10
253.08029030554081
 20
269.69091780598774
 11
252.41362363887424
 21
269.02425113932111
  0
LINE
  8
_0-0_図面枠
  6
CONTINUOUS
 62
    4
 10
252.13748126395888
 20
269.69091780598774
 11
251.47081459729225
 21
269.02425113932111
  0
LINE
  8
_0-0_図面枠
  6
CONTINUOUS
 62
    4
 10
251.66607674316788
 20
269.69091780598774
 11
250.99941007650125
 21
269.02425113932111
  0
LINE
  8
_0-0_図面枠
  6
CONTINUOUS
 62
    4
 10
253.55872202983755
 20
269.69794500949342
 11
252.88502815966524
 21
269.02425113932111
  0
LINE
  8
_0-0_図面枠
  6
CONTINUOUS
 62
    7
 10
221.39206101331513
 20
275.69091780598717
 11
253.39206517996416
 21
275.69091780598706
  0
LINE
  8
_0-0_図面枠
  6
CONTINUOUS
 62
    7
 10
254.05873197291163
 20
275.02425063426983
 11
254.05872843755651
 21
270.35758194739697
  0
ARC
  8
_0-0_図面枠
  6
CONTINUOUS
 62
    7
 10
253.39206517996416
 20
275.02425113932054
 40
0.6666666666666
 50
359.99995659410371
 51
90.000000000000028
  0
LINE
  8
_0-0_図面枠
  6
CONTINUOUS
 62
    7
 10
221.39206101331513
 20
275.19091780598728
 11
253.39206517996416
 21
275.19091780598717
  0
LINE
  8
_0-0_図面枠
  6
CONTINUOUS
 62
    7
 10
253.5587319729118
 20
275.02425101305778
 11
253.55872843755674
 21
270.3575823261848
  0
ARC
  8
_0-0_図面枠
  6
CONTINUOUS
 62
    7
 10
253.39206517996416
 20
275.02425113932054
 40
0.16666666666665
 50
359.99995659409882
 51
90.000000000000028
  0
LINE
  8
_0-0_図面枠
  6
CONTINUOUS
 62
    7
 10
144.55873197294156
 20
275.02422677063055
 11
144.55873550827823
 21
270.35758232618491
  0
LINE
  8
_0-0_図面枠
  6
CONTINUOUS
 62
    7
 10
176.72540293251984
 20
275.19091780598728
 11
144.72539863960816
 21
275.19091780598728
  0
ARC
  8
_0-0_図面枠
  6
CONTINUOUS
 62
    7
 10
144.72539863960816
 20
275.0242268968932
 40
0.16666666666665
 50
90
 51
180.00004340590115
  0
LINE
  8
_0-0_図面枠
  6
CONTINUOUS
 62
    7
 10
144.05873197294176
 20
275.02422639184272
 11
144.05873550827846
 21
270.35758194739708
  0
LINE
  8
_0-0_図面枠
  6
CONTINUOUS
 62
    7
 10
176.72540293251984
 20
275.69091780598728
 11
144.72539863960816
 21
275.69091780598728
  0
ARC
  8
_0-0_図面枠
  6
CONTINUOUS
 62
    7
 10
144.72539863960816
 20
275.0242268968932
 40
0.6666666666666
 50
90
 51
180.00004340589626
  0
LINE
  8
_0-0_図面枠
  6
CONTINUOUS
 62
    4
 10
178.72540904225656
 20
268.22101039105792
 11
178.72540904225656
 21
256.02425080598914
  0
POINT
  8
_0-0_図面枠
 62
    4
 10
178.72540904225656
 20
256.02425080598914
  0
LINE
  8
_0-1_
  6
CONTINUOUS
 62
    4
 10
150.75874204225934
 20
275.69091780598728
 11
150.75874204225934
 21
275.59091780598726
  0
LINE
  8
_0-1_
  6
CONTINUOUS
 62
    4
 10
150.75874204225934
 20
275.59091780598726
 11
149.98096404225942
 21
274.9242518059873
  0
LINE
  8
_0-1_
  6
CONTINUOUS
 62
    4
 10
150.75874204225934
 20
275.59091780598726
 11
148.35874204225956
 21
275.59091780598726
  0
LINE
  8
_0-1_
  6
CONTINUOUS
 62
    4
 10
148.35874204225956
 20
275.69091780598728
 11
148.35874204225956
 21
275.59091780598726
  0
LINE
  8
_0-1_
  6
CONTINUOUS
 62
    4
 10
148.35874204225956
 20
275.59091780598726
 11
149.13652004225952
 21
274.9242518059873
  0
LINE
  8
_0-1_
  6
CONTINUOUS
 62
    4
 10
149.98096404225942
 20
272.73165880598754
 11
149.98096404225942
 21
273.07655880598747
  0
LINE
  8
_0-1_
  6
CONTINUOUS
 62
    4
 10
149.13652004225952
 20
272.13581880598758
 11
149.98096404225942
 21
272.44939880598758
  0
LINE
  8
_0-1_
  6
CONTINUOUS
 62
    4
 10
149.13652004225952
 20
272.41807880598753
 11
149.98096404225942
 21
272.73165880598754
  0
LINE
  8
_0-1_
  6
CONTINUOUS
 62
    4
 10
148.89207504225953
 20
272.27694880598756
 11
150.2254090422594
 21
272.59052880598756
  0
LINE
  8
_0-1_
  6
CONTINUOUS
 62
    4
 10
148.89207504225953
 20
272.27694880598756
 11
149.13652004225952
 21
272.13581880598758
  0
LINE
  8
_0-1_
  6
CONTINUOUS
 62
    4
 10
148.89207504225953
 20
272.27694880598756
 11
149.13652004225952
 21
272.41807880598753
  0
LINE
  8
_0-1_
  6
CONTINUOUS
 62
    4
 10
150.2254090422594
 20
272.59052880598756
 11
149.98096404225942
 21
272.44939880598758
  0
LINE
  8
_0-1_
  6
CONTINUOUS
 62
    4
 10
149.98096404225942
 20
272.73165880598754
 11
150.2254090422594
 21
272.59052880598756
  0
LINE
  8
_0-1_
  6
CONTINUOUS
 62
    4
 10
149.13652004225952
 20
273.39013980598747
 11
149.13652004225952
 21
273.04523880598754
  0
LINE
  8
_0-1_
  6
CONTINUOUS
 62
    4
 10
149.98096404225942
 20
273.35881980598742
 11
149.98096404225942
 21
273.70371980598748
  0
LINE
  8
_0-1_
  6
CONTINUOUS
 62
    4
 10
149.13652004225952
 20
272.76297880598759
 11
149.98096404225942
 21
273.07655880598747
  0
LINE
  8
_0-1_
  6
CONTINUOUS
 62
    4
 10
149.13652004225952
 20
273.04523880598754
 11
149.98096404225942
 21
273.35881980598742
  0
LINE
  8
_0-1_
  6
CONTINUOUS
 62
    4
 10
148.89207504225953
 20
272.90410880598756
 11
150.2254090422594
 21
273.21768880598745
  0
LINE
  8
_0-1_
  6
CONTINUOUS
 62
    4
 10
148.89207504225953
 20
272.90410880598756
 11
149.13652004225952
 21
272.76297880598759
  0
LINE
  8
_0-1_
  6
CONTINUOUS
 62
    4
 10
148.89207504225953
 20
272.90410880598756
 11
149.13652004225952
 21
273.04523880598754
  0
LINE
  8
_0-1_
  6
CONTINUOUS
 62
    4
 10
150.2254090422594
 20
273.21768880598745
 11
149.98096404225942
 21
273.07655880598747
  0
LINE
  8
_0-1_
  6
CONTINUOUS
 62
    4
 10
149.98096404225942
 20
273.35881980598742
 11
150.2254090422594
 21
273.21768880598745
  0
LINE
  8
_0-1_
  6
CONTINUOUS
 62
    4
 10
149.13652004225952
 20
274.01729980598748
 11
149.13652004225952
 21
273.67239980598742
  0
LINE
  8
_0-1_
  6
CONTINUOUS
 62
    4
 10
149.98096404225942
 20
273.98597980598743
 11
149.98096404225942
 21
274.33087980598737
  0
LINE
  8
_0-1_
  6
CONTINUOUS
 62
    4
 10
149.13652004225952
 20
273.39013980598747
 11
149.98096404225942
 21
273.70371980598748
  0
LINE
  8
_0-1_
  6
CONTINUOUS
 62
    4
 10
149.13652004225952
 20
273.67239980598742
 11
149.98096404225942
 21
273.98597980598743
  0
LINE
  8
_0-1_
  6
CONTINUOUS
 62
    4
 10
148.89207504225953
 20
273.53126980598745
 11
150.2254090422594
 21
273.84484980598745
  0
LINE
  8
_0-1_
  6
CONTINUOUS
 62
    4
 10
148.89207504225953
 20
273.53126980598745
 11
149.13652004225952
 21
273.39013980598747
  0
LINE
  8
_0-1_
  6
CONTINUOUS
 62
    4
 10
148.89207504225953
 20
273.53126980598745
 11
149.13652004225952
 21
273.67239980598742
  0
LINE
  8
_0-1_
  6
CONTINUOUS
 62
    4
 10
150.2254090422594
 20
273.84484980598745
 11
149.98096404225942
 21
273.70371980598748
  0
LINE
  8
_0-1_
  6
CONTINUOUS
 62
    4
 10
149.98096404225942
 20
273.98597980598743
 11
150.2254090422594
 21
273.84484980598745
  0
LINE
  8
_0-1_
  6
CONTINUOUS
 62
    4
 10
149.13652004225952
 20
274.37889780598732
 11
149.13652004225952
 21
274.29955980598743
  0
LINE
  8
_0-1_
  6
CONTINUOUS
 62
    4
 10
149.98096404225942
 20
274.9242518059873
 11
149.98096404225942
 21
274.61314080598743
  0
LINE
  8
_0-1_
  6
CONTINUOUS
 62
    4
 10
149.13652004225952
 20
274.01729980598748
 11
149.98096404225942
 21
274.33087980598737
  0
LINE
  8
_0-1_
  6
CONTINUOUS
 62
    4
 10
149.13652004225952
 20
274.29955980598743
 11
149.98096404225942
 21
274.61314080598743
  0
LINE
  8
_0-1_
  6
CONTINUOUS
 62
    4
 10
148.89207504225953
 20
274.15842980598745
 11
150.2254090422594
 21
274.47200980598734
  0
LINE
  8
_0-1_
  6
CONTINUOUS
 62
    4
 10
148.89207504225953
 20
274.15842980598745
 11
149.13652004225952
 21
274.01729980598748
  0
LINE
  8
_0-1_
  6
CONTINUOUS
 62
    4
 10
148.89207504225953
 20
274.15842980598745
 11
149.13652004225952
 21
274.29955980598743
  0
LINE
  8
_0-1_
  6
CONTINUOUS
 62
    4
 10
149.98096404225942
 20
274.33087980598737
 11
150.2254090422594
 21
274.47200980598734
  0
LINE
  8
_0-1_
  6
CONTINUOUS
 62
    4
 10
149.98096404225942
 20
274.61314080598743
 11
150.2254090422594
 21
274.47200980598734
  0
LINE
  8
_0-1_
  6
CONTINUOUS
 62
    4
 10
149.13652004225952
 20
274.9242518059873
 11
149.13652004225952
 21
274.8373458059873
  0
LINE
  8
_0-1_
  6
CONTINUOUS
 62
    4
 10
149.55874204225947
 20
274.85300580598732
 11
148.89207504225953
 21
274.69621580598732
  0
LINE
  8
_0-1_
  6
CONTINUOUS
 62
    4
 10
148.89207504225953
 20
274.69621580598732
 11
149.13652004225952
 21
274.55508580598735
  0
LINE
  8
_0-1_
  6
CONTINUOUS
 62
    4
 10
148.89207504225953
 20
274.69621580598732
 11
149.13652004225952
 21
274.8373458059873
  0
LINE
  8
_0-1_
  6
CONTINUOUS
 62
    4
 10
149.13652004225952
 20
274.55508580598735
 11
149.13652004225952
 21
274.37889780598732
  0
LINE
  8
_0-1_
  6
CONTINUOUS
 62
    4
 10
149.55874204225947
 20
271.02425180598766
 11
149.55874204225947
 21
270.35758480598781
  0
LINE
  8
_0-1_
  6
CONTINUOUS
 62
    4
 10
149.98096404225942
 20
272.02425180598766
 11
149.13652504225951
 21
272.02425180598766
  0
LINE
  8
_0-1_
  6
CONTINUOUS
 62
    4
 10
149.55874204225947
 20
270.35758480598781
 11
149.13652004225952
 21
270.66550480598778
  0
LINE
  8
_0-1_
  6
CONTINUOUS
 62
    4
 10
149.55874204225947
 20
270.35758480598781
 11
149.98096404225942
 21
270.66550480598778
  0
ARC
  8
_0-1_
  6
CONTINUOUS
 62
    4
 10
149.68366604225946
 20
270.44938580598773
 40
0.588282999999941
 50
102.26032900000094
 51
158.44630399999792
  0
ARC
  8
_0-1_
  6
CONTINUOUS
 62
    4
 10
151.56083704225927
 20
270.76805880598772
 40
2.0184199999997983
 50
141.51097799999889
 51
172.70791799999989
  0
LINE
  8
_0-1_
  6
CONTINUOUS
 62
    4
 10
149.13652004225952
 20
272.13581880598758
 11
149.13652004225952
 21
272.02425180598766
  0
LINE
  8
_0-1_
  6
CONTINUOUS
 62
    4
 10
149.13652004225952
 20
274.9242518059873
 11
149.98096404225942
 21
274.9242518059873
  0
LINE
  8
_0-1_
  6
CONTINUOUS
 62
    4
 10
149.13652004225952
 20
274.8373458059873
 11
149.55874204225947
 21
274.85300580598732
  0
LINE
  8
_0-1_
  6
CONTINUOUS
 62
    4
 10
149.13652004225952
 20
274.55508580598735
 11
149.55874204225947
 21
274.85300580598732
  0
LINE
  8
_0-1_
  6
CONTINUOUS
 62
    4
 10
149.13652004225952
 20
272.02425180598766
 11
149.13652004225952
 21
270.66550480598778
  0
LINE
  8
_0-1_
  6
CONTINUOUS
 62
    4
 10
149.98096404225942
 20
272.44939880598758
 11
149.98096404225942
 21
270.66550480598778
  0
LINE
  8
_0-1_
  6
CONTINUOUS
 62
    4
 10
149.13652004225952
 20
272.76297880598759
 11
149.13652004225952
 21
272.41807880598753
  0
LINE
  8
_0-0_図面枠
  6
CENTER1
 62
    4
 10
149.55874204225947
 20
269.02425113932122
 11
149.55874204225947
 21
276.47421787376754
  0
ARC
  8
_0-1_
  6
CONTINUOUS
 62
    7
 10
148.55874204225955
 20
269.69091780598785
 40
0.16666666666665
 50
180
 51
270
  0
ARC
  8
_0-0_図面枠
  6
CONTINUOUS
 62
    7
 10
148.05874204225961
 20
275.02425113932065
 40
0.16666666666665
 50
90
 51
180
  0
LINE
  8
_0-1_
  6
CONTINUOUS
 62
    7
 10
147.89207537559298
 20
269.02425113932122
 11
147.89207537559298
 21
273.02425113932088
  0
LINE
  8
_0-1_
  6
CONTINUOUS
 62
    7
 10
147.89207537559298
 20
273.69091760652782
 11
147.89207537559298
 21
275.02425113932065
  0
ARC
  8
_0-1_
  6
CONTINUOUS
 62
    7
 10
148.55874204225955
 20
269.69091780598785
 40
0.16666666666665
 50
180
 51
270
  0
ARC
  8
_0-0_図面枠
  6
CONTINUOUS
 62
    7
 10
150.55874204225938
 20
274.69091780598728
 40
0.6666666666666
 50
270
 51
0
  0
ARC
  8
_0-0_図面枠
  6
CONTINUOUS
 62
    7
 10
148.22540870892627
 20
275.02425113932065
 40
0.16666666666665
 50
0
 51
90
  0
ARC
  8
_0-0_図面枠
  6
CONTINUOUS
 62
    7
 10
150.8920753755927
 20
275.02425113932065
 40
0.16666666666665
 50
90
 51
180
  0
LINE
  8
_0-1_
  6
CONTINUOUS
 62
    7
 10
151.22540870892595
 20
275.02425113932065
 11
151.22540870892595
 21
274.69091780598728
  0
ARC
  8
_0-0_図面枠
  6
CONTINUOUS
 62
    7
 10
151.05874204225933
 20
275.02425113932065
 40
0.16666666666665
 50
0
 51
90
  0
LINE
  8
_0-1_
  6
CONTINUOUS
 62
    7
 10
148.39207537559292
 20
273.6909178059874
 11
148.39207537559292
 21
269.69091780598785
  0
LINE
  8
_0-0_図面枠
  6
CONTINUOUS
 62
    7
 10
148.72540870892624
 20
274.02425113932077
 11
150.55874204225938
 21
274.02425113932077
  0
ARC
  8
_0-0_図面枠
  6
CONTINUOUS
 62
    7
 10
148.72540870892624
 20
273.6909178059874
 40
0.3333333333333
 50
90
 51
180
  0
LINE
  8
_0-0_図面枠
  6
CONTINUOUS
 62
    7
 10
148.39207537559292
 20
274.69091780598728
 11
149.45874204225947
 21
274.69091780598728
  0
LINE
  8
_0-0_図面枠
  6
CONTINUOUS
 62
    7
 10
149.65874204225946
 20
274.69091780598728
 11
150.72540870892601
 21
274.69091780598728
  0
LINE
  8
_0-0_図面枠
  6
CONTINUOUS
 62
    7
 10
148.39207537559292
 20
274.69091780598728
 11
148.39207537559292
 21
275.02425113932065
  0
LINE
  8
_0-0_図面枠
  6
CONTINUOUS
 62
    7
 10
150.72540870892601
 20
275.02425113932065
 11
150.72540870892601
 21
274.69091780598728
  0
LINE
  8
_0-0_図面枠
  6
CONTINUOUS
 62
    7
 10
149.55874204225947
 20
274.59091780598737
 11
149.45874204225947
 21
274.69091780598728
  0
LINE
  8
_0-0_図面枠
  6
CONTINUOUS
 62
    7
 10
149.55874204225947
 20
274.59091780598737
 11
149.65874204225946
 21
274.69091780598728
  0
LINE
  8
_0-1_
  6
CONTINUOUS
 62
    7
 10
148.55874204225958
 20
269.52425113932122
 11
157.89207537559201
 21
269.52425113932122
  0
LINE
  8
_0-1_
  6
CONTINUOUS
 62
    7
 10
158.55874204225864
 20
270.35758480598781
 11
158.89207504225857
 21
270.35758480598781
  0
ARC
  8
_0-0_図面枠
  6
CONTINUOUS
 62
    7
 10
158.15874204225867
 20
271.25758480598768
 40
0.09999999999999
 50
90
 51
180
  0
LINE
  8
_0-1_
  6
CONTINUOUS
 62
    7
 10
158.59672936641505
 20
271.24362271955636
 11
158.89207504225857
 21
270.35758480598781
  0
LINE
  8
_0-0_図面枠
  6
CONTINUOUS
 62
    7
 10
158.43861546759524
 20
271.3575848059877
 11
158.15874204225867
 21
271.3575848059877
  0
ARC
  8
_0-0_図面枠
  6
CONTINUOUS
 62
    7
 10
158.43861546759524
 20
271.19091813932107
 40
0.16666666666665
 50
18.434931634184117
 51
90
  0
LINE
  8
_0-0_図面枠
  6
CONTINUOUS
 62
    7
 10
158.55874204225864
 20
270.35758480598781
 11
158.55874204225864
 21
269.69091780598785
  0
ARC
  8
_0-0_図面枠
  6
CONTINUOUS
 62
    7
 10
158.72540870892527
 20
269.69091780598785
 40
0.16666666666665
 50
180
 51
270
  0
LINE
  8
_0-0_図面枠
  6
CONTINUOUS
 62
    7
 10
158.0587420422587
 20
271.25758480598768
 11
158.0587420422587
 21
269.69091780598785
  0
ARC
  8
_0-0_図面枠
  6
CONTINUOUS
 62
    7
 10
157.89207537559201
 20
269.69091780598785
 40
0.16666666666665
 50
270
 51
0
  0
LINE
  8
_0-1_
  6
CONTINUOUS
 62
    7
 10
158.72540870892527
 20
269.52425113932122
 11
178.05874237558999
 21
269.52425113932122
  0
ARC
  8
_0-1_
  6
CONTINUOUS
 62
    7
 10
178.05874237558999
 20
269.69091780598785
 40
0.16666666666665
 50
270
 51
0
  0
ARC
  8
_0-1_
  6
CONTINUOUS
 62
    7
 10
178.55874237558993
 20
269.19091780598785
 40
0.16666666666665
 50
270
 51
0
  0
ARC
  8
_0-1_
  6
CONTINUOUS
 62
    7
 10
178.47540904225662
 20
272.10758447265425
 40
0.2499999999999749
 50
0
 51
180
  0
LINE
  8
_0-1_
  6
CONTINUOUS
 62
    7
 10
178.72540904225656
 20
272.10758447265425
 11
178.72540904225656
 21
269.19091780598785
  0
LINE
  8
_0-1_
  6
CONTINUOUS
 62
    7
 10
178.22540904225662
 20
272.10758447265425
 11
178.22540904225662
 21
269.69091780598785
  0
LINE
  8
_0-0_図面枠
  6
CONTINUOUS
 62
    4
 10
154.55874204225898
 20
259.47007002464966
 11
154.55874204225896
 21
240.02425147265743
  0
POINT
  8
_0-0_図面枠
 62
    4
 10
154.55874204225896
 20
240.02425147265743
  0
LINE
  8
_0-1_
  6
CONTINUOUS
 62
    4
 10
157.55874704225869
 20
270.02425113932122
 11
151.55874704225926
 21
270.02425113932122
  0
LINE
  8
_0-1_
  6
CONTINUOUS
 62
    4
 10
151.55874704225926
 20
270.02425113932122
 11
151.55874704225926
 21
269.52425113932122
  0
LINE
  8
_0-1_
  6
CONTINUOUS
 62
    4
 10
157.55874704225869
 20
270.02425113932122
 11
157.55874704225869
 21
269.52425113932122
  0
LINE
  8
_0-1_
  6
CONTINUOUS
 62
    4
 10
154.55874704225897
 20
269.42425613932119
 11
154.65874704225894
 21
269.52425613932121
  0
LINE
  8
_0-1_
  6
CONTINUOUS
 62
    4
 10
154.55874704225897
 20
269.42425613932119
 11
154.45875204225899
 21
269.52425113932122
  0
ARC
  8
_0-1_
  6
CONTINUOUS
 62
    4
 10
154.09191404225902
 20
270.04058430351631
 40
0.7999999999999201
 50
125.70005900000093
 51
181.16985799999739
  0
ARC
  8
_0-1_
  6
CONTINUOUS
 62
    4
 10
154.55874704225897
 20
269.39091830351629
 40
1.5999999999998402
 50
54.299961000001367
 51
90
  0
ARC
  8
_0-1_
  6
CONTINUOUS
 62
    4
 10
155.02558004225898
 20
270.04058430351631
 40
0.7999999999999201
 50
358.83014200000264
 51
54.299940999999059
  0
ARC
  8
_0-1_
  6
CONTINUOUS
 62
    4
 10
154.55874704225897
 20
269.39091830351629
 40
1.5999999999998402
 50
90
 51
125.70003899999841
  0
LINE
  8
_0-1_
  6
CENTER1
 62
    4
 10
154.55874204225898
 20
259.47007002464966
 11
154.55874204225898
 21
271.64425713932098
  0
LINE
  8
_0-0_図面枠
  6
CONTINUOUS
 62
    7
 10
154.45874204225902
 20
269.52425113932122
 11
154.55874204225898
 21
269.4242511393212
  0
LINE
  8
_0-0_図面枠
  6
CONTINUOUS
 62
    7
 10
154.55874204225904
 20
269.4242511393212
 11
154.65874204225901
 21
269.52425113932122
  0
LINE
  8
_0-0_図面枠
  6
CONTINUOUS
 62
    4
 10
156.89207537559207
 20
269.02425113932122
 11
156.89207537559207
 21
269.52425113932122
  0
LINE
  8
_0-0_図面枠
  6
CONTINUOUS
 62
    4
 10
152.2254087089259
 20
269.02425113932122
 11
152.2254087089259
 21
269.52425113932122
  0
LINE
  8
_0-1_
  6
CONTINUOUS
 62
    4
 10
153.40293804225911
 20
264.07415713932176
 11
152.97909704225918
 21
265.23865213932163
  0
LINE
  8
_0-1_
  6
CONTINUOUS
 62
    4
 10
153.31135004225911
 20
262.32655513932195
 11
153.79758104225905
 21
262.0507301393219
  0
LINE
  8
_0-1_
  6
CONTINUOUS
 62
    4
 10
153.79758104225905
 20
262.0507301393219
 11
153.77141304225907
 21
261.55141513932199
  0
LINE
  8
_0-1_
  6
CONTINUOUS
 62
    4
 10
153.77141304225907
 20
261.55141513932199
 11
153.27209804225913
 21
261.57758313932197
  0
LINE
  8
_0-1_
  6
CONTINUOUS
 62
    4
 10
153.33751804225909
 20
262.82587013932186
 11
153.31135004225911
 21
262.32655513932195
  0
LINE
  8
_0-1_
  6
CONTINUOUS
 62
    4
 10
153.37677004225912
 20
263.57484213932173
 11
153.86300104225904
 21
263.29901613932179
  0
LINE
  8
_0-1_
  6
CONTINUOUS
 62
    4
 10
153.86300104225904
 20
263.29901613932179
 11
153.83683304225906
 21
262.79970213932188
  0
LINE
  8
_0-1_
  6
CONTINUOUS
 62
    4
 10
153.83683304225906
 20
262.79970213932188
 11
153.33751804225909
 21
262.82587013932186
  0
LINE
  8
_0-1_
  6
CONTINUOUS
 62
    4
 10
153.40293804225911
 20
264.07415713932176
 11
153.37677004225912
 21
263.57484213932173
  0
LINE
  8
_0-1_
  6
CONTINUOUS
 62
    4
 10
153.44219004225911
 20
264.82312913932162
 11
153.92842104225906
 21
264.54730313932168
  0
LINE
  8
_0-1_
  6
CONTINUOUS
 62
    4
 10
153.92842104225906
 20
264.54730313932168
 11
153.90225304225908
 21
264.04798913932177
  0
LINE
  8
_0-1_
  6
CONTINUOUS
 62
    4
 10
153.90225304225908
 20
264.04798913932177
 11
153.40293804225911
 21
264.07415713932176
  0
LINE
  8
_0-1_
  6
CONTINUOUS
 62
    4
 10
153.46835804225907
 20
265.32244413932153
 11
153.44219004225911
 21
264.82312913932162
  0
LINE
  8
_0-1_
  6
CONTINUOUS
 62
    4
 10
153.99384104225905
 20
265.79559013932158
 11
153.96767304225907
 21
265.29627613932166
  0
LINE
  8
_0-1_
  6
CONTINUOUS
 62
    4
 10
153.96767304225907
 20
265.29627613932166
 11
153.46835804225907
 21
265.32244413932153
  0
LINE
  8
_0-1_
  6
CONTINUOUS
 62
    4
 10
153.30874704225909
 20
269.02425113932122
 11
153.55874704225909
 21
267.77425113932134
  0
LINE
  8
_0-1_
  6
CONTINUOUS
 62
    4
 10
153.55874704225909
 20
266.02425113932156
 11
153.99384104225905
 21
265.79559013932158
  0
LINE
  8
_0-1_
  6
CONTINUOUS
 62
    4
 10
154.43374704225897
 20
267.02425113932145
 11
154.55874704225897
 21
267.02425113932145
  0
LINE
  8
_0-1_
  6
CONTINUOUS
 62
    4
 10
155.80614404225889
 20
262.32655513932195
 11
155.31991304225892
 21
262.0507301393219
  0
LINE
  8
_0-1_
  6
CONTINUOUS
 62
    4
 10
155.31991304225892
 20
262.0507301393219
 11
155.34608104225893
 21
261.55141513932199
  0
LINE
  8
_0-1_
  6
CONTINUOUS
 62
    4
 10
155.34608104225893
 20
261.55141513932199
 11
155.84539604225887
 21
261.57758313932197
  0
LINE
  8
_0-1_
  6
CONTINUOUS
 62
    4
 10
155.77997604225885
 20
262.82587013932186
 11
155.80614404225889
 21
262.32655513932195
  0
LINE
  8
_0-1_
  6
CONTINUOUS
 62
    4
 10
155.74072404225888
 20
263.57484213932173
 11
155.25449304225896
 21
263.29901613932179
  0
LINE
  8
_0-1_
  6
CONTINUOUS
 62
    4
 10
155.25449304225896
 20
263.29901613932179
 11
155.28066104225894
 21
262.79970213932188
  0
LINE
  8
_0-1_
  6
CONTINUOUS
 62
    4
 10
155.28066104225894
 20
262.79970213932188
 11
155.77997604225885
 21
262.82587013932186
  0
LINE
  8
_0-1_
  6
CONTINUOUS
 62
    4
 10
155.71455604225889
 20
264.07415713932176
 11
155.74072404225888
 21
263.57484213932173
  0
LINE
  8
_0-1_
  6
CONTINUOUS
 62
    4
 10
155.67530404225889
 20
264.82312913932162
 11
155.18907304225894
 21
264.54730313932168
  0
LINE
  8
_0-1_
  6
CONTINUOUS
 62
    4
 10
155.18907304225894
 20
264.54730313932168
 11
155.21524104225892
 21
264.04798913932177
  0
LINE
  8
_0-1_
  6
CONTINUOUS
 62
    4
 10
155.21524104225892
 20
264.04798913932177
 11
155.71455604225889
 21
264.07415713932176
  0
LINE
  8
_0-1_
  6
CONTINUOUS
 62
    4
 10
155.64913604225887
 20
265.32244413932153
 11
155.67530404225889
 21
264.82312913932162
  0
LINE
  8
_0-1_
  6
CONTINUOUS
 62
    4
 10
155.12365304225895
 20
265.79559013932158
 11
155.14982104225894
 21
265.29627613932166
  0
LINE
  8
_0-1_
  6
CONTINUOUS
 62
    4
 10
155.14982104225894
 20
265.29627613932166
 11
155.64913604225887
 21
265.32244413932153
  0
LINE
  8
_0-1_
  6
CONTINUOUS
 62
    4
 10
154.55874704225897
 20
267.77425113932134
 11
154.55874704225897
 21
269.02425113932122
  0
LINE
  8
_0-1_
  6
CONTINUOUS
 62
    4
 10
154.30874704225903
 20
269.02425113932122
 11
154.55874704225897
 21
267.77425113932134
  0
LINE
  8
_0-1_
  6
CONTINUOUS
 62
    4
 10
154.80874704225897
 20
269.02425113932122
 11
154.55874704225897
 21
267.77425113932134
  0
LINE
  8
_0-1_
  6
CONTINUOUS
 62
    4
 10
155.80874704225886
 20
269.02425113932122
 11
155.55874704225886
 21
267.77425113932134
  0
LINE
  8
_0-1_
  6
CONTINUOUS
 62
    4
 10
155.55874704225886
 20
266.02425113932156
 11
155.12365304225895
 21
265.79559013932158
  0
LINE
  8
_0-1_
  6
CONTINUOUS
 62
    4
 10
154.68374704225897
 20
267.02425113932145
 11
154.55874704225897
 21
267.02425113932145
  0
LINE
  8
_0-1_
  6
CONTINUOUS
 62
    4
 10
156.13839704225882
 20
265.23865213932163
 11
156.38648604225881
 21
266.93955713932144
  0
ARC
  8
_0-1_
  6
CONTINUOUS
 62
    4
 10
156.28753304225881
 20
266.95399013932149
 40
0.09999999999999
 50
351.7015339999964
 51
81.869897999992091
  0
LINE
  8
_0-1_
  6
CONTINUOUS
 62
    4
 10
156.30167504225881
 20
267.05298513932144
 11
156.25246904225884
 21
267.06001413932142
  0
ARC
  8
_0-1_
  6
CONTINUOUS
 62
    4
 10
156.23832704225879
 20
266.96102013932148
 40
0.09999999999999
 50
81.869897999992077
 51
171.86989800000819
  0
LINE
  8
_0-1_
  6
CONTINUOUS
 62
    4
 10
156.13933204225884
 20
266.97516213932147
 11
155.90347404225884
 21
265.32415713932164
  0
LINE
  8
_0-1_
  6
CONTINUOUS
 62
    4
 10
152.97909704225918
 20
265.23865213932163
 11
152.73100804225919
 21
266.93955713932144
  0
ARC
  8
_0-1_
  6
CONTINUOUS
 62
    4
 10
152.82996104225919
 20
266.95399013932149
 40
0.09999999999999
 50
98.130101999991808
 51
188.2984660000036
  0
LINE
  8
_0-1_
  6
CONTINUOUS
 62
    4
 10
152.81581904225919
 20
267.05298513932144
 11
152.86502504225916
 21
267.06001413932142
  0
ARC
  8
_0-1_
  6
CONTINUOUS
 62
    4
 10
152.87916704225916
 20
266.96102013932148
 40
0.09999999999999
 50
8.1301019999918065
 51
98.130101999991808
  0
LINE
  8
_0-1_
  6
CONTINUOUS
 62
    4
 10
152.97816204225916
 20
266.97516213932147
 11
153.21402004225911
 21
265.32415713932164
  0
LINE
  8
_0-1_
  6
CONTINUOUS
 62
    4
 10
155.71455604225889
 20
264.07415713932176
 11
156.13839704225882
 21
265.23865213932163
  0
LINE
  8
_0-1_
  6
CONTINUOUS
 62
    4
 10
153.20667804225911
 20
260.32929613932208
 11
153.18051004225913
 21
259.82998113932217
  0
LINE
  8
_0-1_
  6
CONTINUOUS
 62
    4
 10
153.24593004225912
 20
261.07826813932206
 11
153.73216104225907
 21
260.80244313932212
  0
LINE
  8
_0-1_
  6
CONTINUOUS
 62
    4
 10
153.73216104225907
 20
260.80244313932212
 11
153.70599304225908
 21
260.3031281393221
  0
LINE
  8
_0-1_
  6
CONTINUOUS
 62
    4
 10
153.70599304225908
 20
260.3031281393221
 11
153.20667804225911
 21
260.32929613932208
  0
LINE
  8
_0-1_
  6
CONTINUOUS
 62
    4
 10
155.91081504225883
 20
260.32929613932208
 11
155.93698304225887
 21
259.82998113932217
  0
LINE
  8
_0-1_
  6
CONTINUOUS
 62
    4
 10
155.87156404225885
 20
261.07826813932206
 11
155.38533304225894
 21
260.80244313932212
  0
LINE
  8
_0-1_
  6
CONTINUOUS
 62
    4
 10
155.38533304225894
 20
260.80244313932212
 11
155.41150104225892
 21
260.3031281393221
  0
LINE
  8
_0-1_
  6
CONTINUOUS
 62
    4
 10
155.41150104225892
 20
260.3031281393221
 11
155.91081504225883
 21
260.32929613932208
  0
LINE
  8
_0-1_
  6
CONTINUOUS
 62
    4
 10
155.0261080422589
 20
260.49161213932211
 11
154.55874704225897
 21
260.02425113932213
  0
LINE
  8
_0-1_
  6
CONTINUOUS
 62
    4
 10
153.27209804225913
 20
261.57758313932197
 11
153.24593004225912
 21
261.07826813932206
  0
LINE
  8
_0-1_
  6
CONTINUOUS
 62
    4
 10
154.05431104225903
 20
259.78418713932217
 11
153.18051004225913
 21
259.82998113932217
  0
LINE
  8
_0-1_
  6
CONTINUOUS
 62
    4
 10
153.18051004225913
 20
259.82998113932217
 11
153.65365704225906
 21
259.30449813932216
  0
LINE
  8
_0-1_
  6
CONTINUOUS
 62
    4
 10
153.65365704225906
 20
259.30449813932216
 11
154.02814304225905
 21
259.28487213932215
  0
LINE
  8
_0-1_
  6
CONTINUOUS
 62
    4
 10
154.02814304225905
 20
259.28487213932215
 11
154.43374704225897
 21
267.02425113932145
  0
LINE
  8
_0-1_
  6
CONTINUOUS
 62
    4
 10
155.84539604225887
 20
261.57758313932197
 11
155.87156404225885
 21
261.07826813932206
  0
LINE
  8
_0-1_
  6
CONTINUOUS
 62
    4
 10
155.06318304225897
 20
259.78418713932217
 11
155.93698304225887
 21
259.82998113932217
  0
LINE
  8
_0-1_
  6
CONTINUOUS
 62
    4
 10
155.93698304225887
 20
259.82998113932217
 11
155.46383704225889
 21
259.30449813932216
  0
LINE
  8
_0-1_
  6
CONTINUOUS
 62
    4
 10
155.46383704225889
 20
259.30449813932216
 11
155.08935104225895
 21
259.28487213932215
  0
LINE
  8
_0-1_
  6
CONTINUOUS
 62
    4
 10
155.08935104225895
 20
259.28487213932215
 11
154.68374704225897
 21
267.02425113932145
  0
LINE
  8
_0-0_図面枠
  6
CONTINUOUS
 62
    4
 10
154.55874704225897
 20
260.02425113932213
 11
154.0913856769867
 21
260.49161250459451
  0
LINE
  8
_0-1_
  6
CONTINUOUS
 62
    4
 10
153.55874704225909
 20
269.02425113932122
 11
153.55874704225909
 21
266.02425113932156
  0
LINE
  8
_0-1_
  6
CONTINUOUS
 62
    4
 10
155.55874704225886
 20
269.02425113932122
 11
155.55874704225886
 21
266.02425113932156
  0
LINE
  8
_0-1_
  6
CONTINUOUS
 62
    4
 10
155.44333758062891
 20
264.05994317678517
 11
155.90347404225884
 21
265.32415713932164
  0
LINE
  8
_0-1_
  6
CONTINUOUS
 62
    4
 10
153.67415650388904
 20
264.05994317678517
 11
153.21402004225911
 21
265.32415713932164
  0
LINE
  8
_0-0_図面枠
  6
CONTINUOUS
 62
    7
 10
147.55874204225967
 20
273.02425113932088
 11
147.89207537559298
 21
273.69091760652782
  0
LINE
  8
_0-1_
  6
CONTINUOUS
 62
    7
 10
147.89207537559298
 20
273.02425113932088
 11
147.55874204225967
 21
273.02425113932088
  0
LINE
  8
_0-0_図面枠
  6
CONTINUOUS
 62
    4
 10
154.55874204225898
 20
240.02425147265743
 11
174.05873197291999
 21
240.02425147265743
  0
LINE
  8
_0-0_図面枠
  6
CONTINUOUS
 62
    4
 10
174.05873197291999
 20
256.02425080598914
 11
178.72540904225656
 21
256.02425080598914
  0
LINE
  8
_0-0_図面枠
  6
CONTINUOUS
 62
    7
 10
147.89207537559298
 20
270.19091780598774
 11
144.72540217494486
 21
270.19091780598774
  0
LINE
  8
_0-0_図面枠
  6
CONTINUOUS
 62
    7
 10
147.89207537559298
 20
269.69091780598785
 11
144.72540217494486
 21
269.69091780598785
  0
LINE
  8
_0-0_図面枠
  6
CONTINUOUS
 62
    4
 10
147.8564525666157
 20
269.69091780598785
 11
147.18978589994913
 21
269.02425113932122
  0
LINE
  8
_0-0_図面枠
  6
CONTINUOUS
 62
    4
 10
147.89207537559298
 20
269.25513609417408
 11
147.66119042074013
 21
269.02425113932122
  0
LINE
  8
_0-1_
  6
CONTINUOUS
 62
    4
 10
247.35872190357566
 20
275.69091780598706
 11
247.35872190357566
 21
275.59091780598715
  0
LINE
  8
_0-1_
  6
CONTINUOUS
 62
    4
 10
247.35872190357566
 20
275.59091780598715
 11
248.13649990357555
 21
274.92425180598718
  0
LINE
  8
_0-1_
  6
CONTINUOUS
 62
    4
 10
247.35872190357566
 20
275.59091780598715
 11
249.75872190357541
 21
275.59091780598715
  0
LINE
  8
_0-1_
  6
CONTINUOUS
 62
    4
 10
249.75872190357541
 20
275.69091780598706
 11
249.75872190357541
 21
275.59091780598715
  0
LINE
  8
_0-1_
  6
CONTINUOUS
 62
    4
 10
249.75872190357541
 20
275.59091780598715
 11
248.98094390357545
 21
274.92425180598718
  0
LINE
  8
_0-0_図面枠
  6
CENTER1
 62
    4
 10
248.55872190357553
 20
269.02425113932111
 11
248.55872190357553
 21
276.47421787376743
  0
ARC
  8
_0-1_
  6
CONTINUOUS
 62
    7
 10
249.55872190357542
 20
269.69091780598774
 40
0.16666666666665
 50
270
 51
0
  0
ARC
  8
_0-0_図面枠
  6
CONTINUOUS
 62
    7
 10
250.05872190357536
 20
275.02425113932054
 40
0.16666666666665
 50
0
 51
90
  0
LINE
  8
_0-1_
  6
CONTINUOUS
 62
    7
 10
250.22538857024199
 20
269.02425113932111
 11
250.22538857024199
 21
273.02425113932065
  0
LINE
  8
_0-1_
  6
CONTINUOUS
 62
    7
 10
250.22538857024199
 20
273.69091760652759
 11
250.22538857024199
 21
275.02425113932054
  0
ARC
  8
_0-1_
  6
CONTINUOUS
 62
    7
 10
249.55872190357542
 20
269.69091780598774
 40
0.16666666666665
 50
270
 51
0
  0
ARC
  8
_0-0_図面枠
  6
CONTINUOUS
 62
    7
 10
247.55872190357559
 20
274.69091780598717
 40
0.6666666666666
 50
180
 51
270
  0
ARC
  8
_0-0_図面枠
  6
CONTINUOUS
 62
    7
 10
249.89205523690873
 20
275.02425113932054
 40
0.16666666666665
 50
90
 51
180
  0
ARC
  8
_0-0_図面枠
  6
CONTINUOUS
 62
    7
 10
247.22538857024233
 20
275.02425113932054
 40
0.16666666666665
 50
0
 51
90
  0
LINE
  8
_0-1_
  6
CONTINUOUS
 62
    7
 10
246.89205523690902
 20
275.02425113932054
 11
246.89205523690902
 21
274.69091780598717
  0
ARC
  8
_0-0_図面枠
  6
CONTINUOUS
 62
    7
 10
247.05872190357564
 20
275.02425113932054
 40
0.16666666666665
 50
90
 51
180
  0
LINE
  8
_0-1_
  6
CONTINUOUS
 62
    7
 10
249.72538857024205
 20
273.69091780598728
 11
249.72538857024205
 21
269.69091780598774
  0
LINE
  8
_0-0_図面枠
  6
CONTINUOUS
 62
    7
 10
249.39205523690873
 20
274.02425113932065
 11
247.55872190357559
 21
274.02425113932065
  0
ARC
  8
_0-0_図面枠
  6
CONTINUOUS
 62
    7
 10
249.39205523690873
 20
273.69091780598728
 40
0.3333333333333
 50
0
 51
90
  0
LINE
  8
_0-0_図面枠
  6
CONTINUOUS
 62
    7
 10
249.72538857024205
 20
274.69091780598717
 11
248.6587219035755
 21
274.69091780598717
  0
LINE
  8
_0-0_図面枠
  6
CONTINUOUS
 62
    7
 10
248.45872190357551
 20
274.69091780598717
 11
247.39205523690896
 21
274.69091780598717
  0
LINE
  8
_0-0_図面枠
  6
CONTINUOUS
 62
    7
 10
249.72538857024205
 20
274.69091780598717
 11
249.72538857024205
 21
275.02425113932054
  0
LINE
  8
_0-0_図面枠
  6
CONTINUOUS
 62
    7
 10
247.39205523690896
 20
275.02425113932054
 11
247.39205523690896
 21
274.69091780598717
  0
LINE
  8
_0-1_
  6
CONTINUOUS
 62
    7
 10
249.55872190357536
 20
269.52425113932111
 11
240.22538857024296
 21
269.52425113932111
  0
LINE
  8
_0-1_
  6
CONTINUOUS
 62
    7
 10
239.55872190357633
 20
270.3575848059877
 11
239.2253889035764
 21
270.3575848059877
  0
ARC
  8
_0-0_図面枠
  6
CONTINUOUS
 62
    7
 10
239.9587219035763
 20
271.25758480598756
 40
0.09999999999999
 50
0
 51
90
  0
LINE
  8
_0-1_
  6
CONTINUOUS
 62
    7
 10
239.52073457941992
 20
271.24362271955624
 11
239.2253889035764
 21
270.3575848059877
  0
LINE
  8
_0-0_図面枠
  6
CONTINUOUS
 62
    7
 10
239.67884847823973
 20
271.35758480598759
 11
239.9587219035763
 21
271.35758480598759
  0
ARC
  8
_0-0_図面枠
  6
CONTINUOUS
 62
    7
 10
239.67884847823973
 20
271.19091813932096
 40
0.16666666666665
 50
90
 51
161.56506836581588
  0
LINE
  8
_0-0_図面枠
  6
CONTINUOUS
 62
    7
 10
239.55872190357633
 20
270.3575848059877
 11
239.55872190357633
 21
269.69091780598774
  0
ARC
  8
_0-0_図面枠
  6
CONTINUOUS
 62
    7
 10
239.3920552369097
 20
269.69091780598774
 40
0.16666666666665
 50
270
 51
0
  0
LINE
  8
_0-0_図面枠
  6
CONTINUOUS
 62
    7
 10
240.05872190357627
 20
271.25758480598756
 11
240.05872190357627
 21
269.69091780598774
  0
ARC
  8
_0-0_図面枠
  6
CONTINUOUS
 62
    7
 10
240.22538857024296
 20
269.69091780598774
 40
0.16666666666665
 50
180
 51
270
  0
LINE
  8
_0-1_
  6
CONTINUOUS
 62
    7
 10
239.3920552369097
 20
269.52425113932111
 11
220.05872157024498
 21
269.52425113932111
  0
ARC
  8
_0-1_
  6
CONTINUOUS
 62
    7
 10
220.05872157024498
 20
269.69091780598774
 40
0.16666666666665
 50
180
 51
270
  0
ARC
  8
_0-1_
  6
CONTINUOUS
 62
    7
 10
219.55872157024504
 20
269.19091780598785
 40
0.16666666666665
 50
180
 51
270
  0
ARC
  8
_0-1_
  6
CONTINUOUS
 62
    7
 10
219.64205490357836
 20
272.10758447265425
 40
0.2499999999999749
 50
0
 51
180
  0
LINE
  8
_0-1_
  6
CONTINUOUS
 62
    7
 10
219.39205490357841
 20
272.10758447265425
 11
219.39205490357836
 21
269.19091780598785
  0
LINE
  8
_0-1_
  6
CONTINUOUS
 62
    7
 10
219.89205490357836
 20
272.10758447265425
 11
219.89205490357836
 21
269.69091780598774
  0
LINE
  8
_0-0_図面枠
  6
CONTINUOUS
 62
    4
 10
243.55872190357599
 20
259.47007002464954
 11
243.55872190357593
 21
240.02425147265731
  0
LINE
  8
_0-1_
  6
CONTINUOUS
 62
    4
 10
240.55871690357634
 20
270.02425113932111
 11
246.55871690357571
 21
270.024251139321
  0
LINE
  8
_0-1_
  6
CONTINUOUS
 62
    4
 10
246.55871690357571
 20
270.024251139321
 11
246.55871690357571
 21
269.52425113932111
  0
LINE
  8
_0-1_
  6
CONTINUOUS
 62
    4
 10
240.55871690357634
 20
270.02425113932111
 11
240.55871690357634
 21
269.52425113932111
  0
LINE
  8
_0-1_
  6
CONTINUOUS
 62
    4
 10
243.558716903576
 20
269.42425613932107
 11
243.45871690357603
 21
269.5242561393211
  0
LINE
  8
_0-1_
  6
CONTINUOUS
 62
    4
 10
243.558716903576
 20
269.42425613932107
 11
243.65871190357603
 21
269.52425113932111
  0
ARC
  8
_0-1_
  6
CONTINUOUS
 62
    4
 10
244.02554990357595
 20
270.04058430351608
 40
0.7999999999999201
 50
358.8301420000027
 51
54.299941000004793
  0
ARC
  8
_0-1_
  6
CONTINUOUS
 62
    4
 10
243.558716903576
 20
269.39091830351617
 40
1.5999999999998402
 50
90
 51
125.70003900000066
  0
ARC
  8
_0-1_
  6
CONTINUOUS
 62
    4
 10
243.09188390357599
 20
270.04058430351608
 40
0.7999999999999201
 50
125.70005899999806
 51
181.1698579999973
  0
ARC
  8
_0-1_
  6
CONTINUOUS
 62
    4
 10
243.558716903576
 20
269.39091830351617
 40
1.5999999999998402
 50
54.299961000002185
 51
90
  0
LINE
  8
_0-1_
  6
CENTER1
 62
    4
 10
243.55872190357599
 20
259.47007002464954
 11
243.55872190357599
 21
271.64425713932087
  0
LINE
  8
_0-0_図面枠
  6
CONTINUOUS
 62
    7
 10
243.65872190357595
 20
269.52425113932111
 11
243.55872190357599
 21
269.42425113932109
  0
LINE
  8
_0-0_図面枠
  6
CONTINUOUS
 62
    7
 10
243.55872190357593
 20
269.42425113932109
 11
243.45872190357596
 21
269.52425113932111
  0
LINE
  8
_0-0_図面枠
  6
CONTINUOUS
 62
    4
 10
241.2253885702429
 20
269.02425113932111
 11
241.2253885702429
 21
269.52425113932111
  0
LINE
  8
_0-0_図面枠
  6
CONTINUOUS
 62
    4
 10
245.89205523690913
 20
269.02425113932111
 11
245.89205523690913
 21
269.52425113932111
  0
LINE
  8
_0-1_
  6
CONTINUOUS
 62
    4
 10
244.71452590357586
 20
264.07415713932164
 11
245.13836690357579
 21
265.23865213932152
  0
LINE
  8
_0-1_
  6
CONTINUOUS
 62
    4
 10
244.80611390357586
 20
262.32655513932184
 11
244.31988290357589
 21
262.05073013932179
  0
LINE
  8
_0-1_
  6
CONTINUOUS
 62
    4
 10
244.31988290357589
 20
262.05073013932179
 11
244.34605090357587
 21
261.55141513932188
  0
LINE
  8
_0-1_
  6
CONTINUOUS
 62
    4
 10
244.34605090357587
 20
261.55141513932188
 11
244.84536590357584
 21
261.57758313932186
  0
LINE
  8
_0-1_
  6
CONTINUOUS
 62
    4
 10
244.77994590357588
 20
262.82587013932164
 11
244.80611390357586
 21
262.32655513932184
  0
LINE
  8
_0-1_
  6
CONTINUOUS
 62
    4
 10
244.74069390357585
 20
263.57484213932162
 11
244.25446290357587
 21
263.29901613932168
  0
LINE
  8
_0-1_
  6
CONTINUOUS
 62
    4
 10
244.25446290357587
 20
263.29901613932168
 11
244.28063090357591
 21
262.79970213932177
  0
LINE
  8
_0-1_
  6
CONTINUOUS
 62
    4
 10
244.28063090357591
 20
262.79970213932177
 11
244.77994590357588
 21
262.82587013932164
  0
LINE
  8
_0-1_
  6
CONTINUOUS
 62
    4
 10
244.71452590357586
 20
264.07415713932164
 11
244.74069390357585
 21
263.57484213932162
  0
LINE
  8
_0-1_
  6
CONTINUOUS
 62
    4
 10
244.67527390357583
 20
264.82312913932151
 11
244.18904290357591
 21
264.54730313932157
  0
LINE
  8
_0-1_
  6
CONTINUOUS
 62
    4
 10
244.18904290357591
 20
264.54730313932157
 11
244.21521090357589
 21
264.04798913932154
  0
LINE
  8
_0-1_
  6
CONTINUOUS
 62
    4
 10
244.21521090357589
 20
264.04798913932154
 11
244.71452590357586
 21
264.07415713932164
  0
LINE
  8
_0-1_
  6
CONTINUOUS
 62
    4
 10
244.64910590357584
 20
265.32244413932142
 11
244.67527390357583
 21
264.82312913932151
  0
LINE
  8
_0-1_
  6
CONTINUOUS
 62
    4
 10
244.12362290357589
 20
265.79559013932146
 11
244.14979090357588
 21
265.29627613932155
  0
LINE
  8
_0-1_
  6
CONTINUOUS
 62
    4
 10
244.14979090357588
 20
265.29627613932155
 11
244.64910590357584
 21
265.32244413932142
  0
LINE
  8
_0-1_
  6
CONTINUOUS
 62
    4
 10
244.80871690357588
 20
269.02425113932111
 11
244.55871690357588
 21
267.77425113932122
  0
LINE
  8
_0-1_
  6
CONTINUOUS
 62
    4
 10
244.55871690357588
 20
266.02425113932145
 11
244.12362290357589
 21
265.79559013932146
  0
LINE
  8
_0-1_
  6
CONTINUOUS
 62
    4
 10
243.68371690357594
 20
267.02425113932134
 11
243.558716903576
 21
267.02425113932134
  0
LINE
  8
_0-1_
  6
CONTINUOUS
 62
    4
 10
242.31131990357608
 20
262.32655513932184
 11
242.79755090357605
 21
262.05073013932179
  0
LINE
  8
_0-1_
  6
CONTINUOUS
 62
    4
 10
242.79755090357605
 20
262.05073013932179
 11
242.77138290357601
 21
261.55141513932188
  0
LINE
  8
_0-1_
  6
CONTINUOUS
 62
    4
 10
242.77138290357601
 20
261.55141513932188
 11
242.2720679035761
 21
261.57758313932186
  0
LINE
  8
_0-1_
  6
CONTINUOUS
 62
    4
 10
242.33748790357612
 20
262.82587013932175
 11
242.31131990357608
 21
262.32655513932184
  0
LINE
  8
_0-1_
  6
CONTINUOUS
 62
    4
 10
242.37673990357609
 20
263.57484213932162
 11
242.86297090357601
 21
263.29901613932168
  0
LINE
  8
_0-1_
  6
CONTINUOUS
 62
    4
 10
242.86297090357601
 20
263.29901613932168
 11
242.83680290357603
 21
262.79970213932177
  0
LINE
  8
_0-1_
  6
CONTINUOUS
 62
    4
 10
242.83680290357603
 20
262.79970213932177
 11
242.33748790357612
 21
262.82587013932175
  0
LINE
  8
_0-1_
  6
CONTINUOUS
 62
    4
 10
242.40290790357608
 20
264.07415713932164
 11
242.37673990357609
 21
263.57484213932162
  0
LINE
  8
_0-1_
  6
CONTINUOUS
 62
    4
 10
242.44215990357606
 20
264.82312913932151
 11
242.92839090357603
 21
264.54730313932157
  0
LINE
  8
_0-1_
  6
CONTINUOUS
 62
    4
 10
242.92839090357603
 20
264.54730313932157
 11
242.90222290357605
 21
264.04798913932154
  0
LINE
  8
_0-1_
  6
CONTINUOUS
 62
    4
 10
242.90222290357605
 20
264.04798913932154
 11
242.40290790357608
 21
264.07415713932164
  0
LINE
  8
_0-1_
  6
CONTINUOUS
 62
    4
 10
242.4683279035761
 20
265.32244413932142
 11
242.44215990357606
 21
264.82312913932151
  0
LINE
  8
_0-1_
  6
CONTINUOUS
 62
    4
 10
242.99381090357599
 20
265.79559013932146
 11
242.96764290357601
 21
265.29627613932155
  0
LINE
  8
_0-1_
  6
CONTINUOUS
 62
    4
 10
242.96764290357601
 20
265.29627613932155
 11
242.4683279035761
 21
265.32244413932142
  0
LINE
  8
_0-1_
  6
CONTINUOUS
 62
    4
 10
243.558716903576
 20
267.77425113932122
 11
243.558716903576
 21
269.02425113932111
  0
LINE
  8
_0-1_
  6
CONTINUOUS
 62
    4
 10
243.80871690357594
 20
269.02425113932111
 11
243.558716903576
 21
267.77425113932122
  0
LINE
  8
_0-1_
  6
CONTINUOUS
 62
    4
 10
243.308716903576
 20
269.02425113932111
 11
243.558716903576
 21
267.77425113932122
  0
LINE
  8
_0-1_
  6
CONTINUOUS
 62
    4
 10
242.30871690357611
 20
269.02425113932111
 11
242.55871690357606
 21
267.77425113932122
  0
LINE
  8
_0-1_
  6
CONTINUOUS
 62
    4
 10
242.55871690357606
 20
266.02425113932145
 11
242.99381090357599
 21
265.79559013932146
  0
LINE
  8
_0-1_
  6
CONTINUOUS
 62
    4
 10
243.433716903576
 20
267.02425113932134
 11
243.558716903576
 21
267.02425113932134
  0
LINE
  8
_0-1_
  6
CONTINUOUS
 62
    4
 10
241.9790669035761
 20
265.23865213932152
 11
241.73097790357616
 21
266.93955713932132
  0
ARC
  8
_0-1_
  6
CONTINUOUS
 62
    4
 10
241.82993090357616
 20
266.95399013932138
 40
0.09999999999999
 50
98.130102000024053
 51
188.2984660000036
  0
LINE
  8
_0-1_
  6
CONTINUOUS
 62
    4
 10
241.81578890357616
 20
267.05298513932132
 11
241.86499490357613
 21
267.06001413932131
  0
ARC
  8
_0-1_
  6
CONTINUOUS
 62
    4
 10
241.87913690357618
 20
266.96102013932136
 40
0.09999999999999
 50
8.1301019999918065
 51
98.130102000024053
  0
LINE
  8
_0-1_
  6
CONTINUOUS
 62
    4
 10
241.97813190357613
 20
266.97516213932136
 11
242.21398990357613
 21
265.32415713932153
  0
LINE
  8
_0-1_
  6
CONTINUOUS
 62
    4
 10
245.13836690357579
 20
265.23865213932152
 11
245.38645590357578
 21
266.93955713932132
  0
ARC
  8
_0-1_
  6
CONTINUOUS
 62
    4
 10
245.28750290357578
 20
266.95399013932126
 40
0.09999999999999
 50
351.70153400002874
 51
81.869898000008249
  0
LINE
  8
_0-1_
  6
CONTINUOUS
 62
    4
 10
245.30164490357578
 20
267.05298513932132
 11
245.25243890357581
 21
267.06001413932131
  0
ARC
  8
_0-1_
  6
CONTINUOUS
 62
    4
 10
245.23829690357582
 20
266.96102013932125
 40
0.09999999999999
 50
81.869898000008206
 51
171.86989799997599
  0
LINE
  8
_0-1_
  6
CONTINUOUS
 62
    4
 10
245.13930190357581
 20
266.97516213932124
 11
244.90344390357586
 21
265.32415713932153
  0
LINE
  8
_0-1_
  6
CONTINUOUS
 62
    4
 10
242.40290790357608
 20
264.07415713932164
 11
241.9790669035761
 21
265.23865213932152
  0
LINE
  8
_0-1_
  6
CONTINUOUS
 62
    4
 10
244.9107859035758
 20
260.32929613932197
 11
244.93695390357578
 21
259.82998113932206
  0
LINE
  8
_0-1_
  6
CONTINUOUS
 62
    4
 10
244.87153390357582
 20
261.07826813932195
 11
244.38530290357591
 21
260.80244313932201
  0
LINE
  8
_0-1_
  6
CONTINUOUS
 62
    4
 10
244.38530290357591
 20
260.80244313932201
 11
244.41147090357589
 21
260.30312813932198
  0
LINE
  8
_0-1_
  6
CONTINUOUS
 62
    4
 10
244.41147090357589
 20
260.30312813932198
 11
244.9107859035758
 21
260.32929613932197
  0
LINE
  8
_0-1_
  6
CONTINUOUS
 62
    4
 10
242.20664890357608
 20
260.32929613932197
 11
242.1804809035761
 21
259.82998113932206
  0
LINE
  8
_0-1_
  6
CONTINUOUS
 62
    4
 10
242.24589990357612
 20
261.07826813932195
 11
242.73213090357604
 21
260.80244313932201
  0
LINE
  8
_0-1_
  6
CONTINUOUS
 62
    4
 10
242.73213090357604
 20
260.80244313932201
 11
242.70596290357605
 21
260.30312813932198
  0
LINE
  8
_0-1_
  6
CONTINUOUS
 62
    4
 10
242.70596290357605
 20
260.30312813932198
 11
242.20664890357608
 21
260.32929613932197
  0
LINE
  8
_0-1_
  6
CONTINUOUS
 62
    4
 10
243.09135590357602
 20
260.491612139322
 11
243.55871690357594
 21
260.02425113932202
  0
LINE
  8
_0-1_
  6
CONTINUOUS
 62
    4
 10
244.84536590357584
 20
261.57758313932186
 11
244.87153390357582
 21
261.07826813932195
  0
LINE
  8
_0-1_
  6
CONTINUOUS
 62
    4
 10
244.06315290357588
 20
259.78418713932206
 11
244.93695390357578
 21
259.82998113932206
  0
LINE
  8
_0-1_
  6
CONTINUOUS
 62
    4
 10
244.93695390357578
 20
259.82998113932206
 11
244.46380690357586
 21
259.30449813932205
  0
LINE
  8
_0-1_
  6
CONTINUOUS
 62
    4
 10
244.46380690357586
 20
259.30449813932205
 11
244.08932090357592
 21
259.28487213932203
  0
LINE
  8
_0-1_
  6
CONTINUOUS
 62
    4
 10
244.08932090357592
 20
259.28487213932203
 11
243.68371690357594
 21
267.02425113932134
  0
LINE
  8
_0-1_
  6
CONTINUOUS
 62
    4
 10
242.2720679035761
 20
261.57758313932186
 11
242.24589990357612
 21
261.07826813932195
  0
LINE
  8
_0-1_
  6
CONTINUOUS
 62
    4
 10
243.054280903576
 20
259.78418713932206
 11
242.1804809035761
 21
259.82998113932206
  0
LINE
  8
_0-1_
  6
CONTINUOUS
 62
    4
 10
242.1804809035761
 20
259.82998113932206
 11
242.65362690357603
 21
259.30449813932205
  0
LINE
  8
_0-1_
  6
CONTINUOUS
 62
    4
 10
242.65362690357603
 20
259.30449813932205
 11
243.02811290357602
 21
259.28487213932203
  0
LINE
  8
_0-1_
  6
CONTINUOUS
 62
    4
 10
243.02811290357602
 20
259.28487213932203
 11
243.433716903576
 21
267.02425113932134
  0
LINE
  8
_0-0_図面枠
  6
CONTINUOUS
 62
    4
 10
243.55871690357594
 20
260.02425113932202
 11
244.02607826884827
 21
260.49161250459429
  0
LINE
  8
_0-1_
  6
CONTINUOUS
 62
    4
 10
244.55871690357588
 20
269.02425113932111
 11
244.55871690357588
 21
266.02425113932145
  0
LINE
  8
_0-1_
  6
CONTINUOUS
 62
    4
 10
242.55871690357606
 20
269.02425113932111
 11
242.55871690357606
 21
266.02425113932145
  0
LINE
  8
_0-1_
  6
CONTINUOUS
 62
    4
 10
242.67412636520606
 20
264.05994317678505
 11
242.21398990357613
 21
265.32415713932153
  0
LINE
  8
_0-1_
  6
CONTINUOUS
 62
    4
 10
244.44330744194588
 20
264.05994317678505
 11
244.90344390357586
 21
265.32415713932153
  0
LINE
  8
_0-0_図面枠
  6
CONTINUOUS
 62
    7
 10
250.5587219035753
 20
273.02425113932065
 11
250.22538857024199
 21
273.69091760652759
  0
LINE
  8
_0-1_
  6
CONTINUOUS
 62
    7
 10
250.22538857024199
 20
273.02425113932065
 11
250.5587219035753
 21
273.02425113932065
  0
LINE
  8
_0-0_図面枠
  6
CONTINUOUS
 62
    4
 10
219.39205490357836
 20
268.22101039105792
 11
219.39205490357836
 21
256.02425080598914
  0
POINT
  8
_0-0_図面枠
 62
    4
 10
219.39205490357836
 20
256.02425080598914
  0
LINE
  8
_0-1_
  6
CONTINUOUS
 62
    4
 10
248.98094390357545
 20
272.73165880598742
 11
248.98094390357545
 21
273.07655880598736
  0
LINE
  8
_0-1_
  6
CONTINUOUS
 62
    4
 10
248.13649990357555
 20
272.13581880598747
 11
248.98094390357545
 21
272.44939880598747
  0
LINE
  8
_0-1_
  6
CONTINUOUS
 62
    4
 10
248.13649990357555
 20
272.41807880598742
 11
248.98094390357545
 21
272.73165880598742
  0
LINE
  8
_0-1_
  6
CONTINUOUS
 62
    4
 10
247.89205490357557
 20
272.27694880598744
 11
249.22538890357544
 21
272.59052880598745
  0
LINE
  8
_0-1_
  6
CONTINUOUS
 62
    4
 10
247.89205490357557
 20
272.27694880598744
 11
248.13649990357555
 21
272.13581880598747
  0
LINE
  8
_0-1_
  6
CONTINUOUS
 62
    4
 10
247.89205490357557
 20
272.27694880598744
 11
248.13649990357555
 21
272.41807880598742
  0
LINE
  8
_0-1_
  6
CONTINUOUS
 62
    4
 10
249.22538890357544
 20
272.59052880598745
 11
248.98094390357545
 21
272.44939880598747
  0
LINE
  8
_0-1_
  6
CONTINUOUS
 62
    4
 10
248.98094390357545
 20
272.73165880598742
 11
249.22538890357544
 21
272.59052880598745
  0
LINE
  8
_0-1_
  6
CONTINUOUS
 62
    4
 10
248.13649990357555
 20
273.39013980598736
 11
248.13649990357555
 21
273.04523880598742
  0
LINE
  8
_0-1_
  6
CONTINUOUS
 62
    4
 10
248.98094390357545
 20
273.35881980598731
 11
248.98094390357545
 21
273.70371980598736
  0
LINE
  8
_0-1_
  6
CONTINUOUS
 62
    4
 10
248.13649990357555
 20
272.76297880598736
 11
248.98094390357545
 21
273.07655880598736
  0
LINE
  8
_0-1_
  6
CONTINUOUS
 62
    4
 10
248.13649990357555
 20
273.04523880598742
 11
248.98094390357545
 21
273.35881980598731
  0
LINE
  8
_0-1_
  6
CONTINUOUS
 62
    4
 10
247.89205490357557
 20
272.90410880598745
 11
249.22538890357544
 21
273.21768880598734
  0
LINE
  8
_0-1_
  6
CONTINUOUS
 62
    4
 10
247.89205490357557
 20
272.90410880598745
 11
248.13649990357555
 21
272.76297880598736
  0
LINE
  8
_0-1_
  6
CONTINUOUS
 62
    4
 10
247.89205490357557
 20
272.90410880598745
 11
248.13649990357555
 21
273.04523880598742
  0
LINE
  8
_0-1_
  6
CONTINUOUS
 62
    4
 10
249.22538890357544
 20
273.21768880598734
 11
248.98094390357545
 21
273.07655880598736
  0
LINE
  8
_0-1_
  6
CONTINUOUS
 62
    4
 10
248.98094390357545
 20
273.35881980598731
 11
249.22538890357544
 21
273.21768880598734
  0
LINE
  8
_0-1_
  6
CONTINUOUS
 62
    4
 10
248.13649990357555
 20
274.01729980598736
 11
248.13649990357555
 21
273.67239980598731
  0
LINE
  8
_0-1_
  6
CONTINUOUS
 62
    4
 10
248.98094390357545
 20
273.98597980598731
 11
248.98094390357545
 21
274.33087980598725
  0
LINE
  8
_0-1_
  6
CONTINUOUS
 62
    4
 10
248.13649990357555
 20
273.39013980598736
 11
248.98094390357545
 21
273.70371980598736
  0
LINE
  8
_0-1_
  6
CONTINUOUS
 62
    4
 10
248.13649990357555
 20
273.67239980598731
 11
248.98094390357545
 21
273.98597980598731
  0
LINE
  8
_0-1_
  6
CONTINUOUS
 62
    4
 10
247.89205490357557
 20
273.53126980598734
 11
249.22538890357544
 21
273.84484980598734
  0
LINE
  8
_0-1_
  6
CONTINUOUS
 62
    4
 10
247.89205490357557
 20
273.53126980598734
 11
248.13649990357555
 21
273.39013980598736
  0
LINE
  8
_0-1_
  6
CONTINUOUS
 62
    4
 10
247.89205490357557
 20
273.53126980598734
 11
248.13649990357555
 21
273.67239980598731
  0
LINE
  8
_0-1_
  6
CONTINUOUS
 62
    4
 10
249.22538890357544
 20
273.84484980598734
 11
248.98094390357545
 21
273.70371980598736
  0
LINE
  8
_0-1_
  6
CONTINUOUS
 62
    4
 10
248.98094390357545
 20
273.98597980598731
 11
249.22538890357544
 21
273.84484980598734
  0
LINE
  8
_0-1_
  6
CONTINUOUS
 62
    4
 10
248.13649990357555
 20
274.37889780598721
 11
248.13649990357555
 21
274.2995598059872
  0
LINE
  8
_0-1_
  6
CONTINUOUS
 62
    4
 10
248.98094390357545
 20
274.92425180598718
 11
248.98094390357545
 21
274.6131408059872
  0
LINE
  8
_0-1_
  6
CONTINUOUS
 62
    4
 10
248.13649990357555
 20
274.01729980598736
 11
248.98094390357545
 21
274.33087980598725
  0
LINE
  8
_0-1_
  6
CONTINUOUS
 62
    4
 10
248.13649990357555
 20
274.2995598059872
 11
248.98094390357545
 21
274.6131408059872
  0
LINE
  8
_0-1_
  6
CONTINUOUS
 62
    4
 10
247.89205490357557
 20
274.15842980598723
 11
249.22538890357544
 21
274.47200980598723
  0
LINE
  8
_0-1_
  6
CONTINUOUS
 62
    4
 10
247.89205490357557
 20
274.15842980598723
 11
248.13649990357555
 21
274.01729980598736
  0
LINE
  8
_0-1_
  6
CONTINUOUS
 62
    4
 10
247.89205490357557
 20
274.15842980598723
 11
248.13649990357555
 21
274.2995598059872
  0
LINE
  8
_0-1_
  6
CONTINUOUS
 62
    4
 10
248.98094390357545
 20
274.33087980598725
 11
249.22538890357544
 21
274.47200980598723
  0
LINE
  8
_0-1_
  6
CONTINUOUS
 62
    4
 10
248.98094390357545
 20
274.6131408059872
 11
249.22538890357544
 21
274.47200980598723
  0
LINE
  8
_0-1_
  6
CONTINUOUS
 62
    4
 10
248.13649990357555
 20
274.92425180598718
 11
248.13649990357555
 21
274.83734580598718
  0
LINE
  8
_0-1_
  6
CONTINUOUS
 62
    4
 10
248.55872190357553
 20
274.85300580598721
 11
247.89205490357557
 21
274.69621580598721
  0
LINE
  8
_0-1_
  6
CONTINUOUS
 62
    4
 10
247.89205490357557
 20
274.69621580598721
 11
248.13649990357555
 21
274.55508580598723
  0
LINE
  8
_0-1_
  6
CONTINUOUS
 62
    4
 10
247.89205490357557
 20
274.69621580598721
 11
248.13649990357555
 21
274.83734580598718
  0
LINE
  8
_0-1_
  6
CONTINUOUS
 62
    4
 10
248.13649990357555
 20
274.55508580598723
 11
248.13649990357555
 21
274.37889780598721
  0
LINE
  8
_0-1_
  6
CONTINUOUS
 62
    4
 10
248.55872190357553
 20
271.02425180598755
 11
248.55872190357553
 21
270.3575848059877
  0
LINE
  8
_0-1_
  6
CONTINUOUS
 62
    4
 10
248.98094390357545
 20
272.02425180598743
 11
248.13650490357554
 21
272.02425180598743
  0
LINE
  8
_0-1_
  6
CONTINUOUS
 62
    4
 10
248.55872190357553
 20
270.3575848059877
 11
248.13649990357555
 21
270.66550480598767
  0
LINE
  8
_0-1_
  6
CONTINUOUS
 62
    4
 10
248.55872190357553
 20
270.3575848059877
 11
248.98094390357545
 21
270.66550480598767
  0
ARC
  8
_0-1_
  6
CONTINUOUS
 62
    4
 10
248.6836459035755
 20
270.44938580598762
 40
0.588282999999941
 50
102.26032900000151
 51
158.44630399999687
  0
ARC
  8
_0-1_
  6
CONTINUOUS
 62
    4
 10
250.5608169035753
 20
270.76805880598761
 40
2.0184199999997983
 50
141.51097800000068
 51
172.70791799999992
  0
LINE
  8
_0-1_
  6
CONTINUOUS
 62
    4
 10
248.13649990357555
 20
272.13581880598747
 11
248.13649990357555
 21
272.02425180598743
  0
LINE
  8
_0-1_
  6
CONTINUOUS
 62
    4
 10
248.13649990357555
 20
274.92425180598718
 11
248.98094390357545
 21
274.92425180598718
  0
LINE
  8
_0-1_
  6
CONTINUOUS
 62
    4
 10
248.13649990357555
 20
274.83734580598718
 11
248.55872190357553
 21
274.85300580598721
  0
LINE
  8
_0-1_
  6
CONTINUOUS
 62
    4
 10
248.13649990357555
 20
274.55508580598723
 11
248.55872190357553
 21
274.85300580598721
  0
LINE
  8
_0-1_
  6
CONTINUOUS
 62
    4
 10
248.13649990357555
 20
272.02425180598743
 11
248.13649990357555
 21
270.66550480598767
  0
LINE
  8
_0-1_
  6
CONTINUOUS
 62
    4
 10
248.98094390357545
 20
272.44939880598747
 11
248.98094390357545
 21
270.66550480598767
  0
LINE
  8
_0-1_
  6
CONTINUOUS
 62
    4
 10
248.13649990357555
 20
272.76297880598736
 11
248.13649990357555
 21
272.41807880598742
  0
LINE
  8
_0-0_図面枠
  6
CONTINUOUS
 62
    7
 10
248.55872190357553
 20
274.59091780598715
 11
248.45872190357551
 21
274.69091780598717
  0
LINE
  8
_0-0_図面枠
  6
CONTINUOUS
 62
    7
 10
248.55872190357553
 20
274.59091780598715
 11
248.6587219035755
 21
274.69091780598717
  0
POINT
  8
_0-0_図面枠
 62
    4
 10
243.55872190357593
 20
240.02425147265731
  0
LINE
  8
_0-0_図面枠
  6
CONTINUOUS
 62
    4
 10
224.05873197291498
 20
240.02425147265743
 11
243.55872190357599
 21
240.02425147265743
  0
LINE
  8
_0-0_図面枠
  6
CONTINUOUS
 62
    4
 10
219.39205490357836
 20
256.02425080598914
 11
224.05873197291498
 21
256.02425080598914
  0
LINE
  8
_0-0_図面枠
  6
CONTINUOUS
 62
    4
 10
178.72540904225656
 20
256.02425080598914
 11
219.39205490357836
 21
256.02425080598914
  0
LINE
  8
_0-0_図面枠
  6
CONTINUOUS
 62
    4
 10
224.05873197291498
 20
240.02425147265743
 11
174.05873197291999
 21
240.02425147265743
  0
LINE
  8
_0-0_図面枠
  6
CONTINUOUS
 62
    7
 10
250.22538857024199
 20
270.19091780598762
 11
253.39206177089011
 21
270.19091780598762
  0
LINE
  8
_0-0_図面枠
  6
CONTINUOUS
 62
    7
 10
250.22538857024199
 20
269.69091780598774
 11
253.39206177089011
 21
269.69091780598774
  0
LINE
  8
_0-0_図面枠
  6
CONTINUOUS
 62
    4
 10
251.19467222237688
 20
269.69091780598774
 11
250.52800555571042
 21
269.02425113932122
  0
LINE
  8
_0-0_図面枠
  6
CONTINUOUS
 62
    4
 10
250.72326770158588
 20
269.69091780598774
 11
250.22538857024199
 21
269.19303867464384
  0
LINE
  8
_0-0_図面枠
  6
CONTINUOUS
 62
    4
 10
250.25186318079489
 20
269.69091780598774
 11
250.22538857024199
 21
269.66444319543484
  0
LINE
  8
_0-1_
  6
CONTINUOUS
 62
    4
 10
132.72539963959082
 20
246.69091813932343
 11
174.05873197291999
 21
246.69091813932343
  0
LINE
  8
_0-0_図面枠
  6
CONTINUOUS
 62
    7
 10
178.55874237558993
 20
269.02425113932122
 11
132.72539963959082
 21
269.02425113932122
  0
LINE
  8
_0-0_図面枠
  6
CONTINUOUS
 62
    7
 10
219.55872157024504
 20
269.02425113932122
 11
265.39206430624415
 21
269.02425113932122
  0
POINT
  8
_0-0_図面枠
 62
    4
 10
164.05872963706611
 20
282.35758447265323
  0
LINE
  8
_0-0_図面枠
  6
CONTINUOUS
 62
    4
 10
164.05872963706611
 20
282.35758447265323
 11
164.05872963706611
 21
276.21458070494759
  0
POINT
  8
_0-0_図面枠
 62
    4
 10
234.05873430876886
 20
282.35758447265323
  0
LINE
  8
_0-0_図面枠
  6
CONTINUOUS
 62
    4
 10
234.05873430876886
 20
282.35758447265323
 11
234.05873430876886
 21
276.21458070494759
  0
LINE
  8
_0-0_図面枠
  6
CONTINUOUS
 62
    4
 10
234.05873430876886
 20
282.35758447265323
 11
164.05872963706611
 21
282.35758447265323
  0
LINE
  8
_0-0_図面枠
  6
CONTINUOUS
 62
    7
 10
234.05873449817039
 20
274.02425113932065
 11
233.65873437190817
 21
274.02425113932065
  0
LINE
  8
_0-0_図面枠
  6
CONTINUOUS
 62
    7
 10
233.65873437190817
 20
274.02425083629021
 11
233.65873520524121
 21
272.92425126558408
  0
ARC
  8
_0-0_図面枠
  6
CONTINUOUS
 62
    7
 10
233.4920677052416
 20
272.92425113932086
 40
0.16666666666665
 50
270
 51
0.0000434059011844
  0
ARC
  8
_0-0_図面枠
  6
CONTINUOUS
 62
    7
 10
233.4920677052416
 20
272.92425113932086
 40
0.56666666666661
 50
270
 51
0.0000434058931185
  0
LINE
  8
_0-0_図面枠
  6
CONTINUOUS
 62
    7
 10
234.05873437190803
 20
274.02425113932054
 11
234.05873520524102
 21
272.92425156861441
  0
LINE
  8
_0-0_図面枠
  6
CONTINUOUS
 62
    7
 10
164.05872944766458
 20
274.02425113932077
 11
164.4587295739268
 21
274.02425113932077
  0
LINE
  8
_0-0_図面枠
  6
CONTINUOUS
 62
    7
 10
164.4587295739268
 20
274.02425083629032
 11
164.45872874059376
 21
272.92425126558419
  0
ARC
  8
_0-0_図面枠
  6
CONTINUOUS
 62
    7
 10
164.62539624059337
 20
272.92425113932097
 40
0.16666666666665
 50
179.99995659409885
 51
270
  0
ARC
  8
_0-0_図面枠
  6
CONTINUOUS
 62
    7
 10
164.62539624059337
 20
272.92425113932097
 40
0.56666666666661
 50
179.99995659410692
 51
270
  0
LINE
  8
_0-0_図面枠
  6
CONTINUOUS
 62
    7
 10
164.05872957392694
 20
274.02425113932065
 11
164.05872874059395
 21
272.92425156861452
  0
LINE
  8
_0-0_図面枠
  6
CONTINUOUS
 62
    7
 10
164.62539624059337
 20
272.75758447265423
 11
233.4920677052416
 21
272.75758447265423
  0
LINE
  8
_0-0_図面枠
  6
CONTINUOUS
 62
    7
 10
164.62539624059337
 20
272.35758447265425
 11
233.4920677052416
 21
272.35758447265425
  0
LINE
  8
_0-0_図面枠
  6
CONTINUOUS
 62
    4
 10
220.55872951078987
 20
272.85758447265414
 11
221.39206334917395
 21
272.85758447265414
  0
LINE
  8
_0-0_図面枠
  6
CONTINUOUS
 62
    4
 10
176.72540059666102
 20
272.85758447265414
 11
177.5587344350451
 21
272.85758447265414
  0
TEXT
  8
_0-0_図面枠
 62
    7
 10
196.65873247291751
 20
292.35758447265221
 40
3.2000000000000002
 41
1
 50
0
  1
330
  0
TEXT
  8
_0-0_図面枠
 62
    7
 10
196.65873197291751
 20
287.35758447265266
 40
3.2000000000000002
 41
1
 50
0
  1
130
  0
TEXT
  8
_0-0_図面枠
 62
    7
 10
196.65873197291751
 20
282.35758447265323
 40
3.2000000000000002
 41
1
 50
0
  1
210
  0
TEXT
  8
_0-0_図面枠
 62
    7
 10
234.99206530624699
 20
287.35758447265266
 40
3.2000000000000002
 41
1
 50
0
  1
100
  0
TEXT
  8
_0-0_図面枠
 62
    7
 10
158.325399639588
 20
287.35758447265277
 40
3.2000000000000002
 41
1
 50
0
  1
100
  0
TEXT
  8
_0-0_図面枠
 62
    7
 10
196.65873197291745
 20
256.02425080598914
 40
3.2000000000000002
 41
1
 50
0
  1
122
  0
TEXT
  8
_0-0_図面枠
 62
    7
 10
220.12539343824668
 20
256.02425080598914
 40
3.2000000000000002
 41
1
 50
0
  1
14
  0
TEXT
  8
_0-0_図面枠
 62
    7
 10
174.79207050758828
 20
256.02425080598914
 40
3.2000000000000002
 41
1
 50
0
  1
14
  0
TEXT
  8
_0-0_図面枠
 62
    7
 10
161.10873700758947
 20
240.02425147265743
 40
3.2000000000000002
 41
1
 50
0
  1
58.5
  0
TEXT
  8
_0-0_図面枠
 62
    7
 10
196.65873197291751
 20
240.02425147265743
 40
3.2000000000000002
 41
1
 50
0
  1
150
  0
TEXT
  8
_0-0_図面枠
 62
    7
 10
230.60872693824547
 20
240.02425147265743
 40
3.2000000000000002
 41
1
 50
0
  1
58.5
  0
TEXT
  8
_0-0_図面枠
 62
    7
 10
260.72539863957803
 20
270.75757237669308
 40
3.2000000000000002
 41
1
 50
90
  1
20
  0
CIRCLE
  8
_1-c_
  6
CONTINUOUS
 62
    4
 10
189.67776469418064
 20
267.10009279902556
 40
1.6666666666666665
  0
LINE
  8
_1-c_
  6
CONTINUOUS
 62
    4
 10
186.64235046114894
 20
272.3575844726542
 11
188.84443136084727
 21
268.54346847199974
  0
POINT
  8
_1-0_
 62
    4
 10
186.64235046114894
 20
272.3575844726542
  0
TEXT
  8
_1-c_
 62
    7
 10
188.42776469418061
 20
265.85009279902556
 40
2.5
 41
1
 50
0
  1
２
  0
CIRCLE
  8
_1-c_
  6
CONTINUOUS
 62
    4
 10
236.67449054817806
 20
280.72469129386718
 40
1.6666666666666665
  0
LINE
  8
_1-c_
  6
CONTINUOUS
 62
    4
 10
242.85239255185292
 20
270.02425113932094
 11
237.50782388151143
 21
279.28131562089311
  0
POINT
  8
_1-0_
 62
    4
 10
242.85239255185292
 20
270.02425113932094
  0
TEXT
  8
_0-1_
 62
    7
 10
135.40000749999999
 20
165.90000399999997
 40
3.2000000000000002
 41
1
 50
0
  1
ＵＵＨサイドプレート(Ｃ)Ｓ
  0
CIRCLE
  8
_1-c_
  6
CONTINUOUS
 62
    4
 10
181.84639445631083
 20
261.35724823658836
 40
1.6666666666666665
  0
LINE
  8
_1-c_
  6
CONTINUOUS
 62
    4
 10
177.41984826654061
 20
269.02425113932077
 11
181.01306112297746
 21
262.80062390956243
  0
POINT
  8
_1-0_
 62
    4
 10
177.41984826654061
 20
269.02425113932077
  0
TEXT
  8
_1-c_
 62
    7
 10
180.5963944563108
 20
260.10724823658836
 40
2.5
 41
1
 50
0
  1
３
  0
CIRCLE
  8
_1-c_
  6
CONTINUOUS
 62
    4
 10
142.25390221131249
 20
240.23204240001832
 40
1.6666666666666665
  0
LINE
  8
_1-c_
  6
CONTINUOUS
 62
    4
 10
153.41708354225909
 20
259.56723963932217
 11
143.08723554464586
 21
241.67541807299239
  0
POINT
  8
_1-0_
 62
    4
 10
153.41708354225909
 20
259.56723963932217
  0
TEXT
  8
_1-c_
 62
    7
 10
141.00390221131255
 20
238.98204240001832
 40
2.5
 41
1
 50
0
  1
４
  0
TEXT
  8
_0-1_
 62
    7
 10
135.40000749999999
 20
141.90000399999997
 40
3.2000000000000002
 41
1
 50
0
  1
ガスケットＦ
  0
TEXT
  8
_0-1_
 62
    7
 10
236.270477
 20
141.90000399999997
 40
3.2000000000000002
 41
1
 50
0
  1
３０１０
  0
TEXT
  8
_0-1_
 62
    7
 10
135.40000749999999
 20
135.90000399999997
 40
3.2000000000000002
 41
1
 50
0
  1
ＵＵＨパッキンＳ
  0
LINE
  8
_0-1_
  6
CONTINUOUS
 62
    4
 10
269.14999999999998
 20
116.7
 11
127
 21
116.7
  0
LINE
  8
_0-1_
  6
CONTINUOUS
 62
    4
 10
127
 20
116.7
 11
127
 21
181.5
  0
LINE
  8
_0-1_
  6
CONTINUOUS
 62
    4
 10
134.20000000000002
 20
116.70000000000002
 11
134.20000000000002
 21
181.5
  0
LINE
  8
_0-1_
  6
CONTINUOUS
 62
    4
 10
191.20000000000002
 20
116.70000000000002
 11
191.20000000000002
 21
181.5
  0
LINE
  8
_0-1_
  6
CONTINUOUS
 62
    4
 10
233.95000000000002
 20
116.7
 11
233.95000000000002
 21
181.5
  0
LINE
  8
_0-1_
  6
CONTINUOUS
 62
    4
 10
234.95000000000002
 20
116.7
 11
234.95000000000002
 21
181.5
  0
LINE
  8
_0-1_
  6
CONTINUOUS
 62
    4
 10
249.95000000000002
 20
116.7
 11
249.95000000000002
 21
181.5
  0
LINE
  8
_0-1_
  6
CONTINUOUS
 62
    4
 10
261.95000000000005
 20
116.7
 11
261.95000000000005
 21
181.5
  0
LINE
  8
_0-1_
  6
CONTINUOUS
 62
    4
 10
269.14999999999998
 20
116.7
 11
269.14999999999998
 21
181.5
  0
TEXT
  8
_0-1_
 62
    7
 10
130.58683199999999
 20
117.92755549999998
 40
3.2000000000000002
 41
1
 50
0
  1
９
  0
TEXT
  8
_0-1_
 62
    7
 10
135.40000749999999
 20
117.90000950000001
 40
3.2000000000000002
 41
1
 50
0
  1
ステンワッシャー
  0
TEXT
  8
_0-1_
 62
    7
 10
253.27045749999999
 20
117.95000849999997
 40
3.2000000000000002
 41
1
 50
0
  1
１２
  0
TEXT
  8
_0-1_
 62
    7
 10
264.00512500000002
 20
117.90000950000001
 40
3.2000000000000002
 41
1
 50
0
  1
枚
  0
TEXT
  8
_0-1_
 62
    7
 10
135.40000749999996
 20
123.90000950000001
 40
3.2000000000000002
 41
1
 50
0
  1
ステンシルタップ
  0
TEXT
  8
_0-1_
 62
    7
 10
192.400013
 20
123.90000950000001
 40
3.2000000000000002
 41
1
 50
0
  1
皿４×１６
  0
TEXT
  8
_0-1_
 62
    7
 10
253.27045749999999
 20
123.94999749999999
 40
3.2000000000000002
 41
1
 50
0
  1
１２
  0
TEXT
  8
_0-1_
 62
    7
 10
264.00512500000002
 20
123.90000399999997
 40
3.2000000000000002
 41
1
 50
0
  1
〃
  0
CIRCLE
  8
_1-c_
  6
CONTINUOUS
 62
    4
 10
140.10200746482411
 20
279.33585079075965
 40
1.6666666666666665
  0
TEXT
  8
_1-c_
 62
    7
 10
138.85200746482414
 20
278.08585079075965
 40
2.5
 41
1
 50
0
  1
５
  0
LINE
  8
_1-c_
  6
CONTINUOUS
 62
    4
 10
145.67051211989801
 20
269.69091780598785
 11
140.93534079815748
 21
277.89247511778558
  0
POINT
  8
_1-0_
 62
    4
 10
145.67051211989801
 20
269.69091780598785
  0
CIRCLE
  8
_1-c_
  6
CONTINUOUS
 62
    4
 10
180.91494813156169
 20
279.21836775220135
 40
1.6666666666666665
  0
LINE
  8
_1-c_
  6
CONTINUOUS
 62
    4
 10
177.89206711812577
 20
273.98258425169513
 11
180.08161479822832
 21
277.77499207922727
  0
POINT
  8
_1-0_
 62
    4
 10
177.89206711812577
 20
273.98258425169513
  0
TEXT
  8
_1-c_
 62
    7
 10
179.66494813156163
 20
277.96836775220135
 40
2.5
 41
1
 50
0
  1
６
  0
CIRCLE
  8
_1-c_
  6
CONTINUOUS
 62
    4
 10
160.60149448235052
 20
279.96230794256337
 40
1.6666666666666665
  0
TEXT
  8
_1-c_
 62
    7
 10
159.35149448235046
 20
278.71230794256337
 40
2.5
 41
1
 50
0
  1
７
  0
LINE
  8
_1-c_
  6
CONTINUOUS
 62
    4
 10
155.31283049026027
 20
270.80207320410307
 11
159.76816114901715
 21
278.5189322695893
  0
POINT
  8
_1-0_
 62
    4
 10
155.31283049026027
 20
270.80207320410307
  0
CIRCLE
  8
_1-c_
  6
CONTINUOUS
 62
    4
 10
158.25441123375651
 20
284.20906350755041
 40
1.6666666666666665
  0
TEXT
  8
_1-c_
 62
    7
 10
157.62941123375649
 20
282.95906350755041
 40
2.5
 41
1
 50
0
  1
1
  0
LINE
  8
_1-c_
  6
CONTINUOUS
 62
    4
 10
153.33645751996247
 20
275.69091780598728
 11
157.42107790042314
 21
282.76568783457634
  0
POINT
  8
_1-0_
 62
    4
 10
153.33645751996247
 20
275.69091780598728
  0
CIRCLE
  8
_1-c_
  6
CONTINUOUS
 62
    4
 10
244.5408243792873
 20
281.97358874891654
 40
1.6666666666666665
  0
TEXT
  8
_1-c_
 62
    7
 10
243.2908243792873
 20
280.72358874891654
 40
2.5
 41
1
 50
0
  1
８
  0
LINE
  8
_1-c_
  6
CONTINUOUS
 62
    4
 10
248.1681261394175
 20
275.69091780598706
 11
245.37415771262067
 21
280.53021307594247
  0
POINT
  8
_1-0_
 62
    4
 10
248.1681261394175
 20
275.69091780598706
  0
TEXT
  8
_1-c_
 62
    7
 10
235.42449054817808
 20
279.47469129386718
 40
2.5
 41
1
 50
0
  1
９
  0
TEXT
  8
_0-1_
 62
    7
 10
127.00000400000002
 20
109.70000300000001
 40
3.2000000000000002
 41
1
 50
0
  1
注）　ガスケットＦ及びＵＵＨパッキンＳはＵＵＨサイドプレート(Ｃ)Ｓにセット済み。
  0
TEXT
  8
_0-1_
 62
    7
 10
192.40002450000006
 20
117.90000950000001
 40
3.2000000000000002
 41
1
 50
0
  1
1.5×１８×5.5穴
  0
TEXT
  8
_0-1_
 62
    7
 10
264.00512500000002
 20
147.90000399999997
 40
3.2000000000000002
 41
1
 50
0
  1
〃
  0
TEXT
  8
_0-1_
 62
    7
 10
264.00512500000002
 20
141.90000399999997
 40
3.2000000000000002
 41
1
 50
0
  1
〃
  0
LINE
  8
_1-0_
  6
CONTINUOUS
 62
    4
 10
470.49133486866958
 20
128.05207063069912
 11
328.34133486866961
 21
128.05207063069912
  0
LINE
  8
_1-0_
  6
CONTINUOUS
 62
    4
 10
470.49133486866958
 20
134.05207063069912
 11
328.34133486866961
 21
134.05207063069912
  0
LINE
  8
_1-0_
  6
CONTINUOUS
 62
    4
 10
470.49133486866958
 20
170.05207063069918
 11
328.34133486866961
 21
170.05207063069918
  0
LINE
  8
_1-0_
  6
CONTINUOUS
 62
    4
 10
470.49133486866958
 20
164.05207063069918
 11
328.34133486866961
 21
164.05207063069918
  0
LINE
  8
_1-0_
  6
CONTINUOUS
 62
    4
 10
470.49133486866958
 20
158.05207063069918
 11
328.34133486866961
 21
158.05207063069918
  0
LINE
  8
_1-0_
  6
CONTINUOUS
 62
    4
 10
470.49133486866958
 20
152.05207063069918
 11
328.34133486866961
 21
152.05207063069918
  0
LINE
  8
_1-0_
  6
CONTINUOUS
 62
    4
 10
470.49133486866958
 20
146.05207063069918
 11
328.34133486866961
 21
146.05207063069918
  0
LINE
  8
_1-0_
  6
CONTINUOUS
 62
    4
 10
470.49133486866958
 20
140.05207063069912
 11
328.34133486866961
 21
140.05207063069912
  0
LINE
  8
_1-0_
  6
CONTINUOUS
 62
    4
 10
470.49133486866958
 20
180.85207063069913
 11
328.34133486866961
 21
180.85207063069913
  0
POINT
  8
_1-0_
 62
    4
 10
422.06673350825167
 20
286.70965510335185
  0
LINE
  8
_1-0_
  6
CONTINUOUS
 62
    4
 10
455.40006684158163
 20
291.70965510335139
 11
455.40006684158163
 21
275.95921951866296
  0
POINT
  8
_1-0_
 62
    4
 10
455.40006684158163
 20
286.70965510335185
  0
POINT
  8
_1-0_
 62
    4
 10
455.40006684158163
 20
291.70965510335139
  0
LINE
  8
_1-0_
  6
CONTINUOUS
 62
    4
 10
422.06673350825167
 20
286.70965510335185
 11
455.40006684158163
 21
286.70965510335185
  0
LINE
  8
_1-0_
  6
CONTINUOUS
 62
    4
 10
345.40006784159266
 20
291.70965510335139
 11
345.40006784159266
 21
275.95921951866296
  0
POINT
  8
_1-0_
 62
    4
 10
345.40006784159266
 20
286.70965510335191
  0
LINE
  8
_1-0_
  6
CONTINUOUS
 62
    4
 10
367.06673350825713
 20
239.37632210335664
 11
367.06673350825713
 21
245.30838993722398
  0
POINT
  8
_1-0_
 62
    4
 10
367.06673350825713
 20
239.37632210335664
  0
POINT
  8
_1-0_
 62
    4
 10
367.06673350825713
 20
255.37632143668839
  0
LINE
  8
_1-0_
  6
CONTINUOUS
 62
    4
 10
433.73340017491716
 20
239.37632210335659
 11
367.06673350825713
 21
239.37632210335659
  0
LINE
  8
_1-0_
  6
CONTINUOUS
 62
    4
 10
433.73340017491716
 20
239.37632210335659
 11
433.73340017491716
 21
245.30838993722398
  0
POINT
  8
_1-0_
 62
    4
 10
433.73340017491716
 20
239.37632210335659
  0
POINT
  8
_1-0_
 62
    4
 10
433.73340017491716
 20
255.37632143668833
  0
LINE
  8
_1-0_
  6
CONTINUOUS
 62
    4
 10
367.06673350825713
 20
246.04298877002265
 11
367.06673350825713
 21
268.37632177002041
  0
LINE
  8
_1-0_
  6
CONTINUOUS
 62
    4
 10
334.06673450826042
 20
246.04298877002265
 11
367.06673350825713
 21
246.04298877002265
  0
LINE
  8
_1-0_
  6
CONTINUOUS
 62
    4
 10
433.73340017491716
 20
246.04298877002265
 11
433.73340017491716
 21
268.37632177002041
  0
LINE
  8
_1-0_
  6
CONTINUOUS
 62
    4
 10
466.73339917491376
 20
246.04298877002265
 11
433.73340017491716
 21
246.04298877002265
  0
LINE
  8
_1-0_
  6
CONTINUOUS
 62
    4
 10
364.3599495680603
 20
268.37632177002041
 11
342.02661656806254
 21
246.04298877002265
  0
LINE
  8
_1-0_
  6
CONTINUOUS
 62
    4
 10
363.41714052647831
 20
268.37632177002041
 11
341.08380752648054
 21
246.04298877002265
  0
LINE
  8
_1-0_
  6
CONTINUOUS
 62
    4
 10
362.47433148489631
 20
268.37632177002041
 11
340.14099848489855
 21
246.04298877002265
  0
LINE
  8
_1-0_
  6
CONTINUOUS
 62
    4
 10
350.68921846512171
 20
268.37632177002041
 11
334.06673450826042
 21
251.75383781315912
  0
LINE
  8
_1-0_
  6
CONTINUOUS
 62
    4
 10
351.63202750670371
 20
268.37632177002041
 11
334.06673450826042
 21
250.81102877157718
  0
LINE
  8
_1-0_
  6
CONTINUOUS
 62
    4
 10
352.57483654828559
 20
268.37632177002041
 11
334.06673450826042
 21
249.86821972999519
  0
LINE
  8
_1-0_
  6
CONTINUOUS
 62
    4
 10
340.78972352851099
 20
268.37632177002041
 11
334.06673450826042
 21
261.65333274976985
  0
LINE
  8
_1-0_
  6
CONTINUOUS
 62
    4
 10
339.84691448692899
 20
268.37632177002041
 11
334.06673450826042
 21
262.59614179135184
  0
LINE
  8
_1-0_
  6
CONTINUOUS
 62
    4
 10
338.90410544534711
 20
268.37632177002041
 11
334.06673450826042
 21
263.53895083293378
  0
LINE
  8
_1-0_
  6
CONTINUOUS
 62
    4
 10
351.92611150467314
 20
246.04298877002265
 11
367.06673350825713
 21
261.18361077360657
  0
LINE
  8
_1-0_
  6
CONTINUOUS
 62
    4
 10
367.06673350825713
 20
260.24080173202464
 11
352.86892054625514
 21
246.04298877002265
  0
LINE
  8
_1-0_
  6
CONTINUOUS
 62
    4
 10
353.81172958783702
 20
246.04298877002265
 11
367.06673350825713
 21
259.2979926904427
  0
LINE
  8
_1-0_
  6
CONTINUOUS
 62
    4
 10
363.71122452444774
 20
246.04298877002265
 11
367.06673350825713
 21
249.39849775383203
  0
LINE
  8
_1-0_
  6
CONTINUOUS
 62
    4
 10
364.65403356602974
 20
246.04298877002265
 11
367.06673350825713
 21
248.45568871225004
  0
LINE
  8
_1-0_
  6
CONTINUOUS
 62
    4
 10
365.59684260761173
 20
246.04298877002265
 11
367.06673350825713
 21
247.51287967066804
  0
LINE
  8
_1-0_
  6
CONTINUOUS
 62
    4
 10
456.9301749409359
 20
246.04298877002259
 11
466.73339917491376
 21
255.8462130040005
  0
LINE
  8
_1-0_
  6
CONTINUOUS
 62
    4
 10
455.9873658993539
 20
246.04298877002259
 11
466.73339917491376
 21
256.7890220455825
  0
LINE
  8
_1-0_
  6
CONTINUOUS
 62
    4
 10
455.04455685777191
 20
246.04298877002259
 11
466.73339917491376
 21
257.73183108716449
  0
LINE
  8
_1-0_
  6
CONTINUOUS
 62
    4
 10
445.1450619211613
 20
246.04298877002259
 11
466.73339917491376
 21
267.63132602377516
  0
LINE
  8
_1-0_
  6
CONTINUOUS
 62
    4
 10
466.53558587957707
 20
268.37632177002041
 11
444.20225287957931
 21
246.04298877002259
  0
LINE
  8
_1-0_
  6
CONTINUOUS
 62
    4
 10
443.25944383799731
 20
246.04298877002259
 11
465.59277683799519
 21
268.37632177002041
  0
LINE
  8
_1-0_
  6
CONTINUOUS
 62
    4
 10
442.02255079844588
 20
268.37632177002041
 11
433.71130882001523
 21
260.06507979158971
  0
LINE
  8
_1-0_
  6
CONTINUOUS
 62
    4
 10
442.96535984002787
 20
268.37632177002041
 11
433.73340017491716
 21
259.14436210490965
  0
LINE
  8
_1-0_
  6
CONTINUOUS
 62
    4
 10
443.90816888160987
 20
268.37632177002041
 11
433.73340017491716
 21
258.20155306332765
  0
LINE
  8
_1-0_
  6
CONTINUOUS
 62
    4
 10
453.80766381822048
 20
268.37632177002035
 11
433.73340017491716
 21
248.30205812671699
  0
LINE
  8
_1-0_
  6
CONTINUOUS
 62
    4
 10
454.75047285980247
 20
268.37632177002035
 11
433.73340017491716
 21
247.35924908513499
  0
LINE
  8
_1-0_
  6
CONTINUOUS
 62
    4
 10
455.69328190138447
 20
268.37632177002035
 11
433.73340017491716
 21
246.41644004355305
  0
POINT
  8
_1-0_
 62
    4
 10
378.73340446785608
 20
286.70965510335191
  0
LINE
  8
_1-0_
  6
CONTINUOUS
 62
    4
 10
378.73340446785608
 20
275.56665133564678
 11
378.73340446785608
 21
286.70965510335191
  0
LINE
  8
_1-0_
  6
CONTINUOUS
 62
    4
 10
422.06673350825167
 20
286.70965510335185
 11
378.73340446785608
 21
286.70965510335191
  0
LINE
  8
_1-0_
  6
CONTINUOUS
 62
    4
 10
422.06673350825167
 20
286.70965510335185
 11
422.06673350825167
 21
275.56665133564678
  0
POINT
  8
_1-0_
 62
    4
 10
462.06673350824758
 20
268.37632177002035
  0
LINE
  8
_1-0_
  6
CONTINUOUS
 62
    4
 10
456.23686423279548
 20
275.04296424476405
 11
462.06673350824758
 21
275.04296424476405
  0
POINT
  8
_1-0_
 62
    4
 10
462.06673350824758
 20
275.04296424476405
  0
LINE
  8
_1-0_
  6
CONTINUOUS
 62
    4
 10
462.06673350824758
 20
275.04296424476405
 11
462.06673350824758
 21
268.37632177002035
  0
LINE
  8
_1-0_
  6
CENTER1
 62
    4
 10
400.40006684158709
 20
268.37632177002041
 11
400.40006684158709
 21
275.04298843668636
  0
ARC
  8
_1-0_
  6
CONTINUOUS
 62
    4
 10
378.90006930371476
 20
272.54298843668664
 40
0.3333333333333
 50
270
 51
359.9999565941086
  0
ARC
  8
_1-0_
  6
CONTINUOUS
 62
    4
 10
378.06673546533057
 20
272.54298843668664
 40
0.3333333333333
 50
179.99995659409885
 51
270
  0
ARC
  8
_1-0_
  6
CONTINUOUS
 62
    4
 10
378.98340446785596
 20
274.1263217700199
 40
0.2499999999999749
 50
359.99995659382529
 51
179.99995659409882
  0
ARC
  8
_1-0_
  6
CONTINUOUS
 62
    4
 10
377.98340446785619
 20
273.62632177001984
 40
0.2499999999999749
 50
359.99995659411189
 51
179.99999999996089
  0
LINE
  8
_1-0_
  6
CONTINUOUS
 62
    4
 10
379.23340258654287
 20
274.12632158062615
 11
379.23340138704793
 21
272.54298818416237
  0
LINE
  8
_1-0_
  6
CONTINUOUS
 62
    4
 10
377.73340220775503
 20
273.62632177002172
 11
377.73340138704816
 21
272.54298868921251
  0
LINE
  8
_1-0_
  6
CONTINUOUS
 62
    7
 10
378.23340446785608
 20
272.70965510335327
 11
378.73340446785608
 21
272.70965510335327
  0
LINE
  8
_1-0_
  6
CONTINUOUS
 62
    7
 10
378.73340446785608
 20
272.70965510335327
 11
378.73340446785608
 21
274.37632177001979
  0
ARC
  8
_1-0_
  6
CONTINUOUS
 62
    7
 10
378.06673780118945
 20
274.37632177001979
 40
0.6666666666666
 50
0
 51
90
  0
LINE
  8
_1-0_
  6
CONTINUOUS
 62
    7
 10
378.23340446785608
 20
272.70965510335327
 11
378.23340446785608
 21
274.37632177001979
  0
ARC
  8
_1-0_
  6
CONTINUOUS
 62
    7
 10
378.06673780118945
 20
274.37632177001979
 40
0.16666666666665
 50
0
 51
90
  0
LINE
  8
_1-0_
  6
CONTINUOUS
 62
    4
 10
347.78357387291237
 20
269.04298843668698
 11
347.11690720624574
 21
268.37632177002041
  0
LINE
  8
_1-0_
  6
CONTINUOUS
 62
    4
 10
346.36936031053949
 20
269.04298843668698
 11
345.90007678466702
 21
268.57370491081463
  0
LINE
  8
_1-0_
  6
CONTINUOUS
 62
    4
 10
348.72638291449437
 20
269.04298843668698
 11
348.05971624782774
 21
268.37632177002041
  0
LINE
  8
_1-0_
  6
CONTINUOUS
 62
    4
 10
348.25497839370337
 20
269.04298843668698
 11
347.58831172703674
 21
268.37632177002041
  0
LINE
  8
_1-0_
  6
CONTINUOUS
 62
    4
 10
347.31216935212137
 20
269.04298843668698
 11
346.64550268545486
 21
268.37632177002041
  0
LINE
  8
_1-0_
  6
CONTINUOUS
 62
    4
 10
346.84076483133049
 20
269.04298843668698
 11
346.17409816466386
 21
268.37632177002041
  0
ARC
  8
_1-0_
  6
CONTINUOUS
 62
    7
 10
346.06673704361447
 20
269.70965308314675
 40
0.16666666666665
 50
180.00004340590115
 51
270
  0
ARC
  8
_1-0_
  6
CONTINUOUS
 62
    7
 10
346.06673704361447
 20
269.70965308314675
 40
0.6666666666666
 50
180.00004340589138
 51
270
  0
LINE
  8
_1-0_
  6
CONTINUOUS
 62
    4
 10
345.90007678466702
 20
269.06415420434683
 11
345.90007678466702
 21
268.37632177002041
  0
LINE
  8
_1-0_
  6
CONTINUOUS
 62
    7
 10
345.90006684161119
 20
274.37629740132974
 11
345.90007037694784
 21
269.7096529568841
  0
LINE
  8
_1-0_
  6
CONTINUOUS
 62
    7
 10
378.06673780118945
 20
274.54298843668647
 11
346.06673350827782
 21
274.54298843668647
  0
ARC
  8
_1-0_
  6
CONTINUOUS
 62
    7
 10
346.06673350827782
 20
274.37629752759238
 40
0.16666666666665
 50
90
 51
180.00004340590115
  0
LINE
  8
_1-0_
  6
CONTINUOUS
 62
    7
 10
345.40006684161131
 20
274.37629702254185
 11
345.40007037694807
 21
269.70965257809627
  0
LINE
  8
_1-0_
  6
CONTINUOUS
 62
    7
 10
378.06673780118945
 20
275.04298843668641
 11
346.06673350827782
 21
275.04298843668641
  0
ARC
  8
_1-0_
  6
CONTINUOUS
 62
    7
 10
346.06673350827782
 20
274.37629752759238
 40
0.6666666666666
 50
90
 51
180.00004340589626
  0
ARC
  8
_1-0_
  6
CONTINUOUS
 62
    4
 10
421.90006437945954
 20
272.54298843668658
 40
0.3333333333333
 50
180.00004340589138
 51
270
  0
ARC
  8
_1-0_
  6
CONTINUOUS
 62
    4
 10
422.73339821784361
 20
272.54298843668658
 40
0.3333333333333
 50
270
 51
0.0000434059011844
  0
ARC
  8
_1-0_
  6
CONTINUOUS
 62
    4
 10
421.81672921531822
 20
274.12632177001984
 40
0.2499999999999749
 50
0.000043405901159
 51
180.00004340617474
  0
ARC
  8
_1-0_
  6
CONTINUOUS
 62
    4
 10
422.81672921531799
 20
273.62632177001984
 40
0.2499999999999749
 50
0
 51
180.00004340590115
  0
LINE
  8
_1-0_
  6
CONTINUOUS
 62
    4
 10
421.56673109663132
 20
274.1263215806261
 11
421.56673229612636
 21
272.54298818416231
  0
LINE
  8
_1-0_
  6
CONTINUOUS
 62
    4
 10
423.06673147541926
 20
273.62632177002166
 11
423.06673229612613
 21
272.54298868921245
  0
LINE
  8
_1-0_
  6
CONTINUOUS
 62
    7
 10
422.56672921531811
 20
272.70965510335321
 11
422.06672921531811
 21
272.70965510335321
  0
LINE
  8
_1-0_
  6
CENTER1
 62
    4
 10
450.40005689850761
 20
268.3763217700203
 11
450.40005689850761
 21
275.82628850446656
  0
LINE
  8
_1-0_
  6
CONTINUOUS
 62
    7
 10
422.06672921531811
 20
272.70965510335321
 11
422.06672921531822
 21
274.37632177001973
  0
ARC
  8
_1-0_
  6
CONTINUOUS
 62
    7
 10
422.73339588198473
 20
274.37632177001973
 40
0.6666666666666
 50
90
 51
180
  0
LINE
  8
_1-0_
  6
CONTINUOUS
 62
    7
 10
422.56672921531811
 20
272.70965510335321
 11
422.56672921531811
 21
274.37632177001973
  0
ARC
  8
_1-0_
  6
CONTINUOUS
 62
    7
 10
422.73339588198473
 20
274.37632177001973
 40
0.16666666666665
 50
90
 51
180
  0
ARC
  8
_1-0_
  6
CONTINUOUS
 62
    7
 10
454.73339663955971
 20
269.70965308314658
 40
0.16666666666665
 50
270
 51
359.99995659411837
  0
ARC
  8
_1-0_
  6
CONTINUOUS
 62
    7
 10
454.73339663955971
 20
269.70965308314658
 40
0.6666666666666
 50
270
 51
359.9999565941086
  0
LINE
  8
_1-0_
  6
CONTINUOUS
 62
    4
 10
454.90005689850716
 20
269.06415420434672
 11
454.90005689850716
 21
268.37632177002024
  0
LINE
  8
_1-0_
  6
CONTINUOUS
 62
    4
 10
453.95022065341948
 20
269.04298843668687
 11
453.28355398675285
 21
268.37632177002024
  0
LINE
  8
_1-0_
  6
CONTINUOUS
 62
    4
 10
454.90005689850716
 20
268.57861111940161
 11
454.69776754912584
 21
268.37632177002024
  0
LINE
  8
_1-0_
  6
CONTINUOUS
 62
    4
 10
454.42162517421048
 20
269.04298843668687
 11
453.75495850754385
 21
268.37632177002024
  0
LINE
  8
_1-0_
  6
CONTINUOUS
 62
    4
 10
453.47881613262848
 20
269.04298843668687
 11
452.81214946596185
 21
268.37632177002024
  0
LINE
  8
_1-0_
  6
CONTINUOUS
 62
    4
 10
453.00741161183748
 20
269.04298843668687
 11
452.34074494517085
 21
268.37632177002024
  0
LINE
  8
_1-0_
  6
CONTINUOUS
 62
    4
 10
454.90005689850716
 20
269.05001564019261
 11
454.22636302833484
 21
268.37632177002024
  0
LINE
  8
_1-0_
  6
CONTINUOUS
 62
    7
 10
422.73339588198473
 20
275.04298843668636
 11
454.73340004863383
 21
275.04298843668624
  0
LINE
  8
_1-0_
  6
CONTINUOUS
 62
    7
 10
455.40006684158118
 20
274.37632126496902
 11
455.40006330622612
 21
269.7096525780961
  0
ARC
  8
_1-0_
  6
CONTINUOUS
 62
    7
 10
454.73340004863383
 20
274.37632177001967
 40
0.6666666666666
 50
359.99995659410371
 51
90.000000000000028
  0
LINE
  8
_1-0_
  6
CONTINUOUS
 62
    7
 10
422.73339588198473
 20
274.54298843668641
 11
454.73340004863383
 21
274.5429884366863
  0
LINE
  8
_1-0_
  6
CONTINUOUS
 62
    7
 10
454.90006684158141
 20
274.37632164375697
 11
454.90006330622634
 21
269.70965295688399
  0
ARC
  8
_1-0_
  6
CONTINUOUS
 62
    7
 10
454.73340004863383
 20
274.37632177001967
 40
0.16666666666665
 50
359.99995659409882
 51
90.000000000000028
  0
LINE
  8
_1-0_
  6
CONTINUOUS
 62
    4
 10
352.10007678466627
 20
275.04298843668641
 11
352.10007678466627
 21
274.94298843668645
  0
LINE
  8
_1-0_
  6
CONTINUOUS
 62
    4
 10
352.10007678466627
 20
274.94298843668645
 11
351.32229878466637
 21
274.27632243668648
  0
LINE
  8
_1-0_
  6
CONTINUOUS
 62
    4
 10
352.10007678466627
 20
274.94298843668645
 11
349.70007678466652
 21
274.94298843668645
  0
LINE
  8
_1-0_
  6
CONTINUOUS
 62
    4
 10
349.70007678466652
 20
275.04298843668641
 11
349.70007678466652
 21
274.94298843668645
  0
LINE
  8
_1-0_
  6
CONTINUOUS
 62
    4
 10
349.70007678466652
 20
274.94298843668645
 11
350.47785478466642
 21
274.27632243668648
  0
LINE
  8
_1-0_
  6
CONTINUOUS
 62
    4
 10
351.32229878466637
 20
272.08372943668672
 11
351.32229878466637
 21
272.42862943668666
  0
LINE
  8
_1-0_
  6
CONTINUOUS
 62
    4
 10
350.47785478466642
 20
271.48788943668677
 11
351.32229878466637
 21
271.80146943668672
  0
LINE
  8
_1-0_
  6
CONTINUOUS
 62
    4
 10
350.47785478466642
 20
271.77014943668678
 11
351.32229878466637
 21
272.08372943668672
  0
LINE
  8
_1-0_
  6
CONTINUOUS
 62
    4
 10
350.23340978466649
 20
271.62901943668675
 11
351.5667437846663
 21
271.94259943668675
  0
LINE
  8
_1-0_
  6
CONTINUOUS
 62
    4
 10
350.23340978466649
 20
271.62901943668675
 11
350.47785478466642
 21
271.48788943668677
  0
LINE
  8
_1-0_
  6
CONTINUOUS
 62
    4
 10
350.23340978466649
 20
271.62901943668675
 11
350.47785478466642
 21
271.77014943668678
  0
LINE
  8
_1-0_
  6
CONTINUOUS
 62
    4
 10
351.5667437846663
 20
271.94259943668675
 11
351.32229878466637
 21
271.80146943668672
  0
LINE
  8
_1-0_
  6
CONTINUOUS
 62
    4
 10
351.32229878466637
 20
272.08372943668672
 11
351.5667437846663
 21
271.94259943668675
  0
LINE
  8
_1-0_
  6
CONTINUOUS
 62
    4
 10
350.47785478466642
 20
272.74221043668666
 11
350.47785478466642
 21
272.39730943668673
  0
LINE
  8
_1-0_
  6
CONTINUOUS
 62
    4
 10
351.32229878466637
 20
272.71089043668661
 11
351.32229878466637
 21
273.05579043668666
  0
LINE
  8
_1-0_
  6
CONTINUOUS
 62
    4
 10
350.47785478466642
 20
272.11504943668672
 11
351.32229878466637
 21
272.42862943668666
  0
LINE
  8
_1-0_
  6
CONTINUOUS
 62
    4
 10
350.47785478466642
 20
272.39730943668673
 11
351.32229878466637
 21
272.71089043668661
  0
LINE
  8
_1-0_
  6
CONTINUOUS
 62
    4
 10
350.23340978466649
 20
272.25617943668669
 11
351.5667437846663
 21
272.5697594366867
  0
LINE
  8
_1-0_
  6
CONTINUOUS
 62
    4
 10
350.23340978466649
 20
272.25617943668669
 11
350.47785478466642
 21
272.11504943668672
  0
LINE
  8
_1-0_
  6
CONTINUOUS
 62
    4
 10
350.23340978466649
 20
272.25617943668669
 11
350.47785478466642
 21
272.39730943668673
  0
LINE
  8
_1-0_
  6
CONTINUOUS
 62
    4
 10
351.5667437846663
 20
272.5697594366867
 11
351.32229878466637
 21
272.42862943668666
  0
LINE
  8
_1-0_
  6
CONTINUOUS
 62
    4
 10
351.32229878466637
 20
272.71089043668661
 11
351.5667437846663
 21
272.5697594366867
  0
LINE
  8
_1-0_
  6
CONTINUOUS
 62
    4
 10
350.47785478466642
 20
273.36937043668661
 11
350.47785478466642
 21
273.02447043668661
  0
LINE
  8
_1-0_
  6
CONTINUOUS
 62
    4
 10
351.32229878466637
 20
273.33805043668656
 11
351.32229878466637
 21
273.68295043668661
  0
LINE
  8
_1-0_
  6
CONTINUOUS
 62
    4
 10
350.47785478466642
 20
272.74221043668666
 11
351.32229878466637
 21
273.05579043668666
  0
LINE
  8
_1-0_
  6
CONTINUOUS
 62
    4
 10
350.47785478466642
 20
273.02447043668661
 11
351.32229878466637
 21
273.33805043668656
  0
LINE
  8
_1-0_
  6
CONTINUOUS
 62
    4
 10
350.23340978466649
 20
272.88334043668664
 11
351.5667437846663
 21
273.19692043668658
  0
LINE
  8
_1-0_
  6
CONTINUOUS
 62
    4
 10
350.23340978466649
 20
272.88334043668664
 11
350.47785478466642
 21
272.74221043668666
  0
LINE
  8
_1-0_
  6
CONTINUOUS
 62
    4
 10
350.23340978466649
 20
272.88334043668664
 11
350.47785478466642
 21
273.02447043668661
  0
LINE
  8
_1-0_
  6
CONTINUOUS
 62
    4
 10
351.5667437846663
 20
273.19692043668658
 11
351.32229878466637
 21
273.05579043668666
  0
LINE
  8
_1-0_
  6
CONTINUOUS
 62
    4
 10
351.32229878466637
 20
273.33805043668656
 11
351.5667437846663
 21
273.19692043668658
  0
LINE
  8
_1-0_
  6
CONTINUOUS
 62
    4
 10
350.47785478466642
 20
273.73096843668651
 11
350.47785478466642
 21
273.65163043668656
  0
LINE
  8
_1-0_
  6
CONTINUOUS
 62
    4
 10
351.32229878466637
 20
274.27632243668648
 11
351.32229878466637
 21
273.96521143668656
  0
LINE
  8
_1-0_
  6
CONTINUOUS
 62
    4
 10
350.47785478466642
 20
273.36937043668661
 11
351.32229878466637
 21
273.68295043668661
  0
LINE
  8
_1-0_
  6
CONTINUOUS
 62
    4
 10
350.47785478466642
 20
273.65163043668656
 11
351.32229878466637
 21
273.96521143668656
  0
LINE
  8
_1-0_
  6
CONTINUOUS
 62
    4
 10
350.23340978466649
 20
273.51050043668658
 11
351.5667437846663
 21
273.82408043668653
  0
LINE
  8
_1-0_
  6
CONTINUOUS
 62
    4
 10
350.23340978466649
 20
273.51050043668658
 11
350.47785478466642
 21
273.36937043668661
  0
LINE
  8
_1-0_
  6
CONTINUOUS
 62
    4
 10
350.23340978466649
 20
273.51050043668658
 11
350.47785478466642
 21
273.65163043668656
  0
LINE
  8
_1-0_
  6
CONTINUOUS
 62
    4
 10
351.32229878466637
 20
273.68295043668661
 11
351.5667437846663
 21
273.82408043668653
  0
LINE
  8
_1-0_
  6
CONTINUOUS
 62
    4
 10
351.32229878466637
 20
273.96521143668656
 11
351.5667437846663
 21
273.82408043668653
  0
LINE
  8
_1-0_
  6
CONTINUOUS
 62
    4
 10
350.47785478466642
 20
274.27632243668648
 11
350.47785478466642
 21
274.18941643668649
  0
LINE
  8
_1-0_
  6
CONTINUOUS
 62
    4
 10
350.90007678466645
 20
274.20507643668651
 11
350.23340978466649
 21
274.04828643668657
  0
LINE
  8
_1-0_
  6
CONTINUOUS
 62
    4
 10
350.23340978466649
 20
274.04828643668657
 11
350.47785478466642
 21
273.90715643668653
  0
LINE
  8
_1-0_
  6
CONTINUOUS
 62
    4
 10
350.23340978466649
 20
274.04828643668657
 11
350.47785478466642
 21
274.18941643668649
  0
LINE
  8
_1-0_
  6
CONTINUOUS
 62
    4
 10
350.47785478466642
 20
273.90715643668653
 11
350.47785478466642
 21
273.73096843668651
  0
LINE
  8
_1-0_
  6
CONTINUOUS
 62
    4
 10
350.90007678466645
 20
270.37632243668685
 11
350.90007678466645
 21
269.709655436687
  0
LINE
  8
_1-0_
  6
CONTINUOUS
 62
    4
 10
351.32229878466637
 20
271.37632243668679
 11
350.47785978466641
 21
271.37632243668679
  0
LINE
  8
_1-0_
  6
CONTINUOUS
 62
    4
 10
350.90007678466645
 20
269.709655436687
 11
350.47785478466642
 21
270.01757543668691
  0
LINE
  8
_1-0_
  6
CONTINUOUS
 62
    4
 10
350.90007678466645
 20
269.709655436687
 11
351.32229878466637
 21
270.01757543668691
  0
ARC
  8
_1-0_
  6
CONTINUOUS
 62
    4
 10
351.02500078466642
 20
269.80145643668692
 40
0.588282999999941
 50
102.26032899999879
 51
158.44630399999585
  0
ARC
  8
_1-0_
  6
CONTINUOUS
 62
    4
 10
352.90217178466617
 20
270.12012943668691
 40
2.0184199999997983
 50
141.51097799999889
 51
172.70791799999989
  0
LINE
  8
_1-0_
  6
CONTINUOUS
 62
    4
 10
350.47785478466642
 20
271.48788943668677
 11
350.47785478466642
 21
271.37632243668679
  0
LINE
  8
_1-0_
  6
CONTINUOUS
 62
    4
 10
350.47785478466642
 20
274.27632243668648
 11
351.32229878466637
 21
274.27632243668648
  0
LINE
  8
_1-0_
  6
CONTINUOUS
 62
    4
 10
350.47785478466642
 20
274.18941643668649
 11
350.90007678466645
 21
274.20507643668651
  0
LINE
  8
_1-0_
  6
CONTINUOUS
 62
    4
 10
350.47785478466642
 20
273.90715643668653
 11
350.90007678466645
 21
274.20507643668651
  0
LINE
  8
_1-0_
  6
CONTINUOUS
 62
    4
 10
350.47785478466642
 20
271.37632243668679
 11
350.47785478466642
 21
270.01757543668691
  0
LINE
  8
_1-0_
  6
CONTINUOUS
 62
    4
 10
351.32229878466637
 20
271.80146943668672
 11
351.32229878466637
 21
270.01757543668691
  0
LINE
  8
_1-0_
  6
CONTINUOUS
 62
    4
 10
350.47785478466642
 20
272.11504943668672
 11
350.47785478466642
 21
271.77014943668678
  0
LINE
  8
_1-0_
  6
CENTER1
 62
    4
 10
350.90007678466645
 20
268.37632177002041
 11
350.90007678466645
 21
275.82628850446667
  0
ARC
  8
_1-0_
  6
CONTINUOUS
 62
    7
 10
349.90007678466645
 20
269.04298843668698
 40
0.16666666666665
 50
180
 51
270
  0
ARC
  8
_1-0_
  6
CONTINUOUS
 62
    7
 10
349.40007678466657
 20
274.37632177001979
 40
0.16666666666665
 50
90
 51
180
  0
LINE
  8
_1-0_
  6
CONTINUOUS
 62
    7
 10
349.23341011799994
 20
268.37632177002041
 11
349.23341011799994
 21
272.37632177002001
  0
LINE
  8
_1-0_
  6
CONTINUOUS
 62
    7
 10
349.23341011799994
 20
273.04298823722695
 11
349.23341011799994
 21
274.37632177001979
  0
ARC
  8
_1-0_
  6
CONTINUOUS
 62
    7
 10
349.90007678466645
 20
269.04298843668698
 40
0.16666666666665
 50
180
 51
270
  0
ARC
  8
_1-0_
  6
CONTINUOUS
 62
    7
 10
351.90007678466634
 20
274.04298843668653
 40
0.6666666666666
 50
270
 51
0
  0
ARC
  8
_1-0_
  6
CONTINUOUS
 62
    7
 10
349.5667434513332
 20
274.37632177001979
 40
0.16666666666665
 50
0
 51
90
  0
ARC
  8
_1-0_
  6
CONTINUOUS
 62
    7
 10
352.2334101179996
 20
274.37632177001979
 40
0.16666666666665
 50
90
 51
180
  0
LINE
  8
_1-0_
  6
CONTINUOUS
 62
    7
 10
352.56674345133285
 20
274.37632177001979
 11
352.56674345133285
 21
274.04298843668653
  0
ARC
  8
_1-0_
  6
CONTINUOUS
 62
    7
 10
352.40007678466623
 20
274.37632177001979
 40
0.16666666666665
 50
0
 51
90
  0
LINE
  8
_1-0_
  6
CONTINUOUS
 62
    7
 10
349.73341011799982
 20
273.04298843668658
 11
349.73341011799982
 21
269.04298843668698
  0
LINE
  8
_1-0_
  6
CONTINUOUS
 62
    7
 10
350.0667434513332
 20
273.3763217700199
 11
351.90007678466634
 21
273.3763217700199
  0
ARC
  8
_1-0_
  6
CONTINUOUS
 62
    7
 10
350.0667434513332
 20
273.04298843668658
 40
0.3333333333333
 50
90
 51
180
  0
LINE
  8
_1-0_
  6
CONTINUOUS
 62
    7
 10
349.73341011799982
 20
274.04298843668653
 11
350.80007678466643
 21
274.04298843668653
  0
LINE
  8
_1-0_
  6
CONTINUOUS
 62
    7
 10
351.00007678466636
 20
274.04298843668653
 11
352.06674345133297
 21
274.04298843668653
  0
LINE
  8
_1-0_
  6
CONTINUOUS
 62
    7
 10
349.73341011799982
 20
274.04298843668653
 11
349.73341011799982
 21
274.37632177001979
  0
LINE
  8
_1-0_
  6
CONTINUOUS
 62
    7
 10
352.06674345133297
 20
274.37632177001979
 11
352.06674345133297
 21
274.04298843668653
  0
LINE
  8
_1-0_
  6
CONTINUOUS
 62
    7
 10
350.90007678466645
 20
273.94298843668651
 11
350.80007678466643
 21
274.04298843668653
  0
LINE
  8
_1-0_
  6
CONTINUOUS
 62
    7
 10
350.90007678466645
 20
273.94298843668651
 11
351.00007678466648
 21
274.04298843668653
  0
LINE
  8
_1-0_
  6
CONTINUOUS
 62
    7
 10
349.90007678466657
 20
268.87632177002035
 11
359.23341011799891
 21
268.87632177002035
  0
LINE
  8
_1-0_
  6
CONTINUOUS
 62
    7
 10
359.90007678466554
 20
269.70965543668694
 11
360.23340978466547
 21
269.70965543668694
  0
ARC
  8
_1-0_
  6
CONTINUOUS
 62
    7
 10
359.50007678466557
 20
270.60965543668686
 40
0.09999999999999
 50
90
 51
180
  0
LINE
  8
_1-0_
  6
CONTINUOUS
 62
    7
 10
359.938064108822
 20
270.59569335025549
 11
360.23340978466547
 21
269.70965543668694
  0
LINE
  8
_1-0_
  6
CONTINUOUS
 62
    7
 10
359.7799502100022
 20
270.70965543668683
 11
359.50007678466557
 21
270.70965543668683
  0
ARC
  8
_1-0_
  6
CONTINUOUS
 62
    7
 10
359.7799502100022
 20
270.5429887700202
 40
0.16666666666665
 50
18.43493163418103
 51
90.000000000000014
  0
LINE
  8
_1-0_
  6
CONTINUOUS
 62
    7
 10
359.90007678466554
 20
269.70965543668694
 11
359.90007678466554
 21
269.04298843668698
  0
ARC
  8
_1-0_
  6
CONTINUOUS
 62
    7
 10
360.06674345133217
 20
269.04298843668698
 40
0.16666666666665
 50
180
 51
270
  0
LINE
  8
_1-0_
  6
CONTINUOUS
 62
    7
 10
359.40007678466566
 20
270.60965543668686
 11
359.40007678466566
 21
269.04298843668698
  0
ARC
  8
_1-0_
  6
CONTINUOUS
 62
    7
 10
359.23341011799891
 20
269.04298843668698
 40
0.16666666666665
 50
270
 51
0
  0
LINE
  8
_1-0_
  6
CONTINUOUS
 62
    7
 10
360.06674345133217
 20
268.87632177002035
 11
379.40007711799694
 21
268.87632177002035
  0
ARC
  8
_1-0_
  6
CONTINUOUS
 62
    7
 10
379.40007711799694
 20
269.04298843668698
 40
0.16666666666665
 50
270
 51
0
  0
ARC
  8
_1-0_
  6
CONTINUOUS
 62
    7
 10
379.90007711799683
 20
268.54298843668704
 40
0.16666666666665
 50
270
 51
0
  0
ARC
  8
_1-0_
  6
CONTINUOUS
 62
    7
 10
379.81674378466357
 20
271.45965510335344
 40
0.2499999999999749
 50
0
 51
180
  0
LINE
  8
_1-0_
  6
CONTINUOUS
 62
    7
 10
380.06674378466346
 20
271.45965510335344
 11
380.06674378466346
 21
268.54298843668704
  0
LINE
  8
_1-0_
  6
CONTINUOUS
 62
    7
 10
379.56674378466357
 20
271.45965510335344
 11
379.56674378466357
 21
269.04298843668698
  0
LINE
  8
_1-0_
  6
CONTINUOUS
 62
    4
 10
358.90008178466564
 20
269.37632177002035
 11
352.90008178466621
 21
269.37632177002035
  0
LINE
  8
_1-0_
  6
CONTINUOUS
 62
    4
 10
352.90008178466621
 20
269.37632177002035
 11
352.90008178466621
 21
268.87632177002035
  0
LINE
  8
_1-0_
  6
CONTINUOUS
 62
    4
 10
358.90008178466564
 20
269.37632177002035
 11
358.90008178466564
 21
268.87632177002035
  0
LINE
  8
_1-0_
  6
CONTINUOUS
 62
    4
 10
355.90008178466587
 20
268.77632677002038
 11
356.00008178466589
 21
268.8763267700204
  0
LINE
  8
_1-0_
  6
CONTINUOUS
 62
    4
 10
355.90008178466587
 20
268.77632677002038
 11
355.80008678466595
 21
268.87632177002035
  0
ARC
  8
_1-0_
  6
CONTINUOUS
 62
    4
 10
355.43324878466592
 20
269.39265493421544
 40
0.7999999999999201
 50
125.70005900000093
 51
181.16985799999733
  0
ARC
  8
_1-0_
  6
CONTINUOUS
 62
    4
 10
355.90008178466587
 20
268.74298893421553
 40
1.5999999999998402
 50
54.299960999999939
 51
90
  0
ARC
  8
_1-0_
  6
CONTINUOUS
 62
    4
 10
356.36691478466594
 20
269.39265493421544
 40
0.7999999999999201
 50
358.8301420000027
 51
54.299940999999166
  0
ARC
  8
_1-0_
  6
CONTINUOUS
 62
    4
 10
355.90008178466587
 20
268.74298893421553
 40
1.5999999999998402
 50
90
 51
125.70003900000066
  0
LINE
  8
_1-0_
  6
CENTER1
 62
    4
 10
355.90007678466588
 20
258.82214065534885
 11
355.90007678466588
 21
270.99632777002012
  0
LINE
  8
_1-0_
  6
CONTINUOUS
 62
    7
 10
355.80007678466598
 20
268.87632177002035
 11
355.90007678466588
 21
268.77632177002033
  0
LINE
  8
_1-0_
  6
CONTINUOUS
 62
    7
 10
355.900076784666
 20
268.77632177002039
 11
356.00007678466591
 21
268.87632177002035
  0
LINE
  8
_1-0_
  6
CONTINUOUS
 62
    4
 10
358.23341011799903
 20
268.37632177002041
 11
358.23341011799903
 21
268.87632177002035
  0
LINE
  8
_1-0_
  6
CONTINUOUS
 62
    4
 10
353.56674345133285
 20
268.37632177002041
 11
353.56674345133285
 21
268.87632177002035
  0
LINE
  8
_1-0_
  6
CONTINUOUS
 62
    4
 10
354.74427278466601
 20
263.42622777002089
 11
354.32043178466608
 21
264.59072277002076
  0
LINE
  8
_1-0_
  6
CONTINUOUS
 62
    4
 10
354.65268478466601
 20
261.67862577002109
 11
355.13891578466598
 21
261.40280077002109
  0
LINE
  8
_1-0_
  6
CONTINUOUS
 62
    4
 10
355.13891578466598
 20
261.40280077002109
 11
355.112747784666
 21
260.90348577002112
  0
LINE
  8
_1-0_
  6
CONTINUOUS
 62
    4
 10
355.112747784666
 20
260.90348577002112
 11
354.61343278466609
 21
260.92965377002116
  0
LINE
  8
_1-0_
  6
CONTINUOUS
 62
    4
 10
354.67885278466599
 20
262.177940770021
 11
354.65268478466601
 21
261.67862577002109
  0
LINE
  8
_1-0_
  6
CONTINUOUS
 62
    4
 10
354.71810478466602
 20
262.92691277002092
 11
355.204335784666
 21
262.65108677002098
  0
LINE
  8
_1-0_
  6
CONTINUOUS
 62
    4
 10
355.204335784666
 20
262.65108677002098
 11
355.17816778466602
 21
262.15177277002107
  0
LINE
  8
_1-0_
  6
CONTINUOUS
 62
    4
 10
355.17816778466602
 20
262.15177277002107
 11
354.67885278466599
 21
262.177940770021
  0
LINE
  8
_1-0_
  6
CONTINUOUS
 62
    4
 10
354.74427278466601
 20
263.42622777002089
 11
354.71810478466602
 21
262.92691277002092
  0
LINE
  8
_1-0_
  6
CONTINUOUS
 62
    4
 10
354.78352478466604
 20
264.17519977002081
 11
355.26975578466602
 21
263.89937377002087
  0
LINE
  8
_1-0_
  6
CONTINUOUS
 62
    4
 10
355.26975578466602
 20
263.89937377002087
 11
355.24358778466603
 21
263.4000597700209
  0
LINE
  8
_1-0_
  6
CONTINUOUS
 62
    4
 10
355.24358778466603
 20
263.4000597700209
 11
354.74427278466601
 21
263.42622777002089
  0
LINE
  8
_1-0_
  6
CONTINUOUS
 62
    4
 10
354.80969278466603
 20
264.67451477002072
 11
354.78352478466604
 21
264.17519977002081
  0
LINE
  8
_1-0_
  6
CONTINUOUS
 62
    4
 10
355.33517578466603
 20
265.14766077002076
 11
355.30900778466605
 21
264.64834677002079
  0
LINE
  8
_1-0_
  6
CONTINUOUS
 62
    4
 10
355.30900778466605
 20
264.64834677002079
 11
354.80969278466603
 21
264.67451477002072
  0
LINE
  8
_1-0_
  6
CONTINUOUS
 62
    4
 10
354.65008178466599
 20
268.37632177002041
 11
354.90008178466599
 21
267.12632177002052
  0
LINE
  8
_1-0_
  6
CONTINUOUS
 62
    4
 10
354.90008178466599
 20
265.3763217700207
 11
355.33517578466603
 21
265.14766077002076
  0
LINE
  8
_1-0_
  6
CONTINUOUS
 62
    4
 10
355.77508178466587
 20
266.37632177002058
 11
355.90008178466587
 21
266.37632177002058
  0
LINE
  8
_1-0_
  6
CONTINUOUS
 62
    4
 10
357.14747878466585
 20
261.67862577002109
 11
356.66124778466587
 21
261.40280077002109
  0
LINE
  8
_1-0_
  6
CONTINUOUS
 62
    4
 10
356.66124778466587
 20
261.40280077002109
 11
356.68741578466586
 21
260.90348577002112
  0
LINE
  8
_1-0_
  6
CONTINUOUS
 62
    4
 10
356.68741578466586
 20
260.90348577002112
 11
357.18673078466577
 21
260.92965377002116
  0
LINE
  8
_1-0_
  6
CONTINUOUS
 62
    4
 10
357.12131078466575
 20
262.177940770021
 11
357.14747878466585
 21
261.67862577002109
  0
LINE
  8
_1-0_
  6
CONTINUOUS
 62
    4
 10
357.08205878466583
 20
262.92691277002092
 11
356.59582778466586
 21
262.65108677002098
  0
LINE
  8
_1-0_
  6
CONTINUOUS
 62
    4
 10
356.59582778466586
 20
262.65108677002098
 11
356.62199578466584
 21
262.15177277002107
  0
LINE
  8
_1-0_
  6
CONTINUOUS
 62
    4
 10
356.62199578466584
 20
262.15177277002107
 11
357.12131078466575
 21
262.177940770021
  0
LINE
  8
_1-0_
  6
CONTINUOUS
 62
    4
 10
357.05589078466585
 20
263.42622777002089
 11
357.08205878466583
 21
262.92691277002092
  0
LINE
  8
_1-0_
  6
CONTINUOUS
 62
    4
 10
357.01663878466582
 20
264.17519977002081
 11
356.53040778466584
 21
263.89937377002087
  0
LINE
  8
_1-0_
  6
CONTINUOUS
 62
    4
 10
356.53040778466584
 20
263.89937377002087
 11
356.55657578466582
 21
263.4000597700209
  0
LINE
  8
_1-0_
  6
CONTINUOUS
 62
    4
 10
356.55657578466582
 20
263.4000597700209
 11
357.05589078466585
 21
263.42622777002089
  0
LINE
  8
_1-0_
  6
CONTINUOUS
 62
    4
 10
356.99047078466583
 20
264.67451477002072
 11
357.01663878466582
 21
264.17519977002081
  0
LINE
  8
_1-0_
  6
CONTINUOUS
 62
    4
 10
356.46498778466594
 20
265.14766077002076
 11
356.49115578466592
 21
264.64834677002079
  0
LINE
  8
_1-0_
  6
CONTINUOUS
 62
    4
 10
356.49115578466592
 20
264.64834677002079
 11
356.99047078466583
 21
264.67451477002072
  0
LINE
  8
_1-0_
  6
CONTINUOUS
 62
    4
 10
355.90008178466587
 20
267.12632177002052
 11
355.90008178466587
 21
268.37632177002041
  0
LINE
  8
_1-0_
  6
CONTINUOUS
 62
    4
 10
355.65008178466599
 20
268.37632177002041
 11
355.90008178466587
 21
267.12632177002052
  0
LINE
  8
_1-0_
  6
CONTINUOUS
 62
    4
 10
356.15008178466587
 20
268.37632177002041
 11
355.90008178466587
 21
267.12632177002052
  0
LINE
  8
_1-0_
  6
CONTINUOUS
 62
    4
 10
357.15008178466576
 20
268.37632177002041
 11
356.90008178466576
 21
267.12632177002052
  0
LINE
  8
_1-0_
  6
CONTINUOUS
 62
    4
 10
356.90008178466576
 20
265.3763217700207
 11
356.46498778466594
 21
265.14766077002076
  0
LINE
  8
_1-0_
  6
CONTINUOUS
 62
    4
 10
356.02508178466587
 20
266.37632177002058
 11
355.90008178466587
 21
266.37632177002058
  0
LINE
  8
_1-0_
  6
CONTINUOUS
 62
    4
 10
357.47973178466577
 20
264.59072277002076
 11
357.72782078466571
 21
266.29162777002063
  0
ARC
  8
_1-0_
  6
CONTINUOUS
 62
    4
 10
357.62886778466577
 20
266.30606077002062
 40
0.09999999999999
 50
351.7015339999964
 51
81.869897999975933
  0
LINE
  8
_1-0_
  6
CONTINUOUS
 62
    4
 10
357.64300978466576
 20
266.40505577002062
 11
357.59380378466574
 21
266.41208477002056
  0
ARC
  8
_1-0_
  6
CONTINUOUS
 62
    4
 10
357.57966178466575
 20
266.31309077002061
 40
0.09999999999999
 50
81.869897999992077
 51
171.86989800000819
  0
LINE
  8
_1-0_
  6
CONTINUOUS
 62
    4
 10
357.4806667846658
 20
266.3272327700206
 11
357.24480878466579
 21
264.67622777002077
  0
LINE
  8
_1-0_
  6
CONTINUOUS
 62
    4
 10
354.32043178466608
 20
264.59072277002076
 11
354.07234278466615
 21
266.29162777002063
  0
ARC
  8
_1-0_
  6
CONTINUOUS
 62
    4
 10
354.17129578466609
 20
266.30606077002062
 40
0.09999999999999
 50
98.130101999991808
 51
188.29846600000593
  0
LINE
  8
_1-0_
  6
CONTINUOUS
 62
    4
 10
354.15715378466609
 20
266.40505577002062
 11
354.20635978466612
 21
266.41208477002056
  0
ARC
  8
_1-0_
  6
CONTINUOUS
 62
    4
 10
354.22050178466611
 20
266.31309077002061
 40
0.09999999999999
 50
8.1301019999918065
 51
98.130101999991808
  0
LINE
  8
_1-0_
  6
CONTINUOUS
 62
    4
 10
354.31949678466606
 20
266.3272327700206
 11
354.55535478466606
 21
264.67622777002077
  0
LINE
  8
_1-0_
  6
CONTINUOUS
 62
    4
 10
357.05589078466585
 20
263.42622777002089
 11
357.47973178466577
 21
264.59072277002076
  0
LINE
  8
_1-0_
  6
CONTINUOUS
 62
    4
 10
354.54801278466607
 20
259.68136677002121
 11
354.52184478466609
 21
259.1820517700213
  0
LINE
  8
_1-0_
  6
CONTINUOUS
 62
    4
 10
354.5872647846661
 20
260.43033877002119
 11
355.07349578466597
 21
260.15451377002125
  0
LINE
  8
_1-0_
  6
CONTINUOUS
 62
    4
 10
355.07349578466597
 20
260.15451377002125
 11
355.04732778466598
 21
259.65519877002129
  0
LINE
  8
_1-0_
  6
CONTINUOUS
 62
    4
 10
355.04732778466598
 20
259.65519877002129
 11
354.54801278466607
 21
259.68136677002121
  0
LINE
  8
_1-0_
  6
CONTINUOUS
 62
    4
 10
357.25214978466579
 20
259.68136677002121
 11
357.27831778466577
 21
259.1820517700213
  0
LINE
  8
_1-0_
  6
CONTINUOUS
 62
    4
 10
357.21289878466575
 20
260.43033877002119
 11
356.72666778466589
 21
260.15451377002125
  0
LINE
  8
_1-0_
  6
CONTINUOUS
 62
    4
 10
356.72666778466589
 20
260.15451377002125
 11
356.75283578466588
 21
259.65519877002129
  0
LINE
  8
_1-0_
  6
CONTINUOUS
 62
    4
 10
356.75283578466588
 20
259.65519877002129
 11
357.25214978466579
 21
259.68136677002121
  0
LINE
  8
_1-0_
  6
CONTINUOUS
 62
    4
 10
356.36744278466585
 20
259.8436827700213
 11
355.90008178466587
 21
259.37632177002132
  0
LINE
  8
_1-0_
  6
CONTINUOUS
 62
    4
 10
354.61343278466609
 20
260.92965377002116
 11
354.5872647846661
 21
260.43033877002119
  0
LINE
  8
_1-0_
  6
CONTINUOUS
 62
    4
 10
355.39564578466593
 20
259.13625777002136
 11
354.52184478466609
 21
259.1820517700213
  0
LINE
  8
_1-0_
  6
CONTINUOUS
 62
    4
 10
354.52184478466609
 20
259.1820517700213
 11
354.99499178466601
 21
258.65656877002135
  0
LINE
  8
_1-0_
  6
CONTINUOUS
 62
    4
 10
354.99499178466601
 20
258.65656877002135
 11
355.36947778466595
 21
258.63694277002134
  0
LINE
  8
_1-0_
  6
CONTINUOUS
 62
    4
 10
355.36947778466595
 20
258.63694277002134
 11
355.77508178466587
 21
266.37632177002058
  0
LINE
  8
_1-0_
  6
CONTINUOUS
 62
    4
 10
357.18673078466577
 20
260.92965377002116
 11
357.21289878466575
 21
260.43033877002119
  0
LINE
  8
_1-0_
  6
CONTINUOUS
 62
    4
 10
356.40451778466593
 20
259.13625777002136
 11
357.27831778466577
 21
259.1820517700213
  0
LINE
  8
_1-0_
  6
CONTINUOUS
 62
    4
 10
357.27831778466577
 20
259.1820517700213
 11
356.80517178466584
 21
258.65656877002135
  0
LINE
  8
_1-0_
  6
CONTINUOUS
 62
    4
 10
356.80517178466584
 20
258.65656877002135
 11
356.43068578466591
 21
258.63694277002134
  0
LINE
  8
_1-0_
  6
CONTINUOUS
 62
    4
 10
356.43068578466591
 20
258.63694277002134
 11
356.02508178466587
 21
266.37632177002058
  0
LINE
  8
_1-0_
  6
CONTINUOUS
 62
    4
 10
355.90008178466587
 20
259.37632177002132
 11
355.4327204193936
 21
259.84368313529365
  0
LINE
  8
_1-0_
  6
CONTINUOUS
 62
    4
 10
354.90008178466599
 20
268.37632177002041
 11
354.90008178466599
 21
265.3763217700207
  0
LINE
  8
_1-0_
  6
CONTINUOUS
 62
    4
 10
356.90008178466576
 20
268.37632177002041
 11
356.90008178466576
 21
265.3763217700207
  0
LINE
  8
_1-0_
  6
CONTINUOUS
 62
    4
 10
356.78467232303581
 20
263.41201380748436
 11
357.24480878466579
 21
264.67622777002077
  0
LINE
  8
_1-0_
  6
CONTINUOUS
 62
    4
 10
355.01549124629605
 20
263.41201380748436
 11
354.55535478466606
 21
264.67622777002077
  0
LINE
  8
_1-0_
  6
CONTINUOUS
 62
    7
 10
348.90007678466657
 20
272.37632177002001
 11
349.23341011799994
 21
273.04298823722695
  0
LINE
  8
_1-0_
  6
CONTINUOUS
 62
    7
 10
349.23341011799994
 20
272.37632177002001
 11
348.90007678466657
 21
272.37632177002001
  0
LINE
  8
_1-0_
  6
CONTINUOUS
 62
    4
 10
355.90007678466588
 20
258.82214065534885
 11
355.90007678466588
 21
239.37632210335664
  0
POINT
  8
_1-0_
 62
    4
 10
355.90007678466588
 20
239.37632210335664
  0
LINE
  8
_1-0_
  6
CONTINUOUS
 62
    4
 10
380.06674378466346
 20
267.57308102175705
 11
380.06674378466346
 21
255.37632143668839
  0
POINT
  8
_1-0_
 62
    4
 10
380.06674378466346
 20
255.37632143668839
  0
LINE
  8
_1-0_
  6
CONTINUOUS
 62
    7
 10
379.90007711799683
 20
268.37632177002041
 11
334.06673450826042
 21
268.37632177002041
  0
LINE
  8
_1-0_
  6
CONTINUOUS
 62
    4
 10
355.90007678466588
 20
239.37632210335664
 11
367.06673350825713
 21
239.37632210335664
  0
LINE
  8
_1-0_
  6
CONTINUOUS
 62
    4
 10
367.06673350825713
 20
255.37632143668839
 11
380.06674378466346
 21
255.37632143668839
  0
LINE
  8
_1-0_
  6
CONTINUOUS
 62
    7
 10
349.23341011799994
 20
269.54298843668693
 11
346.06673704361447
 21
269.54298843668693
  0
LINE
  8
_1-0_
  6
CONTINUOUS
 62
    7
 10
349.23341011799994
 20
269.04298843668698
 11
346.06673704361447
 21
269.04298843668698
  0
LINE
  8
_1-0_
  6
CONTINUOUS
 62
    4
 10
349.19778743528536
 20
269.04298843668698
 11
348.53112076861873
 21
268.37632177002041
  0
LINE
  8
_1-0_
  6
CONTINUOUS
 62
    4
 10
349.23341011799994
 20
268.60720659861056
 11
349.00252528940973
 21
268.37632177002041
  0
LINE
  8
_1-0_
  6
CONTINUOUS
 62
    4
 10
448.70005689850791
 20
275.0429884366863
 11
448.70005689850791
 21
274.94298843668633
  0
LINE
  8
_1-0_
  6
CONTINUOUS
 62
    4
 10
448.70005689850791
 20
274.94298843668633
 11
449.47783489850781
 21
274.27632243668637
  0
LINE
  8
_1-0_
  6
CONTINUOUS
 62
    4
 10
448.70005689850791
 20
274.94298843668633
 11
451.10005689850766
 21
274.94298843668633
  0
LINE
  8
_1-0_
  6
CONTINUOUS
 62
    4
 10
451.10005689850766
 20
275.0429884366863
 11
451.10005689850766
 21
274.94298843668633
  0
LINE
  8
_1-0_
  6
CONTINUOUS
 62
    4
 10
451.10005689850766
 20
274.94298843668633
 11
450.32227889850776
 21
274.27632243668637
  0
ARC
  8
_1-0_
  6
CONTINUOUS
 62
    7
 10
450.90005689850773
 20
269.04298843668687
 40
0.16666666666665
 50
270
 51
0
  0
ARC
  8
_1-0_
  6
CONTINUOUS
 62
    7
 10
451.40005689850761
 20
274.37632177001967
 40
0.16666666666665
 50
0
 51
90
  0
LINE
  8
_1-0_
  6
CONTINUOUS
 62
    7
 10
451.56672356517436
 20
268.37632177002024
 11
451.56672356517436
 21
272.37632177001984
  0
LINE
  8
_1-0_
  6
CONTINUOUS
 62
    7
 10
451.56672356517436
 20
273.04298823722684
 11
451.56672356517436
 21
274.37632177001967
  0
ARC
  8
_1-0_
  6
CONTINUOUS
 62
    7
 10
450.90005689850773
 20
269.04298843668687
 40
0.16666666666665
 50
270
 51
0
  0
ARC
  8
_1-0_
  6
CONTINUOUS
 62
    7
 10
448.90005689850796
 20
274.04298843668636
 40
0.6666666666666
 50
180
 51
270
  0
ARC
  8
_1-0_
  6
CONTINUOUS
 62
    7
 10
451.23339023184099
 20
274.37632177001967
 40
0.16666666666665
 50
90
 51
180
  0
ARC
  8
_1-0_
  6
CONTINUOUS
 62
    7
 10
448.56672356517458
 20
274.37632177001967
 40
0.16666666666665
 50
0
 51
90
  0
LINE
  8
_1-0_
  6
CONTINUOUS
 62
    7
 10
448.23339023184133
 20
274.37632177001967
 11
448.23339023184133
 21
274.04298843668636
  0
ARC
  8
_1-0_
  6
CONTINUOUS
 62
    7
 10
448.40005689850796
 20
274.37632177001967
 40
0.16666666666665
 50
90
 51
180
  0
LINE
  8
_1-0_
  6
CONTINUOUS
 62
    7
 10
451.06672356517436
 20
273.04298843668647
 11
451.06672356517436
 21
269.04298843668687
  0
LINE
  8
_1-0_
  6
CONTINUOUS
 62
    7
 10
450.7333902318411
 20
273.37632177001979
 11
448.90005689850796
 21
273.37632177001979
  0
ARC
  8
_1-0_
  6
CONTINUOUS
 62
    7
 10
450.7333902318411
 20
273.04298843668647
 40
0.3333333333333
 50
0
 51
90
  0
LINE
  8
_1-0_
  6
CONTINUOUS
 62
    7
 10
451.06672356517436
 20
274.04298843668636
 11
450.00005689850786
 21
274.04298843668636
  0
LINE
  8
_1-0_
  6
CONTINUOUS
 62
    7
 10
449.80005689850782
 20
274.04298843668636
 11
448.73339023184121
 21
274.04298843668636
  0
LINE
  8
_1-0_
  6
CONTINUOUS
 62
    7
 10
451.06672356517436
 20
274.04298843668636
 11
451.06672356517436
 21
274.37632177001967
  0
LINE
  8
_1-0_
  6
CONTINUOUS
 62
    7
 10
448.73339023184121
 20
274.37632177001967
 11
448.73339023184121
 21
274.04298843668636
  0
LINE
  8
_1-0_
  6
CONTINUOUS
 62
    7
 10
450.90005689850761
 20
268.87632177002024
 11
441.56672356517527
 21
268.87632177002024
  0
LINE
  8
_1-0_
  6
CONTINUOUS
 62
    7
 10
440.90005689850864
 20
269.70965543668683
 11
440.56672389850871
 21
269.70965543668683
  0
ARC
  8
_1-0_
  6
CONTINUOUS
 62
    7
 10
441.30005689850861
 20
270.60965543668675
 40
0.09999999999999
 50
0
 51
90
  0
LINE
  8
_1-0_
  6
CONTINUOUS
 62
    7
 10
440.86206957435218
 20
270.59569335025543
 11
440.56672389850871
 21
269.70965543668683
  0
LINE
  8
_1-0_
  6
CONTINUOUS
 62
    7
 10
441.0201834731721
 20
270.70965543668672
 11
441.30005689850861
 21
270.70965543668672
  0
ARC
  8
_1-0_
  6
CONTINUOUS
 62
    7
 10
441.0201834731721
 20
270.54298877002009
 40
0.16666666666665
 50
90
 51
161.56506836579734
  0
LINE
  8
_1-0_
  6
CONTINUOUS
 62
    7
 10
440.90005689850864
 20
269.70965543668683
 11
440.90005689850864
 21
269.04298843668693
  0
ARC
  8
_1-0_
  6
CONTINUOUS
 62
    7
 10
440.73339023184201
 20
269.04298843668693
 40
0.16666666666665
 50
270
 51
0
  0
LINE
  8
_1-0_
  6
CONTINUOUS
 62
    7
 10
441.40005689850864
 20
270.60965543668675
 11
441.40005689850852
 21
269.04298843668693
  0
ARC
  8
_1-0_
  6
CONTINUOUS
 62
    7
 10
441.56672356517527
 20
269.04298843668693
 40
0.16666666666665
 50
180
 51
270
  0
LINE
  8
_1-0_
  6
CONTINUOUS
 62
    7
 10
440.73339023184201
 20
268.87632177002024
 11
421.40005656517724
 21
268.8763217700203
  0
ARC
  8
_1-0_
  6
CONTINUOUS
 62
    7
 10
421.40005656517724
 20
269.04298843668698
 40
0.16666666666665
 50
180
 51
270
  0
ARC
  8
_1-0_
  6
CONTINUOUS
 62
    7
 10
420.90005656517735
 20
268.54298843668698
 40
0.16666666666665
 50
180
 51
270
  0
ARC
  8
_1-0_
  6
CONTINUOUS
 62
    7
 10
420.98338989851072
 20
271.45965510335338
 40
0.2499999999999749
 50
0
 51
180
  0
LINE
  8
_1-0_
  6
CONTINUOUS
 62
    7
 10
420.73338989851072
 20
271.45965510335338
 11
420.73338989851072
 21
268.54298843668698
  0
LINE
  8
_1-0_
  6
CONTINUOUS
 62
    7
 10
421.23338989851061
 20
271.45965510335338
 11
421.23338989851061
 21
269.04298843668698
  0
LINE
  8
_1-0_
  6
CONTINUOUS
 62
    4
 10
441.90005189850865
 20
269.37632177002024
 11
447.90005189850797
 21
269.37632177002024
  0
LINE
  8
_1-0_
  6
CONTINUOUS
 62
    4
 10
447.90005189850797
 20
269.37632177002024
 11
447.90005189850797
 21
268.87632177002024
  0
LINE
  8
_1-0_
  6
CONTINUOUS
 62
    4
 10
441.90005189850865
 20
269.37632177002024
 11
441.90005189850865
 21
268.87632177002024
  0
LINE
  8
_1-0_
  6
CONTINUOUS
 62
    4
 10
444.90005189850831
 20
268.77632677002026
 11
444.80005189850829
 21
268.87632677002028
  0
LINE
  8
_1-0_
  6
CONTINUOUS
 62
    4
 10
444.90005189850831
 20
268.77632677002026
 11
445.00004689850834
 21
268.87632177002024
  0
ARC
  8
_1-0_
  6
CONTINUOUS
 62
    4
 10
445.36688489850826
 20
269.39265493421533
 40
0.7999999999999201
 50
358.8301420000027
 51
54.299940999999166
  0
ARC
  8
_1-0_
  6
CONTINUOUS
 62
    4
 10
444.90005189850831
 20
268.74298893421536
 40
1.5999999999998402
 50
90
 51
125.70003899999924
  0
ARC
  8
_1-0_
  6
CONTINUOUS
 62
    4
 10
444.43321889850824
 20
269.39265493421533
 40
0.7999999999999201
 50
125.70005899999806
 51
181.1698579999973
  0
ARC
  8
_1-0_
  6
CONTINUOUS
 62
    4
 10
444.90005189850831
 20
268.74298893421536
 40
1.5999999999998402
 50
54.299960999999939
 51
90
  0
LINE
  8
_1-0_
  6
CENTER1
 62
    4
 10
444.9000568985083
 20
258.82214065534873
 11
444.9000568985083
 21
270.99632777002
  0
LINE
  8
_1-0_
  6
CONTINUOUS
 62
    7
 10
445.00005689850821
 20
268.87632177002024
 11
444.9000568985083
 21
268.77632177002022
  0
LINE
  8
_1-0_
  6
CONTINUOUS
 62
    7
 10
444.90005689850818
 20
268.77632177002022
 11
444.80005689850827
 21
268.87632177002024
  0
LINE
  8
_1-0_
  6
CONTINUOUS
 62
    4
 10
442.56672356517515
 20
268.3763217700203
 11
442.56672356517515
 21
268.87632177002024
  0
LINE
  8
_1-0_
  6
CONTINUOUS
 62
    4
 10
447.23339023184144
 20
268.3763217700203
 11
447.23339023184144
 21
268.87632177002024
  0
LINE
  8
_1-0_
  6
CONTINUOUS
 62
    4
 10
446.05586089850817
 20
263.42622777002077
 11
446.4797018985081
 21
264.59072277002065
  0
LINE
  8
_1-0_
  6
CONTINUOUS
 62
    4
 10
446.14744889850817
 20
261.67862577002097
 11
445.6612178985082
 21
261.40280077002097
  0
LINE
  8
_1-0_
  6
CONTINUOUS
 62
    4
 10
445.6612178985082
 20
261.40280077002097
 11
445.68738589850818
 21
260.90348577002101
  0
LINE
  8
_1-0_
  6
CONTINUOUS
 62
    4
 10
445.68738589850818
 20
260.90348577002101
 11
446.18670089850809
 21
260.92965377002105
  0
LINE
  8
_1-0_
  6
CONTINUOUS
 62
    4
 10
446.12128089850819
 20
262.17794077002088
 11
446.14744889850817
 21
261.67862577002097
  0
LINE
  8
_1-0_
  6
CONTINUOUS
 62
    4
 10
446.08202889850816
 20
262.92691277002081
 11
445.59579789850818
 21
262.65108677002087
  0
LINE
  8
_1-0_
  6
CONTINUOUS
 62
    4
 10
445.59579789850818
 20
262.65108677002087
 11
445.62196589850817
 21
262.1517727700209
  0
LINE
  8
_1-0_
  6
CONTINUOUS
 62
    4
 10
445.62196589850817
 20
262.1517727700209
 11
446.12128089850819
 21
262.17794077002088
  0
LINE
  8
_1-0_
  6
CONTINUOUS
 62
    4
 10
446.05586089850817
 20
263.42622777002077
 11
446.08202889850816
 21
262.92691277002081
  0
LINE
  8
_1-0_
  6
CONTINUOUS
 62
    4
 10
446.01660889850814
 20
264.1751997700207
 11
445.53037789850816
 21
263.89937377002076
  0
LINE
  8
_1-0_
  6
CONTINUOUS
 62
    4
 10
445.53037789850816
 20
263.89937377002076
 11
445.55654589850815
 21
263.40005977002073
  0
LINE
  8
_1-0_
  6
CONTINUOUS
 62
    4
 10
445.55654589850815
 20
263.40005977002073
 11
446.05586089850817
 21
263.42622777002077
  0
LINE
  8
_1-0_
  6
CONTINUOUS
 62
    4
 10
445.99044089850815
 20
264.67451477002061
 11
446.01660889850814
 21
264.1751997700207
  0
LINE
  8
_1-0_
  6
CONTINUOUS
 62
    4
 10
445.46495789850826
 20
265.14766077002059
 11
445.49112589850824
 21
264.64834677002068
  0
LINE
  8
_1-0_
  6
CONTINUOUS
 62
    4
 10
445.49112589850824
 20
264.64834677002068
 11
445.99044089850815
 21
264.67451477002061
  0
LINE
  8
_1-0_
  6
CONTINUOUS
 62
    4
 10
446.1500518985082
 20
268.3763217700203
 11
445.9000518985082
 21
267.12632177002041
  0
LINE
  8
_1-0_
  6
CONTINUOUS
 62
    4
 10
445.9000518985082
 20
265.37632177002058
 11
445.46495789850826
 21
265.14766077002059
  0
LINE
  8
_1-0_
  6
CONTINUOUS
 62
    4
 10
445.02505189850831
 20
266.37632177002047
 11
444.90005189850831
 21
266.37632177002047
  0
LINE
  8
_1-0_
  6
CONTINUOUS
 62
    4
 10
443.65265489850833
 20
261.67862577002097
 11
444.13888589850831
 21
261.40280077002097
  0
LINE
  8
_1-0_
  6
CONTINUOUS
 62
    4
 10
444.13888589850831
 20
261.40280077002097
 11
444.11271789850832
 21
260.90348577002101
  0
LINE
  8
_1-0_
  6
CONTINUOUS
 62
    4
 10
444.11271789850832
 20
260.90348577002101
 11
443.61340289850841
 21
260.92965377002105
  0
LINE
  8
_1-0_
  6
CONTINUOUS
 62
    4
 10
443.67882289850843
 20
262.17794077002088
 11
443.65265489850833
 21
261.67862577002097
  0
LINE
  8
_1-0_
  6
CONTINUOUS
 62
    4
 10
443.71807489850835
 20
262.92691277002081
 11
444.20430589850832
 21
262.65108677002087
  0
LINE
  8
_1-0_
  6
CONTINUOUS
 62
    4
 10
444.20430589850832
 20
262.65108677002087
 11
444.17813789850834
 21
262.1517727700209
  0
LINE
  8
_1-0_
  6
CONTINUOUS
 62
    4
 10
444.17813789850834
 20
262.1517727700209
 11
443.67882289850843
 21
262.17794077002088
  0
LINE
  8
_1-0_
  6
CONTINUOUS
 62
    4
 10
443.74424289850833
 20
263.42622777002077
 11
443.71807489850835
 21
262.92691277002081
  0
LINE
  8
_1-0_
  6
CONTINUOUS
 62
    4
 10
443.78349489850837
 20
264.1751997700207
 11
444.26972589850834
 21
263.89937377002076
  0
LINE
  8
_1-0_
  6
CONTINUOUS
 62
    4
 10
444.26972589850834
 20
263.89937377002076
 11
444.24355789850836
 21
263.40005977002073
  0
LINE
  8
_1-0_
  6
CONTINUOUS
 62
    4
 10
444.24355789850836
 20
263.40005977002073
 11
443.74424289850833
 21
263.42622777002077
  0
LINE
  8
_1-0_
  6
CONTINUOUS
 62
    4
 10
443.80966289850835
 20
264.67451477002066
 11
443.78349489850837
 21
264.1751997700207
  0
LINE
  8
_1-0_
  6
CONTINUOUS
 62
    4
 10
444.33514589850836
 20
265.14766077002059
 11
444.30897789850837
 21
264.64834677002068
  0
LINE
  8
_1-0_
  6
CONTINUOUS
 62
    4
 10
444.30897789850837
 20
264.64834677002068
 11
443.80966289850835
 21
264.67451477002066
  0
LINE
  8
_1-0_
  6
CONTINUOUS
 62
    4
 10
444.90005189850831
 20
267.12632177002041
 11
444.90005189850831
 21
268.3763217700203
  0
LINE
  8
_1-0_
  6
CONTINUOUS
 62
    4
 10
445.1500518985082
 20
268.3763217700203
 11
444.90005189850831
 21
267.12632177002041
  0
LINE
  8
_1-0_
  6
CONTINUOUS
 62
    4
 10
444.65005189850831
 20
268.3763217700203
 11
444.90005189850831
 21
267.12632177002041
  0
LINE
  8
_1-0_
  6
CONTINUOUS
 62
    4
 10
443.65005189850842
 20
268.3763217700203
 11
443.90005189850842
 21
267.12632177002041
  0
LINE
  8
_1-0_
  6
CONTINUOUS
 62
    4
 10
443.90005189850842
 20
265.37632177002058
 11
444.33514589850836
 21
265.14766077002059
  0
LINE
  8
_1-0_
  6
CONTINUOUS
 62
    4
 10
444.77505189850831
 20
266.37632177002047
 11
444.90005189850831
 21
266.37632177002047
  0
LINE
  8
_1-0_
  6
CONTINUOUS
 62
    4
 10
443.32040189850841
 20
264.59072277002065
 11
443.07231289850847
 21
266.29162777002051
  0
ARC
  8
_1-0_
  6
CONTINUOUS
 62
    4
 10
443.17126589850841
 20
266.30606077002051
 40
0.09999999999999
 50
98.130101999991808
 51
188.2984660000036
  0
LINE
  8
_1-0_
  6
CONTINUOUS
 62
    4
 10
443.15712389850842
 20
266.40505577002051
 11
443.20632989850844
 21
266.4120847700205
  0
ARC
  8
_1-0_
  6
CONTINUOUS
 62
    4
 10
443.22047189850844
 20
266.31309077002049
 40
0.09999999999999
 50
8.1301019999918065
 51
98.130101999991808
  0
LINE
  8
_1-0_
  6
CONTINUOUS
 62
    4
 10
443.31946689850838
 20
266.32723277002049
 11
443.55532489850839
 21
264.67622777002066
  0
LINE
  8
_1-0_
  6
CONTINUOUS
 62
    4
 10
446.4797018985081
 20
264.59072277002065
 11
446.72779089850803
 21
266.29162777002045
  0
ARC
  8
_1-0_
  6
CONTINUOUS
 62
    4
 10
446.6288378985081
 20
266.30606077002051
 40
0.09999999999999
 50
351.7015339999964
 51
81.869897999992091
  0
LINE
  8
_1-0_
  6
CONTINUOUS
 62
    4
 10
446.64297989850809
 20
266.40505577002051
 11
446.59377389850806
 21
266.41208477002044
  0
ARC
  8
_1-0_
  6
CONTINUOUS
 62
    4
 10
446.57963189850807
 20
266.31309077002049
 40
0.09999999999999
 50
81.869897999992077
 51
171.86989800000819
  0
LINE
  8
_1-0_
  6
CONTINUOUS
 62
    4
 10
446.48063689850812
 20
266.32723277002049
 11
446.24477889850812
 21
264.67622777002066
  0
LINE
  8
_1-0_
  6
CONTINUOUS
 62
    4
 10
443.74424289850833
 20
263.42622777002077
 11
443.32040189850841
 21
264.59072277002065
  0
LINE
  8
_1-0_
  6
CONTINUOUS
 62
    4
 10
446.25212089850811
 20
259.6813667700211
 11
446.27828889850809
 21
259.18205177002119
  0
LINE
  8
_1-0_
  6
CONTINUOUS
 62
    4
 10
446.21286889850819
 20
260.43033877002108
 11
445.72663789850822
 21
260.15451377002114
  0
LINE
  8
_1-0_
  6
CONTINUOUS
 62
    4
 10
445.72663789850822
 20
260.15451377002114
 11
445.7528058985082
 21
259.65519877002117
  0
LINE
  8
_1-0_
  6
CONTINUOUS
 62
    4
 10
445.7528058985082
 20
259.65519877002117
 11
446.25212089850811
 21
259.6813667700211
  0
LINE
  8
_1-0_
  6
CONTINUOUS
 62
    4
 10
443.54798389850839
 20
259.6813667700211
 11
443.52181589850841
 21
259.18205177002125
  0
LINE
  8
_1-0_
  6
CONTINUOUS
 62
    4
 10
443.58723489850843
 20
260.43033877002108
 11
444.07346589850829
 21
260.15451377002114
  0
LINE
  8
_1-0_
  6
CONTINUOUS
 62
    4
 10
444.07346589850829
 20
260.15451377002114
 11
444.0472978985083
 21
259.65519877002117
  0
LINE
  8
_1-0_
  6
CONTINUOUS
 62
    4
 10
444.0472978985083
 20
259.65519877002117
 11
443.54798389850839
 21
259.6813667700211
  0
LINE
  8
_1-0_
  6
CONTINUOUS
 62
    4
 10
444.43269089850833
 20
259.84368277002113
 11
444.90005189850831
 21
259.37632177002121
  0
LINE
  8
_1-0_
  6
CONTINUOUS
 62
    4
 10
446.18670089850809
 20
260.92965377002105
 11
446.21286889850819
 21
260.43033877002108
  0
LINE
  8
_1-0_
  6
CONTINUOUS
 62
    4
 10
445.40448789850814
 20
259.13625777002119
 11
446.27828889850809
 21
259.18205177002119
  0
LINE
  8
_1-0_
  6
CONTINUOUS
 62
    4
 10
446.27828889850809
 20
259.18205177002119
 11
445.80514189850817
 21
258.65656877002124
  0
LINE
  8
_1-0_
  6
CONTINUOUS
 62
    4
 10
445.80514189850817
 20
258.65656877002124
 11
445.43065589850823
 21
258.63694277002122
  0
LINE
  8
_1-0_
  6
CONTINUOUS
 62
    4
 10
445.43065589850823
 20
258.63694277002122
 11
445.02505189850831
 21
266.37632177002047
  0
LINE
  8
_1-0_
  6
CONTINUOUS
 62
    4
 10
443.61340289850841
 20
260.92965377002105
 11
443.58723489850843
 21
260.43033877002108
  0
LINE
  8
_1-0_
  6
CONTINUOUS
 62
    4
 10
444.39561589850825
 20
259.13625777002119
 11
443.52181589850841
 21
259.18205177002125
  0
LINE
  8
_1-0_
  6
CONTINUOUS
 62
    4
 10
443.52181589850841
 20
259.18205177002125
 11
443.99496189850834
 21
258.65656877002124
  0
LINE
  8
_1-0_
  6
CONTINUOUS
 62
    4
 10
443.99496189850834
 20
258.65656877002124
 11
444.36944789850827
 21
258.63694277002122
  0
LINE
  8
_1-0_
  6
CONTINUOUS
 62
    4
 10
444.36944789850827
 20
258.63694277002122
 11
444.77505189850831
 21
266.37632177002047
  0
LINE
  8
_1-0_
  6
CONTINUOUS
 62
    4
 10
444.90005189850831
 20
259.37632177002121
 11
445.36741326378058
 21
259.84368313529353
  0
LINE
  8
_1-0_
  6
CONTINUOUS
 62
    4
 10
445.9000518985082
 20
268.3763217700203
 11
445.9000518985082
 21
265.37632177002058
  0
LINE
  8
_1-0_
  6
CONTINUOUS
 62
    4
 10
443.90005189850842
 20
268.3763217700203
 11
443.90005189850842
 21
265.37632177002058
  0
LINE
  8
_1-0_
  6
CONTINUOUS
 62
    4
 10
444.01546136013837
 20
263.41201380748424
 11
443.55532489850839
 21
264.67622777002066
  0
LINE
  8
_1-0_
  6
CONTINUOUS
 62
    4
 10
445.78464243687824
 20
263.41201380748424
 11
446.24477889850812
 21
264.67622777002066
  0
LINE
  8
_1-0_
  6
CONTINUOUS
 62
    7
 10
451.90005689850761
 20
272.37632177001984
 11
451.56672356517436
 21
273.04298823722684
  0
LINE
  8
_1-0_
  6
CONTINUOUS
 62
    7
 10
451.56672356517436
 20
272.37632177001984
 11
451.90005689850761
 21
272.37632177001984
  0
LINE
  8
_1-0_
  6
CONTINUOUS
 62
    4
 10
450.32227889850776
 20
272.08372943668661
 11
450.32227889850776
 21
272.42862943668655
  0
LINE
  8
_1-0_
  6
CONTINUOUS
 62
    4
 10
449.47783489850781
 20
271.48788943668666
 11
450.32227889850776
 21
271.8014694366866
  0
LINE
  8
_1-0_
  6
CONTINUOUS
 62
    4
 10
449.47783489850781
 20
271.77014943668661
 11
450.32227889850776
 21
272.08372943668661
  0
LINE
  8
_1-0_
  6
CONTINUOUS
 62
    4
 10
449.23338989850788
 20
271.62901943668663
 11
450.56672389850769
 21
271.94259943668663
  0
LINE
  8
_1-0_
  6
CONTINUOUS
 62
    4
 10
449.23338989850788
 20
271.62901943668663
 11
449.47783489850781
 21
271.48788943668666
  0
LINE
  8
_1-0_
  6
CONTINUOUS
 62
    4
 10
449.23338989850788
 20
271.62901943668663
 11
449.47783489850781
 21
271.77014943668661
  0
LINE
  8
_1-0_
  6
CONTINUOUS
 62
    4
 10
450.56672389850769
 20
271.94259943668663
 11
450.32227889850776
 21
271.8014694366866
  0
LINE
  8
_1-0_
  6
CONTINUOUS
 62
    4
 10
450.32227889850776
 20
272.08372943668661
 11
450.56672389850769
 21
271.94259943668663
  0
LINE
  8
_1-0_
  6
CONTINUOUS
 62
    4
 10
449.47783489850781
 20
272.74221043668655
 11
449.47783489850781
 21
272.39730943668656
  0
LINE
  8
_1-0_
  6
CONTINUOUS
 62
    4
 10
450.32227889850776
 20
272.7108904366865
 11
450.32227889850776
 21
273.05579043668655
  0
LINE
  8
_1-0_
  6
CONTINUOUS
 62
    4
 10
449.47783489850781
 20
272.11504943668655
 11
450.32227889850776
 21
272.42862943668655
  0
LINE
  8
_1-0_
  6
CONTINUOUS
 62
    4
 10
449.47783489850781
 20
272.39730943668656
 11
450.32227889850776
 21
272.7108904366865
  0
LINE
  8
_1-0_
  6
CONTINUOUS
 62
    4
 10
449.23338989850788
 20
272.25617943668658
 11
450.56672389850769
 21
272.56975943668652
  0
LINE
  8
_1-0_
  6
CONTINUOUS
 62
    4
 10
449.23338989850788
 20
272.25617943668658
 11
449.47783489850781
 21
272.11504943668655
  0
LINE
  8
_1-0_
  6
CONTINUOUS
 62
    4
 10
449.23338989850788
 20
272.25617943668658
 11
449.47783489850781
 21
272.39730943668656
  0
LINE
  8
_1-0_
  6
CONTINUOUS
 62
    4
 10
450.56672389850769
 20
272.56975943668652
 11
450.32227889850776
 21
272.42862943668655
  0
LINE
  8
_1-0_
  6
CONTINUOUS
 62
    4
 10
450.32227889850776
 20
272.7108904366865
 11
450.56672389850769
 21
272.56975943668652
  0
LINE
  8
_1-0_
  6
CONTINUOUS
 62
    4
 10
449.47783489850781
 20
273.36937043668649
 11
449.47783489850781
 21
273.0244704366865
  0
LINE
  8
_1-0_
  6
CONTINUOUS
 62
    4
 10
450.32227889850776
 20
273.33805043668644
 11
450.32227889850776
 21
273.68295043668644
  0
LINE
  8
_1-0_
  6
CONTINUOUS
 62
    4
 10
449.47783489850781
 20
272.74221043668655
 11
450.32227889850776
 21
273.05579043668655
  0
LINE
  8
_1-0_
  6
CONTINUOUS
 62
    4
 10
449.47783489850781
 20
273.0244704366865
 11
450.32227889850776
 21
273.33805043668644
  0
LINE
  8
_1-0_
  6
CONTINUOUS
 62
    4
 10
449.23338989850788
 20
272.88334043668652
 11
450.56672389850769
 21
273.19692043668647
  0
LINE
  8
_1-0_
  6
CONTINUOUS
 62
    4
 10
449.23338989850788
 20
272.88334043668652
 11
449.47783489850781
 21
272.74221043668655
  0
LINE
  8
_1-0_
  6
CONTINUOUS
 62
    4
 10
449.23338989850788
 20
272.88334043668652
 11
449.47783489850781
 21
273.0244704366865
  0
LINE
  8
_1-0_
  6
CONTINUOUS
 62
    4
 10
450.56672389850769
 20
273.19692043668647
 11
450.32227889850776
 21
273.05579043668655
  0
LINE
  8
_1-0_
  6
CONTINUOUS
 62
    4
 10
450.32227889850776
 20
273.33805043668644
 11
450.56672389850769
 21
273.19692043668647
  0
LINE
  8
_1-0_
  6
CONTINUOUS
 62
    4
 10
449.47783489850781
 20
273.7309684366864
 11
449.47783489850781
 21
273.65163043668639
  0
LINE
  8
_1-0_
  6
CONTINUOUS
 62
    4
 10
450.32227889850776
 20
274.27632243668637
 11
450.32227889850776
 21
273.96521143668645
  0
LINE
  8
_1-0_
  6
CONTINUOUS
 62
    4
 10
449.47783489850781
 20
273.36937043668649
 11
450.32227889850776
 21
273.68295043668644
  0
LINE
  8
_1-0_
  6
CONTINUOUS
 62
    4
 10
449.47783489850781
 20
273.65163043668639
 11
450.32227889850776
 21
273.96521143668645
  0
LINE
  8
_1-0_
  6
CONTINUOUS
 62
    4
 10
449.23338989850788
 20
273.51050043668647
 11
450.56672389850769
 21
273.82408043668642
  0
LINE
  8
_1-0_
  6
CONTINUOUS
 62
    4
 10
449.23338989850788
 20
273.51050043668647
 11
449.47783489850781
 21
273.36937043668649
  0
LINE
  8
_1-0_
  6
CONTINUOUS
 62
    4
 10
449.23338989850788
 20
273.51050043668647
 11
449.47783489850781
 21
273.65163043668639
  0
LINE
  8
_1-0_
  6
CONTINUOUS
 62
    4
 10
450.32227889850776
 20
273.68295043668644
 11
450.56672389850769
 21
273.82408043668642
  0
LINE
  8
_1-0_
  6
CONTINUOUS
 62
    4
 10
450.32227889850776
 20
273.96521143668645
 11
450.56672389850769
 21
273.82408043668642
  0
LINE
  8
_1-0_
  6
CONTINUOUS
 62
    4
 10
449.47783489850781
 20
274.27632243668637
 11
449.47783489850781
 21
274.18941643668637
  0
LINE
  8
_1-0_
  6
CONTINUOUS
 62
    4
 10
449.90005689850784
 20
274.2050764366864
 11
449.23338989850788
 21
274.0482864366864
  0
LINE
  8
_1-0_
  6
CONTINUOUS
 62
    4
 10
449.23338989850788
 20
274.0482864366864
 11
449.47783489850781
 21
273.90715643668642
  0
LINE
  8
_1-0_
  6
CONTINUOUS
 62
    4
 10
449.23338989850788
 20
274.0482864366864
 11
449.47783489850781
 21
274.18941643668637
  0
LINE
  8
_1-0_
  6
CONTINUOUS
 62
    4
 10
449.47783489850781
 20
273.90715643668642
 11
449.47783489850781
 21
273.7309684366864
  0
LINE
  8
_1-0_
  6
CONTINUOUS
 62
    4
 10
449.90005689850784
 20
270.37632243668673
 11
449.90005689850784
 21
269.70965543668683
  0
LINE
  8
_1-0_
  6
CONTINUOUS
 62
    4
 10
450.32227889850776
 20
271.37632243668662
 11
449.4778398985078
 21
271.37632243668662
  0
LINE
  8
_1-0_
  6
CONTINUOUS
 62
    4
 10
449.90005689850784
 20
269.70965543668683
 11
449.47783489850781
 21
270.0175754366868
  0
LINE
  8
_1-0_
  6
CONTINUOUS
 62
    4
 10
449.90005689850784
 20
269.70965543668683
 11
450.32227889850776
 21
270.0175754366868
  0
ARC
  8
_1-0_
  6
CONTINUOUS
 62
    4
 10
450.02498089850781
 20
269.80145643668681
 40
0.588282999999941
 50
102.26032900000151
 51
158.44630399999687
  0
ARC
  8
_1-0_
  6
CONTINUOUS
 62
    4
 10
451.90215189850755
 20
270.1201294366868
 40
2.0184199999997983
 50
141.51097800000068
 51
172.70791800000006
  0
LINE
  8
_1-0_
  6
CONTINUOUS
 62
    4
 10
449.47783489850781
 20
271.48788943668666
 11
449.47783489850781
 21
271.37632243668662
  0
LINE
  8
_1-0_
  6
CONTINUOUS
 62
    4
 10
449.47783489850781
 20
274.27632243668637
 11
450.32227889850776
 21
274.27632243668637
  0
LINE
  8
_1-0_
  6
CONTINUOUS
 62
    4
 10
449.47783489850781
 20
274.18941643668637
 11
449.90005689850784
 21
274.2050764366864
  0
LINE
  8
_1-0_
  6
CONTINUOUS
 62
    4
 10
449.47783489850781
 20
273.90715643668642
 11
449.90005689850784
 21
274.2050764366864
  0
LINE
  8
_1-0_
  6
CONTINUOUS
 62
    4
 10
449.47783489850781
 20
271.37632243668662
 11
449.47783489850781
 21
270.0175754366868
  0
LINE
  8
_1-0_
  6
CONTINUOUS
 62
    4
 10
450.32227889850776
 20
271.8014694366866
 11
450.32227889850776
 21
270.0175754366868
  0
LINE
  8
_1-0_
  6
CONTINUOUS
 62
    4
 10
449.47783489850781
 20
272.11504943668655
 11
449.47783489850781
 21
271.77014943668661
  0
LINE
  8
_1-0_
  6
CONTINUOUS
 62
    7
 10
449.90005689850784
 20
273.94298843668639
 11
449.80005689850782
 21
274.04298843668636
  0
LINE
  8
_1-0_
  6
CONTINUOUS
 62
    7
 10
449.90005689850784
 20
273.94298843668639
 11
450.00005689850786
 21
274.04298843668636
  0
LINE
  8
_1-0_
  6
CONTINUOUS
 62
    4
 10
444.9000568985083
 20
239.37632210335659
 11
444.9000568985083
 21
258.82214065534885
  0
POINT
  8
_1-0_
 62
    4
 10
444.9000568985083
 20
239.37632210335659
  0
LINE
  8
_1-0_
  6
CONTINUOUS
 62
    4
 10
420.73338989851072
 20
267.57308102175705
 11
420.73338989851072
 21
255.37632143668833
  0
POINT
  8
_1-0_
 62
    4
 10
420.73338989851072
 20
255.37632143668833
  0
LINE
  8
_1-0_
  6
CONTINUOUS
 62
    4
 10
380.06674378466346
 20
255.37632143668839
 11
420.73338989851072
 21
255.37632143668833
  0
LINE
  8
_1-0_
  6
CONTINUOUS
 62
    4
 10
433.73340017491716
 20
239.37632210335659
 11
444.9000568985083
 21
239.37632210335659
  0
LINE
  8
_1-0_
  6
CONTINUOUS
 62
    7
 10
451.56672356517436
 20
269.54298843668681
 11
454.73339663955971
 21
269.54298843668681
  0
LINE
  8
_1-0_
  6
CONTINUOUS
 62
    7
 10
451.56672356517436
 20
269.04298843668687
 11
454.73339663955971
 21
269.04298843668687
  0
LINE
  8
_1-0_
  6
CONTINUOUS
 62
    4
 10
452.53600709104649
 20
269.04298843668687
 11
451.86934042438008
 21
268.37632177002041
  0
LINE
  8
_1-0_
  6
CONTINUOUS
 62
    4
 10
451.59319804946449
 20
269.04298843668687
 11
451.56672356517436
 21
269.01651395239662
  0
LINE
  8
_1-0_
  6
CONTINUOUS
 62
    4
 10
452.06460257025549
 20
269.04298843668687
 11
451.56672356517436
 21
268.54510943160568
  0
LINE
  8
_1-0_
  6
CONTINUOUS
 62
    4
 10
420.73338989851072
 20
255.37632143668833
 11
433.73340017491716
 21
255.37632143668833
  0
LINE
  8
_1-0_
  6
CONTINUOUS
 62
    7
 10
420.90005656517735
 20
268.37632177002041
 11
466.73339917491376
 21
268.37632177002041
  0
POINT
  8
_1-0_
 62
    4
 10
365.40006450573571
 20
281.70965510335236
  0
LINE
  8
_1-0_
  6
CONTINUOUS
 62
    4
 10
365.40006450573571
 20
281.70965510335236
 11
365.40006450573571
 21
275.56665133564678
  0
POINT
  8
_1-0_
 62
    4
 10
435.40006917743858
 20
281.70965510335236
  0
LINE
  8
_1-0_
  6
CONTINUOUS
 62
    4
 10
435.40006917743858
 20
281.70965510335236
 11
435.40006917743858
 21
275.56665133564678
  0
LINE
  8
_1-0_
  6
CONTINUOUS
 62
    4
 10
435.40006917743858
 20
281.70965510335236
 11
365.40006450573571
 21
281.70965510335236
  0
LINE
  8
_1-0_
  6
CONTINUOUS
 62
    7
 10
435.40006936684006
 20
273.37632177001979
 11
435.00006924057777
 21
273.37632177001979
  0
LINE
  8
_1-0_
  6
CONTINUOUS
 62
    7
 10
435.00006924057777
 20
273.3763214669894
 11
435.00007007391082
 21
272.27632189628326
  0
ARC
  8
_1-0_
  6
CONTINUOUS
 62
    7
 10
434.83340257391126
 20
272.27632177001999
 40
0.16666666666665
 50
270
 51
0.0000434059011844
  0
ARC
  8
_1-0_
  6
CONTINUOUS
 62
    7
 10
434.83340257391126
 20
272.27632177001999
 40
0.56666666666661
 50
270
 51
0.0000434058931185
  0
LINE
  8
_1-0_
  6
CONTINUOUS
 62
    7
 10
435.40006924057764
 20
273.37632177001973
 11
435.40007007391068
 21
272.27632219931354
  0
LINE
  8
_1-0_
  6
CONTINUOUS
 62
    7
 10
365.40006431633424
 20
273.3763217700199
 11
365.80006444259641
 21
273.3763217700199
  0
LINE
  8
_1-0_
  6
CONTINUOUS
 62
    7
 10
365.80006444259641
 20
273.37632146698951
 11
365.80006360926336
 21
272.27632189628338
  0
ARC
  8
_1-0_
  6
CONTINUOUS
 62
    7
 10
365.96673110926304
 20
272.2763217700201
 40
0.16666666666665
 50
179.99995659409885
 51
270
  0
ARC
  8
_1-0_
  6
CONTINUOUS
 62
    7
 10
365.96673110926304
 20
272.2763217700201
 40
0.56666666666661
 50
179.99995659410692
 51
270
  0
LINE
  8
_1-0_
  6
CONTINUOUS
 62
    7
 10
365.40006444259654
 20
273.37632177001979
 11
365.4000636092635
 21
272.27632219931365
  0
LINE
  8
_1-0_
  6
CONTINUOUS
 62
    7
 10
365.96673110926304
 20
272.10965510335336
 11
434.83340257391126
 21
272.10965510335336
  0
LINE
  8
_1-0_
  6
CONTINUOUS
 62
    7
 10
365.96673110926304
 20
271.70965510335338
 11
434.83340257391126
 21
271.70965510335338
  0
LINE
  8
_1-0_
  6
CONTINUOUS
 62
    4
 10
421.90006437945942
 20
272.20965510335327
 11
422.73339821784361
 21
272.20965510335327
  0
LINE
  8
_1-0_
  6
CONTINUOUS
 62
    4
 10
378.06673546533057
 20
272.20965510335333
 11
378.90006930371476
 21
272.20965510335333
  0
LINE
  8
_1-0_
  6
CONTINUOUS
 62
    4
 10
470.49133486866958
 20
116.05207063069911
 11
328.34133486866961
 21
116.05207063069911
  0
LINE
  8
_1-0_
  6
CONTINUOUS
 62
    4
 10
470.49133486866958
 20
122.05207063069911
 11
328.34133486866961
 21
122.05207063069911
  0
LINE
  8
_1-0_
  6
CONTINUOUS
 62
    4
 10
328.34133486866961
 20
116.05207063069911
 11
328.34133486866961
 21
180.85207063069913
  0
LINE
  8
_1-0_
  6
CONTINUOUS
 62
    4
 10
335.54133486866965
 20
116.05207063069911
 11
335.54133486866965
 21
180.85207063069913
  0
LINE
  8
_1-0_
  6
CONTINUOUS
 62
    4
 10
392.54133486866965
 20
116.05207063069911
 11
392.54133486866965
 21
180.85207063069913
  0
LINE
  8
_1-0_
  6
CONTINUOUS
 62
    4
 10
470.49133486866958
 20
116.05207063069911
 11
470.49133486866958
 21
180.85207063069913
  0
LINE
  8
_1-0_
  6
CONTINUOUS
 62
    4
 10
463.29133486866965
 20
116.05207063069911
 11
463.29133486866965
 21
180.85207063069913
  0
LINE
  8
_1-0_
  6
CONTINUOUS
 62
    4
 10
451.29133486866965
 20
116.05207063069911
 11
451.29133486866965
 21
180.85207063069913
  0
LINE
  8
_1-0_
  6
CONTINUOUS
 62
    4
 10
436.29133486866965
 20
116.05207063069911
 11
436.29133486866965
 21
180.85207063069913
  0
LINE
  8
_1-0_
  6
CONTINUOUS
 62
    4
 10
435.29133486866965
 20
116.05207063069911
 11
435.29133486866965
 21
180.85207063069913
  0
TEXT
  8
_1-0_
 62
    7
 10
355.09140208856763
 20
176.23090595951064
 40
3.2000000000000002
 41
1
 50
0
  1
部材名称
  0
TEXT
  8
_1-0_
 62
    7
 10
452.83564808856772
 20
176.23090595951064
 40
3.2000000000000002
 41
1
 50
0
  1
使用
  0
TEXT
  8
_1-0_
 62
    7
 10
406.66577758856772
 20
176.23090595951064
 40
3.2000000000000002
 41
1
 50
0
  1
規　格
  0
TEXT
  8
_1-0_
 62
    7
 10
437.79076658856764
 20
176.23090595951064
 40
3.2000000000000002
 41
1
 50
0
  1
定　尺
  0
TEXT
  8
_1-0_
 62
    7
 10
435.62793158856766
 20
171.43089945951064
 40
3.2000000000000002
 41
1
 50
0
  1
（ｍｍ）
  0
TEXT
  8
_1-0_
 62
    7
 10
452.83564808856772
 20
171.43089945951064
 40
3.2000000000000002
 41
1
 50
0
  1
数量
  0
TEXT
  8
_1-0_
 62
    7
 10
327.78145208856768
 20
165.45844495951062
 40
3.2000000000000002
 41
1
 50
0
  1
　１
  0
TEXT
  8
_1-0_
 62
    7
 10
436.55486108856769
 20
165.43089945951064
 40
3.2000000000000002
 41
1
 50
0
  1
３０００
  0
TEXT
  8
_1-0_
 62
    7
 10
456.64460558856763
 20
165.48088695951068
 40
3.2000000000000002
 41
1
 50
0
  1
２
  0
TEXT
  8
_1-0_
 62
    7
 10
464.28950908856768
 20
165.43089945951064
 40
3.2000000000000002
 41
1
 50
0
  1
本
  0
TEXT
  8
_1-0_
 62
    7
 10
330.87121608856762
 20
159.45844495951062
 40
3.2000000000000002
 41
1
 50
0
  1
２
  0
TEXT
  8
_1-0_
 62
    7
 10
436.55486108856769
 20
159.43089945951064
 40
3.2000000000000002
 41
1
 50
0
  1
３０００
  0
TEXT
  8
_1-0_
 62
    7
 10
456.64460558856763
 20
159.4808984595106
 40
3.2000000000000002
 41
1
 50
0
  1
１
  0
TEXT
  8
_1-0_
 62
    7
 10
464.28950908856768
 20
159.43089945951064
 40
3.2000000000000002
 41
1
 50
0
  1
〃
  0
TEXT
  8
_1-0_
 62
    7
 10
330.87121608856762
 20
153.45844495951062
 40
3.2000000000000002
 41
1
 50
0
  1
３
  0
TEXT
  8
_1-0_
 62
    7
 10
456.64460558856763
 20
153.48088695951068
 40
3.2000000000000002
 41
1
 50
0
  1
２
  0
TEXT
  8
_1-0_
 62
    7
 10
464.28950908856768
 20
153.43089945951064
 40
3.2000000000000002
 41
1
 50
0
  1
〃
  0
TEXT
  8
_1-0_
 62
    7
 10
330.87121608856762
 20
147.45844495951062
 40
3.2000000000000002
 41
1
 50
0
  1
４
  0
TEXT
  8
_1-0_
 62
    7
 10
330.87121608856762
 20
141.45845645951064
 40
3.2000000000000002
 41
1
 50
0
  1
５
  0
TEXT
  8
_1-0_
 62
    7
 10
330.87121608856762
 20
135.45845645951064
 40
3.2000000000000002
 41
1
 50
0
  1
６
  0
TEXT
  8
_1-0_
 62
    7
 10
330.87121608856762
 20
129.45845095951066
 40
3.2000000000000002
 41
1
 50
0
  1
７
  0
TEXT
  8
_1-0_
 62
    7
 10
330.87121608856762
 20
123.45845095951066
 40
3.2000000000000002
 41
1
 50
0
  1
８
  0
TEXT
  8
_1-0_
 62
    7
 10
335.68439158856768
 20
153.43089945951064
 40
3.2000000000000002
 41
1
 50
0
  1
ＵＵＨフレーム(Ｃ)
  0
TEXT
  8
_1-0_
 62
    7
 10
436.55486108856769
 20
153.43089945951064
 40
3.2000000000000002
 41
1
 50
0
  1
３０００
  0
TEXT
  8
_1-0_
 62
    7
 10
335.68439158856768
 20
129.43089945951064
 40
3.2000000000000002
 41
1
 50
0
  1
ステンタッピンねじ
  0
TEXT
  8
_1-0_
 62
    7
 10
453.55484158856768
 20
129.48089295951067
 40
3.2000000000000002
 41
1
 50
0
  1
１２
  0
TEXT
  8
_1-0_
 62
    7
 10
464.28950908856768
 20
129.43089945951064
 40
3.2000000000000002
 41
1
 50
0
  1
〃
  0
TEXT
  8
_1-0_
 62
    7
 10
456.64460558856763
 20
141.4808984595106
 40
3.2000000000000002
 41
1
 50
0
  1
２
  0
TEXT
  8
_1-0_
 62
    7
 10
436.55486108856769
 20
135.43089945951064
 40
3.2000000000000002
 41
1
 50
0
  1
３０１０
  0
TEXT
  8
_1-0_
 62
    7
 10
456.64460558856763
 20
135.4808984595106
 40
3.2000000000000002
 41
1
 50
0
  1
２
  0
TEXT
  8
_1-0_
 62
    7
 10
464.28950908856768
 20
135.43089945951064
 40
3.2000000000000002
 41
1
 50
0
  1
〃
  0
TEXT
  8
_1-0_
 62
    7
 10
392.68440858856775
 20
129.43089945951064
 40
3.2000000000000002
 41
1
 50
0
  1
なべ４×３０
  0
TEXT
  8
_1-0_
 62
    7
 10
335.68439708856766
 20
147.43090495951071
 40
3.2000000000000002
 41
1
 50
0
  1
アンカープラグ
  0
TEXT
  8
_1-0_
 62
    7
 10
392.68439708856766
 20
147.43090495951071
 40
3.2000000000000002
 41
1
 50
0
  1
フィッシャープラグＳ６
  0
TEXT
  8
_1-0_
 62
    7
 10
453.55484158856768
 20
147.48089295951073
 40
3.2000000000000002
 41
1
 50
0
  1
１２
  0
TEXT
  8
_1-0_
 62
    7
 10
465.78693599168184
 20
178.68216799638918
 40
3.2000000000000002
 41
1
 50
0
  1
単位
  7
TATEGAKI
  0
TEXT
  8
_1-0_
 62
    7
 10
307.28438408856766
 20
341.0308954595107
 40
3.2000000000000002
 41
1
 50
0
  1
（ステン２００タイプ）
  0
TEXT
  8
_1-0_
 62
    7
 10
317.28438408856766
 20
331.0308954595107
 40
3.2000000000000002
 41
1
 50
0
  1
◇内壁－内壁（２００ＫＫＨ－Ｓ）　Ｓ＝１／３
  0
TEXT
  8
_1-0_
 62
    7
 10
396.94311656148517
 20
291.88847993216291
 40
3.2000000000000002
 41
1
 50
0
  1
330
  0
TEXT
  8
_1-0_
 62
    7
 10
396.9431182079519
 20
286.88847993216336
 40
3.2000000000000002
 41
1
 50
0
  1
130
  0
TEXT
  8
_1-0_
 62
    7
 10
396.94311606148517
 20
281.88847993216393
 40
3.2000000000000002
 41
1
 50
0
  1
210
  0
TEXT
  8
_1-0_
 62
    7
 10
435.27644939481468
 20
286.88847993216336
 40
3.2000000000000002
 41
1
 50
0
  1
100
  0
TEXT
  8
_1-0_
 62
    7
 10
370.90978786635833
 20
255.55514626549993
 40
3.2000000000000002
 41
1
 50
0
  1
39
  0
TEXT
  8
_1-0_
 62
    7
 10
396.94311606148517
 20
255.55514626549987
 40
3.2000000000000002
 41
1
 50
0
  1
122
  0
TEXT
  8
_1-0_
 62
    7
 10
424.57644425661192
 20
255.55514626549987
 40
3.2000000000000002
 41
1
 50
0
  1
39
  0
TEXT
  8
_1-0_
 62
    7
 10
396.94311606148517
 20
239.55514693216813
 40
3.2000000000000002
 41
1
 50
0
  1
200
  0
TEXT
  8
_1-0_
 62
    7
 10
357.22645436635958
 20
239.55514693216819
 40
3.2000000000000002
 41
1
 50
0
  1
33.5
  0
TEXT
  8
_1-0_
 62
    7
 10
461.00978272814564
 20
270.28846783620378
 40
3.2000000000000002
 41
1
 50
90
  1
20
  0
TEXT
  8
_1-0_
 62
    7
 10
435.05977775661074
 20
239.55514693216813
 40
3.2000000000000002
 41
1
 50
0
  1
33.5
  0
TEXT
  8
_1-0_
 62
    7
 10
335.68439158856768
 20
165.43089945951064
 40
3.2000000000000002
 41
1
 50
0
  1
ＵＵＨサイドプレート(Ｃ)Ｓ
  0
TEXT
  8
_1-0_
 62
    7
 10
335.68439158856768
 20
141.43089945951064
 40
3.2000000000000002
 41
1
 50
0
  1
ガスケットＦ
  0
TEXT
  8
_1-0_
 62
    7
 10
335.68439158856768
 20
135.43089945951064
 40
3.2000000000000002
 41
1
 50
0
  1
ＵＵＨパッキンＳ
  0
TEXT
  8
_1-0_
 62
    7
 10
436.55486108856769
 20
141.43089945951064
 40
3.2000000000000002
 41
1
 50
0
  1
３０１０
  0
TEXT
  8
_1-0_
 62
    7
 10
330.87121608856762
 20
117.45845095951067
 40
3.2000000000000002
 41
1
 50
0
  1
９
  0
TEXT
  8
_1-0_
 62
    7
 10
335.68439158856768
 20
117.43090495951071
 40
3.2000000000000002
 41
1
 50
0
  1
ステンワッシャー
  0
TEXT
  8
_1-0_
 62
    7
 10
453.55484158856768
 20
117.48090395951067
 40
3.2000000000000002
 41
1
 50
0
  1
１２
  0
TEXT
  8
_1-0_
 62
    7
 10
464.28950908856768
 20
117.43090495951071
 40
3.2000000000000002
 41
1
 50
0
  1
枚
  0
TEXT
  8
_1-0_
 62
    7
 10
335.68439158856762
 20
123.4309049595107
 40
3.2000000000000002
 41
1
 50
0
  1
ステンシルタップ
  0
TEXT
  8
_1-0_
 62
    7
 10
392.68439708856766
 20
123.4309049595107
 40
3.2000000000000002
 41
1
 50
0
  1
皿４×１６
  0
TEXT
  8
_1-0_
 62
    7
 10
453.55484158856768
 20
123.48089295951068
 40
3.2000000000000002
 41
1
 50
0
  1
１２
  0
TEXT
  8
_1-0_
 62
    7
 10
464.28950908856768
 20
123.43089945951066
 40
3.2000000000000002
 41
1
 50
0
  1
〃
  0
TEXT
  8
_1-0_
 62
    7
 10
327.28438808856765
 20
109.23089845951066
 40
3.2000000000000002
 41
1
 50
0
  1
注）　ガスケットＦ及びＵＵＨパッキンＳはＵＵＨサイドプレート(Ｃ)Ｓにセット済み。
  0
TEXT
  8
_1-0_
 62
    7
 10
392.68440858856775
 20
117.43090495951071
 40
3.2000000000000002
 41
1
 50
0
  1
1.5×１８×5.5穴
  0
TEXT
  8
_1-0_
 62
    7
 10
464.28950908856768
 20
147.43089945951064
 40
3.2000000000000002
 41
1
 50
0
  1
〃
  0
TEXT
  8
_1-0_
 62
    7
 10
464.28950908856768
 20
141.43089945951064
 40
3.2000000000000002
 41
1
 50
0
  1
〃
  0
CIRCLE
  8
_1-c_
  6
CONTINUOUS
 62
    4
 10
343.45394195545634
 20
239.61404941266443
 40
1.6666666666666665
  0
LINE
  8
_1-c_
  6
CONTINUOUS
 62
    4
 10
354.61712328640294
 20
258.94924665196828
 11
344.28727528878971
 21
241.0574250856385
  0
CIRCLE
  8
_1-c_
  6
CONTINUOUS
 62
    4
 10
341.30204720896796
 20
278.71785780340576
 40
1.6666666666666665
  0
LINE
  8
_1-c_
  6
CONTINUOUS
 62
    4
 10
346.87055186404189
 20
269.07292481863396
 11
342.13538054230133
 21
277.27448213043169
  0
CIRCLE
  8
_1-c_
  6
CONTINUOUS
 62
    4
 10
382.11498787570554
 20
278.60037476484746
 40
1.6666666666666665
  0
LINE
  8
_1-c_
  6
CONTINUOUS
 62
    4
 10
379.09210686226959
 20
273.36459126434124
 11
381.28165454237217
 21
277.15699909187339
  0
CIRCLE
  8
_1-c_
  6
CONTINUOUS
 62
    4
 10
361.80153422649437
 20
279.34431495520948
 40
1.6666666666666665
  0
LINE
  8
_1-c_
  6
CONTINUOUS
 62
    4
 10
356.51287023440415
 20
270.18408021674918
 11
360.968200893161
 21
277.90093928223541
  0
CIRCLE
  8
_1-c_
  6
CONTINUOUS
 62
    4
 10
359.45445097790036
 20
283.59107052019652
 40
1.6666666666666665
  0
LINE
  8
_1-c_
  6
CONTINUOUS
 62
    4
 10
354.53649726410634
 20
275.0729248186334
 11
358.62111764456699
 21
282.14769484722245
  0
CIRCLE
  8
_1-c_
  6
CONTINUOUS
 62
    4
 10
437.32488153805764
 20
280.01567257724702
 40
1.6666666666666665
  0
LINE
  8
_1-c_
  6
CONTINUOUS
 62
    4
 10
443.50278354173247
 20
269.31523242270077
 11
438.15821487139101
 21
278.57229690427295
  0
CIRCLE
  8
_1-c_
  6
CONTINUOUS
 62
    4
 10
445.19121536916685
 20
281.26457003229632
 40
1.6666666666666665
  0
LINE
  8
_1-c_
  6
CONTINUOUS
 62
    4
 10
448.81851712929705
 20
274.98189908936689
 11
446.02454870250023
 21
279.82119435932225
  0
TEXT
  8
_0-0_図面枠
 62
    7
 10
359.29540417017472
 20
286.77997735645857
 40
3.2000000000000002
 41
1
 50
0
  1
100
  0
TEXT
  8
_1-c_
 62
    7
 10
341.97390674189927
 20
238.40443528382411
 40
2.5
 41
1
 50
0
  1
４
  0
TEXT
  8
_1-c_
 62
    7
 10
339.82201199541089
 20
277.50824367456551
 40
2.5
 41
1
 50
0
  1
５
  0
TEXT
  8
_1-c_
 62
    7
 10
380.63495266214835
 20
277.39076063600714
 40
2.5
 41
1
 50
0
  1
６
  0
TEXT
  8
_1-c_
 62
    7
 10
360.32149901293718
 20
278.13470082636917
 40
2.5
 41
1
 50
0
  1
７
  0
TEXT
  8
_1-c_
 62
    7
 10
358.59941576434323
 20
282.38145639135621
 40
2.5
 41
1
 50
0
  1
1
  0
TEXT
  8
_1-c_
 62
    7
 10
443.75132062294807
 20
279.99327215024857
 40
2.5
 41
1
 50
0
  1
８
  0
TEXT
  8
_1-c_
 62
    7
 10
435.88498679183886
 20
278.74437469519927
 40
2.5
 41
1
 50
0
  1
９
  0
CIRCLE
  8
_1-c_
  6
CONTINUOUS
 62
    4
 10
392.43034193636186
 20
266.66996662073871
 40
1.6666666666666665
  0
LINE
  8
_1-c_
  6
CONTINUOUS
 62
    4
 10
389.39492770333015
 20
271.92745829436728
 11
391.59700860302848
 21
268.11334229371283
  0
POINT
  8
_1-0_
 62
    4
 10
389.39492770333015
 20
271.92745829436728
  0
CIRCLE
  8
_1-c_
  6
CONTINUOUS
 62
    4
 10
384.59897169849205
 20
260.92712205830151
 40
1.6666666666666665
  0
LINE
  8
_1-c_
  6
CONTINUOUS
 62
    4
 10
380.1724255087218
 20
268.59412496103391
 11
383.76563836515868
 21
262.37049773127558
  0
TEXT
  8
_1-c_
 62
    7
 10
391.10831002779469
 20
265.64577788217343
 40
2.5
 41
1
 50
0
  1
２
  0
TEXT
  8
_1-c_
 62
    7
 10
383.27693978992488
 20
259.90293331973623
 40
2.5
 41
1
 50
0
  1
３
  0
TEXT
  8
_0-1_
 62
    7
 10
135.40000749999999
 20
159.90000399999997
 40
3.2000000000000002
 41
1
 50
0
  1
ＵＵＨセンタープレート(Ｃ)Ｓ
  0
TEXT
  8
_1-0_
 62
    7
 10
335.68439158856768
 20
159.43089945951064
 40
3.2000000000000002
 41
1
 50
0
  1
ＵＵＨセンタープレート(Ｃ)Ｓ
  0
ENDSEC
  0
EOF
