  0
SECTION
  2
HEADER
  9
$ACADVER
  1
AC1009
  9
$INSBASE
 10
0
 20
0
 30
0
  9
$EXTMIN
 10
0
 20
0
  9
$EXTMAX
 10
594
 20
420
  9
$LIMMIN
 10
0
 20
0
  9
$LIMMAX
 10
594
 20
420
  9
$LTSCALE
 40
1
  0
ENDSEC
  0
SECTION
  2
TABLES
  0
TABLE
  2
LTYPE
 70
     9
  0
LTYPE
  2
CONTINUOUS
 70
    64
  3
実線
 72
    65
 73
     0
 40
0.0
  0
LTYPE
  2
DASHED1
 70
    64
  3
--  --  --  --  --  --  --  --  
 72
    65
 73
     2
 40
2.5
 49
1.25
 49
-1.25
  0
LTYPE
  2
DASHED2
 70
    64
  3
----    ----    ----    ----    
 72
    65
 73
     2
 40
5.0
 49
2.5
 49
-2.5
  0
LTYPE
  2
DASHED3
 70
    64
  3
------  ------  ------  ------  
 72
    65
 73
     2
 40
5.0
 49
3.75
 49
-1.25
  0
LTYPE
  2
CENTER1
 70
    64
  3
----- - ----- - ----- - ----- - 
 72
    65
 73
     4
 40
10.0
 49
6.25
 49
-1.25
 49
1.25
 49
-1.25
  0
LTYPE
  2
CENTER2
 70
    64
  3
----------  --  ----------  --  
 72
    65
 73
     4
 40
20.0
 49
12.5
 49
-2.5
 49
2.5
 49
-2.5
  0
LTYPE
  2
PHANTOM1
 70
    64
  3
--- - - --- - - --- - - --- - - 
 72
    65
 73
     6
 40
10.0
 49
3.25
 49
-1.25
 49
1.25
 49
-1.25
 49
1.25
 49
-1.25
  0
LTYPE
  2
PHANTOM2
 70
    64
  3
--------  -  -  --------  -  -  
 72
    65
 73
     6
 40
20.0
 49
10.0
 49
-2.5
 49
1.25
 49
-2.5
 49
1.25
 49
-2.5
  0
LTYPE
  2
DOT
 70
    64
  3
-   -   -   -   -   -   -   -   
 72
    65
 73
     2
 40
2.5
 49
0.625
 49
-1.875
  0
LTYPE
  2
DUMMY
 70
    64
  3
ダミー
 72
    65
 73
     0
 40
0.0
  0
LTYPE
  2
RAND1
 70
    64
  3
ランダム線1
 72
    65
 73
     4
 40
10.0
 49
1.0
 49
-2.0
 49
3.0
 49
-4.0
  0
LTYPE
  2
RAND2
 70
    64
  3
ランダム線2
 72
    65
 73
     4
 40
14.0
 49
2.0
 49
-3.0
 49
4.0
 49
-5.0
  0
LTYPE
  2
RAND3
 70
    64
  3
ランダム線3
 72
    65
 73
     4
 40
18.0
 49
3.0
 49
-4.0
 49
5.0
 49
-6.0
  0
LTYPE
  2
RAND4
 70
    64
  3
ランダム線4
 72
    65
 73
     4
 40
22.0
 49
4.0
 49
-5.0
 49
6.0
 49
-7.0
  0
LTYPE
  2
RAND5
 70
    64
  3
ランダム線5
 72
    65
 73
     4
 40
26.0
 49
5.0
 49
-6.0
 49
7.0
 49
-8.0
  0
LTYPE
  2
LONG1
 70
    64
  3
----------  --  ----------  --  
 72
    65
 73
     4
 40
40.0
 49
32.5
 49
-2.5
 49
2.5
 49
-2.5
  0
LTYPE
  2
LONG2
 70
    64
  3
--------  -  -  --------  -  -  
 72
    65
 73
     6
 40
40.0
 49
30.0
 49
-2.5
 49
1.25
 49
-2.5
 49
1.25
 49
-2.5
  0
LTYPE
  2
LONG3
 70
    64
  3
+++++++++++++++..+++++++++++++++
 72
    65
 73
     2
 40
40.0
 49
37.5
 49
-2.5
  0
LTYPE
  2
LONG4
 70
    64
  3
+++++++++++++++..+++++++++++++++
 72
    65
 73
     2
 40
80.0
 49
75.0
 49
-5.0
  0
LTYPE
  2
LONG5
 70
    64
  3
----------  --  ----------  --  
 72
    65
 73
     4
 40
60.0
 49
37.5
 49
-7.5
 49
7.5
 49
-7.5
  0
LTYPE
  2
dashed
 70
   64
  3
-------   -------------   ------
 72
   65
 73
    2
 40
7.5
 49
6
 49
-1.5
  0
LTYPE
  2
dashed_spaced
 70
   64
  3
----        --------        ----
 72
   65
 73
    2
 40
12
 49
6
 49
-6
  0
LTYPE
  2
long_dashed_dotted
 70
   64
  3
------------- --- --------------
 72
   65
 73
    4
 40
15.25
 49
12
 49
-1.5
 49
0.25
 49
-1.5
  0
LTYPE
  2
long_dashed_double-dotted
 70
   64
  3
----------- --- --- ------------
 72
   65
 73
    6
 40
17
 49
12
 49
-1.5
 49
0.25
 49
-1.5
 49
0.25
 49
-1.5
  0
LTYPE
  2
long_dashed_triplicate-dotted
 70
   64
  3
--------- --- --- --- ----------
 72
   65
 73
    8
 40
18.75
 49
12
 49
-1.5
 49
0.25
 49
-1.5
 49
0.25
 49
-1.5
 49
0.25
 49
-1.5
  0
LTYPE
  2
dotted
 70
   64
  3
   -       -       -       -    
 72
   65
 73
    2
 40
1.75
 49
0.25
 49
-1.5
  0
LTYPE
  2
chain
 70
   64
  3
-------------- -- --------------
 72
   65
 73
    4
 40
18.5
 49
12
 49
-1.5
 49
3.5
 49
-1.5
  0
LTYPE
  2
chain_double_dash
 70
   64
  3
------------ -- -- -------------
 72
   65
 73
    6
 40
23.5
 49
12
 49
-1.5
 49
3.5
 49
-1.5
 49
3.5
 49
-1.5
  0
LTYPE
  2
dashed_dotted
 70
   64
  3
-----------     -     ----------
 72
   65
 73
    4
 40
9.25
 49
6
 49
-1.5
 49
0.25
 49
-1.5
  0
LTYPE
  2
double-dashed_dotted
 70
   64
  3
------   -----------   -   -----
 72
   65
 73
    6
 40
16.75
 49
6
 49
-1.5
 49
6
 49
-1.5
 49
0.25
 49
-1.5
  0
LTYPE
  2
dashed_double-dotted
 70
   64
  3
---------    -    -    ---------
 72
   65
 73
    6
 40
11
 49
6
 49
-1.5
 49
0.25
 49
-1.5
 49
0.25
 49
-1.5
  0
LTYPE
  2
double-dashed_double-dotted
 70
   64
  3
-----   ---------   -   -   ----
 72
   65
 73
    8
 40
18.5
 49
6
 49
-1.5
 49
6
 49
-1.5
 49
0.25
 49
-1.5
 49
0.25
 49
-1.5
  0
LTYPE
  2
dashed_triplicate-dotted
 70
   64
  3
-------    -    -    -    ------
 72
   65
 73
    8
 40
12.75
 49
6
 49
-1.5
 49
0.25
 49
-1.5
 49
0.25
 49
-1.5
 49
0.25
 49
-1.5
  0
LTYPE
  2
double-dashed_triplicate-dotted
 70
   64
  3
-----  ---------  -  -  -  -----
 72
   65
 73
   10
 40
20.25
 49
6
 49
-1.5
 49
6
 49
-1.5
 49
0.25
 49
-1.5
 49
0.25
 49
-1.5
 49
0.25
 49
-1.5
  0
LTYPE
  2
undefined
 70
   64
  3
--------------------------------
 72
   65
 73
    0
 40
0
  0
ENDTAB
  0
TABLE
  2
STYLE
  5
3
100
AcDbSymbolTable
 70
     1
  0
STYLE
  5
10
100
AcDbSymbolTableRecord
100
AcDbTextStyleTableRecord
  2
STANDARD
 70
     0
 40
0.0
 41
1.0
 50
0.0
 71
     0
 42
0.2
  3
txt
  4
bigfont.shx
  0
STYLE
  5
26
100
AcDbSymbolTableRecord
100
AcDbTextStyleTableRecord
  2
TATEGAKI
 70
    68
 40
0.0
 41
1.0
 50
0.0
 71
     0
 42
1.0
  3
txt
  4
bigfont.shx
  0
ENDTAB
  0
TABLE
  2
LAYER
 70
    5
  0
LAYER
  2
_0-0_図面枠
 70
   64
 62
    7
  6
CONTINUOUS
  0
LAYER
  2
_0-1_
 70
   64
 62
    7
  6
CONTINUOUS
  0
LAYER
  2
_1-0_
 70
   64
 62
    7
  6
CONTINUOUS
  0
LAYER
  2
_1-c_
 70
   64
 62
    7
  6
CONTINUOUS
  0
LAYER
  2
ADD_LINE
 70
   64
 62
    7
  6
CONTINUOUS
  0
ENDTAB
  0
ENDSEC
  0
SECTION
  2
BLOCKS
  0
ENDSEC
  0
SECTION
  2
ENTITIES
  0
LINE
  8
_0-0_図面枠
  6
CONTINUOUS
 62
    6
 10
497.00000000000006
 20
348.5
 11
97
 21
348.50000000000006
  0
LINE
  8
_0-0_図面枠
  6
CONTINUOUS
 62
    6
 10
497
 20
71.499999999999886
 11
497.00000000000006
 21
348.5
  0
LINE
  8
_0-0_図面枠
  6
CONTINUOUS
 62
    6
 10
96.999999999999915
 20
71.5
 11
497
 21
71.499999999999886
  0
LINE
  8
_0-0_図面枠
  6
CONTINUOUS
 62
    6
 10
97
 20
348.50000000000006
 11
96.999999999999915
 21
71.5
  0
LINE
  8
_0-1_
  6
CONTINUOUS
 62
    4
 10
469.15000000000003
 20
170.69999999999999
 11
327
 21
170.69999999999999
  0
LINE
  8
_0-1_
  6
CONTINUOUS
 62
    4
 10
469.15000000000003
 20
164.69999999999999
 11
327
 21
164.69999999999999
  0
LINE
  8
_0-1_
  6
CONTINUOUS
 62
    4
 10
469.15000000000003
 20
158.69999999999999
 11
327
 21
158.69999999999999
  0
LINE
  8
_0-1_
  6
CONTINUOUS
 62
    4
 10
469.15000000000003
 20
152.69999999999999
 11
327
 21
152.69999999999999
  0
LINE
  8
_0-1_
  6
CONTINUOUS
 62
    4
 10
469.15000000000003
 20
146.69999999999999
 11
327
 21
146.69999999999999
  0
LINE
  8
_0-1_
  6
CONTINUOUS
 62
    4
 10
469.15000000000003
 20
140.69999999999999
 11
327
 21
140.69999999999999
  0
LINE
  8
_0-1_
  6
CONTINUOUS
 62
    4
 10
469.15000000000003
 20
134.69999999999999
 11
327
 21
134.69999999999999
  0
LINE
  8
_0-1_
  6
CONTINUOUS
 62
    4
 10
469.15000000000003
 20
128.69999999999999
 11
327
 21
128.69999999999999
  0
LINE
  8
_0-1_
  6
CONTINUOUS
 62
    4
 10
469.15000000000003
 20
122.69999999999999
 11
327
 21
122.69999999999999
  0
LINE
  8
_0-1_
  6
CONTINUOUS
 62
    4
 10
469.15000000000003
 20
116.69999999999999
 11
327
 21
116.69999999999999
  0
LINE
  8
_0-1_
  6
CONTINUOUS
 62
    4
 10
469.15000000000003
 20
181.5
 11
327
 21
181.5
  0
TEXT
  8
_0-1_
 62
    7
 10
354.80697800000002
 20
176.70002199999999
 40
3.2000000000000002
 41
1
 50
0
  1
部材名称
  0
TEXT
  8
_0-1_
 62
    7
 10
452.55122999999998
 20
176.70001050000002
 40
3.2000000000000002
 41
1
 50
0
  1
使用
  0
TEXT
  8
_0-1_
 62
    7
 10
406.38134800000006
 20
176.70002199999999
 40
3.2000000000000002
 41
1
 50
0
  1
規　格
  0
TEXT
  8
_0-1_
 62
    7
 10
437.506325
 20
176.70002199999999
 40
3.2000000000000002
 41
1
 50
0
  1
定　尺
  0
TEXT
  8
_0-1_
 62
    7
 10
435.34349000000003
 20
171.900015
 40
3.2000000000000002
 41
1
 50
0
  1
（ｍｍ）
  0
TEXT
  8
_0-1_
 62
    7
 10
452.55122999999998
 20
171.90000400000002
 40
3.2000000000000002
 41
1
 50
0
  1
数量
  0
TEXT
  8
_0-1_
 62
    7
 10
327.4970505
 20
165.9275495
 40
3.2000000000000002
 41
1
 50
0
  1
　１
  0
TEXT
  8
_0-1_
 62
    7
 10
330.5868145
 20
159.9275495
 40
3.2000000000000002
 41
1
 50
0
  1
２
  0
TEXT
  8
_0-1_
 62
    7
 10
436.27041950000006
 20
159.900004
 40
3.2000000000000002
 41
1
 50
0
  1
３０００
  0
TEXT
  8
_0-1_
 62
    7
 10
464.00510200000002
 20
159.900004
 40
3.2000000000000002
 41
1
 50
0
  1
〃
  0
TEXT
  8
_0-1_
 62
    7
 10
330.5868145
 20
153.9275495
 40
3.2000000000000002
 41
1
 50
0
  1
３
  0
TEXT
  8
_0-1_
 62
    7
 10
436.27041950000006
 20
153.900004
 40
3.2000000000000002
 41
1
 50
0
  1
３０００
  0
TEXT
  8
_0-1_
 62
    7
 10
464.00510200000002
 20
153.900004
 40
3.2000000000000002
 41
1
 50
0
  1
〃
  0
TEXT
  8
_0-1_
 62
    7
 10
330.5868145
 20
147.9275495
 40
3.2000000000000002
 41
1
 50
0
  1
４
  0
TEXT
  8
_0-1_
 62
    7
 10
436.27041950000006
 20
147.900004
 40
3.2000000000000002
 41
1
 50
0
  1
３０００
  0
TEXT
  8
_0-1_
 62
    7
 10
464.00510200000002
 20
147.900004
 40
3.2000000000000002
 41
1
 50
0
  1
〃
  0
TEXT
  8
_0-1_
 62
    7
 10
330.5868145
 20
141.927561
 40
3.2000000000000002
 41
1
 50
0
  1
５
  0
TEXT
  8
_0-1_
 62
    7
 10
436.27041950000006
 20
141.900004
 40
3.2000000000000002
 41
1
 50
0
  1
３０００
  0
TEXT
  8
_0-1_
 62
    7
 10
464.00510200000002
 20
141.900004
 40
3.2000000000000002
 41
1
 50
0
  1
〃
  0
TEXT
  8
_0-1_
 62
    7
 10
330.5868145
 20
135.927561
 40
3.2000000000000002
 41
1
 50
0
  1
６
  0
TEXT
  8
_0-1_
 62
    7
 10
330.5868145
 20
129.927561
 40
3.2000000000000002
 41
1
 50
0
  1
７
  0
TEXT
  8
_0-1_
 62
    7
 10
330.5868145
 20
123.92755549999998
 40
3.2000000000000002
 41
1
 50
0
  1
８
  0
TEXT
  8
_0-1_
 62
    7
 10
464.00510200000002
 20
123.900004
 40
3.2000000000000002
 41
1
 50
0
  1
〃
  0
TEXT
  8
_0-1_
 62
    7
 10
330.5868145
 20
117.92755549999998
 40
3.2000000000000002
 41
1
 50
0
  1
９
  0
TEXT
  8
_0-1_
 62
    7
 10
464.00510200000002
 20
117.900004
 40
3.2000000000000002
 41
1
 50
0
  1
〃
  0
TEXT
  8
_0-1_
 62
    7
 10
327.4970505
 20
111.92755549999998
 40
3.2000000000000002
 41
1
 50
0
  1
１０
  0
LINE
  8
_0-0_図面枠
  6
CONTINUOUS
 62
    6
 10
297
 20
348.5
 11
297
 21
71.499999999999943
  0
TEXT
  8
_0-1_
 62
    7
 10
436.27047700000003
 20
165.90000399999997
 40
3.2000000000000002
 41
1
 50
0
  1
３０００
  0
TEXT
  8
_0-1_
 62
    7
 10
464.00512500000002
 20
165.90000399999997
 40
3.2000000000000002
 41
1
 50
0
  1
本
  0
TEXT
  8
_0-1_
 62
    7
 10
335.40000750000002
 20
153.90000399999991
 40
3.2000000000000002
 41
1
 50
0
  1
ＵＵＨフレーム(Ｃ)
  0
TEXT
  8
_0-1_
 62
    7
 10
335.400013
 20
147.900004
 40
3.2000000000000002
 41
1
 50
0
  1
ＵＣＨ壁フレーム(Ｃ)
  0
TEXT
  8
_0-1_
 62
    7
 10
335.400013
 20
135.90000950000001
 40
3.2000000000000002
 41
1
 50
0
  1
アンカープラグ
  0
TEXT
  8
_0-1_
 62
    7
 10
392.400013
 20
135.90000950000001
 40
3.2000000000000002
 41
1
 50
0
  1
フィッシャープラグＳ６
  0
TEXT
  8
_0-1_
 62
    7
 10
335.40000750000002
 20
117.90000399999997
 40
3.2000000000000002
 41
1
 50
0
  1
ステンタッピンねじ
  0
TEXT
  8
_0-1_
 62
    7
 10
453.27045750000002
 20
117.94999749999999
 40
3.2000000000000002
 41
1
 50
0
  1
１２
  0
TEXT
  8
_0-1_
 62
    7
 10
392.40002450000009
 20
117.90000399999997
 40
3.2000000000000002
 41
1
 50
0
  1
なべ４×３０
  0
TEXT
  8
_0-1_
 62
    7
 10
465.41059916226561
 20
179.04587506829358
 40
3.2000000000000002
 41
1
 50
0
  1
単位
  7
TATEGAKI
  0
TEXT
  8
_0-1_
 62
    7
 10
453.27045750000002
 20
135.95000849999997
 40
3.2000000000000002
 41
1
 50
0
  1
１２
  0
TEXT
  8
_0-1_
 62
    7
 10
456.46780365988207
 20
159.95000299999998
 40
3.2000000000000002
 41
1
 50
0
  1
１
  0
TEXT
  8
_0-1_
 62
    7
 10
456.46780365988207
 20
153.94999150000001
 40
3.2000000000000002
 41
1
 50
0
  1
１
  0
TEXT
  8
_0-1_
 62
    7
 10
456.46780365988207
 20
147.95000299999998
 40
3.2000000000000002
 41
1
 50
0
  1
１
  0
TEXT
  8
_0-1_
 62
    7
 10
456.46780365988207
 20
141.95000299999998
 40
3.2000000000000002
 41
1
 50
0
  1
１
  0
TEXT
  8
_0-1_
 62
    7
 10
456.46780365988207
 20
165.95000299999998
 40
3.2000000000000002
 41
1
 50
0
  1
１
  0
TEXT
  8
_0-1_
 62
    7
 10
456.46780365988207
 20
129.95000299999998
 40
3.2000000000000002
 41
1
 50
0
  1
２
  0
TEXT
  8
_0-1_
 62
    7
 10
307
 20
341.5
 40
3.2000000000000002
 41
1
 50
0
  1
（ステン２００タイプ）
  0
TEXT
  8
_0-1_
 62
    7
 10
317
 20
331.5
 40
3.2000000000000002
 41
1
 50
0
  1
◇内壁コーナー（２００ＫＣＨ－Ｓ）　Ｓ＝１／３
  0
LINE
  8
_0-0_図面枠
  6
CONTINUOUS
 62
    4
 10
438.42239534917769
 20
282.40278755376875
 11
451.7557286825097
 21
269.06945422043674
  0
LINE
  8
_0-0_図面枠
  6
CONTINUOUS
 62
    4
 10
451.7557286825097
 20
270.01226326201868
 11
438.42239534917769
 21
283.34559659535068
  0
LINE
  8
_0-0_図面枠
  6
CONTINUOUS
 62
    4
 10
438.42239534917769
 20
284.28840563693262
 11
451.7557286825097
 21
270.95507230360067
  0
LINE
  8
_0-0_図面枠
  6
CONTINUOUS
 62
    4
 10
451.7557286825097
 20
259.16995928382607
 11
438.42239534917769
 21
272.50329261715808
  0
LINE
  8
_0-0_図面枠
  6
CONTINUOUS
 62
    4
 10
450.56403872407361
 20
246.69091813932346
 11
438.42239534917769
 21
258.83256151421949
  0
LINE
  8
_0-0_図面枠
  6
CONTINUOUS
 62
    4
 10
451.50684776565561
 20
246.69091813932346
 11
438.42239534917769
 21
259.77537055580143
  0
LINE
  8
_0-0_図面枠
  6
CONTINUOUS
 62
    4
 10
451.7557286825097
 20
247.38484626405142
 11
438.42239534917769
 21
260.71817959738343
  0
LINE
  8
_0-0_図面枠
  6
CONTINUOUS
 62
    4
 10
451.7557286825097
 20
258.22715024224408
 11
438.42239534917769
 21
271.56048357557609
  0
LINE
  8
_0-0_図面枠
  6
CONTINUOUS
 62
    4
 10
451.7557286825097
 20
257.28434120066208
 11
438.42239534917769
 21
270.61767453399409
  0
LINE
  8
_0-0_図面枠
  6
CONTINUOUS
 62
    4
 10
438.42239534917769
 20
294.18790057354329
 11
451.7557286825097
 21
280.85456724021134
  0
LINE
  8
_0-0_図面枠
  6
CONTINUOUS
 62
    4
 10
438.42239534917769
 20
295.13070961512528
 11
451.7557286825097
 21
281.79737628179333
  0
LINE
  8
_0-0_図面枠
  6
CONTINUOUS
 62
    4
 10
438.42239534917769
 20
240.02425147265751
 11
438.42239534917769
 21
245.71777428816307
  0
POINT
  8
_0-0_図面枠
 62
    4
 10
438.42239534917769
 20
240.02425147265751
  0
LINE
  8
_0-0_図面枠
  6
CONTINUOUS
 62
    4
 10
438.42239534917769
 20
296.07351865670722
 11
451.7557286825097
 21
282.74018532337527
  0
POINT
  8
_0-0_図面枠
 62
    4
 10
371.75572868251766
 20
240.02425147265751
  0
LINE
  8
_0-0_図面枠
  6
CONTINUOUS
 62
    4
 10
371.75572868251766
 20
240.02425147265745
 11
371.75572868251766
 21
245.95631930652485
  0
POINT
  8
_0-0_図面枠
 62
    4
 10
371.75572868251766
 20
256.0242508059892
  0
LINE
  8
_0-1_
  6
CONTINUOUS
 62
    4
 10
371.75572868251766
 20
246.69091813932351
 11
371.75572868251766
 21
269.02425113932128
  0
LINE
  8
_0-1_
  6
CONTINUOUS
 62
    4
 10
338.75572968252095
 20
246.69091813932351
 11
371.75572868251766
 21
246.69091813932351
  0
LINE
  8
_0-0_図面枠
  6
CONTINUOUS
 62
    4
 10
369.04894474232083
 20
269.02425113932128
 11
346.71561174232306
 21
246.69091813932351
  0
LINE
  8
_0-0_図面枠
  6
CONTINUOUS
 62
    4
 10
368.10613570073883
 20
269.02425113932128
 11
345.77280270074107
 21
246.69091813932351
  0
LINE
  8
_0-0_図面枠
  6
CONTINUOUS
 62
    4
 10
367.16332665915689
 20
269.02425113932128
 11
344.82999365915907
 21
246.69091813932351
  0
LINE
  8
_0-0_図面枠
  6
CONTINUOUS
 62
    4
 10
355.37821363938224
 20
269.02425113932128
 11
338.75572968252095
 21
252.40176718245999
  0
LINE
  8
_0-0_図面枠
  6
CONTINUOUS
 62
    4
 10
356.32102268096423
 20
269.02425113932128
 11
338.75572968252095
 21
251.45895814087811
  0
LINE
  8
_0-0_図面枠
  6
CONTINUOUS
 62
    4
 10
357.26383172254617
 20
269.02425113932128
 11
338.75572968252095
 21
250.51614909929611
  0
LINE
  8
_0-0_図面枠
  6
CONTINUOUS
 62
    4
 10
345.47871870277157
 20
269.02425113932134
 11
338.75572968252095
 21
262.30126211907077
  0
LINE
  8
_0-0_図面枠
  6
CONTINUOUS
 62
    4
 10
344.53590966118958
 20
269.02425113932134
 11
338.75572968252095
 21
263.24407116065271
  0
LINE
  8
_0-0_図面枠
  6
CONTINUOUS
 62
    4
 10
343.59310061960764
 20
269.02425113932134
 11
338.75572968252095
 21
264.18688020223465
  0
LINE
  8
_0-0_図面枠
  6
CONTINUOUS
 62
    4
 10
356.61510667893367
 20
246.69091813932351
 11
371.75572868251766
 21
261.83154014290744
  0
LINE
  8
_0-0_図面枠
  6
CONTINUOUS
 62
    4
 10
371.75572868251766
 20
260.8887311013255
 11
357.55791572051567
 21
246.69091813932351
  0
LINE
  8
_0-0_図面枠
  6
CONTINUOUS
 62
    4
 10
358.5007247620976
 20
246.69091813932351
 11
371.75572868251766
 21
259.94592205974357
  0
LINE
  8
_0-0_図面枠
  6
CONTINUOUS
 62
    4
 10
368.40021969870827
 20
246.69091813932351
 11
371.75572868251766
 21
250.0464271231329
  0
LINE
  8
_0-0_図面枠
  6
CONTINUOUS
 62
    4
 10
369.34302874029026
 20
246.69091813932351
 11
371.75572868251766
 21
249.10361808155091
  0
LINE
  8
_0-0_図面枠
  6
CONTINUOUS
 62
    4
 10
370.28583778187226
 20
246.69091813932351
 11
371.75572868251766
 21
248.16080903996891
  0
POINT
  8
_0-0_図面枠
 62
    4
 10
458.42239534917564
 20
269.02425113932128
  0
LINE
  8
_0-0_図面枠
  6
CONTINUOUS
 62
    4
 10
439.19729343124447
 20
269.02425113932128
 11
458.42239534917564
 21
269.02425113932128
  0
LINE
  8
_0-0_図面枠
  6
CONTINUOUS
 62
    4
 10
458.42239534917564
 20
269.02425113932128
 11
458.42239534917564
 21
277.02425113932048
  0
POINT
  8
_0-0_図面枠
 62
    4
 10
458.42239534917564
 20
277.02425113932048
  0
LINE
  8
_0-0_図面枠
  6
CONTINUOUS
 62
    4
 10
449.2804259973168
 20
277.02425113932048
 11
458.42239534917564
 21
277.02425113932048
  0
POINT
  8
_0-0_図面枠
 62
    4
 10
343.42239534918713
 20
269.02425113932128
  0
POINT
  8
_0-0_図面枠
 62
    4
 10
338.42239534918764
 20
269.02425113932128
  0
LINE
  8
_0-1_
  6
CONTINUOUS
 62
    4
 10
437.42239534917769
 20
280.02425113932014
 11
437.42239534917769
 21
274.02425113932077
  0
LINE
  8
_0-1_
  6
CONTINUOUS
 62
    4
 10
437.42239534917769
 20
274.02425113932077
 11
437.92239534917769
 21
274.02425113932077
  0
LINE
  8
_0-1_
  6
CONTINUOUS
 62
    4
 10
437.42239534917769
 20
280.02425113932014
 11
437.92239534917769
 21
280.02425113932014
  0
ARC
  8
_0-1_
  6
CONTINUOUS
 62
    4
 10
437.4060621849826
 20
276.55741813932053
 40
0.7999999999999201
 50
215.70005900000092
 51
271.16985799999736
  0
ARC
  8
_0-1_
  6
CONTINUOUS
 62
    4
 10
438.05572818498251
 20
277.02425113932048
 40
1.5999999999998402
 50
144.29996100000218
 51
180
  0
ARC
  8
_0-1_
  6
CONTINUOUS
 62
    4
 10
437.4060621849826
 20
277.49108413932044
 40
0.7999999999999201
 50
88.830142000002681
 51
144.29994099999908
  0
ARC
  8
_0-1_
  6
CONTINUOUS
 62
    4
 10
438.05572818498251
 20
277.02425113932048
 40
1.5999999999998402
 50
180
 51
215.70003900000066
  0
LINE
  8
_0-1_
  6
CENTER1
 62
    4
 10
434.51025734917806
 20
277.02425113932048
 11
449.2804259973168
 21
277.02425113932048
  0
ARC
  8
_0-0_図面枠
  6
CONTINUOUS
 62
    7
 10
434.0057286825114
 20
272.10758447265431
 40
0.2499999999999749
 50
0
 51
180
  0
LINE
  8
_0-0_図面枠
  6
CONTINUOUS
 62
    7
 10
434.2557286825114
 20
272.10758447265431
 11
434.2557286825114
 21
269.69091780598785
  0
ARC
  8
_0-0_図面枠
  6
CONTINUOUS
 62
    7
 10
434.42239534917803
 20
269.69091780598785
 40
0.16666666666665
 50
180
 51
270
  0
LINE
  8
_0-0_図面枠
  6
CONTINUOUS
 62
    7
 10
433.92239534917815
 20
269.02425113932128
 11
438.42239534917769
 21
269.02425113932128
  0
LINE
  8
_0-0_図面枠
  6
CONTINUOUS
 62
    7
 10
433.75572868251146
 20
272.10758447265431
 11
433.75572868251146
 21
269.19091780598791
  0
ARC
  8
_0-0_図面枠
  6
CONTINUOUS
 62
    7
 10
433.92239534917815
 20
269.19091780598791
 40
0.16666666666665
 50
180
 51
270
  0
LINE
  8
_0-0_図面枠
  6
CONTINUOUS
 62
    7
 10
434.42239534917803
 20
269.52425113932122
 11
437.75572868251106
 21
269.52425113932122
  0
ARC
  8
_0-0_図面枠
  6
CONTINUOUS
 62
    7
 10
437.75572868251106
 20
269.69091780598785
 40
0.16666666666665
 50
270
 51
0
  0
LINE
  8
_0-1_
  6
CONTINUOUS
 62
    7
 10
437.92239012190487
 20
269.69091780599024
 11
437.92239534917769
 21
281.19091780598677
  0
LINE
  8
_0-0_図面枠
  6
CONTINUOUS
 62
    7
 10
438.42239534917769
 20
286.52425113931952
 11
438.42239534917769
 21
269.02425113932128
  0
LINE
  8
_0-0_図面枠
  6
CENTER1
 62
    4
 10
405.08906201584767
 20
269.02425113932128
 11
405.08906201584767
 21
275.69091780598723
  0
LINE
  8
_0-1_
  6
CONTINUOUS
 62
    4
 10
438.02239034917773
 20
277.02425613932047
 11
437.9223903491777
 21
277.12425613932044
  0
LINE
  8
_0-1_
  6
CONTINUOUS
 62
    4
 10
438.02239034917773
 20
277.02425613932047
 11
437.92239534917769
 21
276.92426113932044
  0
LINE
  8
_0-0_図面枠
  6
CONTINUOUS
 62
    7
 10
437.92239534917769
 20
276.92425113932052
 11
438.02239534917771
 21
277.02425113932048
  0
LINE
  8
_0-0_図面枠
  6
CONTINUOUS
 62
    7
 10
438.02239534917771
 20
277.02425113932054
 11
437.92239534917769
 21
277.12425113932051
  0
LINE
  8
_0-0_図面枠
  6
CONTINUOUS
 62
    4
 10
438.42239534917769
 20
279.35758447265357
 11
437.92239534917769
 21
279.35758447265357
  0
LINE
  8
_0-0_図面枠
  6
CONTINUOUS
 62
    4
 10
438.42239534917769
 20
274.69091780598734
 11
437.92239534917769
 21
274.69091780598734
  0
LINE
  8
_0-1_
  6
CONTINUOUS
 62
    4
 10
443.37248934917716
 20
275.86844713932061
 11
442.20799434917728
 21
275.44460613932063
  0
LINE
  8
_0-1_
  6
CONTINUOUS
 62
    4
 10
445.12009134917696
 20
275.77685913932061
 11
445.39591634917696
 21
276.26309013932052
  0
LINE
  8
_0-1_
  6
CONTINUOUS
 62
    4
 10
445.39591634917696
 20
276.26309013932052
 11
445.89523134917692
 21
276.23692213932054
  0
LINE
  8
_0-1_
  6
CONTINUOUS
 62
    4
 10
445.89523134917692
 20
276.23692213932054
 11
445.86906334917694
 21
275.73760713932063
  0
LINE
  8
_0-1_
  6
CONTINUOUS
 62
    4
 10
444.62077634917705
 20
275.80302713932059
 11
445.12009134917696
 21
275.77685913932061
  0
LINE
  8
_0-1_
  6
CONTINUOUS
 62
    4
 10
443.87180434917713
 20
275.84227913932057
 11
444.14763034917712
 21
276.32851013932054
  0
LINE
  8
_0-1_
  6
CONTINUOUS
 62
    4
 10
444.14763034917712
 20
276.32851013932054
 11
444.64694434917703
 21
276.30234213932056
  0
LINE
  8
_0-1_
  6
CONTINUOUS
 62
    4
 10
444.64694434917703
 20
276.30234213932056
 11
444.62077634917705
 21
275.80302713932059
  0
LINE
  8
_0-1_
  6
CONTINUOUS
 62
    4
 10
443.37248934917716
 20
275.86844713932061
 11
443.87180434917713
 21
275.84227913932057
  0
LINE
  8
_0-1_
  6
CONTINUOUS
 62
    4
 10
442.62351734917729
 20
275.90769913932058
 11
442.89934334917723
 21
276.3939301393205
  0
LINE
  8
_0-1_
  6
CONTINUOUS
 62
    4
 10
442.89934334917723
 20
276.3939301393205
 11
443.39865734917714
 21
276.36776213932052
  0
LINE
  8
_0-1_
  6
CONTINUOUS
 62
    4
 10
443.39865734917714
 20
276.36776213932052
 11
443.37248934917716
 21
275.86844713932061
  0
LINE
  8
_0-1_
  6
CONTINUOUS
 62
    4
 10
442.12420234917732
 20
275.93386713932057
 11
442.62351734917729
 21
275.90769913932058
  0
LINE
  8
_0-1_
  6
CONTINUOUS
 62
    4
 10
441.65105634917734
 20
276.45935013932052
 11
442.15037034917725
 21
276.43318213932054
  0
LINE
  8
_0-1_
  6
CONTINUOUS
 62
    4
 10
442.15037034917725
 20
276.43318213932054
 11
442.12420234917732
 21
275.93386713932057
  0
LINE
  8
_0-1_
  6
CONTINUOUS
 62
    4
 10
438.42239534917769
 20
275.77425613932058
 11
439.67239534917752
 21
276.02425613932058
  0
LINE
  8
_0-1_
  6
CONTINUOUS
 62
    4
 10
441.42239534917735
 20
276.02425613932058
 11
441.65105634917734
 21
276.45935013932052
  0
LINE
  8
_0-1_
  6
CONTINUOUS
 62
    4
 10
440.42239534917746
 20
276.89925613932047
 11
440.42239534917746
 21
277.02425613932047
  0
LINE
  8
_0-1_
  6
CONTINUOUS
 62
    4
 10
445.12009134917696
 20
278.27165313932034
 11
445.39591634917696
 21
277.78542213932042
  0
LINE
  8
_0-1_
  6
CONTINUOUS
 62
    4
 10
445.39591634917696
 20
277.78542213932042
 11
445.89523134917692
 21
277.8115901393204
  0
LINE
  8
_0-1_
  6
CONTINUOUS
 62
    4
 10
445.89523134917692
 20
277.8115901393204
 11
445.86906334917694
 21
278.31090513932037
  0
LINE
  8
_0-1_
  6
CONTINUOUS
 62
    4
 10
444.62077634917705
 20
278.24548513932035
 11
445.12009134917696
 21
278.27165313932034
  0
LINE
  8
_0-1_
  6
CONTINUOUS
 62
    4
 10
443.87180434917713
 20
278.20623313932037
 11
444.14763034917712
 21
277.7200021393204
  0
LINE
  8
_0-1_
  6
CONTINUOUS
 62
    4
 10
444.14763034917712
 20
277.7200021393204
 11
444.64694434917703
 21
277.74617013932038
  0
LINE
  8
_0-1_
  6
CONTINUOUS
 62
    4
 10
444.64694434917703
 20
277.74617013932038
 11
444.62077634917705
 21
278.24548513932035
  0
LINE
  8
_0-1_
  6
CONTINUOUS
 62
    4
 10
443.37248934917716
 20
278.18006513932039
 11
443.87180434917713
 21
278.20623313932037
  0
LINE
  8
_0-1_
  6
CONTINUOUS
 62
    4
 10
442.62351734917729
 20
278.14081313932036
 11
442.89934334917723
 21
277.65458213932044
  0
LINE
  8
_0-1_
  6
CONTINUOUS
 62
    4
 10
442.89934334917723
 20
277.65458213932044
 11
443.39865734917714
 21
277.68075013932042
  0
LINE
  8
_0-1_
  6
CONTINUOUS
 62
    4
 10
443.39865734917714
 20
277.68075013932042
 11
443.37248934917716
 21
278.18006513932039
  0
LINE
  8
_0-1_
  6
CONTINUOUS
 62
    4
 10
442.12420234917732
 20
278.11464513932037
 11
442.62351734917729
 21
278.14081313932036
  0
LINE
  8
_0-1_
  6
CONTINUOUS
 62
    4
 10
441.65105634917734
 20
277.58916213932042
 11
442.15037034917725
 21
277.61533013932041
  0
LINE
  8
_0-1_
  6
CONTINUOUS
 62
    4
 10
442.15037034917725
 20
277.61533013932041
 11
442.12420234917732
 21
278.11464513932037
  0
LINE
  8
_0-1_
  6
CONTINUOUS
 62
    4
 10
439.67239534917752
 20
277.02425613932047
 11
438.42239534917769
 21
277.02425613932047
  0
LINE
  8
_0-1_
  6
CONTINUOUS
 62
    4
 10
438.42239534917769
 20
276.77425613932047
 11
439.67239534917752
 21
277.02425613932047
  0
LINE
  8
_0-1_
  6
CONTINUOUS
 62
    4
 10
438.42239534917769
 20
277.27425613932047
 11
439.67239534917752
 21
277.02425613932047
  0
LINE
  8
_0-1_
  6
CONTINUOUS
 62
    4
 10
438.42239534917769
 20
278.27425613932036
 11
439.67239534917752
 21
278.02425613932036
  0
LINE
  8
_0-1_
  6
CONTINUOUS
 62
    4
 10
441.42239534917735
 20
278.02425613932036
 11
441.65105634917734
 21
277.58916213932042
  0
LINE
  8
_0-1_
  6
CONTINUOUS
 62
    4
 10
440.42239534917746
 20
277.14925613932047
 11
440.42239534917746
 21
277.02425613932047
  0
LINE
  8
_0-1_
  6
CONTINUOUS
 62
    4
 10
442.20799434917728
 20
278.60390613932032
 11
440.50708934917748
 21
278.85199513932031
  0
ARC
  8
_0-1_
  6
CONTINUOUS
 62
    4
 10
440.49265634917742
 20
278.75304213932031
 40
0.09999999999999
 50
81.701533999996414
 51
171.86989800000819
  0
LINE
  8
_0-1_
  6
CONTINUOUS
 62
    4
 10
440.39366134917748
 20
278.76718413932031
 11
440.38663234917749
 21
278.71797813932034
  0
ARC
  8
_0-1_
  6
CONTINUOUS
 62
    4
 10
440.48562634917744
 20
278.70383613932029
 40
0.09999999999999
 50
171.86989800000819
 51
261.86989800000822
  0
LINE
  8
_0-1_
  6
CONTINUOUS
 62
    4
 10
440.47148434917744
 20
278.60484113932034
 11
442.12248934917727
 21
278.36898313932033
  0
LINE
  8
_0-1_
  6
CONTINUOUS
 62
    4
 10
442.20799434917728
 20
275.44460613932063
 11
440.50708934917748
 21
275.19651713932069
  0
ARC
  8
_0-1_
  6
CONTINUOUS
 62
    4
 10
440.49265634917742
 20
275.29547013932068
 40
0.09999999999999
 50
188.13010200002404
 51
278.2984660000036
  0
LINE
  8
_0-1_
  6
CONTINUOUS
 62
    4
 10
440.39366134917748
 20
275.28132813932069
 11
440.38663234917749
 21
275.33053413932066
  0
ARC
  8
_0-1_
  6
CONTINUOUS
 62
    4
 10
440.48562634917744
 20
275.34467613932065
 40
0.09999999999999
 50
98.130101999991808
 51
188.13010199999181
  0
LINE
  8
_0-1_
  6
CONTINUOUS
 62
    4
 10
440.47148434917744
 20
275.4436711393206
 11
442.12248934917727
 21
275.67952913932061
  0
LINE
  8
_0-1_
  6
CONTINUOUS
 62
    4
 10
443.37248934917716
 20
278.18006513932039
 11
442.20799434917728
 21
278.60390613932032
  0
LINE
  8
_0-1_
  6
CONTINUOUS
 62
    4
 10
447.11735034917683
 20
275.67218713932061
 11
447.61666534917674
 21
275.64601913932063
  0
LINE
  8
_0-1_
  6
CONTINUOUS
 62
    4
 10
446.36837834917685
 20
275.71143913932059
 11
446.64420334917679
 21
276.19767013932056
  0
LINE
  8
_0-1_
  6
CONTINUOUS
 62
    4
 10
446.64420334917679
 20
276.19767013932056
 11
447.14351834917682
 21
276.17150213932058
  0
LINE
  8
_0-1_
  6
CONTINUOUS
 62
    4
 10
447.14351834917682
 20
276.17150213932058
 11
447.11735034917683
 21
275.67218713932061
  0
LINE
  8
_0-1_
  6
CONTINUOUS
 62
    4
 10
447.11735034917683
 20
278.37632413932033
 11
447.61666534917674
 21
278.40249213932037
  0
LINE
  8
_0-1_
  6
CONTINUOUS
 62
    4
 10
446.36837834917685
 20
278.33707313932035
 11
446.64420334917679
 21
277.85084213932043
  0
LINE
  8
_0-1_
  6
CONTINUOUS
 62
    4
 10
446.64420334917679
 20
277.85084213932043
 11
447.14351834917682
 21
277.87701013932036
  0
LINE
  8
_0-1_
  6
CONTINUOUS
 62
    4
 10
447.14351834917682
 20
277.87701013932036
 11
447.11735034917683
 21
278.37632413932033
  0
LINE
  8
_0-1_
  6
CONTINUOUS
 62
    4
 10
446.9550343491768
 20
277.4916171393204
 11
447.42239534917672
 21
277.02425613932047
  0
LINE
  8
_0-1_
  6
CONTINUOUS
 62
    4
 10
445.86906334917694
 20
275.73760713932063
 11
446.36837834917685
 21
275.71143913932059
  0
LINE
  8
_0-1_
  6
CONTINUOUS
 62
    4
 10
447.66245934917674
 20
276.51982013932053
 11
447.61666534917674
 21
275.64601913932063
  0
LINE
  8
_0-1_
  6
CONTINUOUS
 62
    4
 10
447.61666534917674
 20
275.64601913932063
 11
448.14214834917669
 21
276.11916613932055
  0
LINE
  8
_0-1_
  6
CONTINUOUS
 62
    4
 10
448.14214834917669
 20
276.11916613932055
 11
448.16177434917671
 21
276.49365213932055
  0
LINE
  8
_0-1_
  6
CONTINUOUS
 62
    4
 10
448.16177434917671
 20
276.49365213932055
 11
440.42239534917746
 21
276.89925613932047
  0
LINE
  8
_0-1_
  6
CONTINUOUS
 62
    4
 10
445.86906334917694
 20
278.31090513932037
 11
446.36837834917685
 21
278.33707313932035
  0
LINE
  8
_0-1_
  6
CONTINUOUS
 62
    4
 10
447.66245934917674
 20
277.52869213932041
 11
447.61666534917674
 21
278.40249213932037
  0
LINE
  8
_0-1_
  6
CONTINUOUS
 62
    4
 10
447.61666534917674
 20
278.40249213932037
 11
448.14214834917669
 21
277.92934613932039
  0
LINE
  8
_0-1_
  6
CONTINUOUS
 62
    4
 10
448.14214834917669
 20
277.92934613932039
 11
448.16177434917671
 21
277.5548601393204
  0
LINE
  8
_0-1_
  6
CONTINUOUS
 62
    4
 10
448.16177434917671
 20
277.5548601393204
 11
440.42239534917746
 21
277.14925613932047
  0
LINE
  8
_0-0_図面枠
  6
CONTINUOUS
 62
    4
 10
447.42239534917672
 20
277.02425613932047
 11
446.9550339839044
 21
276.5568947740482
  0
LINE
  8
_0-1_
  6
CONTINUOUS
 62
    4
 10
438.42239534917769
 20
276.02425613932058
 11
441.42239534917735
 21
276.02425613932058
  0
LINE
  8
_0-1_
  6
CONTINUOUS
 62
    4
 10
438.42239534917769
 20
278.02425613932036
 11
441.42239534917735
 21
278.02425613932036
  0
LINE
  8
_0-1_
  6
CONTINUOUS
 62
    4
 10
443.38670331171375
 20
277.90884667769041
 11
442.12248934917727
 21
278.36898313932033
  0
LINE
  8
_0-1_
  6
CONTINUOUS
 62
    4
 10
443.38670331171375
 20
276.13966560095054
 11
442.12248934917727
 21
275.67952913932061
  0
ARC
  8
_0-0_図面枠
  6
CONTINUOUS
 62
    4
 10
383.58906447797528
 20
273.19091780598751
 40
0.3333333333333
 50
270
 51
359.99995659411837
  0
ARC
  8
_0-0_図面枠
  6
CONTINUOUS
 62
    4
 10
382.75573063959115
 20
273.19091780598751
 40
0.3333333333333
 50
179.99995659409885
 51
270
  0
ARC
  8
_0-0_図面枠
  6
CONTINUOUS
 62
    4
 10
383.67239964211649
 20
274.77425113932077
 40
0.2499999999999749
 50
359.99995659382529
 51
179.99995659409882
  0
ARC
  8
_0-0_図面枠
  6
CONTINUOUS
 62
    4
 10
382.67239964211677
 20
274.27425113932077
 40
0.2499999999999749
 50
359.99995659409882
 51
179.99999999997394
  0
LINE
  8
_0-0_図面枠
  6
CONTINUOUS
 62
    4
 10
383.92239776080339
 20
274.77425094992702
 11
383.92239656130846
 21
273.19091755346324
  0
LINE
  8
_0-0_図面枠
  6
CONTINUOUS
 62
    4
 10
382.42239738201556
 20
274.27425113932259
 11
382.42239656130869
 21
273.19091805851338
  0
LINE
  8
_0-0_図面枠
  6
CONTINUOUS
 62
    7
 10
382.92239964211666
 20
273.3575844726542
 11
383.4223996421166
 21
273.3575844726542
  0
LINE
  8
_0-0_図面枠
  6
CENTER1
 62
    4
 10
355.08907195892709
 20
269.02425113932128
 11
355.08907195892709
 21
276.4742178737676
  0
LINE
  8
_0-0_図面枠
  6
CONTINUOUS
 62
    7
 10
383.4223996421166
 20
273.3575844726542
 11
383.4223996421166
 21
275.02425113932071
  0
ARC
  8
_0-0_図面枠
  6
CONTINUOUS
 62
    7
 10
382.75573297544997
 20
275.02425113932071
 40
0.6666666666666
 50
0
 51
90
  0
LINE
  8
_0-0_図面枠
  6
CONTINUOUS
 62
    7
 10
382.92239964211666
 20
273.3575844726542
 11
382.92239964211666
 21
275.02425113932071
  0
ARC
  8
_0-0_図面枠
  6
CONTINUOUS
 62
    7
 10
382.75573297544997
 20
275.02425113932071
 40
0.16666666666665
 50
0
 51
90
  0
LINE
  8
_0-0_図面枠
  6
CONTINUOUS
 62
    4
 10
352.4725690471729
 20
269.69091780598791
 11
351.80590238050632
 21
269.02425113932128
  0
LINE
  8
_0-0_図面枠
  6
CONTINUOUS
 62
    4
 10
351.05835548479996
 20
269.69091780598791
 11
350.58907195892755
 21
269.2216342801155
  0
LINE
  8
_0-0_図面枠
  6
CONTINUOUS
 62
    4
 10
353.41537808875489
 20
269.69091780598791
 11
352.74871142208832
 21
269.02425113932128
  0
LINE
  8
_0-0_図面枠
  6
CONTINUOUS
 62
    4
 10
352.94397356796389
 20
269.69091780598791
 11
352.27730690129732
 21
269.02425113932128
  0
LINE
  8
_0-0_図面枠
  6
CONTINUOUS
 62
    4
 10
352.00116452638196
 20
269.69091780598791
 11
351.33449785971533
 21
269.02425113932128
  0
LINE
  8
_0-0_図面枠
  6
CONTINUOUS
 62
    4
 10
351.52976000559096
 20
269.69091780598791
 11
350.86309333892439
 21
269.02425113932128
  0
ARC
  8
_0-0_図面枠
  6
CONTINUOUS
 62
    7
 10
350.75573221787499
 20
270.35758245244762
 40
0.16666666666665
 50
180.00004340588163
 51
270
  0
ARC
  8
_0-0_図面枠
  6
CONTINUOUS
 62
    7
 10
350.75573221787499
 20
270.35758245244762
 40
0.6666666666666
 50
180.00004340589138
 51
270
  0
LINE
  8
_0-0_図面枠
  6
CONTINUOUS
 62
    4
 10
350.58907195892755
 20
269.7120835736477
 11
350.58907195892755
 21
269.02425113932128
  0
LINE
  8
_0-0_図面枠
  6
CONTINUOUS
 62
    7
 10
350.58906201587172
 20
275.02422677063066
 11
350.58906555120836
 21
270.35758232618502
  0
LINE
  8
_0-0_図面枠
  6
CONTINUOUS
 62
    7
 10
382.75573297544997
 20
275.19091780598734
 11
350.75572868253835
 21
275.19091780598734
  0
ARC
  8
_0-0_図面枠
  6
CONTINUOUS
 62
    7
 10
350.75572868253829
 20
275.02422689689325
 40
0.16666666666665
 50
89.99999999998046
 51
180.00004340588163
  0
LINE
  8
_0-0_図面枠
  6
CONTINUOUS
 62
    7
 10
350.08906201587195
 20
275.02422639184277
 11
350.08906555120859
 21
270.35758194739714
  0
LINE
  8
_0-0_図面枠
  6
CONTINUOUS
 62
    7
 10
382.75573297544997
 20
275.69091780598728
 11
350.75572868253835
 21
275.69091780598728
  0
ARC
  8
_0-0_図面枠
  6
CONTINUOUS
 62
    7
 10
350.75572868253829
 20
275.02422689689325
 40
0.6666666666666
 50
89.999999999995111
 51
180.00004340589138
  0
LINE
  8
_0-1_
  6
CONTINUOUS
 62
    4
 10
431.75572868251163
 20
285.22425113931968
 11
431.8557286825116
 21
285.22425113931968
  0
LINE
  8
_0-1_
  6
CONTINUOUS
 62
    4
 10
431.8557286825116
 20
285.22425113931968
 11
432.52239468251156
 21
284.44647313931972
  0
LINE
  8
_0-1_
  6
CONTINUOUS
 62
    4
 10
431.8557286825116
 20
285.22425113931968
 11
431.8557286825116
 21
282.82425113931987
  0
LINE
  8
_0-1_
  6
CONTINUOUS
 62
    4
 10
431.75572868251163
 20
282.82425113931987
 11
431.8557286825116
 21
282.82425113931987
  0
LINE
  8
_0-1_
  6
CONTINUOUS
 62
    4
 10
431.8557286825116
 20
282.82425113931987
 11
432.52239468251156
 21
283.60202913931982
  0
LINE
  8
_0-1_
  6
CONTINUOUS
 62
    4
 10
434.71498768251132
 20
284.44647313931972
 11
434.37008768251133
 21
284.44647313931972
  0
LINE
  8
_0-1_
  6
CONTINUOUS
 62
    4
 10
435.31082768251133
 20
283.60202913931982
 11
434.99724768251133
 21
284.44647313931972
  0
LINE
  8
_0-1_
  6
CONTINUOUS
 62
    4
 10
435.02856768251127
 20
283.60202913931982
 11
434.71498768251132
 21
284.44647313931972
  0
LINE
  8
_0-1_
  6
CONTINUOUS
 62
    4
 10
435.16969768251136
 20
283.35758413931984
 11
434.85611768251135
 21
284.69091813931971
  0
LINE
  8
_0-1_
  6
CONTINUOUS
 62
    4
 10
435.16969768251136
 20
283.35758413931984
 11
435.31082768251133
 21
283.60202913931982
  0
LINE
  8
_0-1_
  6
CONTINUOUS
 62
    4
 10
435.16969768251136
 20
283.35758413931984
 11
435.02856768251127
 21
283.60202913931982
  0
LINE
  8
_0-1_
  6
CONTINUOUS
 62
    4
 10
434.85611768251135
 20
284.69091813931971
 11
434.99724768251133
 21
284.44647313931972
  0
LINE
  8
_0-1_
  6
CONTINUOUS
 62
    4
 10
434.71498768251132
 20
284.44647313931972
 11
434.85611768251135
 21
284.69091813931971
  0
LINE
  8
_0-1_
  6
CONTINUOUS
 62
    4
 10
434.05650668251138
 20
283.60202913931982
 11
434.40140768251138
 21
283.60202913931982
  0
LINE
  8
_0-1_
  6
CONTINUOUS
 62
    4
 10
434.08782668251138
 20
284.44647313931972
 11
433.74292668251144
 21
284.44647313931972
  0
LINE
  8
_0-1_
  6
CONTINUOUS
 62
    4
 10
434.68366768251133
 20
283.60202913931982
 11
434.37008768251133
 21
284.44647313931972
  0
LINE
  8
_0-1_
  6
CONTINUOUS
 62
    4
 10
434.40140768251138
 20
283.60202913931982
 11
434.08782668251138
 21
284.44647313931972
  0
LINE
  8
_0-1_
  6
CONTINUOUS
 62
    4
 10
434.54253768251135
 20
283.35758413931984
 11
434.22895768251141
 21
284.69091813931971
  0
LINE
  8
_0-1_
  6
CONTINUOUS
 62
    4
 10
434.54253768251135
 20
283.35758413931984
 11
434.68366768251133
 21
283.60202913931982
  0
LINE
  8
_0-1_
  6
CONTINUOUS
 62
    4
 10
434.54253768251135
 20
283.35758413931984
 11
434.40140768251138
 21
283.60202913931982
  0
LINE
  8
_0-1_
  6
CONTINUOUS
 62
    4
 10
434.22895768251141
 20
284.69091813931971
 11
434.37008768251133
 21
284.44647313931972
  0
LINE
  8
_0-1_
  6
CONTINUOUS
 62
    4
 10
434.08782668251138
 20
284.44647313931972
 11
434.22895768251141
 21
284.69091813931971
  0
LINE
  8
_0-1_
  6
CONTINUOUS
 62
    4
 10
433.42934668251144
 20
283.60202913931982
 11
433.77424668251143
 21
283.60202913931982
  0
LINE
  8
_0-1_
  6
CONTINUOUS
 62
    4
 10
433.46066668251149
 20
284.44647313931972
 11
433.11576668251143
 21
284.44647313931972
  0
LINE
  8
_0-1_
  6
CONTINUOUS
 62
    4
 10
434.05650668251138
 20
283.60202913931982
 11
433.74292668251144
 21
284.44647313931972
  0
LINE
  8
_0-1_
  6
CONTINUOUS
 62
    4
 10
433.77424668251143
 20
283.60202913931982
 11
433.46066668251149
 21
284.44647313931972
  0
LINE
  8
_0-1_
  6
CONTINUOUS
 62
    4
 10
433.91537668251135
 20
283.35758413931984
 11
433.60179668251141
 21
284.69091813931971
  0
LINE
  8
_0-1_
  6
CONTINUOUS
 62
    4
 10
433.91537668251135
 20
283.35758413931984
 11
434.05650668251138
 21
283.60202913931982
  0
LINE
  8
_0-1_
  6
CONTINUOUS
 62
    4
 10
433.91537668251135
 20
283.35758413931984
 11
433.77424668251143
 21
283.60202913931982
  0
LINE
  8
_0-1_
  6
CONTINUOUS
 62
    4
 10
433.60179668251141
 20
284.69091813931971
 11
433.74292668251144
 21
284.44647313931972
  0
LINE
  8
_0-1_
  6
CONTINUOUS
 62
    4
 10
433.46066668251149
 20
284.44647313931972
 11
433.60179668251141
 21
284.69091813931971
  0
LINE
  8
_0-1_
  6
CONTINUOUS
 62
    4
 10
433.06774868251148
 20
283.60202913931982
 11
433.14708668251149
 21
283.60202913931982
  0
LINE
  8
_0-1_
  6
CONTINUOUS
 62
    4
 10
432.52239468251156
 20
284.44647313931972
 11
432.83350568251149
 21
284.44647313931972
  0
LINE
  8
_0-1_
  6
CONTINUOUS
 62
    4
 10
433.42934668251144
 20
283.60202913931982
 11
433.11576668251143
 21
284.44647313931972
  0
LINE
  8
_0-1_
  6
CONTINUOUS
 62
    4
 10
433.14708668251149
 20
283.60202913931982
 11
432.83350568251149
 21
284.44647313931972
  0
LINE
  8
_0-1_
  6
CONTINUOUS
 62
    4
 10
433.28821668251146
 20
283.35758413931984
 11
432.97463668251146
 21
284.69091813931971
  0
LINE
  8
_0-1_
  6
CONTINUOUS
 62
    4
 10
433.28821668251146
 20
283.35758413931984
 11
433.42934668251144
 21
283.60202913931982
  0
LINE
  8
_0-1_
  6
CONTINUOUS
 62
    4
 10
433.28821668251146
 20
283.35758413931984
 11
433.14708668251149
 21
283.60202913931982
  0
LINE
  8
_0-1_
  6
CONTINUOUS
 62
    4
 10
433.11576668251143
 20
284.44647313931972
 11
432.97463668251146
 21
284.69091813931971
  0
LINE
  8
_0-1_
  6
CONTINUOUS
 62
    4
 10
432.83350568251149
 20
284.44647313931972
 11
432.97463668251146
 21
284.69091813931971
  0
LINE
  8
_0-1_
  6
CONTINUOUS
 62
    4
 10
432.52239468251156
 20
283.60202913931982
 11
432.60930068251156
 21
283.60202913931982
  0
LINE
  8
_0-1_
  6
CONTINUOUS
 62
    4
 10
432.59364068251153
 20
284.0242511393198
 11
432.75043068251148
 21
283.35758413931984
  0
LINE
  8
_0-1_
  6
CONTINUOUS
 62
    4
 10
432.75043068251148
 20
283.35758413931984
 11
432.89156068251151
 21
283.60202913931982
  0
LINE
  8
_0-1_
  6
CONTINUOUS
 62
    4
 10
432.75043068251148
 20
283.35758413931984
 11
432.60930068251156
 21
283.60202913931982
  0
LINE
  8
_0-1_
  6
CONTINUOUS
 62
    4
 10
432.89156068251151
 20
283.60202913931982
 11
433.06774868251148
 21
283.60202913931982
  0
LINE
  8
_0-1_
  6
CONTINUOUS
 62
    4
 10
436.42239468251114
 20
284.0242511393198
 11
437.0890616825111
 21
284.0242511393198
  0
LINE
  8
_0-1_
  6
CONTINUOUS
 62
    4
 10
435.42239468251125
 20
284.44647313931972
 11
435.42239468251125
 21
283.60203413931981
  0
LINE
  8
_0-1_
  6
CONTINUOUS
 62
    4
 10
437.0890616825111
 20
284.0242511393198
 11
436.78114168251113
 21
283.60202913931982
  0
LINE
  8
_0-1_
  6
CONTINUOUS
 62
    4
 10
437.0890616825111
 20
284.0242511393198
 11
436.78114168251113
 21
284.44647313931972
  0
ARC
  8
_0-1_
  6
CONTINUOUS
 62
    4
 10
436.99726068251113
 20
284.14917513931977
 40
0.588282999999941
 50
192.26032899999549
 51
248.44630399999687
  0
ARC
  8
_0-1_
  6
CONTINUOUS
 62
    4
 10
436.67858768251108
 20
286.02634613931963
 40
2.0184199999997983
 50
231.5109780000007
 51
262.70791800000165
  0
LINE
  8
_0-1_
  6
CONTINUOUS
 62
    4
 10
435.31082768251133
 20
283.60202913931982
 11
435.42239468251125
 21
283.60202913931982
  0
LINE
  8
_0-1_
  6
CONTINUOUS
 62
    4
 10
432.52239468251156
 20
283.60202913931982
 11
432.52239468251156
 21
284.44647313931972
  0
LINE
  8
_0-1_
  6
CONTINUOUS
 62
    4
 10
432.60930068251156
 20
283.60202913931982
 11
432.59364068251153
 21
284.0242511393198
  0
LINE
  8
_0-1_
  6
CONTINUOUS
 62
    4
 10
432.89156068251151
 20
283.60202913931982
 11
432.59364068251153
 21
284.0242511393198
  0
LINE
  8
_0-1_
  6
CONTINUOUS
 62
    4
 10
435.42239468251125
 20
283.60202913931982
 11
436.78114168251113
 21
283.60202913931982
  0
LINE
  8
_0-1_
  6
CONTINUOUS
 62
    4
 10
434.99724768251133
 20
284.44647313931972
 11
436.78114168251113
 21
284.44647313931972
  0
LINE
  8
_0-1_
  6
CONTINUOUS
 62
    4
 10
434.68366768251133
 20
283.60202913931982
 11
435.02856768251127
 21
283.60202913931982
  0
LINE
  8
_0-0_図面枠
  6
CENTER1
 62
    4
 10
430.6808604320812
 20
284.0242511393198
 11
437.57213706657336
 21
284.0242511393198
  0
ARC
  8
_0-1_
  6
CONTINUOUS
 62
    7
 10
437.75572868251106
 20
281.95758447265331
 40
0.16666666666665
 50
270
 51
0
  0
ARC
  8
_0-1_
  6
CONTINUOUS
 62
    7
 10
437.75574868251101
 20
285.85758447265295
 40
0.16666666666665
 50
0
 51
90
  0
LINE
  8
_0-1_
  6
CONTINUOUS
 62
    7
 10
437.92239534917769
 20
281.95710447265333
 11
437.9224153491777
 21
285.85758447265295
  0
ARC
  8
_0-1_
  6
CONTINUOUS
 62
    7
 10
437.75572868251106
 20
281.19091780598677
 40
0.16666666666665
 50
0
 51
90
  0
LINE
  8
_0-1_
  6
CONTINUOUS
 62
    7
 10
436.42239534917786
 20
281.3575844726534
 11
437.08906201584443
 21
281.02425113932009
  0
LINE
  8
_0-1_
  6
CONTINUOUS
 62
    7
 10
437.08906201584443
 20
281.02425113932009
 11
437.08906201584443
 21
281.3575844726534
  0
LINE
  8
_0-1_
  6
CONTINUOUS
 62
    7
 10
437.08906201584443
 20
281.3575844726534
 11
437.75572868251106
 21
281.3575844726534
  0
LINE
  8
_0-1_
  6
CONTINUOUS
 62
    7
 10
433.75572901584474
 20
286.52425113931952
 11
434.42239568251136
 21
286.85758447265283
  0
LINE
  8
_0-0_図面枠
  6
CONTINUOUS
 62
    7
 10
434.42239568251136
 20
286.85758447265283
 11
434.42239568251136
 21
286.52425113931952
  0
LINE
  8
_0-1_
  6
CONTINUOUS
 62
    7
 10
438.42239534917769
 20
286.52425113931952
 11
434.42239568251136
 21
286.52425113931952
  0
ARC
  8
_0-1_
  6
CONTINUOUS
 62
    7
 10
433.58906101584478
 20
285.85758447265295
 40
0.16666666666665
 50
90
 51
180
  0
ARC
  8
_0-1_
  6
CONTINUOUS
 62
    7
 10
432.42239434917826
 20
281.82461280598665
 40
0.16666666666665
 50
180
 51
257.47119199999264
  0
LINE
  8
_0-1_
  6
CONTINUOUS
 62
    7
 10
433.75572768251146
 20
281.3575844726534
 11
432.38623934917825
 21
281.66191447265334
  0
LINE
  8
_0-1_
  6
CONTINUOUS
 62
    7
 10
433.75572768251146
 20
281.79091780598668
 11
433.55216768251148
 21
281.83712447265333
  0
ARC
  8
_0-1_
  6
CONTINUOUS
 62
    7
 10
432.42239434917826
 20
282.52425113931992
 40
0.16666666666665
 50
90
 51
180
  0
ARC
  8
_0-1_
  6
CONTINUOUS
 62
    7
 10
432.42239434917826
 20
286.35758447265289
 40
0.16666666666665
 50
90
 51
180
  0
ARC
  8
_0-1_
  6
CONTINUOUS
 62
    7
 10
432.42239434917826
 20
285.52425113931963
 40
0.16666666666665
 50
180
 51
270
  0
LINE
  8
_0-1_
  6
CONTINUOUS
 62
    7
 10
432.92239434917821
 20
285.357584472653
 11
432.42239434917826
 21
285.357584472653
  0
LINE
  8
_0-1_
  6
CONTINUOUS
 62
    7
 10
432.92239434917821
 20
282.69091780598654
 11
432.92239434917821
 21
283.92425113931978
  0
LINE
  8
_0-1_
  6
CONTINUOUS
 62
    7
 10
432.92239434917821
 20
285.357584472653
 11
432.92239434917821
 21
284.12425113931977
  0
LINE
  8
_0-1_
  6
CONTINUOUS
 62
    7
 10
432.92239434917821
 20
282.69091780598654
 11
432.42239434917826
 21
282.69091780598654
  0
ARC
  8
_0-1_
  6
CONTINUOUS
 62
    7
 10
433.58906101584478
 20
281.99965613932
 40
0.16666666666665
 50
180
 51
257.21094600003067
  0
LINE
  8
_0-1_
  6
CONTINUOUS
 62
    7
 10
433.42239434917815
 20
281.99965613932
 11
433.42239434917815
 21
282.85758447265323
  0
LINE
  8
_0-1_
  6
CONTINUOUS
 62
    7
 10
433.42239434917815
 20
285.85758447265295
 11
433.42239434917815
 21
285.19091780598632
  0
LINE
  8
_0-1_
  6
CONTINUOUS
 62
    7
 10
436.42239534917786
 20
281.3575844726534
 11
433.75572768251146
 21
281.3575844726534
  0
LINE
  8
_0-1_
  6
CONTINUOUS
 62
    7
 10
433.75572768251146
 20
281.79091780598668
 11
437.75572868251106
 21
281.79091780598668
  0
LINE
  8
_0-1_
  6
CONTINUOUS
 62
    7
 10
437.75574868251101
 20
286.02425113931957
 11
433.58906101584478
 21
286.02425113931957
  0
LINE
  8
_0-1_
  6
CONTINUOUS
 62
    7
 10
433.75572901584474
 20
286.52425113931952
 11
432.42239434917826
 21
286.52425113931952
  0
LINE
  8
_0-1_
  6
CONTINUOUS
 62
    7
 10
433.92239434917815
 20
283.02425113931986
 11
433.58906101584478
 21
283.02425113931986
  0
LINE
  8
_0-1_
  6
CONTINUOUS
 62
    7
 10
433.92239434917815
 20
285.02425113931969
 11
433.58906101584478
 21
285.02425113931969
  0
LINE
  8
_0-1_
  6
CONTINUOUS
 62
    7
 10
433.92239434917815
 20
283.02425113931986
 11
433.92239434917815
 21
285.02425113931969
  0
ARC
  8
_0-1_
  6
CONTINUOUS
 62
    7
 10
433.58906101584478
 20
285.19091780598632
 40
0.16666666666665
 50
180
 51
270
  0
ARC
  8
_0-1_
  6
CONTINUOUS
 62
    7
 10
433.58906101584478
 20
282.85758447265323
 40
0.16666666666665
 50
90
 51
180
  0
LINE
  8
_0-1_
  6
CONTINUOUS
 62
    7
 10
433.02239434917817
 20
284.0242511393198
 11
432.92239434917821
 21
284.12425113931977
  0
LINE
  8
_0-1_
  6
CONTINUOUS
 62
    7
 10
433.02239434917817
 20
284.0242511393198
 11
432.92239434917821
 21
283.92425113931978
  0
LINE
  8
_0-0_図面枠
  6
CONTINUOUS
 62
    4
 10
438.42239534917769
 20
289.08356309265582
 11
437.75572868251106
 21
288.41689642598919
  0
LINE
  8
_0-0_図面枠
  6
CONTINUOUS
 62
    4
 10
438.42239534917769
 20
288.61215857186482
 11
437.75572868251106
 21
287.9454919051982
  0
LINE
  8
_0-0_図面枠
  6
CONTINUOUS
 62
    4
 10
438.42239534917769
 20
288.14075405107383
 11
437.75572868251106
 21
287.47408738440726
  0
LINE
  8
_0-0_図面枠
  6
CONTINUOUS
 62
    4
 10
438.42239534917769
 20
287.66934953028283
 11
437.75572868251106
 21
287.00268286361626
  0
LINE
  8
_0-0_図面枠
  6
CONTINUOUS
 62
    4
 10
438.42239534917769
 20
286.72654048870089
 11
438.22010599979632
 21
286.52425113931952
  0
LINE
  8
_0-0_図面枠
  6
CONTINUOUS
 62
    4
 10
438.42239534917769
 20
287.19794500949183
 11
437.75572868251106
 21
286.53127834282526
  0
LINE
  8
_0-0_図面枠
  6
CONTINUOUS
 62
    4
 10
349.05552315809479
 20
275.69089356355988
 11
343.42239534918713
 21
275.69089356355988
  0
POINT
  8
_0-0_図面枠
 62
    4
 10
343.42239534918713
 20
275.69089356355988
  0
LINE
  8
_0-0_図面枠
  6
CONTINUOUS
 62
    4
 10
343.42239534918713
 20
275.69089356355988
 11
343.42239534918713
 21
269.02425113932128
  0
ARC
  8
_0-0_図面枠
  6
CONTINUOUS
 62
    7
 10
432.42239534917826
 20
289.69091780598586
 40
0.6666666666666
 50
90
 51
180
  0
ARC
  8
_0-0_図面枠
  6
CONTINUOUS
 62
    7
 10
432.42239534917826
 20
289.69091780598586
 40
0.16666666666665
 50
90
 51
180
  0
LINE
  8
_0-0_図面枠
  6
CONTINUOUS
 62
    7
 10
437.08906201584443
 20
289.85758447265255
 11
432.42239534917826
 21
289.85758447265255
  0
ARC
  8
_0-0_図面枠
  6
CONTINUOUS
 62
    7
 10
437.08906201584443
 20
289.69091780598586
 40
0.16666666666665
 50
0
 51
90
  0
LINE
  8
_0-0_図面枠
  6
CONTINUOUS
 62
    7
 10
437.08906201584443
 20
290.35758447265249
 11
432.42239534917826
 21
290.35758447265249
  0
ARC
  8
_0-0_図面枠
  6
CONTINUOUS
 62
    7
 10
437.08906201584443
 20
289.69091780598586
 40
0.6666666666666
 50
0
 51
90
  0
LINE
  8
_0-0_図面枠
  6
CONTINUOUS
 62
    4
 10
438.42239534917769
 20
289.85758447265255
 11
437.73455924021232
 21
289.85758447265255
  0
POINT
  8
_0-0_図面枠
 62
    4
 10
438.42239534917769
 20
296.85758447265181
  0
POINT
  8
_0-0_図面枠
 62
    4
 10
438.42239534917769
 20
301.8575844726513
  0
POINT
  8
_0-0_図面枠
 62
    4
 10
383.42239534918315
 20
296.85758447265181
  0
POINT
  8
_0-0_図面枠
 62
    4
 10
350.08906201585319
 20
296.85758447265181
  0
POINT
  8
_0-0_図面枠
 62
    4
 10
350.08906201585319
 20
301.8575844726513
  0
LINE
  8
_0-0_図面枠
  6
CONTINUOUS
 62
    4
 10
383.42239534918315
 20
296.85758447265181
 11
350.08906201585319
 21
296.85758447265181
  0
LINE
  8
_0-0_図面枠
  6
CONTINUOUS
 62
    4
 10
438.42239534917769
 20
301.8575844726513
 11
350.08906201585319
 21
301.8575844726513
  0
POINT
  8
_0-0_図面枠
 62
    4
 10
431.75572868251163
 20
296.85758447265181
  0
LINE
  8
_0-0_図面枠
  6
CONTINUOUS
 62
    4
 10
431.75572868251163
 20
296.85758447265181
 11
383.42239534918315
 21
296.85758447265181
  0
LINE
  8
_0-0_図面枠
  6
CONTINUOUS
 62
    4
 10
431.75572868251163
 20
296.85758447265181
 11
438.42239534917769
 21
296.85758447265181
  0
POINT
  8
_0-0_図面枠
 62
    4
 10
338.42239534918764
 20
290.35758447265249
  0
POINT
  8
_0-0_図面枠
 62
    4
 10
343.42239534918713
 20
290.35758447265249
  0
LINE
  8
_0-0_図面枠
  6
CONTINUOUS
 62
    4
 10
431.21533502687259
 20
290.35758447265249
 11
338.42239534918764
 21
290.35758447265249
  0
LINE
  8
_0-1_
  6
CONTINUOUS
 62
    4
 10
438.42239534917769
 20
246.69091813932346
 11
438.42239534917769
 21
301.8575844726513
  0
LINE
  8
_0-0_図面枠
  6
CONTINUOUS
 62
    4
 10
431.75572868251163
 20
290.52617706158657
 11
431.75572868251163
 21
296.85758447265181
  0
LINE
  8
_0-0_図面枠
  6
CONTINUOUS
 62
    4
 10
383.42239534918315
 20
276.71748840528414
 11
383.42239534918315
 21
296.85758447265181
  0
LINE
  8
_0-0_図面枠
  6
CONTINUOUS
 62
    4
 10
350.08906201585319
 20
276.71748840528414
 11
350.08906201585319
 21
301.8575844726513
  0
LINE
  8
_0-0_図面枠
  6
CONTINUOUS
 62
    7
 10
437.25572868251112
 20
286.52425113931952
 11
437.25572868251112
 21
289.69091780598586
  0
LINE
  8
_0-0_図面枠
  6
CONTINUOUS
 62
    7
 10
437.75572868251106
 20
286.52425113931952
 11
437.75572868251106
 21
289.69091780598586
  0
LINE
  8
_0-0_図面枠
  6
CONTINUOUS
 62
    4
 10
438.42239534917769
 20
289.55496761344682
 11
437.75572868251106
 21
288.88830094678019
  0
LINE
  8
_0-0_図面枠
  6
CONTINUOUS
 62
    4
 10
438.25360768759242
 20
289.85758447265255
 11
437.75572868251106
 21
289.35970546757119
  0
LINE
  8
_0-0_図面枠
  6
CONTINUOUS
 62
    4
 10
437.78220316680142
 20
289.85758447265255
 11
437.74335983714582
 21
289.81874114299694
  0
LINE
  8
_0-0_図面枠
  6
CONTINUOUS
 62
    4
 10
343.42239534918713
 20
275.69089356355988
 11
343.42239534918713
 21
290.35758447265249
  0
LINE
  8
_0-0_図面枠
  6
CONTINUOUS
 62
    4
 10
338.42239534918764
 20
269.02425113932128
 11
338.42239534918764
 21
290.35758447265249
  0
LINE
  8
_0-1_
  6
CONTINUOUS
 62
    4
 10
356.7890720851895
 20
275.69091780598728
 11
356.7890720851895
 21
275.59091780598732
  0
LINE
  8
_0-1_
  6
CONTINUOUS
 62
    4
 10
356.7890720851895
 20
275.59091780598732
 11
356.01129408518955
 21
274.92425180598735
  0
LINE
  8
_0-1_
  6
CONTINUOUS
 62
    4
 10
356.7890720851895
 20
275.59091780598732
 11
354.38907208518975
 21
275.59091780598732
  0
LINE
  8
_0-1_
  6
CONTINUOUS
 62
    4
 10
354.38907208518975
 20
275.69091780598728
 11
354.38907208518975
 21
275.59091780598732
  0
LINE
  8
_0-1_
  6
CONTINUOUS
 62
    4
 10
354.38907208518975
 20
275.59091780598732
 11
355.16685008518965
 21
274.92425180598735
  0
LINE
  8
_0-1_
  6
CONTINUOUS
 62
    4
 10
356.01129408518955
 20
272.73165880598759
 11
356.01129408518955
 21
273.07655880598753
  0
LINE
  8
_0-1_
  6
CONTINUOUS
 62
    4
 10
355.16685008518965
 20
272.13581880598764
 11
356.01129408518955
 21
272.44939880598764
  0
LINE
  8
_0-1_
  6
CONTINUOUS
 62
    4
 10
355.16685008518965
 20
272.41807880598765
 11
356.01129408518955
 21
272.73165880598759
  0
LINE
  8
_0-1_
  6
CONTINUOUS
 62
    4
 10
354.92240508518967
 20
272.27694880598762
 11
356.25573908518953
 21
272.59052880598762
  0
LINE
  8
_0-1_
  6
CONTINUOUS
 62
    4
 10
354.92240508518967
 20
272.27694880598762
 11
355.16685008518965
 21
272.13581880598764
  0
LINE
  8
_0-1_
  6
CONTINUOUS
 62
    4
 10
354.92240508518967
 20
272.27694880598762
 11
355.16685008518965
 21
272.41807880598765
  0
LINE
  8
_0-1_
  6
CONTINUOUS
 62
    4
 10
356.25573908518953
 20
272.59052880598762
 11
356.01129408518955
 21
272.44939880598764
  0
LINE
  8
_0-1_
  6
CONTINUOUS
 62
    4
 10
356.01129408518955
 20
272.73165880598759
 11
356.25573908518953
 21
272.59052880598762
  0
LINE
  8
_0-1_
  6
CONTINUOUS
 62
    4
 10
355.16685008518965
 20
273.39013980598759
 11
355.16685008518965
 21
273.04523880598759
  0
LINE
  8
_0-1_
  6
CONTINUOUS
 62
    4
 10
356.01129408518955
 20
273.35881980598754
 11
356.01129408518955
 21
273.70371980598753
  0
LINE
  8
_0-1_
  6
CONTINUOUS
 62
    4
 10
355.16685008518965
 20
272.76297880598759
 11
356.01129408518955
 21
273.07655880598753
  0
LINE
  8
_0-1_
  6
CONTINUOUS
 62
    4
 10
355.16685008518965
 20
273.04523880598759
 11
356.01129408518955
 21
273.35881980598754
  0
LINE
  8
_0-1_
  6
CONTINUOUS
 62
    4
 10
354.92240508518967
 20
272.90410880598756
 11
356.25573908518953
 21
273.21768880598756
  0
LINE
  8
_0-1_
  6
CONTINUOUS
 62
    4
 10
354.92240508518967
 20
272.90410880598756
 11
355.16685008518965
 21
272.76297880598759
  0
LINE
  8
_0-1_
  6
CONTINUOUS
 62
    4
 10
354.92240508518967
 20
272.90410880598756
 11
355.16685008518965
 21
273.04523880598759
  0
LINE
  8
_0-1_
  6
CONTINUOUS
 62
    4
 10
356.25573908518953
 20
273.21768880598756
 11
356.01129408518955
 21
273.07655880598753
  0
LINE
  8
_0-1_
  6
CONTINUOUS
 62
    4
 10
356.01129408518955
 20
273.35881980598754
 11
356.25573908518953
 21
273.21768880598756
  0
LINE
  8
_0-1_
  6
CONTINUOUS
 62
    4
 10
355.16685008518965
 20
274.01729980598748
 11
355.16685008518965
 21
273.67239980598748
  0
LINE
  8
_0-1_
  6
CONTINUOUS
 62
    4
 10
356.01129408518955
 20
273.98597980598748
 11
356.01129408518955
 21
274.33087980598748
  0
LINE
  8
_0-1_
  6
CONTINUOUS
 62
    4
 10
355.16685008518965
 20
273.39013980598759
 11
356.01129408518955
 21
273.70371980598753
  0
LINE
  8
_0-1_
  6
CONTINUOUS
 62
    4
 10
355.16685008518965
 20
273.67239980598748
 11
356.01129408518955
 21
273.98597980598748
  0
LINE
  8
_0-1_
  6
CONTINUOUS
 62
    4
 10
354.92240508518967
 20
273.53126980598751
 11
356.25573908518953
 21
273.84484980598751
  0
LINE
  8
_0-1_
  6
CONTINUOUS
 62
    4
 10
354.92240508518967
 20
273.53126980598751
 11
355.16685008518965
 21
273.39013980598759
  0
LINE
  8
_0-1_
  6
CONTINUOUS
 62
    4
 10
354.92240508518967
 20
273.53126980598751
 11
355.16685008518965
 21
273.67239980598748
  0
LINE
  8
_0-1_
  6
CONTINUOUS
 62
    4
 10
356.25573908518953
 20
273.84484980598751
 11
356.01129408518955
 21
273.70371980598753
  0
LINE
  8
_0-1_
  6
CONTINUOUS
 62
    4
 10
356.01129408518955
 20
273.98597980598748
 11
356.25573908518953
 21
273.84484980598751
  0
LINE
  8
_0-1_
  6
CONTINUOUS
 62
    4
 10
355.16685008518965
 20
274.37889780598744
 11
355.16685008518965
 21
274.29955980598743
  0
LINE
  8
_0-1_
  6
CONTINUOUS
 62
    4
 10
356.01129408518955
 20
274.92425180598735
 11
356.01129408518955
 21
274.61314080598743
  0
LINE
  8
_0-1_
  6
CONTINUOUS
 62
    4
 10
355.16685008518965
 20
274.01729980598748
 11
356.01129408518955
 21
274.33087980598748
  0
LINE
  8
_0-1_
  6
CONTINUOUS
 62
    4
 10
355.16685008518965
 20
274.29955980598743
 11
356.01129408518955
 21
274.61314080598743
  0
LINE
  8
_0-1_
  6
CONTINUOUS
 62
    4
 10
354.92240508518967
 20
274.15842980598745
 11
356.25573908518953
 21
274.47200980598745
  0
LINE
  8
_0-1_
  6
CONTINUOUS
 62
    4
 10
354.92240508518967
 20
274.15842980598745
 11
355.16685008518965
 21
274.01729980598748
  0
LINE
  8
_0-1_
  6
CONTINUOUS
 62
    4
 10
354.92240508518967
 20
274.15842980598745
 11
355.16685008518965
 21
274.29955980598743
  0
LINE
  8
_0-1_
  6
CONTINUOUS
 62
    4
 10
356.01129408518955
 20
274.33087980598748
 11
356.25573908518953
 21
274.47200980598745
  0
LINE
  8
_0-1_
  6
CONTINUOUS
 62
    4
 10
356.01129408518955
 20
274.61314080598743
 11
356.25573908518953
 21
274.47200980598745
  0
LINE
  8
_0-1_
  6
CONTINUOUS
 62
    4
 10
355.16685008518965
 20
274.92425180598735
 11
355.16685008518965
 21
274.83734580598741
  0
LINE
  8
_0-1_
  6
CONTINUOUS
 62
    4
 10
355.58907208518963
 20
274.85300580598744
 11
354.92240508518967
 21
274.69621580598744
  0
LINE
  8
_0-1_
  6
CONTINUOUS
 62
    4
 10
354.92240508518967
 20
274.69621580598744
 11
355.16685008518965
 21
274.5550858059874
  0
LINE
  8
_0-1_
  6
CONTINUOUS
 62
    4
 10
354.92240508518967
 20
274.69621580598744
 11
355.16685008518965
 21
274.83734580598741
  0
LINE
  8
_0-1_
  6
CONTINUOUS
 62
    4
 10
355.16685008518965
 20
274.5550858059874
 11
355.16685008518965
 21
274.37889780598744
  0
LINE
  8
_0-1_
  6
CONTINUOUS
 62
    4
 10
355.58907208518963
 20
271.02425180598777
 11
355.58907208518963
 21
270.35758480598787
  0
LINE
  8
_0-1_
  6
CONTINUOUS
 62
    4
 10
356.01129408518955
 20
272.02425180598766
 11
355.1668550851897
 21
272.02425180598766
  0
LINE
  8
_0-1_
  6
CONTINUOUS
 62
    4
 10
355.58907208518963
 20
270.35758480598787
 11
355.16685008518965
 21
270.66550480598778
  0
LINE
  8
_0-1_
  6
CONTINUOUS
 62
    4
 10
355.58907208518963
 20
270.35758480598787
 11
356.01129408518955
 21
270.66550480598778
  0
ARC
  8
_0-1_
  6
CONTINUOUS
 62
    4
 10
355.71399608518959
 20
270.44938580598779
 40
0.588282999999941
 50
102.26032899999551
 51
158.44630399999789
  0
ARC
  8
_0-1_
  6
CONTINUOUS
 62
    4
 10
357.59116708518945
 20
270.76805880598778
 40
2.0184199999997983
 50
141.51097799999943
 51
172.70791799999836
  0
LINE
  8
_0-1_
  6
CONTINUOUS
 62
    4
 10
355.16685008518965
 20
272.13581880598764
 11
355.16685008518965
 21
272.02425180598766
  0
LINE
  8
_0-1_
  6
CONTINUOUS
 62
    4
 10
355.16685008518965
 20
274.92425180598735
 11
356.01129408518955
 21
274.92425180598735
  0
LINE
  8
_0-1_
  6
CONTINUOUS
 62
    4
 10
355.16685008518965
 20
274.83734580598741
 11
355.58907208518963
 21
274.85300580598744
  0
LINE
  8
_0-1_
  6
CONTINUOUS
 62
    4
 10
355.16685008518965
 20
274.5550858059874
 11
355.58907208518963
 21
274.85300580598744
  0
LINE
  8
_0-1_
  6
CONTINUOUS
 62
    4
 10
355.16685008518965
 20
272.02425180598766
 11
355.16685008518965
 21
270.66550480598778
  0
LINE
  8
_0-1_
  6
CONTINUOUS
 62
    4
 10
356.01129408518955
 20
272.44939880598764
 11
356.01129408518955
 21
270.66550480598778
  0
LINE
  8
_0-1_
  6
CONTINUOUS
 62
    4
 10
355.16685008518965
 20
272.76297880598759
 11
355.16685008518965
 21
272.41807880598765
  0
ARC
  8
_0-0_図面枠
  6
CONTINUOUS
 62
    7
 10
354.08907208518974
 20
275.02425113932071
 40
0.16666666666665
 50
90
 51
180
  0
LINE
  8
_0-1_
  6
CONTINUOUS
 62
    7
 10
353.92240541852311
 20
269.02425113932128
 11
353.92240541852311
 21
273.02425113932088
  0
LINE
  8
_0-1_
  6
CONTINUOUS
 62
    7
 10
353.92240541852311
 20
273.69091760652782
 11
353.92240541852311
 21
275.02425113932071
  0
ARC
  8
_0-0_図面枠
  6
CONTINUOUS
 62
    7
 10
356.58907208518951
 20
274.6909178059874
 40
0.6666666666666
 50
270
 51
0
  0
ARC
  8
_0-0_図面枠
  6
CONTINUOUS
 62
    7
 10
354.25573875185643
 20
275.02425113932071
 40
0.16666666666665
 50
0
 51
90
  0
ARC
  8
_0-0_図面枠
  6
CONTINUOUS
 62
    7
 10
356.92240541852283
 20
275.02425113932071
 40
0.16666666666665
 50
90
 51
180
  0
LINE
  8
_0-1_
  6
CONTINUOUS
 62
    7
 10
357.25573875185614
 20
275.02425113932071
 11
357.25573875185614
 21
274.6909178059874
  0
ARC
  8
_0-0_図面枠
  6
CONTINUOUS
 62
    7
 10
357.08907208518946
 20
275.02425113932071
 40
0.16666666666665
 50
0
 51
90
  0
LINE
  8
_0-1_
  6
CONTINUOUS
 62
    7
 10
354.42240541852306
 20
273.69091780598751
 11
354.42240541852306
 21
269.69091780598791
  0
LINE
  8
_0-0_図面枠
  6
CONTINUOUS
 62
    7
 10
354.75573875185637
 20
274.02425113932077
 11
356.58907208518951
 21
274.02425113932077
  0
ARC
  8
_0-0_図面枠
  6
CONTINUOUS
 62
    7
 10
354.75573875185637
 20
273.69091780598751
 40
0.3333333333333
 50
90
 51
180
  0
LINE
  8
_0-0_図面枠
  6
CONTINUOUS
 62
    7
 10
354.42240541852306
 20
274.6909178059874
 11
355.4890720851896
 21
274.6909178059874
  0
LINE
  8
_0-0_図面枠
  6
CONTINUOUS
 62
    7
 10
355.68907208518959
 20
274.6909178059874
 11
356.75573875185614
 21
274.6909178059874
  0
LINE
  8
_0-0_図面枠
  6
CONTINUOUS
 62
    7
 10
354.42240541852306
 20
274.6909178059874
 11
354.42240541852306
 21
275.02425113932071
  0
LINE
  8
_0-0_図面枠
  6
CONTINUOUS
 62
    7
 10
356.75573875185614
 20
275.02425113932071
 11
356.75573875185614
 21
274.6909178059874
  0
LINE
  8
_0-0_図面枠
  6
CONTINUOUS
 62
    7
 10
355.58907208518963
 20
274.59091780598737
 11
355.4890720851896
 21
274.6909178059874
  0
LINE
  8
_0-0_図面枠
  6
CONTINUOUS
 62
    7
 10
355.58907208518963
 20
274.59091780598737
 11
355.68907208518965
 21
274.6909178059874
  0
LINE
  8
_0-1_
  6
CONTINUOUS
 62
    7
 10
354.58907208518974
 20
269.52425113932122
 11
363.9224054185222
 21
269.52425113932122
  0
LINE
  8
_0-1_
  6
CONTINUOUS
 62
    7
 10
364.58907208518877
 20
270.35758480598781
 11
364.92240508518876
 21
270.35758480598781
  0
ARC
  8
_0-0_図面枠
  6
CONTINUOUS
 62
    7
 10
364.1890720851888
 20
271.25758480598773
 40
0.09999999999999
 50
90
 51
180
  0
LINE
  8
_0-1_
  6
CONTINUOUS
 62
    7
 10
364.62705940934518
 20
271.24362271955641
 11
364.92240508518876
 21
270.35758480598781
  0
LINE
  8
_0-0_図面枠
  6
CONTINUOUS
 62
    7
 10
364.46894551052537
 20
271.35758480598776
 11
364.1890720851888
 21
271.35758480598776
  0
ARC
  8
_0-0_図面枠
  6
CONTINUOUS
 62
    7
 10
364.46894551052537
 20
271.19091813932107
 40
0.16666666666665
 50
18.434931634205746
 51
90
  0
LINE
  8
_0-0_図面枠
  6
CONTINUOUS
 62
    7
 10
364.58907208518877
 20
270.35758480598781
 11
364.58907208518877
 21
269.69091780598791
  0
ARC
  8
_0-0_図面枠
  6
CONTINUOUS
 62
    7
 10
364.75573875185546
 20
269.69091780598791
 40
0.16666666666665
 50
180
 51
270
  0
LINE
  8
_0-0_図面枠
  6
CONTINUOUS
 62
    7
 10
364.08907208518883
 20
271.25758480598773
 11
364.08907208518883
 21
269.69091780598791
  0
ARC
  8
_0-0_図面枠
  6
CONTINUOUS
 62
    7
 10
363.9224054185222
 20
269.69091780598791
 40
0.16666666666665
 50
270
 51
0
  0
LINE
  8
_0-1_
  6
CONTINUOUS
 62
    7
 10
364.75573875185546
 20
269.52425113932122
 11
384.08907241852012
 21
269.52425113932122
  0
ARC
  8
_0-1_
  6
CONTINUOUS
 62
    7
 10
384.08907241852012
 20
269.69091780598791
 40
0.16666666666665
 50
270
 51
0
  0
ARC
  8
_0-1_
  6
CONTINUOUS
 62
    7
 10
384.58907241852012
 20
269.19091780598797
 40
0.16666666666665
 50
270
 51
0
  0
ARC
  8
_0-1_
  6
CONTINUOUS
 62
    7
 10
384.50573908518675
 20
272.10758447265431
 40
0.2499999999999749
 50
0
 51
180
  0
LINE
  8
_0-1_
  6
CONTINUOUS
 62
    7
 10
384.75573908518675
 20
272.10758447265431
 11
384.75573908518675
 21
269.19091780598797
  0
LINE
  8
_0-1_
  6
CONTINUOUS
 62
    7
 10
384.2557390851868
 20
272.10758447265431
 11
384.2557390851868
 21
269.69091780598791
  0
LINE
  8
_0-1_
  6
CONTINUOUS
 62
    4
 10
363.58907708518882
 20
270.02425113932122
 11
357.58907708518939
 21
270.02425113932122
  0
LINE
  8
_0-1_
  6
CONTINUOUS
 62
    4
 10
357.58907708518939
 20
270.02425113932122
 11
357.58907708518939
 21
269.52425113932122
  0
LINE
  8
_0-1_
  6
CONTINUOUS
 62
    4
 10
363.58907708518882
 20
270.02425113932122
 11
363.58907708518882
 21
269.52425113932122
  0
LINE
  8
_0-1_
  6
CONTINUOUS
 62
    4
 10
360.58907708518916
 20
269.42425613932124
 11
360.68907708518907
 21
269.52425613932127
  0
LINE
  8
_0-1_
  6
CONTINUOUS
 62
    4
 10
360.58907708518916
 20
269.42425613932124
 11
360.48908208518912
 21
269.52425113932122
  0
ARC
  8
_0-1_
  6
CONTINUOUS
 62
    4
 10
360.12224408518921
 20
270.04058430351631
 40
0.7999999999999201
 50
125.70005900000093
 51
181.1698579999973
  0
ARC
  8
_0-1_
  6
CONTINUOUS
 62
    4
 10
360.58907708518916
 20
269.3909183035164
 40
1.5999999999998402
 50
54.299960999999357
 51
90
  0
ARC
  8
_0-1_
  6
CONTINUOUS
 62
    4
 10
361.05591008518911
 20
270.04058430351631
 40
0.7999999999999201
 50
358.8301420000027
 51
54.299940999999166
  0
ARC
  8
_0-1_
  6
CONTINUOUS
 62
    4
 10
360.58907708518916
 20
269.3909183035164
 40
1.5999999999998402
 50
90
 51
125.70003900000066
  0
LINE
  8
_0-1_
  6
CENTER1
 62
    4
 10
360.58907208518912
 20
259.47007002464977
 11
360.58907208518912
 21
271.64425713932098
  0
LINE
  8
_0-0_図面枠
  6
CONTINUOUS
 62
    7
 10
360.48907208518915
 20
269.52425113932122
 11
360.58907208518917
 21
269.42425113932126
  0
LINE
  8
_0-0_図面枠
  6
CONTINUOUS
 62
    7
 10
360.58907208518917
 20
269.42425113932126
 11
360.6890720851892
 21
269.52425113932122
  0
LINE
  8
_0-0_図面枠
  6
CONTINUOUS
 62
    4
 10
362.9224054185222
 20
269.02425113932128
 11
362.9224054185222
 21
269.52425113932122
  0
LINE
  8
_0-0_図面枠
  6
CONTINUOUS
 62
    4
 10
358.25573875185603
 20
269.02425113932128
 11
358.25573875185603
 21
269.52425113932122
  0
LINE
  8
_0-1_
  6
CONTINUOUS
 62
    4
 10
359.4332680851893
 20
264.07415713932181
 11
359.00942708518932
 21
265.23865213932169
  0
LINE
  8
_0-1_
  6
CONTINUOUS
 62
    4
 10
359.3416800851893
 20
262.32655513932195
 11
359.82791108518921
 21
262.05073013932196
  0
LINE
  8
_0-1_
  6
CONTINUOUS
 62
    4
 10
359.82791108518921
 20
262.05073013932196
 11
359.80174308518923
 21
261.55141513932199
  0
LINE
  8
_0-1_
  6
CONTINUOUS
 62
    4
 10
359.80174308518923
 20
261.55141513932199
 11
359.30242808518926
 21
261.57758313932203
  0
LINE
  8
_0-1_
  6
CONTINUOUS
 62
    4
 10
359.36784808518928
 20
262.82587013932186
 11
359.3416800851893
 21
262.32655513932195
  0
LINE
  8
_0-1_
  6
CONTINUOUS
 62
    4
 10
359.40710008518926
 20
263.57484213932179
 11
359.89333108518923
 21
263.29901613932185
  0
LINE
  8
_0-1_
  6
CONTINUOUS
 62
    4
 10
359.89333108518923
 20
263.29901613932185
 11
359.86716308518919
 21
262.79970213932194
  0
LINE
  8
_0-1_
  6
CONTINUOUS
 62
    4
 10
359.86716308518919
 20
262.79970213932194
 11
359.36784808518928
 21
262.82587013932186
  0
LINE
  8
_0-1_
  6
CONTINUOUS
 62
    4
 10
359.4332680851893
 20
264.07415713932181
 11
359.40710008518926
 21
263.57484213932179
  0
LINE
  8
_0-1_
  6
CONTINUOUS
 62
    4
 10
359.47252008518927
 20
264.82312913932168
 11
359.95875108518919
 21
264.54730313932174
  0
LINE
  8
_0-1_
  6
CONTINUOUS
 62
    4
 10
359.95875108518919
 20
264.54730313932174
 11
359.93258308518921
 21
264.04798913932177
  0
LINE
  8
_0-1_
  6
CONTINUOUS
 62
    4
 10
359.93258308518921
 20
264.04798913932177
 11
359.4332680851893
 21
264.07415713932181
  0
LINE
  8
_0-1_
  6
CONTINUOUS
 62
    4
 10
359.49868808518926
 20
265.32244413932165
 11
359.47252008518927
 21
264.82312913932168
  0
LINE
  8
_0-1_
  6
CONTINUOUS
 62
    4
 10
360.02417108518921
 20
265.79559013932163
 11
359.99800308518923
 21
265.29627613932166
  0
LINE
  8
_0-1_
  6
CONTINUOUS
 62
    4
 10
359.99800308518923
 20
265.29627613932166
 11
359.49868808518926
 21
265.32244413932165
  0
LINE
  8
_0-1_
  6
CONTINUOUS
 62
    4
 10
359.33907708518927
 20
269.02425113932128
 11
359.58907708518927
 21
267.77425113932139
  0
LINE
  8
_0-1_
  6
CONTINUOUS
 62
    4
 10
359.58907708518927
 20
266.02425113932162
 11
360.02417108518921
 21
265.79559013932163
  0
LINE
  8
_0-1_
  6
CONTINUOUS
 62
    4
 10
360.46407708518916
 20
267.02425113932151
 11
360.58907708518916
 21
267.02425113932151
  0
LINE
  8
_0-1_
  6
CONTINUOUS
 62
    4
 10
361.83647408518902
 20
262.32655513932195
 11
361.35024308518905
 21
262.05073013932196
  0
LINE
  8
_0-1_
  6
CONTINUOUS
 62
    4
 10
361.35024308518905
 20
262.05073013932196
 11
361.37641108518909
 21
261.55141513932199
  0
LINE
  8
_0-1_
  6
CONTINUOUS
 62
    4
 10
361.37641108518909
 20
261.55141513932199
 11
361.87572608518906
 21
261.57758313932203
  0
LINE
  8
_0-1_
  6
CONTINUOUS
 62
    4
 10
361.81030608518904
 20
262.82587013932186
 11
361.83647408518902
 21
262.32655513932195
  0
LINE
  8
_0-1_
  6
CONTINUOUS
 62
    4
 10
361.77105408518901
 20
263.57484213932179
 11
361.28482308518909
 21
263.29901613932185
  0
LINE
  8
_0-1_
  6
CONTINUOUS
 62
    4
 10
361.28482308518909
 20
263.29901613932185
 11
361.31099108518907
 21
262.79970213932194
  0
LINE
  8
_0-1_
  6
CONTINUOUS
 62
    4
 10
361.31099108518907
 20
262.79970213932194
 11
361.81030608518904
 21
262.82587013932186
  0
LINE
  8
_0-1_
  6
CONTINUOUS
 62
    4
 10
361.74488608518902
 20
264.07415713932181
 11
361.77105408518901
 21
263.57484213932179
  0
LINE
  8
_0-1_
  6
CONTINUOUS
 62
    4
 10
361.70563408518905
 20
264.82312913932168
 11
361.21940308518907
 21
264.54730313932174
  0
LINE
  8
_0-1_
  6
CONTINUOUS
 62
    4
 10
361.21940308518907
 20
264.54730313932174
 11
361.24557108518911
 21
264.04798913932177
  0
LINE
  8
_0-1_
  6
CONTINUOUS
 62
    4
 10
361.24557108518911
 20
264.04798913932177
 11
361.74488608518902
 21
264.07415713932181
  0
LINE
  8
_0-1_
  6
CONTINUOUS
 62
    4
 10
361.67946608518901
 20
265.32244413932165
 11
361.70563408518905
 21
264.82312913932168
  0
LINE
  8
_0-1_
  6
CONTINUOUS
 62
    4
 10
361.15398308518911
 20
265.79559013932163
 11
361.1801510851891
 21
265.29627613932166
  0
LINE
  8
_0-1_
  6
CONTINUOUS
 62
    4
 10
361.1801510851891
 20
265.29627613932166
 11
361.67946608518901
 21
265.32244413932165
  0
LINE
  8
_0-1_
  6
CONTINUOUS
 62
    4
 10
360.58907708518916
 20
267.77425113932139
 11
360.58907708518916
 21
269.02425113932128
  0
LINE
  8
_0-1_
  6
CONTINUOUS
 62
    4
 10
360.33907708518916
 20
269.02425113932128
 11
360.58907708518916
 21
267.77425113932139
  0
LINE
  8
_0-1_
  6
CONTINUOUS
 62
    4
 10
360.8390770851891
 20
269.02425113932128
 11
360.58907708518916
 21
267.77425113932139
  0
LINE
  8
_0-1_
  6
CONTINUOUS
 62
    4
 10
361.83907708518905
 20
269.02425113932128
 11
361.58907708518905
 21
267.77425113932139
  0
LINE
  8
_0-1_
  6
CONTINUOUS
 62
    4
 10
361.58907708518905
 20
266.02425113932162
 11
361.15398308518911
 21
265.79559013932163
  0
LINE
  8
_0-1_
  6
CONTINUOUS
 62
    4
 10
360.71407708518916
 20
267.02425113932151
 11
360.58907708518916
 21
267.02425113932151
  0
LINE
  8
_0-1_
  6
CONTINUOUS
 62
    4
 10
362.168727085189
 20
265.23865213932169
 11
362.416816085189
 21
266.93955713932149
  0
ARC
  8
_0-1_
  6
CONTINUOUS
 62
    4
 10
362.31786308518895
 20
266.95399013932149
 40
0.09999999999999
 50
351.70153400003107
 51
81.869897999975976
  0
LINE
  8
_0-1_
  6
CONTINUOUS
 62
    4
 10
362.33200508518894
 20
267.05298513932149
 11
362.28279908518897
 21
267.06001413932148
  0
ARC
  8
_0-1_
  6
CONTINUOUS
 62
    4
 10
362.26865708518892
 20
266.96102013932148
 40
0.09999999999999
 50
81.869897999975962
 51
171.86989800000819
  0
LINE
  8
_0-1_
  6
CONTINUOUS
 62
    4
 10
362.16966208518897
 20
266.97516213932147
 11
361.93380408518897
 21
265.32415713932164
  0
LINE
  8
_0-1_
  6
CONTINUOUS
 62
    4
 10
359.00942708518932
 20
265.23865213932169
 11
358.76133808518932
 21
266.93955713932149
  0
ARC
  8
_0-1_
  6
CONTINUOUS
 62
    4
 10
358.86029108518937
 20
266.95399013932149
 40
0.09999999999999
 50
98.130102000024053
 51
188.29846599996898
  0
LINE
  8
_0-1_
  6
CONTINUOUS
 62
    4
 10
358.84614908518938
 20
267.05298513932149
 11
358.89535508518929
 21
267.06001413932148
  0
ARC
  8
_0-1_
  6
CONTINUOUS
 62
    4
 10
358.90949708518929
 20
266.96102013932148
 40
0.09999999999999
 50
8.1301019999918065
 51
98.130101999991808
  0
LINE
  8
_0-1_
  6
CONTINUOUS
 62
    4
 10
359.00849208518929
 20
266.97516213932147
 11
359.24435008518924
 21
265.32415713932164
  0
LINE
  8
_0-1_
  6
CONTINUOUS
 62
    4
 10
361.74488608518902
 20
264.07415713932181
 11
362.168727085189
 21
265.23865213932169
  0
LINE
  8
_0-1_
  6
CONTINUOUS
 62
    4
 10
359.23700808518925
 20
260.32929613932214
 11
359.21084008518932
 21
259.82998113932223
  0
LINE
  8
_0-1_
  6
CONTINUOUS
 62
    4
 10
359.27626008518928
 20
261.07826813932212
 11
359.76249108518925
 21
260.80244313932212
  0
LINE
  8
_0-1_
  6
CONTINUOUS
 62
    4
 10
359.76249108518925
 20
260.80244313932212
 11
359.73632308518921
 21
260.30312813932215
  0
LINE
  8
_0-1_
  6
CONTINUOUS
 62
    4
 10
359.73632308518921
 20
260.30312813932215
 11
359.23700808518925
 21
260.32929613932214
  0
LINE
  8
_0-1_
  6
CONTINUOUS
 62
    4
 10
361.94114508518896
 20
260.32929613932214
 11
361.96731308518901
 21
259.82998113932223
  0
LINE
  8
_0-1_
  6
CONTINUOUS
 62
    4
 10
361.90189408518899
 20
261.07826813932212
 11
361.41566308518907
 21
260.80244313932212
  0
LINE
  8
_0-1_
  6
CONTINUOUS
 62
    4
 10
361.41566308518907
 20
260.80244313932212
 11
361.44183108518905
 21
260.30312813932215
  0
LINE
  8
_0-1_
  6
CONTINUOUS
 62
    4
 10
361.44183108518905
 20
260.30312813932215
 11
361.94114508518896
 21
260.32929613932214
  0
LINE
  8
_0-1_
  6
CONTINUOUS
 62
    4
 10
361.05643808518909
 20
260.49161213932217
 11
360.58907708518916
 21
260.02425113932225
  0
LINE
  8
_0-1_
  6
CONTINUOUS
 62
    4
 10
359.30242808518926
 20
261.57758313932203
 11
359.27626008518928
 21
261.07826813932212
  0
LINE
  8
_0-1_
  6
CONTINUOUS
 62
    4
 10
360.08464108518922
 20
259.78418713932223
 11
359.21084008518932
 21
259.82998113932223
  0
LINE
  8
_0-1_
  6
CONTINUOUS
 62
    4
 10
359.21084008518932
 20
259.82998113932223
 11
359.68398708518919
 21
259.30449813932228
  0
LINE
  8
_0-1_
  6
CONTINUOUS
 62
    4
 10
359.68398708518919
 20
259.30449813932228
 11
360.05847308518918
 21
259.28487213932226
  0
LINE
  8
_0-1_
  6
CONTINUOUS
 62
    4
 10
360.05847308518918
 20
259.28487213932226
 11
360.46407708518916
 21
267.02425113932151
  0
LINE
  8
_0-1_
  6
CONTINUOUS
 62
    4
 10
361.87572608518906
 20
261.57758313932203
 11
361.90189408518899
 21
261.07826813932212
  0
LINE
  8
_0-1_
  6
CONTINUOUS
 62
    4
 10
361.0935130851891
 20
259.78418713932223
 11
361.96731308518901
 21
259.82998113932223
  0
LINE
  8
_0-1_
  6
CONTINUOUS
 62
    4
 10
361.96731308518901
 20
259.82998113932223
 11
361.49416708518902
 21
259.30449813932228
  0
LINE
  8
_0-1_
  6
CONTINUOUS
 62
    4
 10
361.49416708518902
 20
259.30449813932228
 11
361.11968108518909
 21
259.28487213932226
  0
LINE
  8
_0-1_
  6
CONTINUOUS
 62
    4
 10
361.11968108518909
 20
259.28487213932226
 11
360.71407708518916
 21
267.02425113932151
  0
LINE
  8
_0-0_図面枠
  6
CONTINUOUS
 62
    4
 10
360.58907708518916
 20
260.02425113932225
 11
360.12171571991684
 21
260.49161250459451
  0
LINE
  8
_0-1_
  6
CONTINUOUS
 62
    4
 10
359.58907708518927
 20
269.02425113932128
 11
359.58907708518927
 21
266.02425113932162
  0
LINE
  8
_0-1_
  6
CONTINUOUS
 62
    4
 10
361.58907708518905
 20
269.02425113932128
 11
361.58907708518905
 21
266.02425113932162
  0
LINE
  8
_0-1_
  6
CONTINUOUS
 62
    4
 10
361.47366762355909
 20
264.05994317678523
 11
361.93380408518897
 21
265.32415713932164
  0
LINE
  8
_0-1_
  6
CONTINUOUS
 62
    4
 10
359.70448654681923
 20
264.05994317678523
 11
359.24435008518924
 21
265.32415713932164
  0
LINE
  8
_0-0_図面枠
  6
CONTINUOUS
 62
    7
 10
353.5890720851898
 20
273.02425113932088
 11
353.92240541852311
 21
273.69091760652782
  0
LINE
  8
_0-1_
  6
CONTINUOUS
 62
    7
 10
353.92240541852311
 20
273.02425113932088
 11
353.5890720851898
 21
273.02425113932088
  0
LINE
  8
_0-0_図面枠
  6
CONTINUOUS
 62
    4
 10
360.58907208518912
 20
259.47007002464971
 11
360.58907208518912
 21
240.02425147265745
  0
POINT
  8
_0-0_図面枠
 62
    4
 10
360.58907208518912
 20
240.02425147265745
  0
LINE
  8
_0-0_図面枠
  6
CONTINUOUS
 62
    4
 10
384.75573908518675
 20
268.22101039105792
 11
384.75573908518675
 21
256.0242508059892
  0
POINT
  8
_0-0_図面枠
 62
    4
 10
384.75573908518675
 20
256.0242508059892
  0
LINE
  8
_0-0_図面枠
  6
CONTINUOUS
 62
    4
 10
371.75572868251766
 20
256.0242508059892
 11
384.75573908518675
 21
256.0242508059892
  0
LINE
  8
_0-0_図面枠
  6
CONTINUOUS
 62
    7
 10
384.58907241852012
 20
269.02425113932128
 11
338.42239534918764
 21
269.02425113932128
  0
ARC
  8
_0-1_
  6
CONTINUOUS
 62
    7
 10
354.58907208518974
 20
269.69091780598791
 40
0.16666666666665
 50
180
 51
270
  0
LINE
  8
_0-0_図面枠
  6
CONTINUOUS
 62
    7
 10
353.92240541852311
 20
270.19091780598785
 11
350.75573221787499
 21
270.19091780598785
  0
LINE
  8
_0-0_図面枠
  6
CONTINUOUS
 62
    7
 10
353.92240541852311
 20
269.69091780598791
 11
350.75573221787499
 21
269.69091780598791
  0
LINE
  8
_0-0_図面枠
  6
CONTINUOUS
 62
    4
 10
353.88678260954583
 20
269.69091780598791
 11
353.22011594287926
 21
269.02425113932128
  0
LINE
  8
_0-0_図面枠
  6
CONTINUOUS
 62
    4
 10
353.92240541852311
 20
269.25513609417419
 11
353.69152046367026
 21
269.02425113932128
  0
LINE
  8
_0-0_図面枠
  6
CONTINUOUS
 62
    4
 10
360.58907208518912
 20
240.02425147265745
 11
371.75572868251766
 21
240.02425147265745
  0
LINE
  8
_0-0_図面枠
  6
CONTINUOUS
 62
    4
 10
371.75572868251766
 20
240.02425147265751
 11
438.42239534917769
 21
240.02425147265751
  0
LINE
  8
_0-0_図面枠
  6
CONTINUOUS
 62
    7
 10
435.17789535244179
 20
270.42811724460057
 11
435.55377240075597
 21
270.56492530193077
  0
LINE
  8
_0-0_図面枠
  6
CONTINUOUS
 62
    7
 10
434.5155408938673
 20
272.24792116320856
 11
435.17789535244162
 21
270.42811724460051
  0
ARC
  8
_0-0_図面枠
  6
CONTINUOUS
 62
    7
 10
434.35892545706963
 20
272.19091780598762
 40
0.16666666666665
 50
19.999999999995367
 51
90
  0
ARC
  8
_0-0_図面枠
  6
CONTINUOUS
 62
    7
 10
434.35892545706963
 20
272.19091780598762
 40
0.56666666666661
 50
19.999999999999982
 51
90
  0
LINE
  8
_0-0_図面枠
  6
CONTINUOUS
 62
    7
 10
434.89141794218165
 20
272.38472922053882
 11
435.55377240075597
 21
270.56492530193077
  0
LINE
  8
_0-0_図面枠
  6
CONTINUOUS
 62
    7
 10
369.65572552594824
 20
272.75758447265423
 11
434.35892545706963
 21
272.75758447265423
  0
ARC
  8
_0-0_図面枠
  6
CONTINUOUS
 62
    7
 10
369.65572552594824
 20
272.92425121507847
 40
0.16666666666665
 50
179.99995659411837
 51
270
  0
ARC
  8
_0-0_図面枠
  6
CONTINUOUS
 62
    7
 10
369.65572552594824
 20
272.92425121507847
 40
0.56666666666661
 50
179.99995659410692
 51
270
  0
LINE
  8
_0-0_図面枠
  6
CONTINUOUS
 62
    7
 10
369.65572552594824
 20
272.35758447265425
 11
434.35892545706963
 21
272.35758447265425
  0
LINE
  8
_0-0_図面枠
  6
CONTINUOUS
 62
    4
 10
382.75573063959115
 20
272.8575844726542
 11
383.58906447797528
 21
272.8575844726542
  0
LINE
  8
_0-0_図面枠
  6
CONTINUOUS
 62
    7
 10
435.0890620158446
 20
273.35758447265408
 11
435.0890620158446
 21
272.85758447265414
  0
ARC
  8
_0-0_図面枠
  6
CONTINUOUS
 62
    7
 10
432.42239534917826
 20
273.52425113932077
 40
0.6666666666666
 50
180
 51
270
  0
LINE
  8
_0-0_図面枠
  6
CONTINUOUS
 62
    7
 10
432.42239534917826
 20
273.35758447265408
 11
435.0890620158446
 21
273.35758447265408
  0
ARC
  8
_0-0_図面枠
  6
CONTINUOUS
 62
    7
 10
432.42239534917826
 20
273.52425113932077
 40
0.16666666666665
 50
180
 51
270
  0
LINE
  8
_0-0_図面枠
  6
CONTINUOUS
 62
    7
 10
432.42239534917826
 20
272.85758447265414
 11
435.0890620158446
 21
272.85758447265414
  0
LINE
  8
_0-1_
  6
CONTINUOUS
 62
    7
 10
432.25572868251157
 20
289.69091780598586
 11
432.25572868251157
 21
273.52425113932077
  0
LINE
  8
_0-0_図面枠
  6
CONTINUOUS
 62
    7
 10
431.75572868251163
 20
289.69091780598586
 11
431.75572868251163
 21
273.52425113932077
  0
LINE
  8
_0-0_図面枠
  6
CONTINUOUS
 62
    7
 10
369.08905949059482
 20
274.02425113932077
 11
369.48905961685705
 21
274.02425113932077
  0
LINE
  8
_0-0_図面枠
  6
CONTINUOUS
 62
    7
 10
369.08905969261474
 20
274.02425113932065
 11
369.08905885928192
 21
272.92425177063421
  0
LINE
  8
_0-0_図面枠
  6
CONTINUOUS
 62
    7
 10
369.48905969261483
 20
274.02425113932071
 11
369.48905885928161
 21
272.92425134134106
  0
TEXT
  8
_0-0_図面枠
 62
    7
 10
391.85572868251541
 20
301.85758447265135
 40
3.2000000000000002
 41
1
 50
0
  1
265
  0
TEXT
  8
_0-0_図面枠
 62
    7
 10
364.35572868251819
 20
296.85758447265181
 40
3.2000000000000002
 41
1
 50
0
  1
100
  0
TEXT
  8
_0-0_図面枠
 62
    7
 10
405.18906201584736
 20
296.85758447265181
 40
3.2000000000000002
 41
1
 50
0
  1
145
  0
TEXT
  8
_0-0_図面枠
 62
    7
 10
433.48906201584464
 20
296.85758447265181
 40
3.2000000000000002
 41
1
 50
0
  1
20
  0
TEXT
  8
_0-0_図面枠
 62
    7
 10
458.42239534917564
 20
271.42425113932092
 40
3.2000000000000002
 41
1
 50
90
  1
24
  0
TEXT
  8
_0-0_図面枠
 62
    7
 10
402.68906201584764
 20
240.02425147265751
 40
3.2000000000000002
 41
1
 50
0
  1
200
  0
TEXT
  8
_0-0_図面枠
 62
    7
 10
376.65573388385224
 20
256.0242508059892
 40
3.2000000000000002
 41
1
 50
0
  1
39
  0
TEXT
  8
_0-0_図面枠
 62
    7
 10
362.97240038385343
 20
240.02425147265745
 40
3.2000000000000002
 41
1
 50
0
  1
33.5
  0
TEXT
  8
_0-0_図面枠
 62
    7
 10
343.42239534918713
 20
270.75757235144067
 40
3.2000000000000002
 41
1
 50
90
  1
20
  0
TEXT
  8
_0-0_図面枠
 62
    7
 10
343.42239534918713
 20
281.42423901810628
 40
3.2000000000000002
 41
1
 50
90
  1
44
  0
TEXT
  8
_0-0_図面枠
 62
    7
 10
338.42239534918764
 20
278.09091780598692
 40
3.2000000000000002
 41
1
 50
90
  1
64
  0
CIRCLE
  8
_1-c_
  6
CONTINUOUS
 62
    4
 10
397.79916578957705
 20
267.10009279902567
 40
1.6666666666666665
  0
LINE
  8
_1-c_
  6
CONTINUOUS
 62
    4
 10
394.76375155654534
 20
272.35758447265431
 11
396.96583245624373
 21
268.54346847199974
  0
POINT
  8
_1-0_
 62
    4
 10
394.76375155654534
 20
272.35758447265431
  0
TEXT
  8
_1-c_
 62
    7
 10
396.54916578957699
 20
265.85009279902567
 40
2.5
 41
1
 50
0
  1
２
  0
CIRCLE
  8
_1-c_
  6
CONTINUOUS
 62
    4
 10
374.90639198469938
 20
280.399677953197
 40
1.6666666666666665
  0
TEXT
  8
_1-c_
 62
    7
 10
374.28139198469938
 20
279.149677953197
 40
2.5
 41
1
 50
0
  1
1
  0
LINE
  8
_1-c_
  6
CONTINUOUS
 62
    4
 10
372.18778804615852
 20
275.69091780598734
 11
374.07305865136595
 21
278.95630228022293
  0
POINT
  8
_1-0_
 62
    4
 10
372.18778804615852
 20
275.69091780598734
  0
CIRCLE
  8
_1-c_
  6
CONTINUOUS
 62
    4
 10
432.61360330157549
 20
262.86024249930205
 40
1.6666666666666665
  0
LINE
  8
_1-c_
  6
CONTINUOUS
 62
    4
 10
436.1723953491778
 20
269.02425113932128
 11
433.44693663490881
 21
264.30361817227617
  0
POINT
  8
_1-0_
 62
    4
 10
436.1723953491778
 20
269.02425113932128
  0
TEXT
  8
_1-c_
 62
    7
 10
431.36360330157549
 20
261.61024249930205
 40
2.5
 41
1
 50
0
  1
４
  0
CIRCLE
  8
_1-c_
  6
CONTINUOUS
 62
    4
 10
453.79875666769613
 20
288.3396385730901
 40
1.6666666666666665
  0
TEXT
  8
_1-c_
 62
    7
 10
452.54875666769595
 20
287.0896385730901
 40
2.5
 41
1
 50
0
  1
６
  0
LINE
  8
_1-c_
  6
CONTINUOUS
 62
    4
 10
447.90937517235744
 20
278.13893059800762
 11
452.96542333436264
 21
286.89626290011603
  0
POINT
  8
_1-0_
 62
    4
 10
447.90937517235744
 20
278.13893059800762
  0
CIRCLE
  8
_1-c_
  6
CONTINUOUS
 62
    4
 10
428.31702700675976
 20
261.87654479165559
 40
1.6666666666666665
  0
TEXT
  8
_1-c_
 62
    7
 10
427.06702700675976
 20
260.62654479165559
 40
2.5
 41
1
 50
0
  1
９
  0
LINE
  8
_1-c_
  6
CONTINUOUS
 62
    4
 10
436.63627543928715
 20
276.28590575758039
 11
429.15036034009313
 21
263.31992046462966
  0
POINT
  8
_1-0_
 62
    4
 10
436.63627543928715
 20
276.28590575758039
  0
TEXT
  8
_0-1_
 62
    7
 10
335.40000750000002
 20
165.90000399999997
 40
3.2000000000000002
 41
1
 50
0
  1
ＵＵＨサイドプレート(Ｃ)Ｓ
  0
TEXT
  8
_0-1_
 62
    7
 10
335.400013
 20
159.900004
 40
3.2000000000000002
 41
1
 50
0
  1
ＵＣＨセンタープレート(Ｄ)Ｓ
  0
CIRCLE
  8
_1-c_
  6
CONTINUOUS
 62
    4
 10
387.7591347743089
 20
261.35724823658887
 40
1.6666666666666665
  0
LINE
  8
_1-c_
  6
CONTINUOUS
 62
    4
 10
383.33258858453877
 20
269.02425113932128
 11
386.92580144097559
 21
262.80062390956294
  0
POINT
  8
_1-0_
 62
    4
 10
383.33258858453877
 20
269.02425113932128
  0
TEXT
  8
_1-c_
 62
    7
 10
386.5091347743089
 20
260.10724823658887
 40
2.5
 41
1
 50
0
  1
３
  0
CIRCLE
  8
_1-c_
  6
CONTINUOUS
 62
    4
 10
428.28045893279898
 20
282.104634523708
 40
1.6666666666666665
  0
TEXT
  8
_1-c_
 62
    7
 10
427.03045893279915
 20
280.854634523708
 40
2.5
 41
1
 50
0
  1
５
  0
LINE
  8
_1-c_
  6
CONTINUOUS
 62
    4
 10
431.75572868251157
 20
276.0852907471986
 11
429.11379226613235
 21
280.66125885073393
  0
POINT
  8
_1-0_
 62
    4
 10
431.75572868251157
 20
276.0852907471986
  0
TEXT
  8
_0-1_
 62
    7
 10
335.400013
 20
141.900004
 40
3.2000000000000002
 41
1
 50
0
  1
ＵＣＨサイドキャップ(Ｃ)Ｓ
  0
TEXT
  8
_0-1_
 62
    7
 10
436.27047700000003
 20
123.90000399999991
 40
3.2000000000000002
 41
1
 50
0
  1
３０１０
  0
TEXT
  8
_0-1_
 62
    7
 10
335.40000750000002
 20
129.90000399999991
 40
3.2000000000000002
 41
1
 50
0
  1
ガスケットＦ
  0
TEXT
  8
_0-1_
 62
    7
 10
335.40000750000002
 20
123.90000399999991
 40
3.2000000000000002
 41
1
 50
0
  1
ＵＵＨパッキンＳ
  0
TEXT
  8
_0-1_
 62
    7
 10
436.27047700000003
 20
129.90000399999991
 40
3.2000000000000002
 41
1
 50
0
  1
３０１０
  0
CIRCLE
  8
_1-c_
  6
CONTINUOUS
 62
    4
 10
443.26288040862335
 20
297.29831007603502
 40
1.6666666666666665
  0
TEXT
  8
_1-c_
 62
    7
 10
442.01288040862335
 20
296.04831007603502
 40
2.5
 41
1
 50
0
  1
７
  0
LINE
  8
_1-c_
  6
CONTINUOUS
 62
    4
 10
438.42239534917769
 20
288.91434401979711
 11
442.42954707529003
 21
295.85493440306095
  0
POINT
  8
_1-0_
 62
    4
 10
438.42239534917769
 20
288.91434401979711
  0
CIRCLE
  8
_1-c_
  6
CONTINUOUS
 62
    4
 10
388.57696577840136
 20
282.04453358425314
 40
1.6666666666666665
  0
TEXT
  8
_1-c_
 62
    7
 10
387.3269657784013
 20
280.79453358425314
 40
2.5
 41
1
 50
0
  1
８
  0
LINE
  8
_1-c_
  6
CONTINUOUS
 62
    4
 10
383.92239716105593
 20
273.98258425169513
 11
387.74363244506793
 21
280.60115791127907
  0
POINT
  8
_1-0_
 62
    4
 10
383.92239716105593
 20
273.98258425169513
  0
LINE
  8
_0-1_
  6
CONTINUOUS
 62
    4
 10
469.15000000000003
 20
104.69999999999999
 11
327
 21
104.69999999999999
  0
TEXT
  8
_0-1_
 62
    7
 10
335.40000750000002
 20
105.90000950000001
 40
3.2000000000000002
 41
1
 50
0
  1
ステンワッシャー
  0
TEXT
  8
_0-1_
 62
    7
 10
453.27045750000002
 20
105.95000849999997
 40
3.2000000000000002
 41
1
 50
0
  1
１２
  0
LINE
  8
_0-1_
  6
CONTINUOUS
 62
    4
 10
469.15000000000003
 20
110.69999999999999
 11
327
 21
110.69999999999999
  0
LINE
  8
_0-1_
  6
CONTINUOUS
 62
    4
 10
327
 20
104.69999999999999
 11
327
 21
181.5
  0
LINE
  8
_0-1_
  6
CONTINUOUS
 62
    4
 10
334.20000000000005
 20
104.69999999999993
 11
334.20000000000005
 21
181.5
  0
LINE
  8
_0-1_
  6
CONTINUOUS
 62
    4
 10
391.19999999999999
 20
104.69999999999999
 11
391.19999999999999
 21
181.5
  0
LINE
  8
_0-1_
  6
CONTINUOUS
 62
    4
 10
449.95000000000005
 20
104.69999999999997
 11
449.94999999999999
 21
181.5
  0
LINE
  8
_0-1_
  6
CONTINUOUS
 62
    4
 10
461.95000000000005
 20
104.69999999999999
 11
461.94999999999999
 21
181.5
  0
LINE
  8
_0-1_
  6
CONTINUOUS
 62
    4
 10
469.15000000000009
 20
104.69999999999999
 11
469.15000000000003
 21
181.5
  0
LINE
  8
_0-1_
  6
CONTINUOUS
 62
    4
 10
434.95000000000005
 20
104.69999999999996
 11
434.94999999999999
 21
181.5
  0
LINE
  8
_0-1_
  6
CONTINUOUS
 62
    4
 10
433.95000000000005
 20
104.69999999999996
 11
433.94999999999999
 21
181.5
  0
TEXT
  8
_0-1_
 62
    7
 10
464.00510200000002
 20
105.90000950000001
 40
3.2000000000000002
 41
1
 50
0
  1
枚
  0
TEXT
  8
_0-1_
 62
    7
 10
327.4970505
 20
105.9275555
 40
3.2000000000000002
 41
1
 50
0
  1
１１
  0
TEXT
  8
_0-1_
 62
    7
 10
335.40000750000002
 20
111.90000949999995
 40
3.2000000000000002
 41
1
 50
0
  1
ステンシルタップ
  0
TEXT
  8
_0-1_
 62
    7
 10
392.40001300000006
 20
111.90000949999995
 40
3.2000000000000002
 41
1
 50
0
  1
皿４×１６
  0
TEXT
  8
_0-1_
 62
    7
 10
453.27045750000002
 20
111.94999749999994
 40
3.2000000000000002
 41
1
 50
0
  1
１２
  0
TEXT
  8
_0-1_
 62
    7
 10
464.00512500000002
 20
111.90000399999991
 40
3.2000000000000002
 41
1
 50
0
  1
〃
  0
TEXT
  8
_0-1_
 62
    7
 10
456.46780365988207
 20
123.95000299999998
 40
3.2000000000000002
 41
1
 50
0
  1
１
  0
CIRCLE
  8
_1-c_
  6
CONTINUOUS
 62
    4
 10
359.07636071289994
 20
280.78163772828333
 40
1.6666666666666665
  0
TEXT
  8
_1-c_
 62
    7
 10
357.82636071289994
 20
279.53163772828333
 40
2.5
 41
1
 50
0
  1
10
  0
LINE
  8
_1-c_
  6
CONTINUOUS
 62
    4
 10
356.13723219539327
 20
275.69091780598728
 11
358.24302737956657
 21
279.33826205530926
  0
POINT
  8
_1-0_
 62
    4
 10
356.13723219539327
 20
275.69091780598728
  0
CIRCLE
  8
_1-c_
  6
CONTINUOUS
 62
    4
 10
368.67837216236421
 20
280.53205486407785
 40
1.6666666666666665
  0
LINE
  8
_1-c_
  6
CONTINUOUS
 62
    4
 10
362.61168885328425
 20
270.02425113932128
 11
367.84503882903084
 21
279.08867919110378
  0
POINT
  8
_1-0_
 62
    4
 10
362.61168885328425
 20
270.02425113932128
  0
TEXT
  8
_1-c_
 62
    7
 10
367.42837216236421
 20
279.28205486407785
 40
2.5
 41
1
 50
0
  1
11
  0
TEXT
  8
_0-1_
 62
    7
 10
392.40002450000009
 20
105.90000950000001
 40
3.2000000000000002
 41
1
 50
0
  1
1.5×１８×5.5穴
  0
TEXT
  8
_0-1_
 62
    7
 10
464.00510200000002
 20
135.900004
 40
3.2000000000000002
 41
1
 50
0
  1
〃
  0
TEXT
  8
_0-1_
 62
    7
 10
464.00510200000002
 20
129.900004
 40
3.2000000000000002
 41
1
 50
0
  1
〃
  0
LINE
  8
_1-0_
  6
CONTINUOUS
 62
    4
 10
264.33845039483316
 20
172.31312399256052
 11
122.18845039483313
 21
172.31312399256052
  0
LINE
  8
_1-0_
  6
CONTINUOUS
 62
    4
 10
264.33845039483316
 20
166.31312399256052
 11
122.18845039483313
 21
166.31312399256052
  0
LINE
  8
_1-0_
  6
CONTINUOUS
 62
    4
 10
264.33845039483316
 20
160.31312399256052
 11
122.18845039483313
 21
160.31312399256052
  0
LINE
  8
_1-0_
  6
CONTINUOUS
 62
    4
 10
264.33845039483316
 20
154.31312399256052
 11
122.18845039483313
 21
154.31312399256052
  0
LINE
  8
_1-0_
  6
CONTINUOUS
 62
    4
 10
264.33845039483316
 20
148.31312399256052
 11
122.18845039483313
 21
148.31312399256052
  0
LINE
  8
_1-0_
  6
CONTINUOUS
 62
    4
 10
264.33845039483316
 20
142.31312399256052
 11
122.18845039483313
 21
142.31312399256052
  0
LINE
  8
_1-0_
  6
CONTINUOUS
 62
    4
 10
264.33845039483316
 20
136.31312399256052
 11
122.18845039483313
 21
136.31312399256052
  0
LINE
  8
_1-0_
  6
CONTINUOUS
 62
    4
 10
264.33845039483316
 20
130.31312399256052
 11
122.18845039483313
 21
130.31312399256052
  0
LINE
  8
_1-0_
  6
CONTINUOUS
 62
    4
 10
264.33845039483316
 20
124.31312399256052
 11
122.18845039483313
 21
124.31312399256052
  0
LINE
  8
_1-0_
  6
CONTINUOUS
 62
    4
 10
264.33845039483316
 20
118.31312399256052
 11
122.18845039483313
 21
118.31312399256052
  0
LINE
  8
_1-0_
  6
CONTINUOUS
 62
    4
 10
264.33845039483316
 20
183.11312399256053
 11
122.18845039483313
 21
183.11312399256053
  0
LINE
  8
_1-0_
  6
CONTINUOUS
 62
    4
 10
252.70991695144068
 20
260.78308327638649
 11
239.37658361810867
 21
274.1164166097185
  0
LINE
  8
_1-0_
  6
CONTINUOUS
 62
    4
 10
251.51822699300459
 20
248.30404213188396
 11
239.37658361810867
 21
260.44568550677991
  0
LINE
  8
_1-0_
  6
CONTINUOUS
 62
    4
 10
252.46103603458658
 20
248.30404213188396
 11
239.37658361810867
 21
261.3884945483619
  0
LINE
  8
_1-0_
  6
CONTINUOUS
 62
    4
 10
252.70991695144068
 20
248.99797025661192
 11
239.37658361810867
 21
262.3313035899439
  0
LINE
  8
_1-0_
  6
CONTINUOUS
 62
    4
 10
252.70991695144068
 20
259.84027423480461
 11
239.37658361810867
 21
273.17360756813662
  0
LINE
  8
_1-0_
  6
CONTINUOUS
 62
    4
 10
252.70991695144068
 20
258.89746519322262
 11
239.37658361810867
 21
272.23079852655462
  0
LINE
  8
_1-0_
  6
CONTINUOUS
 62
    4
 10
189.37658361811361
 20
241.63737546521801
 11
239.37658361810867
 21
241.63737546521801
  0
LINE
  8
_1-0_
  6
CONTINUOUS
 62
    4
 10
239.37658361810867
 20
241.63737546521801
 11
239.37658361810867
 21
247.33089828072357
  0
POINT
  8
_1-0_
 62
    4
 10
189.37658361811361
 20
241.63737546521801
  0
POINT
  8
_1-0_
 62
    4
 10
239.37658361810867
 20
241.63737546521801
  0
LINE
  8
_1-0_
  6
CONTINUOUS
 62
    4
 10
189.37658361811361
 20
241.63737546521796
 11
189.37658361811361
 21
247.56944329908529
  0
POINT
  8
_1-0_
 62
    4
 10
189.37658361811361
 20
257.63737479854967
  0
LINE
  8
_1-0_
  6
CONTINUOUS
 62
    4
 10
189.37658361811361
 20
248.30404213188402
 11
189.37658361811361
 21
270.63737513188175
  0
LINE
  8
_1-0_
  6
CONTINUOUS
 62
    4
 10
139.70991795145198
 20
248.30404213188402
 11
189.37658361811361
 21
248.30404213188402
  0
LINE
  8
_1-0_
  6
CONTINUOUS
 62
    4
 10
178.33646634458432
 20
270.63737513188175
 11
156.0031333445865
 21
248.30404213188402
  0
LINE
  8
_1-0_
  6
CONTINUOUS
 62
    4
 10
177.39365730300233
 20
270.63737513188175
 11
155.06032430300456
 21
248.30404213188402
  0
LINE
  8
_1-0_
  6
CONTINUOUS
 62
    4
 10
176.45084826142033
 20
270.63737513188175
 11
154.11751526142257
 21
248.30404213188402
  0
LINE
  8
_1-0_
  6
CONTINUOUS
 62
    4
 10
165.90262828119717
 20
248.30404213188402
 11
188.23596128119499
 21
270.63737513188175
  0
LINE
  8
_1-0_
  6
CONTINUOUS
 62
    4
 10
167.78824636436104
 20
248.30404213188402
 11
189.37658361811361
 21
269.89237938563656
  0
LINE
  8
_1-0_
  6
CONTINUOUS
 62
    4
 10
189.17877032277693
 20
270.63737513188175
 11
166.84543732277911
 21
248.30404213188402
  0
LINE
  8
_1-0_
  6
CONTINUOUS
 62
    4
 10
177.68774130097177
 20
248.30404213188402
 11
189.37658361811361
 21
259.99288444902595
  0
LINE
  8
_1-0_
  6
CONTINUOUS
 62
    4
 10
178.63055034255376
 20
248.30404213188402
 11
189.37658361811361
 21
259.05007540744396
  0
LINE
  8
_1-0_
  6
CONTINUOUS
 62
    4
 10
179.57335938413576
 20
248.30404213188402
 11
189.37658361811361
 21
258.10726636586207
  0
LINE
  8
_1-0_
  6
CONTINUOUS
 62
    4
 10
166.55135332480967
 20
270.63737513188175
 11
144.21802032481196
 21
248.30404213188407
  0
LINE
  8
_1-0_
  6
CONTINUOUS
 62
    4
 10
165.60854428322773
 20
270.63737513188175
 11
143.27521128322996
 21
248.30404213188407
  0
LINE
  8
_1-0_
  6
CONTINUOUS
 62
    4
 10
164.66573524164573
 20
270.63737513188175
 11
142.33240224164808
 21
248.30404213188407
  0
LINE
  8
_1-0_
  6
CONTINUOUS
 62
    4
 10
152.88062222187108
 20
270.63737513188175
 11
139.70991795145198
 21
257.4666708614626
  0
LINE
  8
_1-0_
  6
CONTINUOUS
 62
    4
 10
154.76624030503501
 20
270.63737513188175
 11
139.70991795145198
 21
255.58105277829875
  0
LINE
  8
_1-0_
  6
CONTINUOUS
 62
    4
 10
153.82343126345307
 20
270.63737513188175
 11
139.70991795145198
 21
256.52386181988072
  0
POINT
  8
_1-0_
 62
    4
 10
259.37658361810662
 20
270.63737513188175
  0
POINT
  8
_1-0_
 62
    4
 10
152.70991695145062
 20
270.63737513188175
  0
POINT
  8
_1-0_
 62
    4
 10
147.70991695145113
 20
270.63737513188175
  0
LINE
  8
_1-0_
  6
CONTINUOUS
 62
    4
 10
240.15148170017545
 20
270.63737513188175
 11
259.37658361810662
 21
270.63737513188175
  0
LINE
  8
_1-0_
  6
CONTINUOUS
 62
    4
 10
238.37658361810867
 20
281.63737513188062
 11
238.37658361810867
 21
275.63737513188119
  0
LINE
  8
_1-0_
  6
CONTINUOUS
 62
    4
 10
238.37658361810867
 20
275.63737513188119
 11
238.87658361810867
 21
275.63737513188119
  0
LINE
  8
_1-0_
  6
CONTINUOUS
 62
    4
 10
238.37658361810867
 20
281.63737513188062
 11
238.87658361810867
 21
281.63737513188062
  0
LINE
  8
_1-0_
  6
CONTINUOUS
 62
    4
 10
259.37658361810662
 20
270.63737513188175
 11
259.37658361810662
 21
278.63737513188096
  0
POINT
  8
_1-0_
 62
    4
 10
259.37658361810662
 20
278.63737513188096
  0
LINE
  8
_1-0_
  6
CONTINUOUS
 62
    4
 10
250.23461426624777
 20
278.63737513188096
 11
259.37658361810662
 21
278.63737513188096
  0
ARC
  8
_1-0_
  6
CONTINUOUS
 62
    4
 10
238.36025045391358
 20
278.17054213188101
 40
0.7999999999999201
 50
215.70005900000092
 51
271.16985799999736
  0
ARC
  8
_1-0_
  6
CONTINUOUS
 62
    4
 10
239.00991645391349
 20
278.63737513188096
 40
1.5999999999998402
 50
144.29996099999934
 51
180
  0
ARC
  8
_1-0_
  6
CONTINUOUS
 62
    4
 10
238.36025045391358
 20
279.10420813188091
 40
0.7999999999999201
 50
88.830142000002681
 51
144.29994099999908
  0
ARC
  8
_1-0_
  6
CONTINUOUS
 62
    4
 10
239.00991645391349
 20
278.63737513188096
 40
1.5999999999998402
 50
180
 51
215.70003899999782
  0
LINE
  8
_1-0_
  6
CONTINUOUS
 62
    4
 10
232.70991695144261
 20
286.83737513188021
 11
232.80991695144257
 21
286.83737513188021
  0
LINE
  8
_1-0_
  6
CONTINUOUS
 62
    4
 10
232.80991695144257
 20
286.83737513188021
 11
233.47658295144254
 21
286.0595971318802
  0
LINE
  8
_1-0_
  6
CONTINUOUS
 62
    4
 10
232.80991695144257
 20
286.83737513188021
 11
232.80991695144257
 21
284.43737513188034
  0
LINE
  8
_1-0_
  6
CONTINUOUS
 62
    4
 10
232.70991695144261
 20
284.43737513188034
 11
232.80991695144257
 21
284.43737513188034
  0
LINE
  8
_1-0_
  6
CONTINUOUS
 62
    4
 10
232.80991695144257
 20
284.43737513188034
 11
233.47658295144254
 21
285.21515313188036
  0
LINE
  8
_1-0_
  6
CONTINUOUS
 62
    4
 10
235.66917595144236
 20
286.0595971318802
 11
235.3242759514423
 21
286.0595971318802
  0
LINE
  8
_1-0_
  6
CONTINUOUS
 62
    4
 10
236.26501595144231
 20
285.21515313188036
 11
235.95143595144231
 21
286.0595971318802
  0
LINE
  8
_1-0_
  6
CONTINUOUS
 62
    4
 10
235.98275595144224
 20
285.21515313188036
 11
235.66917595144236
 21
286.0595971318802
  0
LINE
  8
_1-0_
  6
CONTINUOUS
 62
    4
 10
236.12388595144233
 20
284.97070813188031
 11
235.81030595144233
 21
286.30404213188024
  0
LINE
  8
_1-0_
  6
CONTINUOUS
 62
    4
 10
236.12388595144233
 20
284.97070813188031
 11
236.26501595144231
 21
285.21515313188036
  0
LINE
  8
_1-0_
  6
CONTINUOUS
 62
    4
 10
236.12388595144233
 20
284.97070813188031
 11
235.98275595144224
 21
285.21515313188036
  0
LINE
  8
_1-0_
  6
CONTINUOUS
 62
    4
 10
235.81030595144233
 20
286.30404213188024
 11
235.95143595144231
 21
286.0595971318802
  0
LINE
  8
_1-0_
  6
CONTINUOUS
 62
    4
 10
235.66917595144236
 20
286.0595971318802
 11
235.81030595144233
 21
286.30404213188024
  0
LINE
  8
_1-0_
  6
CONTINUOUS
 62
    4
 10
235.01069495144236
 20
285.21515313188036
 11
235.35559595144235
 21
285.21515313188036
  0
LINE
  8
_1-0_
  6
CONTINUOUS
 62
    4
 10
235.04201495144235
 20
286.0595971318802
 11
234.69711495144242
 21
286.0595971318802
  0
LINE
  8
_1-0_
  6
CONTINUOUS
 62
    4
 10
235.6378559514423
 20
285.21515313188036
 11
235.3242759514423
 21
286.0595971318802
  0
LINE
  8
_1-0_
  6
CONTINUOUS
 62
    4
 10
235.35559595144235
 20
285.21515313188036
 11
235.04201495144235
 21
286.0595971318802
  0
LINE
  8
_1-0_
  6
CONTINUOUS
 62
    4
 10
235.49672595144233
 20
284.97070813188031
 11
235.18314595144238
 21
286.30404213188024
  0
LINE
  8
_1-0_
  6
CONTINUOUS
 62
    4
 10
235.49672595144233
 20
284.97070813188031
 11
235.6378559514423
 21
285.21515313188036
  0
LINE
  8
_1-0_
  6
CONTINUOUS
 62
    4
 10
235.49672595144233
 20
284.97070813188031
 11
235.35559595144235
 21
285.21515313188036
  0
LINE
  8
_1-0_
  6
CONTINUOUS
 62
    4
 10
235.18314595144238
 20
286.30404213188024
 11
235.3242759514423
 21
286.0595971318802
  0
LINE
  8
_1-0_
  6
CONTINUOUS
 62
    4
 10
235.04201495144235
 20
286.0595971318802
 11
235.18314595144238
 21
286.30404213188024
  0
LINE
  8
_1-0_
  6
CONTINUOUS
 62
    4
 10
234.38353495144241
 20
285.21515313188036
 11
234.72843495144241
 21
285.21515313188036
  0
LINE
  8
_1-0_
  6
CONTINUOUS
 62
    4
 10
234.41485495144246
 20
286.0595971318802
 11
234.06995495144247
 21
286.0595971318802
  0
LINE
  8
_1-0_
  6
CONTINUOUS
 62
    4
 10
235.01069495144236
 20
285.21515313188036
 11
234.69711495144242
 21
286.0595971318802
  0
LINE
  8
_1-0_
  6
CONTINUOUS
 62
    4
 10
234.72843495144241
 20
285.21515313188036
 11
234.41485495144246
 21
286.0595971318802
  0
LINE
  8
_1-0_
  6
CONTINUOUS
 62
    4
 10
234.86956495144233
 20
284.97070813188031
 11
234.55598495144238
 21
286.30404213188024
  0
LINE
  8
_1-0_
  6
CONTINUOUS
 62
    4
 10
234.86956495144233
 20
284.97070813188031
 11
235.01069495144236
 21
285.21515313188036
  0
LINE
  8
_1-0_
  6
CONTINUOUS
 62
    4
 10
234.86956495144233
 20
284.97070813188031
 11
234.72843495144241
 21
285.21515313188036
  0
LINE
  8
_1-0_
  6
CONTINUOUS
 62
    4
 10
234.55598495144238
 20
286.30404213188024
 11
234.69711495144242
 21
286.0595971318802
  0
LINE
  8
_1-0_
  6
CONTINUOUS
 62
    4
 10
234.41485495144246
 20
286.0595971318802
 11
234.55598495144238
 21
286.30404213188024
  0
LINE
  8
_1-0_
  6
CONTINUOUS
 62
    4
 10
234.02193695144246
 20
285.21515313188036
 11
234.10127495144246
 21
285.21515313188036
  0
LINE
  8
_1-0_
  6
CONTINUOUS
 62
    4
 10
233.47658295144254
 20
286.0595971318802
 11
233.78769395144246
 21
286.0595971318802
  0
LINE
  8
_1-0_
  6
CONTINUOUS
 62
    4
 10
234.38353495144241
 20
285.21515313188036
 11
234.06995495144247
 21
286.0595971318802
  0
LINE
  8
_1-0_
  6
CONTINUOUS
 62
    4
 10
234.10127495144246
 20
285.21515313188036
 11
233.78769395144246
 21
286.0595971318802
  0
LINE
  8
_1-0_
  6
CONTINUOUS
 62
    4
 10
234.24240495144244
 20
284.97070813188031
 11
233.92882495144244
 21
286.30404213188024
  0
LINE
  8
_1-0_
  6
CONTINUOUS
 62
    4
 10
234.24240495144244
 20
284.97070813188031
 11
234.38353495144241
 21
285.21515313188036
  0
LINE
  8
_1-0_
  6
CONTINUOUS
 62
    4
 10
234.24240495144244
 20
284.97070813188031
 11
234.10127495144246
 21
285.21515313188036
  0
LINE
  8
_1-0_
  6
CONTINUOUS
 62
    4
 10
234.06995495144247
 20
286.0595971318802
 11
233.92882495144244
 21
286.30404213188024
  0
LINE
  8
_1-0_
  6
CONTINUOUS
 62
    4
 10
233.78769395144246
 20
286.0595971318802
 11
233.92882495144244
 21
286.30404213188024
  0
LINE
  8
_1-0_
  6
CONTINUOUS
 62
    4
 10
233.47658295144254
 20
285.21515313188036
 11
233.56348895144254
 21
285.21515313188036
  0
LINE
  8
_1-0_
  6
CONTINUOUS
 62
    4
 10
233.54782895144251
 20
285.63737513188028
 11
233.70461895144246
 21
284.97070813188031
  0
LINE
  8
_1-0_
  6
CONTINUOUS
 62
    4
 10
233.70461895144246
 20
284.97070813188031
 11
233.84574895144249
 21
285.21515313188036
  0
LINE
  8
_1-0_
  6
CONTINUOUS
 62
    4
 10
233.70461895144246
 20
284.97070813188031
 11
233.56348895144254
 21
285.21515313188036
  0
LINE
  8
_1-0_
  6
CONTINUOUS
 62
    4
 10
233.84574895144249
 20
285.21515313188036
 11
234.02193695144246
 21
285.21515313188036
  0
LINE
  8
_1-0_
  6
CONTINUOUS
 62
    4
 10
237.37658295144212
 20
285.63737513188028
 11
238.04324995144208
 21
285.63737513188028
  0
LINE
  8
_1-0_
  6
CONTINUOUS
 62
    4
 10
236.37658295144223
 20
286.0595971318802
 11
236.37658295144223
 21
285.21515813188034
  0
LINE
  8
_1-0_
  6
CONTINUOUS
 62
    4
 10
238.04324995144208
 20
285.63737513188028
 11
237.73532995144211
 21
285.21515313188036
  0
LINE
  8
_1-0_
  6
CONTINUOUS
 62
    4
 10
238.04324995144208
 20
285.63737513188028
 11
237.73532995144211
 21
286.0595971318802
  0
ARC
  8
_1-0_
  6
CONTINUOUS
 62
    4
 10
237.95144895144216
 20
285.76229913188024
 40
0.588282999999941
 50
192.26032899999549
 51
248.44630399999068
  0
ARC
  8
_1-0_
  6
CONTINUOUS
 62
    4
 10
237.63277595144206
 20
287.6394701318801
 40
2.0184199999997983
 50
231.5109780000007
 51
262.70791800000165
  0
LINE
  8
_1-0_
  6
CONTINUOUS
 62
    4
 10
236.26501595144231
 20
285.21515313188036
 11
236.37658295144223
 21
285.21515313188036
  0
LINE
  8
_1-0_
  6
CONTINUOUS
 62
    4
 10
233.47658295144254
 20
285.21515313188036
 11
233.47658295144254
 21
286.0595971318802
  0
LINE
  8
_1-0_
  6
CONTINUOUS
 62
    4
 10
233.56348895144254
 20
285.21515313188036
 11
233.54782895144251
 21
285.63737513188028
  0
LINE
  8
_1-0_
  6
CONTINUOUS
 62
    4
 10
233.84574895144249
 20
285.21515313188036
 11
233.54782895144251
 21
285.63737513188028
  0
LINE
  8
_1-0_
  6
CONTINUOUS
 62
    4
 10
236.37658295144223
 20
285.21515313188036
 11
237.73532995144211
 21
285.21515313188036
  0
LINE
  8
_1-0_
  6
CONTINUOUS
 62
    4
 10
235.95143595144231
 20
286.0595971318802
 11
237.73532995144211
 21
286.0595971318802
  0
LINE
  8
_1-0_
  6
CONTINUOUS
 62
    4
 10
235.6378559514423
 20
285.21515313188036
 11
235.98275595144224
 21
285.21515313188036
  0
LINE
  8
_1-0_
  6
CONTINUOUS
 62
    4
 10
158.34304476035828
 20
277.3040417985477
 11
152.70991695145062
 21
277.3040417985477
  0
POINT
  8
_1-0_
 62
    4
 10
152.70991695145062
 20
277.3040417985477
  0
LINE
  8
_1-0_
  6
CONTINUOUS
 62
    4
 10
152.70991695145062
 20
277.3040417985477
 11
152.70991695145062
 21
270.63737513188175
  0
LINE
  8
_1-0_
  6
CENTER1
 62
    4
 10
231.63504870101218
 20
285.63737513188028
 11
238.52632533550434
 21
285.63737513188028
  0
LINE
  8
_1-0_
  6
CENTER1
 62
    4
 10
235.46444561810904
 20
278.63737513188096
 11
250.23461426624777
 21
278.63737513188096
  0
ARC
  8
_1-0_
  6
CONTINUOUS
 62
    7
 10
234.95991695144238
 20
273.72070846521478
 40
0.2499999999999749
 50
0
 51
180
  0
LINE
  8
_1-0_
  6
CONTINUOUS
 62
    7
 10
235.20991695144238
 20
273.72070846521478
 11
235.20991695144238
 21
271.30404179854838
  0
ARC
  8
_1-0_
  6
CONTINUOUS
 62
    7
 10
235.37658361810901
 20
271.30404179854838
 40
0.16666666666665
 50
180
 51
270
  0
LINE
  8
_1-0_
  6
CONTINUOUS
 62
    7
 10
234.87658361810912
 20
270.63737513188175
 11
239.37658361810867
 21
270.63737513188175
  0
LINE
  8
_1-0_
  6
CONTINUOUS
 62
    7
 10
234.70991695144244
 20
273.72070846521478
 11
234.70991695144244
 21
270.80404179854838
  0
ARC
  8
_1-0_
  6
CONTINUOUS
 62
    7
 10
234.87658361810912
 20
270.80404179854838
 40
0.16666666666665
 50
180
 51
270
  0
LINE
  8
_1-0_
  6
CONTINUOUS
 62
    7
 10
235.37658361810901
 20
271.13737513188175
 11
238.70991695144204
 21
271.13737513188175
  0
ARC
  8
_1-0_
  6
CONTINUOUS
 62
    7
 10
238.70991695144204
 20
283.57070846521378
 40
0.16666666666665
 50
270
 51
0
  0
ARC
  8
_1-0_
  6
CONTINUOUS
 62
    7
 10
238.70993695144199
 20
287.47070846521342
 40
0.16666666666665
 50
0
 51
90
  0
LINE
  8
_1-0_
  6
CONTINUOUS
 62
    7
 10
238.87658361810867
 20
283.57022846521386
 11
238.87660361810867
 21
287.47070846521342
  0
ARC
  8
_1-0_
  6
CONTINUOUS
 62
    7
 10
238.70991695144204
 20
282.80404179854725
 40
0.16666666666665
 50
0
 51
90
  0
LINE
  8
_1-0_
  6
CONTINUOUS
 62
    7
 10
237.37658361810884
 20
282.97070846521387
 11
238.04325028477541
 21
282.6373751318805
  0
LINE
  8
_1-0_
  6
CONTINUOUS
 62
    7
 10
238.04325028477541
 20
282.6373751318805
 11
238.04325028477541
 21
282.97070846521387
  0
LINE
  8
_1-0_
  6
CONTINUOUS
 62
    7
 10
238.04325028477541
 20
282.97070846521387
 11
238.70991695144204
 21
282.97070846521387
  0
LINE
  8
_1-0_
  6
CONTINUOUS
 62
    7
 10
234.70991728477571
 20
288.13737513188005
 11
235.37658395144234
 21
288.47070846521331
  0
LINE
  8
_1-0_
  6
CONTINUOUS
 62
    7
 10
235.37658395144234
 20
288.47070846521331
 11
235.37658395144234
 21
288.13737513188005
  0
LINE
  8
_1-0_
  6
CONTINUOUS
 62
    7
 10
239.37658361810867
 20
288.13737513188005
 11
235.37658395144234
 21
288.13737513188005
  0
ARC
  8
_1-0_
  6
CONTINUOUS
 62
    7
 10
234.54324928477575
 20
287.47070846521342
 40
0.16666666666665
 50
90
 51
180
  0
ARC
  8
_1-0_
  6
CONTINUOUS
 62
    7
 10
233.37658261810924
 20
283.43773679854712
 40
0.16666666666665
 50
180
 51
257.47119199999264
  0
LINE
  8
_1-0_
  6
CONTINUOUS
 62
    7
 10
234.70991595144244
 20
282.97070846521387
 11
233.34042761810923
 21
283.27503846521381
  0
LINE
  8
_1-0_
  6
CONTINUOUS
 62
    7
 10
234.70991595144244
 20
283.40404179854715
 11
234.50635595144246
 21
283.4502484652138
  0
ARC
  8
_1-0_
  6
CONTINUOUS
 62
    7
 10
233.37658261810924
 20
284.13737513188039
 40
0.16666666666665
 50
90
 51
180
  0
ARC
  8
_1-0_
  6
CONTINUOUS
 62
    7
 10
233.37658261810924
 20
287.97070846521342
 40
0.16666666666665
 50
90
 51
180
  0
ARC
  8
_1-0_
  6
CONTINUOUS
 62
    7
 10
233.37658261810924
 20
287.13737513188016
 40
0.16666666666665
 50
180
 51
270
  0
LINE
  8
_1-0_
  6
CONTINUOUS
 62
    7
 10
233.87658261810918
 20
286.97070846521353
 11
233.37658261810924
 21
286.97070846521353
  0
LINE
  8
_1-0_
  6
CONTINUOUS
 62
    7
 10
233.87658261810918
 20
284.30404179854702
 11
233.87658261810918
 21
285.53737513188025
  0
LINE
  8
_1-0_
  6
CONTINUOUS
 62
    7
 10
233.87658261810918
 20
286.97070846521353
 11
233.87658261810918
 21
285.7373751318803
  0
LINE
  8
_1-0_
  6
CONTINUOUS
 62
    7
 10
233.87658261810918
 20
284.30404179854702
 11
233.37658261810924
 21
284.30404179854702
  0
ARC
  8
_1-0_
  6
CONTINUOUS
 62
    7
 10
234.54324928477575
 20
283.61278013188053
 40
0.16666666666665
 50
180
 51
257.21094600003067
  0
LINE
  8
_1-0_
  6
CONTINUOUS
 62
    7
 10
234.37658261810913
 20
283.61278013188053
 11
234.37658261810913
 21
284.47070846521376
  0
LINE
  8
_1-0_
  6
CONTINUOUS
 62
    7
 10
234.37658261810913
 20
287.47070846521342
 11
234.37658261810913
 21
286.80404179854679
  0
LINE
  8
_1-0_
  6
CONTINUOUS
 62
    7
 10
237.37658361810884
 20
282.97070846521387
 11
234.70991595144244
 21
282.97070846521387
  0
LINE
  8
_1-0_
  6
CONTINUOUS
 62
    7
 10
234.70991595144244
 20
283.40404179854715
 11
238.70991695144204
 21
283.40404179854715
  0
LINE
  8
_1-0_
  6
CONTINUOUS
 62
    7
 10
238.70993695144199
 20
287.63737513188005
 11
234.54324928477575
 21
287.63737513188005
  0
LINE
  8
_1-0_
  6
CONTINUOUS
 62
    7
 10
234.70991728477571
 20
288.13737513188005
 11
233.37658261810924
 21
288.13737513188005
  0
LINE
  8
_1-0_
  6
CONTINUOUS
 62
    7
 10
234.87658261810913
 20
284.63737513188039
 11
234.54324928477575
 21
284.63737513188039
  0
LINE
  8
_1-0_
  6
CONTINUOUS
 62
    7
 10
234.87658261810913
 20
286.63737513188016
 11
234.54324928477575
 21
286.63737513188016
  0
LINE
  8
_1-0_
  6
CONTINUOUS
 62
    7
 10
234.87658261810913
 20
284.63737513188039
 11
234.87658261810913
 21
286.63737513188016
  0
ARC
  8
_1-0_
  6
CONTINUOUS
 62
    7
 10
234.54324928477575
 20
286.80404179854679
 40
0.16666666666665
 50
180
 51
270
  0
ARC
  8
_1-0_
  6
CONTINUOUS
 62
    7
 10
234.54324928477575
 20
284.47070846521376
 40
0.16666666666665
 50
90
 51
180
  0
LINE
  8
_1-0_
  6
CONTINUOUS
 62
    7
 10
233.97658261810915
 20
285.63737513188028
 11
233.87658261810918
 21
285.7373751318803
  0
LINE
  8
_1-0_
  6
CONTINUOUS
 62
    7
 10
233.97658261810915
 20
285.63737513188028
 11
233.87658261810918
 21
285.53737513188025
  0
LINE
  8
_1-0_
  6
CONTINUOUS
 62
    7
 10
239.37658361810867
 20
288.13737513188005
 11
239.37658361810867
 21
270.63737513188175
  0
LINE
  8
_1-0_
  6
CENTER1
 62
    4
 10
214.37658361811117
 20
270.63737513188175
 11
214.37658361811117
 21
277.3040417985477
  0
LINE
  8
_1-0_
  6
CONTINUOUS
 62
    4
 10
238.9765786181087
 20
278.63738013188095
 11
238.87657861810868
 21
278.73738013188097
  0
LINE
  8
_1-0_
  6
CONTINUOUS
 62
    4
 10
238.9765786181087
 20
278.63738013188095
 11
238.87658361810867
 21
278.53738513188091
  0
LINE
  8
_1-0_
  6
CONTINUOUS
 62
    7
 10
238.87658361810867
 20
278.53737513188105
 11
238.97658361810869
 21
278.63737513188096
  0
LINE
  8
_1-0_
  6
CONTINUOUS
 62
    7
 10
238.97658361810869
 20
278.63737513188096
 11
238.87658361810867
 21
278.73737513188098
  0
LINE
  8
_1-0_
  6
CONTINUOUS
 62
    4
 10
239.37658361810867
 20
280.9707084652141
 11
238.87658361810867
 21
280.9707084652141
  0
LINE
  8
_1-0_
  6
CONTINUOUS
 62
    4
 10
239.37658361810867
 20
276.30404179854781
 11
238.87658361810867
 21
276.30404179854781
  0
LINE
  8
_1-0_
  6
CONTINUOUS
 62
    4
 10
244.32667761810814
 20
277.48157113188108
 11
243.16218261810826
 21
277.05773013188116
  0
LINE
  8
_1-0_
  6
CONTINUOUS
 62
    4
 10
246.07427961810794
 20
277.38998313188108
 11
246.35010461810793
 21
277.87621413188106
  0
LINE
  8
_1-0_
  6
CONTINUOUS
 62
    4
 10
246.35010461810793
 20
277.87621413188106
 11
246.8494196181079
 21
277.85004613188107
  0
LINE
  8
_1-0_
  6
CONTINUOUS
 62
    4
 10
246.8494196181079
 20
277.85004613188107
 11
246.82325161810792
 21
277.35073113188116
  0
LINE
  8
_1-0_
  6
CONTINUOUS
 62
    4
 10
245.57496461810803
 20
277.41615113188107
 11
246.07427961810794
 21
277.38998313188108
  0
LINE
  8
_1-0_
  6
CONTINUOUS
 62
    4
 10
244.8259926181081
 20
277.4554031318811
 11
245.1018186181081
 21
277.94163413188107
  0
LINE
  8
_1-0_
  6
CONTINUOUS
 62
    4
 10
245.1018186181081
 20
277.94163413188107
 11
245.60113261810801
 21
277.91546613188098
  0
LINE
  8
_1-0_
  6
CONTINUOUS
 62
    4
 10
245.60113261810801
 20
277.91546613188098
 11
245.57496461810803
 21
277.41615113188107
  0
LINE
  8
_1-0_
  6
CONTINUOUS
 62
    4
 10
244.32667761810814
 20
277.48157113188108
 11
244.8259926181081
 21
277.4554031318811
  0
LINE
  8
_1-0_
  6
CONTINUOUS
 62
    4
 10
243.57770561810827
 20
277.52082313188112
 11
243.85353161810821
 21
278.00705413188098
  0
LINE
  8
_1-0_
  6
CONTINUOUS
 62
    4
 10
243.85353161810821
 20
278.00705413188098
 11
244.35284561810812
 21
277.98088613188099
  0
LINE
  8
_1-0_
  6
CONTINUOUS
 62
    4
 10
244.35284561810812
 20
277.98088613188099
 11
244.32667761810814
 21
277.48157113188108
  0
LINE
  8
_1-0_
  6
CONTINUOUS
 62
    4
 10
243.0783906181083
 20
277.5469911318811
 11
243.57770561810827
 21
277.52082313188112
  0
LINE
  8
_1-0_
  6
CONTINUOUS
 62
    4
 10
242.60524461810832
 20
278.07247413188099
 11
243.10455861810823
 21
278.04630613188101
  0
LINE
  8
_1-0_
  6
CONTINUOUS
 62
    4
 10
243.10455861810823
 20
278.04630613188101
 11
243.0783906181083
 21
277.5469911318811
  0
LINE
  8
_1-0_
  6
CONTINUOUS
 62
    4
 10
239.37658361810867
 20
277.38738013188106
 11
240.6265836181085
 21
277.63738013188106
  0
LINE
  8
_1-0_
  6
CONTINUOUS
 62
    4
 10
242.37658361810833
 20
277.63738013188106
 11
242.60524461810832
 21
278.07247413188099
  0
LINE
  8
_1-0_
  6
CONTINUOUS
 62
    4
 10
241.37658361810844
 20
278.51238013188095
 11
241.37658361810844
 21
278.63738013188095
  0
LINE
  8
_1-0_
  6
CONTINUOUS
 62
    4
 10
246.07427961810794
 20
279.88477713188081
 11
246.35010461810793
 21
279.39854613188083
  0
LINE
  8
_1-0_
  6
CONTINUOUS
 62
    4
 10
246.35010461810793
 20
279.39854613188083
 11
246.8494196181079
 21
279.42471413188093
  0
LINE
  8
_1-0_
  6
CONTINUOUS
 62
    4
 10
246.8494196181079
 20
279.42471413188093
 11
246.82325161810792
 21
279.92402913188084
  0
LINE
  8
_1-0_
  6
CONTINUOUS
 62
    4
 10
245.57496461810803
 20
279.85860913188083
 11
246.07427961810794
 21
279.88477713188081
  0
LINE
  8
_1-0_
  6
CONTINUOUS
 62
    4
 10
244.8259926181081
 20
279.81935713188079
 11
245.1018186181081
 21
279.33312613188093
  0
LINE
  8
_1-0_
  6
CONTINUOUS
 62
    4
 10
245.1018186181081
 20
279.33312613188093
 11
245.60113261810801
 21
279.35929413188092
  0
LINE
  8
_1-0_
  6
CONTINUOUS
 62
    4
 10
245.60113261810801
 20
279.35929413188092
 11
245.57496461810803
 21
279.85860913188083
  0
LINE
  8
_1-0_
  6
CONTINUOUS
 62
    4
 10
244.32667761810814
 20
279.79318913188081
 11
244.8259926181081
 21
279.81935713188079
  0
LINE
  8
_1-0_
  6
CONTINUOUS
 62
    4
 10
243.57770561810827
 20
279.75393713188089
 11
243.85353161810821
 21
279.26770613188091
  0
LINE
  8
_1-0_
  6
CONTINUOUS
 62
    4
 10
243.85353161810821
 20
279.26770613188091
 11
244.35284561810812
 21
279.2938741318809
  0
LINE
  8
_1-0_
  6
CONTINUOUS
 62
    4
 10
244.35284561810812
 20
279.2938741318809
 11
244.32667761810814
 21
279.79318913188081
  0
LINE
  8
_1-0_
  6
CONTINUOUS
 62
    4
 10
243.0783906181083
 20
279.72776913188079
 11
243.57770561810827
 21
279.75393713188089
  0
LINE
  8
_1-0_
  6
CONTINUOUS
 62
    4
 10
242.60524461810832
 20
279.2022861318809
 11
243.10455861810823
 21
279.22845413188088
  0
LINE
  8
_1-0_
  6
CONTINUOUS
 62
    4
 10
243.10455861810823
 20
279.22845413188088
 11
243.0783906181083
 21
279.72776913188079
  0
LINE
  8
_1-0_
  6
CONTINUOUS
 62
    4
 10
240.6265836181085
 20
278.63738013188095
 11
239.37658361810867
 21
278.63738013188095
  0
LINE
  8
_1-0_
  6
CONTINUOUS
 62
    4
 10
239.37658361810867
 20
278.38738013188095
 11
240.6265836181085
 21
278.63738013188095
  0
LINE
  8
_1-0_
  6
CONTINUOUS
 62
    4
 10
239.37658361810867
 20
278.88738013188095
 11
240.6265836181085
 21
278.63738013188095
  0
LINE
  8
_1-0_
  6
CONTINUOUS
 62
    4
 10
239.37658361810867
 20
279.88738013188083
 11
240.6265836181085
 21
279.63738013188083
  0
LINE
  8
_1-0_
  6
CONTINUOUS
 62
    4
 10
242.37658361810833
 20
279.63738013188083
 11
242.60524461810832
 21
279.2022861318809
  0
LINE
  8
_1-0_
  6
CONTINUOUS
 62
    4
 10
241.37658361810844
 20
278.76238013188095
 11
241.37658361810844
 21
278.63738013188095
  0
LINE
  8
_1-0_
  6
CONTINUOUS
 62
    4
 10
243.16218261810826
 20
280.21703013188085
 11
241.46127761810845
 21
280.46511913188078
  0
ARC
  8
_1-0_
  6
CONTINUOUS
 62
    4
 10
241.4468446181084
 20
280.36616613188085
 40
0.09999999999999
 50
81.701533999996414
 51
171.86989800000819
  0
LINE
  8
_1-0_
  6
CONTINUOUS
 62
    4
 10
241.34784961810846
 20
280.38030813188084
 11
241.34082061810847
 21
280.33110213188081
  0
ARC
  8
_1-0_
  6
CONTINUOUS
 62
    4
 10
241.43981461810841
 20
280.31696013188082
 40
0.09999999999999
 50
171.86989800000819
 51
261.86989800000822
  0
LINE
  8
_1-0_
  6
CONTINUOUS
 62
    4
 10
241.42567261810842
 20
280.21796513188076
 11
243.07667761810825
 21
279.98210713188087
  0
LINE
  8
_1-0_
  6
CONTINUOUS
 62
    4
 10
243.16218261810826
 20
277.05773013188116
 11
241.46127761810845
 21
276.80964113188111
  0
ARC
  8
_1-0_
  6
CONTINUOUS
 62
    4
 10
241.4468446181084
 20
276.90859413188116
 40
0.09999999999999
 50
188.13010199999184
 51
278.2984660000036
  0
LINE
  8
_1-0_
  6
CONTINUOUS
 62
    4
 10
241.34784961810846
 20
276.89445213188117
 11
241.34082061810847
 21
276.94365813188119
  0
ARC
  8
_1-0_
  6
CONTINUOUS
 62
    4
 10
241.43981461810841
 20
276.95780013188119
 40
0.09999999999999
 50
98.130101999991808
 51
188.13010200002401
  0
LINE
  8
_1-0_
  6
CONTINUOUS
 62
    4
 10
241.42567261810842
 20
277.05679513188113
 11
243.07667761810825
 21
277.29265313188114
  0
LINE
  8
_1-0_
  6
CONTINUOUS
 62
    4
 10
244.32667761810814
 20
279.79318913188081
 11
243.16218261810826
 21
280.21703013188085
  0
LINE
  8
_1-0_
  6
CONTINUOUS
 62
    4
 10
248.07153861810781
 20
277.28531113188114
 11
248.57085361810772
 21
277.25914313188116
  0
LINE
  8
_1-0_
  6
CONTINUOUS
 62
    4
 10
247.32256661810783
 20
277.32456313188106
 11
247.59839161810777
 21
277.81079413188104
  0
LINE
  8
_1-0_
  6
CONTINUOUS
 62
    4
 10
247.59839161810777
 20
277.81079413188104
 11
248.09770661810779
 21
277.78462613188105
  0
LINE
  8
_1-0_
  6
CONTINUOUS
 62
    4
 10
248.09770661810779
 20
277.78462613188105
 11
248.07153861810781
 21
277.28531113188114
  0
LINE
  8
_1-0_
  6
CONTINUOUS
 62
    4
 10
248.07153861810781
 20
279.98944813188086
 11
248.57085361810772
 21
280.01561613188085
  0
LINE
  8
_1-0_
  6
CONTINUOUS
 62
    4
 10
247.32256661810783
 20
279.95019713188083
 11
247.59839161810777
 21
279.46396613188085
  0
LINE
  8
_1-0_
  6
CONTINUOUS
 62
    4
 10
247.59839161810777
 20
279.46396613188085
 11
248.09770661810779
 21
279.49013413188084
  0
LINE
  8
_1-0_
  6
CONTINUOUS
 62
    4
 10
248.09770661810779
 20
279.49013413188084
 11
248.07153861810781
 21
279.98944813188086
  0
LINE
  8
_1-0_
  6
CONTINUOUS
 62
    4
 10
247.90922261810778
 20
279.10474113188093
 11
248.3765836181077
 21
278.63738013188095
  0
LINE
  8
_1-0_
  6
CONTINUOUS
 62
    4
 10
246.82325161810792
 20
277.35073113188116
 11
247.32256661810783
 21
277.32456313188106
  0
LINE
  8
_1-0_
  6
CONTINUOUS
 62
    4
 10
248.61664761810772
 20
278.132944131881
 11
248.57085361810772
 21
277.25914313188116
  0
LINE
  8
_1-0_
  6
CONTINUOUS
 62
    4
 10
248.57085361810772
 20
277.25914313188116
 11
249.09633661810767
 21
277.73229013188109
  0
LINE
  8
_1-0_
  6
CONTINUOUS
 62
    4
 10
249.09633661810767
 20
277.73229013188109
 11
249.11596261810769
 21
278.10677613188102
  0
LINE
  8
_1-0_
  6
CONTINUOUS
 62
    4
 10
249.11596261810769
 20
278.10677613188102
 11
241.37658361810844
 21
278.51238013188095
  0
LINE
  8
_1-0_
  6
CONTINUOUS
 62
    4
 10
246.82325161810792
 20
279.92402913188084
 11
247.32256661810783
 21
279.95019713188083
  0
LINE
  8
_1-0_
  6
CONTINUOUS
 62
    4
 10
248.61664761810772
 20
279.14181613188089
 11
248.57085361810772
 21
280.01561613188085
  0
LINE
  8
_1-0_
  6
CONTINUOUS
 62
    4
 10
248.57085361810772
 20
280.01561613188085
 11
249.09633661810767
 21
279.54247013188092
  0
LINE
  8
_1-0_
  6
CONTINUOUS
 62
    4
 10
249.09633661810767
 20
279.54247013188092
 11
249.11596261810769
 21
279.16798413188087
  0
LINE
  8
_1-0_
  6
CONTINUOUS
 62
    4
 10
249.11596261810769
 20
279.16798413188087
 11
241.37658361810844
 21
278.76238013188095
  0
LINE
  8
_1-0_
  6
CONTINUOUS
 62
    4
 10
248.3765836181077
 20
278.63738013188095
 11
247.90922225283538
 21
278.17001876660868
  0
LINE
  8
_1-0_
  6
CONTINUOUS
 62
    4
 10
239.37658361810867
 20
277.63738013188106
 11
242.37658361810833
 21
277.63738013188106
  0
LINE
  8
_1-0_
  6
CONTINUOUS
 62
    4
 10
239.37658361810867
 20
279.63738013188083
 11
242.37658361810833
 21
279.63738013188083
  0
LINE
  8
_1-0_
  6
CONTINUOUS
 62
    4
 10
244.34089158064472
 20
279.52197067025088
 11
243.07667761810825
 21
279.98210713188087
  0
LINE
  8
_1-0_
  6
CONTINUOUS
 62
    4
 10
244.34089158064472
 20
277.75278959351101
 11
243.07667761810825
 21
277.29265313188114
  0
LINE
  8
_1-0_
  6
CONTINUOUS
 62
    7
 10
238.87657839083585
 20
271.30404179855077
 11
238.87658361810867
 21
282.80404179854725
  0
ARC
  8
_1-0_
  6
CONTINUOUS
 62
    7
 10
238.70991695144204
 20
271.30404179854838
 40
0.16666666666665
 50
270
 51
0
  0
ARC
  8
_1-0_
  6
CONTINUOUS
 62
    4
 10
192.87658608023878
 20
274.80404179854804
 40
0.3333333333333
 50
270
 51
359.9999565941086
  0
ARC
  8
_1-0_
  6
CONTINUOUS
 62
    4
 10
192.04325224185465
 20
274.80404179854804
 40
0.3333333333333
 50
179.99995659409885
 51
270
  0
ARC
  8
_1-0_
  6
CONTINUOUS
 62
    4
 10
192.95992124437998
 20
276.3873751318813
 40
0.2499999999999749
 50
359.99995659382529
 51
179.99995659409882
  0
ARC
  8
_1-0_
  6
CONTINUOUS
 62
    4
 10
191.95992124438021
 20
275.8873751318813
 40
0.2499999999999749
 50
359.99995659409882
 51
179.99999999997394
  0
LINE
  8
_1-0_
  6
CONTINUOUS
 62
    4
 10
193.20991936306689
 20
276.38737494248755
 11
193.20991816357196
 21
274.80404154602377
  0
LINE
  8
_1-0_
  6
CONTINUOUS
 62
    4
 10
191.70991898427906
 20
275.88737513188312
 11
191.70991816357218
 21
274.80404205107391
  0
LINE
  8
_1-0_
  6
CONTINUOUS
 62
    7
 10
192.20992124438015
 20
274.97070846521467
 11
192.7099212443801
 21
274.97070846521467
  0
LINE
  8
_1-0_
  6
CENTER1
 62
    4
 10
164.37659356119065
 20
270.63737513188175
 11
164.37659356119065
 21
278.08734186632807
  0
LINE
  8
_1-0_
  6
CONTINUOUS
 62
    7
 10
192.7099212443801
 20
274.97070846521467
 11
192.7099212443801
 21
276.63737513188119
  0
ARC
  8
_1-0_
  6
CONTINUOUS
 62
    7
 10
192.04325457771347
 20
276.63737513188119
 40
0.6666666666666
 50
0
 51
90
  0
LINE
  8
_1-0_
  6
CONTINUOUS
 62
    7
 10
192.20992124438015
 20
274.97070846521467
 11
192.20992124438015
 21
276.63737513188119
  0
ARC
  8
_1-0_
  6
CONTINUOUS
 62
    7
 10
192.04325457771347
 20
276.63737513188119
 40
0.16666666666665
 50
0
 51
90
  0
LINE
  8
_1-0_
  6
CONTINUOUS
 62
    4
 10
161.76009064943645
 20
271.30404179854838
 11
161.09342398276988
 21
270.63737513188175
  0
LINE
  8
_1-0_
  6
CONTINUOUS
 62
    4
 10
160.34587708706351
 20
271.30404179854838
 11
159.8765935611911
 21
270.83475827267603
  0
LINE
  8
_1-0_
  6
CONTINUOUS
 62
    4
 10
162.70289969101839
 20
271.30404179854838
 11
162.03623302435176
 21
270.63737513188175
  0
LINE
  8
_1-0_
  6
CONTINUOUS
 62
    4
 10
162.23149517022739
 20
271.30404179854838
 11
161.56482850356076
 21
270.63737513188175
  0
LINE
  8
_1-0_
  6
CONTINUOUS
 62
    4
 10
161.28868612864545
 20
271.30404179854838
 11
160.62201946197888
 21
270.63737513188175
  0
LINE
  8
_1-0_
  6
CONTINUOUS
 62
    4
 10
160.81728160785445
 20
271.30404179854838
 11
160.15061494118788
 21
270.63737513188175
  0
ARC
  8
_1-0_
  6
CONTINUOUS
 62
    7
 10
160.04325382013849
 20
271.97070644500809
 40
0.16666666666665
 50
180.00004340590115
 51
270
  0
ARC
  8
_1-0_
  6
CONTINUOUS
 62
    7
 10
160.04325382013849
 20
271.97070644500809
 40
0.6666666666666
 50
180.00004340589138
 51
270
  0
LINE
  8
_1-0_
  6
CONTINUOUS
 62
    4
 10
159.8765935611911
 20
271.32520756620818
 11
159.8765935611911
 21
270.63737513188175
  0
LINE
  8
_1-0_
  6
CONTINUOUS
 62
    7
 10
159.87658361813521
 20
276.63735076319119
 11
159.87658715347186
 21
271.97070631874544
  0
LINE
  8
_1-0_
  6
CONTINUOUS
 62
    7
 10
192.04325457771347
 20
276.80404179854781
 11
160.04325028480179
 21
276.80404179854781
  0
ARC
  8
_1-0_
  6
CONTINUOUS
 62
    7
 10
160.04325028480179
 20
276.63735088945373
 40
0.16666666666665
 50
90
 51
180.00004340588163
  0
LINE
  8
_1-0_
  6
CONTINUOUS
 62
    7
 10
159.37658361813538
 20
276.63735038440325
 11
159.37658715347209
 21
271.97070593995761
  0
LINE
  8
_1-0_
  6
CONTINUOUS
 62
    7
 10
192.04325457771347
 20
277.30404179854781
 11
160.04325028480179
 21
277.30404179854781
  0
ARC
  8
_1-0_
  6
CONTINUOUS
 62
    7
 10
160.04325028480179
 20
276.63735088945373
 40
0.6666666666666
 50
90
 51
180.00004340589138
  0
LINE
  8
_1-0_
  6
CONTINUOUS
 62
    4
 10
239.37658361810867
 20
290.69668708521635
 11
238.70991695144204
 21
290.03002041854973
  0
LINE
  8
_1-0_
  6
CONTINUOUS
 62
    4
 10
239.37658361810867
 20
290.22528256442536
 11
238.70991695144204
 21
289.55861589775873
  0
LINE
  8
_1-0_
  6
CONTINUOUS
 62
    4
 10
239.37658361810867
 20
289.75387804363436
 11
238.70991695144204
 21
289.08721137696773
  0
LINE
  8
_1-0_
  6
CONTINUOUS
 62
    4
 10
239.37658361810867
 20
289.28247352284336
 11
238.70991695144204
 21
288.61580685617673
  0
LINE
  8
_1-0_
  6
CONTINUOUS
 62
    4
 10
239.37658361810867
 20
288.33966448126137
 11
239.17429426872729
 21
288.13737513188005
  0
LINE
  8
_1-0_
  6
CONTINUOUS
 62
    4
 10
239.37658361810867
 20
288.81106900205236
 11
238.70991695144204
 21
288.14440233538573
  0
ARC
  8
_1-0_
  6
CONTINUOUS
 62
    7
 10
233.37658361810924
 20
291.30404179854634
 40
0.6666666666666
 50
90
 51
180
  0
ARC
  8
_1-0_
  6
CONTINUOUS
 62
    7
 10
233.37658361810924
 20
291.30404179854634
 40
0.16666666666665
 50
90
 51
180
  0
LINE
  8
_1-0_
  6
CONTINUOUS
 62
    7
 10
238.04325028477541
 20
291.47070846521297
 11
233.37658361810924
 21
291.47070846521297
  0
ARC
  8
_1-0_
  6
CONTINUOUS
 62
    7
 10
238.04325028477541
 20
291.30404179854634
 40
0.16666666666665
 50
0
 51
90
  0
LINE
  8
_1-0_
  6
CONTINUOUS
 62
    7
 10
238.04325028477541
 20
291.97070846521297
 11
233.37658361810924
 21
291.97070846521297
  0
ARC
  8
_1-0_
  6
CONTINUOUS
 62
    7
 10
238.04325028477541
 20
291.30404179854634
 40
0.6666666666666
 50
0
 51
90
  0
LINE
  8
_1-0_
  6
CONTINUOUS
 62
    4
 10
239.37658361810867
 20
291.47070846521297
 11
238.6887475091433
 21
291.47070846521297
  0
POINT
  8
_1-0_
 62
    4
 10
192.70991695144664
 20
298.63737513187903
  0
POINT
  8
_1-0_
 62
    4
 10
239.37658361810867
 20
298.63737513187903
  0
POINT
  8
_1-0_
 62
    4
 10
239.37658361810867
 20
303.63737513187846
  0
POINT
  8
_1-0_
 62
    4
 10
159.37658361811663
 20
298.63737513187903
  0
POINT
  8
_1-0_
 62
    4
 10
159.37658361811663
 20
303.63737513187846
  0
LINE
  8
_1-0_
  6
CONTINUOUS
 62
    4
 10
192.70991695144664
 20
298.63737513187903
 11
159.37658361811663
 21
298.63737513187903
  0
LINE
  8
_1-0_
  6
CONTINUOUS
 62
    4
 10
239.37658361810867
 20
303.63737513187846
 11
159.37658361811663
 21
303.63737513187846
  0
POINT
  8
_1-0_
 62
    4
 10
232.70991695144261
 20
298.63737513187903
  0
LINE
  8
_1-0_
  6
CONTINUOUS
 62
    4
 10
232.70991695144261
 20
298.63737513187903
 11
239.37658361810867
 21
298.63737513187903
  0
LINE
  8
_1-0_
  6
CONTINUOUS
 62
    4
 10
232.70991695144261
 20
298.63737513187903
 11
192.70991695144664
 21
298.63737513187903
  0
POINT
  8
_1-0_
 62
    4
 10
147.70991695145113
 20
291.97070846521297
  0
POINT
  8
_1-0_
 62
    4
 10
152.70991695145062
 20
291.97070846521297
  0
LINE
  8
_1-0_
  6
CONTINUOUS
 62
    4
 10
232.16952329580363
 20
291.97070846521297
 11
147.70991695145113
 21
291.97070846521297
  0
LINE
  8
_1-0_
  6
CONTINUOUS
 62
    4
 10
239.37658361810867
 20
248.30404213188396
 11
239.37658361810867
 21
303.63737513187846
  0
LINE
  8
_1-0_
  6
CONTINUOUS
 62
    4
 10
159.37658361811663
 20
278.33061239784456
 11
159.37658361811663
 21
303.63737513187846
  0
LINE
  8
_1-0_
  6
CONTINUOUS
 62
    4
 10
192.70991695144664
 20
278.33061239784456
 11
192.70991695144664
 21
298.63737513187903
  0
LINE
  8
_1-0_
  6
CONTINUOUS
 62
    4
 10
232.70991695144261
 20
292.06603653183345
 11
232.70991695144261
 21
298.63737513187903
  0
LINE
  8
_1-0_
  6
CONTINUOUS
 62
    7
 10
238.2099169514421
 20
288.13737513188005
 11
238.2099169514421
 21
291.30404179854634
  0
LINE
  8
_1-0_
  6
CONTINUOUS
 62
    7
 10
238.70991695144204
 20
288.13737513188005
 11
238.70991695144204
 21
291.30404179854634
  0
LINE
  8
_1-0_
  6
CONTINUOUS
 62
    4
 10
239.37658361810867
 20
291.16809160600724
 11
238.70991695144204
 21
290.50142493934072
  0
LINE
  8
_1-0_
  6
CONTINUOUS
 62
    4
 10
238.7363914357324
 20
291.47070846521297
 11
238.69754810607679
 21
291.43186513555747
  0
LINE
  8
_1-0_
  6
CONTINUOUS
 62
    4
 10
239.2077959565234
 20
291.47070846521297
 11
238.70991695144204
 21
290.97282946013172
  0
LINE
  8
_1-0_
  6
CONTINUOUS
 62
    4
 10
152.70991695145062
 20
277.3040417985477
 11
152.70991695145062
 21
291.97070846521297
  0
LINE
  8
_1-0_
  6
CONTINUOUS
 62
    4
 10
147.70991695145113
 20
270.63737513188175
 11
147.70991695145113
 21
291.97070846521297
  0
LINE
  8
_1-0_
  6
CONTINUOUS
 62
    4
 10
166.07659406624066
 20
277.30404179854781
 11
166.07659406624066
 21
277.20404179854779
  0
LINE
  8
_1-0_
  6
CONTINUOUS
 62
    4
 10
166.07659406624066
 20
277.20404179854779
 11
165.29881606624076
 21
276.53737579854783
  0
LINE
  8
_1-0_
  6
CONTINUOUS
 62
    4
 10
166.07659406624066
 20
277.20404179854779
 11
163.67659406624091
 21
277.20404179854779
  0
LINE
  8
_1-0_
  6
CONTINUOUS
 62
    4
 10
163.67659406624091
 20
277.30404179854781
 11
163.67659406624091
 21
277.20404179854779
  0
LINE
  8
_1-0_
  6
CONTINUOUS
 62
    4
 10
163.67659406624091
 20
277.20404179854779
 11
164.45437206624086
 21
276.53737579854783
  0
LINE
  8
_1-0_
  6
CONTINUOUS
 62
    4
 10
165.29881606624076
 20
274.34478279854807
 11
165.29881606624076
 21
274.68968279854801
  0
LINE
  8
_1-0_
  6
CONTINUOUS
 62
    4
 10
164.45437206624086
 20
273.74894279854811
 11
165.29881606624076
 21
274.06252279854812
  0
LINE
  8
_1-0_
  6
CONTINUOUS
 62
    4
 10
164.45437206624086
 20
274.03120279854818
 11
165.29881606624076
 21
274.34478279854807
  0
LINE
  8
_1-0_
  6
CONTINUOUS
 62
    4
 10
164.20992706624082
 20
273.89007279854809
 11
165.54326106624075
 21
274.20365279854809
  0
LINE
  8
_1-0_
  6
CONTINUOUS
 62
    4
 10
164.20992706624082
 20
273.89007279854809
 11
164.45437206624086
 21
273.74894279854811
  0
LINE
  8
_1-0_
  6
CONTINUOUS
 62
    4
 10
164.20992706624082
 20
273.89007279854809
 11
164.45437206624086
 21
274.03120279854818
  0
LINE
  8
_1-0_
  6
CONTINUOUS
 62
    4
 10
165.54326106624075
 20
274.20365279854809
 11
165.29881606624076
 21
274.06252279854812
  0
LINE
  8
_1-0_
  6
CONTINUOUS
 62
    4
 10
165.29881606624076
 20
274.34478279854807
 11
165.54326106624075
 21
274.20365279854809
  0
LINE
  8
_1-0_
  6
CONTINUOUS
 62
    4
 10
164.45437206624086
 20
275.00326379854801
 11
164.45437206624086
 21
274.65836279854807
  0
LINE
  8
_1-0_
  6
CONTINUOUS
 62
    4
 10
165.29881606624076
 20
274.97194379854807
 11
165.29881606624076
 21
275.31684379854801
  0
LINE
  8
_1-0_
  6
CONTINUOUS
 62
    4
 10
164.45437206624086
 20
274.37610279854812
 11
165.29881606624076
 21
274.68968279854801
  0
LINE
  8
_1-0_
  6
CONTINUOUS
 62
    4
 10
164.45437206624086
 20
274.65836279854807
 11
165.29881606624076
 21
274.97194379854807
  0
LINE
  8
_1-0_
  6
CONTINUOUS
 62
    4
 10
164.20992706624082
 20
274.51723279854809
 11
165.54326106624075
 21
274.8308127985481
  0
LINE
  8
_1-0_
  6
CONTINUOUS
 62
    4
 10
164.20992706624082
 20
274.51723279854809
 11
164.45437206624086
 21
274.37610279854812
  0
LINE
  8
_1-0_
  6
CONTINUOUS
 62
    4
 10
164.20992706624082
 20
274.51723279854809
 11
164.45437206624086
 21
274.65836279854807
  0
LINE
  8
_1-0_
  6
CONTINUOUS
 62
    4
 10
165.54326106624075
 20
274.8308127985481
 11
165.29881606624076
 21
274.68968279854801
  0
LINE
  8
_1-0_
  6
CONTINUOUS
 62
    4
 10
165.29881606624076
 20
274.97194379854807
 11
165.54326106624075
 21
274.8308127985481
  0
LINE
  8
_1-0_
  6
CONTINUOUS
 62
    4
 10
164.45437206624086
 20
275.63042379854801
 11
164.45437206624086
 21
275.28552379854796
  0
LINE
  8
_1-0_
  6
CONTINUOUS
 62
    4
 10
165.29881606624076
 20
275.59910379854796
 11
165.29881606624076
 21
275.94400379854801
  0
LINE
  8
_1-0_
  6
CONTINUOUS
 62
    4
 10
164.45437206624086
 20
275.00326379854801
 11
165.29881606624076
 21
275.31684379854801
  0
LINE
  8
_1-0_
  6
CONTINUOUS
 62
    4
 10
164.45437206624086
 20
275.28552379854796
 11
165.29881606624076
 21
275.59910379854796
  0
LINE
  8
_1-0_
  6
CONTINUOUS
 62
    4
 10
164.20992706624082
 20
275.14439379854798
 11
165.54326106624075
 21
275.45797379854798
  0
LINE
  8
_1-0_
  6
CONTINUOUS
 62
    4
 10
164.20992706624082
 20
275.14439379854798
 11
164.45437206624086
 21
275.00326379854801
  0
LINE
  8
_1-0_
  6
CONTINUOUS
 62
    4
 10
164.20992706624082
 20
275.14439379854798
 11
164.45437206624086
 21
275.28552379854796
  0
LINE
  8
_1-0_
  6
CONTINUOUS
 62
    4
 10
165.54326106624075
 20
275.45797379854798
 11
165.29881606624076
 21
275.31684379854801
  0
LINE
  8
_1-0_
  6
CONTINUOUS
 62
    4
 10
165.29881606624076
 20
275.59910379854796
 11
165.54326106624075
 21
275.45797379854798
  0
LINE
  8
_1-0_
  6
CONTINUOUS
 62
    4
 10
164.45437206624086
 20
275.99202179854797
 11
164.45437206624086
 21
275.91268379854796
  0
LINE
  8
_1-0_
  6
CONTINUOUS
 62
    4
 10
165.29881606624076
 20
276.53737579854783
 11
165.29881606624076
 21
276.22626479854796
  0
LINE
  8
_1-0_
  6
CONTINUOUS
 62
    4
 10
164.45437206624086
 20
275.63042379854801
 11
165.29881606624076
 21
275.94400379854801
  0
LINE
  8
_1-0_
  6
CONTINUOUS
 62
    4
 10
164.45437206624086
 20
275.91268379854796
 11
165.29881606624076
 21
276.22626479854796
  0
LINE
  8
_1-0_
  6
CONTINUOUS
 62
    4
 10
164.20992706624088
 20
275.77155379854798
 11
165.54326106624075
 21
276.08513379854799
  0
LINE
  8
_1-0_
  6
CONTINUOUS
 62
    4
 10
164.20992706624088
 20
275.77155379854798
 11
164.45437206624086
 21
275.63042379854801
  0
LINE
  8
_1-0_
  6
CONTINUOUS
 62
    4
 10
164.20992706624088
 20
275.77155379854798
 11
164.45437206624086
 21
275.91268379854796
  0
LINE
  8
_1-0_
  6
CONTINUOUS
 62
    4
 10
165.29881606624076
 20
275.94400379854801
 11
165.54326106624075
 21
276.08513379854799
  0
LINE
  8
_1-0_
  6
CONTINUOUS
 62
    4
 10
165.29881606624076
 20
276.22626479854796
 11
165.54326106624075
 21
276.08513379854799
  0
LINE
  8
_1-0_
  6
CONTINUOUS
 62
    4
 10
164.45437206624086
 20
276.53737579854783
 11
164.45437206624086
 21
276.45046979854794
  0
LINE
  8
_1-0_
  6
CONTINUOUS
 62
    4
 10
164.87659406624084
 20
276.46612979854797
 11
164.20992706624088
 21
276.30933979854797
  0
LINE
  8
_1-0_
  6
CONTINUOUS
 62
    4
 10
164.20992706624088
 20
276.30933979854797
 11
164.45437206624086
 21
276.16820979854788
  0
LINE
  8
_1-0_
  6
CONTINUOUS
 62
    4
 10
164.20992706624088
 20
276.30933979854797
 11
164.45437206624086
 21
276.45046979854794
  0
LINE
  8
_1-0_
  6
CONTINUOUS
 62
    4
 10
164.45437206624086
 20
276.16820979854788
 11
164.45437206624086
 21
275.99202179854797
  0
LINE
  8
_1-0_
  6
CONTINUOUS
 62
    4
 10
164.87659406624084
 20
272.63737579854831
 11
164.87659406624084
 21
271.97070879854834
  0
LINE
  8
_1-0_
  6
CONTINUOUS
 62
    4
 10
165.29881606624076
 20
273.63737579854819
 11
164.45437706624085
 21
273.63737579854819
  0
LINE
  8
_1-0_
  6
CONTINUOUS
 62
    4
 10
164.87659406624084
 20
271.97070879854834
 11
164.45437206624086
 21
272.27862879854831
  0
LINE
  8
_1-0_
  6
CONTINUOUS
 62
    4
 10
164.87659406624084
 20
271.97070879854834
 11
165.29881606624076
 21
272.27862879854831
  0
ARC
  8
_1-0_
  6
CONTINUOUS
 62
    4
 10
165.00151806624081
 20
272.06250979854826
 40
0.588282999999941
 50
102.26032900000151
 51
158.44630399999789
  0
ARC
  8
_1-0_
  6
CONTINUOUS
 62
    4
 10
166.87868906624055
 20
272.38118279854825
 40
2.0184199999997983
 50
141.51097799999775
 51
172.70791799999833
  0
LINE
  8
_1-0_
  6
CONTINUOUS
 62
    4
 10
164.45437206624086
 20
273.74894279854811
 11
164.45437206624086
 21
273.63737579854819
  0
LINE
  8
_1-0_
  6
CONTINUOUS
 62
    4
 10
164.45437206624086
 20
276.53737579854783
 11
165.29881606624076
 21
276.53737579854783
  0
LINE
  8
_1-0_
  6
CONTINUOUS
 62
    4
 10
164.45437206624086
 20
276.45046979854794
 11
164.87659406624084
 21
276.46612979854797
  0
LINE
  8
_1-0_
  6
CONTINUOUS
 62
    4
 10
164.45437206624086
 20
276.16820979854788
 11
164.87659406624084
 21
276.46612979854797
  0
LINE
  8
_1-0_
  6
CONTINUOUS
 62
    4
 10
164.45437206624086
 20
273.63737579854819
 11
164.45437206624086
 21
272.27862879854831
  0
LINE
  8
_1-0_
  6
CONTINUOUS
 62
    4
 10
165.29881606624076
 20
274.06252279854812
 11
165.29881606624076
 21
272.27862879854831
  0
LINE
  8
_1-0_
  6
CONTINUOUS
 62
    4
 10
164.45437206624086
 20
274.37610279854812
 11
164.45437206624086
 21
274.03120279854818
  0
ARC
  8
_1-0_
  6
CONTINUOUS
 62
    7
 10
163.8765940662409
 20
271.30404179854838
 40
0.16666666666665
 50
180
 51
270
  0
ARC
  8
_1-0_
  6
CONTINUOUS
 62
    7
 10
163.37659406624095
 20
276.63737513188119
 40
0.16666666666665
 50
90
 51
180
  0
LINE
  8
_1-0_
  6
CONTINUOUS
 62
    7
 10
163.20992739957433
 20
270.63737513188175
 11
163.20992739957433
 21
274.63737513188141
  0
LINE
  8
_1-0_
  6
CONTINUOUS
 62
    7
 10
163.20992739957433
 20
275.30404159908835
 11
163.20992739957433
 21
276.63737513188119
  0
ARC
  8
_1-0_
  6
CONTINUOUS
 62
    7
 10
163.8765940662409
 20
271.30404179854838
 40
0.16666666666665
 50
180
 51
270
  0
ARC
  8
_1-0_
  6
CONTINUOUS
 62
    7
 10
165.87659406624073
 20
276.30404179854793
 40
0.6666666666666
 50
270
 51
0
  0
ARC
  8
_1-0_
  6
CONTINUOUS
 62
    7
 10
163.54326073290758
 20
276.63737513188119
 40
0.16666666666665
 50
0
 51
90
  0
ARC
  8
_1-0_
  6
CONTINUOUS
 62
    7
 10
166.20992739957398
 20
276.63737513188119
 40
0.16666666666665
 50
90
 51
180
  0
LINE
  8
_1-0_
  6
CONTINUOUS
 62
    7
 10
166.5432607329073
 20
276.63737513188119
 11
166.5432607329073
 21
276.30404179854793
  0
ARC
  8
_1-0_
  6
CONTINUOUS
 62
    7
 10
166.37659406624067
 20
276.63737513188119
 40
0.16666666666665
 50
0
 51
90
  0
LINE
  8
_1-0_
  6
CONTINUOUS
 62
    7
 10
163.70992739957427
 20
275.30404179854804
 11
163.70992739957427
 21
271.30404179854838
  0
LINE
  8
_1-0_
  6
CONTINUOUS
 62
    7
 10
164.04326073290758
 20
275.6373751318813
 11
165.87659406624073
 21
275.6373751318813
  0
ARC
  8
_1-0_
  6
CONTINUOUS
 62
    7
 10
164.04326073290758
 20
275.30404179854804
 40
0.3333333333333
 50
90
 51
180
  0
LINE
  8
_1-0_
  6
CONTINUOUS
 62
    7
 10
163.70992739957427
 20
276.30404179854793
 11
164.77659406624082
 21
276.30404179854793
  0
LINE
  8
_1-0_
  6
CONTINUOUS
 62
    7
 10
164.97659406624075
 20
276.30404179854793
 11
166.04326073290736
 21
276.30404179854793
  0
LINE
  8
_1-0_
  6
CONTINUOUS
 62
    7
 10
163.70992739957427
 20
276.30404179854793
 11
163.70992739957427
 21
276.63737513188119
  0
LINE
  8
_1-0_
  6
CONTINUOUS
 62
    7
 10
166.04326073290736
 20
276.63737513188119
 11
166.04326073290736
 21
276.30404179854793
  0
LINE
  8
_1-0_
  6
CONTINUOUS
 62
    7
 10
164.87659406624084
 20
276.20404179854791
 11
164.77659406624082
 21
276.30404179854793
  0
LINE
  8
_1-0_
  6
CONTINUOUS
 62
    7
 10
164.87659406624084
 20
276.20404179854791
 11
164.97659406624081
 21
276.30404179854793
  0
LINE
  8
_1-0_
  6
CONTINUOUS
 62
    7
 10
163.8765940662409
 20
271.13737513188175
 11
173.20992739957336
 21
271.13737513188175
  0
LINE
  8
_1-0_
  6
CONTINUOUS
 62
    7
 10
173.87659406623993
 20
271.97070879854834
 11
174.20992706623986
 21
271.97070879854834
  0
ARC
  8
_1-0_
  6
CONTINUOUS
 62
    7
 10
173.47659406623995
 20
272.87070879854821
 40
0.09999999999999
 50
90
 51
180
  0
LINE
  8
_1-0_
  6
CONTINUOUS
 62
    7
 10
173.91458139039639
 20
272.85674671211689
 11
174.20992706623986
 21
271.97070879854834
  0
LINE
  8
_1-0_
  6
CONTINUOUS
 62
    7
 10
173.75646749157653
 20
272.97070879854823
 11
173.47659406623995
 21
272.97070879854823
  0
ARC
  8
_1-0_
  6
CONTINUOUS
 62
    7
 10
173.75646749157653
 20
272.8040421318816
 40
0.16666666666665
 50
18.434931634205746
 51
90
  0
LINE
  8
_1-0_
  6
CONTINUOUS
 62
    7
 10
173.87659406623993
 20
271.97070879854834
 11
173.87659406623993
 21
271.30404179854838
  0
ARC
  8
_1-0_
  6
CONTINUOUS
 62
    7
 10
174.04326073290662
 20
271.30404179854838
 40
0.16666666666665
 50
180
 51
270
  0
LINE
  8
_1-0_
  6
CONTINUOUS
 62
    7
 10
173.37659406623999
 20
272.87070879854821
 11
173.37659406623999
 21
271.30404179854838
  0
ARC
  8
_1-0_
  6
CONTINUOUS
 62
    7
 10
173.20992739957336
 20
271.30404179854838
 40
0.16666666666665
 50
270
 51
0
  0
LINE
  8
_1-0_
  6
CONTINUOUS
 62
    7
 10
174.04326073290662
 20
271.13737513188175
 11
193.37659439957127
 21
271.13737513188175
  0
ARC
  8
_1-0_
  6
CONTINUOUS
 62
    7
 10
193.37659439957127
 20
271.30404179854838
 40
0.16666666666665
 50
270
 51
0
  0
ARC
  8
_1-0_
  6
CONTINUOUS
 62
    7
 10
193.87659439957122
 20
270.8040417985485
 40
0.16666666666665
 50
270
 51
0
  0
ARC
  8
_1-0_
  6
CONTINUOUS
 62
    7
 10
193.7932610662379
 20
273.72070846521478
 40
0.2499999999999749
 50
0
 51
180
  0
LINE
  8
_1-0_
  6
CONTINUOUS
 62
    7
 10
194.0432610662379
 20
273.72070846521478
 11
194.0432610662379
 21
270.8040417985485
  0
LINE
  8
_1-0_
  6
CONTINUOUS
 62
    7
 10
193.54326106623796
 20
273.72070846521478
 11
193.54326106623796
 21
271.30404179854838
  0
LINE
  8
_1-0_
  6
CONTINUOUS
 62
    4
 10
172.87659906624003
 20
271.63737513188175
 11
166.8765990662406
 21
271.63737513188175
  0
LINE
  8
_1-0_
  6
CONTINUOUS
 62
    4
 10
166.8765990662406
 20
271.63737513188175
 11
166.8765990662406
 21
271.13737513188175
  0
LINE
  8
_1-0_
  6
CONTINUOUS
 62
    4
 10
172.87659906624003
 20
271.63737513188175
 11
172.87659906624003
 21
271.13737513188175
  0
LINE
  8
_1-0_
  6
CONTINUOUS
 62
    4
 10
169.87659906624032
 20
271.03738013188172
 11
169.97659906624028
 21
271.13738013188174
  0
LINE
  8
_1-0_
  6
CONTINUOUS
 62
    4
 10
169.87659906624032
 20
271.03738013188172
 11
169.77660406624034
 21
271.13737513188175
  0
ARC
  8
_1-0_
  6
CONTINUOUS
 62
    4
 10
169.40976606624037
 20
271.65370829607684
 40
0.7999999999999201
 50
125.70005900000093
 51
181.1698579999973
  0
ARC
  8
_1-0_
  6
CONTINUOUS
 62
    4
 10
169.87659906624032
 20
271.00404229607693
 40
1.5999999999998402
 50
54.299961000002185
 51
90
  0
ARC
  8
_1-0_
  6
CONTINUOUS
 62
    4
 10
170.34343206624027
 20
271.65370829607684
 40
0.7999999999999201
 50
358.8301420000027
 51
54.299940999999166
  0
ARC
  8
_1-0_
  6
CONTINUOUS
 62
    4
 10
169.87659906624032
 20
271.00404229607693
 40
1.5999999999998402
 50
90
 51
125.70003900000066
  0
LINE
  8
_1-0_
  6
CENTER1
 62
    4
 10
169.87659406624033
 20
261.0831940172103
 11
169.87659406624033
 21
273.25738113188152
  0
LINE
  8
_1-0_
  6
CONTINUOUS
 62
    7
 10
169.77659406624036
 20
271.13737513188175
 11
169.87659406624033
 21
271.03737513188173
  0
LINE
  8
_1-0_
  6
CONTINUOUS
 62
    7
 10
169.87659406624033
 20
271.03737513188173
 11
169.9765940662403
 21
271.13737513188175
  0
LINE
  8
_1-0_
  6
CONTINUOUS
 62
    4
 10
172.20992739957342
 20
270.63737513188175
 11
172.20992739957342
 21
271.13737513188175
  0
LINE
  8
_1-0_
  6
CONTINUOUS
 62
    4
 10
167.54326073290724
 20
270.63737513188175
 11
167.54326073290724
 21
271.13737513188175
  0
LINE
  8
_1-0_
  6
CONTINUOUS
 62
    4
 10
168.72079006624045
 20
265.68728113188229
 11
168.29694906624047
 21
266.85177613188216
  0
LINE
  8
_1-0_
  6
CONTINUOUS
 62
    4
 10
168.62920206624045
 20
263.93967913188249
 11
169.11543306624037
 21
263.66385413188243
  0
LINE
  8
_1-0_
  6
CONTINUOUS
 62
    4
 10
169.11543306624037
 20
263.66385413188243
 11
169.08926506624039
 21
263.16453913188252
  0
LINE
  8
_1-0_
  6
CONTINUOUS
 62
    4
 10
169.08926506624039
 20
263.16453913188252
 11
168.58995006624048
 21
263.1907071318825
  0
LINE
  8
_1-0_
  6
CONTINUOUS
 62
    4
 10
168.65537006624044
 20
264.4389941318824
 11
168.62920206624045
 21
263.93967913188249
  0
LINE
  8
_1-0_
  6
CONTINUOUS
 62
    4
 10
168.69462206624041
 20
265.18796613188226
 11
169.18085306624039
 21
264.91214013188232
  0
LINE
  8
_1-0_
  6
CONTINUOUS
 62
    4
 10
169.18085306624039
 20
264.91214013188232
 11
169.15468506624035
 21
264.41282613188241
  0
LINE
  8
_1-0_
  6
CONTINUOUS
 62
    4
 10
169.15468506624035
 20
264.41282613188241
 11
168.65537006624044
 21
264.4389941318824
  0
LINE
  8
_1-0_
  6
CONTINUOUS
 62
    4
 10
168.72079006624045
 20
265.68728113188229
 11
168.69462206624041
 21
265.18796613188226
  0
LINE
  8
_1-0_
  6
CONTINUOUS
 62
    4
 10
168.76004206624043
 20
266.43625313188215
 11
169.24627306624035
 21
266.16042713188222
  0
LINE
  8
_1-0_
  6
CONTINUOUS
 62
    4
 10
169.24627306624035
 20
266.16042713188222
 11
169.22010506624036
 21
265.6611131318823
  0
LINE
  8
_1-0_
  6
CONTINUOUS
 62
    4
 10
169.22010506624036
 20
265.6611131318823
 11
168.72079006624045
 21
265.68728113188229
  0
LINE
  8
_1-0_
  6
CONTINUOUS
 62
    4
 10
168.78621006624041
 20
266.93556813188218
 11
168.76004206624043
 21
266.43625313188215
  0
LINE
  8
_1-0_
  6
CONTINUOUS
 62
    4
 10
169.31169306624037
 20
267.40871413188211
 11
169.28552506624038
 21
266.90940013188219
  0
LINE
  8
_1-0_
  6
CONTINUOUS
 62
    4
 10
169.28552506624038
 20
266.90940013188219
 11
168.78621006624041
 21
266.93556813188218
  0
LINE
  8
_1-0_
  6
CONTINUOUS
 62
    4
 10
168.62659906624043
 20
270.63737513188175
 11
168.87659906624037
 21
269.38737513188187
  0
LINE
  8
_1-0_
  6
CONTINUOUS
 62
    4
 10
168.87659906624037
 20
267.6373751318821
 11
169.31169306624037
 21
267.40871413188211
  0
LINE
  8
_1-0_
  6
CONTINUOUS
 62
    4
 10
169.75159906624032
 20
268.63737513188198
 11
169.87659906624032
 21
268.63737513188198
  0
LINE
  8
_1-0_
  6
CONTINUOUS
 62
    4
 10
171.12399606624018
 20
263.93967913188249
 11
170.63776506624021
 21
263.66385413188243
  0
LINE
  8
_1-0_
  6
CONTINUOUS
 62
    4
 10
170.63776506624021
 20
263.66385413188243
 11
170.66393306624025
 21
263.16453913188252
  0
LINE
  8
_1-0_
  6
CONTINUOUS
 62
    4
 10
170.66393306624025
 20
263.16453913188252
 11
171.16324806624016
 21
263.1907071318825
  0
LINE
  8
_1-0_
  6
CONTINUOUS
 62
    4
 10
171.09782806624014
 20
264.4389941318824
 11
171.12399606624018
 21
263.93967913188249
  0
LINE
  8
_1-0_
  6
CONTINUOUS
 62
    4
 10
171.05857606624016
 20
265.18796613188226
 11
170.57234506624025
 21
264.91214013188232
  0
LINE
  8
_1-0_
  6
CONTINUOUS
 62
    4
 10
170.57234506624025
 20
264.91214013188232
 11
170.59851306624023
 21
264.41282613188241
  0
LINE
  8
_1-0_
  6
CONTINUOUS
 62
    4
 10
170.59851306624023
 20
264.41282613188241
 11
171.09782806624014
 21
264.4389941318824
  0
LINE
  8
_1-0_
  6
CONTINUOUS
 62
    4
 10
171.03240806624018
 20
265.68728113188229
 11
171.05857606624016
 21
265.18796613188226
  0
LINE
  8
_1-0_
  6
CONTINUOUS
 62
    4
 10
170.9931560662402
 20
266.43625313188215
 11
170.50692506624023
 21
266.16042713188222
  0
LINE
  8
_1-0_
  6
CONTINUOUS
 62
    4
 10
170.50692506624023
 20
266.16042713188222
 11
170.53309306624027
 21
265.6611131318823
  0
LINE
  8
_1-0_
  6
CONTINUOUS
 62
    4
 10
170.53309306624027
 20
265.6611131318823
 11
171.03240806624018
 21
265.68728113188229
  0
LINE
  8
_1-0_
  6
CONTINUOUS
 62
    4
 10
170.96698806624022
 20
266.93556813188218
 11
170.9931560662402
 21
266.43625313188215
  0
LINE
  8
_1-0_
  6
CONTINUOUS
 62
    4
 10
170.44150506624027
 20
267.40871413188211
 11
170.46767306624025
 21
266.90940013188219
  0
LINE
  8
_1-0_
  6
CONTINUOUS
 62
    4
 10
170.46767306624025
 20
266.90940013188219
 11
170.96698806624022
 21
266.93556813188218
  0
LINE
  8
_1-0_
  6
CONTINUOUS
 62
    4
 10
169.87659906624032
 20
269.38737513188187
 11
169.87659906624032
 21
270.63737513188175
  0
LINE
  8
_1-0_
  6
CONTINUOUS
 62
    4
 10
169.62659906624032
 20
270.63737513188175
 11
169.87659906624032
 21
269.38737513188187
  0
LINE
  8
_1-0_
  6
CONTINUOUS
 62
    4
 10
170.12659906624026
 20
270.63737513188175
 11
169.87659906624032
 21
269.38737513188187
  0
LINE
  8
_1-0_
  6
CONTINUOUS
 62
    4
 10
171.12659906624015
 20
270.63737513188175
 11
170.8765990662402
 21
269.38737513188187
  0
LINE
  8
_1-0_
  6
CONTINUOUS
 62
    4
 10
170.8765990662402
 20
267.6373751318821
 11
170.44150506624027
 21
267.40871413188211
  0
LINE
  8
_1-0_
  6
CONTINUOUS
 62
    4
 10
170.00159906624026
 20
268.63737513188198
 11
169.87659906624032
 21
268.63737513188198
  0
LINE
  8
_1-0_
  6
CONTINUOUS
 62
    4
 10
171.45624906624016
 20
266.85177613188216
 11
171.70433806624015
 21
268.55268113188197
  0
ARC
  8
_1-0_
  6
CONTINUOUS
 62
    4
 10
171.60538506624016
 20
268.56711413188202
 40
0.09999999999999
 50
351.70153399999407
 51
81.869898000008149
  0
LINE
  8
_1-0_
  6
CONTINUOUS
 62
    4
 10
171.61952706624015
 20
268.66610913188197
 11
171.57032106624013
 21
268.67313813188196
  0
ARC
  8
_1-0_
  6
CONTINUOUS
 62
    4
 10
171.55617906624013
 20
268.57414413188201
 40
0.09999999999999
 50
81.869898000008206
 51
171.86989800000819
  0
LINE
  8
_1-0_
  6
CONTINUOUS
 62
    4
 10
171.45718406624013
 20
268.588286131882
 11
171.22132606624018
 21
266.93728113188217
  0
LINE
  8
_1-0_
  6
CONTINUOUS
 62
    4
 10
168.29694906624047
 20
266.85177613188216
 11
168.04886006624048
 21
268.55268113188197
  0
ARC
  8
_1-0_
  6
CONTINUOUS
 62
    4
 10
168.14781306624047
 20
268.56711413188202
 40
0.09999999999999
 50
98.130101999991808
 51
188.29846600000593
  0
LINE
  8
_1-0_
  6
CONTINUOUS
 62
    4
 10
168.13367106624048
 20
268.66610913188197
 11
168.18287706624051
 21
268.67313813188196
  0
ARC
  8
_1-0_
  6
CONTINUOUS
 62
    4
 10
168.1970190662405
 20
268.57414413188201
 40
0.09999999999999
 50
8.1301019999918065
 51
98.130102000024053
  0
LINE
  8
_1-0_
  6
CONTINUOUS
 62
    4
 10
168.29601406624045
 20
268.588286131882
 11
168.53187206624045
 21
266.93728113188217
  0
LINE
  8
_1-0_
  6
CONTINUOUS
 62
    4
 10
171.03240806624018
 20
265.68728113188229
 11
171.45624906624016
 21
266.85177613188216
  0
LINE
  8
_1-0_
  6
CONTINUOUS
 62
    4
 10
168.52453006624046
 20
261.94242013188261
 11
168.49836206624047
 21
261.4431051318827
  0
LINE
  8
_1-0_
  6
CONTINUOUS
 62
    4
 10
168.56378206624044
 20
262.69139213188259
 11
169.05001306624041
 21
262.41556713188265
  0
LINE
  8
_1-0_
  6
CONTINUOUS
 62
    4
 10
169.05001306624041
 20
262.41556713188265
 11
169.02384506624037
 21
261.91625213188263
  0
LINE
  8
_1-0_
  6
CONTINUOUS
 62
    4
 10
169.02384506624037
 20
261.91625213188263
 11
168.52453006624046
 21
261.94242013188261
  0
LINE
  8
_1-0_
  6
CONTINUOUS
 62
    4
 10
171.22866706624018
 20
261.94242013188261
 11
171.25483506624016
 21
261.4431051318827
  0
LINE
  8
_1-0_
  6
CONTINUOUS
 62
    4
 10
171.18941606624014
 20
262.69139213188259
 11
170.70318506624022
 21
262.41556713188265
  0
LINE
  8
_1-0_
  6
CONTINUOUS
 62
    4
 10
170.70318506624022
 20
262.41556713188265
 11
170.72935306624021
 21
261.91625213188263
  0
LINE
  8
_1-0_
  6
CONTINUOUS
 62
    4
 10
170.72935306624021
 20
261.91625213188263
 11
171.22866706624018
 21
261.94242013188261
  0
LINE
  8
_1-0_
  6
CONTINUOUS
 62
    4
 10
170.34396006624024
 20
262.10473613188265
 11
169.87659906624032
 21
261.63737513188278
  0
LINE
  8
_1-0_
  6
CONTINUOUS
 62
    4
 10
168.58995006624048
 20
263.1907071318825
 11
168.56378206624044
 21
262.69139213188259
  0
LINE
  8
_1-0_
  6
CONTINUOUS
 62
    4
 10
169.37216306624038
 20
261.3973111318827
 11
168.49836206624047
 21
261.4431051318827
  0
LINE
  8
_1-0_
  6
CONTINUOUS
 62
    4
 10
168.49836206624047
 20
261.4431051318827
 11
168.9715090662404
 21
260.91762213188281
  0
LINE
  8
_1-0_
  6
CONTINUOUS
 62
    4
 10
168.9715090662404
 20
260.91762213188281
 11
169.34599506624033
 21
260.89799613188279
  0
LINE
  8
_1-0_
  6
CONTINUOUS
 62
    4
 10
169.34599506624033
 20
260.89799613188279
 11
169.75159906624032
 21
268.63737513188198
  0
LINE
  8
_1-0_
  6
CONTINUOUS
 62
    4
 10
171.16324806624016
 20
263.1907071318825
 11
171.18941606624014
 21
262.69139213188259
  0
LINE
  8
_1-0_
  6
CONTINUOUS
 62
    4
 10
170.38103506624026
 20
261.3973111318827
 11
171.25483506624016
 21
261.4431051318827
  0
LINE
  8
_1-0_
  6
CONTINUOUS
 62
    4
 10
171.25483506624016
 20
261.4431051318827
 11
170.78168906624023
 21
260.91762213188281
  0
LINE
  8
_1-0_
  6
CONTINUOUS
 62
    4
 10
170.78168906624023
 20
260.91762213188281
 11
170.40720306624024
 21
260.89799613188279
  0
LINE
  8
_1-0_
  6
CONTINUOUS
 62
    4
 10
170.40720306624024
 20
260.89799613188279
 11
170.00159906624026
 21
268.63737513188198
  0
LINE
  8
_1-0_
  6
CONTINUOUS
 62
    4
 10
169.87659906624032
 20
261.63737513188278
 11
169.40923770096799
 21
262.10473649715505
  0
LINE
  8
_1-0_
  6
CONTINUOUS
 62
    4
 10
168.87659906624037
 20
270.63737513188175
 11
168.87659906624037
 21
267.6373751318821
  0
LINE
  8
_1-0_
  6
CONTINUOUS
 62
    4
 10
170.8765990662402
 20
270.63737513188175
 11
170.8765990662402
 21
267.6373751318821
  0
LINE
  8
_1-0_
  6
CONTINUOUS
 62
    4
 10
170.76118960461019
 20
265.6730671693457
 11
171.22132606624018
 21
266.93728113188217
  0
LINE
  8
_1-0_
  6
CONTINUOUS
 62
    4
 10
168.99200852787038
 20
265.6730671693457
 11
168.53187206624045
 21
266.93728113188217
  0
LINE
  8
_1-0_
  6
CONTINUOUS
 62
    7
 10
162.87659406624101
 20
274.63737513188141
 11
163.20992739957433
 21
275.30404159908835
  0
LINE
  8
_1-0_
  6
CONTINUOUS
 62
    7
 10
163.20992739957433
 20
274.63737513188141
 11
162.87659406624101
 21
274.63737513188141
  0
LINE
  8
_1-0_
  6
CONTINUOUS
 62
    4
 10
169.87659406624033
 20
261.08319401721019
 11
169.87659406624033
 21
241.63737546521796
  0
POINT
  8
_1-0_
 62
    4
 10
169.87659406624033
 20
241.63737546521796
  0
LINE
  8
_1-0_
  6
CONTINUOUS
 62
    4
 10
194.0432610662379
 20
269.83413438361845
 11
194.0432610662379
 21
257.63737479854967
  0
POINT
  8
_1-0_
 62
    4
 10
194.0432610662379
 20
257.63737479854967
  0
LINE
  8
_1-0_
  6
CONTINUOUS
 62
    4
 10
169.87659406624033
 20
241.63737546521796
 11
189.37658361811361
 21
241.63737546521796
  0
LINE
  8
_1-0_
  6
CONTINUOUS
 62
    7
 10
163.20992739957433
 20
271.80404179854838
 11
160.04325382013849
 21
271.80404179854838
  0
LINE
  8
_1-0_
  6
CONTINUOUS
 62
    7
 10
163.20992739957433
 20
271.30404179854838
 11
160.04325382013849
 21
271.30404179854838
  0
LINE
  8
_1-0_
  6
CONTINUOUS
 62
    4
 10
163.17430421180944
 20
271.30404179854838
 11
162.50763754514276
 21
270.63737513188175
  0
LINE
  8
_1-0_
  6
CONTINUOUS
 62
    4
 10
163.20992739957433
 20
270.86826046552221
 11
162.97904206593381
 21
270.63737513188175
  0
LINE
  8
_1-0_
  6
CONTINUOUS
 62
    4
 10
189.37658361811361
 20
257.63737479854967
 11
194.0432610662379
 21
257.63737479854967
  0
LINE
  8
_1-0_
  6
CONTINUOUS
 62
    7
 10
193.87659439957122
 20
270.63737513188175
 11
139.70991795145198
 21
270.63737513188175
  0
LINE
  8
_1-0_
  6
CONTINUOUS
 62
    7
 10
236.04325028477564
 20
274.97070846521467
 11
236.04325028477564
 21
274.47070846521467
  0
ARC
  8
_1-0_
  6
CONTINUOUS
 62
    7
 10
233.37658361810924
 20
275.1373751318813
 40
0.6666666666666
 50
180
 51
270
  0
LINE
  8
_1-0_
  6
CONTINUOUS
 62
    7
 10
233.37658361810924
 20
274.97070846521467
 11
236.04325028477564
 21
274.97070846521467
  0
ARC
  8
_1-0_
  6
CONTINUOUS
 62
    7
 10
233.37658361810924
 20
275.1373751318813
 40
0.16666666666665
 50
180
 51
270
  0
LINE
  8
_1-0_
  6
CONTINUOUS
 62
    7
 10
233.20991695144255
 20
291.30404179854634
 11
233.20991695144255
 21
275.1373751318813
  0
LINE
  8
_1-0_
  6
CONTINUOUS
 62
    7
 10
232.70991695144261
 20
291.30404179854634
 11
232.70991695144261
 21
275.1373751318813
  0
LINE
  8
_1-0_
  6
CONTINUOUS
 62
    7
 10
236.13208362137277
 20
272.04124123716099
 11
236.50796066968695
 21
272.17804929449119
  0
LINE
  8
_1-0_
  6
CONTINUOUS
 62
    7
 10
235.46972916279827
 20
273.86104515576903
 11
236.1320836213726
 21
272.04124123716099
  0
ARC
  8
_1-0_
  6
CONTINUOUS
 62
    7
 10
235.31311372600061
 20
273.80404179854816
 40
0.16666666666665
 50
19.999999999995367
 51
90
  0
ARC
  8
_1-0_
  6
CONTINUOUS
 62
    7
 10
235.31311372600061
 20
273.80404179854816
 40
0.56666666666661
 50
19.999999999999982
 51
90
  0
LINE
  8
_1-0_
  6
CONTINUOUS
 62
    7
 10
235.84560621111262
 20
273.99785321309935
 11
236.50796066968695
 21
272.17804929449119
  0
ARC
  8
_1-0_
  6
CONTINUOUS
 62
    7
 10
178.94324712821185
 20
274.53737533390165
 40
0.16666666666665
 50
179.99995659411837
 51
270
  0
ARC
  8
_1-0_
  6
CONTINUOUS
 62
    7
 10
178.94324712821185
 20
274.53737533390165
 40
0.56666666666661
 50
179.99995659410692
 51
270
  0
LINE
  8
_1-0_
  6
CONTINUOUS
 62
    7
 10
178.94324712821185
 20
273.97070846521478
 11
235.31311372600061
 21
273.97070846521478
  0
LINE
  8
_1-0_
  6
CONTINUOUS
 62
    7
 10
233.37658361810924
 20
274.47070846521467
 11
236.04325028477564
 21
274.47070846521467
  0
LINE
  8
_1-0_
  6
CONTINUOUS
 62
    7
 10
178.94324712821185
 20
274.37070846521476
 11
235.31311372600061
 21
274.37070846521476
  0
LINE
  8
_1-0_
  6
CONTINUOUS
 62
    4
 10
192.04325224185465
 20
274.47070846521467
 11
192.87658608023878
 21
274.47070846521467
  0
LINE
  8
_1-0_
  6
CONTINUOUS
 62
    7
 10
178.37658115598958
 20
275.6373751318813
 11
178.77658121912066
 21
275.6373751318813
  0
LINE
  8
_1-0_
  6
CONTINUOUS
 62
    7
 10
178.37658129487824
 20
275.63737513188119
 11
178.37658046154536
 21
274.53737576319463
  0
LINE
  8
_1-0_
  6
CONTINUOUS
 62
    7
 10
178.7765812948781
 20
275.63737482885085
 11
178.77658046154522
 21
274.5373754601643
  0
LINE
  8
_1-0_
  6
CONTINUOUS
 62
    4
 10
252.70991695144068
 20
272.56819629616109
 11
239.37658361810867
 21
285.9015296294931
  0
LINE
  8
_1-0_
  6
CONTINUOUS
 62
    4
 10
252.70991695144068
 20
271.62538725457921
 11
239.37658361810867
 21
284.95872058791122
  0
LINE
  8
_1-0_
  6
CONTINUOUS
 62
    4
 10
252.70991695144068
 20
270.68257821299721
 11
239.37658361810867
 21
284.01591154632922
  0
LINE
  8
_1-0_
  6
CONTINUOUS
 62
    4
 10
264.33845039483316
 20
106.31312399256052
 11
122.18845039483313
 21
106.31312399256052
  0
LINE
  8
_1-0_
  6
CONTINUOUS
 62
    4
 10
264.33845039483316
 20
112.31312399256052
 11
122.18845039483313
 21
112.31312399256052
  0
LINE
  8
_1-0_
  6
CONTINUOUS
 62
    4
 10
122.18845039483313
 20
106.31312399256052
 11
122.18845039483313
 21
183.11312399256053
  0
LINE
  8
_1-0_
  6
CONTINUOUS
 62
    4
 10
129.38845039483317
 20
106.31312399256046
 11
129.38845039483317
 21
183.11312399256053
  0
LINE
  8
_1-0_
  6
CONTINUOUS
 62
    4
 10
186.38845039483311
 20
106.31312399256052
 11
186.38845039483311
 21
183.11312399256053
  0
LINE
  8
_1-0_
  6
CONTINUOUS
 62
    4
 10
229.13845039483317
 20
106.31312399256049
 11
229.13845039483311
 21
183.11312399256053
  0
LINE
  8
_1-0_
  6
CONTINUOUS
 62
    4
 10
230.13845039483317
 20
106.31312399256049
 11
230.13845039483311
 21
183.11312399256053
  0
LINE
  8
_1-0_
  6
CONTINUOUS
 62
    4
 10
245.13845039483317
 20
106.31312399256052
 11
245.13845039483311
 21
183.11312399256053
  0
LINE
  8
_1-0_
  6
CONTINUOUS
 62
    4
 10
257.13845039483317
 20
106.31312399256052
 11
257.13845039483311
 21
183.11312399256053
  0
LINE
  8
_1-0_
  6
CONTINUOUS
 62
    4
 10
264.33845039483322
 20
106.31312399256052
 11
264.33845039483316
 21
183.11312399256053
  0
TEXT
  8
_1-0_
 62
    7
 10
150.55815873575617
 20
178.06463718662286
 40
3.2000000000000002
 41
1
 50
0
  1
部材名称
  0
TEXT
  8
_1-0_
 62
    7
 10
248.30241073575613
 20
178.06462568662289
 40
3.2000000000000002
 41
1
 50
0
  1
使用
  0
TEXT
  8
_1-0_
 62
    7
 10
202.13252873575621
 20
178.06463718662286
 40
3.2000000000000002
 41
1
 50
0
  1
規　格
  0
TEXT
  8
_1-0_
 62
    7
 10
233.25750573575615
 20
178.06463718662286
 40
3.2000000000000002
 41
1
 50
0
  1
定　尺
  0
TEXT
  8
_1-0_
 62
    7
 10
231.09467073575618
 20
173.26463018662287
 40
3.2000000000000002
 41
1
 50
0
  1
（ｍｍ）
  0
TEXT
  8
_1-0_
 62
    7
 10
248.30241073575613
 20
173.26461918662289
 40
3.2000000000000002
 41
1
 50
0
  1
数量
  0
TEXT
  8
_1-0_
 62
    7
 10
123.24823123575615
 20
167.29216468662287
 40
3.2000000000000002
 41
1
 50
0
  1
　１
  0
TEXT
  8
_1-0_
 62
    7
 10
126.33799523575615
 20
161.29216468662287
 40
3.2000000000000002
 41
1
 50
0
  1
２
  0
TEXT
  8
_1-0_
 62
    7
 10
232.02160023575621
 20
161.26461918662289
 40
3.2000000000000002
 41
1
 50
0
  1
３０００
  0
TEXT
  8
_1-0_
 62
    7
 10
259.75628273575614
 20
161.26461918662289
 40
3.2000000000000002
 41
1
 50
0
  1
〃
  0
TEXT
  8
_1-0_
 62
    7
 10
126.33799523575615
 20
155.29216468662287
 40
3.2000000000000002
 41
1
 50
0
  1
３
  0
TEXT
  8
_1-0_
 62
    7
 10
232.02160023575621
 20
155.26461918662289
 40
3.2000000000000002
 41
1
 50
0
  1
３０００
  0
TEXT
  8
_1-0_
 62
    7
 10
259.75628273575614
 20
155.26461918662289
 40
3.2000000000000002
 41
1
 50
0
  1
〃
  0
TEXT
  8
_1-0_
 62
    7
 10
126.33799523575615
 20
149.29216468662287
 40
3.2000000000000002
 41
1
 50
0
  1
４
  0
TEXT
  8
_1-0_
 62
    7
 10
232.02160023575621
 20
149.26461918662289
 40
3.2000000000000002
 41
1
 50
0
  1
３０００
  0
TEXT
  8
_1-0_
 62
    7
 10
259.75628273575614
 20
149.26461918662289
 40
3.2000000000000002
 41
1
 50
0
  1
〃
  0
TEXT
  8
_1-0_
 62
    7
 10
126.33799523575615
 20
143.2921761866229
 40
3.2000000000000002
 41
1
 50
0
  1
５
  0
TEXT
  8
_1-0_
 62
    7
 10
232.02160023575621
 20
143.26461918662289
 40
3.2000000000000002
 41
1
 50
0
  1
３０００
  0
TEXT
  8
_1-0_
 62
    7
 10
259.75628273575614
 20
143.26461918662289
 40
3.2000000000000002
 41
1
 50
0
  1
〃
  0
TEXT
  8
_1-0_
 62
    7
 10
126.33799523575615
 20
137.2921761866229
 40
3.2000000000000002
 41
1
 50
0
  1
６
  0
TEXT
  8
_1-0_
 62
    7
 10
126.33799523575615
 20
131.2921761866229
 40
3.2000000000000002
 41
1
 50
0
  1
７
  0
TEXT
  8
_1-0_
 62
    7
 10
126.33799523575615
 20
125.29217068662287
 40
3.2000000000000002
 41
1
 50
0
  1
８
  0
TEXT
  8
_1-0_
 62
    7
 10
259.75628273575614
 20
125.26461918662288
 40
3.2000000000000002
 41
1
 50
0
  1
〃
  0
TEXT
  8
_1-0_
 62
    7
 10
126.33799523575615
 20
119.29217068662287
 40
3.2000000000000002
 41
1
 50
0
  1
９
  0
TEXT
  8
_1-0_
 62
    7
 10
259.75628273575614
 20
119.26461918662288
 40
3.2000000000000002
 41
1
 50
0
  1
〃
  0
TEXT
  8
_1-0_
 62
    7
 10
123.24823123575615
 20
113.29217068662287
 40
3.2000000000000002
 41
1
 50
0
  1
１０
  0
TEXT
  8
_1-0_
 62
    7
 10
232.02165773575618
 20
167.26461918662284
 40
3.2000000000000002
 41
1
 50
0
  1
３０００
  0
TEXT
  8
_1-0_
 62
    7
 10
259.7563057357562
 20
167.26461918662284
 40
3.2000000000000002
 41
1
 50
0
  1
本
  0
TEXT
  8
_1-0_
 62
    7
 10
131.15118823575617
 20
155.26461918662278
 40
3.2000000000000002
 41
1
 50
0
  1
ＵＵＨフレーム(Ｃ)
  0
TEXT
  8
_1-0_
 62
    7
 10
131.15119373575615
 20
149.26461918662289
 40
3.2000000000000002
 41
1
 50
0
  1
ＵＣＨ壁フレーム(Ｃ)
  0
TEXT
  8
_1-0_
 62
    7
 10
131.15119373575615
 20
137.26462468662288
 40
3.2000000000000002
 41
1
 50
0
  1
アンカープラグ
  0
TEXT
  8
_1-0_
 62
    7
 10
188.15119373575615
 20
137.26462468662288
 40
3.2000000000000002
 41
1
 50
0
  1
フィッシャープラグＳ６
  0
TEXT
  8
_1-0_
 62
    7
 10
131.15118823575614
 20
119.26461918662285
 40
3.2000000000000002
 41
1
 50
0
  1
ステンタッピンねじ
  0
TEXT
  8
_1-0_
 62
    7
 10
249.02163823575617
 20
119.31461268662288
 40
3.2000000000000002
 41
1
 50
0
  1
１２
  0
TEXT
  8
_1-0_
 62
    7
 10
188.15120523575624
 20
119.26461918662285
 40
3.2000000000000002
 41
1
 50
0
  1
なべ４×３０
  0
TEXT
  8
_1-0_
 62
    7
 10
261.16177989802173
 20
180.41049025491648
 40
3.2000000000000002
 41
1
 50
0
  1
単位
  7
TATEGAKI
  0
TEXT
  8
_1-0_
 62
    7
 10
249.02163823575617
 20
137.31462368662284
 40
3.2000000000000002
 41
1
 50
0
  1
１２
  0
TEXT
  8
_1-0_
 62
    7
 10
252.21898439563822
 20
161.31461818662285
 40
3.2000000000000002
 41
1
 50
0
  1
１
  0
TEXT
  8
_1-0_
 62
    7
 10
252.21898439563822
 20
155.31460668662288
 40
3.2000000000000002
 41
1
 50
0
  1
１
  0
TEXT
  8
_1-0_
 62
    7
 10
252.21898439563822
 20
149.31461818662285
 40
3.2000000000000002
 41
1
 50
0
  1
１
  0
TEXT
  8
_1-0_
 62
    7
 10
252.21898439563822
 20
143.31461818662285
 40
3.2000000000000002
 41
1
 50
0
  1
１
  0
TEXT
  8
_1-0_
 62
    7
 10
252.21898439563822
 20
167.31461818662285
 40
3.2000000000000002
 41
1
 50
0
  1
１
  0
TEXT
  8
_1-0_
 62
    7
 10
252.21898439563822
 20
131.31461818662285
 40
3.2000000000000002
 41
1
 50
0
  1
２
  0
TEXT
  8
_1-0_
 62
    7
 10
102.75118073575615
 20
342.86461518662293
 40
3.2000000000000002
 41
1
 50
0
  1
（ステン１５０タイプ）
  0
TEXT
  8
_1-0_
 62
    7
 10
112.75118073575615
 20
332.86461518662287
 40
3.2000000000000002
 41
1
 50
0
  1
◇内壁コーナー（１５０ＫＣＨ－Ｓ）　Ｓ＝１／３
  0
TEXT
  8
_1-0_
 62
    7
 10
148.27264729237416
 20
279.45553299260973
 40
3.2000000000000002
 41
1
 50
90
  1
64
  0
TEXT
  8
_1-0_
 62
    7
 10
153.27264729237365
 20
282.78886632594276
 40
3.2000000000000002
 41
1
 50
90
  1
44
  0
TEXT
  8
_1-0_
 62
    7
 10
153.27264729237365
 20
272.12219965927704
 40
3.2000000000000002
 41
1
 50
90
  1
20
  0
TEXT
  8
_1-0_
 62
    7
 10
174.20598062570465
 20
298.38886632594142
 40
3.2000000000000002
 41
1
 50
0
  1
100
  0
TEXT
  8
_1-0_
 62
    7
 10
212.53931395903416
 20
241.38886665928035
 40
3.2000000000000002
 41
1
 50
0
  1
150
  0
TEXT
  8
_1-0_
 62
    7
 10
176.98931918309998
 20
241.3888666592803
 40
3.2000000000000002
 41
1
 50
0
  1
58.5
  0
TEXT
  8
_1-0_
 62
    7
 10
190.67265268309879
 20
257.38886599261207
 40
3.2000000000000002
 41
1
 50
0
  1
14
  0
TEXT
  8
_1-0_
 62
    7
 10
197.53931395903564
 20
303.3888663259408
 40
3.2000000000000002
 41
1
 50
0
  1
240
  0
TEXT
  8
_1-0_
 62
    7
 10
210.87264729236765
 20
298.38886632594142
 40
3.2000000000000002
 41
1
 50
0
  1
120
  0
TEXT
  8
_1-0_
 62
    7
 10
259.93931395902962
 20
272.78886632594367
 40
3.2000000000000002
 41
1
 50
90
  1
24
  0
TEXT
  8
_1-0_
 62
    7
 10
219.65676305131498
 20
442.27561184621868
 40
2.5
 41
1
 50
0
  1
２
  0
TEXT
  8
_1-0_
 62
    7
 10
187.02311357320681
 20
425.04707815890845
 40
2.5
 41
1
 50
0
  1
３
  0
TEXT
  8
_1-0_
 62
    7
 10
151.60344163668233
 20
482.17436730873283
 40
2.5
 41
1
 50
0
  1
1
  0
TEXT
  8
_1-0_
 62
    7
 10
128.0610334005182
 20
482.57149804137566
 40
2.5
 41
1
 50
0
  1
10
  0
TEXT
  8
_1-0_
 62
    7
 10
299.10007558731309
 20
429.55606094704797
 40
2.5
 41
1
 50
0
  1
４
  0
TEXT
  8
_1-0_
 62
    7
 10
131.15118823575617
 20
167.26461918662284
 40
3.2000000000000002
 41
1
 50
0
  1
ＵＵＨサイドプレート(Ｃ)Ｓ
  0
TEXT
  8
_1-0_
 62
    7
 10
131.15119373575615
 20
161.26461918662289
 40
3.2000000000000002
 41
1
 50
0
  1
ＵＣＨセンタープレート(Ｃ)Ｓ
  0
TEXT
  8
_1-0_
 62
    7
 10
131.15119373575615
 20
143.26461918662289
 40
3.2000000000000002
 41
1
 50
0
  1
ＵＣＨサイドキャップ(Ｃ)Ｓ
  0
TEXT
  8
_1-0_
 62
    7
 10
282.42262390513258
 20
486.16843024554737
 40
2.5
 41
1
 50
0
  1
５
  0
TEXT
  8
_1-0_
 62
    7
 10
358.56559837175826
 20
506.07521479235072
 40
2.5
 41
1
 50
0
  1
６
  0
TEXT
  8
_1-0_
 62
    7
 10
232.02165773575618
 20
125.26461918662281
 40
3.2000000000000002
 41
1
 50
0
  1
３０１０
  0
TEXT
  8
_1-0_
 62
    7
 10
131.15118823575617
 20
131.26461918662281
 40
3.2000000000000002
 41
1
 50
0
  1
ガスケットＦ
  0
TEXT
  8
_1-0_
 62
    7
 10
232.02165773575618
 20
131.26461918662281
 40
3.2000000000000002
 41
1
 50
0
  1
３０１０
  0
TEXT
  8
_1-0_
 62
    7
 10
131.15118823575617
 20
125.26461918662281
 40
3.2000000000000002
 41
1
 50
0
  1
ＵＵＨパッキンＳ
  0
TEXT
  8
_1-0_
 62
    7
 10
252.21898439563822
 20
125.31461818662287
 40
3.2000000000000002
 41
1
 50
0
  1
１
  0
TEXT
  8
_1-0_
 62
    7
 10
329.34821495906351
 20
534.99501011756354
 40
2.5
 41
1
 50
0
  1
７
  0
TEXT
  8
_1-0_
 62
    7
 10
187.99013067341397
 20
487.10893420190143
 40
2.5
 41
1
 50
0
  1
８
  0
TEXT
  8
_1-0_
 62
    7
 10
283.19437147066719
 20
426.87108328577312
 40
2.5
 41
1
 50
0
  1
９
  0
TEXT
  8
_1-0_
 62
    7
 10
4.2728941005557886
 20
-74.946997515919804
 40
3.2000000000000002
 41
1
 50
0
  1
にセット済み。
  0
TEXT
  8
_1-0_
 62
    7
 10
131.15118823575614
 20
107.26462468662289
 40
3.2000000000000002
 41
1
 50
0
  1
ステンワッシャー
  0
TEXT
  8
_1-0_
 62
    7
 10
249.02163823575617
 20
107.31462368662285
 40
3.2000000000000002
 41
1
 50
0
  1
１２
  0
TEXT
  8
_1-0_
 62
    7
 10
259.75628273575614
 20
107.26462468662289
 40
3.2000000000000002
 41
1
 50
0
  1
枚
  0
TEXT
  8
_1-0_
 62
    7
 10
123.24823123575615
 20
107.29217068662292
 40
3.2000000000000002
 41
1
 50
0
  1
１１
  0
TEXT
  8
_1-0_
 62
    7
 10
131.15118823575611
 20
113.26462468662289
 40
3.2000000000000002
 41
1
 50
0
  1
ステンシルタップ
  0
TEXT
  8
_1-0_
 62
    7
 10
188.15119373575615
 20
113.26462468662289
 40
3.2000000000000002
 41
1
 50
0
  1
皿４×１６
  0
TEXT
  8
_1-0_
 62
    7
 10
249.02163823575617
 20
113.31461268662288
 40
3.2000000000000002
 41
1
 50
0
  1
１２
  0
TEXT
  8
_1-0_
 62
    7
 10
259.7563057357562
 20
113.26461918662285
 40
3.2000000000000002
 41
1
 50
0
  1
〃
  0
TEXT
  8
_1-0_
 62
    7
 10
102.05602408290352
 20
488.398346602169
 40
2.5
 41
1
 50
0
  1
11
  0
TEXT
  8
_1-0_
 62
    7
 10
188.15120523575624
 20
107.26462468662289
 40
3.2000000000000002
 41
1
 50
0
  1
1.5×１８×5.5穴
  0
TEXT
  8
_1-0_
 62
    7
 10
259.75628273575614
 20
137.26461918662289
 40
3.2000000000000002
 41
1
 50
0
  1
〃
  0
TEXT
  8
_1-0_
 62
    7
 10
259.75628273575614
 20
131.26461918662289
 40
3.2000000000000002
 41
1
 50
0
  1
〃
  0
TEXT
  8
_1-0_
 62
    7
 10
338.1781880857518
 20
681.63071445841865
 40
2.5
 41
1
 50
0
  1
４
  0
CIRCLE
  8
_1-c_
  6
CONTINUOUS
 62
    4
 10
207.16977444281002
 20
268.81983107595397
 40
1.6666666666666665
  0
LINE
  8
_1-c_
  6
CONTINUOUS
 62
    4
 10
204.13436020977832
 20
274.07732274958261
 11
206.33644110947671
 21
270.26320674892804
  0
POINT
  8
_1-0_
 62
    4
 10
204.13436020977832
 20
274.07732274958261
  0
CIRCLE
  8
_1-c_
  6
CONTINUOUS
 62
    4
 10
184.27700063793236
 20
282.1194162301253
 40
1.6666666666666665
  0
LINE
  8
_1-c_
  6
CONTINUOUS
 62
    4
 10
181.55839669939149
 20
277.41065608291564
 11
183.44366730459893
 21
280.67604055715123
  0
CIRCLE
  8
_1-c_
  6
CONTINUOUS
 62
    4
 10
197.12974342754188
 20
263.07698651351717
 40
1.6666666666666665
  0
LINE
  8
_1-c_
  6
CONTINUOUS
 62
    4
 10
192.70319723777175
 20
270.74398941624958
 11
196.29641009420857
 21
264.52036218649124
  0
CIRCLE
  8
_1-c_
  6
CONTINUOUS
 62
    4
 10
197.94757443163434
 20
283.76427186118144
 40
1.6666666666666665
  0
LINE
  8
_1-c_
  6
CONTINUOUS
 62
    4
 10
193.2930058142889
 20
275.70232252862343
 11
197.11424109830091
 21
282.32089618820737
  0
CIRCLE
  8
_1-c_
  6
CONTINUOUS
 62
    4
 10
168.44696936613292
 20
282.50137600521163
 40
1.6666666666666665
  0
LINE
  8
_1-c_
  6
CONTINUOUS
 62
    4
 10
165.50784084862624
 20
277.41065608291558
 11
167.61363603279955
 21
281.05800033223755
  0
CIRCLE
  8
_1-c_
  6
CONTINUOUS
 62
    4
 10
178.04898081559719
 20
282.25179314100615
 40
1.6666666666666665
  0
LINE
  8
_1-c_
  6
CONTINUOUS
 62
    4
 10
171.98229750651723
 20
271.74398941624958
 11
177.21564748226382
 21
280.80841746803208
  0
TEXT
  8
_1-c_
 62
    7
 10
205.88667893077664
 20
267.73504390620923
 40
2.5
 41
1
 50
0
  1
２
  0
TEXT
  8
_1-c_
 62
    7
 10
183.61890512589903
 20
281.03462906038055
 40
2.5
 41
1
 50
0
  1
1
  0
TEXT
  8
_1-c_
 62
    7
 10
195.84664791550856
 20
261.99219934377243
 40
2.5
 41
1
 50
0
  1
３
  0
TEXT
  8
_1-c_
 62
    7
 10
196.66447891960095
 20
282.6794846914367
 40
2.5
 41
1
 50
0
  1
８
  0
TEXT
  8
_1-c_
 62
    7
 10
167.16387385409959
 20
281.41658883546688
 40
2.5
 41
1
 50
0
  1
10
  0
TEXT
  8
_1-c_
 62
    7
 10
176.76588530356386
 20
281.1670059712614
 40
2.5
 41
1
 50
0
  1
11
  0
CIRCLE
  8
_1-c_
  6
CONTINUOUS
 62
    4
 10
233.37596210547053
 20
264.6361977723667
 40
1.6666666666666665
  0
LINE
  8
_1-c_
  6
CONTINUOUS
 62
    4
 10
236.93475415307284
 20
270.80020641238593
 11
234.20929543880385
 21
266.07957344534083
  0
CIRCLE
  8
_1-c_
  6
CONTINUOUS
 62
    4
 10
254.56111547159117
 20
290.11559384615475
 40
1.6666666666666665
  0
LINE
  8
_1-c_
  6
CONTINUOUS
 62
    4
 10
248.67173397625248
 20
279.91488587107227
 11
253.72778213825768
 21
288.67221817318068
  0
CIRCLE
  8
_1-c_
  6
CONTINUOUS
 62
    4
 10
229.0793858106548
 20
263.65250006472024
 40
1.6666666666666665
  0
LINE
  8
_1-c_
  6
CONTINUOUS
 62
    4
 10
237.39863424318219
 20
278.06186103064505
 11
229.91271914398817
 21
265.09587573769431
  0
CIRCLE
  8
_1-c_
  6
CONTINUOUS
 62
    4
 10
229.04281773669402
 20
283.88058979677265
 40
1.6666666666666665
  0
LINE
  8
_1-c_
  6
CONTINUOUS
 62
    4
 10
232.51808748640661
 20
277.86124602026325
 11
229.87615107002739
 21
282.43721412379858
  0
CIRCLE
  8
_1-c_
  6
CONTINUOUS
 62
    4
 10
244.02523921251839
 20
299.07426534909968
 40
1.6666666666666665
  0
LINE
  8
_1-c_
  6
CONTINUOUS
 62
    4
 10
239.18475415307273
 20
290.69029929286182
 11
243.19190587918507
 21
297.63088967612561
  0
TEXT
  8
_1-0_
 62
    7
 10
235.07032794567439
 20
298.91699363883401
 40
3.2000000000000002
 41
1
 50
0
  1
20
  0
TEXT
  8
_1-c_
 62
    7
 10
232.05511524086143
 20
263.64882076684393
 40
2.5
 41
1
 50
0
  1
４
  0
TEXT
  8
_1-c_
 62
    7
 10
253.24026860698191
 20
289.12821684063198
 40
2.5
 41
1
 50
0
  1
６
  0
TEXT
  8
_1-c_
 62
    7
 10
227.75853894604569
 20
262.66512305919747
 40
2.5
 41
1
 50
0
  1
９
  0
TEXT
  8
_1-c_
 62
    7
 10
227.72197087208508
 20
282.89321279124988
 40
2.5
 41
1
 50
0
  1
５
  0
TEXT
  8
_1-c_
 62
    7
 10
242.70439234790931
 20
298.0868883435769
 40
2.5
 41
1
 50
0
  1
７
  0
TEXT
  8
_1-0_
 62
    7
 10
107.92791034590104
 20
99.075178697573079
 40
3.2000000000000002
 41
1
 50
0
  1
注）　ガスケットＦ及びＵＵＨパッキンＳはＵＵＨサイドプレート(Ｃ)Ｓ及びＵＣＨサイドキャップ(Ｃ)Ｓ
  0
TEXT
  8
_0-1_
 62
    7
 10
312.37768944337353
 20
98.039989942649157
 40
3.2000000000000002
 41
1
 50
0
  1
注）　ガスケットＦ及びＵＵＨパッキンＳはＵＵＨサイドプレート(Ｃ)Ｓ及びＵＣＨサイドキャップ(Ｃ)Ｓ
  0
TEXT
  8
_1-0_
 62
    7
 10
323.20054836508183
 20
93.399025394810891
 40
3.2000000000000002
 41
1
 50
0
  1
にセット済み。
  0
ENDSEC
  0
EOF
