  0
SECTION
  2
HEADER
  9
$ACADVER
  1
AC1009
  9
$INSBASE
 10
0
 20
0
 30
0
  9
$EXTMIN
 10
0
 20
0
  9
$EXTMAX
 10
1260
 20
891
  9
$LIMMIN
 10
0
 20
0
  9
$LIMMAX
 10
1260
 20
891
  9
$LTSCALE
 40
3
  0
ENDSEC
  0
SECTION
  2
TABLES
  0
TABLE
  2
LTYPE
 70
     9
  0
LTYPE
  2
CONTINUOUS
 70
    64
  3
実線
 72
    65
 73
     0
 40
0.0
  0
LTYPE
  2
DASHED1
 70
    64
  3
--  --  --  --  --  --  --  --  
 72
    65
 73
     2
 40
2.5
 49
1.25
 49
-1.25
  0
LTYPE
  2
DASHED2
 70
    64
  3
----    ----    ----    ----    
 72
    65
 73
     2
 40
5.0
 49
2.5
 49
-2.5
  0
LTYPE
  2
DASHED3
 70
    64
  3
------  ------  ------  ------  
 72
    65
 73
     2
 40
5.0
 49
3.75
 49
-1.25
  0
LTYPE
  2
CENTER1
 70
    64
  3
----- - ----- - ----- - ----- - 
 72
    65
 73
     4
 40
10.0
 49
6.25
 49
-1.25
 49
1.25
 49
-1.25
  0
LTYPE
  2
CENTER2
 70
    64
  3
----------  --  ----------  --  
 72
    65
 73
     4
 40
20.0
 49
12.5
 49
-2.5
 49
2.5
 49
-2.5
  0
LTYPE
  2
PHANTOM1
 70
    64
  3
--- - - --- - - --- - - --- - - 
 72
    65
 73
     6
 40
10.0
 49
3.25
 49
-1.25
 49
1.25
 49
-1.25
 49
1.25
 49
-1.25
  0
LTYPE
  2
PHANTOM2
 70
    64
  3
--------  -  -  --------  -  -  
 72
    65
 73
     6
 40
20.0
 49
10.0
 49
-2.5
 49
1.25
 49
-2.5
 49
1.25
 49
-2.5
  0
LTYPE
  2
DOT
 70
    64
  3
-   -   -   -   -   -   -   -   
 72
    65
 73
     2
 40
2.5
 49
0.625
 49
-1.875
  0
LTYPE
  2
DUMMY
 70
    64
  3
ダミー
 72
    65
 73
     0
 40
0.0
  0
LTYPE
  2
RAND1
 70
    64
  3
ランダム線1
 72
    65
 73
     4
 40
10.0
 49
1.0
 49
-2.0
 49
3.0
 49
-4.0
  0
LTYPE
  2
RAND2
 70
    64
  3
ランダム線2
 72
    65
 73
     4
 40
14.0
 49
2.0
 49
-3.0
 49
4.0
 49
-5.0
  0
LTYPE
  2
RAND3
 70
    64
  3
ランダム線3
 72
    65
 73
     4
 40
18.0
 49
3.0
 49
-4.0
 49
5.0
 49
-6.0
  0
LTYPE
  2
RAND4
 70
    64
  3
ランダム線4
 72
    65
 73
     4
 40
22.0
 49
4.0
 49
-5.0
 49
6.0
 49
-7.0
  0
LTYPE
  2
RAND5
 70
    64
  3
ランダム線5
 72
    65
 73
     4
 40
26.0
 49
5.0
 49
-6.0
 49
7.0
 49
-8.0
  0
LTYPE
  2
LONG1
 70
    64
  3
----------  --  ----------  --  
 72
    65
 73
     4
 40
40.0
 49
32.5
 49
-2.5
 49
2.5
 49
-2.5
  0
LTYPE
  2
LONG2
 70
    64
  3
--------  -  -  --------  -  -  
 72
    65
 73
     6
 40
40.0
 49
30.0
 49
-2.5
 49
1.25
 49
-2.5
 49
1.25
 49
-2.5
  0
LTYPE
  2
LONG3
 70
    64
  3
+++++++++++++++..+++++++++++++++
 72
    65
 73
     2
 40
40.0
 49
37.5
 49
-2.5
  0
LTYPE
  2
LONG4
 70
    64
  3
+++++++++++++++..+++++++++++++++
 72
    65
 73
     2
 40
80.0
 49
75.0
 49
-5.0
  0
LTYPE
  2
LONG5
 70
    64
  3
----------  --  ----------  --  
 72
    65
 73
     4
 40
60.0
 49
37.5
 49
-7.5
 49
7.5
 49
-7.5
  0
LTYPE
  2
dashed
 70
   64
  3
-------   -------------   ------
 72
   65
 73
    2
 40
7.5
 49
6
 49
-1.5
  0
LTYPE
  2
dashed_spaced
 70
   64
  3
----        --------        ----
 72
   65
 73
    2
 40
12
 49
6
 49
-6
  0
LTYPE
  2
long_dashed_dotted
 70
   64
  3
------------- --- --------------
 72
   65
 73
    4
 40
15.25
 49
12
 49
-1.5
 49
0.25
 49
-1.5
  0
LTYPE
  2
long_dashed_double-dotted
 70
   64
  3
----------- --- --- ------------
 72
   65
 73
    6
 40
17
 49
12
 49
-1.5
 49
0.25
 49
-1.5
 49
0.25
 49
-1.5
  0
LTYPE
  2
long_dashed_triplicate-dotted
 70
   64
  3
--------- --- --- --- ----------
 72
   65
 73
    8
 40
18.75
 49
12
 49
-1.5
 49
0.25
 49
-1.5
 49
0.25
 49
-1.5
 49
0.25
 49
-1.5
  0
LTYPE
  2
dotted
 70
   64
  3
   -       -       -       -    
 72
   65
 73
    2
 40
1.75
 49
0.25
 49
-1.5
  0
LTYPE
  2
chain
 70
   64
  3
-------------- -- --------------
 72
   65
 73
    4
 40
18.5
 49
12
 49
-1.5
 49
3.5
 49
-1.5
  0
LTYPE
  2
chain_double_dash
 70
   64
  3
------------ -- -- -------------
 72
   65
 73
    6
 40
23.5
 49
12
 49
-1.5
 49
3.5
 49
-1.5
 49
3.5
 49
-1.5
  0
LTYPE
  2
dashed_dotted
 70
   64
  3
-----------     -     ----------
 72
   65
 73
    4
 40
9.25
 49
6
 49
-1.5
 49
0.25
 49
-1.5
  0
LTYPE
  2
double-dashed_dotted
 70
   64
  3
------   -----------   -   -----
 72
   65
 73
    6
 40
16.75
 49
6
 49
-1.5
 49
6
 49
-1.5
 49
0.25
 49
-1.5
  0
LTYPE
  2
dashed_double-dotted
 70
   64
  3
---------    -    -    ---------
 72
   65
 73
    6
 40
11
 49
6
 49
-1.5
 49
0.25
 49
-1.5
 49
0.25
 49
-1.5
  0
LTYPE
  2
double-dashed_double-dotted
 70
   64
  3
-----   ---------   -   -   ----
 72
   65
 73
    8
 40
18.5
 49
6
 49
-1.5
 49
6
 49
-1.5
 49
0.25
 49
-1.5
 49
0.25
 49
-1.5
  0
LTYPE
  2
dashed_triplicate-dotted
 70
   64
  3
-------    -    -    -    ------
 72
   65
 73
    8
 40
12.75
 49
6
 49
-1.5
 49
0.25
 49
-1.5
 49
0.25
 49
-1.5
 49
0.25
 49
-1.5
  0
LTYPE
  2
double-dashed_triplicate-dotted
 70
   64
  3
-----  ---------  -  -  -  -----
 72
   65
 73
   10
 40
20.25
 49
6
 49
-1.5
 49
6
 49
-1.5
 49
0.25
 49
-1.5
 49
0.25
 49
-1.5
 49
0.25
 49
-1.5
  0
LTYPE
  2
undefined
 70
   64
  3
--------------------------------
 72
   65
 73
    0
 40
0
  0
LTYPE
  2
DOT_17
 70
   64
  3
----        --------        ----
 72
   65
 73
    2
 40
2
 49
1
 49
-1
  0
LTYPE
  2
DASHED
 70
   64
  3
----        --------        ----
 72
   65
 73
    2
 40
4
 49
2
 49
-2
  0
LTYPE
  2
DASHED2_19
 70
   64
  3
-----      ----------      -----
 72
   65
 73
    2
 40
8
 49
5
 49
-3
  0
LTYPE
  2
CENTER
 70
   64
  3
--------------- - --------------
 72
   65
 73
    4
 40
23
 49
20
 49
-1
 49
1
 49
-1
  0
LTYPE
  2
CENTERX2
 70
   64
  3
--------------- - --------------
 72
   65
 73
    4
 40
43
 49
40
 49
-1
 49
1
 49
-1
  0
LTYPE
  2
CENTER2_22
 70
   64
  3
-------------  --  -------------
 72
   65
 73
    4
 40
13
 49
10
 49
-1
 49
1
 49
-1
  0
LTYPE
  2
PHANTOM
 70
   64
  3
-------------- - - -------------
 72
   65
 73
    6
 40
25
 49
20
 49
-1
 49
1
 49
-1
 49
1
 49
-1
  0
LTYPE
  2
PHANTOMX2
 70
   64
  3
-------------- - - -------------
 72
   65
 73
    6
 40
45
 49
40
 49
-1
 49
1
 49
-1
 49
1
 49
-1
  0
LTYPE
  2
PHANTOM2_25
 70
   64
  3
-----------  --  --  -----------
 72
   65
 73
    6
 40
15
 49
10
 49
-1
 49
1
 49
-1
 49
1
 49
-1
  0
LTYPE
  2
ACAD_ISO06W100
 70
   64
  3
------------- - - - ------------
 72
   65
 73
    8
 40
47
 49
40
 49
-1
 49
1
 49
-1
 49
1
 49
-1
 49
1
 49
-1
  0
LTYPE
  2
ACAD_ISO14W100
 70
   64
  3
------------- - - - ------------
 72
   65
 73
    8
 40
27
 49
20
 49
-1
 49
1
 49
-1
 49
1
 49
-1
 49
1
 49
-1
  0
LTYPE
  2
ACAD_ISO11W100
 70
   64
  3
------- -------------- - -------
 72
   65
 73
    6
 40
44
 49
20
 49
-1
 49
20
 49
-1
 49
1
 49
-1
  0
LTYPE
  2
ACAD_ISO13W100
 70
   64
  3
------- ------------- - - ------
 72
   65
 73
    8
 40
46
 49
20
 49
-1
 49
20
 49
-1
 49
1
 49
-1
 49
1
 49
-1
  0
LTYPE
  2
HIDDEN
 70
   64
  3
------     -----------     -----
 72
   65
 73
    2
 40
1.5
 49
1
 49
-0.5
  0
ENDTAB
  0
TABLE
  2
STYLE
  5
3
100
AcDbSymbolTable
 70
     1
  0
STYLE
  5
10
100
AcDbSymbolTableRecord
100
AcDbTextStyleTableRecord
  2
STANDARD
 70
     0
 40
0.0
 41
1.0
 50
0.0
 71
     0
 42
0.2
  3
txt
  4
bigfont.shx
  0
STYLE
  5
26
100
AcDbSymbolTableRecord
100
AcDbTextStyleTableRecord
  2
TATEGAKI
 70
    68
 40
0.0
 41
1.0
 50
0.0
 71
     0
 42
1.0
  3
txt
  4
bigfont.shx
  0
ENDTAB
  0
TABLE
  2
LAYER
 70
   12
  0
LAYER
  2
_0-0_0
 70
   64
 62
    7
  6
CONTINUOUS
  0
LAYER
  2
_0-1_図面枠
 70
   64
 62
    7
  6
CONTINUOUS
  0
LAYER
  2
_0-3_躯体
 70
   64
 62
    7
  6
CONTINUOUS
  0
LAYER
  2
_0-4_止水補助板
 70
   64
 62
    7
  6
CONTINUOUS
  0
LAYER
  2
_0-5_フレ_ム
 70
   64
 62
    7
  6
CONTINUOUS
  0
LAYER
  2
_0-6_サイド
 70
   64
 62
    7
  6
CONTINUOUS
  0
LAYER
  2
_0-7_小物
 70
   64
 62
    7
  6
CONTINUOUS
  0
LAYER
  2
_0-8_その他
 70
   64
 62
    7
  6
CONTINUOUS
  0
LAYER
  2
_0-9_寸法
 70
   64
 62
    7
  6
CONTINUOUS
  0
LAYER
  2
_0-a_レイヤ1
 70
   64
 62
    7
  6
CONTINUOUS
  0
LAYER
  2
_0-b_レイヤ8
 70
   64
 62
    7
  6
CONTINUOUS
  0
LAYER
  2
ADD_LINE
 70
   64
 62
    7
  6
CONTINUOUS
  0
ENDTAB
  0
ENDSEC
  0
SECTION
  2
BLOCKS
  0
ENDSEC
  0
SECTION
  2
ENTITIES
  0
LINE
  8
_0-1_図面枠
  6
CONTINUOUS
 62
    7
 10
86.774999999999949
 20
128.71449885524999
 11
1286.7749999999999
 21
128.71449885524999
  0
LINE
  8
_0-1_図面枠
  6
CONTINUOUS
 62
    7
 10
1286.7749999999999
 20
914.71449885524999
 11
86.774999999999949
 21
914.71449885524999
  0
LINE
  8
_0-1_図面枠
  6
CONTINUOUS
 62
    7
 10
86.774999999999949
 20
914.71449885524999
 11
86.774999999999949
 21
128.71449885524999
  0
LINE
  8
_0-1_図面枠
  6
CONTINUOUS
 62
    7
 10
686.77499999999998
 20
914.71449885524999
 11
686.77499999999998
 21
128.71449885524999
  0
LINE
  8
_0-1_図面枠
  6
CONTINUOUS
 62
    7
 10
1286.7749999999999
 20
128.71449885524999
 11
1286.7749999999999
 21
914.71449885524999
  0
LINE
  8
_0-9_寸法
  6
CONTINUOUS
 62
    7
 10
249.42548941299998
 20
692.17195714474997
 11
249.42548941299998
 21
666.17197114474993
  0
LINE
  8
_0-9_寸法
  6
CONTINUOUS
 62
    7
 10
257.69454241299997
 20
692.17195714474997
 11
248.42549041299998
 21
692.17195714474997
  0
LINE
  8
_0-9_寸法
  6
CONTINUOUS
 62
    7
 10
257.69453041299994
 20
666.17197114474993
 11
248.42549041299998
 21
666.17197114474993
  0
LINE
  8
_0-9_寸法
  6
CONTINUOUS
 62
    7
 10
249.42548941299998
 20
692.17195714474997
 11
250.17548941299998
 21
689.17195714474997
  0
LINE
  8
_0-9_寸法
  6
CONTINUOUS
 62
    7
 10
249.42548941299998
 20
692.17195714474997
 11
248.67548941299998
 21
689.17195714474997
  0
LINE
  8
_0-9_寸法
  6
CONTINUOUS
 62
    7
 10
249.42548941299998
 20
666.17197114474993
 11
248.67548941299998
 21
669.17197114474993
  0
LINE
  8
_0-9_寸法
  6
CONTINUOUS
 62
    7
 10
249.42548941299998
 20
666.17197114474993
 11
250.17548941299998
 21
669.17197114474993
  0
LINE
  8
_0-9_寸法
  6
CONTINUOUS
 62
    7
 10
249.42548941299998
 20
666.17197114474993
 11
249.42548941299998
 21
656.17196914474994
  0
LINE
  8
_0-9_寸法
  6
CONTINUOUS
 62
    7
 10
271.69433041299999
 20
656.17196914474994
 11
248.42549041299998
 21
656.17196914474994
  0
LINE
  8
_0-9_寸法
  6
CONTINUOUS
 62
    7
 10
249.42548941299998
 20
666.17197114474993
 11
250.17548941299998
 21
663.17197114474993
  0
LINE
  8
_0-9_寸法
  6
CONTINUOUS
 62
    7
 10
249.42548941299998
 20
666.17197114474993
 11
248.67548941299998
 21
663.17197114474993
  0
LINE
  8
_0-9_寸法
  6
CONTINUOUS
 62
    7
 10
249.42548941299998
 20
656.17196914474994
 11
248.67548941299998
 21
659.17196914474994
  0
LINE
  8
_0-9_寸法
  6
CONTINUOUS
 62
    7
 10
249.42548941299998
 20
656.17196914474994
 11
250.17548941299998
 21
659.17196914474994
  0
LINE
  8
_0-9_寸法
  6
CONTINUOUS
 62
    7
 10
303.19453441299999
 20
586.98709114475002
 11
338.19453541299998
 21
586.98709114475002
  0
LINE
  8
_0-9_寸法
  6
CONTINUOUS
 62
    7
 10
303.19453441299999
 20
622.66038514474997
 11
303.19453441299999
 21
583.98709114475002
  0
LINE
  8
_0-9_寸法
  6
CONTINUOUS
 62
    7
 10
338.19453541299998
 20
606.67196914474994
 11
338.19453541299998
 21
583.98709114475002
  0
LINE
  8
_0-9_寸法
  6
CONTINUOUS
 62
    7
 10
303.19453441299999
 20
586.98709114475002
 11
306.19453441299999
 21
587.73709114475002
  0
LINE
  8
_0-9_寸法
  6
CONTINUOUS
 62
    7
 10
303.19453441299999
 20
586.98709114475002
 11
306.19453441299999
 21
586.23709114475002
  0
LINE
  8
_0-9_寸法
  6
CONTINUOUS
 62
    7
 10
338.19453541299998
 20
586.98709114475002
 11
335.19453541299998
 21
586.23709114475002
  0
LINE
  8
_0-9_寸法
  6
CONTINUOUS
 62
    7
 10
338.19453541299998
 20
586.98709114475002
 11
335.19453541299998
 21
587.73709114475002
  0
LINE
  8
_0-9_寸法
  6
CONTINUOUS
 62
    7
 10
338.19453541299998
 20
586.98709114475002
 11
341.19453541299998
 21
587.73709114475002
  0
LINE
  8
_0-9_寸法
  6
CONTINUOUS
 62
    7
 10
338.19453541299998
 20
586.98709114475002
 11
341.19453541299998
 21
586.23709114475002
  0
LINE
  8
_0-7_小物
  6
CONTINUOUS
 62
    7
 10
294.19453441299999
 20
670.67199514474987
 11
294.19453441299999
 21
669.17199514474987
  0
LINE
  8
_0-7_小物
  6
CONTINUOUS
 62
    7
 10
294.19453441299999
 20
670.67199514474987
 11
312.19453441299999
 21
670.67199514474987
  0
LINE
  8
_0-7_小物
  6
CONTINUOUS
 62
    7
 10
312.19453441299999
 20
670.67199514474987
 11
312.19453441299999
 21
669.17199514474987
  0
LINE
  8
_0-7_小物
  6
CONTINUOUS
 62
    7
 10
309.51313741299998
 20
651.0295701447501
 11
310.50549241299996
 21
657.83319214475
  0
ARC
  8
_0-7_小物
  6
CONTINUOUS
 62
    7
 10
310.10967841299998
 20
657.89092414474999
 40
0.3999989999999999
 50
351.70153399995502
 51
81.869897999990002
  0
LINE
  8
_0-7_小物
  6
CONTINUOUS
 62
    7
 10
310.16624941299995
 20
658.28690614474999
 11
309.96942241299996
 21
658.31502214474995
  0
ARC
  8
_0-7_小物
  6
CONTINUOUS
 62
    7
 10
309.91285441299999
 20
657.91904314474982
 40
0.3999989999999999
 50
81.869897999990002
 51
171.86989800000001
  0
LINE
  8
_0-7_小物
  6
CONTINUOUS
 62
    7
 10
309.51687541299998
 20
657.97561114475002
 11
308.57344441299995
 21
651.37159114475003
  0
LINE
  8
_0-7_小物
  6
CONTINUOUS
 62
    7
 10
309.51313741299998
 20
651.0295701447501
 11
310.50549241299996
 21
657.83319214475
  0
ARC
  8
_0-7_小物
  6
CONTINUOUS
 62
    7
 10
310.10967841299998
 20
657.89092414474999
 40
0.3999989999999999
 50
351.70153399995502
 51
81.869897999990002
  0
LINE
  8
_0-7_小物
  6
CONTINUOUS
 62
    7
 10
310.16624941299995
 20
658.28690614474999
 11
309.96942241299996
 21
658.31502214474995
  0
ARC
  8
_0-7_小物
  6
CONTINUOUS
 62
    7
 10
309.91285441299999
 20
657.91904314474982
 40
0.3999989999999999
 50
81.869897999990002
 51
171.86989800000001
  0
LINE
  8
_0-7_小物
  6
CONTINUOUS
 62
    7
 10
309.51687541299998
 20
657.97561114475002
 11
308.57344441299995
 21
651.37159114475003
  0
LINE
  8
_0-7_小物
  6
CONTINUOUS
 62
    7
 10
296.87593441299998
 20
651.0295701447501
 11
295.88357941300001
 21
657.83319214475
  0
ARC
  8
_0-7_小物
  6
CONTINUOUS
 62
    7
 10
296.27939041299999
 20
657.89092414474999
 40
0.3999989999999999
 50
98.130102000009998
 51
188.29846599999999
  0
LINE
  8
_0-7_小物
  6
CONTINUOUS
 62
    7
 10
296.22282241300002
 20
658.28690614474999
 11
296.41964641300001
 21
658.31502214474995
  0
ARC
  8
_0-7_小物
  6
CONTINUOUS
 62
    7
 10
296.47621741299997
 20
657.91904314474982
 40
0.3999989999999999
 50
8.1301019999819992
 51
98.130101999979985
  0
LINE
  8
_0-7_小物
  6
CONTINUOUS
 62
    7
 10
296.87219641299998
 20
657.97561114475002
 11
297.81562741300002
 21
651.37159114475003
  0
LINE
  8
_0-7_小物
  6
CONTINUOUS
 62
    7
 10
299.19453541299998
 20
654.17197114474993
 11
299.19453541299998
 21
658.17197014474993
  0
LINE
  8
_0-7_小物
  6
CONTINUOUS
 62
    7
 10
301.17679141299999
 20
629.21171314474998
 11
297.68159041299998
 21
629.39489014474998
  0
LINE
  8
_0-7_小物
  6
CONTINUOUS
 62
    7
 10
297.68159041299998
 20
629.39489014474998
 11
299.57417641299998
 21
627.29295814474995
  0
LINE
  8
_0-7_小物
  6
CONTINUOUS
 62
    7
 10
299.57417641299998
 20
627.29295814474995
 11
301.07212141299999
 21
627.21445414474999
  0
LINE
  8
_0-7_小物
  6
CONTINUOUS
 62
    7
 10
301.07212141299999
 20
627.21445414474999
 11
302.69453641299998
 21
658.17197014474993
  0
LINE
  8
_0-7_小物
  6
CONTINUOUS
 62
    7
 10
307.19453641299998
 20
654.17197114474993
 11
307.19453641299998
 21
658.17197014474993
  0
LINE
  8
_0-7_小物
  6
CONTINUOUS
 62
    7
 10
305.21227741299998
 20
629.21171314474998
 11
308.70748141299998
 21
629.39489014474998
  0
LINE
  8
_0-7_小物
  6
CONTINUOUS
 62
    7
 10
308.70748141299998
 20
629.39489014474998
 11
306.81489541299999
 21
627.29295814474995
  0
LINE
  8
_0-7_小物
  6
CONTINUOUS
 62
    7
 10
306.81489541299999
 20
627.29295814474995
 11
305.31695041299997
 21
627.21445414474999
  0
LINE
  8
_0-7_小物
  6
CONTINUOUS
 62
    7
 10
305.31695041299997
 20
627.21445414474999
 11
303.69453541299998
 21
658.17197014474993
  0
LINE
  8
_0-7_小物
  6
CONTINUOUS
 62
    7
 10
298.57130041300002
 20
646.37159014475003
 11
296.87593441299998
 21
651.0295701447501
  0
LINE
  8
_0-7_小物
  6
CONTINUOUS
 62
    7
 10
307.81777141299995
 20
646.37159014475003
 11
309.51313741299998
 21
651.0295701447501
  0
LINE
  8
_0-7_小物
  6
CONTINUOUS
 62
    7
 10
299.19453541299998
 20
654.17197114474993
 11
300.93491041300001
 21
653.25732514474998
  0
LINE
  8
_0-7_小物
  6
CONTINUOUS
 62
    7
 10
301.325090413
 20
632.04141514474998
 11
303.19453441299999
 21
630.17197114474993
  0
LINE
  8
_0-7_小物
  6
CONTINUOUS
 62
    7
 10
300.93491041300001
 20
653.25732514474998
 11
300.83024041299996
 21
651.26006614475
  0
LINE
  8
_0-7_小物
  6
CONTINUOUS
 62
    7
 10
300.83024041299996
 20
651.26006614475
 11
298.83298141299997
 21
651.36473914475005
  0
LINE
  8
_0-7_小物
  6
CONTINUOUS
 62
    7
 10
298.83298141299997
 20
651.36473914475005
 11
298.72830841299998
 21
649.36748014475006
  0
LINE
  8
_0-7_小物
  6
CONTINUOUS
 62
    7
 10
298.72830841299998
 20
649.36748014475006
 11
300.67323241299994
 21
648.26417914474996
  0
LINE
  8
_0-7_小物
  6
CONTINUOUS
 62
    7
 10
300.67323241299994
 20
648.26417914474996
 11
300.568559413
 21
646.26692014474997
  0
LINE
  8
_0-7_小物
  6
CONTINUOUS
 62
    7
 10
300.568559413
 20
646.26692014474997
 11
298.57130041300002
 21
646.37159014475003
  0
LINE
  8
_0-7_小物
  6
CONTINUOUS
 62
    7
 10
298.57130041300002
 20
646.37159014475003
 11
298.46662741299997
 21
644.37433114474993
  0
LINE
  8
_0-7_小物
  6
CONTINUOUS
 62
    7
 10
298.46662741299997
 20
644.37433114474993
 11
300.41155141299998
 21
643.27103014475006
  0
LINE
  8
_0-7_小物
  6
CONTINUOUS
 62
    7
 10
300.41155141299998
 20
643.27103014475006
 11
300.30688141299999
 21
641.27377114475007
  0
LINE
  8
_0-7_小物
  6
CONTINUOUS
 62
    7
 10
300.30688141299999
 20
641.27377114475007
 11
298.30961941299995
 21
641.37844414475012
  0
LINE
  8
_0-7_小物
  6
CONTINUOUS
 62
    7
 10
298.30961941299995
 20
641.37844414475012
 11
298.20494941300001
 21
639.38118514475013
  0
LINE
  8
_0-7_小物
  6
CONTINUOUS
 62
    7
 10
298.20494941300001
 20
639.38118514475013
 11
300.14987341299997
 21
638.27788414475003
  0
LINE
  8
_0-7_小物
  6
CONTINUOUS
 62
    7
 10
300.14987341299997
 20
638.27788414475003
 11
300.04520041299998
 21
636.28062514474993
  0
LINE
  8
_0-7_小物
  6
CONTINUOUS
 62
    7
 10
300.04520041299998
 20
636.28062514474993
 11
298.04794141299999
 21
636.38529514474999
  0
LINE
  8
_0-7_小物
  6
CONTINUOUS
 62
    7
 10
298.04794141299999
 20
636.38529514474999
 11
297.94326841299994
 21
634.38803614475
  0
LINE
  8
_0-7_小物
  6
CONTINUOUS
 62
    7
 10
297.94326841299994
 20
634.38803614475
 11
299.88819241299996
 21
633.28473514475002
  0
LINE
  8
_0-7_小物
  6
CONTINUOUS
 62
    7
 10
299.88819241299996
 20
633.28473514475002
 11
299.78351941299996
 21
631.28747614475003
  0
LINE
  8
_0-7_小物
  6
CONTINUOUS
 62
    7
 10
299.78351941299996
 20
631.28747614475003
 11
297.78626041299998
 21
631.39214914474996
  0
LINE
  8
_0-7_小物
  6
CONTINUOUS
 62
    7
 10
297.78626041299998
 20
631.39214914474996
 11
297.68159041299998
 21
629.39489014474998
  0
LINE
  8
_0-7_小物
  6
CONTINUOUS
 62
    7
 10
307.19453641299998
 20
654.17197114474993
 11
305.45415841299996
 21
653.25732514474998
  0
LINE
  8
_0-7_小物
  6
CONTINUOUS
 62
    7
 10
305.45415841299996
 20
653.25732514474998
 11
305.55883141300001
 21
651.26006614475
  0
LINE
  8
_0-7_小物
  6
CONTINUOUS
 62
    7
 10
305.55883141300001
 20
651.26006614475
 11
307.55609041299999
 21
651.36473914475005
  0
LINE
  8
_0-7_小物
  6
CONTINUOUS
 62
    7
 10
307.55609041299999
 20
651.36473914475005
 11
307.66076341299998
 21
649.36748014475006
  0
LINE
  8
_0-7_小物
  6
CONTINUOUS
 62
    7
 10
307.66076341299998
 20
649.36748014475006
 11
305.71583941299997
 21
648.26417914474996
  0
LINE
  8
_0-7_小物
  6
CONTINUOUS
 62
    7
 10
305.71583941299997
 20
648.26417914474996
 11
305.82051241299996
 21
646.26692014474997
  0
LINE
  8
_0-7_小物
  6
CONTINUOUS
 62
    7
 10
305.82051241299996
 20
646.26692014474997
 11
307.81777141299995
 21
646.37159014475003
  0
LINE
  8
_0-7_小物
  6
CONTINUOUS
 62
    7
 10
307.81777141299995
 20
646.37159014475003
 11
307.922441413
 21
644.37433114474993
  0
LINE
  8
_0-7_小物
  6
CONTINUOUS
 62
    7
 10
307.922441413
 20
644.37433114474993
 11
305.97752041299998
 21
643.27103014475006
  0
LINE
  8
_0-7_小物
  6
CONTINUOUS
 62
    7
 10
305.97752041299998
 20
643.27103014475006
 11
306.08219041299998
 21
641.27377114475007
  0
LINE
  8
_0-7_小物
  6
CONTINUOUS
 62
    7
 10
306.08219041299998
 20
641.27377114475007
 11
308.07944941299996
 21
641.37844414475012
  0
LINE
  8
_0-7_小物
  6
CONTINUOUS
 62
    7
 10
308.07944941299996
 20
641.37844414475012
 11
308.18412241299995
 21
639.38118514475013
  0
LINE
  8
_0-7_小物
  6
CONTINUOUS
 62
    7
 10
308.18412241299995
 20
639.38118514475013
 11
306.23919841299994
 21
638.27788414475003
  0
LINE
  8
_0-7_小物
  6
CONTINUOUS
 62
    7
 10
306.23919841299994
 20
638.27788414475003
 11
306.34387141299999
 21
636.28062514474993
  0
LINE
  8
_0-7_小物
  6
CONTINUOUS
 62
    7
 10
306.34387141299999
 20
636.28062514474993
 11
308.34113041299997
 21
636.38529514474999
  0
LINE
  8
_0-7_小物
  6
CONTINUOUS
 62
    7
 10
308.34113041299997
 20
636.38529514474999
 11
308.44580041299997
 21
634.38803614475
  0
LINE
  8
_0-7_小物
  6
CONTINUOUS
 62
    7
 10
308.44580041299997
 20
634.38803614475
 11
306.50087941300001
 21
633.28473514475002
  0
LINE
  8
_0-7_小物
  6
CONTINUOUS
 62
    7
 10
306.50087941300001
 20
633.28473514475002
 11
306.60554941299995
 21
631.28747614475003
  0
LINE
  8
_0-7_小物
  6
CONTINUOUS
 62
    7
 10
306.60554941299995
 20
631.28747614475003
 11
308.60280841299999
 21
631.39214914474996
  0
LINE
  8
_0-7_小物
  6
CONTINUOUS
 62
    7
 10
308.60280841299999
 20
631.39214914474996
 11
308.70748141299998
 21
629.39489014474998
  0
LINE
  8
_0-7_小物
  6
CONTINUOUS
 62
    7
 10
302.69453641299998
 20
658.17197014474993
 11
303.19453441299999
 21
658.17197014474993
  0
LINE
  8
_0-7_小物
  6
CONTINUOUS
 62
    7
 10
303.69453541299998
 20
658.17197014474993
 11
303.19453441299999
 21
658.17197014474993
  0
LINE
  8
_0-7_小物
  6
CONTINUOUS
 62
    7
 10
299.19453541299998
 20
666.17197114474993
 11
299.19453541299998
 21
658.17197014474993
  0
LINE
  8
_0-7_小物
  6
CONTINUOUS
 62
    7
 10
298.19453641299998
 20
666.17197114474993
 11
299.19453541299998
 21
661.17197014474993
  0
LINE
  8
_0-7_小物
  6
CONTINUOUS
 62
    7
 10
302.19453541299998
 20
666.17197114474993
 11
303.19453441299999
 21
661.17197014474993
  0
LINE
  8
_0-7_小物
  6
CONTINUOUS
 62
    7
 10
304.19453641299998
 20
666.17197114474993
 11
303.19453441299999
 21
661.17197014474993
  0
LINE
  8
_0-7_小物
  6
CONTINUOUS
 62
    7
 10
303.19453441299999
 20
661.17197014474993
 11
303.19453441299999
 21
666.17197114474993
  0
LINE
  8
_0-7_小物
  6
CONTINUOUS
 62
    7
 10
307.19453641299998
 20
666.17197114474993
 11
307.19453641299998
 21
658.17197014474993
  0
LINE
  8
_0-7_小物
  6
CONTINUOUS
 62
    7
 10
308.19453541299998
 20
666.17197114474993
 11
307.19453641299998
 21
661.17197014474993
  0
ARC
  8
_0-7_小物
  6
CONTINUOUS
 62
    7
 10
301.69177441299996
 20
670.54328614475003
 40
3
 50
128.61463800000001
 51
177.54107400000001
  0
ARC
  8
_0-7_小物
  6
CONTINUOUS
 62
    7
 10
304.697297413
 20
670.54328614475003
 40
3
 50
2.458925999996
 51
51.38536199999001
  0
LINE
  8
_0-7_小物
  6
CONTINUOUS
 62
    7
 10
303.19453441299999
 20
623.16038614474996
 11
303.19453441299999
 21
679.68747514475012
  0
ARC
  8
_0-7_小物
  6
CONTINUOUS
 62
    7
 10
303.19453441299999
 20
668.67199714475009
 40
5.4000000000000004
 50
90
 51
128.85106200000001
  0
ARC
  8
_0-7_小物
  6
CONTINUOUS
 62
    7
 10
303.19453441299999
 20
668.67199714475009
 40
5.4000000000000004
 50
51.317813000000001
 51
90
  0
LINE
  8
_0-7_小物
  6
CONTINUOUS
 62
    7
 10
305.06397841299997
 20
632.04141514474998
 11
303.19453441299999
 21
630.17197114474993
  0
LINE
  8
_0-4_止水補助板
  6
CONTINUOUS
 62
    7
 10
283.19441941299999
 20
667.17197014474993
 11
338.954861413
 21
667.17197014474993
  0
LINE
  8
_0-4_止水補助板
  6
CONTINUOUS
 62
    7
 10
283.19441941299999
 20
667.17197014474993
 11
283.19441941299999
 21
666.17197114474993
  0
LINE
  8
_0-4_止水補助板
  6
CONTINUOUS
 62
    7
 10
348.74055241299999
 20
628.16168914474997
 11
338.19453541299998
 21
666.17197114474993
  0
LINE
  8
_0-4_止水補助板
  6
CONTINUOUS
 62
    7
 10
349.70414941299998
 20
628.42904014474993
 11
338.954861413
 21
667.17197014474993
  0
LINE
  8
_0-3_躯体
  6
CONTINUOUS
 62
    7
 10
338.19453541299998
 20
607.17197014475005
 11
338.19453541299998
 21
666.17197114474993
  0
LINE
  8
_0-3_躯体
  6
CONTINUOUS
 62
    7
 10
272.19441241300001
 20
666.17197114474993
 11
272.19432841299999
 21
656.17196914474994
  0
LINE
  8
_0-3_躯体
  6
CONTINUOUS
 62
    7
 10
272.19432841299999
 20
656.17196914474994
 11
338.19453541299998
 21
656.17196914474994
  0
LINE
  8
_0-3_躯体
  6
CONTINUOUS
 62
    7
 10
258.19453141299994
 20
666.17197114474993
 11
338.19453541299998
 21
666.17197114474993
  0
LINE
  8
_0-7_小物
  6
CONTINUOUS
 62
    7
 10
298.19453641299998
 20
666.17197114474993
 11
308.19453541299998
 21
666.17197114474993
  0
LINE
  8
_0-3_躯体
  6
HIDDEN
 62
    7
 10
258.19453141299994
 20
666.17197114474993
 11
258.19453141299994
 21
607.17197014475005
  0
LINE
  8
_0-3_躯体
  6
HIDDEN
 62
    7
 10
338.19453541299998
 20
607.17197014475005
 11
258.19453141299994
 21
607.17197014475005
  0
LINE
  8
_0-3_躯体
  6
HIDDEN
 62
    9
 10
258.19454341300002
 20
692.17195714474997
 11
258.19454341300002
 21
666.17197114474993
  0
LINE
  8
_0-3_躯体
  6
CONTINUOUS
 62
    7
 10
272.69334088069996
 20
692.17195714474997
 11
258.19454341300002
 21
677.67315967695004
  0
LINE
  8
_0-3_躯体
  6
CONTINUOUS
 62
    7
 10
268.45070019359997
 20
692.17195714474997
 11
258.19454341300002
 21
681.91580036405003
  0
LINE
  8
_0-3_躯体
  6
CONTINUOUS
 62
    7
 10
264.20805950649998
 20
692.17195714474997
 11
258.19454341300002
 21
686.15844105115002
  0
LINE
  8
_0-3_躯体
  6
CONTINUOUS
 62
    7
 10
259.96541881939999
 20
692.17195714474997
 11
258.19454341300002
 21
690.40108173825001
  0
CIRCLE
  8
_0-9_寸法
  6
CONTINUOUS
 62
    7
 10
279.24110221519999
 20
658.55031264784998
 40
0.5999999999999999
  0
LINE
  8
_0-9_寸法
  6
CONTINUOUS
 62
    7
 10
279.24110221519999
 20
658.55031264784998
 11
255.74872698469994
 21
617.86032395894995
  0
TEXT
  8
_0-9_寸法
 62
    7
 10
140.24872698467996
 20
617.86032395894995
 40
10.5
 41
1
 50
0
  1
ならしモルタル（別途）
  0
LINE
  8
_0-9_寸法
  6
CONTINUOUS
 62
    7
 10
255.74872698469994
 20
617.86032395894995
 11
139.05583444205996
 21
617.86032395894995
  0
TEXT
  8
_0-9_寸法
 62
    7
 10
249.4254896878
 20
655.92197014474993
 40
10.5
 41
1
 50
90.000003000000035
  1
10
  0
TEXT
  8
_0-9_寸法
 62
    7
 10
249.4254896878
 20
673.92196414474995
 40
10.5
 41
1
 50
90.000003000000035
  1
26
  0
TEXT
  8
_0-9_寸法
 62
    7
 10
315.44453491299998
 20
586.98709114475002
 40
10.5
 41
1
 50
0
  1
35
  0
LINE
  8
_0-7_小物
  6
CONTINUOUS
 62
    7
 10
299.6561718122
 20
646.31473548074996
 11
297.81562741300002
 21
651.37159114475003
  0
LINE
  8
_0-7_小物
  6
CONTINUOUS
 62
    7
 10
306.73290001369998
 20
646.31473548074996
 11
308.57344441299995
 21
651.37159114475003
  0
LINE
  8
_0-9_寸法
  6
CONTINUOUS
 62
    7
 10
473.19453441300004
 20
672.48218614475002
 11
457.91367141299997
 21
646.01495314474982
  0
CIRCLE
  8
_0-9_寸法
  6
CONTINUOUS
 62
    7
 10
454.91367141299997
 20
640.81880014474996
 40
6
  0
CIRCLE
  8
_0-9_寸法
  6
CONTINUOUS
 62
    7
 10
473.19453441300004
 20
672.48218614475002
 40
0.5999999999999999
  0
LINE
  8
_0-9_寸法
  6
CONTINUOUS
 62
    7
 10
438.19453641299992
 20
606.67196914474994
 11
438.19453641299992
 21
583.98709114475002
  0
LINE
  8
_0-9_寸法
  6
CONTINUOUS
 62
    7
 10
438.19453641299992
 20
586.98709114475002
 11
435.19453641300004
 21
586.23709114475002
  0
LINE
  8
_0-9_寸法
  6
CONTINUOUS
 62
    7
 10
438.19453641299992
 20
586.98709114475002
 11
435.19453641300004
 21
587.73709114475002
  0
LINE
  8
_0-9_寸法
  6
CONTINUOUS
 62
    7
 10
438.19453641299992
 20
586.98709114475002
 11
473.19453441300004
 21
586.98709114475002
  0
LINE
  8
_0-9_寸法
  6
CONTINUOUS
 62
    7
 10
473.19453441300004
 20
622.66038514474997
 11
473.19453441300004
 21
583.98709114475002
  0
LINE
  8
_0-9_寸法
  6
CONTINUOUS
 62
    7
 10
438.19453641299992
 20
586.98709114475002
 11
441.19453641299992
 21
587.73709114475002
  0
LINE
  8
_0-9_寸法
  6
CONTINUOUS
 62
    7
 10
438.19453641299992
 20
586.98709114475002
 11
441.19453641299992
 21
586.23709114475002
  0
LINE
  8
_0-9_寸法
  6
CONTINUOUS
 62
    7
 10
473.19453441300004
 20
586.98709114475002
 11
470.19453441300004
 21
586.23709114475002
  0
LINE
  8
_0-9_寸法
  6
CONTINUOUS
 62
    7
 10
473.19453441300004
 20
586.98709114475002
 11
470.19453441300004
 21
587.73709114475002
  0
TEXT
  8
_0-9_寸法
 62
    7
 10
450.44453541299998
 20
586.98709114475002
 40
10.5
 41
1
 50
0
  1
35
  0
TEXT
  8
_0-9_寸法
 62
    7
 10
452.513671413
 20
636.01880014475
 40
9.5999999999999996
 41
1
 50
0
  1
7
  0
LINE
  8
_0-9_寸法
  6
CONTINUOUS
 62
    7
 10
338.19453541299998
 20
586.98709114475002
 11
438.19453641299992
 21
586.98709114475002
  0
TEXT
  8
_0-9_寸法
 62
    7
 10
380.31953591299998
 20
586.98709114475002
 40
10.5
 41
1
 50
0
  1
100
  0
TEXT
  8
_0-9_寸法
 62
    7
 10
380.31953441299999
 20
749.09825614474994
 40
10.5
 41
1
 50
0
  1
230
  0
ARC
  8
_0-5_フレ_ム
  6
CONTINUOUS
 62
    7
 10
273.49463941299996
 20
691.87200214475001
 40
0.2999999999999999
 50
90
 51
180
  0
ARC
  8
_0-5_フレ_ム
  6
CONTINUOUS
 62
    7
 10
274.39463941299994
 20
691.87200214475001
 40
0.2999999999999999
 50
0
 51
90
  0
LINE
  8
_0-5_フレ_ム
  6
CONTINUOUS
 62
    7
 10
273.49463941299996
 20
692.17200214474997
 11
274.39463941299994
 21
692.17200214474997
  0
ARC
  8
_0-5_フレ_ム
  6
CONTINUOUS
 62
    7
 10
279.69460441299998
 20
669.67196914474994
 40
0.500001
 50
180
 51
270
  0
LINE
  8
_0-5_フレ_ム
  6
CONTINUOUS
 62
    7
 10
302.89453441299997
 20
669.17199514474987
 11
279.69460441299998
 21
669.17197114474993
  0
LINE
  8
_0-5_フレ_ム
  6
CONTINUOUS
 62
    7
 10
277.19452441299995
 20
668.67200914475006
 11
277.19464441299999
 21
682.67199214474999
  0
ARC
  8
_0-5_フレ_ム
  6
CONTINUOUS
 62
    7
 10
278.69452441299995
 20
668.67199714475009
 40
1.5
 50
179.999526
 51
270
  0
LINE
  8
_0-5_フレ_ム
  6
CONTINUOUS
 62
    7
 10
303.19453441299999
 20
668.87199514475003
 11
303.494534413
 21
669.17199514474987
  0
LINE
  8
_0-5_フレ_ム
  6
CONTINUOUS
 62
    7
 10
303.19453441299999
 20
668.87199514475003
 11
302.89453441299997
 21
669.17199514474987
  0
LINE
  8
_0-5_フレ_ム
  6
CONTINUOUS
 62
    7
 10
350.19457141300001
 20
684.67200214474997
 11
350.19457741299999
 21
681.67200214474997
  0
LINE
  8
_0-5_フレ_ム
  6
CONTINUOUS
 62
    7
 10
353.19457141300001
 20
684.67200214474997
 11
353.19457141300001
 21
681.67200214474997
  0
ARC
  8
_0-5_フレ_ム
  6
CONTINUOUS
 62
    7
 10
351.69457741299999
 20
684.67200214474997
 40
1.499994
 50
0
 51
180
  0
LINE
  8
_0-5_フレ_ム
  6
CONTINUOUS
 62
    7
 10
350.19457741299999
 20
681.67200214474997
 11
350.69457841299999
 21
681.67200214474997
  0
LINE
  8
_0-5_フレ_ム
  6
CONTINUOUS
 62
    7
 10
353.19457141300001
 20
681.67200214474997
 11
352.69457041299995
 21
681.67200214474997
  0
LINE
  8
_0-5_フレ_ム
  6
CONTINUOUS
 62
    7
 10
303.494534413
 20
669.17199514474987
 11
350.19457741299999
 21
669.17199514474987
  0
ARC
  8
_0-5_フレ_ム
  6
CONTINUOUS
 62
    7
 10
350.19457741299999
 20
669.67199614474998
 40
0.500001
 50
270
 51
0
  0
LINE
  8
_0-5_フレ_ム
  6
CONTINUOUS
 62
    7
 10
350.69457841299999
 20
681.67200214474997
 11
350.69457841299999
 21
669.67199614474998
  0
ARC
  8
_0-5_フレ_ム
  6
CONTINUOUS
 62
    7
 10
351.69457141300001
 20
668.17199614474998
 40
0.9999989999999999
 50
270
 51
0
  0
LINE
  8
_0-5_フレ_ム
  6
CONTINUOUS
 62
    7
 10
352.69457041299995
 20
681.67200214474997
 11
352.69457041299995
 21
668.17199614474998
  0
ARC
  8
_0-5_フレ_ム
  6
CONTINUOUS
 62
    7
 10
280.194641413
 20
685.67198614475001
 40
0.9999989999999999
 50
90.001149999999996
 51
180
  0
LINE
  8
_0-5_フレ_ム
  6
CONTINUOUS
 62
    7
 10
279.194642413
 20
685.67198914474989
 11
279.19460341299998
 21
669.67197214474982
  0
ARC
  8
_0-5_フレ_ム
  6
CONTINUOUS
 62
    7
 10
276.69459841299999
 20
685.17204514474997
 40
0.500001
 50
270.00187000002001
 51
359.99947500000707
  0
LINE
  8
_0-5_フレ_ム
  6
CONTINUOUS
 62
    7
 10
276.69461341299996
 20
684.67204414475009
 11
275.19465541299996
 21
684.67199614474998
  0
ARC
  8
_0-5_フレ_ム
  6
CONTINUOUS
 62
    7
 10
276.69464641299999
 20
682.67199814474998
 40
0.500001
 50
359.99950800000693
 51
90.000000000000014
  0
LINE
  8
_0-5_フレ_ム
  6
CONTINUOUS
 62
    7
 10
274.194641413
 20
683.17199014475
 11
276.69464341299999
 21
683.17199614474998
  0
LINE
  8
_0-5_フレ_ム
  6
CONTINUOUS
 62
    7
 10
277.194596413
 20
685.17204214474987
 11
277.19463841300001
 21
689.67199414474999
  0
ARC
  8
_0-5_フレ_ム
  6
CONTINUOUS
 62
    7
 10
274.19463841300001
 20
684.17198914474989
 40
0.9999989999999999
 50
180
 51
270
  0
ARC
  8
_0-5_フレ_ム
  6
CONTINUOUS
 62
    7
 10
275.19463741300001
 20
685.17199714475009
 40
0.500001
 50
180
 51
270.00187
  0
ARC
  8
_0-5_フレ_ム
  6
CONTINUOUS
 62
    7
 10
278.69473741299998
 20
689.67200014474997
 40
0.500001
 50
0
 51
90
  0
LINE
  8
_0-5_フレ_ム
  6
CONTINUOUS
 62
    7
 10
279.19473541299999
 20
689.17199614474998
 11
279.19473541299999
 21
689.67200014474997
  0
LINE
  8
_0-5_フレ_ム
  6
CONTINUOUS
 62
    7
 10
285.69463741300001
 20
689.17199614474998
 11
282.99463741299996
 21
689.17199614474998
  0
LINE
  8
_0-5_フレ_ム
  6
CONTINUOUS
 62
    7
 10
279.19473541299999
 20
689.17199614474998
 11
282.39463741299994
 21
689.17199614474998
  0
ARC
  8
_0-5_フレ_ム
  6
CONTINUOUS
 62
    7
 10
286.19463841300001
 20
689.67198814475
 40
0.500001
 50
90.000848999979993
 51
180
  0
LINE
  8
_0-5_フレ_ム
  6
CONTINUOUS
 62
    7
 10
285.69463741300001
 20
689.17199614474998
 11
285.69463741300001
 21
689.67198814475
  0
ARC
  8
_0-5_フレ_ム
  6
CONTINUOUS
 62
    7
 10
286.694684413
 20
689.67199414474999
 40
0.500001
 50
0
 51
90
  0
LINE
  8
_0-5_フレ_ム
  6
CONTINUOUS
 62
    7
 10
286.19463841300001
 20
690.17199514474987
 11
286.694684413
 21
690.17199514474987
  0
LINE
  8
_0-5_フレ_ム
  6
CONTINUOUS
 62
    7
 10
287.19461941299994
 20
688.67195314474998
 11
287.194685413
 21
689.67199414474999
  0
ARC
  8
_0-5_フレ_ム
  6
CONTINUOUS
 62
    7
 10
285.19461841299994
 20
688.67208814474998
 40
2.0000010000000001
 50
270.00115
 51
359.99615999999992
  0
LINE
  8
_0-5_フレ_ム
  6
CONTINUOUS
 62
    7
 10
285.19465741299996
 20
686.67208714474998
 11
280.19462041299994
 21
686.67198814475
  0
LINE
  8
_0-5_フレ_ム
  6
CONTINUOUS
 62
    7
 10
282.69463741300001
 20
688.87199614475003
 11
282.39463741299994
 21
689.17199614474998
  0
LINE
  8
_0-5_フレ_ム
  6
CONTINUOUS
 62
    7
 10
282.69463741300001
 20
688.87199614475003
 11
282.99463741299996
 21
689.17199614474998
  0
ARC
  8
_0-5_フレ_ム
  6
CONTINUOUS
 62
    7
 10
277.694642413
 20
689.67200014474997
 40
0.500001
 50
90
 51
180
  0
ARC
  8
_0-5_フレ_ム
  6
CONTINUOUS
 62
    7
 10
277.694639413
 20
689.67200014474997
 40
0.500001
 50
90
 51
180
  0
LINE
  8
_0-5_フレ_ム
  6
CONTINUOUS
 62
    7
 10
354.694574413
 20
684.47199514475005
 11
354.694574413
 21
679.47199714474993
  0
LINE
  8
_0-5_フレ_ム
  6
CONTINUOUS
 62
    7
 10
354.694574413
 20
679.47199714474993
 11
353.194574413
 21
679.47199714474993
  0
LINE
  8
_0-5_フレ_ム
  6
CONTINUOUS
 62
    7
 10
350.194574413
 20
679.47199714474993
 11
348.694574413
 21
679.47199714474993
  0
LINE
  8
_0-5_フレ_ム
  6
CONTINUOUS
 62
    7
 10
348.694574413
 20
679.47199714474993
 11
348.694574413
 21
684.47199514475005
  0
ARC
  8
_0-5_フレ_ム
  6
CONTINUOUS
 62
    7
 10
351.694574413
 20
684.47199514475005
 40
1.7000010000000001
 50
0
 51
180
  0
ARC
  8
_0-5_フレ_ム
  6
CONTINUOUS
 62
    7
 10
351.694574413
 20
684.47199514475005
 40
3
 50
0
 51
180
  0
LINE
  8
_0-5_フレ_ム
  6
CONTINUOUS
 62
    7
 10
350.19458041299998
 20
681.47199514475005
 11
350.43842341299995
 21
681.47199514475005
  0
ARC
  8
_0-5_フレ_ム
  6
CONTINUOUS
 62
    7
 10
350.43842341299995
 20
681.27199714475
 40
0.200001
 50
345.96359799997998
 51
90
  0
LINE
  8
_0-5_フレ_ム
  6
CONTINUOUS
 62
    7
 10
350.194574413
 20
679.47199714474993
 11
350.63245141299996
 21
681.22348714475004
  0
LINE
  8
_0-5_フレ_ム
  6
CONTINUOUS
 62
    7
 10
353.194574413
 20
681.47199514475005
 11
352.95072841299998
 21
681.47199514475005
  0
ARC
  8
_0-5_フレ_ム
  6
CONTINUOUS
 62
    7
 10
352.95072841299998
 20
681.27199714475
 40
0.200001
 50
90
 51
194.036192
  0
LINE
  8
_0-5_フレ_ム
  6
CONTINUOUS
 62
    7
 10
353.19457141300001
 20
679.47199714474993
 11
352.75670041299998
 21
681.22349014475003
  0
LINE
  8
_0-5_フレ_ム
  6
CONTINUOUS
 62
    7
 10
350.19458041299998
 20
681.47199514475005
 11
349.994579413
 21
681.47199514475005
  0
LINE
  8
_0-5_フレ_ム
  6
CONTINUOUS
 62
    7
 10
349.994579413
 20
681.47199514475005
 11
349.99457341299996
 21
684.47199514475005
  0
LINE
  8
_0-5_フレ_ム
  6
CONTINUOUS
 62
    7
 10
353.19457141300001
 20
681.47199514475005
 11
353.39457541299998
 21
681.47199514475005
  0
LINE
  8
_0-5_フレ_ム
  6
CONTINUOUS
 62
    7
 10
353.39457541299998
 20
681.47199514475005
 11
353.39457541299998
 21
684.47199514475005
  0
LINE
  8
_0-5_フレ_ム
  6
CONTINUOUS
 62
    7
 10
294.19453441299999
 20
669.17202214475003
 11
312.19453441299999
 21
669.17202214475003
  0
LINE
  8
_0-5_フレ_ム
  6
CONTINUOUS
 62
    7
 10
278.69452441299995
 20
667.17199714475009
 11
351.69457141300001
 21
667.17199714475009
  0
LINE
  8
_0-5_フレ_ム
  6
CONTINUOUS
 62
    7
 10
277.694642413
 20
690.17200114474986
 11
278.69473741299998
 21
690.17200114474986
  0
LINE
  8
_0-5_フレ_ム
  6
CONTINUOUS
 62
    7
 10
273.194639413
 20
684.17198914474989
 11
273.194639413
 21
691.87200214475001
  0
LINE
  8
_0-5_フレ_ム
  6
CONTINUOUS
 62
    7
 10
274.694639413
 20
691.87200214475001
 11
274.694639413
 21
685.17199714475009
  0
LINE
  8
_0-3_躯体
  6
CONTINUOUS
 62
    7
 10
281.63450637769995
 20
667.17199714475009
 11
280.63448037770002
 21
666.17197114474993
  0
LINE
  8
_0-3_躯体
  6
CONTINUOUS
 62
    7
 10
277.73713439769995
 20
667.51726585184997
 11
276.39183969059997
 21
666.17197114474993
  0
LINE
  8
_0-3_躯体
  6
CONTINUOUS
 62
    7
 10
277.19454622989997
 20
671.21731837114999
 11
272.14919900349997
 21
666.17197114474993
  0
LINE
  8
_0-3_躯体
  6
CONTINUOUS
 62
    7
 10
277.19458259579994
 20
675.45999542414995
 11
267.90655831629999
 21
666.17197114474993
  0
LINE
  8
_0-3_躯体
  6
CONTINUOUS
 62
    7
 10
277.19461896159999
 20
679.70267247715003
 11
263.6639176292
 21
666.17197114474993
  0
LINE
  8
_0-3_躯体
  6
CONTINUOUS
 62
    7
 10
276.42130128609995
 20
683.17199548874987
 11
259.42127694210001
 21
666.17197114474993
  0
LINE
  8
_0-3_躯体
  6
CONTINUOUS
 62
    7
 10
273.194639413
 20
684.18797430275004
 11
258.19454341300002
 21
669.18787830274994
  0
LINE
  8
_0-3_躯体
  6
CONTINUOUS
 62
    7
 10
273.194639413
 20
688.43061498985003
 11
258.19454341300002
 21
673.43051898985004
  0
LINE
  8
_0-7_小物
  6
CONTINUOUS
 62
    7
 10
482.19453441300004
 20
670.67199514474987
 11
482.19453441300004
 21
669.17199514474987
  0
LINE
  8
_0-7_小物
  6
CONTINUOUS
 62
    7
 10
482.19453441300004
 20
670.67199514474987
 11
464.19453441300004
 21
670.67199514474987
  0
LINE
  8
_0-7_小物
  6
CONTINUOUS
 62
    7
 10
464.19453441300004
 20
670.67199514474987
 11
464.19453441300004
 21
669.17199514474987
  0
LINE
  8
_0-7_小物
  6
CONTINUOUS
 62
    7
 10
466.87593141299999
 20
651.0295701447501
 11
465.88357641299996
 21
657.83319214475
  0
ARC
  8
_0-7_小物
  6
CONTINUOUS
 62
    7
 10
466.27939041299999
 20
657.89092414474999
 40
0.3999989999999999
 50
98.130102000009998
 51
188.29846599999999
  0
LINE
  8
_0-7_小物
  6
CONTINUOUS
 62
    7
 10
466.22281941299991
 20
658.28690614474999
 11
466.4196464129999
 21
658.31502214474995
  0
ARC
  8
_0-7_小物
  6
CONTINUOUS
 62
    7
 10
466.47621441299998
 20
657.91904314474982
 40
0.3999989999999999
 50
8.1301019999819992
 51
98.130102000009998
  0
LINE
  8
_0-7_小物
  6
CONTINUOUS
 62
    7
 10
466.87219341299999
 20
657.97561114475002
 11
467.81562441299991
 21
651.37159114475003
  0
LINE
  8
_0-7_小物
  6
CONTINUOUS
 62
    7
 10
466.87593141299999
 20
651.0295701447501
 11
465.88357641299996
 21
657.83319214475
  0
ARC
  8
_0-7_小物
  6
CONTINUOUS
 62
    7
 10
466.27939041299999
 20
657.89092414474999
 40
0.3999989999999999
 50
98.130102000009998
 51
188.29846599999999
  0
LINE
  8
_0-7_小物
  6
CONTINUOUS
 62
    7
 10
466.22281941299991
 20
658.28690614474999
 11
466.4196464129999
 21
658.31502214474995
  0
ARC
  8
_0-7_小物
  6
CONTINUOUS
 62
    7
 10
466.47621441299998
 20
657.91904314474982
 40
0.3999989999999999
 50
8.1301019999819992
 51
98.130102000009998
  0
LINE
  8
_0-7_小物
  6
CONTINUOUS
 62
    7
 10
466.87219341299999
 20
657.97561114475002
 11
467.81562441299991
 21
651.37159114475003
  0
LINE
  8
_0-7_小物
  6
CONTINUOUS
 62
    7
 10
479.51313441299999
 20
651.0295701447501
 11
480.50548941299996
 21
657.83319214475
  0
ARC
  8
_0-7_小物
  6
CONTINUOUS
 62
    7
 10
480.10967841299998
 20
657.89092414474999
 40
0.3999989999999999
 50
351.70153399995502
 51
81.869897999990002
  0
LINE
  8
_0-7_小物
  6
CONTINUOUS
 62
    7
 10
480.16624641299995
 20
658.28690614474999
 11
479.96942241299996
 21
658.31502214474995
  0
ARC
  8
_0-7_小物
  6
CONTINUOUS
 62
    7
 10
479.912851413
 20
657.91904314474982
 40
0.3999989999999999
 50
81.869898000020001
 51
171.86989800000001
  0
LINE
  8
_0-7_小物
  6
CONTINUOUS
 62
    7
 10
479.51687241299999
 20
657.97561114475002
 11
478.57344141299995
 21
651.37159114475003
  0
LINE
  8
_0-7_小物
  6
CONTINUOUS
 62
    7
 10
477.19453341299993
 20
654.17197114474993
 11
477.19453341299993
 21
658.17197014474993
  0
LINE
  8
_0-7_小物
  6
CONTINUOUS
 62
    7
 10
475.21227741299992
 20
629.21171314474998
 11
478.70747841299999
 21
629.39489014474998
  0
LINE
  8
_0-7_小物
  6
CONTINUOUS
 62
    7
 10
478.70747841299999
 20
629.39489014474998
 11
476.814892413
 21
627.29295814474995
  0
LINE
  8
_0-7_小物
  6
CONTINUOUS
 62
    7
 10
476.814892413
 20
627.29295814474995
 11
475.31694741299998
 21
627.21445414474999
  0
LINE
  8
_0-7_小物
  6
CONTINUOUS
 62
    7
 10
475.31694741299998
 20
627.21445414474999
 11
473.69453241299999
 21
658.17197014474993
  0
LINE
  8
_0-7_小物
  6
CONTINUOUS
 62
    7
 10
469.19453241299999
 20
654.17197114474993
 11
469.19453241299999
 21
658.17197014474993
  0
LINE
  8
_0-7_小物
  6
CONTINUOUS
 62
    7
 10
471.17679141299999
 20
629.21171314474998
 11
467.68158741299999
 21
629.39489014474998
  0
LINE
  8
_0-7_小物
  6
CONTINUOUS
 62
    7
 10
467.68158741299999
 20
629.39489014474998
 11
469.57417341299993
 21
627.29295814474995
  0
LINE
  8
_0-7_小物
  6
CONTINUOUS
 62
    7
 10
469.57417341299993
 20
627.29295814474995
 11
471.072118413
 21
627.21445414474999
  0
LINE
  8
_0-7_小物
  6
CONTINUOUS
 62
    7
 10
471.072118413
 20
627.21445414474999
 11
472.69453341299993
 21
658.17197014474993
  0
LINE
  8
_0-7_小物
  6
CONTINUOUS
 62
    7
 10
477.81776841299995
 20
646.37159014475003
 11
479.51313441299999
 21
651.0295701447501
  0
LINE
  8
_0-7_小物
  6
CONTINUOUS
 62
    7
 10
468.57129741299991
 20
646.37159014475003
 11
466.87593141299999
 21
651.0295701447501
  0
LINE
  8
_0-7_小物
  6
CONTINUOUS
 62
    7
 10
477.19453341299993
 20
654.17197114474993
 11
475.45415841299996
 21
653.25732514474998
  0
LINE
  8
_0-7_小物
  6
CONTINUOUS
 62
    7
 10
475.06397841299997
 20
632.04141514474998
 11
473.19453441300004
 21
630.17197114474993
  0
LINE
  8
_0-7_小物
  6
CONTINUOUS
 62
    7
 10
475.45415841299996
 20
653.25732514474998
 11
475.55882841300001
 21
651.26006614475
  0
LINE
  8
_0-7_小物
  6
CONTINUOUS
 62
    7
 10
475.55882841300001
 20
651.26006614475
 11
477.556087413
 21
651.36473914475005
  0
LINE
  8
_0-7_小物
  6
CONTINUOUS
 62
    7
 10
477.556087413
 20
651.36473914475005
 11
477.66076041300005
 21
649.36748014475006
  0
LINE
  8
_0-7_小物
  6
CONTINUOUS
 62
    7
 10
477.66076041300005
 20
649.36748014475006
 11
475.71583641299998
 21
648.26417914474996
  0
LINE
  8
_0-7_小物
  6
CONTINUOUS
 62
    7
 10
475.71583641299998
 20
648.26417914474996
 11
475.82050941299997
 21
646.26692014474997
  0
LINE
  8
_0-7_小物
  6
CONTINUOUS
 62
    7
 10
475.82050941299997
 20
646.26692014474997
 11
477.81776841299995
 21
646.37159014475003
  0
LINE
  8
_0-7_小物
  6
CONTINUOUS
 62
    7
 10
477.81776841299995
 20
646.37159014475003
 11
477.922441413
 21
644.37433114474993
  0
LINE
  8
_0-7_小物
  6
CONTINUOUS
 62
    7
 10
477.922441413
 20
644.37433114474993
 11
475.97751741299999
 21
643.27103014475006
  0
LINE
  8
_0-7_小物
  6
CONTINUOUS
 62
    7
 10
475.97751741299999
 20
643.27103014475006
 11
476.08218741299999
 21
641.27377114475007
  0
LINE
  8
_0-7_小物
  6
CONTINUOUS
 62
    7
 10
476.08218741299999
 20
641.27377114475007
 11
478.07944941299996
 21
641.37844414475012
  0
LINE
  8
_0-7_小物
  6
CONTINUOUS
 62
    7
 10
478.07944941299996
 20
641.37844414475012
 11
478.18411941299996
 21
639.38118514475013
  0
LINE
  8
_0-7_小物
  6
CONTINUOUS
 62
    7
 10
478.18411941299996
 20
639.38118514475013
 11
476.23919541299995
 21
638.27788414475003
  0
LINE
  8
_0-7_小物
  6
CONTINUOUS
 62
    7
 10
476.23919541299995
 20
638.27788414475003
 11
476.343868413
 21
636.28062514474993
  0
LINE
  8
_0-7_小物
  6
CONTINUOUS
 62
    7
 10
476.343868413
 20
636.28062514474993
 11
478.34112741299998
 21
636.38529514474999
  0
LINE
  8
_0-7_小物
  6
CONTINUOUS
 62
    7
 10
478.34112741299998
 20
636.38529514474999
 11
478.44580041299997
 21
634.38803614475
  0
LINE
  8
_0-7_小物
  6
CONTINUOUS
 62
    7
 10
478.44580041299997
 20
634.38803614475
 11
476.5008764129999
 21
633.28473514475002
  0
LINE
  8
_0-7_小物
  6
CONTINUOUS
 62
    7
 10
476.5008764129999
 20
633.28473514475002
 11
476.60554941299995
 21
631.28747614475003
  0
LINE
  8
_0-7_小物
  6
CONTINUOUS
 62
    7
 10
476.60554941299995
 20
631.28747614475003
 11
478.60280841299993
 21
631.39214914474996
  0
LINE
  8
_0-7_小物
  6
CONTINUOUS
 62
    7
 10
478.60280841299993
 20
631.39214914474996
 11
478.70747841299999
 21
629.39489014474998
  0
LINE
  8
_0-7_小物
  6
CONTINUOUS
 62
    7
 10
469.19453241299999
 20
654.17197114474993
 11
470.9349104129999
 21
653.25732514474998
  0
LINE
  8
_0-7_小物
  6
CONTINUOUS
 62
    7
 10
470.9349104129999
 20
653.25732514474998
 11
470.83023741299996
 21
651.26006614475
  0
LINE
  8
_0-7_小物
  6
CONTINUOUS
 62
    7
 10
470.83023741299996
 20
651.26006614475
 11
468.83297841299998
 21
651.36473914475005
  0
LINE
  8
_0-7_小物
  6
CONTINUOUS
 62
    7
 10
468.83297841299998
 20
651.36473914475005
 11
468.72830541300004
 21
649.36748014475006
  0
LINE
  8
_0-7_小物
  6
CONTINUOUS
 62
    7
 10
468.72830541300004
 20
649.36748014475006
 11
470.67322941299994
 21
648.26417914474996
  0
LINE
  8
_0-7_小物
  6
CONTINUOUS
 62
    7
 10
470.67322941299994
 20
648.26417914474996
 11
470.5685564129999
 21
646.26692014474997
  0
LINE
  8
_0-7_小物
  6
CONTINUOUS
 62
    7
 10
470.5685564129999
 20
646.26692014474997
 11
468.57129741299991
 21
646.37159014475003
  0
LINE
  8
_0-7_小物
  6
CONTINUOUS
 62
    7
 10
468.57129741299991
 20
646.37159014475003
 11
468.46662741299997
 21
644.37433114474993
  0
LINE
  8
_0-7_小物
  6
CONTINUOUS
 62
    7
 10
468.46662741299997
 20
644.37433114474993
 11
470.41154841299999
 21
643.27103014475006
  0
LINE
  8
_0-7_小物
  6
CONTINUOUS
 62
    7
 10
470.41154841299999
 20
643.27103014475006
 11
470.30687841299994
 21
641.27377114475007
  0
LINE
  8
_0-7_小物
  6
CONTINUOUS
 62
    7
 10
470.30687841299994
 20
641.27377114475007
 11
468.30961941299995
 21
641.37844414475012
  0
LINE
  8
_0-7_小物
  6
CONTINUOUS
 62
    7
 10
468.30961941299995
 20
641.37844414475012
 11
468.2049464129999
 21
639.38118514475013
  0
LINE
  8
_0-7_小物
  6
CONTINUOUS
 62
    7
 10
468.2049464129999
 20
639.38118514475013
 11
470.14987041299997
 21
638.27788414475003
  0
LINE
  8
_0-7_小物
  6
CONTINUOUS
 62
    7
 10
470.14987041299997
 20
638.27788414475003
 11
470.04519741299998
 21
636.28062514474993
  0
LINE
  8
_0-7_小物
  6
CONTINUOUS
 62
    7
 10
470.04519741299998
 20
636.28062514474993
 11
468.047938413
 21
636.38529514474999
  0
LINE
  8
_0-7_小物
  6
CONTINUOUS
 62
    7
 10
468.047938413
 20
636.38529514474999
 11
467.94326841299994
 21
634.38803614475
  0
LINE
  8
_0-7_小物
  6
CONTINUOUS
 62
    7
 10
467.94326841299994
 20
634.38803614475
 11
469.88818941299996
 21
633.28473514475002
  0
LINE
  8
_0-7_小物
  6
CONTINUOUS
 62
    7
 10
469.88818941299996
 20
633.28473514475002
 11
469.78351941299996
 21
631.28747614475003
  0
LINE
  8
_0-7_小物
  6
CONTINUOUS
 62
    7
 10
469.78351941299996
 20
631.28747614475003
 11
467.78626041299998
 21
631.39214914474996
  0
LINE
  8
_0-7_小物
  6
CONTINUOUS
 62
    7
 10
467.78626041299998
 20
631.39214914474996
 11
467.68158741299999
 21
629.39489014474998
  0
LINE
  8
_0-7_小物
  6
CONTINUOUS
 62
    7
 10
473.69453241299999
 20
658.17197014474993
 11
473.19453441300004
 21
658.17197014474993
  0
LINE
  8
_0-7_小物
  6
CONTINUOUS
 62
    7
 10
472.69453341299993
 20
658.17197014474993
 11
473.19453441300004
 21
658.17197014474993
  0
LINE
  8
_0-7_小物
  6
CONTINUOUS
 62
    7
 10
477.19453341299993
 20
666.17197114474993
 11
477.19453341299993
 21
658.17197014474993
  0
LINE
  8
_0-7_小物
  6
CONTINUOUS
 62
    7
 10
478.19453241299999
 20
666.17197114474993
 11
477.19453341299993
 21
661.17197014474993
  0
LINE
  8
_0-7_小物
  6
CONTINUOUS
 62
    7
 10
474.19453341299993
 20
666.17197114474993
 11
473.19453441300004
 21
661.17197014474993
  0
LINE
  8
_0-7_小物
  6
CONTINUOUS
 62
    7
 10
472.19453241299999
 20
666.17197114474993
 11
473.19453441300004
 21
661.17197014474993
  0
LINE
  8
_0-7_小物
  6
CONTINUOUS
 62
    7
 10
473.19453441300004
 20
661.17197014474993
 11
473.19453441300004
 21
666.17197114474993
  0
LINE
  8
_0-7_小物
  6
CONTINUOUS
 62
    7
 10
469.19453241299999
 20
666.17197114474993
 11
469.19453241299999
 21
658.17197014474993
  0
LINE
  8
_0-7_小物
  6
CONTINUOUS
 62
    7
 10
468.19453341299993
 20
666.17197114474993
 11
469.19453241299999
 21
661.17197014474993
  0
ARC
  8
_0-7_小物
  6
CONTINUOUS
 62
    7
 10
474.69729441299995
 20
670.54328614475003
 40
3
 50
2.458925999996
 51
51.385362000000001
  0
ARC
  8
_0-7_小物
  6
CONTINUOUS
 62
    7
 10
471.69177141299997
 20
670.54328614475003
 40
3
 50
128.61463800000001
 51
177.54107400000001
  0
LINE
  8
_0-7_小物
  6
CONTINUOUS
 62
    7
 10
473.19453441300004
 20
623.16038614474996
 11
473.19453441300004
 21
679.68747514475012
  0
ARC
  8
_0-7_小物
  6
CONTINUOUS
 62
    7
 10
473.19453441300004
 20
668.67199714475009
 40
5.4000000000000004
 50
51.148938000000001
 51
90
  0
ARC
  8
_0-7_小物
  6
CONTINUOUS
 62
    7
 10
473.19453441300004
 20
668.67199714475009
 40
5.4000000000000004
 50
90
 51
128.682187
  0
LINE
  8
_0-7_小物
  6
CONTINUOUS
 62
    7
 10
471.325090413
 20
632.04141514474998
 11
473.19453441300004
 21
630.17197114474993
  0
LINE
  8
_0-4_止水補助板
  6
CONTINUOUS
 62
    7
 10
493.19464941299998
 20
667.17197014474993
 11
437.43420741300002
 21
667.17197014474993
  0
LINE
  8
_0-4_止水補助板
  6
CONTINUOUS
 62
    7
 10
493.19464941299998
 20
667.17197014474993
 11
493.19464941299998
 21
666.17197114474993
  0
LINE
  8
_0-4_止水補助板
  6
CONTINUOUS
 62
    7
 10
427.64851641299992
 20
628.16168914474997
 11
438.19453341299993
 21
666.17197114474993
  0
LINE
  8
_0-4_止水補助板
  6
CONTINUOUS
 62
    7
 10
426.68491941299999
 20
628.42904014474993
 11
437.43420741300002
 21
667.17197014474993
  0
LINE
  8
_0-3_躯体
  6
CONTINUOUS
 62
    7
 10
438.19453341299993
 20
607.17197014475005
 11
438.19453341299993
 21
666.17197114474993
  0
LINE
  8
_0-3_躯体
  6
CONTINUOUS
 62
    7
 10
504.19465641299996
 20
666.17197114474993
 11
504.19474041299998
 21
656.17196914474994
  0
LINE
  8
_0-3_躯体
  6
CONTINUOUS
 62
    7
 10
504.19474041299998
 20
656.17196914474994
 11
438.19453341299993
 21
656.17196914474994
  0
LINE
  8
_0-3_躯体
  6
CONTINUOUS
 62
    7
 10
518.19453741300003
 20
666.17197114474993
 11
438.19453341299993
 21
666.17197114474993
  0
LINE
  8
_0-7_小物
  6
CONTINUOUS
 62
    7
 10
478.19453241299999
 20
666.17197114474993
 11
468.19453341299993
 21
666.17197114474993
  0
LINE
  8
_0-3_躯体
  6
HIDDEN
 62
    7
 10
518.19453741300003
 20
666.17197114474993
 11
518.19453741300003
 21
607.17197014475005
  0
LINE
  8
_0-3_躯体
  6
HIDDEN
 62
    7
 10
438.19453341299993
 20
607.17197014475005
 11
518.19453741300003
 21
607.17197014475005
  0
LINE
  8
_0-3_躯体
  6
HIDDEN
 62
    9
 10
518.19452541299995
 20
692.17195714474997
 11
518.19452541299995
 21
666.17197114474993
  0
LINE
  8
_0-3_躯体
  6
CONTINUOUS
 62
    7
 10
503.69572794520002
 20
692.17195714474997
 11
518.19452541299995
 21
677.67315967695004
  0
LINE
  8
_0-3_躯体
  6
CONTINUOUS
 62
    7
 10
507.93836863229996
 20
692.17195714474997
 11
518.19452541299995
 21
681.91580036405003
  0
LINE
  8
_0-3_躯体
  6
CONTINUOUS
 62
    7
 10
512.1810093194
 20
692.17195714474997
 11
518.19452541299995
 21
686.15844105115002
  0
LINE
  8
_0-3_躯体
  6
CONTINUOUS
 62
    7
 10
516.4236500065
 20
692.17195714474997
 11
518.19452541299995
 21
690.40108173825001
  0
LINE
  8
_0-7_小物
  6
CONTINUOUS
 62
    7
 10
476.73289701369998
 20
646.31473548074996
 11
478.57344141299995
 21
651.37159114475003
  0
LINE
  8
_0-7_小物
  6
CONTINUOUS
 62
    7
 10
469.65616881219995
 20
646.31473548074996
 11
467.81562441299991
 21
651.37159114475003
  0
ARC
  8
_0-5_フレ_ム
  6
CONTINUOUS
 62
    7
 10
502.89442941299995
 20
691.87200214475001
 40
0.2999999999999999
 50
0
 51
90
  0
ARC
  8
_0-5_フレ_ム
  6
CONTINUOUS
 62
    7
 10
501.99442941300003
 20
691.87200214475001
 40
0.2999999999999999
 50
90
 51
180
  0
LINE
  8
_0-5_フレ_ム
  6
CONTINUOUS
 62
    7
 10
502.89442941299995
 20
692.17200214474997
 11
501.99442941300003
 21
692.17200214474997
  0
ARC
  8
_0-5_フレ_ム
  6
CONTINUOUS
 62
    7
 10
496.69446441299999
 20
669.67196914474994
 40
0.500001
 50
270
 51
0
  0
LINE
  8
_0-5_フレ_ム
  6
CONTINUOUS
 62
    7
 10
473.494534413
 20
669.17199514474987
 11
496.69446441299999
 21
669.17197114474993
  0
LINE
  8
_0-5_フレ_ム
  6
CONTINUOUS
 62
    7
 10
499.19454441299996
 20
668.67200914475006
 11
499.19442441299998
 21
682.67199214474999
  0
ARC
  8
_0-5_フレ_ム
  6
CONTINUOUS
 62
    7
 10
497.69454441299996
 20
668.67199714475009
 40
1.5
 50
270
 51
0.0004740000008055
  0
LINE
  8
_0-5_フレ_ム
  6
CONTINUOUS
 62
    7
 10
473.19453441300004
 20
668.87199514475003
 11
472.89453441299997
 21
669.17199514474987
  0
LINE
  8
_0-5_フレ_ム
  6
CONTINUOUS
 62
    7
 10
473.19453441300004
 20
668.87199514475003
 11
473.494534413
 21
669.17199514474987
  0
LINE
  8
_0-5_フレ_ム
  6
CONTINUOUS
 62
    7
 10
426.19449741299997
 20
684.67200214474997
 11
426.19449141299998
 21
681.67200214474997
  0
LINE
  8
_0-5_フレ_ム
  6
CONTINUOUS
 62
    7
 10
423.19449741299997
 20
684.67200214474997
 11
423.19449741299997
 21
681.67200214474997
  0
ARC
  8
_0-5_フレ_ム
  6
CONTINUOUS
 62
    7
 10
424.69449141299998
 20
684.67200214474997
 40
1.499994
 50
0
 51
180
  0
LINE
  8
_0-5_フレ_ム
  6
CONTINUOUS
 62
    7
 10
426.19449141299998
 20
681.67200214474997
 11
425.69449041299993
 21
681.67200214474997
  0
LINE
  8
_0-5_フレ_ム
  6
CONTINUOUS
 62
    7
 10
423.19449741299997
 20
681.67200214474997
 11
423.69449841300002
 21
681.67200214474997
  0
LINE
  8
_0-5_フレ_ム
  6
CONTINUOUS
 62
    7
 10
472.89453441299997
 20
669.17199514474987
 11
426.19449141299998
 21
669.17199514474987
  0
ARC
  8
_0-5_フレ_ム
  6
CONTINUOUS
 62
    7
 10
426.19449141299998
 20
669.67199614474998
 40
0.500001
 50
180
 51
270
  0
LINE
  8
_0-5_フレ_ム
  6
CONTINUOUS
 62
    7
 10
425.69449041299993
 20
681.67200214474997
 11
425.69449041299993
 21
669.67199614474998
  0
ARC
  8
_0-5_フレ_ム
  6
CONTINUOUS
 62
    7
 10
424.69449741299997
 20
668.17199614474998
 40
0.9999989999999999
 50
180
 51
270
  0
LINE
  8
_0-5_フレ_ム
  6
CONTINUOUS
 62
    7
 10
423.69449841300002
 20
681.67200214474997
 11
423.69449841300002
 21
668.17199614474998
  0
ARC
  8
_0-5_フレ_ム
  6
CONTINUOUS
 62
    7
 10
496.19442741299997
 20
685.67198614475001
 40
0.9999989999999999
 50
0
 51
89.998850000000004
  0
LINE
  8
_0-5_フレ_ム
  6
CONTINUOUS
 62
    7
 10
497.19442641299997
 20
685.67198914474989
 11
497.19446541299999
 21
669.67197214474982
  0
ARC
  8
_0-5_フレ_ム
  6
CONTINUOUS
 62
    7
 10
499.69447041299998
 20
685.17204514474997
 40
0.500001
 50
180.00052500000001
 51
269.99812999997999
  0
LINE
  8
_0-5_フレ_ム
  6
CONTINUOUS
 62
    7
 10
499.69445541300001
 20
684.67204414475009
 11
501.19441341299989
 21
684.67199614474998
  0
ARC
  8
_0-5_フレ_ム
  6
CONTINUOUS
 62
    7
 10
499.69442241299998
 20
682.67199814474998
 40
0.500001
 50
90
 51
180.00049200000001
  0
LINE
  8
_0-5_フレ_ム
  6
CONTINUOUS
 62
    7
 10
502.19442741299997
 20
683.17199014475
 11
499.69442541299998
 21
683.17199614474998
  0
LINE
  8
_0-5_フレ_ム
  6
CONTINUOUS
 62
    7
 10
499.19447241299997
 20
685.17204214474987
 11
499.19443041299996
 21
689.67199414474999
  0
ARC
  8
_0-5_フレ_ム
  6
CONTINUOUS
 62
    7
 10
502.19443041299996
 20
684.17198914474989
 40
0.9999989999999999
 50
270
 51
0
  0
ARC
  8
_0-5_フレ_ム
  6
CONTINUOUS
 62
    7
 10
501.19443141299996
 20
685.17199714475009
 40
0.500001
 50
269.99812999997999
 51
0
  0
ARC
  8
_0-5_フレ_ム
  6
CONTINUOUS
 62
    7
 10
497.69433141299999
 20
689.67200014474997
 40
0.500001
 50
90
 51
180
  0
LINE
  8
_0-5_フレ_ム
  6
CONTINUOUS
 62
    7
 10
497.19433341299998
 20
689.17199614474998
 11
497.19433341299998
 21
689.67200014474997
  0
LINE
  8
_0-5_フレ_ム
  6
CONTINUOUS
 62
    7
 10
490.69443141299996
 20
689.17199614474998
 11
493.39443141300001
 21
689.17199614474998
  0
LINE
  8
_0-5_フレ_ム
  6
CONTINUOUS
 62
    7
 10
497.19433341299998
 20
689.17199614474998
 11
493.99443141299992
 21
689.17199614474998
  0
ARC
  8
_0-5_フレ_ム
  6
CONTINUOUS
 62
    7
 10
490.19443041299996
 20
689.67198814475
 40
0.500001
 50
0
 51
89.999151000020007
  0
LINE
  8
_0-5_フレ_ム
  6
CONTINUOUS
 62
    7
 10
490.69443141299996
 20
689.17199614474998
 11
490.69443141299996
 21
689.67198814475
  0
ARC
  8
_0-5_フレ_ム
  6
CONTINUOUS
 62
    7
 10
489.69438441299997
 20
689.67199414474999
 40
0.500001
 50
90
 51
180
  0
LINE
  8
_0-5_フレ_ム
  6
CONTINUOUS
 62
    7
 10
490.19443041299996
 20
690.17199514474987
 11
489.69438441299997
 21
690.17199514474987
  0
LINE
  8
_0-5_フレ_ム
  6
CONTINUOUS
 62
    7
 10
489.19444941300003
 20
688.67195314474998
 11
489.19438341299997
 21
689.67199414474999
  0
ARC
  8
_0-5_フレ_ム
  6
CONTINUOUS
 62
    7
 10
491.19445041299997
 20
688.67208814474998
 40
2.0000010000000001
 50
180.00384
 51
269.99885
  0
LINE
  8
_0-5_フレ_ム
  6
CONTINUOUS
 62
    7
 10
491.19441141300001
 20
686.67208714474998
 11
496.19444841299992
 21
686.67198814475
  0
LINE
  8
_0-5_フレ_ム
  6
CONTINUOUS
 62
    7
 10
493.69443141299996
 20
688.87199614475003
 11
493.99443141299992
 21
689.17199614474998
  0
LINE
  8
_0-5_フレ_ム
  6
CONTINUOUS
 62
    7
 10
493.69443141299996
 20
688.87199614475003
 11
493.39443141300001
 21
689.17199614474998
  0
ARC
  8
_0-5_フレ_ム
  6
CONTINUOUS
 62
    7
 10
498.69442641299997
 20
689.67200014474997
 40
0.500001
 50
0
 51
90
  0
ARC
  8
_0-5_フレ_ム
  6
CONTINUOUS
 62
    7
 10
498.69442941299997
 20
689.67200014474997
 40
0.500001
 50
0
 51
90
  0
LINE
  8
_0-5_フレ_ム
  6
CONTINUOUS
 62
    7
 10
421.69449441299997
 20
684.47199514475005
 11
421.69449441299997
 21
679.47199714474993
  0
LINE
  8
_0-5_フレ_ム
  6
CONTINUOUS
 62
    7
 10
421.69449441299997
 20
679.47199714474993
 11
423.19449441299997
 21
679.47199714474993
  0
LINE
  8
_0-5_フレ_ム
  6
CONTINUOUS
 62
    7
 10
426.19449441299997
 20
679.47199714474993
 11
427.69449441299997
 21
679.47199714474993
  0
LINE
  8
_0-5_フレ_ム
  6
CONTINUOUS
 62
    7
 10
427.69449441299997
 20
679.47199714474993
 11
427.69449441299997
 21
684.47199514475005
  0
ARC
  8
_0-5_フレ_ム
  6
CONTINUOUS
 62
    7
 10
424.69449441299997
 20
684.47199514475005
 40
1.7000010000000001
 50
0
 51
180
  0
ARC
  8
_0-5_フレ_ム
  6
CONTINUOUS
 62
    7
 10
424.69449441299997
 20
684.47199514475005
 40
3
 50
0
 51
180
  0
LINE
  8
_0-5_フレ_ム
  6
CONTINUOUS
 62
    7
 10
426.19448841299999
 20
681.47199514475005
 11
425.95064541300002
 21
681.47199514475005
  0
ARC
  8
_0-5_フレ_ム
  6
CONTINUOUS
 62
    7
 10
425.95064541300002
 20
681.27199714475
 40
0.200001
 50
90
 51
194.03640200000001
  0
LINE
  8
_0-5_フレ_ム
  6
CONTINUOUS
 62
    7
 10
426.19449441299997
 20
679.47199714474993
 11
425.75661741299996
 21
681.22348714475004
  0
LINE
  8
_0-5_フレ_ム
  6
CONTINUOUS
 62
    7
 10
423.19449441299997
 20
681.47199514475005
 11
423.43834041299993
 21
681.47199514475005
  0
ARC
  8
_0-5_フレ_ム
  6
CONTINUOUS
 62
    7
 10
423.43834041299993
 20
681.27199714475
 40
0.200001
 50
345.96380799999002
 51
90
  0
LINE
  8
_0-5_フレ_ム
  6
CONTINUOUS
 62
    7
 10
423.19449741299997
 20
679.47199714474993
 11
423.63236841299999
 21
681.22349014475003
  0
LINE
  8
_0-5_フレ_ム
  6
CONTINUOUS
 62
    7
 10
426.19448841299999
 20
681.47199514475005
 11
426.39448941299997
 21
681.47199514475005
  0
LINE
  8
_0-5_フレ_ム
  6
CONTINUOUS
 62
    7
 10
426.39448941299997
 20
681.47199514475005
 11
426.39449541299996
 21
684.47199514475005
  0
LINE
  8
_0-5_フレ_ム
  6
CONTINUOUS
 62
    7
 10
423.19449741299997
 20
681.47199514475005
 11
422.99449341299999
 21
681.47199514475005
  0
LINE
  8
_0-5_フレ_ム
  6
CONTINUOUS
 62
    7
 10
422.99449341299999
 20
681.47199514475005
 11
422.99449341299999
 21
684.47199514475005
  0
LINE
  8
_0-5_フレ_ム
  6
CONTINUOUS
 62
    7
 10
482.19453441300004
 20
669.17202214475003
 11
464.19453441300004
 21
669.17202214475003
  0
LINE
  8
_0-5_フレ_ム
  6
CONTINUOUS
 62
    7
 10
497.69454441299996
 20
667.17199714475009
 11
424.69449741299997
 21
667.17199714475009
  0
LINE
  8
_0-5_フレ_ム
  6
CONTINUOUS
 62
    7
 10
498.69442641299997
 20
690.17200114474986
 11
497.69433141299999
 21
690.17200114474986
  0
LINE
  8
_0-5_フレ_ム
  6
CONTINUOUS
 62
    7
 10
503.19442941299997
 20
684.17198914474989
 11
503.19442941299997
 21
691.87200214475001
  0
LINE
  8
_0-5_フレ_ム
  6
CONTINUOUS
 62
    7
 10
501.69442941299997
 20
691.87200214475001
 11
501.69442941299997
 21
685.17199714475009
  0
LINE
  8
_0-3_躯体
  6
CONTINUOUS
 62
    7
 10
494.75456244819998
 20
667.17199714475009
 11
495.75458844820002
 21
666.17197114474993
  0
LINE
  8
_0-3_躯体
  6
CONTINUOUS
 62
    7
 10
498.65193442819998
 20
667.51726585184997
 11
499.99722913529996
 21
666.17197114474993
  0
LINE
  8
_0-3_躯体
  6
CONTINUOUS
 62
    7
 10
499.19452259599996
 20
671.21731837114999
 11
504.23986982250005
 21
666.17197114474993
  0
LINE
  8
_0-3_躯体
  6
CONTINUOUS
 62
    7
 10
499.19448623009998
 20
675.45999542414995
 11
508.48251050959999
 21
666.17197114474993
  0
LINE
  8
_0-3_躯体
  6
CONTINUOUS
 62
    7
 10
499.1944498643
 20
679.70267247715003
 11
512.72515119669993
 21
666.17197114474993
  0
LINE
  8
_0-3_躯体
  6
CONTINUOUS
 62
    7
 10
499.96776753979998
 20
683.17199548874987
 11
516.96779188380003
 21
666.17197114474993
  0
LINE
  8
_0-3_躯体
  6
CONTINUOUS
 62
    7
 10
503.19442941299997
 20
684.18797430275004
 11
518.19452541299995
 21
669.18787830274994
  0
LINE
  8
_0-3_躯体
  6
CONTINUOUS
 62
    7
 10
503.19442941299997
 20
688.43061498985003
 11
518.19452541299995
 21
673.43051898985004
  0
LINE
  8
_0-9_寸法
  6
CONTINUOUS
 62
    7
 10
493.69443741300006
 20
676.67202314475003
 11
509.15603241300005
 21
649.89175214474994
  0
CIRCLE
  8
_0-9_寸法
  6
CONTINUOUS
 62
    7
 10
512.15603241300005
 20
644.69559914474996
 40
6
  0
CIRCLE
  8
_0-9_寸法
  6
CONTINUOUS
 62
    7
 10
493.69443741300006
 20
676.67202314475003
 40
0.5999999999999999
  0
TEXT
  8
_0-9_寸法
 62
    7
 10
509.75603241299996
 20
639.89559914475012
 40
9.5999999999999996
 41
1
 50
0
  1
5
  0
LINE
  8
_0-3_躯体
  6
CONTINUOUS
 62
    7
 10
273.194639413
 20
691.87197514474997
 11
273.194639413
 21
692.17195714474997
  0
LINE
  8
_0-3_躯体
  6
CONTINUOUS
 62
    7
 10
258.19454341300002
 20
692.17195714474997
 11
273.19465141299997
 21
692.17195714474997
  0
ARC
  8
_0-9_寸法
  6
HIDDEN
 62
    7
 10
388.19453441299999
 20
692.09883651885002
 40
1
 50
86.5
 51
93.500000000010004
  0
LINE
  8
_0-9_寸法
  6
CONTINUOUS
 62
    7
 10
273.194639413
 20
735.59660914475
 11
274.69465141299997
 21
735.59660914475
  0
LINE
  8
_0-9_寸法
  6
CONTINUOUS
 62
    7
 10
274.69465141299997
 20
693.37197514474997
 11
274.69465141299997
 21
738.59660914475
  0
LINE
  8
_0-9_寸法
  6
CONTINUOUS
 62
    7
 10
273.194639413
 20
735.59660914475
 11
270.194639413
 21
734.84660914475
  0
LINE
  8
_0-9_寸法
  6
CONTINUOUS
 62
    7
 10
273.194639413
 20
735.59660914475
 11
270.194639413
 21
736.34660914475
  0
LINE
  8
_0-9_寸法
  6
CONTINUOUS
 62
    7
 10
273.194639413
 20
735.59660914475
 11
264.194639413
 21
735.59660914475
  0
LINE
  8
_0-9_寸法
  6
CONTINUOUS
 62
    7
 10
274.69465141299997
 20
735.59660914475
 11
277.69465141299997
 21
736.34660914475
  0
LINE
  8
_0-9_寸法
  6
CONTINUOUS
 62
    7
 10
274.69465141299997
 20
735.59660914475
 11
277.69465141299997
 21
734.84660914475
  0
LINE
  8
_0-9_寸法
  6
CONTINUOUS
 62
    7
 10
273.194639413
 20
692.37197614475008
 11
273.194639413
 21
752.09825614474994
  0
LINE
  8
_0-9_寸法
  6
CONTINUOUS
 62
    7
 10
273.194639413
 20
749.09825614474994
 11
276.194639413
 21
749.84825614474994
  0
LINE
  8
_0-9_寸法
  6
CONTINUOUS
 62
    7
 10
273.194639413
 20
749.09825614474994
 11
276.194639413
 21
748.34825614474994
  0
TEXT
  8
_0-9_寸法
 62
    7
 10
252.944639413
 20
735.59660914475
 40
10.5
 41
1
 50
0
  1
1.5
  0
LINE
  8
_0-9_寸法
  6
CONTINUOUS
 62
    7
 10
419.69442941299991
 20
692.67232414474984
 11
419.69442941299991
 21
738.59660914475
  0
LINE
  8
_0-9_寸法
  6
CONTINUOUS
 62
    7
 10
501.69442041299999
 20
693.37197514474997
 11
501.69442041299999
 21
738.59660914475
  0
LINE
  8
_0-9_寸法
  6
CONTINUOUS
 62
    7
 10
501.69442041299999
 20
735.59660914475
 11
498.69442041299999
 21
734.84660914475
  0
LINE
  8
_0-9_寸法
  6
CONTINUOUS
 62
    7
 10
501.69442041299999
 20
735.59660914475
 11
498.69442041299999
 21
736.34660914475
  0
LINE
  8
_0-9_寸法
  6
CONTINUOUS
 62
    7
 10
501.69442041299999
 20
735.59660914475
 11
503.19442941299997
 21
735.59660914475
  0
LINE
  8
_0-9_寸法
  6
CONTINUOUS
 62
    7
 10
503.19442941299997
 20
735.59660914475
 11
506.19442941299997
 21
736.34660914475
  0
LINE
  8
_0-9_寸法
  6
CONTINUOUS
 62
    7
 10
503.19442941299997
 20
735.59660914475
 11
506.19442941299997
 21
734.84660914475
  0
LINE
  8
_0-9_寸法
  6
CONTINUOUS
 62
    7
 10
503.19442941299997
 20
735.59660914475
 11
512.19442941299997
 21
735.59660914475
  0
LINE
  8
_0-9_寸法
  6
CONTINUOUS
 62
    7
 10
503.19442941299997
 20
692.37197614475008
 11
503.19442941299997
 21
752.09825614474994
  0
LINE
  8
_0-9_寸法
  6
CONTINUOUS
 62
    7
 10
503.19442941299997
 20
749.09825614474994
 11
500.19442941299997
 21
748.34825614474994
  0
LINE
  8
_0-9_寸法
  6
CONTINUOUS
 62
    7
 10
503.19442941299997
 20
749.09825614474994
 11
500.19442941299997
 21
749.84825614474994
  0
TEXT
  8
_0-9_寸法
 62
    7
 10
507.69442941299997
 20
735.59660914475
 40
10.5
 41
1
 50
0
  1
1.5
  0
LINE
  8
_0-9_寸法
  6
CONTINUOUS
 62
    7
 10
274.69465141299997
 20
735.59660914475
 11
356.694639413
 21
735.59660914475
  0
LINE
  8
_0-9_寸法
  6
CONTINUOUS
 62
    7
 10
356.694639413
 20
735.59660914475
 11
419.69442941299991
 21
735.59660914475
  0
LINE
  8
_0-9_寸法
  6
CONTINUOUS
 62
    7
 10
419.69442941299991
 20
735.59660914475
 11
501.69442041299999
 21
735.59660914475
  0
LINE
  8
_0-3_躯体
  6
CONTINUOUS
 62
    7
 10
503.19442941299997
 20
691.87197514474997
 11
503.19442941299997
 21
692.17195714474997
  0
LINE
  8
_0-3_躯体
  6
CONTINUOUS
 62
    7
 10
518.19452541299995
 20
692.17195714474997
 11
503.194417413
 21
692.17195714474997
  0
TEXT
  8
_0-9_寸法
 62
    7
 10
310.44464541299999
 20
735.59660914475
 40
10.5
 41
1
 50
0
  1
82
  0
TEXT
  8
_0-9_寸法
 62
    7
 10
460.44453141300005
 20
735.59660914475
 40
10.5
 41
1
 50
0
  1
82
  0
TEXT
  8
_0-9_寸法
 62
    7
 10
382.94453441299999
 20
735.59660914475
 40
10.5
 41
1
 50
0
  1
63
  0
LINE
  8
_0-9_寸法
  6
CONTINUOUS
 62
    7
 10
356.694639413
 20
735.59660914475
 11
353.694639413
 21
734.84660914475
  0
LINE
  8
_0-9_寸法
  6
CONTINUOUS
 62
    7
 10
356.694639413
 20
735.59660914475
 11
353.694639413
 21
736.34660914475
  0
LINE
  8
_0-9_寸法
  6
CONTINUOUS
 62
    7
 10
356.694639413
 20
735.59660914475
 11
359.694639413
 21
736.34660914475
  0
LINE
  8
_0-9_寸法
  6
CONTINUOUS
 62
    7
 10
356.694639413
 20
735.59660914475
 11
359.694639413
 21
734.84660914475
  0
LINE
  8
_0-9_寸法
  6
CONTINUOUS
 62
    7
 10
419.69442941299991
 20
735.59660914475
 11
416.69442941299991
 21
734.84660914475
  0
LINE
  8
_0-9_寸法
  6
CONTINUOUS
 62
    7
 10
419.69442941299991
 20
735.59660914475
 11
416.69442941299991
 21
736.34660914475
  0
LINE
  8
_0-9_寸法
  6
CONTINUOUS
 62
    7
 10
419.69442941299991
 20
735.59660914475
 11
422.69442941299991
 21
736.34660914475
  0
LINE
  8
_0-9_寸法
  6
CONTINUOUS
 62
    7
 10
419.69442941299991
 20
735.59660914475
 11
422.69442941299991
 21
734.84660914475
  0
LINE
  8
_0-9_寸法
  6
CONTINUOUS
 62
    7
 10
273.194639413
 20
749.09825614474994
 11
503.19442941299997
 21
749.09825614474994
  0
LINE
  8
_0-9_寸法
  6
CONTINUOUS
 62
    7
 10
422.77658221889993
 20
618.13790095335003
 11
427.48284121889998
 21
609.98642095334992
  0
CIRCLE
  8
_0-9_寸法
  6
CONTINUOUS
 62
    7
 10
430.48284121889998
 20
604.79026795334994
 40
6
  0
CIRCLE
  8
_0-9_寸法
  6
CONTINUOUS
 62
    7
 10
422.77658221889993
 20
618.13790095335003
 40
0.5999999999999999
  0
TEXT
  8
_0-9_寸法
 62
    7
 10
428.08284121889994
 20
599.99026795334998
 40
9.5999999999999996
 41
1
 50
0
  1
4
  0
ARC
  8
_0-4_止水補助板
  6
CONTINUOUS
 62
    7
 10
388.1945397840999
 20
639.10826062005003
 40
39.944399781919998
 50
195.50675976709999
 51
269.99999036388999
  0
ARC
  8
_0-4_止水補助板
  6
CONTINUOUS
 62
    7
 10
388.19453591299998
 20
639.10826356655002
 40
40.944405058459999
 50
195.50676447180001
 51
269.99999730889999
  0
ARC
  8
_0-4_止水補助板
  6
CONTINUOUS
 62
    7
 10
388.19452904179997
 20
639.10826062005003
 40
39.944399781919998
 50
270.00000963611001
 51
344.49324023289
  0
ARC
  8
_0-4_止水補助板
  6
CONTINUOUS
 62
    7
 10
388.19453291299999
 20
639.10826356655002
 40
40.944405058459999
 50
270.00000269110001
 51
344.49323552815997
  0
LINE
  8
_0-9_寸法
  6
CONTINUOUS
 62
    7
 10
356.694639413
 20
692.67232414474984
 11
356.694639413
 21
738.59660914475
  0
LINE
  8
_0-9_寸法
  6
CONTINUOUS
 62
    7
 10
419.69442641299992
 20
692.67232414474984
 11
419.69442641299992
 21
738.59660914475
  0
LINE
  8
_0-9_寸法
  6
CONTINUOUS
 62
    7
 10
1055.3220726197999
 20
746.87196814474987
 11
1055.3220726197999
 21
760.71194914474995
  0
LINE
  8
_0-9_寸法
  6
CONTINUOUS
 62
    7
 10
1055.3220726197999
 20
757.71194914474995
 11
1075.32207062
 21
757.71194914474995
  0
LINE
  8
_0-9_寸法
  6
CONTINUOUS
 62
    7
 10
1055.3220726197999
 20
757.71194914474995
 11
1058.3220726200002
 21
758.46194914474995
  0
LINE
  8
_0-9_寸法
  6
CONTINUOUS
 62
    7
 10
1055.3220726197999
 20
757.71194914474995
 11
1058.3220726200002
 21
756.96194914474995
  0
LINE
  8
_0-9_寸法
  6
CONTINUOUS
 62
    7
 10
1075.32207062
 20
757.71194914474995
 11
1072.32207062
 21
756.96194914474995
  0
LINE
  8
_0-9_寸法
  6
CONTINUOUS
 62
    7
 10
1075.32207062
 20
757.71194914474995
 11
1072.32207062
 21
758.46194914474995
  0
LINE
  8
_0-9_寸法
  6
CONTINUOUS
 62
    7
 10
1075.32207062
 20
756.56158714474986
 11
1075.32207062
 21
774.78550114475001
  0
LINE
  8
_0-9_寸法
  6
CONTINUOUS
 62
    7
 10
1075.32207062
 20
771.78550114475001
 11
1072.32207062
 21
771.03550114475001
  0
LINE
  8
_0-9_寸法
  6
CONTINUOUS
 62
    7
 10
1075.32207062
 20
771.78550114475001
 11
1072.32207062
 21
772.53550114475001
  0
LINE
  8
_0-3_躯体
  6
HIDDEN
 62
    9
 10
1075.3220716199999
 20
757.57197014475014
 11
1125.3220716199999
 21
757.57197014475014
  0
LINE
  8
_0-3_躯体
  6
HIDDEN
 62
    9
 10
1075.3220716199999
 20
607.17197014475005
 11
1125.3220716199999
 21
607.17197014475005
  0
LINE
  8
_0-3_躯体
  6
HIDDEN
 62
    9
 10
1125.3220716199999
 20
757.57197014475014
 11
1125.3220716199999
 21
607.17197014475005
  0
LINE
  8
_0-3_躯体
  6
CONTINUOUS
 62
    7
 10
1075.3220716199999
 20
757.57197014475014
 11
1075.3220716199999
 21
607.17197014475005
  0
TEXT
  8
_0-9_寸法
 62
    7
 10
1060.0720716199999
 20
757.71194914474995
 40
10.5
 41
1
 50
0
  1
20
  0
LINE
  8
_0-9_寸法
  6
CONTINUOUS
 62
    7
 10
1140.3220716199999
 20
667.17197014474993
 11
1139.5720716199999
 21
670.17197014474993
  0
LINE
  8
_0-9_寸法
  6
CONTINUOUS
 62
    7
 10
1140.3220716199999
 20
667.17197014474993
 11
1141.0720716199999
 21
670.17197014474993
  0
LINE
  8
_0-9_寸法
  6
CONTINUOUS
 62
    7
 10
1075.32207062
 20
592.17197014475005
 11
1072.32207062
 21
591.42197014475005
  0
LINE
  8
_0-9_寸法
  6
CONTINUOUS
 62
    7
 10
1075.32207062
 20
592.17197014475005
 11
1072.32207062
 21
592.92197014475005
  0
LINE
  8
_0-9_寸法
  6
CONTINUOUS
 62
    7
 10
1075.32207062
 20
607.17197014475005
 11
1075.32207062
 21
591.17197114474993
  0
LINE
  8
_0-9_寸法
  6
CONTINUOUS
 62
    7
 10
915.32206661980001
 20
757.71194914474995
 11
916.82207561979999
 21
757.71194914474995
  0
LINE
  8
_0-9_寸法
  6
CONTINUOUS
 62
    7
 10
916.82207561979999
 20
694.37197414474986
 11
916.82207561979999
 21
760.71194914474995
  0
LINE
  8
_0-9_寸法
  6
CONTINUOUS
 62
    7
 10
915.32206661980001
 20
757.71194914474995
 11
912.32206661980001
 21
756.96194914474995
  0
LINE
  8
_0-9_寸法
  6
CONTINUOUS
 62
    7
 10
915.32206661980001
 20
757.71194914474995
 11
912.32206661980001
 21
758.46194914474995
  0
LINE
  8
_0-9_寸法
  6
CONTINUOUS
 62
    7
 10
916.82207561979999
 20
757.71194914474995
 11
919.82207561979999
 21
758.46194914474995
  0
LINE
  8
_0-9_寸法
  6
CONTINUOUS
 62
    7
 10
916.82207561979999
 20
757.71194914474995
 11
919.82207561979999
 21
756.96194914474995
  0
LINE
  8
_0-9_寸法
  6
CONTINUOUS
 62
    7
 10
940.3220716198
 20
673.37898514475
 11
923.69248361979999
 21
644.57569414475006
  0
CIRCLE
  8
_0-9_寸法
  6
CONTINUOUS
 62
    7
 10
920.69248361979999
 20
639.37954114474996
 40
6
  0
CIRCLE
  8
_0-9_寸法
  6
CONTINUOUS
 62
    7
 10
940.3220716198
 20
673.37898514475
 40
0.5999999999999999
  0
LINE
  8
_0-9_寸法
  6
CONTINUOUS
 62
    7
 10
946.99039361979999
 20
670.98959614474984
 11
958.72394861980001
 21
650.66648614475002
  0
CIRCLE
  8
_0-9_寸法
  6
CONTINUOUS
 62
    7
 10
961.72394861980001
 20
645.47033314474993
 40
6
  0
CIRCLE
  8
_0-9_寸法
  6
CONTINUOUS
 62
    7
 10
946.99039361979999
 20
670.98959614474984
 40
0.5999999999999999
  0
LINE
  8
_0-9_寸法
  6
CONTINUOUS
 62
    7
 10
975.3220726198
 20
608.17196914474994
 11
975.3220726198
 21
667.17197014474993
  0
LINE
  8
_0-9_寸法
  6
CONTINUOUS
 62
    7
 10
915.32206661980001
 20
693.67195714474997
 11
915.32206661980001
 21
774.78550114475001
  0
LINE
  8
_0-9_寸法
  6
CONTINUOUS
 62
    7
 10
915.32206661980001
 20
771.78550114475001
 11
918.32206661980001
 21
772.53550114475001
  0
LINE
  8
_0-9_寸法
  6
CONTINUOUS
 62
    7
 10
915.32206661980001
 20
771.78550114475001
 11
918.32206661980001
 21
771.03550114475001
  0
LINE
  8
_0-9_寸法
  6
CONTINUOUS
 62
    7
 10
894.82207961979998
 20
693.17195614475008
 11
885.45201761980002
 21
693.17195614475008
  0
LINE
  8
_0-9_寸法
  6
CONTINUOUS
 62
    7
 10
886.45201661979991
 20
693.17195614475008
 11
885.70201661979991
 21
696.17195614475008
  0
LINE
  8
_0-9_寸法
  6
CONTINUOUS
 62
    7
 10
886.45201661979991
 20
693.17195614475008
 11
887.20201661979991
 21
696.17195614475008
  0
LINE
  8
_0-9_寸法
  6
CONTINUOUS
 62
    7
 10
886.45201661979991
 20
693.17195614475008
 11
886.45201661979991
 21
667.17197014474993
  0
LINE
  8
_0-9_寸法
  6
CONTINUOUS
 62
    7
 10
894.82206761980001
 20
667.17197014474993
 11
885.45201761980002
 21
667.17197014474993
  0
LINE
  8
_0-9_寸法
  6
CONTINUOUS
 62
    7
 10
886.45201661979991
 20
693.17195614475008
 11
887.20201661979991
 21
690.17195614475008
  0
LINE
  8
_0-9_寸法
  6
CONTINUOUS
 62
    7
 10
886.45201661979991
 20
693.17195614475008
 11
885.70201661979991
 21
690.17195614475008
  0
LINE
  8
_0-9_寸法
  6
CONTINUOUS
 62
    7
 10
886.45201661979991
 20
667.17197014474993
 11
885.70201661979991
 21
670.17197014474993
  0
LINE
  8
_0-9_寸法
  6
CONTINUOUS
 62
    7
 10
886.45201661979991
 20
667.17197014474993
 11
887.20201661979991
 21
670.17197014474993
  0
LINE
  8
_0-9_寸法
  6
CONTINUOUS
 62
    7
 10
886.45201661979991
 20
667.17197014474993
 11
886.45201661979991
 21
657.17196814475005
  0
LINE
  8
_0-9_寸法
  6
CONTINUOUS
 62
    7
 10
908.82186461979995
 20
657.17196814475005
 11
885.45201761980002
 21
657.17196814475005
  0
LINE
  8
_0-9_寸法
  6
CONTINUOUS
 62
    7
 10
886.45201661979991
 20
667.17197014474993
 11
887.20201661979991
 21
664.17197014474993
  0
LINE
  8
_0-9_寸法
  6
CONTINUOUS
 62
    7
 10
886.45201661979991
 20
667.17197014474993
 11
885.70201661979991
 21
664.17197014474993
  0
LINE
  8
_0-9_寸法
  6
CONTINUOUS
 62
    7
 10
886.45201661979991
 20
657.17196814475005
 11
885.70201661979991
 21
660.17196814475005
  0
LINE
  8
_0-9_寸法
  6
CONTINUOUS
 62
    7
 10
886.45201661979991
 20
657.17196814475005
 11
887.20201661979991
 21
660.17196814475005
  0
LINE
  8
_0-3_躯体
  6
CONTINUOUS
 62
    7
 10
909.32194661979997
 20
667.17197014474993
 11
909.32186561980006
 21
657.17196814475005
  0
LINE
  8
_0-3_躯体
  6
CONTINUOUS
 62
    7
 10
909.32186561980006
 20
657.17196814475005
 11
975.3220726198
 21
657.17196814475005
  0
LINE
  8
_0-3_躯体
  6
CONTINUOUS
 62
    7
 10
975.3220726198
 20
667.17197014474993
 11
895.32206561980001
 21
667.17197014474993
  0
LINE
  8
_0-4_止水補助板
  6
CONTINUOUS
 62
    7
 10
920.32195361980007
 20
668.17196914474994
 11
976.09686761979992
 21
668.17196914474994
  0
LINE
  8
_0-4_止水補助板
  6
CONTINUOUS
 62
    7
 10
986.41340861980007
 20
628.17487414474999
 11
976.09686761979992
 21
668.17196914474994
  0
LINE
  8
_0-7_小物
  6
CONTINUOUS
 62
    7
 10
935.32207061980012
 20
667.17197014474993
 11
945.3220726198
 21
667.17197014474993
  0
LINE
  8
_0-7_小物
  6
CONTINUOUS
 62
    7
 10
931.3220716198
 20
671.67199414474999
 11
931.3220716198
 21
670.17199414474999
  0
LINE
  8
_0-7_小物
  6
CONTINUOUS
 62
    7
 10
931.3220716198
 20
671.67199414474999
 11
949.3220716198
 21
671.67199414474999
  0
LINE
  8
_0-7_小物
  6
CONTINUOUS
 62
    7
 10
949.3220716198
 20
671.67199414474999
 11
949.3220716198
 21
670.17199414474999
  0
LINE
  8
_0-7_小物
  6
CONTINUOUS
 62
    7
 10
946.64067161979995
 20
652.02956914474998
 11
947.63302661979992
 21
658.83319114475
  0
ARC
  8
_0-7_小物
  6
CONTINUOUS
 62
    7
 10
947.23721561979994
 20
658.8909231447501
 40
0.3999989999999999
 50
351.70153399993899
 51
81.86989800005
  0
LINE
  8
_0-7_小物
  6
CONTINUOUS
 62
    7
 10
947.29378361980002
 20
659.28690514474988
 11
947.09695961980003
 21
659.31502114474984
  0
ARC
  8
_0-7_小物
  6
CONTINUOUS
 62
    7
 10
947.04039161979995
 20
658.91904214474994
 40
0.3999989999999999
 50
81.86989800005
 51
171.86989800000001
  0
LINE
  8
_0-7_小物
  6
CONTINUOUS
 62
    7
 10
946.64440961979994
 20
658.97561014475014
 11
945.70097861980003
 21
652.37159014475003
  0
LINE
  8
_0-7_小物
  6
CONTINUOUS
 62
    7
 10
946.64067161979995
 20
652.02956914474998
 11
947.63302661979992
 21
658.83319114475
  0
ARC
  8
_0-7_小物
  6
CONTINUOUS
 62
    7
 10
947.23721561979994
 20
658.8909231447501
 40
0.3999989999999999
 50
351.70153399993899
 51
81.86989800005
  0
LINE
  8
_0-7_小物
  6
CONTINUOUS
 62
    7
 10
947.29378361980002
 20
659.28690514474988
 11
947.09695961980003
 21
659.31502114474984
  0
ARC
  8
_0-7_小物
  6
CONTINUOUS
 62
    7
 10
947.04039161979995
 20
658.91904214474994
 40
0.3999989999999999
 50
81.86989800005
 51
171.86989800000001
  0
LINE
  8
_0-7_小物
  6
CONTINUOUS
 62
    7
 10
946.64440961979994
 20
658.97561014475014
 11
945.70097861980003
 21
652.37159014475003
  0
LINE
  8
_0-7_小物
  6
CONTINUOUS
 62
    7
 10
934.00347161979994
 20
652.02956914474998
 11
933.01111661979996
 21
658.83319114475
  0
ARC
  8
_0-7_小物
  6
CONTINUOUS
 62
    7
 10
933.40692761979994
 20
658.8909231447501
 40
0.3999989999999999
 50
98.130102000009998
 51
188.29846599999999
  0
LINE
  8
_0-7_小物
  6
CONTINUOUS
 62
    7
 10
933.35035961979997
 20
659.28690514474988
 11
933.54718361980008
 21
659.31502114474984
  0
ARC
  8
_0-7_小物
  6
CONTINUOUS
 62
    7
 10
933.60375161979994
 20
658.91904214474994
 40
0.3999989999999999
 50
8.1301019999819992
 51
98.130102000009998
  0
LINE
  8
_0-7_小物
  6
CONTINUOUS
 62
    7
 10
933.99973061979995
 20
658.97561014475014
 11
934.94316161980009
 21
652.37159014475003
  0
LINE
  8
_0-7_小物
  6
CONTINUOUS
 62
    7
 10
936.3220726198
 20
655.17197014474993
 11
936.3220726198
 21
659.17196914474994
  0
LINE
  8
_0-7_小物
  6
CONTINUOUS
 62
    7
 10
938.3043286198
 20
630.21171214474998
 11
934.80912461979995
 21
630.39488914474998
  0
LINE
  8
_0-7_小物
  6
CONTINUOUS
 62
    7
 10
934.80912461979995
 20
630.39488914474998
 11
936.7017136198001
 21
628.29295714474995
  0
LINE
  8
_0-7_小物
  6
CONTINUOUS
 62
    7
 10
936.7017136198001
 20
628.29295714474995
 11
938.19965561979996
 21
628.21445314475
  0
LINE
  8
_0-7_小物
  6
CONTINUOUS
 62
    7
 10
938.19965561979996
 20
628.21445314475
 11
939.82207061980012
 21
659.17196914474994
  0
LINE
  8
_0-7_小物
  6
CONTINUOUS
 62
    7
 10
944.32207061980012
 20
655.17197014474993
 11
944.32207061980012
 21
659.17196914474994
  0
LINE
  8
_0-7_小物
  6
CONTINUOUS
 62
    7
 10
942.33981461980011
 20
630.21171214474998
 11
945.83501861979994
 21
630.39488914474998
  0
LINE
  8
_0-7_小物
  6
CONTINUOUS
 62
    7
 10
945.83501861979994
 20
630.39488914474998
 11
943.94242961980001
 21
628.29295714474995
  0
LINE
  8
_0-7_小物
  6
CONTINUOUS
 62
    7
 10
943.94242961980001
 20
628.29295714474995
 11
942.44448461979994
 21
628.21445314475
  0
LINE
  8
_0-7_小物
  6
CONTINUOUS
 62
    7
 10
942.44448461979994
 20
628.21445314475
 11
940.8220726198
 21
659.17196914474994
  0
LINE
  8
_0-7_小物
  6
CONTINUOUS
 62
    7
 10
936.76301561979994
 20
647.37158914475003
 11
934.94316161980009
 21
652.37159014475003
  0
LINE
  8
_0-7_小物
  6
CONTINUOUS
 62
    7
 10
935.69883761980009
 20
647.37158914475003
 11
934.00347161979994
 21
652.02956914474998
  0
LINE
  8
_0-7_小物
  6
CONTINUOUS
 62
    7
 10
943.88112761979994
 20
647.37158914475003
 11
945.70097861980003
 21
652.37159014475003
  0
LINE
  8
_0-7_小物
  6
CONTINUOUS
 62
    7
 10
944.94530561980002
 20
647.37158914475003
 11
946.64067161979995
 21
652.02956914474998
  0
LINE
  8
_0-7_小物
  6
CONTINUOUS
 62
    7
 10
936.3220726198
 20
655.17197014474993
 11
938.06244761979997
 21
654.2573241447501
  0
LINE
  8
_0-7_小物
  6
CONTINUOUS
 62
    7
 10
938.45262761979984
 20
633.04141414474998
 11
940.3220716198
 21
631.17197014474993
  0
LINE
  8
_0-7_小物
  6
CONTINUOUS
 62
    7
 10
938.06244761979997
 20
654.2573241447501
 11
937.95777461979992
 21
652.26006514475011
  0
LINE
  8
_0-7_小物
  6
CONTINUOUS
 62
    7
 10
937.95777461979992
 20
652.26006514475011
 11
935.96051561979993
 21
652.36473814474994
  0
LINE
  8
_0-7_小物
  6
CONTINUOUS
 62
    7
 10
935.96051561979993
 20
652.36473814474994
 11
935.85584561979999
 21
650.36747914474995
  0
LINE
  8
_0-7_小物
  6
CONTINUOUS
 62
    7
 10
935.85584561979999
 20
650.36747914474995
 11
937.80076661980002
 21
649.26417814474985
  0
LINE
  8
_0-7_小物
  6
CONTINUOUS
 62
    7
 10
937.80076661980002
 20
649.26417814474985
 11
937.69609661980007
 21
647.26691914474986
  0
LINE
  8
_0-7_小物
  6
CONTINUOUS
 62
    7
 10
937.69609661980007
 20
647.26691914474986
 11
935.69883761980009
 21
647.37158914475003
  0
LINE
  8
_0-7_小物
  6
CONTINUOUS
 62
    7
 10
935.69883761980009
 20
647.37158914475003
 11
935.59416461980004
 21
645.37433014475005
  0
LINE
  8
_0-7_小物
  6
CONTINUOUS
 62
    7
 10
935.59416461980004
 20
645.37433014475005
 11
937.53908861979994
 21
644.27102914474995
  0
LINE
  8
_0-7_小物
  6
CONTINUOUS
 62
    7
 10
937.53908861979994
 20
644.27102914474995
 11
937.43441561980012
 21
642.27377014474996
  0
LINE
  8
_0-7_小物
  6
CONTINUOUS
 62
    7
 10
937.43441561980012
 20
642.27377014474996
 11
935.43715661980013
 21
642.37844314475001
  0
LINE
  8
_0-7_小物
  6
CONTINUOUS
 62
    7
 10
935.43715661980013
 20
642.37844314475001
 11
935.33248361980009
 21
640.38118414475002
  0
LINE
  8
_0-7_小物
  6
CONTINUOUS
 62
    7
 10
935.33248361980009
 20
640.38118414475002
 11
937.27740761979999
 21
639.27788314474992
  0
LINE
  8
_0-7_小物
  6
CONTINUOUS
 62
    7
 10
937.27740761979999
 20
639.27788314474992
 11
937.17273461979994
 21
637.28062414474994
  0
LINE
  8
_0-7_小物
  6
CONTINUOUS
 62
    7
 10
937.17273461979994
 20
637.28062414474994
 11
935.17547561979995
 21
637.38529414474999
  0
LINE
  8
_0-7_小物
  6
CONTINUOUS
 62
    7
 10
935.17547561979995
 20
637.38529414474999
 11
935.07080561980001
 21
635.38803514475001
  0
LINE
  8
_0-7_小物
  6
CONTINUOUS
 62
    7
 10
935.07080561980001
 20
635.38803514475001
 11
937.01572661979981
 21
634.28473414475002
  0
LINE
  8
_0-7_小物
  6
CONTINUOUS
 62
    7
 10
937.01572661979981
 20
634.28473414475002
 11
936.91105661979998
 21
632.28747514475003
  0
LINE
  8
_0-7_小物
  6
CONTINUOUS
 62
    7
 10
936.91105661979998
 20
632.28747514475003
 11
934.91379761979999
 21
632.39214814474997
  0
LINE
  8
_0-7_小物
  6
CONTINUOUS
 62
    7
 10
934.91379761979999
 20
632.39214814474997
 11
934.80912461979995
 21
630.39488914474998
  0
LINE
  8
_0-7_小物
  6
CONTINUOUS
 62
    7
 10
944.32207061980012
 20
655.17197014474993
 11
942.58169561980003
 21
654.2573241447501
  0
LINE
  8
_0-7_小物
  6
CONTINUOUS
 62
    7
 10
942.58169561980003
 20
654.2573241447501
 11
942.68636861979985
 21
652.26006514475011
  0
LINE
  8
_0-7_小物
  6
CONTINUOUS
 62
    7
 10
942.68636861979985
 20
652.26006514475011
 11
944.68362761979984
 21
652.36473814474994
  0
LINE
  8
_0-7_小物
  6
CONTINUOUS
 62
    7
 10
944.68362761979984
 20
652.36473814474994
 11
944.78829761980001
 21
650.36747914474995
  0
LINE
  8
_0-7_小物
  6
CONTINUOUS
 62
    7
 10
944.78829761980001
 20
650.36747914474995
 11
942.84337361979999
 21
649.26417814474985
  0
LINE
  8
_0-7_小物
  6
CONTINUOUS
 62
    7
 10
942.84337361979999
 20
649.26417814474985
 11
942.94804661979992
 21
647.26691914474986
  0
LINE
  8
_0-7_小物
  6
CONTINUOUS
 62
    7
 10
942.94804661979992
 20
647.26691914474986
 11
944.94530561980002
 21
647.37158914475003
  0
LINE
  8
_0-7_小物
  6
CONTINUOUS
 62
    7
 10
944.94530561980002
 20
647.37158914475003
 11
945.04997861979996
 21
645.37433014475005
  0
LINE
  8
_0-7_小物
  6
CONTINUOUS
 62
    7
 10
945.04997861979996
 20
645.37433014475005
 11
943.10505461979994
 21
644.27102914474995
  0
LINE
  8
_0-7_小物
  6
CONTINUOUS
 62
    7
 10
943.10505461979994
 20
644.27102914474995
 11
943.20972761979999
 21
642.27377014474996
  0
LINE
  8
_0-7_小物
  6
CONTINUOUS
 62
    7
 10
943.20972761979999
 20
642.27377014474996
 11
945.20698661979998
 21
642.37844314475001
  0
LINE
  8
_0-7_小物
  6
CONTINUOUS
 62
    7
 10
945.20698661979998
 20
642.37844314475001
 11
945.31165661980003
 21
640.38118414475002
  0
LINE
  8
_0-7_小物
  6
CONTINUOUS
 62
    7
 10
945.31165661980003
 20
640.38118414475002
 11
943.36673561980001
 21
639.27788314474992
  0
LINE
  8
_0-7_小物
  6
CONTINUOUS
 62
    7
 10
943.36673561980001
 20
639.27788314474992
 11
943.47140561979995
 21
637.28062414474994
  0
LINE
  8
_0-7_小物
  6
CONTINUOUS
 62
    7
 10
943.47140561979995
 20
637.28062414474994
 11
945.46866461979994
 21
637.38529414474999
  0
LINE
  8
_0-7_小物
  6
CONTINUOUS
 62
    7
 10
945.46866461979994
 20
637.38529414474999
 11
945.57333761979999
 21
635.38803514475001
  0
LINE
  8
_0-7_小物
  6
CONTINUOUS
 62
    7
 10
945.57333761979999
 20
635.38803514475001
 11
943.62841361980009
 21
634.28473414475002
  0
LINE
  8
_0-7_小物
  6
CONTINUOUS
 62
    7
 10
943.62841361980009
 20
634.28473414475002
 11
943.73308661980013
 21
632.28747514475003
  0
LINE
  8
_0-7_小物
  6
CONTINUOUS
 62
    7
 10
943.73308661980013
 20
632.28747514475003
 11
945.73034561980012
 21
632.39214814474997
  0
LINE
  8
_0-7_小物
  6
CONTINUOUS
 62
    7
 10
945.73034561980012
 20
632.39214814474997
 11
945.83501861979994
 21
630.39488914474998
  0
LINE
  8
_0-7_小物
  6
CONTINUOUS
 62
    7
 10
939.82207061980012
 20
659.17196914474994
 11
940.3220716198
 21
659.17196914474994
  0
LINE
  8
_0-7_小物
  6
CONTINUOUS
 62
    7
 10
940.8220726198
 20
659.17196914474994
 11
940.3220716198
 21
659.17196914474994
  0
LINE
  8
_0-7_小物
  6
CONTINUOUS
 62
    7
 10
936.3220726198
 20
667.17197014474993
 11
936.3220726198
 21
659.17196914474994
  0
LINE
  8
_0-7_小物
  6
CONTINUOUS
 62
    7
 10
935.32207061980012
 20
667.17197014474993
 11
936.3220726198
 21
662.17196914474994
  0
LINE
  8
_0-7_小物
  6
CONTINUOUS
 62
    7
 10
939.3220726198
 20
667.17197014474993
 11
940.3220716198
 21
662.17196914474994
  0
LINE
  8
_0-7_小物
  6
CONTINUOUS
 62
    7
 10
941.32207061980012
 20
667.17197014474993
 11
940.3220716198
 21
662.17196914474994
  0
LINE
  8
_0-7_小物
  6
CONTINUOUS
 62
    7
 10
940.3220716198
 20
662.17196914474994
 11
940.3220716198
 21
667.17197014474993
  0
LINE
  8
_0-7_小物
  6
CONTINUOUS
 62
    7
 10
944.32207061980012
 20
667.17197014474993
 11
944.32207061980012
 21
659.17196914474994
  0
LINE
  8
_0-7_小物
  6
CONTINUOUS
 62
    7
 10
945.3220726198
 20
667.17197014474993
 11
944.32207061980012
 21
662.17196914474994
  0
ARC
  8
_0-7_小物
  6
CONTINUOUS
 62
    7
 10
938.81930861979993
 20
671.54328514474992
 40
3
 50
128.61463800000001
 51
177.54107400000001
  0
ARC
  8
_0-7_小物
  6
CONTINUOUS
 62
    7
 10
941.82483461979996
 20
671.54328514474992
 40
3
 50
2.458925999996
 51
51.385362000000001
  0
LINE
  8
_0-7_小物
  6
CONTINUOUS
 62
    7
 10
940.3220716198
 20
623.16038614474996
 11
940.3220716198
 21
680.68747414475001
  0
ARC
  8
_0-7_小物
  6
CONTINUOUS
 62
    7
 10
940.3220716198
 20
669.67199614474998
 40
5.4000000000000004
 50
90
 51
128.85106200000001
  0
ARC
  8
_0-7_小物
  6
CONTINUOUS
 62
    7
 10
940.3220716198
 20
669.67199614474998
 40
5.4000000000000004
 50
51.317813000000001
 51
90
  0
LINE
  8
_0-7_小物
  6
CONTINUOUS
 62
    7
 10
942.19151561979993
 20
633.04141414474998
 11
940.3220716198
 21
631.17197014474993
  0
LINE
  8
_0-3_躯体
  6
HIDDEN
 62
    7
 10
895.32207761979998
 20
693.17195614475008
 11
895.32207761979998
 21
667.17197014474993
  0
LINE
  8
_0-3_躯体
  6
CONTINUOUS
 62
    7
 10
975.3220726198
 20
667.17197014474993
 11
975.3220726198
 21
607.17197014475005
  0
LINE
  8
_0-3_躯体
  6
HIDDEN
 62
    7
 10
895.32207761979998
 20
667.17197014474993
 11
895.32207761979998
 21
607.17197014475005
  0
LINE
  8
_0-3_躯体
  6
HIDDEN
 62
    7
 10
895.32207761979998
 20
607.17197014475005
 11
975.3220726198
 21
607.17197014475005
  0
LINE
  8
_0-3_躯体
  6
CONTINUOUS
 62
    7
 10
975.3220726198
 20
660.47313660825012
 11
972.02090415629993
 21
657.17196814475005
  0
LINE
  8
_0-3_躯体
  6
CONTINUOUS
 62
    7
 10
975.3220726198
 20
664.71577729534988
 11
967.77826346910001
 21
657.17196814475005
  0
LINE
  8
_0-3_躯体
  6
CONTINUOUS
 62
    7
 10
973.53562478200001
 20
667.17197014474993
 11
963.53562278200002
 21
657.17196814475005
  0
LINE
  8
_0-3_躯体
  6
CONTINUOUS
 62
    7
 10
969.29298409490002
 20
667.17197014474993
 11
959.29298209490003
 21
657.17196814475005
  0
LINE
  8
_0-3_躯体
  6
CONTINUOUS
 62
    7
 10
965.05034340780003
 20
667.17197014474993
 11
955.05034140780003
 21
657.17196814475005
  0
LINE
  8
_0-3_躯体
  6
CONTINUOUS
 62
    7
 10
960.80770272069981
 20
667.17197014474993
 11
950.80770072069993
 21
657.17196814475005
  0
LINE
  8
_0-3_躯体
  6
CONTINUOUS
 62
    7
 10
956.5650620335
 20
667.17197014474993
 11
946.5650600335
 21
657.17196814475005
  0
LINE
  8
_0-3_躯体
  6
CONTINUOUS
 62
    7
 10
952.32242134640001
 20
667.17197014474993
 11
942.32241934640001
 21
657.17196814475005
  0
LINE
  8
_0-3_躯体
  6
CONTINUOUS
 62
    7
 10
948.07978065930001
 20
667.17197014474993
 11
938.07977865930002
 21
657.17196814475005
  0
LINE
  8
_0-3_躯体
  6
CONTINUOUS
 62
    7
 10
943.83713997220002
 20
667.17197014474993
 11
933.83713797220003
 21
657.17196814475005
  0
LINE
  8
_0-3_躯体
  6
CONTINUOUS
 62
    7
 10
939.59449928510003
 20
667.17197014474993
 11
929.59449728510003
 21
657.17196814475005
  0
LINE
  8
_0-3_躯体
  6
CONTINUOUS
 62
    7
 10
935.35185859789999
 20
667.17197014474993
 11
925.3518565979
 21
657.17196814475005
  0
LINE
  8
_0-3_躯体
  6
CONTINUOUS
 62
    7
 10
931.1092179108
 20
667.17197014474993
 11
921.1092159108
 21
657.17196814475005
  0
LINE
  8
_0-3_躯体
  6
CONTINUOUS
 62
    7
 10
926.86657722370001
 20
667.17197014474993
 11
916.86657522370001
 21
657.17196814475005
  0
LINE
  8
_0-3_躯体
  6
CONTINUOUS
 62
    7
 10
922.62393653660001
 20
667.17197014474993
 11
912.62393453660002
 21
657.17196814475005
  0
LINE
  8
_0-3_躯体
  6
CONTINUOUS
 62
    7
 10
910.44015635250003
 20
693.17195614475008
 11
895.32207761979998
 21
678.05387741195
  0
LINE
  8
_0-3_躯体
  6
CONTINUOUS
 62
    7
 10
906.19751566540003
 20
693.17195614475008
 11
895.32207761979998
 21
682.29651809904999
  0
LINE
  8
_0-3_躯体
  6
CONTINUOUS
 62
    7
 10
901.95487497829993
 20
693.17195614475008
 11
895.32207761979998
 21
686.53915878625003
  0
LINE
  8
_0-3_躯体
  6
CONTINUOUS
 62
    7
 10
897.71223429119982
 20
693.17195614475008
 11
895.32207761979998
 21
690.78179947335002
  0
LINE
  8
_0-4_止水補助板
  6
CONTINUOUS
 62
    7
 10
920.32195361980007
 20
668.17196914474994
 11
920.32195361980007
 21
667.17197014474993
  0
LINE
  8
_0-4_止水補助板
  6
CONTINUOUS
 62
    7
 10
920.32195361980007
 20
667.17197014474993
 11
975.3220726198
 21
667.17197014474993
  0
CIRCLE
  8
_0-9_寸法
  6
CONTINUOUS
 62
    7
 10
916.36863942199989
 20
659.55031164785009
 40
0.5999999999999999
  0
LINE
  8
_0-9_寸法
  6
CONTINUOUS
 62
    7
 10
916.36863942199989
 20
659.55031164785009
 11
892.87626419150001
 21
618.86032295894995
  0
TEXT
  8
_0-9_寸法
 62
    7
 10
777.37626419150001
 20
618.86032295894995
 40
10.5
 41
1
 50
0
  1
ならしモルタル（別途）
  0
LINE
  8
_0-9_寸法
  6
CONTINUOUS
 62
    7
 10
892.87626419150001
 20
618.86032295894995
 11
776.18337164889999
 21
618.86032295894995
  0
TEXT
  8
_0-9_寸法
 62
    7
 10
886.45201689470002
 20
656.92196914474994
 40
10.5
 41
1
 50
90.000003000000035
  1
10
  0
TEXT
  8
_0-9_寸法
 62
    7
 10
886.45201689470002
 20
674.92196314474995
 40
10.5
 41
1
 50
90.000003000000035
  1
26
  0
TEXT
  8
_0-9_寸法
 62
    7
 10
895.07206661980001
 20
757.71194914474995
 40
10.5
 41
1
 50
0
  1
1.5
  0
LINE
  8
_0-9_寸法
  6
CONTINUOUS
 62
    7
 10
915.32206661980001
 20
757.71194914474995
 11
894.11486765919994
 21
757.71194914474995
  0
TEXT
  8
_0-9_寸法
 62
    7
 10
956.47394861980001
 20
640.22033314474993
 40
10.5
 41
1
 50
0
  1
11
  0
TEXT
  8
_0-9_寸法
 62
    7
 10
915.44248361979999
 20
634.12954114474996
 40
10.5
 41
1
 50
0
  1
10
  0
LINE
  8
_0-9_寸法
  6
CONTINUOUS
 62
    7
 10
940.3220716198
 20
592.17197014475005
 11
975.3220726198
 21
592.17197014475005
  0
LINE
  8
_0-9_寸法
  6
CONTINUOUS
 62
    7
 10
940.3220716198
 20
592.17197014475005
 11
943.3220716198
 21
592.92197014475005
  0
LINE
  8
_0-9_寸法
  6
CONTINUOUS
 62
    7
 10
940.3220716198
 20
592.17197014475005
 11
943.3220716198
 21
591.42197014475005
  0
LINE
  8
_0-9_寸法
  6
CONTINUOUS
 62
    7
 10
975.3220726198
 20
592.17197014475005
 11
972.3220726198
 21
591.42197014475005
  0
LINE
  8
_0-9_寸法
  6
CONTINUOUS
 62
    7
 10
975.3220726198
 20
592.17197014475005
 11
972.3220726198
 21
592.92197014475005
  0
LINE
  8
_0-9_寸法
  6
CONTINUOUS
 62
    7
 10
975.3220726198
 20
592.17197014475005
 11
978.3220726198
 21
592.92197014475005
  0
LINE
  8
_0-9_寸法
  6
CONTINUOUS
 62
    7
 10
975.3220726198
 20
592.17197014475005
 11
978.3220726198
 21
591.42197014475005
  0
TEXT
  8
_0-9_寸法
 62
    7
 10
952.57207211979994
 20
592.17197014475005
 40
10.5
 41
1
 50
0
  1
35
  0
LINE
  8
_0-9_寸法
  6
CONTINUOUS
 62
    7
 10
940.3220716198
 20
623.16038614474996
 11
940.3220716198
 21
591.17197114474993
  0
LINE
  8
_0-9_寸法
  6
CONTINUOUS
 62
    7
 10
975.3220726198
 20
607.17197014475005
 11
975.3220726198
 21
591.17197114474993
  0
ARC
  8
_0-5_フレ_ム
  6
CONTINUOUS
 62
    7
 10
910.62217661980003
 20
692.87200114475002
 40
0.2999999999999999
 50
90
 51
180
  0
ARC
  8
_0-5_フレ_ム
  6
CONTINUOUS
 62
    7
 10
911.52217661979989
 20
692.87200114475002
 40
0.2999999999999999
 50
0
 51
90
  0
LINE
  8
_0-5_フレ_ム
  6
CONTINUOUS
 62
    7
 10
910.62217661980003
 20
693.17200114474986
 11
911.52217661979989
 21
693.17200114474986
  0
ARC
  8
_0-5_フレ_ム
  6
CONTINUOUS
 62
    7
 10
916.82214161980005
 20
670.67196814475005
 40
0.500001
 50
180
 51
270
  0
LINE
  8
_0-5_フレ_ム
  6
CONTINUOUS
 62
    7
 10
940.02207161979982
 20
670.17199414474999
 11
916.82214161980005
 21
670.17197014474993
  0
LINE
  8
_0-5_フレ_ム
  6
CONTINUOUS
 62
    7
 10
914.32206161980002
 20
669.67200814474995
 11
914.32218161979995
 21
683.67199114475011
  0
ARC
  8
_0-5_フレ_ム
  6
CONTINUOUS
 62
    7
 10
915.82206161980002
 20
669.67199614474998
 40
1.5
 50
179.999526
 51
270
  0
LINE
  8
_0-5_フレ_ム
  6
CONTINUOUS
 62
    7
 10
940.3220716198
 20
669.87199414475003
 11
940.62207161979995
 21
670.17199414474999
  0
LINE
  8
_0-5_フレ_ム
  6
CONTINUOUS
 62
    7
 10
940.3220716198
 20
669.87199414475003
 11
940.02207161979982
 21
670.17199414474999
  0
LINE
  8
_0-5_フレ_ム
  6
CONTINUOUS
 62
    7
 10
987.32210861980002
 20
685.67200114474986
 11
987.3221146198
 21
682.67200114474986
  0
LINE
  8
_0-5_フレ_ム
  6
CONTINUOUS
 62
    7
 10
990.32210861980002
 20
685.67200114474986
 11
990.32210861980002
 21
682.67200114474986
  0
ARC
  8
_0-5_フレ_ム
  6
CONTINUOUS
 62
    7
 10
988.8221146198
 20
685.67200114474986
 40
1.499994
 50
0
 51
180
  0
LINE
  8
_0-5_フレ_ム
  6
CONTINUOUS
 62
    7
 10
987.3221146198
 20
682.67200114474986
 11
987.82211561979989
 21
682.67200114474986
  0
LINE
  8
_0-5_フレ_ム
  6
CONTINUOUS
 62
    7
 10
990.32210861980002
 20
682.67200114474986
 11
989.82210761980002
 21
682.67200114474986
  0
LINE
  8
_0-5_フレ_ム
  6
CONTINUOUS
 62
    7
 10
940.62207161979995
 20
670.17199414474999
 11
987.3221146198
 21
670.17199414474999
  0
ARC
  8
_0-5_フレ_ム
  6
CONTINUOUS
 62
    7
 10
987.3221146198
 20
670.67199514474987
 40
0.500001
 50
270
 51
0
  0
LINE
  8
_0-5_フレ_ム
  6
CONTINUOUS
 62
    7
 10
987.82211561979989
 20
682.67200114474986
 11
987.82211561979989
 21
670.67199514474987
  0
ARC
  8
_0-5_フレ_ム
  6
CONTINUOUS
 62
    7
 10
988.82210861980002
 20
669.17199514474987
 40
0.9999989999999999
 50
270
 51
0
  0
LINE
  8
_0-5_フレ_ム
  6
CONTINUOUS
 62
    7
 10
989.82210761980002
 20
682.67200114474986
 11
989.82210761980002
 21
669.17199514474987
  0
ARC
  8
_0-5_フレ_ム
  6
CONTINUOUS
 62
    7
 10
917.32217861979996
 20
686.67198514475012
 40
0.9999989999999999
 50
90.001149999989991
 51
180
  0
LINE
  8
_0-5_フレ_ム
  6
CONTINUOUS
 62
    7
 10
916.32217961979995
 20
686.67198814475
 11
916.32214061979994
 21
670.67197114474993
  0
ARC
  8
_0-5_フレ_ム
  6
CONTINUOUS
 62
    7
 10
913.82213561980006
 20
686.17204414475009
 40
0.500001
 50
270.00186999998999
 51
359.99947500000707
  0
LINE
  8
_0-5_フレ_ム
  6
CONTINUOUS
 62
    7
 10
913.82215061979991
 20
685.67204314474998
 11
912.32219261979981
 21
685.67199514474987
  0
ARC
  8
_0-5_フレ_ム
  6
CONTINUOUS
 62
    7
 10
913.82218361979994
 20
683.67199714475009
 40
0.500001
 50
359.99950800000693
 51
90.000000000000014
  0
LINE
  8
_0-5_フレ_ム
  6
CONTINUOUS
 62
    7
 10
911.32217861979996
 20
684.17198914474989
 11
913.82218061979984
 21
684.17199514474987
  0
LINE
  8
_0-5_フレ_ム
  6
CONTINUOUS
 62
    7
 10
914.32213361979984
 20
686.17204114474998
 11
914.32217561979996
 21
690.67199314474999
  0
ARC
  8
_0-5_フレ_ム
  6
CONTINUOUS
 62
    7
 10
911.32217561979996
 20
685.17198814475
 40
0.9999989999999999
 50
180
 51
270
  0
ARC
  8
_0-5_フレ_ム
  6
CONTINUOUS
 62
    7
 10
912.32217461979985
 20
686.17199614474998
 40
0.500001
 50
180
 51
270.00187
  0
ARC
  8
_0-5_フレ_ム
  6
CONTINUOUS
 62
    7
 10
915.82227461979983
 20
690.67199914474998
 40
0.500001
 50
0
 51
90
  0
LINE
  8
_0-5_フレ_ム
  6
CONTINUOUS
 62
    7
 10
916.32227261979995
 20
690.17199514474987
 11
916.32227261979995
 21
690.67199914474998
  0
LINE
  8
_0-5_フレ_ム
  6
CONTINUOUS
 62
    7
 10
922.82217461979985
 20
690.17199514474987
 11
920.12217461980003
 21
690.17199514474987
  0
LINE
  8
_0-5_フレ_ム
  6
CONTINUOUS
 62
    7
 10
916.32227261979995
 20
690.17199514474987
 11
919.52217461980001
 21
690.17199514474987
  0
ARC
  8
_0-5_フレ_ム
  6
CONTINUOUS
 62
    7
 10
923.32217561979996
 20
690.67198714475001
 40
0.500001
 50
90.000849000010007
 51
180
  0
LINE
  8
_0-5_フレ_ム
  6
CONTINUOUS
 62
    7
 10
922.82217461979985
 20
690.17199514474987
 11
922.82217461979985
 21
690.67198714475001
  0
ARC
  8
_0-5_フレ_ム
  6
CONTINUOUS
 62
    7
 10
923.82222161979985
 20
690.67199314474999
 40
0.500001
 50
0
 51
90
  0
LINE
  8
_0-5_フレ_ム
  6
CONTINUOUS
 62
    7
 10
923.32217561979996
 20
691.17199414474999
 11
923.82222161979985
 21
691.17199414474999
  0
LINE
  8
_0-5_フレ_ム
  6
CONTINUOUS
 62
    7
 10
924.3221566197999
 20
689.67195214474998
 11
924.32222261979996
 21
690.67199314474999
  0
ARC
  8
_0-5_フレ_ム
  6
CONTINUOUS
 62
    7
 10
922.32215561980001
 20
689.67208714474998
 40
2.0000010000000001
 50
270.00115
 51
359.99615999999992
  0
LINE
  8
_0-5_フレ_ム
  6
CONTINUOUS
 62
    7
 10
922.32219461980003
 20
687.67208614474998
 11
917.32215761980001
 21
687.67198714475001
  0
LINE
  8
_0-5_フレ_ム
  6
CONTINUOUS
 62
    7
 10
919.82217461979985
 20
689.87199514475003
 11
919.52217461980001
 21
690.17199514474987
  0
LINE
  8
_0-5_フレ_ム
  6
CONTINUOUS
 62
    7
 10
919.82217461979985
 20
689.87199514475003
 11
920.12217461980003
 21
690.17199514474987
  0
ARC
  8
_0-5_フレ_ム
  6
CONTINUOUS
 62
    7
 10
914.82217961979995
 20
690.67199914474998
 40
0.500001
 50
90
 51
180
  0
ARC
  8
_0-5_フレ_ム
  6
CONTINUOUS
 62
    7
 10
914.82217661980008
 20
690.67199914474998
 40
0.500001
 50
90
 51
180
  0
LINE
  8
_0-5_フレ_ム
  6
CONTINUOUS
 62
    7
 10
991.82211161980013
 20
685.47199414474994
 11
991.82211161980013
 21
680.47199614474994
  0
LINE
  8
_0-5_フレ_ム
  6
CONTINUOUS
 62
    7
 10
991.82211161980013
 20
680.47199614474994
 11
990.32211161980013
 21
680.47199614474994
  0
LINE
  8
_0-5_フレ_ム
  6
CONTINUOUS
 62
    7
 10
987.32211161980013
 20
680.47199614474994
 11
985.82211161980013
 21
680.47199614474994
  0
LINE
  8
_0-5_フレ_ム
  6
CONTINUOUS
 62
    7
 10
985.82211161980013
 20
680.47199614474994
 11
985.82211161980013
 21
685.47199414474994
  0
ARC
  8
_0-5_フレ_ム
  6
CONTINUOUS
 62
    7
 10
988.82211161980013
 20
685.47199414474994
 40
1.7000010000000001
 50
0
 51
180
  0
ARC
  8
_0-5_フレ_ム
  6
CONTINUOUS
 62
    7
 10
988.82211161980013
 20
685.47199414474994
 40
3
 50
0
 51
180
  0
LINE
  8
_0-5_フレ_ム
  6
CONTINUOUS
 62
    7
 10
987.32211761980011
 20
682.47199414474994
 11
987.56596061980008
 21
682.47199414474994
  0
ARC
  8
_0-5_フレ_ム
  6
CONTINUOUS
 62
    7
 10
987.56596061980008
 20
682.27199614474989
 40
0.200001
 50
345.96359799995997
 51
90
  0
LINE
  8
_0-5_フレ_ム
  6
CONTINUOUS
 62
    7
 10
987.32211161980013
 20
680.47199614474994
 11
987.75998861979997
 21
682.22348614475004
  0
LINE
  8
_0-5_フレ_ム
  6
CONTINUOUS
 62
    7
 10
990.32211161980013
 20
682.47199414474994
 11
990.07826561979994
 21
682.47199414474994
  0
ARC
  8
_0-5_フレ_ム
  6
CONTINUOUS
 62
    7
 10
990.07826561979994
 20
682.27199614474989
 40
0.200001
 50
90
 51
194.036192
  0
LINE
  8
_0-5_フレ_ム
  6
CONTINUOUS
 62
    7
 10
990.32210861980002
 20
680.47199614474994
 11
989.88423761979993
 21
682.22348914474992
  0
LINE
  8
_0-5_フレ_ム
  6
CONTINUOUS
 62
    7
 10
987.32211761980011
 20
682.47199414474994
 11
987.12211661979995
 21
682.47199414474994
  0
LINE
  8
_0-5_フレ_ム
  6
CONTINUOUS
 62
    7
 10
987.12211661979995
 20
682.47199414474994
 11
987.12211061979997
 21
685.47199414474994
  0
LINE
  8
_0-5_フレ_ム
  6
CONTINUOUS
 62
    7
 10
990.32210861980002
 20
682.47199414474994
 11
990.52211261979983
 21
682.47199414474994
  0
LINE
  8
_0-5_フレ_ム
  6
CONTINUOUS
 62
    7
 10
990.52211261979983
 20
682.47199414474994
 11
990.52211261979983
 21
685.47199414474994
  0
LINE
  8
_0-5_フレ_ム
  6
CONTINUOUS
 62
    7
 10
931.3220716198
 20
670.17202114475003
 11
949.3220716198
 21
670.17202114475003
  0
LINE
  8
_0-5_フレ_ム
  6
CONTINUOUS
 62
    7
 10
915.82206161980002
 20
668.17199614474998
 11
988.82210861980002
 21
668.17199614474998
  0
LINE
  8
_0-5_フレ_ム
  6
CONTINUOUS
 62
    7
 10
914.82217961979995
 20
691.17200014474997
 11
915.82227461979983
 21
691.17200014474997
  0
LINE
  8
_0-5_フレ_ム
  6
CONTINUOUS
 62
    7
 10
910.32217661980008
 20
685.17198814475
 11
910.32217661980008
 21
692.87200114475002
  0
LINE
  8
_0-5_フレ_ム
  6
CONTINUOUS
 62
    7
 10
911.82217661980008
 20
692.87200114475002
 11
911.82217661980008
 21
686.17199614474998
  0
LINE
  8
_0-9_寸法
  6
CONTINUOUS
 62
    7
 10
915.32206661980001
 20
771.78550114475001
 11
1075.32207062
 21
771.78550114475001
  0
LINE
  8
_0-9_寸法
  6
CONTINUOUS
 62
    7
 10
1055.3220726197999
 20
757.71194914474995
 11
1052.3220726197999
 21
756.96194914474995
  0
LINE
  8
_0-9_寸法
  6
CONTINUOUS
 62
    7
 10
1055.3220726197999
 20
757.71194914474995
 11
1052.3220726197999
 21
758.46194914474995
  0
LINE
  8
_0-9_寸法
  6
CONTINUOUS
 62
    7
 10
993.82217661979996
 20
693.67230514475
 11
993.82217661979996
 21
760.71194914474995
  0
LINE
  8
_0-9_寸法
  6
CONTINUOUS
 62
    7
 10
993.82217661979996
 20
757.71194914474995
 11
990.82217661979996
 21
756.96194914474995
  0
LINE
  8
_0-9_寸法
  6
CONTINUOUS
 62
    7
 10
993.82217661979996
 20
757.71194914474995
 11
990.82217661979996
 21
758.46194914474995
  0
LINE
  8
_0-9_寸法
  6
CONTINUOUS
 62
    7
 10
993.82217661979996
 20
757.71194914474995
 11
996.82217661979996
 21
758.46194914474995
  0
LINE
  8
_0-9_寸法
  6
CONTINUOUS
 62
    7
 10
993.82217661979996
 20
757.71194914474995
 11
996.82217661979996
 21
756.96194914474995
  0
LINE
  8
_0-9_寸法
  6
CONTINUOUS
 62
    7
 10
916.82207561979999
 20
757.71194914474995
 11
993.82217661979996
 21
757.71194914474995
  0
LINE
  8
_0-9_寸法
  6
CONTINUOUS
 62
    7
 10
993.82217661979996
 20
757.71194914474995
 11
1055.3220726197999
 21
757.71194914474995
  0
TEXT
  8
_0-9_寸法
 62
    7
 10
950.07212611980003
 20
757.71194914474995
 40
10.5
 41
1
 50
0
  1
82
  0
TEXT
  8
_0-9_寸法
 62
    7
 10
1014.0721246198001
 20
757.71194914474995
 40
10.5
 41
1
 50
0
  1
61.5
  0
TEXT
  8
_0-9_寸法
 62
    7
 10
987.44706861980012
 20
771.78550114475001
 40
10.5
 41
1
 50
0
  1
165
  0
LINE
  8
_0-9_寸法
  6
CONTINUOUS
 62
    7
 10
975.3220726198
 20
592.17197014475005
 11
1075.32207062
 21
592.17197014475005
  0
TEXT
  8
_0-9_寸法
 62
    7
 10
1017.4470716197999
 20
592.17197014475005
 40
10.5
 41
1
 50
0
  1
100
  0
LINE
  8
_0-3_躯体
  6
CONTINUOUS
 62
    7
 10
1075.3220716199999
 20
757.57197014475014
 11
1075.3220716199999
 21
607.17197014475005
  0
LINE
  8
_0-9_寸法
  6
CONTINUOUS
 62
    7
 10
1055.3220726197999
 20
715.89051714474999
 11
1048.5682026198001
 21
727.58856414474997
  0
CIRCLE
  8
_0-9_寸法
  6
CONTINUOUS
 62
    7
 10
1045.5682026198001
 20
732.78471714474995
 40
6
  0
CIRCLE
  8
_0-9_寸法
  6
CONTINUOUS
 62
    7
 10
1055.3220726197999
 20
715.89051714474999
 40
0.5999999999999999
  0
LINE
  8
_0-9_寸法
  6
CONTINUOUS
 62
    7
 10
1069.7863836199999
 20
715.17196914474994
 11
1085.0555286200001
 21
741.61890414474999
  0
CIRCLE
  8
_0-9_寸法
  6
CONTINUOUS
 62
    7
 10
1088.0555286200001
 20
746.81505714474997
 40
6
  0
CIRCLE
  8
_0-9_寸法
  6
CONTINUOUS
 62
    7
 10
1069.7863836199999
 20
715.17196914474994
 40
0.5999999999999999
  0
LINE
  8
_0-9_寸法
  6
CONTINUOUS
 62
    7
 10
1071.43162562
 20
708.72832614474999
 11
1084.09390562
 21
686.79661314475004
  0
CIRCLE
  8
_0-9_寸法
  6
CONTINUOUS
 62
    7
 10
1087.09390562
 20
681.60046314474994
 40
6
  0
CIRCLE
  8
_0-9_寸法
  6
CONTINUOUS
 62
    7
 10
1071.43162562
 20
708.72832614474999
 40
0.5999999999999999
  0
LINE
  8
_0-7_小物
  6
CONTINUOUS
 62
    7
 10
1070.8220436199999
 20
706.17196914474994
 11
1072.3220436199999
 21
706.17196914474994
  0
LINE
  8
_0-7_小物
  6
CONTINUOUS
 62
    7
 10
1070.8220436199999
 20
706.17196914474994
 11
1070.8220436199999
 21
724.17196914474994
  0
LINE
  8
_0-7_小物
  6
CONTINUOUS
 62
    7
 10
1070.8220436199999
 20
724.17196914474994
 11
1072.3220436199999
 21
724.17196914474994
  0
LINE
  8
_0-7_小物
  6
CONTINUOUS
 62
    7
 10
1090.4644686199999
 20
721.49056914475
 11
1083.66084662
 21
722.48292414474986
  0
ARC
  8
_0-7_小物
  6
CONTINUOUS
 62
    7
 10
1083.60311462
 20
722.08711314474999
 40
0.3999989999999999
 50
81.701533999999995
 51
171.86989800000001
  0
LINE
  8
_0-7_小物
  6
CONTINUOUS
 62
    7
 10
1083.2071356200001
 20
722.14368114474996
 11
1083.1790196200002
 21
721.94685714475008
  0
ARC
  8
_0-7_小物
  6
CONTINUOUS
 62
    7
 10
1083.5749986200001
 20
721.89028914474989
 40
0.3999989999999999
 50
171.86989800000001
 51
261.86989799999998
  0
LINE
  8
_0-7_小物
  6
CONTINUOUS
 62
    7
 10
1083.5184306199999
 20
721.49430714475011
 11
1090.1224506199999
 21
720.55087614474996
  0
LINE
  8
_0-7_小物
  6
CONTINUOUS
 62
    7
 10
1090.4644686199999
 20
721.49056914475
 11
1083.66084662
 21
722.48292414474986
  0
ARC
  8
_0-7_小物
  6
CONTINUOUS
 62
    7
 10
1083.60311462
 20
722.08711314474999
 40
0.3999989999999999
 50
81.701533999999995
 51
171.86989800000001
  0
LINE
  8
_0-7_小物
  6
CONTINUOUS
 62
    7
 10
1083.2071356200001
 20
722.14368114474996
 11
1083.1790196200002
 21
721.94685714475008
  0
ARC
  8
_0-7_小物
  6
CONTINUOUS
 62
    7
 10
1083.5749986200001
 20
721.89028914474989
 40
0.3999989999999999
 50
171.86989800000001
 51
261.86989799999998
  0
LINE
  8
_0-7_小物
  6
CONTINUOUS
 62
    7
 10
1083.5184306199999
 20
721.49430714475011
 11
1090.1224506199999
 21
720.55087614474996
  0
LINE
  8
_0-7_小物
  6
CONTINUOUS
 62
    7
 10
1090.4644686199999
 20
708.85336914474988
 11
1083.66084662
 21
707.86101414475002
  0
ARC
  8
_0-7_小物
  6
CONTINUOUS
 62
    7
 10
1083.60311462
 20
708.25682514474988
 40
0.3999989999999999
 50
188.13010199999999
 51
278.29846600000002
  0
LINE
  8
_0-7_小物
  6
CONTINUOUS
 62
    7
 10
1083.2071356200001
 20
708.20025714475003
 11
1083.1790196200002
 21
708.39708114475002
  0
ARC
  8
_0-7_小物
  6
CONTINUOUS
 62
    7
 10
1083.5749986200001
 20
708.45364914474999
 40
0.3999989999999999
 50
98.130102000009998
 51
188.13010199999999
  0
LINE
  8
_0-7_小物
  6
CONTINUOUS
 62
    7
 10
1083.5184306199999
 20
708.84962814475
 11
1090.1224506199999
 21
709.79305914475003
  0
LINE
  8
_0-7_小物
  6
CONTINUOUS
 62
    7
 10
1087.32207062
 20
711.17197014475005
 11
1083.3220716199999
 21
711.17197014475005
  0
LINE
  8
_0-7_小物
  6
CONTINUOUS
 62
    7
 10
1112.2823286199998
 20
713.15422614475006
 11
1112.0991516200002
 21
709.65902214475
  0
LINE
  8
_0-7_小物
  6
CONTINUOUS
 62
    7
 10
1112.0991516200002
 20
709.65902214475
 11
1114.2010836200002
 21
711.55161114475004
  0
LINE
  8
_0-7_小物
  6
CONTINUOUS
 62
    7
 10
1114.2010836200002
 20
711.55161114475004
 11
1114.2795876199998
 21
713.04955314475001
  0
LINE
  8
_0-7_小物
  6
CONTINUOUS
 62
    7
 10
1114.2795876199998
 20
713.04955314475001
 11
1083.3220716199999
 21
714.67196814474983
  0
LINE
  8
_0-7_小物
  6
CONTINUOUS
 62
    7
 10
1087.32207062
 20
719.17196814474983
 11
1083.3220716199999
 21
719.17196814474983
  0
LINE
  8
_0-7_小物
  6
CONTINUOUS
 62
    7
 10
1112.2823286199998
 20
717.18971214474982
 11
1112.0991516200002
 21
720.68491614474988
  0
LINE
  8
_0-7_小物
  6
CONTINUOUS
 62
    7
 10
1112.0991516200002
 20
720.68491614474988
 11
1114.2010836200002
 21
718.79232714475006
  0
LINE
  8
_0-7_小物
  6
CONTINUOUS
 62
    7
 10
1114.2010836200002
 20
718.79232714475006
 11
1114.2795876199998
 21
717.29438214474999
  0
LINE
  8
_0-7_小物
  6
CONTINUOUS
 62
    7
 10
1114.2795876199998
 20
717.29438214474999
 11
1083.3220716199999
 21
715.67197014475005
  0
LINE
  8
_0-7_小物
  6
CONTINUOUS
 62
    7
 10
1095.1224486200001
 20
710.54873514475003
 11
1090.4644686199999
 21
708.85336914474988
  0
LINE
  8
_0-7_小物
  6
CONTINUOUS
 62
    7
 10
1095.1224486200001
 20
719.79520314475008
 11
1090.4644686199999
 21
721.49056914475
  0
LINE
  8
_0-7_小物
  6
CONTINUOUS
 62
    7
 10
1087.32207062
 20
711.17197014475005
 11
1088.23671362
 21
712.91234514475002
  0
LINE
  8
_0-7_小物
  6
CONTINUOUS
 62
    7
 10
1109.45262662
 20
713.30252514475001
 11
1111.32207062
 21
715.17196914474994
  0
LINE
  8
_0-7_小物
  6
CONTINUOUS
 62
    7
 10
1088.23671362
 20
712.91234514475002
 11
1090.23397262
 21
712.80767214474997
  0
LINE
  8
_0-7_小物
  6
CONTINUOUS
 62
    7
 10
1090.23397262
 20
712.80767214474997
 11
1090.1293026200001
 21
710.81041314474999
  0
LINE
  8
_0-7_小物
  6
CONTINUOUS
 62
    7
 10
1090.1293026200001
 20
710.81041314474999
 11
1092.1265616199998
 21
710.70574314474993
  0
LINE
  8
_0-7_小物
  6
CONTINUOUS
 62
    7
 10
1092.1265616199998
 20
710.70574314474993
 11
1093.2298626200002
 21
712.65066414474995
  0
LINE
  8
_0-7_小物
  6
CONTINUOUS
 62
    7
 10
1093.2298626200002
 20
712.65066414474995
 11
1095.2271216200002
 21
712.54599414475001
  0
LINE
  8
_0-7_小物
  6
CONTINUOUS
 62
    7
 10
1095.2271216200002
 20
712.54599414475001
 11
1095.1224486200001
 21
710.54873514475003
  0
LINE
  8
_0-7_小物
  6
CONTINUOUS
 62
    7
 10
1095.1224486200001
 20
710.54873514475003
 11
1097.1197076200001
 21
710.44406214474998
  0
LINE
  8
_0-7_小物
  6
CONTINUOUS
 62
    7
 10
1097.1197076200001
 20
710.44406214474998
 11
1098.2230116199999
 21
712.38898614474988
  0
LINE
  8
_0-7_小物
  6
CONTINUOUS
 62
    7
 10
1098.2230116199999
 20
712.38898614474988
 11
1100.2202706200001
 21
712.28431314474983
  0
LINE
  8
_0-7_小物
  6
CONTINUOUS
 62
    7
 10
1100.2202706200001
 20
712.28431314474983
 11
1100.1155976199998
 21
710.28705414474985
  0
LINE
  8
_0-7_小物
  6
CONTINUOUS
 62
    7
 10
1100.1155976199998
 20
710.28705414474985
 11
1102.11285662
 21
710.18238114475002
  0
LINE
  8
_0-7_小物
  6
CONTINUOUS
 62
    7
 10
1102.11285662
 20
710.18238114475002
 11
1103.2161576200001
 21
712.12730514474993
  0
LINE
  8
_0-7_小物
  6
CONTINUOUS
 62
    7
 10
1103.2161576200001
 20
712.12730514474993
 11
1105.2134166200001
 21
712.02263214474988
  0
LINE
  8
_0-7_小物
  6
CONTINUOUS
 62
    7
 10
1105.2134166200001
 20
712.02263214474988
 11
1105.1087466200001
 21
710.02537314474989
  0
LINE
  8
_0-7_小物
  6
CONTINUOUS
 62
    7
 10
1105.1087466200001
 20
710.02537314474989
 11
1107.1060056199999
 21
709.92070314474995
  0
LINE
  8
_0-7_小物
  6
CONTINUOUS
 62
    7
 10
1107.1060056199999
 20
709.92070314474995
 11
1108.20930662
 21
711.86562414474997
  0
LINE
  8
_0-7_小物
  6
CONTINUOUS
 62
    7
 10
1108.20930662
 20
711.86562414474997
 11
1110.2065656199998
 21
711.76095414475003
  0
LINE
  8
_0-7_小物
  6
CONTINUOUS
 62
    7
 10
1110.2065656199998
 20
711.76095414475003
 11
1110.1018926200002
 21
709.76369514475005
  0
LINE
  8
_0-7_小物
  6
CONTINUOUS
 62
    7
 10
1110.1018926200002
 20
709.76369514475005
 11
1112.0991516200002
 21
709.65902214475
  0
LINE
  8
_0-7_小物
  6
CONTINUOUS
 62
    7
 10
1087.32207062
 20
719.17196814474983
 11
1088.23671362
 21
717.43159314474997
  0
LINE
  8
_0-7_小物
  6
CONTINUOUS
 62
    7
 10
1088.23671362
 20
717.43159314474997
 11
1090.23397262
 21
717.53626614475002
  0
LINE
  8
_0-7_小物
  6
CONTINUOUS
 62
    7
 10
1090.23397262
 20
717.53626614475002
 11
1090.1293026200001
 21
719.53352514475
  0
LINE
  8
_0-7_小物
  6
CONTINUOUS
 62
    7
 10
1090.1293026200001
 20
719.53352514475
 11
1092.1265616199998
 21
719.63819514474994
  0
LINE
  8
_0-7_小物
  6
CONTINUOUS
 62
    7
 10
1092.1265616199998
 20
719.63819514474994
 11
1093.2298626200002
 21
717.69327114475004
  0
LINE
  8
_0-7_小物
  6
CONTINUOUS
 62
    7
 10
1093.2298626200002
 20
717.69327114475004
 11
1095.2271216200002
 21
717.79794414475009
  0
LINE
  8
_0-7_小物
  6
CONTINUOUS
 62
    7
 10
1095.2271216200002
 20
717.79794414475009
 11
1095.1224486200001
 21
719.79520314475008
  0
LINE
  8
_0-7_小物
  6
CONTINUOUS
 62
    7
 10
1095.1224486200001
 20
719.79520314475008
 11
1097.1197076200001
 21
719.89987614475012
  0
LINE
  8
_0-7_小物
  6
CONTINUOUS
 62
    7
 10
1097.1197076200001
 20
719.89987614475012
 11
1098.2230116199999
 21
717.95495214475
  0
LINE
  8
_0-7_小物
  6
CONTINUOUS
 62
    7
 10
1098.2230116199999
 20
717.95495214475
 11
1100.2202706200001
 21
718.05962514475004
  0
LINE
  8
_0-7_小物
  6
CONTINUOUS
 62
    7
 10
1100.2202706200001
 20
718.05962514475004
 11
1100.1155976199998
 21
720.05688414475003
  0
LINE
  8
_0-7_小物
  6
CONTINUOUS
 62
    7
 10
1100.1155976199998
 20
720.05688414475003
 11
1102.11285662
 21
720.16155414474997
  0
LINE
  8
_0-7_小物
  6
CONTINUOUS
 62
    7
 10
1102.11285662
 20
720.16155414474997
 11
1103.2161576200001
 21
718.21663314474995
  0
LINE
  8
_0-7_小物
  6
CONTINUOUS
 62
    7
 10
1103.2161576200001
 20
718.21663314474995
 11
1105.2134166200001
 21
718.32130314474989
  0
LINE
  8
_0-7_小物
  6
CONTINUOUS
 62
    7
 10
1105.2134166200001
 20
718.32130314474989
 11
1105.1087466200001
 21
720.31856214474988
  0
LINE
  8
_0-7_小物
  6
CONTINUOUS
 62
    7
 10
1105.1087466200001
 20
720.31856214474988
 11
1107.1060056199999
 21
720.42323514474992
  0
LINE
  8
_0-7_小物
  6
CONTINUOUS
 62
    7
 10
1107.1060056199999
 20
720.42323514474992
 11
1108.20930662
 21
718.47831114475002
  0
LINE
  8
_0-7_小物
  6
CONTINUOUS
 62
    7
 10
1108.20930662
 20
718.47831114475002
 11
1110.2065656199998
 21
718.58298414474984
  0
LINE
  8
_0-7_小物
  6
CONTINUOUS
 62
    7
 10
1110.2065656199998
 20
718.58298414474984
 11
1110.1018926200002
 21
720.58024314474983
  0
LINE
  8
_0-7_小物
  6
CONTINUOUS
 62
    7
 10
1110.1018926200002
 20
720.58024314474983
 11
1112.0991516200002
 21
720.68491614474988
  0
LINE
  8
_0-7_小物
  6
CONTINUOUS
 62
    7
 10
1083.3220716199999
 20
714.67196814474983
 11
1083.3220716199999
 21
715.17196914474994
  0
LINE
  8
_0-7_小物
  6
CONTINUOUS
 62
    7
 10
1083.3220716199999
 20
715.67197014475005
 11
1083.3220716199999
 21
715.17196914474994
  0
LINE
  8
_0-7_小物
  6
CONTINUOUS
 62
    7
 10
1075.32207062
 20
711.17197014475005
 11
1083.3220716199999
 21
711.17197014475005
  0
LINE
  8
_0-7_小物
  6
CONTINUOUS
 62
    7
 10
1075.32207062
 20
710.17196814474983
 11
1080.3220716199999
 21
711.17197014475005
  0
LINE
  8
_0-7_小物
  6
CONTINUOUS
 62
    7
 10
1075.32207062
 20
714.17197014475005
 11
1080.3220716199999
 21
715.17196914474994
  0
LINE
  8
_0-7_小物
  6
CONTINUOUS
 62
    7
 10
1075.32207062
 20
716.17196814474983
 11
1080.3220716199999
 21
715.17196914474994
  0
LINE
  8
_0-7_小物
  6
CONTINUOUS
 62
    7
 10
1080.3220716199999
 20
715.17196914474994
 11
1075.32207062
 21
715.17196914474994
  0
LINE
  8
_0-7_小物
  6
CONTINUOUS
 62
    7
 10
1075.32207062
 20
719.17196814474983
 11
1083.3220716199999
 21
719.17196814474983
  0
LINE
  8
_0-7_小物
  6
CONTINUOUS
 62
    7
 10
1075.32207062
 20
720.17197014475005
 11
1080.3220716199999
 21
719.17196814474983
  0
ARC
  8
_0-7_小物
  6
CONTINUOUS
 62
    7
 10
1070.9507556200001
 20
713.66920614474998
 40
3
 50
218.61463800000001
 51
267.54107399999998
  0
ARC
  8
_0-7_小物
  6
CONTINUOUS
 62
    7
 10
1070.9507556200001
 20
716.6747321447499
 40
3
 50
92.458926000000019
 51
141.38536199999999
  0
LINE
  8
_0-7_小物
  6
CONTINUOUS
 62
    7
 10
1119.3336546199998
 20
715.17196914474994
 11
1061.80656662
 21
715.17196914474994
  0
ARC
  8
_0-7_小物
  6
CONTINUOUS
 62
    7
 10
1072.8220446199998
 20
715.17196914474994
 40
5.4000000000000004
 50
180
 51
218.85106200000001
  0
ARC
  8
_0-7_小物
  6
CONTINUOUS
 62
    7
 10
1072.8220446199998
 20
715.17196914474994
 40
5.4000000000000004
 50
141.317813
 51
180
  0
LINE
  8
_0-7_小物
  6
CONTINUOUS
 62
    7
 10
1109.45262662
 20
717.04141314474998
 11
1111.32207062
 21
715.17196914474994
  0
LINE
  8
_0-5_フレ_ム
  6
CONTINUOUS
 62
    7
 10
1058.8297626200001
 20
731.54376414474996
 11
1064.5220706199998
 21
729.17197014475005
  0
LINE
  8
_0-5_フレ_ム
  6
CONTINUOUS
 62
    7
 10
1059.2143776200001
 20
733.00850814474995
 11
1064.82207062
 21
730.67197014475005
  0
LINE
  8
_0-5_フレ_ム
  6
CONTINUOUS
 62
    7
 10
1074.3220716199999
 20
730.67197014475005
 11
1074.3220716199999
 21
729.17197014475005
  0
LINE
  8
_0-5_フレ_ム
  6
CONTINUOUS
 62
    7
 10
1074.3220716199999
 20
675.67196814474983
 11
1074.3220716199999
 21
677.17196814474983
  0
LINE
  8
_0-5_フレ_ム
  6
CONTINUOUS
 62
    7
 10
1074.3220716199999
 20
687.67196814474983
 11
1074.3220716199999
 21
689.17196814474983
  0
LINE
  8
_0-5_フレ_ム
  6
CONTINUOUS
 62
    7
 10
1074.3220716199999
 20
699.67196814474983
 11
1074.3220716199999
 21
701.17196814474983
  0
LINE
  8
_0-5_フレ_ム
  6
CONTINUOUS
 62
    7
 10
1064.3220726200002
 20
675.67196814474983
 11
1074.3220716199999
 21
675.67196814474983
  0
LINE
  8
_0-5_フレ_ム
  6
CONTINUOUS
 62
    7
 10
1073.82207062
 20
677.17196814474983
 11
1074.3220716199999
 21
677.17196814474983
  0
LINE
  8
_0-5_フレ_ム
  6
CONTINUOUS
 62
    7
 10
1073.82207062
 20
677.17196814474983
 11
1073.82207062
 21
687.67196814474983
  0
LINE
  8
_0-5_フレ_ム
  6
CONTINUOUS
 62
    7
 10
1065.8220726200002
 20
701.17196814474983
 11
1068.8220726200002
 21
702.17197014475005
  0
LINE
  8
_0-5_フレ_ム
  6
CONTINUOUS
 62
    7
 10
1068.8220726200002
 20
701.17196814474983
 11
1068.8220726200002
 21
702.17197014475005
  0
LINE
  8
_0-5_フレ_ム
  6
CONTINUOUS
 62
    7
 10
1073.82207062
 20
699.67196814474983
 11
1074.3220716199999
 21
699.67196814474983
  0
LINE
  8
_0-5_フレ_ム
  6
CONTINUOUS
 62
    7
 10
1073.82207062
 20
699.67196814474983
 11
1073.82207062
 21
689.17196814474983
  0
LINE
  8
_0-5_フレ_ム
  6
CONTINUOUS
 62
    7
 10
1073.82207062
 20
701.17196814474983
 11
1074.3220716199999
 21
701.17196814474983
  0
ARC
  8
_0-5_フレ_ム
  6
CONTINUOUS
 62
    7
 10
1071.82207862
 20
701.67196614474994
 40
0.500001
 50
270
 51
0
  0
LINE
  8
_0-5_フレ_ム
  6
CONTINUOUS
 62
    7
 10
1058.5220706199998
 20
699.67196814474983
 11
1071.8220726200002
 21
699.67196814474983
  0
ARC
  8
_0-5_フレ_ム
  6
CONTINUOUS
 62
    7
 10
1071.8220726200002
 20
699.17197014475005
 40
0.500001
 50
0
 51
90
  0
LINE
  8
_0-5_フレ_ム
  6
CONTINUOUS
 62
    7
 10
1064.82207062
 20
677.67196014474996
 11
1064.82207062
 21
687.42196914474994
  0
ARC
  8
_0-5_フレ_ム
  6
CONTINUOUS
 62
    7
 10
1065.3220716199999
 20
677.67196014474996
 40
0.500001
 50
180
 51
270
  0
LINE
  8
_0-5_フレ_ム
  6
CONTINUOUS
 62
    7
 10
1065.3220716199999
 20
677.17195914474996
 11
1071.3220716199999
 21
677.17196814474983
  0
ARC
  8
_0-5_フレ_ム
  6
CONTINUOUS
 62
    7
 10
1071.3220716199999
 20
678.17197014475005
 40
0.9999989999999999
 50
270
 51
0
  0
LINE
  8
_0-5_フレ_ム
  6
CONTINUOUS
 62
    7
 10
1072.32207062
 20
678.17197014475005
 11
1072.32207062
 21
699.17197014475005
  0
ARC
  8
_0-5_フレ_ム
  6
CONTINUOUS
 62
    7
 10
1064.3220726200002
 20
676.67197014475005
 40
0.9999989999999999
 50
180
 51
270
  0
LINE
  8
_0-5_フレ_ム
  6
CONTINUOUS
 62
    7
 10
1068.8220726200002
 20
701.17196814474983
 11
1071.82207862
 21
701.17196514474995
  0
LINE
  8
_0-5_フレ_ム
  6
CONTINUOUS
 62
    7
 10
1073.6220726199999
 20
715.17196914474994
 11
1072.32207062
 21
714.8719661447501
  0
LINE
  8
_0-5_フレ_ム
  6
CONTINUOUS
 62
    7
 10
1073.6220726199999
 20
715.17196914474994
 11
1072.3220736200001
 21
715.47196914475001
  0
LINE
  8
_0-5_フレ_ム
  6
CONTINUOUS
 62
    7
 10
1073.82207062
 20
719.17196814474983
 11
1074.3220716199999
 21
719.17196814474983
  0
LINE
  8
_0-5_フレ_ム
  6
CONTINUOUS
 62
    7
 10
1065.8220726200002
 20
729.17197014475005
 11
1068.8220726200002
 21
728.17196814474983
  0
LINE
  8
_0-5_フレ_ム
  6
CONTINUOUS
 62
    7
 10
1068.8220726200002
 20
729.17197014475005
 11
1068.8220726200002
 21
728.17196814474983
  0
LINE
  8
_0-5_フレ_ム
  6
CONTINUOUS
 62
    7
 10
1073.82207062
 20
729.17197014475005
 11
1074.3220716199999
 21
729.17197014475005
  0
ARC
  8
_0-5_フレ_ム
  6
CONTINUOUS
 62
    7
 10
1071.8220846200002
 20
728.67196914474994
 40
0.500001
 50
0
 51
90
  0
LINE
  8
_0-5_フレ_ム
  6
CONTINUOUS
 62
    7
 10
1073.82207062
 20
729.17197014475005
 11
1073.82207062
 21
719.17196814474983
  0
LINE
  8
_0-5_フレ_ム
  6
CONTINUOUS
 62
    7
 10
1068.8220726200002
 20
729.17197014475005
 11
1071.8220846200002
 21
729.17197014475005
  0
LINE
  8
_0-5_フレ_ム
  6
CONTINUOUS
 62
    7
 10
1065.8220726200002
 20
729.17197014475005
 11
1064.5220706199998
 21
729.17197014475005
  0
LINE
  8
_0-5_フレ_ム
  6
CONTINUOUS
 62
    7
 10
1073.82207062
 20
711.17197014475005
 11
1073.82207062
 21
701.17196814474983
  0
LINE
  8
_0-5_フレ_ム
  6
CONTINUOUS
 62
    7
 10
1072.3220856200001
 20
728.67196914474994
 11
1072.3220736200001
 21
715.47196914475001
  0
LINE
  8
_0-5_フレ_ム
  6
CONTINUOUS
 62
    7
 10
1072.3220796199998
 20
701.67196614474994
 11
1072.32207062
 21
714.8719661447501
  0
ARC
  8
_0-5_フレ_ム
  6
CONTINUOUS
 62
    7
 10
1059.0220716200001
 20
732.54697014475005
 40
0.500001
 50
67.380134999980001
 51
180
  0
ARC
  8
_0-5_フレ_ム
  6
CONTINUOUS
 62
    7
 10
1060.0220706199998
 20
699.67196814474983
 40
1.5
 50
90
 51
180
  0
LINE
  8
_0-5_フレ_ム
  6
CONTINUOUS
 62
    7
 10
1073.82207062
 20
689.17196814474983
 11
1074.3220716199999
 21
689.17196814474983
  0
LINE
  8
_0-5_フレ_ム
  6
CONTINUOUS
 62
    7
 10
1073.82207062
 20
687.67196814474983
 11
1074.3220716199999
 21
687.67196814474983
  0
LINE
  8
_0-5_フレ_ム
  6
CONTINUOUS
 62
    7
 10
1060.0220706199998
 20
701.17196814474983
 11
1065.8220726200002
 21
701.17196814474983
  0
LINE
  8
_0-5_フレ_ム
  6
CONTINUOUS
 62
    7
 10
1072.3220436199999
 20
706.17196914474994
 11
1072.3220436199999
 21
724.17196914474994
  0
LINE
  8
_0-5_フレ_ム
  6
CONTINUOUS
 62
    7
 10
1073.82207062
 20
711.17197014475005
 11
1074.3220686199998
 21
711.17197014475005
  0
LINE
  8
_0-5_フレ_ム
  6
CONTINUOUS
 62
    7
 10
1074.3220686199998
 20
711.17197014475005
 11
1074.3220686199998
 21
719.17196814474983
  0
LINE
  8
_0-5_フレ_ム
  6
CONTINUOUS
 62
    7
 10
1074.3220686199998
 20
711.17197014475005
 11
1074.3220686199998
 21
719.17196814474983
  0
ARC
  8
_0-6_サイド
  6
CONTINUOUS
 62
    7
 10
1067.6220726199999
 20
742.57196814475014
 40
0.500001
 50
0
 51
180
  0
LINE
  8
_0-6_サイド
  6
CONTINUOUS
 62
    7
 10
1057.5220716200001
 20
692.57197014475003
 11
1065.3220716199999
 21
692.57197014475003
  0
ARC
  8
_0-6_サイド
  6
CONTINUOUS
 62
    7
 10
1057.5220716200001
 20
694.77196914474985
 40
2.199999
 50
180
 51
270
  0
ARC
  8
_0-6_サイド
  6
CONTINUOUS
 62
    7
 10
1057.5220716200001
 20
694.77196914474985
 40
0.9999989999999999
 50
180
 51
270
  0
LINE
  8
_0-6_サイド
  6
CONTINUOUS
 62
    7
 10
1057.5220716200001
 20
693.77197014474996
 11
1065.3220716199999
 21
693.77197014474996
  0
LINE
  8
_0-6_サイド
  6
CONTINUOUS
 62
    7
 10
1065.3220716199999
 20
693.77197014474996
 11
1065.3220716199999
 21
692.57197014475003
  0
LINE
  8
_0-6_サイド
  6
CONTINUOUS
 62
    7
 10
1069.32207062
 20
744.37196814474999
 11
1069.32207062
 21
736.57196814475014
  0
ARC
  8
_0-6_サイド
  6
CONTINUOUS
 62
    7
 10
1067.12207162
 20
744.37196814474999
 40
2.199999
 50
0
 51
90
  0
LINE
  8
_0-6_サイド
  6
CONTINUOUS
 62
    7
 10
1067.12207162
 20
746.57197014475003
 11
1057.5220716200001
 21
746.57197014475003
  0
ARC
  8
_0-6_サイド
  6
CONTINUOUS
 62
    7
 10
1057.5220716200001
 20
744.37196814474999
 40
2.199999
 50
90
 51
180
  0
LINE
  8
_0-6_サイド
  6
CONTINUOUS
 62
    7
 10
1068.1220706200002
 20
744.37196814474999
 11
1068.1220706200002
 21
736.57196814475014
  0
ARC
  8
_0-6_サイド
  6
CONTINUOUS
 62
    7
 10
1067.12207162
 20
744.37196814474999
 40
0.9999989999999999
 50
0
 51
90
  0
LINE
  8
_0-6_サイド
  6
CONTINUOUS
 62
    7
 10
1067.12207162
 20
745.37197014474987
 11
1057.5220716200001
 21
745.37197014474987
  0
ARC
  8
_0-6_サイド
  6
CONTINUOUS
 62
    7
 10
1057.5220716200001
 20
744.37196814474999
 40
0.9999989999999999
 50
90
 51
180
  0
LINE
  8
_0-6_サイド
  6
CONTINUOUS
 62
    7
 10
1069.32207062
 20
736.57196814475014
 11
1068.1220706200002
 21
736.57196814475014
  0
ARC
  8
_0-6_サイド
  6
CONTINUOUS
 62
    7
 10
1074.8220726200002
 20
741.07196814475014
 40
0.500001
 50
0
 51
180
  0
LINE
  8
_0-6_サイド
  6
CONTINUOUS
 62
    7
 10
1069.6220706200002
 20
735.57196914475003
 11
1068.1220706200002
 21
735.57196914475003
  0
ARC
  8
_0-6_サイド
  6
CONTINUOUS
 62
    7
 10
1069.6220706200002
 20
736.57196814475014
 40
0.9999989999999999
 50
270
 51
0
  0
LINE
  8
_0-6_サイド
  6
CONTINUOUS
 62
    7
 10
1070.6220726199999
 20
736.57196814475014
 11
1070.6220726199999
 21
738.57196914475003
  0
LINE
  8
_0-6_サイド
  6
CONTINUOUS
 62
    7
 10
1067.12207162
 20
736.57196814475014
 11
1067.12207162
 21
742.57196814475014
  0
ARC
  8
_0-6_サイド
  6
CONTINUOUS
 62
    7
 10
1068.1220706200002
 20
736.57196814475014
 40
0.9999989999999999
 50
180
 51
270
  0
LINE
  8
_0-6_サイド
  6
CONTINUOUS
 62
    7
 10
1074.3220716199999
 20
740.57197014475003
 11
1074.3220716199999
 21
741.07196814475014
  0
ARC
  8
_0-6_サイド
  6
CONTINUOUS
 62
    7
 10
1073.3220726200002
 20
740.57197014475003
 40
0.9999989999999999
 50
270
 51
0
  0
LINE
  8
_0-6_サイド
  6
CONTINUOUS
 62
    7
 10
1073.3220726200002
 20
739.57196814475014
 11
1070.6220726199999
 21
739.57196814475014
  0
LINE
  8
_0-6_サイド
  6
CONTINUOUS
 62
    7
 10
1073.3220726200002
 20
743.57197014475003
 11
1070.6220726199999
 21
743.57197014475003
  0
ARC
  8
_0-6_サイド
  6
CONTINUOUS
 62
    7
 10
1073.3220726200002
 20
742.57196814475014
 40
0.9999989999999999
 50
0
 51
90
  0
LINE
  8
_0-6_サイド
  6
CONTINUOUS
 62
    7
 10
1074.3220716199999
 20
742.57196814475014
 11
1074.3220716199999
 21
742.07197014475003
  0
LINE
  8
_0-6_サイド
  6
CONTINUOUS
 62
    7
 10
1070.6220726199999
 20
738.57196914475003
 11
1073.3220726200002
 21
738.57196914475003
  0
ARC
  8
_0-6_サイド
  6
CONTINUOUS
 62
    7
 10
1073.3220726200002
 20
740.57197014475003
 40
2.0000010000000001
 50
270
 51
0
  0
LINE
  8
_0-6_サイド
  6
CONTINUOUS
 62
    7
 10
1070.6220726199999
 20
743.57197014475003
 11
1070.6220726199999
 21
739.57196814475014
  0
ARC
  8
_0-6_サイド
  6
CONTINUOUS
 62
    7
 10
1074.8220726200002
 20
742.07197014475003
 40
0.500001
 50
180
 51
0
  0
ARC
  8
_0-6_サイド
  6
CONTINUOUS
 62
    7
 10
1073.3220726200002
 20
742.57196814475014
 40
2.0000010000000001
 50
0
 51
90
  0
LINE
  8
_0-6_サイド
  6
CONTINUOUS
 62
    7
 10
1069.3129626200002
 20
744.57196914475003
 11
1073.3220726200002
 21
744.57196914475003
  0
LINE
  8
_0-6_サイド
  6
CONTINUOUS
 62
    7
 10
1055.3220726197999
 20
744.37196814474999
 11
1055.3220726197999
 21
694.77196914474985
  0
LINE
  8
_0-6_サイド
  6
CONTINUOUS
 62
    7
 10
1056.5220726197999
 20
744.37196814474999
 11
1056.5220726197999
 21
694.77196914474985
  0
LINE
  8
_0-6_サイド
  6
CONTINUOUS
 62
    7
 10
1058.5220706199998
 20
701.67196914474994
 11
1058.5220706199998
 21
694.37197014474987
  0
ARC
  8
_0-6_サイド
  6
CONTINUOUS
 62
    7
 10
1058.5220706199998
 20
695.87197014474987
 40
1.5
 50
180
 51
270
  0
LINE
  8
_0-6_サイド
  6
CONTINUOUS
 62
    7
 10
1058.5220706199998
 20
728.67196914474994
 11
1058.5220706199998
 21
739.03643514474993
  0
LINE
  8
_0-6_サイド
  6
CONTINUOUS
 62
    7
 10
1058.2220706199998
 20
715.17196914474994
 11
1058.5220706199998
 21
715.47196914475001
  0
ARC
  8
_0-6_サイド
  6
CONTINUOUS
 62
    7
 10
1059.0220716200001
 20
728.67196914474994
 40
0.500001
 50
180
 51
270
  0
ARC
  8
_0-6_サイド
  6
CONTINUOUS
 62
    7
 10
1059.0220716200001
 20
726.67196814474983
 40
0.500001
 50
90
 51
180
  0
LINE
  8
_0-6_サイド
  6
CONTINUOUS
 62
    7
 10
1058.5220706199998
 20
703.67197014475005
 11
1058.5220706199998
 21
714.87196914474998
  0
LINE
  8
_0-6_サイド
  6
CONTINUOUS
 62
    7
 10
1058.5220706199998
 20
715.47196914475001
 11
1058.5220706199998
 21
726.67196814474983
  0
LINE
  8
_0-6_サイド
  6
CONTINUOUS
 62
    7
 10
1058.2220706199998
 20
715.17196914474994
 11
1058.5220706199998
 21
714.87196914474998
  0
LINE
  8
_0-6_サイド
  6
CONTINUOUS
 62
    7
 10
1067.3220726200002
 20
744.17197014475005
 11
1063.6576056200001
 21
744.17197014475005
  0
LINE
  8
_0-6_サイド
  6
CONTINUOUS
 62
    7
 10
1067.3220726200002
 20
744.17197014475005
 11
1067.3220726200002
 21
744.67196814474983
  0
LINE
  8
_0-6_サイド
  6
CONTINUOUS
 62
    7
 10
1065.3220716199999
 20
745.37197014474987
 11
1067.3220726200002
 21
744.67196814474983
  0
LINE
  8
_0-6_サイド
  6
CONTINUOUS
 62
    7
 10
1069.32207062
 20
702.17197014475005
 11
1069.32207062
 21
701.67196914474994
  0
LINE
  8
_0-6_サイド
  6
CONTINUOUS
 62
    7
 10
1071.3220716199999
 20
702.87196914474998
 11
1071.3220716199999
 21
702.56235714474997
  0
ARC
  8
_0-6_サイド
  6
CONTINUOUS
 62
    7
 10
1071.0220716200001
 20
702.87196914474998
 40
0.2999999999999999
 50
0
 51
90
  0
ARC
  8
_0-6_サイド
  6
CONTINUOUS
 62
    7
 10
1070.82207062
 20
702.56235714474997
 40
0.500001
 50
284.03624299998
 51
0
  0
LINE
  8
_0-6_サイド
  6
CONTINUOUS
 62
    7
 10
1070.9433396200002
 20
702.07728714475002
 11
1069.32207062
 21
701.67196914474994
  0
ARC
  8
_0-6_サイド
  6
CONTINUOUS
 62
    7
 10
1059.0220716200001
 20
701.67196914474994
 40
0.500001
 50
90
 51
180
  0
ARC
  8
_0-6_サイド
  6
CONTINUOUS
 62
    7
 10
1059.0220716200001
 20
703.67197014475005
 40
0.500001
 50
180
 51
270
  0
LINE
  8
_0-6_サイド
  6
CONTINUOUS
 62
    7
 10
1069.32207062
 20
702.17197014475005
 11
1059.0220716200001
 21
702.17197014475005
  0
LINE
  8
_0-6_サイド
  6
CONTINUOUS
 62
    7
 10
1071.0220716200001
 20
703.17196914474994
 11
1059.0220716200001
 21
703.17196914474994
  0
ARC
  8
_0-6_サイド
  6
CONTINUOUS
 62
    7
 10
1063.1504976199999
 20
743.37196914474998
 40
2.0000010000000001
 50
90
 51
135
  0
LINE
  8
_0-6_サイド
  6
CONTINUOUS
 62
    7
 10
1057.0220706199998
 20
740.07196914475003
 11
1061.73628562
 21
744.78618114475012
  0
ARC
  8
_0-6_サイド
  6
CONTINUOUS
 62
    7
 10
1059.52207262
 20
739.03643514474993
 40
0.9999989999999999
 50
135
 51
180
  0
ARC
  8
_0-6_サイド
  6
CONTINUOUS
 62
    7
 10
1063.6576056200001
 20
743.17196814474983
 40
0.9999989999999999
 50
90
 51
135
  0
LINE
  8
_0-6_サイド
  6
CONTINUOUS
 62
    7
 10
1058.8149636199998
 20
739.74354114475
 11
1062.9504996199998
 21
743.87907414475012
  0
LINE
  8
_0-6_サイド
  6
CONTINUOUS
 62
    7
 10
1057.0220706199998
 20
740.07196914475003
 11
1057.0220706199998
 21
695.87197014474987
  0
LINE
  8
_0-6_サイド
  6
CONTINUOUS
 62
    7
 10
1057.0220706199998
 20
740.07196914475003
 11
1056.5220726197999
 21
740.07196914475003
  0
LINE
  8
_0-6_サイド
  6
CONTINUOUS
 62
    7
 10
1057.0220706199998
 20
695.87197014474987
 11
1056.5220726197999
 21
695.87197014474987
  0
LINE
  8
_0-5_フレ_ム
  6
CONTINUOUS
 62
    7
 10
1058.5220706199998
 20
732.00530214474998
 11
1058.5220706199998
 21
732.54697014475005
  0
ARC
  8
_0-5_フレ_ム
  6
CONTINUOUS
 62
    7
 10
1059.0220716200001
 20
732.00530214474998
 40
0.500001
 50
180
 51
247.38013499999997
  0
LINE
  8
_0-6_サイド
  6
CONTINUOUS
 62
    7
 10
1069.32207062
 20
728.17196814474983
 11
1069.32207062
 21
728.67196914474994
  0
LINE
  8
_0-6_サイド
  6
CONTINUOUS
 62
    7
 10
1071.3220716199999
 20
727.47196914475001
 11
1071.3220716199999
 21
727.78158114475002
  0
ARC
  8
_0-6_サイド
  6
CONTINUOUS
 62
    7
 10
1071.0220716200001
 20
727.47196914475001
 40
0.2999999999999999
 50
270
 51
0
  0
ARC
  8
_0-6_サイド
  6
CONTINUOUS
 62
    7
 10
1070.82207062
 20
727.78158114475002
 40
0.500001
 50
0
 51
75.963757000019996
  0
LINE
  8
_0-6_サイド
  6
CONTINUOUS
 62
    7
 10
1070.9433396200002
 20
728.26665114474986
 11
1069.32207062
 21
728.67196914474994
  0
LINE
  8
_0-6_サイド
  6
CONTINUOUS
 62
    7
 10
1069.32207062
 20
728.17196814474983
 11
1059.0220716200001
 21
728.17196814474983
  0
LINE
  8
_0-6_サイド
  6
CONTINUOUS
 62
    7
 10
1071.0220716200001
 20
727.17196914474994
 11
1059.0220716200001
 21
727.17196914474994
  0
LINE
  8
_0-5_フレ_ム
  6
CONTINUOUS
 62
    7
 10
1074.3220716199999
 20
730.67197014475005
 11
1064.82207062
 21
730.67197014475005
  0
LINE
  8
_0-4_止水補助板
  6
CONTINUOUS
 62
    7
 10
1074.3220716199999
 20
730.67197014475005
 11
1074.3220716199999
 21
675.67196814474983
  0
LINE
  8
_0-4_止水補助板
  6
CONTINUOUS
 62
    7
 10
1075.3220716199999
 20
730.67197014475005
 11
1075.3220716199999
 21
675.52414314475004
  0
LINE
  8
_0-4_止水補助板
  6
CONTINUOUS
 62
    7
 10
1074.3220716199999
 20
730.67197014475005
 11
1075.3220716199999
 21
730.67197014475005
  0
LINE
  8
_0-5_フレ_ム
  6
CONTINUOUS
 62
    7
 10
1063.32207062
 20
676.67197014475005
 11
1063.32207062
 21
687.42196914474994
  0
ARC
  8
_0-5_フレ_ム
  6
CONTINUOUS
 62
    7
 10
1064.07207062
 20
687.42196914474994
 40
0.75
 50
0
 51
180
  0
TEXT
  8
_0-9_寸法
 62
    7
 10
1042.9432026198001
 20
727.53471714474995
 40
10.5
 41
1
 50
0
  1
4
  0
TEXT
  8
_0-9_寸法
 62
    7
 10
1082.8055286200001
 20
741.56505714474997
 40
10.5
 41
1
 50
0
  1
10
  0
TEXT
  8
_0-9_寸法
 62
    7
 10
1081.84390562
 20
676.35046314474994
 40
10.5
 41
1
 50
0
  1
11
  0
LINE
  8
_0-9_寸法
  6
CONTINUOUS
 62
    7
 10
1140.3220716199999
 20
715.17196914474994
 11
1141.0720716199999
 21
712.17196914474994
  0
LINE
  8
_0-9_寸法
  6
CONTINUOUS
 62
    7
 10
1140.3220716199999
 20
715.17196914474994
 11
1139.5720716199999
 21
712.17196914474994
  0
LINE
  8
_0-9_寸法
  6
CONTINUOUS
 62
    7
 10
1119.3336546199998
 20
715.17196914474994
 11
1141.32207062
 21
715.17196914474994
  0
LINE
  8
_0-7_小物
  6
CONTINUOUS
 62
    7
 10
1095.1793047850001
 20
711.63360410295002
 11
1090.1224506199999
 21
709.79305914475003
  0
LINE
  8
_0-7_小物
  6
CONTINUOUS
 62
    7
 10
1095.1793049459998
 20
718.71033112814985
 11
1090.1224506199999
 21
720.55087614474996
  0
LINE
  8
_0-9_寸法
  6
CONTINUOUS
 62
    7
 10
886.45201661979991
 20
746.57197014475003
 11
887.20201661979991
 21
743.57197014475003
  0
LINE
  8
_0-9_寸法
  6
CONTINUOUS
 62
    7
 10
886.45201661979991
 20
746.57197014475003
 11
885.70201661979991
 21
743.57197014475003
  0
LINE
  8
_0-9_寸法
  6
CONTINUOUS
 62
    7
 10
1055.9929927356998
 20
746.57196717135002
 11
885.45201761980002
 21
746.57197014475003
  0
LINE
  8
_0-9_寸法
  6
CONTINUOUS
 62
    7
 10
1140.3220716199999
 20
667.17197014474993
 11
1140.3220716199999
 21
715.17196914474994
  0
LINE
  8
_0-9_寸法
  6
CONTINUOUS
 62
    7
 10
886.45201661979991
 20
746.57197014475003
 11
886.45201661979991
 21
693.17195614475008
  0
TEXT
  8
_0-9_寸法
 62
    7
 10
886.45201716949998
 20
708.87196314475
 40
10.5
 41
1
 50
90.000003000000035
  1
53.4
  0
LINE
  8
_0-4_止水補助板
  6
CONTINUOUS
 62
    7
 10
1060.9348422610001
 20
627.92511514474995
 11
1075.32207062
 21
675.52414314475004
  0
LINE
  8
_0-4_止水補助板
  6
CONTINUOUS
 62
    7
 10
1074.3220716199999
 20
675.67196814474983
 11
1059.9656509629999
 21
628.17487414474999
  0
LINE
  8
_0-4_止水補助板
  6
CONTINUOUS
 62
    7
 10
985.44509861980009
 20
627.92511514474995
 11
975.3220726198
 21
667.17197014474993
  0
LINE
  8
_0-9_寸法
  6
CONTINUOUS
 62
    7
 10
975.3220726198
 20
667.17197014474993
 11
1141.32207062
 21
667.17197014474993
  0
TEXT
  8
_0-9_寸法
 62
    7
 10
1140.3220718950001
 20
685.42196964475011
 40
10.5
 41
1
 50
90.000003000000035
  1
48
  0
LINE
  8
_0-3_躯体
  6
CONTINUOUS
 62
    7
 10
910.32217661980008
 20
688.8113357248501
 11
895.32207761979998
 21
673.81123672485
  0
LINE
  8
_0-3_躯体
  6
CONTINUOUS
 62
    7
 10
910.44510689430001
 20
684.69162531224993
 11
895.32207761979998
 21
669.56859603775001
  0
LINE
  8
_0-3_躯体
  6
CONTINUOUS
 62
    7
 10
914.09021173639985
 20
684.09408946725
 11
897.16809241390001
 21
667.17197014474993
  0
LINE
  8
_0-3_躯体
  6
CONTINUOUS
 62
    7
 10
914.3221508603001
 20
680.08338790405014
 11
901.41073310100001
 21
667.17197014474993
  0
LINE
  8
_0-3_躯体
  6
CONTINUOUS
 62
    7
 10
914.32211449440001
 20
675.84071085105006
 11
905.6533737881
 21
667.17197014474993
  0
LINE
  8
_0-3_躯体
  6
CONTINUOUS
 62
    7
 10
914.32197825480011
 20
671.59793392434995
 11
909.32194196979981
 21
666.59789763924982
  0
LINE
  8
_0-3_躯体
  6
CONTINUOUS
 62
    7
 10
915.25145202220006
 20
668.28476700465012
 11
909.32190760410003
 21
662.35522258645005
  0
LINE
  8
_0-3_躯体
  6
CONTINUOUS
 62
    7
 10
919.38132184949995
 20
668.17199614474998
 11
909.32187323849996
 21
658.1125475337501
  0
ARC
  8
_0-4_止水補助板
  6
CONTINUOUS
 62
    7
 10
1023.1895297916001
 20
637.66062209444999
 40
37.979764383279999
 50
194.46318915660001
 51
345.53681084336
  0
ARC
  8
_0-4_止水補助板
  6
CONTINUOUS
 62
    7
 10
1023.1899704406
 20
637.66073138224988
 40
38.980220269919997
 50
194.46318381379999
 51
345.53681618620999
  0
LINE
  8
_0-3_躯体
  6
CONTINUOUS
 62
    7
 10
895.32207761979998
 20
693.17195614475008
 11
910.62217661980003
 21
693.17195614475008
  0
LINE
  8
_0-9_寸法
  6
CENTER
 62
    7
 10
388.19453441299999
 20
703.17200114475008
 11
388.19453441299999
 21
607.17197014475005
  0
LINE
  8
_0-9_寸法
  6
CENTER
 62
    7
 10
1025.2912063220001
 20
704.17200014474997
 11
1025.2912063220001
 21
607.17197014475005
  0
LINE
  8
_0-9_寸法
  6
CONTINUOUS
 62
    7
 10
391.12789034000002
 20
690.78295986714988
 11
401.29157533999989
 21
708.38697786715011
  0
CIRCLE
  8
_0-9_寸法
  6
CONTINUOUS
 62
    7
 10
404.29157533999989
 20
713.58313086714998
 40
6
  0
CIRCLE
  8
_0-9_寸法
  6
CONTINUOUS
 62
    7
 10
391.12789034000002
 20
690.78295986714988
 40
0.5999999999999999
  0
TEXT
  8
_0-9_寸法
 62
    7
 10
401.89157534000003
 20
708.78313086715002
 40
9.5999999999999996
 41
1
 50
0
  1
2
  0
LINE
  8
_0-9_寸法
  6
CONTINUOUS
 62
    7
 10
433.12586233709999
 20
691.17200114475008
 11
443.24942533709998
 21
708.70653014474988
  0
CIRCLE
  8
_0-9_寸法
  6
CONTINUOUS
 62
    7
 10
446.24942533709998
 20
713.90268314474997
 40
6
  0
CIRCLE
  8
_0-9_寸法
  6
CONTINUOUS
 62
    7
 10
433.12586233709999
 20
691.17200114475008
 40
0.5999999999999999
  0
TEXT
  8
_0-9_寸法
 62
    7
 10
443.8494253371
 20
709.10268314475002
 40
9.5999999999999996
 41
1
 50
0
  1
1
  0
LINE
  8
_0-9_寸法
  6
CONTINUOUS
 62
    7
 10
446.90435805649997
 20
668.17197214474982
 11
470.3071300565
 21
708.7067571447501
  0
CIRCLE
  8
_0-9_寸法
  6
CONTINUOUS
 62
    7
 10
473.3071300565
 20
713.90291014474997
 40
6
  0
CIRCLE
  8
_0-9_寸法
  6
CONTINUOUS
 62
    7
 10
446.90435805649997
 20
668.17197214474982
 40
0.5999999999999999
  0
TEXT
  8
_0-9_寸法
 62
    7
 10
470.90713005650002
 20
709.10291014475001
 40
9.5999999999999996
 41
1
 50
0
  1
3
  0
LINE
  8
_0-8_その他
  6
CONTINUOUS
 62
    7
 10
282.69463441300002
 20
694.63560314475012
 11
282.69463441300002
 21
673.17197414475004
  0
LINE
  8
_0-8_その他
  6
CONTINUOUS
 62
    7
 10
493.69443141299996
 20
694.63560314475012
 11
493.69443141299996
 21
673.17197414475004
  0
LINE
  8
_0-8_その他
  6
CONTINUOUS
 62
    7
 10
919.82217161979997
 20
695.63560214475001
 11
919.82217161979997
 21
674.17197314475004
  0
LINE
  8
_0-9_寸法
  6
CONTINUOUS
 62
    7
 10
479.94453326480004
 20
669.92199180854982
 11
491.81089526479991
 21
649.36885080854995
  0
CIRCLE
  8
_0-9_寸法
  6
CONTINUOUS
 62
    7
 10
494.81089526479991
 20
644.17269780855008
 40
6
  0
CIRCLE
  8
_0-9_寸法
  6
CONTINUOUS
 62
    7
 10
479.94453326480004
 20
669.92199180854982
 40
0.5999999999999999
  0
TEXT
  8
_0-9_寸法
 62
    7
 10
492.41089526479999
 20
639.3726978085499
 40
9.5999999999999996
 41
1
 50
0
  1
8
  0
LINE
  8
_0-9_寸法
  6
CONTINUOUS
 62
    7
 10
1022.3886901936
 20
691.78295886734986
 11
1012.7741071936
 21
708.43590486735002
  0
CIRCLE
  8
_0-9_寸法
  6
CONTINUOUS
 62
    7
 10
1009.7741071936
 20
713.63205486735001
 40
6
  0
CIRCLE
  8
_0-9_寸法
  6
CONTINUOUS
 62
    7
 10
1022.3886901936
 20
691.78295886734986
 40
0.5999999999999999
  0
TEXT
  8
_0-9_寸法
 62
    7
 10
1007.1491071936
 20
708.38205486735001
 40
10.5
 41
1
 50
0
  1
2
  0
LINE
  8
_0-9_寸法
  6
CONTINUOUS
 62
    7
 10
980.39071819649985
 20
692.17200014474997
 11
970.81897519650011
 21
708.75074714474999
  0
CIRCLE
  8
_0-9_寸法
  6
CONTINUOUS
 62
    7
 10
967.81897519650011
 20
713.94689714474998
 40
6
  0
CIRCLE
  8
_0-9_寸法
  6
CONTINUOUS
 62
    7
 10
980.39071819649985
 20
692.17200014474997
 40
0.5999999999999999
  0
TEXT
  8
_0-9_寸法
 62
    7
 10
965.19397519650011
 20
708.69689714474998
 40
10.5
 41
1
 50
0
  1
1
  0
LINE
  8
_0-9_寸法
  6
CONTINUOUS
 62
    7
 10
967.1716637513
 20
669.17199514474987
 11
944.32069375129993
 21
708.75103414474995
  0
CIRCLE
  8
_0-9_寸法
  6
CONTINUOUS
 62
    7
 10
941.32069375129993
 20
713.94718414475005
 40
6
  0
CIRCLE
  8
_0-9_寸法
  6
CONTINUOUS
 62
    7
 10
967.1716637513
 20
669.17199514474987
 40
0.5999999999999999
  0
TEXT
  8
_0-9_寸法
 62
    7
 10
938.69569375129993
 20
708.69718414475005
 40
10.5
 41
1
 50
0
  1
3
  0
LINE
  8
_0-9_寸法
  6
CONTINUOUS
 62
    7
 10
919.82217311980003
 20
692.02200014474988
 11
905.86615211980006
 21
716.19453614475003
  0
CIRCLE
  8
_0-9_寸法
  6
CONTINUOUS
 62
    7
 10
902.86615211980006
 20
721.39068914475001
 40
6
  0
CIRCLE
  8
_0-9_寸法
  6
CONTINUOUS
 62
    7
 10
919.82217311980003
 20
692.02200014474988
 40
0.5999999999999999
  0
TEXT
  8
_0-9_寸法
 62
    7
 10
900.24115211980006
 20
716.14068914475001
 40
10.5
 41
1
 50
0
  1
8
  0
LINE
  8
_0-9_寸法
  6
CONTINUOUS
 62
    7
 10
1069.97207162
 20
741.57196914475003
 11
1082.2375446199999
 21
762.81639114475001
  0
CIRCLE
  8
_0-9_寸法
  6
CONTINUOUS
 62
    7
 10
1085.2375446199999
 20
768.01254414475011
 40
6
  0
CIRCLE
  8
_0-9_寸法
  6
CONTINUOUS
 62
    7
 10
1069.97207162
 20
741.57196914475003
 40
0.5999999999999999
  0
TEXT
  8
_0-9_寸法
 62
    7
 10
1082.6125446199999
 20
762.76254414475011
 40
10.5
 41
1
 50
0
  1
7
  0
CIRCLE
  8
_0-9_寸法
  6
CONTINUOUS
 62
    7
 10
1101.2058161290001
 20
718.3616149607501
 40
0.5999999999999999
  0
CIRCLE
  8
_0-9_寸法
  6
CONTINUOUS
 62
    7
 10
1110.4413336779999
 20
734.35799777774992
 40
6
  0
TEXT
  8
_0-9_寸法
 62
    7
 10
1108.0413336779998
 20
729.55799777774996
 40
9.5999999999999996
 41
1
 50
0
  1
9
  0
LINE
  8
_0-9_寸法
  6
CONTINUOUS
 62
    7
 10
1101.2058161290001
 20
718.3616149607501
 11
1107.4413326289998
 21
729.16184596074982
  0
LINE
  8
_0-9_寸法
  6
CONTINUOUS
 62
    7
 10
1068.3220727449998
 20
676.42196589474997
 11
1084.7952887450001
 21
647.88952089475004
  0
CIRCLE
  8
_0-9_寸法
  6
CONTINUOUS
 62
    7
 10
1087.7952887450001
 20
642.69336789475005
 40
6
  0
CIRCLE
  8
_0-9_寸法
  6
CONTINUOUS
 62
    7
 10
1068.3220727449998
 20
676.42196589474997
 40
0.5999999999999999
  0
TEXT
  8
_0-9_寸法
 62
    7
 10
1085.1702887450001
 20
637.44336789474994
 40
10.5
 41
1
 50
0
  1
5
  0
CIRCLE
  8
_0-9_寸法
  6
CONTINUOUS
 62
    7
 10
1067.1438610289999
 20
651.9234215992501
 40
0.5999999999999999
  0
LINE
  8
_0-9_寸法
  6
CONTINUOUS
 62
    7
 10
1067.1438610289999
 20
651.9234215992501
 11
1082.3078419130002
 21
625.65863841554994
  0
CIRCLE
  8
_0-9_寸法
  6
CONTINUOUS
 62
    7
 10
1085.3078420679999
 20
620.46248608215001
 40
6
  0
TEXT
  8
_0-9_寸法
 62
    7
 10
1082.6828420679999
 20
615.21248608215001
 40
10.5
 41
1
 50
0
  1
6
  0
CIRCLE
  8
_0-9_寸法
  6
CONTINUOUS
 62
    7
 10
476.42237241299995
 20
634.78268014474997
 40
0.5999999999999999
  0
CIRCLE
  8
_0-9_寸法
  6
CONTINUOUS
 62
    7
 10
486.83233341300001
 20
616.75210114474999
 40
6
  0
TEXT
  8
_0-9_寸法
 62
    7
 10
484.43233341299992
 20
611.95210114475003
 40
9.5999999999999996
 41
1
 50
0
  1
6
  0
LINE
  8
_0-9_寸法
  6
CONTINUOUS
 62
    7
 10
476.42237241299995
 20
634.78268014474997
 11
483.83233341300001
 21
621.94825414474997
  0
CIRCLE
  8
_0-9_寸法
  6
CONTINUOUS
 62
    7
 10
937.09423061979999
 20
635.78267914474998
 40
0.5999999999999999
  0
LINE
  8
_0-9_寸法
  6
CONTINUOUS
 62
    7
 10
937.09423061979999
 20
635.78267914474998
 11
928.68372002019998
 21
621.21524696854999
  0
TEXT
  8
_0-9_寸法
 62
    7
 10
923.05872009739983
 20
610.76909450125004
 40
10.5
 41
1
 50
0
  1
9
  0
CIRCLE
  8
_0-9_寸法
  6
CONTINUOUS
 62
    7
 10
925.68372009739983
 20
616.01909450125004
 40
6
  0
LINE
  8
_0-a_レイヤ1
  6
CONTINUOUS
 62
    7
 10
603.22500000000002
 20
264.31449885524995
 11
176.77499999999995
 21
264.31449885524995
  0
LINE
  8
_0-a_レイヤ1
  6
CONTINUOUS
 62
    7
 10
603.22500000000002
 20
300.31449885524995
 11
176.77499999999995
 21
300.31449885524995
  0
LINE
  8
_0-a_レイヤ1
  6
CONTINUOUS
 62
    7
 10
603.22500000000002
 20
282.31449885524995
 11
176.77499999999995
 21
282.31449885524995
  0
LINE
  8
_0-a_レイヤ1
  6
CONTINUOUS
 62
    7
 10
603.22500000000002
 20
318.31449885524995
 11
176.77499999999995
 21
318.31449885524995
  0
LINE
  8
_0-a_レイヤ1
  6
CONTINUOUS
 62
    7
 10
603.22500000000002
 20
426.31449885525001
 11
176.77499999999995
 21
426.31449885525001
  0
LINE
  8
_0-a_レイヤ1
  6
CONTINUOUS
 62
    7
 10
603.22500000000002
 20
408.31449885525001
 11
176.77499999999995
 21
408.31449885525001
  0
LINE
  8
_0-a_レイヤ1
  6
CONTINUOUS
 62
    7
 10
603.22500000000002
 20
390.31449885525001
 11
176.77499999999995
 21
390.31449885525001
  0
LINE
  8
_0-a_レイヤ1
  6
CONTINUOUS
 62
    7
 10
603.22500000000002
 20
372.31449885525001
 11
176.77499999999995
 21
372.31449885525001
  0
LINE
  8
_0-a_レイヤ1
  6
CONTINUOUS
 62
    7
 10
603.22500000000002
 20
354.31449885525001
 11
176.77499999999995
 21
354.31449885525001
  0
LINE
  8
_0-a_レイヤ1
  6
CONTINUOUS
 62
    7
 10
603.22500000000002
 20
336.31449885524995
 11
176.77499999999995
 21
336.31449885524995
  0
LINE
  8
_0-a_レイヤ1
  6
CONTINUOUS
 62
    7
 10
603.22500000000002
 20
458.71449885524999
 11
176.77499999999995
 21
458.71449885524999
  0
TEXT
  8
_0-a_レイヤ1
 62
    7
 10
504.58643100000006
 20
411.91451085525
 40
9.5999999999999996
 41
1
 50
0
  1
３０００
  0
TEXT
  8
_0-a_レイヤ1
 62
    7
 10
564.85566449999999
 20
412.0644733552499
 40
9.5999999999999996
 41
1
 50
0
  1
２
  0
TEXT
  8
_0-a_レイヤ1
 62
    7
 10
587.79037499999993
 20
411.91451085525
 40
9.5999999999999996
 41
1
 50
0
  1
本
  0
TEXT
  8
_0-a_レイヤ1
 62
    7
 10
187.53549599999999
 20
393.99714735524998
 40
9.5999999999999996
 41
1
 50
0
  1
２
  0
TEXT
  8
_0-a_レイヤ1
 62
    7
 10
504.58643100000006
 20
393.91451085525
 40
9.5999999999999996
 41
1
 50
0
  1
３０００
  0
TEXT
  8
_0-a_レイヤ1
 62
    7
 10
564.85566449999999
 20
394.06450785524999
 40
9.5999999999999996
 41
1
 50
0
  1
１
  0
TEXT
  8
_0-a_レイヤ1
 62
    7
 10
587.79037499999993
 20
393.91451085525
 40
9.5999999999999996
 41
1
 50
0
  1
〃
  0
TEXT
  8
_0-a_レイヤ1
 62
    7
 10
187.53549599999999
 20
375.99714735524998
 40
9.5999999999999996
 41
1
 50
0
  1
３
  0
TEXT
  8
_0-a_レイヤ1
 62
    7
 10
564.85566449999999
 20
376.06447335524996
 40
9.5999999999999996
 41
1
 50
0
  1
２
  0
TEXT
  8
_0-a_レイヤ1
 62
    7
 10
587.79037499999993
 20
375.91451085525
 40
9.5999999999999996
 41
1
 50
0
  1
〃
  0
TEXT
  8
_0-a_レイヤ1
 62
    7
 10
187.53549599999999
 20
357.99714735524998
 40
9.5999999999999996
 41
1
 50
0
  1
４
  0
TEXT
  8
_0-a_レイヤ1
 62
    7
 10
201.97502249999999
 20
357.91451085525
 40
9.5999999999999996
 41
1
 50
0
  1
止水補助板
  0
TEXT
  8
_0-a_レイヤ1
 62
    7
 10
504.58643100000006
 20
357.91451085525
 40
9.5999999999999996
 41
1
 50
0
  1
３１００
  0
TEXT
  8
_0-a_レイヤ1
 62
    7
 10
564.85566449999999
 20
358.06450785524999
 40
9.5999999999999996
 41
1
 50
0
  1
１
  0
TEXT
  8
_0-a_レイヤ1
 62
    7
 10
587.79037499999993
 20
357.91451085525
 40
9.5999999999999996
 41
1
 50
0
  1
枚
  0
TEXT
  8
_0-a_レイヤ1
 62
    7
 10
187.53549599999999
 20
339.99718185525001
 40
9.5999999999999996
 41
1
 50
0
  1
５
  0
TEXT
  8
_0-a_レイヤ1
 62
    7
 10
187.53549599999999
 20
321.99718185525001
 40
9.5999999999999996
 41
1
 50
0
  1
６
  0
TEXT
  8
_0-a_レイヤ1
 62
    7
 10
587.79037499999993
 20
321.91451085525
 40
9.5999999999999996
 41
1
 50
0
  1
〃
  0
TEXT
  8
_0-a_レイヤ1
 62
    7
 10
187.53549599999999
 20
303.99716535524999
 40
9.5999999999999996
 41
1
 50
0
  1
７
  0
TEXT
  8
_0-a_レイヤ1
 62
    7
 10
587.79037499999993
 20
303.91449285525005
 40
9.5999999999999996
 41
1
 50
0
  1
〃
  0
TEXT
  8
_0-a_レイヤ1
 62
    7
 10
187.53549599999999
 20
285.99716535524999
 40
9.5999999999999996
 41
1
 50
0
  1
８
  0
TEXT
  8
_0-a_レイヤ1
 62
    7
 10
201.97502249999999
 20
285.91452735525002
 40
9.5999999999999996
 41
1
 50
0
  1
ステンワッシャー
  0
TEXT
  8
_0-a_レイヤ1
 62
    7
 10
372.97507349999995
 20
285.91452735525002
 40
9.5999999999999996
 41
1
 50
0
  1
１．５×１８×５．５穴
  0
TEXT
  8
_0-a_レイヤ1
 62
    7
 10
587.79037499999993
 20
285.91452735525002
 40
9.5999999999999996
 41
1
 50
0
  1
枚
  0
LINE
  8
_0-a_レイヤ1
  6
CONTINUOUS
 62
    7
 10
1203.2250000000001
 20
426.31449885525001
 11
776.77500000000009
 21
426.31449885525001
  0
LINE
  8
_0-a_レイヤ1
  6
CONTINUOUS
 62
    7
 10
1203.2250000000001
 20
408.31449885525001
 11
776.77500000000009
 21
408.31449885525001
  0
LINE
  8
_0-a_レイヤ1
  6
CONTINUOUS
 62
    7
 10
1203.2250000000001
 20
390.31449885525001
 11
776.77500000000009
 21
390.31449885525001
  0
LINE
  8
_0-a_レイヤ1
  6
CONTINUOUS
 62
    7
 10
1203.2250000000001
 20
372.31449885525001
 11
776.77500000000009
 21
372.31449885525001
  0
LINE
  8
_0-a_レイヤ1
  6
CONTINUOUS
 62
    7
 10
1203.2250000000001
 20
354.31449885525001
 11
776.77500000000009
 21
354.31449885525001
  0
LINE
  8
_0-a_レイヤ1
  6
CONTINUOUS
 62
    7
 10
1203.2250000000001
 20
336.31449885524995
 11
776.77500000000009
 21
336.31449885524995
  0
LINE
  8
_0-a_レイヤ1
  6
CONTINUOUS
 62
    7
 10
1203.2250000000001
 20
318.31449885524995
 11
776.77500000000009
 21
318.31449885524995
  0
LINE
  8
_0-a_レイヤ1
  6
CONTINUOUS
 62
    7
 10
1203.2250000000001
 20
300.31449885524995
 11
776.77500000000009
 21
300.31449885524995
  0
LINE
  8
_0-a_レイヤ1
  6
CONTINUOUS
 62
    7
 10
1203.2250000000001
 20
282.31449885524995
 11
776.77500000000009
 21
282.31449885524995
  0
LINE
  8
_0-a_レイヤ1
  6
CONTINUOUS
 62
    7
 10
1203.2250000000001
 20
264.31449885524995
 11
776.77500000000009
 21
264.31449885524995
  0
LINE
  8
_0-a_レイヤ1
  6
CONTINUOUS
 62
    7
 10
1203.2250000000001
 20
228.31449885525001
 11
776.77500000000009
 21
228.31449885525001
  0
LINE
  8
_0-a_レイヤ1
  6
CONTINUOUS
 62
    7
 10
1203.2250000000001
 20
458.71449885524999
 11
776.77500000000009
 21
458.71449885524999
  0
LINE
  8
_0-a_レイヤ1
  6
CONTINUOUS
 62
    7
 10
1203.2250000000001
 20
246.31449885525001
 11
776.77500000000009
 21
246.31449885525001
  0
LINE
  8
_0-a_レイヤ1
  6
CONTINUOUS
 62
    7
 10
1203.2250000000001
 20
210.31449885525001
 11
776.77500000000009
 21
210.31449885525001
  0
TEXT
  8
_0-a_レイヤ1
 62
    7
 10
778.26615149999998
 20
411.99714735524998
 40
9.5999999999999996
 41
1
 50
0
  1
　１
  0
TEXT
  8
_0-a_レイヤ1
 62
    7
 10
1104.5862585
 20
411.91451085525
 40
9.5999999999999996
 41
1
 50
0
  1
３０００
  0
TEXT
  8
_0-a_レイヤ1
 62
    7
 10
1166.3557110000002
 20
412.0644733552499
 40
9.5999999999999996
 41
1
 50
0
  1
１
  0
TEXT
  8
_0-a_レイヤ1
 62
    7
 10
1187.7903060000001
 20
411.91451085525
 40
9.5999999999999996
 41
1
 50
0
  1
本
  0
TEXT
  8
_0-a_レイヤ1
 62
    7
 10
787.53544349999993
 20
393.99714735524998
 40
9.5999999999999996
 41
1
 50
0
  1
２
  0
TEXT
  8
_0-a_レイヤ1
 62
    7
 10
1104.5862585
 20
393.91451085525
 40
9.5999999999999996
 41
1
 50
0
  1
３０００
  0
TEXT
  8
_0-a_レイヤ1
 62
    7
 10
1166.3557110000002
 20
394.06450785524999
 40
9.5999999999999996
 41
1
 50
0
  1
１
  0
TEXT
  8
_0-a_レイヤ1
 62
    7
 10
1187.7903060000001
 20
393.91451085525
 40
9.5999999999999996
 41
1
 50
0
  1
〃
  0
TEXT
  8
_0-a_レイヤ1
 62
    7
 10
787.53544349999993
 20
375.99714735524998
 40
9.5999999999999996
 41
1
 50
0
  1
３
  0
TEXT
  8
_0-a_レイヤ1
 62
    7
 10
1104.5862585
 20
375.91451085525
 40
9.5999999999999996
 41
1
 50
0
  1
３０００
  0
TEXT
  8
_0-a_レイヤ1
 62
    7
 10
1166.3557110000002
 20
376.06447335524996
 40
9.5999999999999996
 41
1
 50
0
  1
１
  0
TEXT
  8
_0-a_レイヤ1
 62
    7
 10
1187.7903060000001
 20
375.91451085525
 40
9.5999999999999996
 41
1
 50
0
  1
〃
  0
TEXT
  8
_0-a_レイヤ1
 62
    7
 10
787.53544349999993
 20
357.99714735524998
 40
9.5999999999999996
 41
1
 50
0
  1
４
  0
TEXT
  8
_0-a_レイヤ1
 62
    7
 10
1104.5862585
 20
357.91451085525
 40
9.5999999999999996
 41
1
 50
0
  1
３０００
  0
TEXT
  8
_0-a_レイヤ1
 62
    7
 10
1166.3557110000002
 20
358.06450785524999
 40
9.5999999999999996
 41
1
 50
0
  1
１
  0
TEXT
  8
_0-a_レイヤ1
 62
    7
 10
1187.7903060000001
 20
357.91451085525
 40
9.5999999999999996
 41
1
 50
0
  1
〃
  0
TEXT
  8
_0-a_レイヤ1
 62
    7
 10
787.53544349999993
 20
339.99718185525001
 40
9.5999999999999996
 41
1
 50
0
  1
５
  0
TEXT
  8
_0-a_レイヤ1
 62
    7
 10
787.53544349999993
 20
321.99718185525001
 40
9.5999999999999996
 41
1
 50
0
  1
６
  0
TEXT
  8
_0-a_レイヤ1
 62
    7
 10
787.53544349999993
 20
303.99718185525001
 40
9.5999999999999996
 41
1
 50
0
  1
７
  0
TEXT
  8
_0-a_レイヤ1
 62
    7
 10
787.53544349999993
 20
285.99716535524999
 40
9.5999999999999996
 41
1
 50
0
  1
８
  0
TEXT
  8
_0-a_レイヤ1
 62
    7
 10
787.53544349999993
 20
267.99716535524999
 40
9.5999999999999996
 41
1
 50
0
  1
９
  0
TEXT
  8
_0-a_レイヤ1
 62
    7
 10
787.53544349999993
 20
213.99716535524999
 40
9.5999999999999996
 41
1
 50
0
  1
※
  0
TEXT
  8
_0-a_レイヤ1
 62
    7
 10
504.58643100000006
 20
375.91451085525
 40
9.5999999999999996
 41
1
 50
0
  1
３０００
  0
TEXT
  8
_0-a_レイヤ1
 62
    7
 10
187.53549599999999
 20
267.99716535524999
 40
9.5999999999999996
 41
1
 50
0
  1
※
  0
LINE
  8
_0-a_レイヤ1
  6
CONTINUOUS
 62
    7
 10
176.77499999999995
 20
264.31449885524995
 11
176.77499999999995
 21
458.71449885524999
  0
LINE
  8
_0-a_レイヤ1
  6
CONTINUOUS
 62
    7
 10
198.375
 20
264.31449885524995
 11
198.375
 21
458.71449885524999
  0
LINE
  8
_0-a_レイヤ1
  6
CONTINUOUS
 62
    7
 10
369.375
 20
264.31449885524995
 11
369.375
 21
458.71449885524999
  0
LINE
  8
_0-a_レイヤ1
  6
CONTINUOUS
 62
    7
 10
603.22500000000002
 20
264.31449885524995
 11
603.22500000000002
 21
458.71449885524999
  0
LINE
  8
_0-a_レイヤ1
  6
CONTINUOUS
 62
    7
 10
545.625
 20
264.31449885524995
 11
545.625
 21
458.71449885524999
  0
LINE
  8
_0-a_レイヤ1
  6
CONTINUOUS
 62
    7
 10
500.625
 20
264.31449885524995
 11
500.625
 21
458.71449885524999
  0
LINE
  8
_0-a_レイヤ1
  6
CONTINUOUS
 62
    7
 10
581.625
 20
264.31449885524995
 11
581.625
 21
458.71449885524999
  0
LINE
  8
_0-a_レイヤ1
  6
CONTINUOUS
 62
    7
 10
497.625
 20
264.31449885524995
 11
497.625
 21
458.71449885524999
  0
TEXT
  8
_0-a_レイヤ1
 62
    7
 10
201.97502249999999
 20
339.91451085525
 40
9.5999999999999996
 41
1
 50
0
  1
ステントリリングねじ
  0
TEXT
  8
_0-a_レイヤ1
 62
    7
 10
372.97507349999995
 20
339.91451085525
 40
9.5999999999999996
 41
1
 50
0
  1
皿４×１６
  0
TEXT
  8
_0-a_レイヤ1
 62
    7
 10
201.97502249999999
 20
321.91451085525
 40
9.5999999999999996
 41
1
 50
0
  1
アンカープラグ
  0
TEXT
  8
_0-a_レイヤ1
 62
    7
 10
372.97503899999998
 20
321.91451085525
 40
9.5999999999999996
 41
1
 50
0
  1
フィッシャープラグＳ８
  0
TEXT
  8
_0-a_レイヤ1
 62
    7
 10
201.97502249999999
 20
303.91452735525002
 40
9.5999999999999996
 41
1
 50
0
  1
ステンタッピンねじ
  0
TEXT
  8
_0-a_レイヤ1
 62
    7
 10
372.97503899999998
 20
303.91452735525002
 40
9.5999999999999996
 41
1
 50
0
  1
なべ５×５０
  0
TEXT
  8
_0-a_レイヤ1
 62
    7
 10
564.85566449999999
 20
268.06450785524999
 40
9.5999999999999996
 41
1
 50
0
  1
１
  0
TEXT
  8
_0-a_レイヤ1
 62
    7
 10
201.97502249999999
 20
267.91451085525
 40
9.5999999999999996
 41
1
 50
0
  1
ブチルテープ
  0
TEXT
  8
_0-a_レイヤ1
 62
    7
 10
372.97503899999998
 20
267.91451085525
 40
9.5999999999999996
 41
1
 50
0
  1
ｔ１．０×ｗ３０
  0
LINE
  8
_0-a_レイヤ1
  6
CONTINUOUS
 62
    7
 10
776.77500000000009
 20
210.31449885525001
 11
776.77500000000009
 21
458.71449885524999
  0
LINE
  8
_0-a_レイヤ1
  6
CONTINUOUS
 62
    7
 10
798.375
 20
210.31449885525001
 11
798.375
 21
458.71449885524999
  0
LINE
  8
_0-a_レイヤ1
  6
CONTINUOUS
 62
    7
 10
969.375
 20
210.31449885525001
 11
969.375
 21
458.71449885524999
  0
LINE
  8
_0-a_レイヤ1
  6
CONTINUOUS
 62
    7
 10
1097.625
 20
210.31449885525001
 11
1097.625
 21
458.71449885524999
  0
LINE
  8
_0-a_レイヤ1
  6
CONTINUOUS
 62
    7
 10
1203.2250000000001
 20
210.31449885525001
 11
1203.2250000000001
 21
458.71449885524999
  0
LINE
  8
_0-a_レイヤ1
  6
CONTINUOUS
 62
    7
 10
1181.625
 20
210.31449885525001
 11
1181.625
 21
458.71449885524999
  0
LINE
  8
_0-a_レイヤ1
  6
CONTINUOUS
 62
    7
 10
1145.625
 20
210.31449885525001
 11
1145.625
 21
458.71449885524999
  0
LINE
  8
_0-a_レイヤ1
  6
CONTINUOUS
 62
    7
 10
1100.625
 20
210.31449885525001
 11
1100.625
 21
458.71449885524999
  0
TEXT
  8
_0-a_レイヤ1
 62
    7
 10
778.26615149999998
 20
249.99716535524999
 40
9.5999999999999996
 41
1
 50
0
  1
１０
  0
TEXT
  8
_0-a_レイヤ1
 62
    7
 10
778.26615149999998
 20
231.99716535524999
 40
9.5999999999999996
 41
1
 50
0
  1
１１
  0
TEXT
  8
_0-a_レイヤ1
 62
    7
 10
1104.5862585
 20
339.91451085525
 40
9.5999999999999996
 41
1
 50
0
  1
３０００
  0
TEXT
  8
_0-a_レイヤ1
 62
    7
 10
1166.3557110000002
 20
340.06450785524999
 40
9.5999999999999996
 41
1
 50
0
  1
１
  0
TEXT
  8
_0-a_レイヤ1
 62
    7
 10
1187.7903060000001
 20
339.91451085525
 40
9.5999999999999996
 41
1
 50
0
  1
〃
  0
TEXT
  8
_0-a_レイヤ1
 62
    7
 10
1166.3557110000002
 20
322.06450785524999
 40
9.5999999999999996
 41
1
 50
0
  1
１
  0
TEXT
  8
_0-a_レイヤ1
 62
    7
 10
801.97503899999992
 20
321.91451085525
 40
9.5999999999999996
 41
1
 50
0
  1
止水補助板
  0
TEXT
  8
_0-a_レイヤ1
 62
    7
 10
1104.5862585
 20
321.91451085525
 40
9.5999999999999996
 41
1
 50
0
  1
３１００
  0
TEXT
  8
_0-a_レイヤ1
 62
    7
 10
1187.7903060000001
 20
321.91451085525
 40
9.5999999999999996
 41
1
 50
0
  1
枚
  0
TEXT
  8
_0-a_レイヤ1
 62
    7
 10
1166.3557110000002
 20
304.06450785524999
 40
9.5999999999999996
 41
1
 50
0
  1
１
  0
TEXT
  8
_0-a_レイヤ1
 62
    7
 10
1187.790375
 20
285.91451085525
 40
9.5999999999999996
 41
1
 50
0
  1
〃
  0
TEXT
  8
_0-a_レイヤ1
 62
    7
 10
801.97502250000002
 20
285.91451085525
 40
9.5999999999999996
 41
1
 50
0
  1
ステントリリングねじ
  0
TEXT
  8
_0-a_レイヤ1
 62
    7
 10
972.97507350000001
 20
285.91451085525
 40
9.5999999999999996
 41
1
 50
0
  1
皿４×１６
  0
TEXT
  8
_0-a_レイヤ1
 62
    7
 10
1187.7903060000001
 20
303.91451085525
 40
9.5999999999999996
 41
1
 50
0
  1
本
  0
TEXT
  8
_0-a_レイヤ1
 62
    7
 10
1104.5863964999999
 20
303.91452735525002
 40
9.5999999999999996
 41
1
 50
0
  1
３０００
  0
TEXT
  8
_0-a_レイヤ1
 62
    7
 10
1187.790375
 20
267.91451085525
 40
9.5999999999999996
 41
1
 50
0
  1
〃
  0
TEXT
  8
_0-a_レイヤ1
 62
    7
 10
801.97502250000002
 20
267.91451085525
 40
9.5999999999999996
 41
1
 50
0
  1
アンカープラグ
  0
TEXT
  8
_0-a_レイヤ1
 62
    7
 10
972.97503899999992
 20
267.91451085525
 40
9.5999999999999996
 41
1
 50
0
  1
フィッシャープラグＳ８
  0
TEXT
  8
_0-a_レイヤ1
 62
    7
 10
1187.790375
 20
249.91451085524997
 40
9.5999999999999996
 41
1
 50
0
  1
〃
  0
TEXT
  8
_0-a_レイヤ1
 62
    7
 10
1187.7903060000001
 20
231.91451085524997
 40
9.5999999999999996
 41
1
 50
0
  1
枚
  0
TEXT
  8
_0-a_レイヤ1
 62
    7
 10
1187.7903060000001
 20
213.91451085525
 40
9.5999999999999996
 41
1
 50
0
  1
巻
  0
TEXT
  8
_0-a_レイヤ1
 62
    7
 10
1166.3557110000002
 20
214.06450785524999
 40
9.5999999999999996
 41
1
 50
0
  1
１
  0
TEXT
  8
_0-a_レイヤ1
 62
    7
 10
1104.5863964999999
 20
213.91452735524996
 40
9.5999999999999996
 41
1
 50
0
  1
６０００
  0
TEXT
  8
_0-a_レイヤ1
 62
    7
 10
801.97502250000002
 20
231.91452735524996
 40
9.5999999999999996
 41
1
 50
0
  1
ステンワッシャー
  0
TEXT
  8
_0-a_レイヤ1
 62
    7
 10
972.97507350000001
 20
231.91452735524996
 40
9.5999999999999996
 41
1
 50
0
  1
１．５×１８×５．５穴
  0
TEXT
  8
_0-a_レイヤ1
 62
    7
 10
801.97502250000002
 20
249.91452735524996
 40
9.5999999999999996
 41
1
 50
0
  1
ステンタッピンねじ
  0
TEXT
  8
_0-a_レイヤ1
 62
    7
 10
972.97503899999992
 20
249.91452735524996
 40
9.5999999999999996
 41
1
 50
0
  1
なべ５×５０
  0
TEXT
  8
_0-a_レイヤ1
 62
    7
 10
801.97502250000002
 20
213.91451085525
 40
9.5999999999999996
 41
1
 50
0
  1
ブチルテープ
  0
TEXT
  8
_0-a_レイヤ1
 62
    7
 10
972.97503899999992
 20
213.91451085525
 40
9.5999999999999996
 41
1
 50
0
  1
ｔ１．０×ｗ３０
  0
TEXT
  8
_0-a_レイヤ1
 62
    7
 10
587.79037499999993
 20
339.91451085525
 40
9.5999999999999996
 41
1
 50
0
  1
本
  0
TEXT
  8
_0-a_レイヤ1
 62
    7
 10
587.79037499999993
 20
267.91451085525
 40
9.5999999999999996
 41
1
 50
0
  1
巻
  0
TEXT
  8
_0-a_レイヤ1
 62
    7
 10
555.58637250000004
 20
322.06447335525002
 40
9.5999999999999996
 41
1
 50
0
  1
１２
  0
TEXT
  8
_0-a_レイヤ1
 62
    7
 10
555.58637250000004
 20
304.06447335525002
 40
9.5999999999999996
 41
1
 50
0
  1
１２
  0
TEXT
  8
_0-a_レイヤ1
 62
    7
 10
555.58637250000004
 20
286.06452435525
 40
9.5999999999999996
 41
1
 50
0
  1
１２
  0
TEXT
  8
_0-a_レイヤ1
 62
    7
 10
504.58643100000006
 20
267.91451085525
 40
9.5999999999999996
 41
1
 50
0
  1
６０００
  0
TEXT
  8
_0-a_レイヤ1
 62
    7
 10
1155.5863724999999
 20
268.06447335525002
 40
9.5999999999999996
 41
1
 50
0
  1
１２
  0
TEXT
  8
_0-a_レイヤ1
 62
    7
 10
1155.5863724999999
 20
250.06447335524996
 40
9.5999999999999996
 41
1
 50
0
  1
１２
  0
TEXT
  8
_0-a_レイヤ1
 62
    7
 10
1155.5863724999999
 20
232.06447335524996
 40
9.5999999999999996
 41
1
 50
0
  1
１２
  0
TEXT
  8
_0-a_レイヤ1
 62
    7
 10
801.97496999999998
 20
303.91452735525002
 40
9.5999999999999996
 41
1
 50
0
  1
ガスケットＮ
  0
TEXT
  8
_0-a_レイヤ1
 62
    7
 10
801.97503899999992
 20
339.91451085525
 40
9.5999999999999996
 41
1
 50
0
  1
ＴＣＦ壁フレーム
  0
TEXT
  8
_0-a_レイヤ1
 62
    7
 10
372.97503899999998
 20
357.91451085525
 40
9.5999999999999996
 41
1
 50
0
  1
ＦＳ２５０
  0
TEXT
  8
_0-a_レイヤ1
 62
    7
 10
201.97502249999999
 20
375.91451085525
 40
9.5999999999999996
 41
1
 50
0
  1
ＴＴＦフレーム（Ｂ）
  0
TEXT
  8
_0-a_レイヤ1
 62
    7
 10
178.26620399999999
 20
411.99714735524998
 40
9.5999999999999996
 41
1
 50
0
  1
　１
  0
TEXT
  8
_0-a_レイヤ1
 62
    7
 10
972.97503899999992
 20
321.91452735525002
 40
9.5999999999999996
 41
1
 50
0
  1
ＦＳ２５０
  0
TEXT
  8
_0-a_レイヤ1
 62
    7
 10
776.77501200000006
 20
191.16935512193999
 40
9.5999999999999996
 41
1
 50
0
  1
注）　ガスケットＮはＴＣＮサイドキャップＳ にセット済み。
  0
TEXT
  8
_0-a_レイヤ1
 62
    7
 10
801.97503899999992
 20
357.91451085525
 40
9.5999999999999996
 41
1
 50
0
  1
ＴＣＮサイドキャップＳ
  0
TEXT
  8
_0-a_レイヤ1
 62
    7
 10
801.97503899999992
 20
375.91451085525
 40
9.5999999999999996
 41
1
 50
0
  1
ＴＴＦフレーム（Ｂ）
  0
TEXT
  8
_0-a_レイヤ1
 62
    7
 10
555.58637250000004
 20
340.06449135524997
 40
9.5999999999999996
 41
1
 50
0
  1
２２
  0
TEXT
  8
_0-a_レイヤ1
 62
    7
 10
1155.5863724999999
 20
286.06447335525002
 40
9.5999999999999996
 41
1
 50
0
  1
１１
  0
TEXT
  8
_0-b_レイヤ8
 62
    7
 10
364.19453591299998
 20
532.18709114475007
 40
9.5999999999999996
 41
1
 50
0
  1
Ｓ＝１／３
  0
TEXT
  8
_0-b_レイヤ8
 62
    7
 10
1027.9768797240999
 20
530.43636615604998
 40
9.5999999999999996
 41
1
 50
0
  1
Ｓ＝１／３
  0
TEXT
  8
_0-a_レイヤ1
 62
    7
 10
201.97502249999999
 20
411.91451085525
 40
9.5999999999999996
 41
1
 50
0
  1
ＴＴＦサイドプレート（Ｂ）Ｓ
  0
TEXT
  8
_0-a_レイヤ1
 62
    7
 10
801.97503899999992
 20
411.91451085525
 40
9.5999999999999996
 41
1
 50
0
  1
ＴＴＦサイドプレート（Ｂ）Ｓ
  0
TEXT
  8
_0-a_レイヤ1
 62
    7
 10
201.97502249999999
 20
393.91451085525
 40
9.5999999999999996
 41
1
 50
0
  1
ＴＴＦセンタープレート（Ｂ）ＧＰＳ
  0
TEXT
  8
_0-a_レイヤ1
 62
    7
 10
801.97503899999992
 20
393.91451085525
 40
9.5999999999999996
 41
1
 50
0
  1
ＴＣＦセンタープレート（Ｂ）ＧＰＳ
  0
TEXT
  8
_0-a_レイヤ1
 62
    7
 10
264.67499999999995
 20
437.71449885524999
 40
9.5999999999999996
 41
1
 50
0
  1
部材名称
  0
TEXT
  8
_0-a_レイヤ1
 62
    7
 10
419.09999999999997
 20
437.71449885524999
 40
9.5999999999999996
 41
1
 50
0
  1
規　格
  0
TEXT
  8
_0-a_レイヤ1
 62
    7
 10
587.625
 20
452.11449885524996
 40
9.5999999999999996
 41
1
 50
-90.000000000000014
  1
単位
  0
TEXT
  8
_0-a_レイヤ1
 62
    7
 10
508.72499999999997
 20
445.81449885525001
 40
9.5999999999999996
 41
1
 50
0
  1
定　尺
  0
TEXT
  8
_0-a_レイヤ1
 62
    7
 10
503.92499999999995
 20
429.61449885524996
 40
9.5999999999999996
 41
1
 50
0
  1
（ｍｍ）
  0
TEXT
  8
_0-a_レイヤ1
 62
    7
 10
554.02499999999998
 20
429.61449885524996
 40
9.5999999999999996
 41
1
 50
0
  1
数量
  0
TEXT
  8
_0-a_レイヤ1
 62
    7
 10
554.02499999999998
 20
445.81449885525001
 40
9.5999999999999996
 41
1
 50
0
  1
使用
  0
TEXT
  8
_0-a_レイヤ1
 62
    7
 10
864.67499999999995
 20
437.71449885524999
 40
9.5999999999999996
 41
1
 50
0
  1
部材名称
  0
TEXT
  8
_0-a_レイヤ1
 62
    7
 10
1019.1000000000001
 20
437.71449885524999
 40
9.5999999999999996
 41
1
 50
0
  1
規　格
  0
TEXT
  8
_0-a_レイヤ1
 62
    7
 10
1187.625
 20
452.11449885524996
 40
9.5999999999999996
 41
1
 50
-90
  1
単位
  0
TEXT
  8
_0-a_レイヤ1
 62
    7
 10
1108.7250000000001
 20
445.81449885525001
 40
9.5999999999999996
 41
1
 50
0
  1
定　尺
  0
TEXT
  8
_0-a_レイヤ1
 62
    7
 10
1103.9250000000002
 20
429.61449885524996
 40
9.5999999999999996
 41
1
 50
0
  1
（ｍｍ）
  0
TEXT
  8
_0-a_レイヤ1
 62
    7
 10
1154.0249999999999
 20
429.61449885524996
 40
9.5999999999999996
 41
1
 50
0
  1
数量
  0
TEXT
  8
_0-a_レイヤ1
 62
    7
 10
1154.0249999999999
 20
445.81449885525001
 40
9.5999999999999996
 41
1
 50
0
  1
使用
  0
LINE
  8
_0-3_躯体
  6
CONTINUOUS
 62
    7
 10
296.15017441299995
 20
656.17196914474994
 11
306.15017341299995
 21
666.17197114474993
  0
LINE
  8
_0-3_躯体
  6
CONTINUOUS
 62
    7
 10
300.39281341299994
 20
656.17196914474994
 11
310.39281541299994
 21
666.17197114474993
  0
LINE
  8
_0-3_躯体
  6
CONTINUOUS
 62
    7
 10
304.63545541299993
 20
656.17196914474994
 11
314.63545441299999
 21
666.17197114474993
  0
LINE
  8
_0-3_躯体
  6
CONTINUOUS
 62
    7
 10
308.87809441299999
 20
656.17196914474994
 11
318.87809641299992
 21
666.17197114474993
  0
LINE
  8
_0-3_躯体
  6
CONTINUOUS
 62
    7
 10
313.12073641299997
 20
656.17196914474994
 11
323.12073541299992
 21
666.17197114474993
  0
LINE
  8
_0-3_躯体
  6
CONTINUOUS
 62
    7
 10
317.36337841299991
 20
656.17196914474994
 11
327.36337741299997
 21
666.17197114474993
  0
LINE
  8
_0-3_躯体
  6
CONTINUOUS
 62
    7
 10
321.6060174129999
 20
656.17196914474994
 11
331.60601641299991
 21
666.17197114474993
  0
LINE
  8
_0-3_躯体
  6
CONTINUOUS
 62
    7
 10
325.84865941299995
 20
656.17196914474994
 11
335.84865841299995
 21
666.17197114474993
  0
LINE
  8
_0-3_躯体
  6
CONTINUOUS
 62
    7
 10
330.091298413
 20
656.17196914474994
 11
338.19453541299998
 21
664.27520614474997
  0
LINE
  8
_0-3_躯体
  6
CONTINUOUS
 62
    7
 10
334.33394041299994
 20
656.17196914474994
 11
338.19453541299998
 21
660.03256414475004
  0
LINE
  8
_0-3_躯体
  6
CONTINUOUS
 62
    7
 10
291.90753241299996
 20
656.17196914474994
 11
301.90753441299995
 21
666.17197114474993
  0
LINE
  8
_0-3_躯体
  6
CONTINUOUS
 62
    7
 10
287.66489341299996
 20
656.17196914474994
 11
297.66489241299996
 21
666.17197114474993
  0
LINE
  8
_0-3_躯体
  6
CONTINUOUS
 62
    7
 10
283.42225141299997
 20
656.17196914474994
 11
293.42225041299992
 21
666.17197114474993
  0
LINE
  8
_0-3_躯体
  6
CONTINUOUS
 62
    7
 10
279.17961241299997
 20
656.17196914474994
 11
289.17961141299992
 21
666.17197114474993
  0
LINE
  8
_0-3_躯体
  6
CONTINUOUS
 62
    7
 10
274.93697041299993
 20
656.17196914474994
 11
284.93696941299999
 21
666.17197114474993
  0
LINE
  8
_0-3_躯体
  6
CONTINUOUS
 62
    7
 10
272.19434041299996
 20
657.67198114475002
 11
280.69433041299999
 21
666.17197114474993
  0
LINE
  8
_0-3_躯体
  6
CONTINUOUS
 62
    7
 10
272.19437641299993
 20
661.91465614474998
 11
276.45168841299994
 21
666.17197114474993
  0
LINE
  8
_0-3_躯体
  6
CONTINUOUS
 62
    7
 10
272.19441241299995
 20
666.15733114474995
 11
272.20904941299995
 21
666.17197114474993
  0
LINE
  8
_0-3_躯体
  6
CONTINUOUS
 62
    7
 10
480.23889441299991
 20
656.17196914474994
 11
470.23889541299997
 21
666.17197114474993
  0
LINE
  8
_0-3_躯体
  6
CONTINUOUS
 62
    7
 10
475.99625541299997
 20
656.17196914474994
 11
465.99625341299992
 21
666.17197114474993
  0
LINE
  8
_0-3_躯体
  6
CONTINUOUS
 62
    7
 10
471.75361341299998
 20
656.17196914474994
 11
461.75361441299992
 21
666.17197114474993
  0
LINE
  8
_0-3_躯体
  6
CONTINUOUS
 62
    7
 10
467.51097441299993
 20
656.17196914474994
 11
457.51097241299999
 21
666.17197114474993
  0
LINE
  8
_0-3_躯体
  6
CONTINUOUS
 62
    7
 10
463.26833241299994
 20
656.17196914474994
 11
453.26833341299994
 21
666.17197114474993
  0
LINE
  8
_0-3_躯体
  6
CONTINUOUS
 62
    7
 10
459.02569041299989
 20
656.17196914474994
 11
449.025691413
 21
666.17197114474993
  0
LINE
  8
_0-3_躯体
  6
CONTINUOUS
 62
    7
 10
454.78305141299995
 20
656.17196914474994
 11
444.78305241299995
 21
666.17197114474993
  0
LINE
  8
_0-3_躯体
  6
CONTINUOUS
 62
    7
 10
450.54040941299991
 20
656.17196914474994
 11
440.54041041299996
 21
666.17197114474993
  0
LINE
  8
_0-3_躯体
  6
CONTINUOUS
 62
    7
 10
446.29777041299997
 20
656.17196914474994
 11
438.19453341299993
 21
664.27520614474997
  0
LINE
  8
_0-3_躯体
  6
CONTINUOUS
 62
    7
 10
442.05512841299998
 20
656.17196914474994
 11
438.19453341299993
 21
660.03256414475004
  0
LINE
  8
_0-3_躯体
  6
CONTINUOUS
 62
    7
 10
484.48153641299996
 20
656.17196914474994
 11
474.48153441299996
 21
666.17197114474993
  0
LINE
  8
_0-3_躯体
  6
CONTINUOUS
 62
    7
 10
488.7241754129999
 20
656.17196914474994
 11
478.7241764129999
 21
666.17197114474993
  0
LINE
  8
_0-3_躯体
  6
CONTINUOUS
 62
    7
 10
492.96681741299994
 20
656.17196914474994
 11
482.96681841299994
 21
666.17197114474993
  0
LINE
  8
_0-3_躯体
  6
CONTINUOUS
 62
    7
 10
497.20945641299994
 20
656.17196914474994
 11
487.209457413
 21
666.17197114474993
  0
LINE
  8
_0-3_躯体
  6
CONTINUOUS
 62
    7
 10
501.45209841299999
 20
656.17196914474994
 11
491.45209941299993
 21
666.17197114474993
  0
LINE
  8
_0-3_躯体
  6
CONTINUOUS
 62
    7
 10
504.19472841299989
 20
657.67198114475002
 11
495.69473841299993
 21
666.17197114474993
  0
LINE
  8
_0-3_躯体
  6
CONTINUOUS
 62
    7
 10
504.19469241299998
 20
661.91465614474998
 11
499.93738041299997
 21
666.17197114474993
  0
LINE
  8
_0-3_躯体
  6
CONTINUOUS
 62
    7
 10
504.1946564129999
 20
666.15733114474995
 11
504.18001941299997
 21
666.17197114474993
  0
LINE
  8
_0-6_サイド
  6
CONTINUOUS
 62
    7
 10
1056.5220726197999
 20
716.58517314475
 11
1057.0220706199998
 21
717.08517114475001
  0
LINE
  8
_0-6_サイド
  6
CONTINUOUS
 62
    7
 10
1056.5220726197999
 20
714.46385214475004
 11
1057.0220706199998
 21
714.96385314475003
  0
LINE
  8
_0-6_サイド
  6
CONTINUOUS
 62
    7
 10
1056.5220726197999
 20
712.34253114474996
 11
1057.0220706199998
 21
712.84253214474995
  0
LINE
  8
_0-6_サイド
  6
CONTINUOUS
 62
    7
 10
1056.5220726197999
 20
710.22121014474999
 11
1057.0220706199998
 21
710.72121114474999
  0
LINE
  8
_0-6_サイド
  6
CONTINUOUS
 62
    7
 10
1056.5220726197999
 20
708.09989214475002
 11
1057.0220706199998
 21
708.59989014475002
  0
LINE
  8
_0-6_サイド
  6
CONTINUOUS
 62
    7
 10
1056.5220726197999
 20
705.97857114474994
 11
1057.0220706199998
 21
706.47856914474994
  0
LINE
  8
_0-6_サイド
  6
CONTINUOUS
 62
    7
 10
1056.5220726197999
 20
703.85725014474997
 11
1057.0220706199998
 21
704.35725114474997
  0
LINE
  8
_0-6_サイド
  6
CONTINUOUS
 62
    7
 10
1056.5220726197999
 20
701.73592914475
 11
1057.0220706199998
 21
702.23593014475
  0
LINE
  8
_0-6_サイド
  6
CONTINUOUS
 62
    7
 10
1056.5220726197999
 20
699.61460814475004
 11
1057.0220706199998
 21
700.11460914475003
  0
LINE
  8
_0-6_サイド
  6
CONTINUOUS
 62
    7
 10
1056.5220726197999
 20
697.49329014474995
 11
1057.0220706199998
 21
697.99328814474995
  0
LINE
  8
_0-6_サイド
  6
CONTINUOUS
 62
    7
 10
1056.5220726197999
 20
718.70649114474998
 11
1057.0220706199998
 21
719.20649214474997
  0
LINE
  8
_0-6_サイド
  6
CONTINUOUS
 62
    7
 10
1056.5220726197999
 20
720.82781214474994
 11
1057.0220706199998
 21
721.32781314474994
  0
LINE
  8
_0-6_サイド
  6
CONTINUOUS
 62
    7
 10
1056.5220726197999
 20
722.94913314475002
 11
1057.0220706199998
 21
723.44913414475002
  0
LINE
  8
_0-6_サイド
  6
CONTINUOUS
 62
    7
 10
1056.5220726197999
 20
725.07045414474999
 11
1057.0220706199998
 21
725.57045214474999
  0
LINE
  8
_0-6_サイド
  6
CONTINUOUS
 62
    7
 10
1056.5220726197999
 20
727.19177514474995
 11
1057.0220706199998
 21
727.69177314474996
  0
LINE
  8
_0-6_サイド
  6
CONTINUOUS
 62
    7
 10
1056.5220726197999
 20
729.31309314475004
 11
1057.0220706199998
 21
729.81309414475004
  0
LINE
  8
_0-6_サイド
  6
CONTINUOUS
 62
    7
 10
1056.5220726197999
 20
731.43441414475001
 11
1057.0220706199998
 21
731.93441514475001
  0
LINE
  8
_0-6_サイド
  6
CONTINUOUS
 62
    7
 10
1056.5220726197999
 20
733.55573514474997
 11
1057.0220706199998
 21
734.05573614474997
  0
LINE
  8
_0-6_サイド
  6
CONTINUOUS
 62
    7
 10
1056.5220726197999
 20
735.67705614474994
 11
1057.0220706199998
 21
736.17705414474995
  0
LINE
  8
_0-6_サイド
  6
CONTINUOUS
 62
    7
 10
1056.5220726197999
 20
737.79837414475003
 11
1057.0220706199998
 21
738.29837514475003
  0
LINE
  8
_0-6_サイド
  6
CONTINUOUS
 62
    7
 10
1056.5220726197999
 20
739.91969514474999
 11
1056.6743436198001
 21
740.07196914475003
  0
LINE
  8
_0-6_サイド
  6
CONTINUOUS
 62
    7
 10
274.69463741299995
 20
690.17200114474997
 11
356.69463741299995
 21
690.17200114474997
  0
LINE
  8
_0-6_サイド
  6
HIDDEN
 62
    7
 10
282.69463741299995
 20
705.02392120934996
 11
282.69463741299995
 21
686.67200114474997
  0
LINE
  8
_0-6_サイド
  6
HIDDEN
 62
    7
 10
279.94463741299995
 20
690.17200114474997
 11
277.94463741299995
 21
692.17200114474997
  0
LINE
  8
_0-6_サイド
  6
HIDDEN
 62
    7
 10
285.44463741299995
 20
690.17200114474997
 11
287.44463741299995
 21
692.17200114474997
  0
LINE
  8
_0-6_サイド
  6
CONTINUOUS
 62
    7
 10
355.6946374129999
 20
692.17200114474997
 11
274.69463741299995
 21
692.17200114474997
  0
LINE
  8
_0-6_サイド
  6
CONTINUOUS
 62
    7
 10
274.69463741299995
 20
692.17200114474997
 11
274.69463741299995
 21
690.17200114474997
  0
LINE
  8
_0-6_サイド
  6
CONTINUOUS
 62
    7
 10
355.6946374129999
 20
692.17200114474997
 11
356.69463741299995
 21
691.17200114474997
  0
LINE
  8
_0-6_サイド
  6
CONTINUOUS
 62
    7
 10
356.69463741299995
 20
690.17200114474997
 11
356.69463741299995
 21
691.17200114474997
  0
LINE
  8
_0-6_サイド
  6
CONTINUOUS
 62
    7
 10
501.69443141299996
 20
690.17200114474997
 11
419.6944314129999
 21
690.17200114474997
  0
LINE
  8
_0-6_サイド
  6
HIDDEN
 62
    7
 10
493.69443141299996
 20
705.02392120934996
 11
493.69443141299996
 21
686.67200114474997
  0
LINE
  8
_0-6_サイド
  6
HIDDEN
 62
    7
 10
496.44443141299996
 20
690.17200114474997
 11
498.4444314129999
 21
692.17200114474997
  0
LINE
  8
_0-6_サイド
  6
HIDDEN
 62
    7
 10
490.9444314129999
 20
690.17200114474997
 11
488.94443141299996
 21
692.17200114474997
  0
LINE
  8
_0-6_サイド
  6
CONTINUOUS
 62
    7
 10
420.69443141299996
 20
692.17200114474997
 11
501.69443141299996
 21
692.17200114474997
  0
LINE
  8
_0-6_サイド
  6
CONTINUOUS
 62
    7
 10
501.69443141299996
 20
692.17200114474997
 11
501.69443141299996
 21
690.17200114474997
  0
LINE
  8
_0-6_サイド
  6
CONTINUOUS
 62
    7
 10
420.69443141299996
 20
692.17200114474997
 11
419.6944314129999
 21
691.17200114474997
  0
LINE
  8
_0-6_サイド
  6
CONTINUOUS
 62
    7
 10
419.6944314129999
 20
690.17200114474997
 11
419.6944314129999
 21
691.17200114474997
  0
LINE
  8
_0-6_サイド
  6
CONTINUOUS
 62
    7
 10
911.82217461979985
 20
691.17200014474997
 11
993.82217461979997
 21
691.17200014474997
  0
LINE
  8
_0-6_サイド
  6
HIDDEN
 62
    7
 10
919.82217461980008
 20
706.02392020934997
 11
919.82217461980008
 21
687.67200014474997
  0
LINE
  8
_0-6_サイド
  6
HIDDEN
 62
    7
 10
917.07217461979985
 20
691.17200014474997
 11
915.07217461979997
 21
693.17200014474997
  0
LINE
  8
_0-6_サイド
  6
HIDDEN
 62
    7
 10
922.57217461979997
 20
691.17200014474997
 11
924.57217461979985
 21
693.17200014474997
  0
LINE
  8
_0-6_サイド
  6
CONTINUOUS
 62
    7
 10
992.82217461979985
 20
693.17200014474997
 11
911.82217461979985
 21
693.17200014474997
  0
LINE
  8
_0-6_サイド
  6
CONTINUOUS
 62
    7
 10
911.82217461979985
 20
693.17200014474997
 11
911.82217461979985
 21
691.17200014474997
  0
LINE
  8
_0-6_サイド
  6
CONTINUOUS
 62
    7
 10
992.82217461979985
 20
693.17200014474997
 11
993.82217461979997
 21
692.17200014474997
  0
LINE
  8
_0-6_サイド
  6
CONTINUOUS
 62
    7
 10
993.82217461979997
 20
691.17200014474997
 11
993.82217461979997
 21
692.17200014474997
  0
LINE
  8
_0-7_小物
  6
CONTINUOUS
 62
    7
 10
281.42796841299997
 20
681.50670414474996
 11
281.42796841299997
 21
681.17200314474997
  0
LINE
  8
_0-7_小物
  6
CONTINUOUS
 62
    7
 10
279.09463441299994
 20
692.17200114474997
 11
279.09463441299994
 21
691.87200114475002
  0
LINE
  8
_0-7_小物
  6
CONTINUOUS
 62
    7
 10
279.09463441299994
 20
691.87200114475002
 11
281.42796841299997
 21
689.87200314475001
  0
LINE
  8
_0-7_小物
  6
CONTINUOUS
 62
    7
 10
281.42796841299997
 20
689.87200314475001
 11
283.96130041299995
 21
689.87200314475001
  0
LINE
  8
_0-7_小物
  6
CONTINUOUS
 62
    7
 10
279.09463441299994
 20
691.87200114475002
 11
286.29463441299993
 21
691.87200114475002
  0
LINE
  8
_0-7_小物
  6
CONTINUOUS
 62
    7
 10
286.29463441299993
 20
692.17200114474997
 11
286.29463441299993
 21
691.87200114475002
  0
LINE
  8
_0-7_小物
  6
CONTINUOUS
 62
    7
 10
286.29463441299993
 20
691.87200114475002
 11
283.96130041299995
 21
689.87200314475001
  0
LINE
  8
_0-7_小物
  6
CONTINUOUS
 62
    7
 10
281.42796841299997
 20
689.61128514475001
 11
282.69463441299996
 21
689.65826514474998
  0
LINE
  8
_0-7_小物
  6
CONTINUOUS
 62
    7
 10
281.42796841299997
 20
688.76450514474993
 11
282.69463441299996
 21
689.65826514474998
  0
LINE
  8
_0-7_小物
  6
CONTINUOUS
 62
    7
 10
281.42796841299997
 20
681.17200314474997
 11
281.42796841299997
 21
677.09576214474998
  0
LINE
  8
_0-7_小物
  6
CONTINUOUS
 62
    7
 10
283.96130041299995
 20
682.44744414474997
 11
283.96130041299995
 21
677.09576214474998
  0
LINE
  8
_0-7_小物
  6
CONTINUOUS
 62
    7
 10
281.42796841299997
 20
683.38818414474997
 11
281.42796841299997
 21
682.35348414475004
  0
LINE
  8
_0-7_小物
  6
CONTINUOUS
 62
    7
 10
283.96130041299995
 20
683.29422414474993
 11
283.96130041299995
 21
684.32892414474998
  0
LINE
  8
_0-7_小物
  6
CONTINUOUS
 62
    7
 10
281.42796841299997
 20
681.50670414474996
 11
283.96130041299995
 21
682.44744414474997
  0
LINE
  8
_0-7_小物
  6
CONTINUOUS
 62
    7
 10
281.42796841299997
 20
682.35348414475004
 11
283.96130041299995
 21
683.29422414474993
  0
LINE
  8
_0-7_小物
  6
CONTINUOUS
 62
    7
 10
280.69463341299996
 20
681.93009414475
 11
284.69463541299996
 21
682.87083414475001
  0
LINE
  8
_0-7_小物
  6
CONTINUOUS
 62
    7
 10
280.69463341299996
 20
681.93009414475
 11
281.42796841299997
 21
681.50670414474996
  0
LINE
  8
_0-7_小物
  6
CONTINUOUS
 62
    7
 10
280.69463341299996
 20
681.93009414475
 11
281.42796841299997
 21
682.35348414475004
  0
LINE
  8
_0-7_小物
  6
CONTINUOUS
 62
    7
 10
284.69463541299996
 20
682.87083414475001
 11
283.96130041299995
 21
682.44744414474997
  0
LINE
  8
_0-7_小物
  6
CONTINUOUS
 62
    7
 10
283.96130041299995
 20
683.29422414474993
 11
284.69463541299996
 21
682.87083414475001
  0
LINE
  8
_0-7_小物
  6
CONTINUOUS
 62
    7
 10
281.42796841299997
 20
685.26966714474997
 11
281.42796841299997
 21
684.23496414474994
  0
LINE
  8
_0-7_小物
  6
CONTINUOUS
 62
    7
 10
283.96130041299995
 20
685.17570714474994
 11
283.96130041299995
 21
686.21040714474998
  0
LINE
  8
_0-7_小物
  6
CONTINUOUS
 62
    7
 10
281.42796841299997
 20
683.38818414474997
 11
283.96130041299995
 21
684.32892414474998
  0
LINE
  8
_0-7_小物
  6
CONTINUOUS
 62
    7
 10
281.42796841299997
 20
684.23496414474994
 11
283.96130041299995
 21
685.17570714474994
  0
LINE
  8
_0-7_小物
  6
CONTINUOUS
 62
    7
 10
280.69463341299996
 20
683.81157414475001
 11
284.69463541299996
 21
684.75231414475002
  0
LINE
  8
_0-7_小物
  6
CONTINUOUS
 62
    7
 10
280.69463341299996
 20
683.81157414475001
 11
281.42796841299997
 21
683.38818414474997
  0
LINE
  8
_0-7_小物
  6
CONTINUOUS
 62
    7
 10
280.69463341299996
 20
683.81157414475001
 11
281.42796841299997
 21
684.23496414474994
  0
LINE
  8
_0-7_小物
  6
CONTINUOUS
 62
    7
 10
284.69463541299996
 20
684.75231414475002
 11
283.96130041299995
 21
684.32892414474998
  0
LINE
  8
_0-7_小物
  6
CONTINUOUS
 62
    7
 10
283.96130041299995
 20
685.17570714474994
 11
284.69463541299996
 21
684.75231414475002
  0
LINE
  8
_0-7_小物
  6
CONTINUOUS
 62
    7
 10
281.42796841299997
 20
687.15114714474998
 11
281.42796841299997
 21
686.11644714474994
  0
LINE
  8
_0-7_小物
  6
CONTINUOUS
 62
    7
 10
283.96130041299995
 20
687.05718714474995
 11
283.96130041299995
 21
688.09188714474999
  0
LINE
  8
_0-7_小物
  6
CONTINUOUS
 62
    7
 10
281.42796841299997
 20
685.26966714474997
 11
283.96130041299995
 21
686.21040714474998
  0
LINE
  8
_0-7_小物
  6
CONTINUOUS
 62
    7
 10
281.42796841299997
 20
686.11644714474994
 11
283.96130041299995
 21
687.05718714474995
  0
LINE
  8
_0-7_小物
  6
CONTINUOUS
 62
    7
 10
280.69463341299996
 20
685.69305714475001
 11
284.69463541299996
 21
686.63379714475002
  0
LINE
  8
_0-7_小物
  6
CONTINUOUS
 62
    7
 10
280.69463341299996
 20
685.69305714475001
 11
281.42796841299997
 21
685.26966714474997
  0
LINE
  8
_0-7_小物
  6
CONTINUOUS
 62
    7
 10
280.69463341299996
 20
685.69305714475001
 11
281.42796841299997
 21
686.11644714474994
  0
LINE
  8
_0-7_小物
  6
CONTINUOUS
 62
    7
 10
284.69463541299996
 20
686.63379714475002
 11
283.96130041299995
 21
686.21040714474998
  0
LINE
  8
_0-7_小物
  6
CONTINUOUS
 62
    7
 10
283.96130041299995
 20
687.05718714474995
 11
284.69463541299996
 21
686.63379714475002
  0
LINE
  8
_0-7_小物
  6
CONTINUOUS
 62
    7
 10
281.42796841299997
 20
688.23594114474997
 11
281.42796841299997
 21
687.99792714474995
  0
LINE
  8
_0-7_小物
  6
CONTINUOUS
 62
    7
 10
283.96130041299995
 20
689.87200314475001
 11
283.96130041299995
 21
688.93867014474995
  0
LINE
  8
_0-7_小物
  6
CONTINUOUS
 62
    7
 10
281.42796841299997
 20
687.15114714474998
 11
283.96130041299995
 21
688.09188714474999
  0
LINE
  8
_0-7_小物
  6
CONTINUOUS
 62
    7
 10
281.42796841299997
 20
687.99792714474995
 11
283.96130041299995
 21
688.93867014474995
  0
LINE
  8
_0-7_小物
  6
CONTINUOUS
 62
    7
 10
280.69463341299996
 20
687.57453714475002
 11
284.69463541299996
 21
688.51527714475003
  0
LINE
  8
_0-7_小物
  6
CONTINUOUS
 62
    7
 10
280.69463341299996
 20
687.57453714475002
 11
281.42796841299997
 21
687.15114714474998
  0
LINE
  8
_0-7_小物
  6
CONTINUOUS
 62
    7
 10
280.69463341299996
 20
687.57453714475002
 11
281.42796841299997
 21
687.99792714474995
  0
LINE
  8
_0-7_小物
  6
CONTINUOUS
 62
    7
 10
283.96130041299995
 20
688.09188714474999
 11
284.69463541299996
 21
688.51527714475003
  0
LINE
  8
_0-7_小物
  6
CONTINUOUS
 62
    7
 10
283.96130041299995
 20
688.93867014474995
 11
284.69463541299996
 21
688.51527714475003
  0
LINE
  8
_0-7_小物
  6
CONTINUOUS
 62
    7
 10
281.42796841299997
 20
689.87200314475001
 11
281.42796841299997
 21
689.61128514475001
  0
LINE
  8
_0-7_小物
  6
CONTINUOUS
 62
    7
 10
282.69463441299996
 20
689.65826514474998
 11
280.69463341299996
 21
689.18789514474997
  0
LINE
  8
_0-7_小物
  6
CONTINUOUS
 62
    7
 10
280.69463341299996
 20
689.18789514474997
 11
281.42796841299997
 21
688.76450514474993
  0
LINE
  8
_0-7_小物
  6
CONTINUOUS
 62
    7
 10
280.69463341299996
 20
689.18789514474997
 11
281.42796841299997
 21
689.61128514475001
  0
LINE
  8
_0-7_小物
  6
CONTINUOUS
 62
    7
 10
281.42796841299997
 20
688.76450514474993
 11
281.42796841299997
 21
688.23594114474997
  0
LINE
  8
_0-7_小物
  6
CONTINUOUS
 62
    7
 10
282.69463441299996
 20
678.17200314474997
 11
282.69463441299996
 21
676.17200214474997
  0
LINE
  8
_0-7_小物
  6
CONTINUOUS
 62
    7
 10
283.96130041299995
 20
681.17200314474997
 11
281.42798341299994
 21
681.17200314474997
  0
LINE
  8
_0-7_小物
  6
CONTINUOUS
 62
    7
 10
282.69463441299996
 20
676.17200214474997
 11
281.42796841299997
 21
677.09576214474998
  0
LINE
  8
_0-7_小物
  6
CONTINUOUS
 62
    7
 10
282.69463441299996
 20
676.17200214474997
 11
283.96130041299995
 21
677.09576214474998
  0
ARC
  8
_0-7_小物
  6
CONTINUOUS
 62
    7
 10
283.06940641299997
 20
676.44740514474995
 40
1.7648489999999999
 50
102.260329
 51
158.446304
  0
ARC
  8
_0-7_小物
  6
CONTINUOUS
 62
    7
 10
288.70091941299995
 20
677.40342414475003
 40
6.0552599999999996
 50
141.51097799999997
 51
172.70791799999998
  0
LINE
  8
_0-7_小物
  6
CONTINUOUS
 62
    7
 10
279.09463441299994
 20
692.17200114474997
 11
286.29463441299993
 21
692.17200114474997
  0
LINE
  8
_0-7_小物
  6
CONTINUOUS
 62
    7
 10
492.42776541299997
 20
681.50670414474996
 11
492.42776541299997
 21
681.17200314474997
  0
LINE
  8
_0-7_小物
  6
CONTINUOUS
 62
    7
 10
490.094431413
 20
692.17200114474997
 11
490.094431413
 21
691.87200114475002
  0
LINE
  8
_0-7_小物
  6
CONTINUOUS
 62
    7
 10
490.094431413
 20
691.87200114475002
 11
492.42776541299997
 21
689.87200314475001
  0
LINE
  8
_0-7_小物
  6
CONTINUOUS
 62
    7
 10
492.42776541299997
 20
689.87200314475001
 11
494.96109741299995
 21
689.87200314475001
  0
LINE
  8
_0-7_小物
  6
CONTINUOUS
 62
    7
 10
490.094431413
 20
691.87200114475002
 11
497.29443141299993
 21
691.87200114475002
  0
LINE
  8
_0-7_小物
  6
CONTINUOUS
 62
    7
 10
497.29443141299993
 20
692.17200114474997
 11
497.29443141299993
 21
691.87200114475002
  0
LINE
  8
_0-7_小物
  6
CONTINUOUS
 62
    7
 10
497.29443141299993
 20
691.87200114475002
 11
494.96109741299995
 21
689.87200314475001
  0
LINE
  8
_0-7_小物
  6
CONTINUOUS
 62
    7
 10
492.42776541299997
 20
689.61128514475001
 11
493.69443141299996
 21
689.65826514474998
  0
LINE
  8
_0-7_小物
  6
CONTINUOUS
 62
    7
 10
492.42776541299997
 20
688.76450514474993
 11
493.69443141299996
 21
689.65826514474998
  0
LINE
  8
_0-7_小物
  6
CONTINUOUS
 62
    7
 10
492.42776541299997
 20
681.17200314474997
 11
492.42776541299997
 21
677.09576214474998
  0
LINE
  8
_0-7_小物
  6
CONTINUOUS
 62
    7
 10
494.96109741299995
 20
682.44744414474997
 11
494.96109741299995
 21
677.09576214474998
  0
LINE
  8
_0-7_小物
  6
CONTINUOUS
 62
    7
 10
492.42776541299997
 20
683.38818414474997
 11
492.42776541299997
 21
682.35348414475004
  0
LINE
  8
_0-7_小物
  6
CONTINUOUS
 62
    7
 10
494.96109741299995
 20
683.29422414474993
 11
494.96109741299995
 21
684.32892414474998
  0
LINE
  8
_0-7_小物
  6
CONTINUOUS
 62
    7
 10
492.42776541299997
 20
681.50670414474996
 11
494.96109741299995
 21
682.44744414474997
  0
LINE
  8
_0-7_小物
  6
CONTINUOUS
 62
    7
 10
492.42776541299997
 20
682.35348414475004
 11
494.96109741299995
 21
683.29422414474993
  0
LINE
  8
_0-7_小物
  6
CONTINUOUS
 62
    7
 10
491.69443041299991
 20
681.93009414475
 11
495.69443241299996
 21
682.87083414475001
  0
LINE
  8
_0-7_小物
  6
CONTINUOUS
 62
    7
 10
491.69443041299991
 20
681.93009414475
 11
492.42776541299997
 21
681.50670414474996
  0
LINE
  8
_0-7_小物
  6
CONTINUOUS
 62
    7
 10
491.69443041299991
 20
681.93009414475
 11
492.42776541299997
 21
682.35348414475004
  0
LINE
  8
_0-7_小物
  6
CONTINUOUS
 62
    7
 10
495.69443241299996
 20
682.87083414475001
 11
494.96109741299995
 21
682.44744414474997
  0
LINE
  8
_0-7_小物
  6
CONTINUOUS
 62
    7
 10
494.96109741299995
 20
683.29422414474993
 11
495.69443241299996
 21
682.87083414475001
  0
LINE
  8
_0-7_小物
  6
CONTINUOUS
 62
    7
 10
492.42776541299997
 20
685.26966714474997
 11
492.42776541299997
 21
684.23496414474994
  0
LINE
  8
_0-7_小物
  6
CONTINUOUS
 62
    7
 10
494.96109741299995
 20
685.17570714474994
 11
494.96109741299995
 21
686.21040714474998
  0
LINE
  8
_0-7_小物
  6
CONTINUOUS
 62
    7
 10
492.42776541299997
 20
683.38818414474997
 11
494.96109741299995
 21
684.32892414474998
  0
LINE
  8
_0-7_小物
  6
CONTINUOUS
 62
    7
 10
492.42776541299997
 20
684.23496414474994
 11
494.96109741299995
 21
685.17570714474994
  0
LINE
  8
_0-7_小物
  6
CONTINUOUS
 62
    7
 10
491.69443041299991
 20
683.81157414475001
 11
495.69443241299996
 21
684.75231414475002
  0
LINE
  8
_0-7_小物
  6
CONTINUOUS
 62
    7
 10
491.69443041299991
 20
683.81157414475001
 11
492.42776541299997
 21
683.38818414474997
  0
LINE
  8
_0-7_小物
  6
CONTINUOUS
 62
    7
 10
491.69443041299991
 20
683.81157414475001
 11
492.42776541299997
 21
684.23496414474994
  0
LINE
  8
_0-7_小物
  6
CONTINUOUS
 62
    7
 10
495.69443241299996
 20
684.75231414475002
 11
494.96109741299995
 21
684.32892414474998
  0
LINE
  8
_0-7_小物
  6
CONTINUOUS
 62
    7
 10
494.96109741299995
 20
685.17570714474994
 11
495.69443241299996
 21
684.75231414475002
  0
LINE
  8
_0-7_小物
  6
CONTINUOUS
 62
    7
 10
492.42776541299997
 20
687.15114714474998
 11
492.42776541299997
 21
686.11644714474994
  0
LINE
  8
_0-7_小物
  6
CONTINUOUS
 62
    7
 10
494.96109741299995
 20
687.05718714474995
 11
494.96109741299995
 21
688.09188714474999
  0
LINE
  8
_0-7_小物
  6
CONTINUOUS
 62
    7
 10
492.42776541299997
 20
685.26966714474997
 11
494.96109741299995
 21
686.21040714474998
  0
LINE
  8
_0-7_小物
  6
CONTINUOUS
 62
    7
 10
492.42776541299997
 20
686.11644714474994
 11
494.96109741299995
 21
687.05718714474995
  0
LINE
  8
_0-7_小物
  6
CONTINUOUS
 62
    7
 10
491.69443041299991
 20
685.69305714475001
 11
495.69443241299996
 21
686.63379714475002
  0
LINE
  8
_0-7_小物
  6
CONTINUOUS
 62
    7
 10
491.69443041299991
 20
685.69305714475001
 11
492.42776541299997
 21
685.26966714474997
  0
LINE
  8
_0-7_小物
  6
CONTINUOUS
 62
    7
 10
491.69443041299991
 20
685.69305714475001
 11
492.42776541299997
 21
686.11644714474994
  0
LINE
  8
_0-7_小物
  6
CONTINUOUS
 62
    7
 10
495.69443241299996
 20
686.63379714475002
 11
494.96109741299995
 21
686.21040714474998
  0
LINE
  8
_0-7_小物
  6
CONTINUOUS
 62
    7
 10
494.96109741299995
 20
687.05718714474995
 11
495.69443241299996
 21
686.63379714475002
  0
LINE
  8
_0-7_小物
  6
CONTINUOUS
 62
    7
 10
492.42776541299997
 20
688.23594114474997
 11
492.42776541299997
 21
687.99792714474995
  0
LINE
  8
_0-7_小物
  6
CONTINUOUS
 62
    7
 10
494.96109741299995
 20
689.87200314475001
 11
494.96109741299995
 21
688.93867014474995
  0
LINE
  8
_0-7_小物
  6
CONTINUOUS
 62
    7
 10
492.42776541299997
 20
687.15114714474998
 11
494.96109741299995
 21
688.09188714474999
  0
LINE
  8
_0-7_小物
  6
CONTINUOUS
 62
    7
 10
492.42776541299997
 20
687.99792714474995
 11
494.96109741299995
 21
688.93867014474995
  0
LINE
  8
_0-7_小物
  6
CONTINUOUS
 62
    7
 10
491.69443041299991
 20
687.57453714475002
 11
495.69443241299996
 21
688.51527714475003
  0
LINE
  8
_0-7_小物
  6
CONTINUOUS
 62
    7
 10
491.69443041299991
 20
687.57453714475002
 11
492.42776541299997
 21
687.15114714474998
  0
LINE
  8
_0-7_小物
  6
CONTINUOUS
 62
    7
 10
491.69443041299991
 20
687.57453714475002
 11
492.42776541299997
 21
687.99792714474995
  0
LINE
  8
_0-7_小物
  6
CONTINUOUS
 62
    7
 10
494.96109741299995
 20
688.09188714474999
 11
495.69443241299996
 21
688.51527714475003
  0
LINE
  8
_0-7_小物
  6
CONTINUOUS
 62
    7
 10
494.96109741299995
 20
688.93867014474995
 11
495.69443241299996
 21
688.51527714475003
  0
LINE
  8
_0-7_小物
  6
CONTINUOUS
 62
    7
 10
492.42776541299997
 20
689.87200314475001
 11
492.42776541299997
 21
689.61128514475001
  0
LINE
  8
_0-7_小物
  6
CONTINUOUS
 62
    7
 10
493.69443141299996
 20
689.65826514474998
 11
491.69443041299991
 21
689.18789514474997
  0
LINE
  8
_0-7_小物
  6
CONTINUOUS
 62
    7
 10
491.69443041299991
 20
689.18789514474997
 11
492.42776541299997
 21
688.76450514474993
  0
LINE
  8
_0-7_小物
  6
CONTINUOUS
 62
    7
 10
491.69443041299991
 20
689.18789514474997
 11
492.42776541299997
 21
689.61128514475001
  0
LINE
  8
_0-7_小物
  6
CONTINUOUS
 62
    7
 10
492.42776541299997
 20
688.76450514474993
 11
492.42776541299997
 21
688.23594114474997
  0
LINE
  8
_0-7_小物
  6
CONTINUOUS
 62
    7
 10
493.69443141299996
 20
678.17200314474997
 11
493.69443141299996
 21
676.17200214474997
  0
LINE
  8
_0-7_小物
  6
CONTINUOUS
 62
    7
 10
494.96109741299995
 20
681.17200314474997
 11
492.42778041299999
 21
681.17200314474997
  0
LINE
  8
_0-7_小物
  6
CONTINUOUS
 62
    7
 10
493.69443141299996
 20
676.17200214474997
 11
492.42776541299997
 21
677.09576214474998
  0
LINE
  8
_0-7_小物
  6
CONTINUOUS
 62
    7
 10
493.69443141299996
 20
676.17200214474997
 11
494.96109741299995
 21
677.09576214474998
  0
ARC
  8
_0-7_小物
  6
CONTINUOUS
 62
    7
 10
494.06920341299997
 20
676.44740514474995
 40
1.7648489999999999
 50
102.260329
 51
158.446304
  0
ARC
  8
_0-7_小物
  6
CONTINUOUS
 62
    7
 10
499.70071641299995
 20
677.40342414475003
 40
6.0552599999999996
 50
141.51097799999997
 51
172.70791799999998
  0
LINE
  8
_0-7_小物
  6
CONTINUOUS
 62
    7
 10
490.094431413
 20
692.17200114474997
 11
497.29443141299993
 21
692.17200114474997
  0
LINE
  8
_0-7_小物
  6
CONTINUOUS
 62
    7
 10
918.55550561979999
 20
682.50670314474996
 11
918.55550561979999
 21
682.17200214474997
  0
LINE
  8
_0-7_小物
  6
CONTINUOUS
 62
    7
 10
916.22217161979995
 20
693.17200014474997
 11
916.22217161979995
 21
692.87200014475002
  0
LINE
  8
_0-7_小物
  6
CONTINUOUS
 62
    7
 10
916.22217161979995
 20
692.87200014475002
 11
918.55550561979999
 21
690.87200214475001
  0
LINE
  8
_0-7_小物
  6
CONTINUOUS
 62
    7
 10
918.55550561979999
 20
690.87200214475001
 11
921.08883761979985
 21
690.87200214475001
  0
LINE
  8
_0-7_小物
  6
CONTINUOUS
 62
    7
 10
916.22217161979995
 20
692.87200014475002
 11
923.42217161979988
 21
692.87200014475002
  0
LINE
  8
_0-7_小物
  6
CONTINUOUS
 62
    7
 10
923.42217161979988
 20
693.17200014474997
 11
923.42217161979988
 21
692.87200014475002
  0
LINE
  8
_0-7_小物
  6
CONTINUOUS
 62
    7
 10
923.42217161979988
 20
692.87200014475002
 11
921.08883761979985
 21
690.87200214475001
  0
LINE
  8
_0-7_小物
  6
CONTINUOUS
 62
    7
 10
918.55550561979999
 20
690.61128414475002
 11
919.82217161980009
 21
690.65826414474998
  0
LINE
  8
_0-7_小物
  6
CONTINUOUS
 62
    7
 10
918.55550561979999
 20
689.76450414474994
 11
919.82217161980009
 21
690.65826414474998
  0
LINE
  8
_0-7_小物
  6
CONTINUOUS
 62
    7
 10
918.55550561979999
 20
682.17200214474997
 11
918.55550561979999
 21
678.09576114474999
  0
LINE
  8
_0-7_小物
  6
CONTINUOUS
 62
    7
 10
921.08883761979985
 20
683.44744314474997
 11
921.08883761979985
 21
678.09576114474999
  0
LINE
  8
_0-7_小物
  6
CONTINUOUS
 62
    7
 10
918.55550561979999
 20
684.38818314474997
 11
918.55550561979999
 21
683.35348314474993
  0
LINE
  8
_0-7_小物
  6
CONTINUOUS
 62
    7
 10
921.08883761979985
 20
684.29422314474994
 11
921.08883761979985
 21
685.32892314474998
  0
LINE
  8
_0-7_小物
  6
CONTINUOUS
 62
    7
 10
918.55550561979999
 20
682.50670314474996
 11
921.08883761979985
 21
683.44744314474997
  0
LINE
  8
_0-7_小物
  6
CONTINUOUS
 62
    7
 10
918.55550561979999
 20
683.35348314474993
 11
921.08883761979985
 21
684.29422314474994
  0
LINE
  8
_0-7_小物
  6
CONTINUOUS
 62
    7
 10
917.82217061979986
 20
682.93009314475
 11
921.82217261979997
 21
683.87083314475001
  0
LINE
  8
_0-7_小物
  6
CONTINUOUS
 62
    7
 10
917.82217061979986
 20
682.93009314475
 11
918.55550561979999
 21
682.50670314474996
  0
LINE
  8
_0-7_小物
  6
CONTINUOUS
 62
    7
 10
917.82217061979986
 20
682.93009314475
 11
918.55550561979999
 21
683.35348314474993
  0
LINE
  8
_0-7_小物
  6
CONTINUOUS
 62
    7
 10
921.82217261979997
 20
683.87083314475001
 11
921.08883761979985
 21
683.44744314474997
  0
LINE
  8
_0-7_小物
  6
CONTINUOUS
 62
    7
 10
921.08883761979985
 20
684.29422314474994
 11
921.82217261979997
 21
683.87083314475001
  0
LINE
  8
_0-7_小物
  6
CONTINUOUS
 62
    7
 10
918.55550561979999
 20
686.26966614474998
 11
918.55550561979999
 21
685.23496314474994
  0
LINE
  8
_0-7_小物
  6
CONTINUOUS
 62
    7
 10
921.08883761979985
 20
686.17570614474994
 11
921.08883761979985
 21
687.21040614474998
  0
LINE
  8
_0-7_小物
  6
CONTINUOUS
 62
    7
 10
918.55550561979999
 20
684.38818314474997
 11
921.08883761979985
 21
685.32892314474998
  0
LINE
  8
_0-7_小物
  6
CONTINUOUS
 62
    7
 10
918.55550561979999
 20
685.23496314474994
 11
921.08883761979985
 21
686.17570614474994
  0
LINE
  8
_0-7_小物
  6
CONTINUOUS
 62
    7
 10
917.82217061979986
 20
684.81157314475001
 11
921.82217261979997
 21
685.75231314475002
  0
LINE
  8
_0-7_小物
  6
CONTINUOUS
 62
    7
 10
917.82217061979986
 20
684.81157314475001
 11
918.55550561979999
 21
684.38818314474997
  0
LINE
  8
_0-7_小物
  6
CONTINUOUS
 62
    7
 10
917.82217061979986
 20
684.81157314475001
 11
918.55550561979999
 21
685.23496314474994
  0
LINE
  8
_0-7_小物
  6
CONTINUOUS
 62
    7
 10
921.82217261979997
 20
685.75231314475002
 11
921.08883761979985
 21
685.32892314474998
  0
LINE
  8
_0-7_小物
  6
CONTINUOUS
 62
    7
 10
921.08883761979985
 20
686.17570614474994
 11
921.82217261979997
 21
685.75231314475002
  0
LINE
  8
_0-7_小物
  6
CONTINUOUS
 62
    7
 10
918.55550561979999
 20
688.15114614474999
 11
918.55550561979999
 21
687.11644614474994
  0
LINE
  8
_0-7_小物
  6
CONTINUOUS
 62
    7
 10
921.08883761979985
 20
688.05718614474995
 11
921.08883761979985
 21
689.09188614474999
  0
LINE
  8
_0-7_小物
  6
CONTINUOUS
 62
    7
 10
918.55550561979999
 20
686.26966614474998
 11
921.08883761979985
 21
687.21040614474998
  0
LINE
  8
_0-7_小物
  6
CONTINUOUS
 62
    7
 10
918.55550561979999
 20
687.11644614474994
 11
921.08883761979985
 21
688.05718614474995
  0
LINE
  8
_0-7_小物
  6
CONTINUOUS
 62
    7
 10
917.82217061979986
 20
686.69305614475002
 11
921.82217261979997
 21
687.63379614475002
  0
LINE
  8
_0-7_小物
  6
CONTINUOUS
 62
    7
 10
917.82217061979986
 20
686.69305614475002
 11
918.55550561979999
 21
686.26966614474998
  0
LINE
  8
_0-7_小物
  6
CONTINUOUS
 62
    7
 10
917.82217061979986
 20
686.69305614475002
 11
918.55550561979999
 21
687.11644614474994
  0
LINE
  8
_0-7_小物
  6
CONTINUOUS
 62
    7
 10
921.82217261979997
 20
687.63379614475002
 11
921.08883761979985
 21
687.21040614474998
  0
LINE
  8
_0-7_小物
  6
CONTINUOUS
 62
    7
 10
921.08883761979985
 20
688.05718614474995
 11
921.82217261979997
 21
687.63379614475002
  0
LINE
  8
_0-7_小物
  6
CONTINUOUS
 62
    7
 10
918.55550561979999
 20
689.23594014474997
 11
918.55550561979999
 21
688.99792614474995
  0
LINE
  8
_0-7_小物
  6
CONTINUOUS
 62
    7
 10
921.08883761979985
 20
690.87200214475001
 11
921.08883761979985
 21
689.93866914474995
  0
LINE
  8
_0-7_小物
  6
CONTINUOUS
 62
    7
 10
918.55550561979999
 20
688.15114614474999
 11
921.08883761979985
 21
689.09188614474999
  0
LINE
  8
_0-7_小物
  6
CONTINUOUS
 62
    7
 10
918.55550561979999
 20
688.99792614474995
 11
921.08883761979985
 21
689.93866914474995
  0
LINE
  8
_0-7_小物
  6
CONTINUOUS
 62
    7
 10
917.82217061979986
 20
688.57453614475003
 11
921.82217261979997
 21
689.51527614475003
  0
LINE
  8
_0-7_小物
  6
CONTINUOUS
 62
    7
 10
917.82217061979986
 20
688.57453614475003
 11
918.55550561979999
 21
688.15114614474999
  0
LINE
  8
_0-7_小物
  6
CONTINUOUS
 62
    7
 10
917.82217061979986
 20
688.57453614475003
 11
918.55550561979999
 21
688.99792614474995
  0
LINE
  8
_0-7_小物
  6
CONTINUOUS
 62
    7
 10
921.08883761979985
 20
689.09188614474999
 11
921.82217261979997
 21
689.51527614475003
  0
LINE
  8
_0-7_小物
  6
CONTINUOUS
 62
    7
 10
921.08883761979985
 20
689.93866914474995
 11
921.82217261979997
 21
689.51527614475003
  0
LINE
  8
_0-7_小物
  6
CONTINUOUS
 62
    7
 10
918.55550561979999
 20
690.87200214475001
 11
918.55550561979999
 21
690.61128414475002
  0
LINE
  8
_0-7_小物
  6
CONTINUOUS
 62
    7
 10
919.82217161980009
 20
690.65826414474998
 11
917.82217061979986
 21
690.18789414474998
  0
LINE
  8
_0-7_小物
  6
CONTINUOUS
 62
    7
 10
917.82217061979986
 20
690.18789414474998
 11
918.55550561979999
 21
689.76450414474994
  0
LINE
  8
_0-7_小物
  6
CONTINUOUS
 62
    7
 10
917.82217061979986
 20
690.18789414474998
 11
918.55550561979999
 21
690.61128414475002
  0
LINE
  8
_0-7_小物
  6
CONTINUOUS
 62
    7
 10
918.55550561979999
 20
689.76450414474994
 11
918.55550561979999
 21
689.23594014474997
  0
LINE
  8
_0-7_小物
  6
CONTINUOUS
 62
    7
 10
919.82217161980009
 20
679.17200214474997
 11
919.82217161980009
 21
677.17200114474997
  0
LINE
  8
_0-7_小物
  6
CONTINUOUS
 62
    7
 10
921.08883761979985
 20
682.17200214474997
 11
918.55552061979995
 21
682.17200214474997
  0
LINE
  8
_0-7_小物
  6
CONTINUOUS
 62
    7
 10
919.82217161980009
 20
677.17200114474997
 11
918.55550561979999
 21
678.09576114474999
  0
LINE
  8
_0-7_小物
  6
CONTINUOUS
 62
    7
 10
919.82217161980009
 20
677.17200114474997
 11
921.08883761979985
 21
678.09576114474999
  0
ARC
  8
_0-7_小物
  6
CONTINUOUS
 62
    7
 10
920.19694361979998
 20
677.44740414474995
 40
1.7648489999999999
 50
102.260329
 51
158.446304
  0
ARC
  8
_0-7_小物
  6
CONTINUOUS
 62
    7
 10
925.82845661979991
 20
678.40342314475004
 40
6.0552599999999996
 50
141.51097799999997
 51
172.70791799999998
  0
LINE
  8
_0-7_小物
  6
CONTINUOUS
 62
    7
 10
916.22217161979995
 20
693.17200014474997
 11
923.42217161979988
 21
693.17200014474997
  0
LINE
  8
_0-3_躯体
  6
CONTINUOUS
 62
    7
 10
383.68766568519993
 20
692.43998853275002
 11
386.68207008039991
 21
692.62313415134997
  0
LINE
  8
_0-3_躯体
  6
CONTINUOUS
 62
    7
 10
380.70852342479992
 20
692.00730921454999
 11
383.70292782009994
 21
692.19045483314994
  0
LINE
  8
_0-3_躯体
  6
CONTINUOUS
 62
    7
 10
386.69733221529992
 20
692.37360045175001
 11
388.19453441299999
 21
692.46517326105004
  0
LINE
  8
_0-3_躯体
  6
CONTINUOUS
 62
    7
 10
386.68207008039991
 20
692.62313415134997
 11
386.69733221529992
 21
692.37360045175001
  0
LINE
  8
_0-3_躯体
  6
CONTINUOUS
 62
    7
 10
383.68766568519993
 20
692.43998853275002
 11
383.70292782009994
 21
692.19045483314994
  0
LINE
  8
_0-3_躯体
  6
CONTINUOUS
 62
    7
 10
380.69326128989991
 20
692.25684291414996
 11
380.70852342479992
 21
692.00730921454999
  0
LINE
  8
_0-3_躯体
  6
CONTINUOUS
 62
    7
 10
377.6988568946
 20
692.07369729555001
 11
380.69326128989991
 21
692.25684291414996
  0
LINE
  8
_0-3_躯体
  6
CONTINUOUS
 62
    7
 10
377.6988568946
 20
692.07369729555001
 11
377.7141190294999
 21
691.82416359595004
  0
LINE
  8
_0-3_躯体
  6
CONTINUOUS
 62
    7
 10
374.71971463429998
 20
691.64101797734997
 11
377.7141190294999
 21
691.82416359595004
  0
LINE
  8
_0-3_躯体
  6
CONTINUOUS
 62
    7
 10
374.70445249939996
 20
691.89055167694994
 11
374.71971463429998
 21
691.64101797734997
  0
LINE
  8
_0-3_躯体
  6
CONTINUOUS
 62
    7
 10
371.71004810409994
 20
691.70740605834999
 11
374.70445249939996
 21
691.89055167694994
  0
LINE
  8
_0-3_躯体
  6
CONTINUOUS
 62
    7
 10
371.71004810409994
 20
691.70740605834999
 11
371.7253102389999
 21
691.45787235875002
  0
LINE
  8
_0-3_躯体
  6
CONTINUOUS
 62
    7
 10
368.73090584369993
 20
691.27472674014996
 11
371.7253102389999
 21
691.45787235875002
  0
LINE
  8
_0-3_躯体
  6
CONTINUOUS
 62
    7
 10
368.71564370879992
 20
691.52426043975004
 11
368.73090584369993
 21
691.27472674014996
  0
LINE
  8
_0-3_躯体
  6
CONTINUOUS
 62
    7
 10
365.72123931359999
 20
691.34111482114997
 11
368.71564370879992
 21
691.52426043975004
  0
LINE
  8
_0-3_躯体
  6
CONTINUOUS
 62
    7
 10
365.72123931359999
 20
691.34111482114997
 11
365.73650144849995
 21
691.09158112155001
  0
LINE
  8
_0-3_躯体
  6
CONTINUOUS
 62
    7
 10
362.74209705319993
 20
690.90843550294994
 11
365.73650144849995
 21
691.09158112155001
  0
LINE
  8
_0-3_躯体
  6
CONTINUOUS
 62
    7
 10
362.72683491829991
 20
691.15796920255002
 11
362.74209705319993
 21
690.90843550294994
  0
LINE
  8
_0-3_躯体
  6
CONTINUOUS
 62
    7
 10
359.73243052299995
 20
690.97482358394996
 11
362.72683491829991
 21
691.15796920255002
  0
LINE
  8
_0-3_躯体
  6
CONTINUOUS
 62
    7
 10
359.73243052299995
 20
690.97482358394996
 11
359.74769265789996
 21
690.72528988434999
  0
LINE
  8
_0-3_躯体
  6
CONTINUOUS
 62
    7
 10
356.75328826269998
 20
690.54214426575004
 11
359.74769265789996
 21
690.72528988434999
  0
LINE
  8
_0-3_躯体
  6
CONTINUOUS
 62
    7
 10
356.73802612779997
 20
690.79167796535
 11
356.75328826269998
 21
690.54214426575004
  0
LINE
  8
_0-3_躯体
  6
CONTINUOUS
 62
    7
 10
353.74362173249995
 20
690.60853234674994
 11
356.73802612779997
 21
690.79167796535
  0
LINE
  8
_0-3_躯体
  6
CONTINUOUS
 62
    7
 10
353.74362173249995
 20
690.60853234674994
 11
353.75888386739996
 21
690.35899864714997
  0
LINE
  8
_0-3_躯体
  6
CONTINUOUS
 62
    7
 10
350.76447947209999
 20
690.17585302855002
 11
353.75888386739996
 21
690.35899864714997
  0
LINE
  8
_0-3_躯体
  6
CONTINUOUS
 62
    7
 10
350.74921733729991
 20
690.42538672814999
 11
350.76447947209999
 21
690.17585302855002
  0
LINE
  8
_0-3_躯体
  6
CONTINUOUS
 62
    7
 10
347.754812942
 20
690.24224110955004
 11
350.74921733729991
 21
690.42538672814999
  0
LINE
  8
_0-3_躯体
  6
CONTINUOUS
 62
    7
 10
347.754812942
 20
690.24224110955004
 11
347.7700750768999
 21
689.99270740994996
  0
LINE
  8
_0-3_躯体
  6
CONTINUOUS
 62
    7
 10
344.77567068159999
 20
689.80956179135001
 11
347.7700750768999
 21
689.99270740994996
  0
LINE
  8
_0-3_躯体
  6
CONTINUOUS
 62
    7
 10
344.76040854669998
 20
690.05909549094997
 11
344.77567068159999
 21
689.80956179135001
  0
LINE
  8
_0-3_躯体
  6
CONTINUOUS
 62
    7
 10
341.76600415149994
 20
689.87594987235002
 11
344.76040854669998
 21
690.05909549094997
  0
LINE
  8
_0-3_躯体
  6
CONTINUOUS
 62
    7
 10
341.76600415149994
 20
689.87594987235002
 11
341.78126628629997
 21
689.62641617274994
  0
LINE
  8
_0-3_躯体
  6
CONTINUOUS
 62
    7
 10
338.78686189109993
 20
689.44327055414999
 11
341.78126628629997
 21
689.62641617274994
  0
LINE
  8
_0-3_躯体
  6
CONTINUOUS
 62
    7
 10
338.77159975619992
 20
689.69280425374996
 11
338.78686189109993
 21
689.44327055414999
  0
LINE
  8
_0-3_躯体
  6
CONTINUOUS
 62
    7
 10
335.7771953608999
 20
689.50965863515
 11
338.77159975619992
 21
689.69280425374996
  0
LINE
  8
_0-3_躯体
  6
CONTINUOUS
 62
    7
 10
335.7771953608999
 20
689.50965863515
 11
335.79245749579991
 21
689.26012493544999
  0
LINE
  8
_0-3_躯体
  6
CONTINUOUS
 62
    7
 10
332.7980531005
 20
689.07697931684993
 11
335.79245749579991
 21
689.26012493544999
  0
LINE
  8
_0-3_躯体
  6
CONTINUOUS
 62
    7
 10
332.78279096569997
 20
689.32651301645001
 11
332.7980531005
 21
689.07697931684993
  0
LINE
  8
_0-3_躯体
  6
CONTINUOUS
 62
    7
 10
329.78838657039989
 20
689.14336739784994
 11
332.78279096569997
 21
689.32651301645001
  0
LINE
  8
_0-3_躯体
  6
CONTINUOUS
 62
    7
 10
329.78838657039989
 20
689.14336739784994
 11
329.80364870529991
 21
688.89383369824998
  0
LINE
  8
_0-3_躯体
  6
CONTINUOUS
 62
    7
 10
326.80924430999994
 20
688.71068807965003
 11
329.80364870529991
 21
688.89383369824998
  0
LINE
  8
_0-3_躯体
  6
CONTINUOUS
 62
    7
 10
326.79398217509993
 20
688.96022177924999
 11
326.80924430999994
 21
688.71068807965003
  0
LINE
  8
_0-3_躯体
  6
CONTINUOUS
 62
    7
 10
323.79957777990001
 20
688.77707616065004
 11
326.79398217509993
 21
688.96022177924999
  0
LINE
  8
_0-3_躯体
  6
CONTINUOUS
 62
    7
 10
323.79957777990001
 20
688.77707616065004
 11
323.81483991469992
 21
688.52754246104996
  0
LINE
  8
_0-3_躯体
  6
CONTINUOUS
 62
    7
 10
321.01859961139996
 20
687.68596965174993
 11
320.89359961139991
 21
687.90247600274995
  0
LINE
  8
_0-3_躯体
  6
CONTINUOUS
 62
    7
 10
313.22437097739999
 20
683.18596965174993
 11
313.09937097739999
 21
683.40247600274995
  0
LINE
  8
_0-3_躯体
  6
CONTINUOUS
 62
    7
 10
320.89359961139991
 20
687.90247600274995
 11
318.29552340009997
 21
686.40247600274995
  0
LINE
  8
_0-3_躯体
  6
CONTINUOUS
 62
    7
 10
315.69744718869998
 20
684.90247600274995
 11
313.09937097739999
 21
683.40247600274995
  0
LINE
  8
_0-3_躯体
  6
CONTINUOUS
 62
    7
 10
318.42052340009991
 20
686.18596965174993
 11
318.29552340009997
 21
686.40247600274995
  0
LINE
  8
_0-3_躯体
  6
CONTINUOUS
 62
    7
 10
315.82244718869993
 20
684.68596965174993
 11
315.69744718869998
 21
684.90247600274995
  0
LINE
  8
_0-3_躯体
  6
CONTINUOUS
 62
    7
 10
322.31763771709996
 20
688.43596965174993
 11
321.01859961139996
 21
687.68596965174993
  0
LINE
  8
_0-3_躯体
  6
CONTINUOUS
 62
    7
 10
318.42052340009991
 20
686.18596965174993
 11
315.82244718869993
 21
684.68596965174993
  0
LINE
  8
_0-3_躯体
  6
CONTINUOUS
 62
    7
 10
313.22437097739999
 20
683.18596965174993
 11
311.92533287169994
 21
682.43596965174993
  0
LINE
  8
_0-3_躯体
  6
CONTINUOUS
 62
    7
 10
313.30033287169999
 20
680.05439979134997
 11
311.92533287169994
 21
682.43596965174993
  0
LINE
  8
_0-3_躯体
  6
CONTINUOUS
 62
    7
 10
322.31763771709996
 20
688.43596965174993
 11
323.81483991469992
 21
688.52754246104996
  0
LINE
  8
_0-3_躯体
  6
CONTINUOUS
 62
    7
 10
323.13185245459999
 20
685.73063026905004
 11
313.30033287169999
 21
680.05439979134997
  0
LINE
  8
_0-3_躯体
  6
CONTINUOUS
 62
    7
 10
323.13185245459999
 20
685.73063026905004
 11
388.19453441299999
 21
689.71003437164995
  0
LINE
  8
_0-3_躯体
  6
CONTINUOUS
 62
    7
 10
392.70140314069999
 20
692.43998853275002
 11
389.70699874549996
 21
692.62313415134997
  0
LINE
  8
_0-3_躯体
  6
CONTINUOUS
 62
    7
 10
395.68054540109995
 20
692.00730921454999
 11
392.68614100589997
 21
692.19045483314994
  0
LINE
  8
_0-3_躯体
  6
CONTINUOUS
 62
    7
 10
389.69173661059995
 20
692.37360045175001
 11
388.19453441299999
 21
692.46517326105004
  0
LINE
  8
_0-3_躯体
  6
CONTINUOUS
 62
    7
 10
389.70699874549996
 20
692.62313415134997
 11
389.69173661059995
 21
692.37360045175001
  0
LINE
  8
_0-3_躯体
  6
CONTINUOUS
 62
    7
 10
392.70140314069999
 20
692.43998853275002
 11
392.68614100589997
 21
692.19045483314994
  0
LINE
  8
_0-3_躯体
  6
CONTINUOUS
 62
    7
 10
395.6958075359999
 20
692.25684291414996
 11
395.68054540109995
 21
692.00730921454999
  0
LINE
  8
_0-3_躯体
  6
CONTINUOUS
 62
    7
 10
398.69021193129993
 20
692.07369729555001
 11
395.6958075359999
 21
692.25684291414996
  0
LINE
  8
_0-3_躯体
  6
CONTINUOUS
 62
    7
 10
398.69021193129993
 20
692.07369729555001
 11
398.67494979639991
 21
691.82416359595004
  0
LINE
  8
_0-3_躯体
  6
CONTINUOUS
 62
    7
 10
401.66935419169994
 20
691.64101797734997
 11
398.67494979639991
 21
691.82416359595004
  0
LINE
  8
_0-3_躯体
  6
CONTINUOUS
 62
    7
 10
401.68461632649996
 20
691.89055167694994
 11
401.66935419169994
 21
691.64101797734997
  0
LINE
  8
_0-3_躯体
  6
CONTINUOUS
 62
    7
 10
404.67902072179993
 20
691.70740605834999
 11
401.68461632649996
 21
691.89055167694994
  0
LINE
  8
_0-3_躯体
  6
CONTINUOUS
 62
    7
 10
404.67902072179993
 20
691.70740605834999
 11
404.66375858689992
 21
691.45787235875002
  0
LINE
  8
_0-3_躯体
  6
CONTINUOUS
 62
    7
 10
407.6581629822
 20
691.27472674014996
 11
404.66375858689992
 21
691.45787235875002
  0
LINE
  8
_0-3_躯体
  6
CONTINUOUS
 62
    7
 10
407.6734251170999
 20
691.52426043975004
 11
407.6581629822
 21
691.27472674014996
  0
LINE
  8
_0-3_躯体
  6
CONTINUOUS
 62
    7
 10
410.66782951229999
 20
691.34111482114997
 11
407.6734251170999
 21
691.52426043975004
  0
LINE
  8
_0-3_躯体
  6
CONTINUOUS
 62
    7
 10
410.66782951229999
 20
691.34111482114997
 11
410.65256737739998
 21
691.09158112155001
  0
LINE
  8
_0-3_躯体
  6
CONTINUOUS
 62
    7
 10
413.6469717727
 20
690.90843550294994
 11
410.65256737739998
 21
691.09158112155001
  0
LINE
  8
_0-3_躯体
  6
CONTINUOUS
 62
    7
 10
413.6622339075999
 20
691.15796920255002
 11
413.6469717727
 21
690.90843550294994
  0
LINE
  8
_0-3_躯体
  6
CONTINUOUS
 62
    7
 10
416.65663830289998
 20
690.97482358394996
 11
413.6622339075999
 21
691.15796920255002
  0
LINE
  8
_0-3_躯体
  6
CONTINUOUS
 62
    7
 10
416.65663830289998
 20
690.97482358394996
 11
416.64137616799997
 21
690.72528988434999
  0
LINE
  8
_0-3_躯体
  6
CONTINUOUS
 62
    7
 10
419.63578056319994
 20
690.54214426575004
 11
416.64137616799997
 21
690.72528988434999
  0
LINE
  8
_0-3_躯体
  6
CONTINUOUS
 62
    7
 10
419.65104269809996
 20
690.79167796535
 11
419.63578056319994
 21
690.54214426575004
  0
LINE
  8
_0-3_躯体
  6
CONTINUOUS
 62
    7
 10
422.64544709339998
 20
690.60853234674994
 11
419.65104269809996
 21
690.79167796535
  0
LINE
  8
_0-3_躯体
  6
CONTINUOUS
 62
    7
 10
422.64544709339998
 20
690.60853234674994
 11
422.63018495849997
 21
690.35899864714997
  0
LINE
  8
_0-3_躯体
  6
CONTINUOUS
 62
    7
 10
425.62458935379999
 20
690.17585302855002
 11
422.63018495849997
 21
690.35899864714997
  0
LINE
  8
_0-3_躯体
  6
CONTINUOUS
 62
    7
 10
425.6398514887
 20
690.42538672814999
 11
425.62458935379999
 21
690.17585302855002
  0
LINE
  8
_0-3_躯体
  6
CONTINUOUS
 62
    7
 10
428.63425588389993
 20
690.24224110955004
 11
425.6398514887
 21
690.42538672814999
  0
LINE
  8
_0-3_躯体
  6
CONTINUOUS
 62
    7
 10
428.63425588389993
 20
690.24224110955004
 11
428.61899374899991
 21
689.99270740994996
  0
LINE
  8
_0-3_躯体
  6
CONTINUOUS
 62
    7
 10
431.61339814429994
 20
689.80956179135001
 11
428.61899374899991
 21
689.99270740994996
  0
LINE
  8
_0-3_躯体
  6
CONTINUOUS
 62
    7
 10
431.62866027919995
 20
690.05909549094997
 11
431.61339814429994
 21
689.80956179135001
  0
LINE
  8
_0-3_躯体
  6
CONTINUOUS
 62
    7
 10
434.62306467449997
 20
689.87594987235002
 11
431.62866027919995
 21
690.05909549094997
  0
LINE
  8
_0-3_躯体
  6
CONTINUOUS
 62
    7
 10
434.62306467449997
 20
689.87594987235002
 11
434.60780253959996
 21
689.62641617274994
  0
LINE
  8
_0-3_躯体
  6
CONTINUOUS
 62
    7
 10
437.60220693479994
 20
689.44327055414999
 11
434.60780253959996
 21
689.62641617274994
  0
LINE
  8
_0-3_躯体
  6
CONTINUOUS
 62
    7
 10
437.61746906969989
 20
689.69280425374996
 11
437.60220693479994
 21
689.44327055414999
  0
LINE
  8
_0-3_躯体
  6
CONTINUOUS
 62
    7
 10
440.61187346499992
 20
689.50965863515
 11
437.61746906969989
 21
689.69280425374996
  0
LINE
  8
_0-3_躯体
  6
CONTINUOUS
 62
    7
 10
440.61187346499992
 20
689.50965863515
 11
440.5966113300999
 21
689.26012493544999
  0
LINE
  8
_0-3_躯体
  6
CONTINUOUS
 62
    7
 10
443.59101572539993
 20
689.07697931684993
 11
440.5966113300999
 21
689.26012493544999
  0
LINE
  8
_0-3_躯体
  6
CONTINUOUS
 62
    7
 10
443.60627786029994
 20
689.32651301645001
 11
443.59101572539993
 21
689.07697931684993
  0
LINE
  8
_0-3_躯体
  6
CONTINUOUS
 62
    7
 10
446.60068225549992
 20
689.14336739784994
 11
443.60627786029994
 21
689.32651301645001
  0
LINE
  8
_0-3_躯体
  6
CONTINUOUS
 62
    7
 10
446.60068225549992
 20
689.14336739784994
 11
446.58542012059991
 21
688.89383369824998
  0
LINE
  8
_0-3_躯体
  6
CONTINUOUS
 62
    7
 10
449.57982451589999
 20
688.71068807965003
 11
446.58542012059991
 21
688.89383369824998
  0
LINE
  8
_0-3_躯体
  6
CONTINUOUS
 62
    7
 10
449.5950866508
 20
688.96022177924999
 11
449.57982451589999
 21
688.71068807965003
  0
LINE
  8
_0-3_躯体
  6
CONTINUOUS
 62
    7
 10
452.58949104599998
 20
688.77707616065004
 11
449.5950866508
 21
688.96022177924999
  0
LINE
  8
_0-3_躯体
  6
CONTINUOUS
 62
    7
 10
452.58949104599998
 20
688.77707616065004
 11
452.5742289111999
 21
688.52754246104996
  0
LINE
  8
_0-3_躯体
  6
CONTINUOUS
 62
    7
 10
455.37046921449996
 20
687.68596965174993
 11
455.49546921449991
 21
687.90247600274995
  0
LINE
  8
_0-3_躯体
  6
CONTINUOUS
 62
    7
 10
463.16469784849994
 20
683.18596965174993
 11
463.2896978485
 21
683.40247600274995
  0
LINE
  8
_0-3_躯体
  6
CONTINUOUS
 62
    7
 10
455.49546921449991
 20
687.90247600274995
 11
458.09354542579996
 21
686.40247600274995
  0
LINE
  8
_0-3_躯体
  6
CONTINUOUS
 62
    7
 10
460.69162163719994
 20
684.90247600274995
 11
463.2896978485
 21
683.40247600274995
  0
LINE
  8
_0-3_躯体
  6
CONTINUOUS
 62
    7
 10
457.9685454257999
 20
686.18596965174993
 11
458.09354542579996
 21
686.40247600274995
  0
LINE
  8
_0-3_躯体
  6
CONTINUOUS
 62
    7
 10
460.5666216372
 20
684.68596965174993
 11
460.69162163719994
 21
684.90247600274995
  0
LINE
  8
_0-3_躯体
  6
CONTINUOUS
 62
    7
 10
454.07143110879997
 20
688.43596965174993
 11
455.37046921449996
 21
687.68596965174993
  0
LINE
  8
_0-3_躯体
  6
CONTINUOUS
 62
    7
 10
457.9685454257999
 20
686.18596965174993
 11
460.5666216372
 21
684.68596965174993
  0
LINE
  8
_0-3_躯体
  6
CONTINUOUS
 62
    7
 10
463.16469784849994
 20
683.18596965174993
 11
464.46373595419993
 21
682.43596965174993
  0
LINE
  8
_0-3_躯体
  6
CONTINUOUS
 62
    7
 10
463.08873595419999
 20
680.05439979134997
 11
464.46373595419993
 21
682.43596965174993
  0
LINE
  8
_0-3_躯体
  6
CONTINUOUS
 62
    7
 10
454.07143110879997
 20
688.43596965174993
 11
452.5742289111999
 21
688.52754246104996
  0
LINE
  8
_0-3_躯体
  6
CONTINUOUS
 62
    7
 10
453.25721637129993
 20
685.73063026905004
 11
463.08873595419999
 21
680.05439979134997
  0
LINE
  8
_0-3_躯体
  6
CONTINUOUS
 62
    7
 10
453.25721637129993
 20
685.73063026905004
 11
388.19453441299999
 21
689.71003437164995
  0
LINE
  8
_0-3_躯体
  6
CONTINUOUS
 62
    7
 10
1026.8345104892999
 20
693.62313322704995
 11
1026.8192483242001
 21
693.37359954584997
  0
LINE
  8
_0-3_躯体
  6
CONTINUOUS
 62
    7
 10
1026.8192483242001
 20
693.37359954584997
 11
1025.3220461205999
 21
693.46517230364998
  0
LINE
  8
_0-3_躯体
  6
CONTINUOUS
 62
    7
 10
1025.3220461205999
 20
693.46517230364998
 11
1023.8248439169998
 21
693.37359954584997
  0
LINE
  8
_0-3_躯体
  6
CONTINUOUS
 62
    7
 10
1023.8248439169998
 20
693.37359954584997
 11
1023.8095817518999
 21
693.62313322704995
  0
LINE
  8
_0-3_躯体
  6
CONTINUOUS
 62
    7
 10
1023.8095817518999
 20
693.62313322704995
 11
1020.8151773447001
 21
693.43998747864998
  0
LINE
  8
_0-3_躯体
  6
CONTINUOUS
 62
    7
 10
1020.8151773447001
 20
693.43998747864998
 11
1020.8304393933998
 21
693.19045379745
  0
LINE
  8
_0-3_躯体
  6
CONTINUOUS
 62
    7
 10
1020.8304393933998
 20
693.19045379745
 11
1017.8360352190001
 21
693.00730828174994
  0
LINE
  8
_0-3_躯体
  6
CONTINUOUS
 62
    7
 10
1017.8360352190001
 20
693.00730828174994
 11
1017.8207731703001
 21
693.25684196295003
  0
LINE
  8
_0-3_躯体
  6
CONTINUOUS
 62
    7
 10
1017.8207731703001
 20
693.25684196295003
 11
1014.8263685301999
 21
693.07369633094993
  0
LINE
  8
_0-3_躯体
  6
CONTINUOUS
 62
    7
 10
1014.8263685301999
 20
693.07369633094993
 11
1014.8416310446
 21
692.82416264974995
  0
LINE
  8
_0-3_躯体
  6
CONTINUOUS
 62
    7
 10
1014.8416310446
 20
692.82416264974995
 11
1011.8472259389001
 21
692.64101701774996
  0
LINE
  8
_0-3_躯体
  6
CONTINUOUS
 62
    7
 10
1011.8472259389001
 20
692.64101701774996
 11
1011.8319643559001
 21
692.89055069894994
  0
LINE
  8
_0-3_躯体
  6
CONTINUOUS
 62
    7
 10
1011.8319643559001
 20
692.89055069894994
 11
1008.8375601815001
 21
692.70740506685001
  0
LINE
  8
_0-3_躯体
  6
CONTINUOUS
 62
    7
 10
1008.8375601815001
 20
692.70740506685001
 11
1008.8528226957999
 21
692.45787138565004
  0
LINE
  8
_0-3_躯体
  6
CONTINUOUS
 62
    7
 10
1008.8528226957999
 20
692.45787138565004
 11
1005.8584175901
 21
692.27472575364993
  0
LINE
  8
_0-3_躯体
  6
CONTINUOUS
 62
    7
 10
1005.8584175901
 20
692.27472575364993
 11
1005.8431550757998
 21
692.52425943485002
  0
LINE
  8
_0-3_躯体
  6
CONTINUOUS
 62
    7
 10
1005.8431550757998
 20
692.52425943485002
 11
1002.8487518326999
 21
692.34111391925001
  0
LINE
  8
_0-3_躯体
  6
CONTINUOUS
 62
    7
 10
1002.8487518326999
 20
692.34111391925001
 11
1002.8640124844001
 21
692.09158017984998
  0
LINE
  8
_0-3_躯体
  6
CONTINUOUS
 62
    7
 10
1002.8640124844001
 20
692.09158017984998
 11
999.86960924129983
 21
691.90843454774995
  0
LINE
  8
_0-3_躯体
  6
CONTINUOUS
 62
    7
 10
999.86960924129983
 20
691.90843454774995
 11
999.85434672700001
 21
692.15796828714997
  0
LINE
  8
_0-3_躯体
  6
CONTINUOUS
 62
    7
 10
999.85434672700001
 20
692.15796828714997
 11
996.85994162130009
 21
691.97482265514998
  0
LINE
  8
_0-3_躯体
  6
CONTINUOUS
 62
    7
 10
996.85994162130009
 20
691.97482265514998
 11
996.87520413559992
 21
691.72528897395
  0
LINE
  8
_0-3_躯体
  6
CONTINUOUS
 62
    7
 10
996.87520413559992
 20
691.72528897395
 11
993.88080089259995
 21
691.54214334195001
  0
LINE
  8
_0-3_躯体
  6
CONTINUOUS
 62
    7
 10
993.88080089259995
 20
691.54214334195001
 11
993.86553837819986
 21
691.79167702314999
  0
LINE
  8
_0-3_躯体
  6
CONTINUOUS
 62
    7
 10
993.86553837819986
 20
691.79167702314999
 11
990.87113513509996
 21
691.60853144924999
  0
LINE
  8
_0-3_躯体
  6
CONTINUOUS
 62
    7
 10
990.87113513509996
 20
691.60853144924999
 11
990.88639392420009
 21
691.35899773894994
  0
LINE
  8
_0-3_躯体
  6
CONTINUOUS
 62
    7
 10
990.88639392420009
 20
691.35899773894994
 11
987.89199068109986
 21
691.17585212514996
  0
LINE
  8
_0-3_躯体
  6
CONTINUOUS
 62
    7
 10
987.89199068109986
 20
691.17585212514996
 11
987.87672816680004
 21
691.42538583185001
  0
LINE
  8
_0-3_躯体
  6
CONTINUOUS
 62
    7
 10
987.87672816680004
 20
691.42538583185001
 11
984.88232492370014
 21
691.24224021434998
  0
LINE
  8
_0-3_躯体
  6
CONTINUOUS
 62
    7
 10
984.88232492370014
 20
691.24224021434998
 11
984.89758743809989
 21
690.99270651854999
  0
LINE
  8
_0-3_躯体
  6
CONTINUOUS
 62
    7
 10
984.89758743809989
 20
690.99270651854999
 11
981.90318419499999
 21
690.80956090104996
  0
LINE
  8
_0-3_躯体
  6
CONTINUOUS
 62
    7
 10
981.90318419499999
 20
690.80956090104996
 11
981.88792168069983
 21
691.05909461135002
  0
LINE
  8
_0-3_躯体
  6
CONTINUOUS
 62
    7
 10
981.88792168069983
 20
691.05909461135002
 11
978.89351471229998
 21
690.87594897935003
  0
LINE
  8
_0-3_躯体
  6
CONTINUOUS
 62
    7
 10
978.89351471229998
 20
690.87594897935003
 11
978.90877722670007
 21
690.62641529814994
  0
LINE
  8
_0-3_躯体
  6
CONTINUOUS
 62
    7
 10
978.90877722670007
 20
690.62641529814994
 11
975.91437398359983
 21
690.44326966614994
  0
LINE
  8
_0-3_躯体
  6
CONTINUOUS
 62
    7
 10
975.91437398359983
 20
690.44326966614994
 11
975.89911146920008
 21
690.69280340554997
  0
LINE
  8
_0-3_躯体
  6
CONTINUOUS
 62
    7
 10
975.89911146920008
 20
690.69280340554997
 11
972.90470822620011
 21
690.50965777344993
  0
LINE
  8
_0-3_躯体
  6
CONTINUOUS
 62
    7
 10
972.90470822620011
 20
690.50965777344993
 11
972.91997074049993
 21
690.26012409224995
  0
LINE
  8
_0-3_躯体
  6
CONTINUOUS
 62
    7
 10
972.91997074049993
 20
690.26012409224995
 11
969.92556377220001
 21
690.07697851845001
  0
LINE
  8
_0-3_躯体
  6
CONTINUOUS
 62
    7
 10
969.92556377220001
 20
690.07697851845001
 11
969.91030125779992
 21
690.32651214144994
  0
LINE
  8
_0-3_躯体
  6
CONTINUOUS
 62
    7
 10
969.91030125779992
 20
690.32651214144994
 11
966.91589801479995
 21
690.14336656764999
  0
LINE
  8
_0-3_躯体
  6
CONTINUOUS
 62
    7
 10
966.91589801479995
 20
690.14336656764999
 11
966.93116052910011
 21
689.89383288645001
  0
LINE
  8
_0-3_躯体
  6
CONTINUOUS
 62
    7
 10
1050.7897455141997
 20
692.15796828714997
 11
1050.7744829999001
 21
691.90843454774995
  0
LINE
  8
_0-3_躯体
  6
CONTINUOUS
 62
    7
 10
1050.7744829999001
 20
691.90843454774995
 11
1047.7800797568002
 21
692.09158017984998
  0
LINE
  8
_0-3_躯体
  6
CONTINUOUS
 62
    7
 10
1047.7800797568002
 20
692.09158017984998
 11
1047.7953404084999
 21
692.34111391925001
  0
LINE
  8
_0-3_躯体
  6
CONTINUOUS
 62
    7
 10
1047.7953404084999
 20
692.34111391925001
 11
1044.8009371654998
 21
692.52425943485002
  0
LINE
  8
_0-3_躯体
  6
CONTINUOUS
 62
    7
 10
1044.8009371654998
 20
692.52425943485002
 11
1044.7856746510997
 21
692.27472575364993
  0
LINE
  8
_0-3_躯体
  6
CONTINUOUS
 62
    7
 10
1044.7856746510997
 20
692.27472575364993
 11
1041.7912695453999
 21
692.45787138565004
  0
LINE
  8
_0-3_躯体
  6
CONTINUOUS
 62
    7
 10
1041.7912695453999
 20
692.45787138565004
 11
1041.8065320598
 21
692.70740506685001
  0
LINE
  8
_0-3_躯体
  6
CONTINUOUS
 62
    7
 10
1041.8065320598
 20
692.70740506685001
 11
1038.8121278854001
 21
692.89055069894994
  0
LINE
  8
_0-3_躯体
  6
CONTINUOUS
 62
    7
 10
1038.8121278854001
 20
692.89055069894994
 11
1038.7968663023
 21
692.64101701774996
  0
LINE
  8
_0-3_躯体
  6
CONTINUOUS
 62
    7
 10
1038.7968663023
 20
692.64101701774996
 11
1035.8024611966002
 21
692.82416264974995
  0
LINE
  8
_0-3_躯体
  6
CONTINUOUS
 62
    7
 10
1035.8024611966002
 20
692.82416264974995
 11
1035.8177237109999
 21
693.07369633094993
  0
LINE
  8
_0-3_躯体
  6
CONTINUOUS
 62
    7
 10
1035.8177237109999
 20
693.07369633094993
 11
1032.8233190709002
 21
693.25684196295003
  0
LINE
  8
_0-3_躯体
  6
CONTINUOUS
 62
    7
 10
1032.8233190709002
 20
693.25684196295003
 11
1032.8080570222
 21
693.00730828174994
  0
LINE
  8
_0-3_躯体
  6
CONTINUOUS
 62
    7
 10
1032.8080570222
 20
693.00730828174994
 11
1029.8136528478999
 21
693.19045379745
  0
LINE
  8
_0-3_躯体
  6
CONTINUOUS
 62
    7
 10
1029.8136528478999
 20
693.19045379745
 11
1029.8289148965
 21
693.43998747864998
  0
LINE
  8
_0-3_躯体
  6
CONTINUOUS
 62
    7
 10
1029.8289148965
 20
693.43998747864998
 11
1026.8345104892999
 21
693.62313322704995
  0
LINE
  8
_0-3_躯体
  6
CONTINUOUS
 62
    7
 10
1065.7465048029999
 20
690.99270651854999
 11
1065.761767318
 21
691.24224021434998
  0
LINE
  8
_0-3_躯体
  6
CONTINUOUS
 62
    7
 10
1065.761767318
 20
691.24224021434998
 11
1062.7673640739999
 21
691.42538583185001
  0
LINE
  8
_0-3_躯体
  6
CONTINUOUS
 62
    7
 10
1062.7673640739999
 20
691.42538583185001
 11
1062.75210156
 21
691.17585212514996
  0
LINE
  8
_0-3_躯体
  6
CONTINUOUS
 62
    7
 10
1062.75210156
 20
691.17585212514996
 11
1059.7576983170002
 21
691.35899773894994
  0
LINE
  8
_0-3_躯体
  6
CONTINUOUS
 62
    7
 10
1059.7576983170002
 20
691.35899773894994
 11
1059.7729571059999
 21
691.60853144924999
  0
LINE
  8
_0-3_躯体
  6
CONTINUOUS
 62
    7
 10
1059.7729571059999
 20
691.60853144924999
 11
1056.7785538630001
 21
691.79167702314999
  0
LINE
  8
_0-3_躯体
  6
CONTINUOUS
 62
    7
 10
1056.7785538630001
 20
691.79167702314999
 11
1056.7632913487
 21
691.54214334195001
  0
LINE
  8
_0-3_躯体
  6
CONTINUOUS
 62
    7
 10
1056.7632913487
 20
691.54214334195001
 11
1053.7688881055999
 21
691.72528897395
  0
LINE
  8
_0-3_躯体
  6
CONTINUOUS
 62
    7
 10
1053.7688881055999
 20
691.72528897395
 11
1053.78415062
 21
691.97482265514998
  0
LINE
  8
_0-3_躯体
  6
CONTINUOUS
 62
    7
 10
1053.78415062
 20
691.97482265514998
 11
1050.7897455141997
 21
692.15796828714997
  0
LINE
  8
_0-3_躯体
  6
CONTINUOUS
 62
    7
 10
1067.2437064250003
 20
690.90113370974996
 11
1065.7465048029999
 21
690.99270651854999
  0
LINE
  8
_0-3_躯体
  6
CONTINUOUS
 62
    7
 10
1067.6319348439997
 20
689.45224552585
 11
1067.8734162999999
 21
689.51695028705001
  0
LINE
  8
_0-3_躯体
  6
CONTINUOUS
 62
    7
 10
1067.8734162999999
 20
689.51695028705001
 11
1068.6498734349998
 21
686.61917280825003
  0
LINE
  8
_0-3_躯体
  6
CONTINUOUS
 62
    7
 10
1067.2437064250003
 20
690.90113370974996
 11
1067.6319348439997
 21
689.45224552585
  0
LINE
  8
_0-3_躯体
  6
CONTINUOUS
 62
    7
 10
1068.4083919789998
 20
686.55446804694998
 11
1068.6498734349998
 21
686.61917280825003
  0
LINE
  8
_0-3_躯体
  6
CONTINUOUS
 62
    7
 10
1068.4083919789998
 20
686.55446804694998
 11
1069.1848491140001
 21
683.65669056804995
  0
LINE
  8
_0-3_躯体
  6
CONTINUOUS
 62
    7
 10
1069.1848491140001
 20
683.65669056804995
 11
1069.4263305709999
 21
683.72139532935
  0
LINE
  8
_0-3_躯体
  6
CONTINUOUS
 62
    7
 10
1069.4263305709999
 20
683.72139532935
 11
1070.202787706
 21
680.82361785044998
  0
LINE
  8
_0-3_躯体
  6
CONTINUOUS
 62
    7
 10
1069.9613062490002
 20
680.75891308924997
 11
1070.202787706
 21
680.82361785044998
  0
LINE
  8
_0-3_躯体
  6
CONTINUOUS
 62
    7
 10
1069.9613062490002
 20
680.75891308924997
 11
1070.3495348169999
 21
679.31002434974994
  0
LINE
  8
_0-3_躯体
  6
CONTINUOUS
 62
    7
 10
966.93116052910011
 20
689.89383288645001
 11
963.93675356079984
 21
689.71068731264995
  0
LINE
  8
_0-3_躯体
  6
CONTINUOUS
 62
    7
 10
963.93675356079984
 20
689.71068731264995
 11
963.92149104640009
 21
689.96022093565
  0
LINE
  8
_0-3_躯体
  6
CONTINUOUS
 62
    7
 10
963.92149104640009
 20
689.96022093565
 11
960.92708780340013
 21
689.77707536184994
  0
LINE
  8
_0-3_躯体
  6
CONTINUOUS
 62
    7
 10
960.92708780340013
 20
689.77707536184994
 11
960.94235031769995
 21
689.52754168064996
  0
LINE
  8
_0-3_躯体
  6
CONTINUOUS
 62
    7
 10
960.94235031769995
 20
689.52754168064996
 11
959.44514869620014
 21
689.43596880634993
  0
LINE
  8
_0-3_躯体
  6
CONTINUOUS
 62
    7
 10
959.44514869620014
 20
689.43596880634993
 11
958.14611016679999
 21
688.68596879985
  0
LINE
  8
_0-3_躯体
  6
CONTINUOUS
 62
    7
 10
958.14611016679999
 20
688.68596879985
 11
958.02110805079997
 21
688.90247522145
  0
LINE
  8
_0-3_躯体
  6
CONTINUOUS
 62
    7
 10
958.02110805079997
 20
688.90247522145
 11
955.42303471729997
 21
687.40247520845003
  0
LINE
  8
_0-3_躯体
  6
CONTINUOUS
 62
    7
 10
955.42303471729997
 20
687.40247520845003
 11
955.54803310800003
 21
687.18596878685003
  0
LINE
  8
_0-3_躯体
  6
CONTINUOUS
 62
    7
 10
955.54803310800003
 20
687.18596878685003
 11
952.94995604920007
 21
685.68596900665
  0
LINE
  8
_0-3_躯体
  6
CONTINUOUS
 62
    7
 10
952.94995604920007
 20
685.68596900665
 11
952.82495765850001
 21
685.90247542814996
  0
LINE
  8
_0-3_躯体
  6
CONTINUOUS
 62
    7
 10
952.82495765850001
 20
685.90247542814996
 11
950.22688059970005
 21
684.40247518235003
  0
LINE
  8
_0-3_躯体
  6
CONTINUOUS
 62
    7
 10
950.22688059970005
 20
684.40247518235003
 11
950.35187899040011
 21
684.18596876075003
  0
LINE
  8
_0-3_躯体
  6
CONTINUOUS
 62
    7
 10
950.35187899040011
 20
684.18596876075003
 11
949.05284046099996
 21
683.43596863774997
  0
LINE
  8
_0-3_躯体
  6
CONTINUOUS
 62
    7
 10
1067.6932387950001
 20
678.59827197574998
 11
1070.3495348169999
 21
679.31002434974994
  0
LINE
  8
_0-3_躯体
  6
CONTINUOUS
 62
    7
 10
949.05284046099996
 20
683.43596863774997
 11
950.42783980589991
 21
681.05439788854994
  0
LINE
  8
_0-3_躯体
  6
CONTINUOUS
 62
    7
 10
960.25936253550014
 20
686.73062921095004
 11
1025.3220461205999
 21
690.71003337184993
  0
LINE
  8
_0-3_躯体
  6
CONTINUOUS
 62
    7
 10
1025.3220461205999
 20
690.71003337184993
 11
1065.099798795
 21
688.27712181974994
  0
LINE
  8
_0-3_躯体
  6
CONTINUOUS
 62
    7
 10
1065.099798795
 20
688.27712181974994
 11
1067.6932387950001
 21
678.59827197574998
  0
LINE
  8
_0-3_躯体
  6
CONTINUOUS
 62
    7
 10
950.42783980589991
 20
681.05439788854994
 11
960.25936253550014
 21
686.73062921095004
  0
TEXT
  8
_0-0_0
 62
    7
 10
240.94427505605196
 20
887.05101686797514
 40
13.999999999999998
 41
0.736516
 50
0
  1
（ステンレス１００タイプ）
  0
TEXT
  8
_0-0_0
 62
    7
 10
120.42676255605204
 20
853.03373520130845
 40
17.500000000000018
 41
0.8025179999999999
 50
0
  1
◇床－床（１００ＴＴＦ－ＧＰＳ）　Ｓ＝１／３
  0
TEXT
  8
_0-0_0
 62
    7
 10
718.56388832029006
 20
854.92025748909759
 40
17.500000000000018
 41
0.803210999999998
 50
0
  1
◇床コーナー（１００ＴＣＦ－ＧＰＳ）　Ｓ＝１／３
  0
TEXT
  8
_0-0_0
 62
    7
 10
855.59694457029036
 20
892.00852915576411
 40
13.999999999999982
 41
0.7365159999999988
 50
0
  1
（ステンレス１００タイプ）
  0
ENDSEC
  0
EOF
