  0
SECTION
  2
HEADER
  9
$ACADVER
  1
AC1009
  9
$INSBASE
 10
0
 20
0
 30
0
  9
$EXTMIN
 10
0
 20
0
  9
$EXTMAX
 10
841
 20
594
  9
$LIMMIN
 10
0
 20
0
  9
$LIMMAX
 10
841
 20
594
  9
$LTSCALE
 40
1
  0
ENDSEC
  0
SECTION
  2
TABLES
  0
TABLE
  2
LTYPE
 70
     9
  0
LTYPE
  2
CONTINUOUS
 70
    64
  3
実線
 72
    65
 73
     0
 40
0.0
  0
LTYPE
  2
DASHED1
 70
    64
  3
--  --  --  --  --  --  --  --  
 72
    65
 73
     2
 40
2.5
 49
1.25
 49
-1.25
  0
LTYPE
  2
DASHED2
 70
    64
  3
----    ----    ----    ----    
 72
    65
 73
     2
 40
5.0
 49
2.5
 49
-2.5
  0
LTYPE
  2
DASHED3
 70
    64
  3
------  ------  ------  ------  
 72
    65
 73
     2
 40
5.0
 49
3.75
 49
-1.25
  0
LTYPE
  2
CENTER1
 70
    64
  3
----- - ----- - ----- - ----- - 
 72
    65
 73
     4
 40
10.0
 49
6.25
 49
-1.25
 49
1.25
 49
-1.25
  0
LTYPE
  2
CENTER2
 70
    64
  3
----------  --  ----------  --  
 72
    65
 73
     4
 40
20.0
 49
12.5
 49
-2.5
 49
2.5
 49
-2.5
  0
LTYPE
  2
PHANTOM1
 70
    64
  3
--- - - --- - - --- - - --- - - 
 72
    65
 73
     6
 40
10.0
 49
3.25
 49
-1.25
 49
1.25
 49
-1.25
 49
1.25
 49
-1.25
  0
LTYPE
  2
PHANTOM2
 70
    64
  3
--------  -  -  --------  -  -  
 72
    65
 73
     6
 40
20.0
 49
10.0
 49
-2.5
 49
1.25
 49
-2.5
 49
1.25
 49
-2.5
  0
LTYPE
  2
DOT
 70
    64
  3
-   -   -   -   -   -   -   -   
 72
    65
 73
     2
 40
2.5
 49
0.625
 49
-1.875
  0
LTYPE
  2
DUMMY
 70
    64
  3
ダミー
 72
    65
 73
     0
 40
0.0
  0
LTYPE
  2
RAND1
 70
    64
  3
ランダム線1
 72
    65
 73
     4
 40
10.0
 49
1.0
 49
-2.0
 49
3.0
 49
-4.0
  0
LTYPE
  2
RAND2
 70
    64
  3
ランダム線2
 72
    65
 73
     4
 40
14.0
 49
2.0
 49
-3.0
 49
4.0
 49
-5.0
  0
LTYPE
  2
RAND3
 70
    64
  3
ランダム線3
 72
    65
 73
     4
 40
18.0
 49
3.0
 49
-4.0
 49
5.0
 49
-6.0
  0
LTYPE
  2
RAND4
 70
    64
  3
ランダム線4
 72
    65
 73
     4
 40
22.0
 49
4.0
 49
-5.0
 49
6.0
 49
-7.0
  0
LTYPE
  2
RAND5
 70
    64
  3
ランダム線5
 72
    65
 73
     4
 40
26.0
 49
5.0
 49
-6.0
 49
7.0
 49
-8.0
  0
LTYPE
  2
LONG1
 70
    64
  3
----------  --  ----------  --  
 72
    65
 73
     4
 40
40.0
 49
32.5
 49
-2.5
 49
2.5
 49
-2.5
  0
LTYPE
  2
LONG2
 70
    64
  3
--------  -  -  --------  -  -  
 72
    65
 73
     6
 40
40.0
 49
30.0
 49
-2.5
 49
1.25
 49
-2.5
 49
1.25
 49
-2.5
  0
LTYPE
  2
LONG3
 70
    64
  3
+++++++++++++++..+++++++++++++++
 72
    65
 73
     2
 40
40.0
 49
37.5
 49
-2.5
  0
LTYPE
  2
LONG4
 70
    64
  3
+++++++++++++++..+++++++++++++++
 72
    65
 73
     2
 40
80.0
 49
75.0
 49
-5.0
  0
LTYPE
  2
LONG5
 70
    64
  3
----------  --  ----------  --  
 72
    65
 73
     4
 40
60.0
 49
37.5
 49
-7.5
 49
7.5
 49
-7.5
  0
LTYPE
  2
dashed
 70
   64
  3
-------   -------------   ------
 72
   65
 73
    2
 40
7.5
 49
6
 49
-1.5
  0
LTYPE
  2
dashed_spaced
 70
   64
  3
----        --------        ----
 72
   65
 73
    2
 40
12
 49
6
 49
-6
  0
LTYPE
  2
long_dashed_dotted
 70
   64
  3
------------- --- --------------
 72
   65
 73
    4
 40
15.25
 49
12
 49
-1.5
 49
0.25
 49
-1.5
  0
LTYPE
  2
long_dashed_double-dotted
 70
   64
  3
----------- --- --- ------------
 72
   65
 73
    6
 40
17
 49
12
 49
-1.5
 49
0.25
 49
-1.5
 49
0.25
 49
-1.5
  0
LTYPE
  2
long_dashed_triplicate-dotted
 70
   64
  3
--------- --- --- --- ----------
 72
   65
 73
    8
 40
18.75
 49
12
 49
-1.5
 49
0.25
 49
-1.5
 49
0.25
 49
-1.5
 49
0.25
 49
-1.5
  0
LTYPE
  2
dotted
 70
   64
  3
   -       -       -       -    
 72
   65
 73
    2
 40
1.75
 49
0.25
 49
-1.5
  0
LTYPE
  2
chain
 70
   64
  3
-------------- -- --------------
 72
   65
 73
    4
 40
18.5
 49
12
 49
-1.5
 49
3.5
 49
-1.5
  0
LTYPE
  2
chain_double_dash
 70
   64
  3
------------ -- -- -------------
 72
   65
 73
    6
 40
23.5
 49
12
 49
-1.5
 49
3.5
 49
-1.5
 49
3.5
 49
-1.5
  0
LTYPE
  2
dashed_dotted
 70
   64
  3
-----------     -     ----------
 72
   65
 73
    4
 40
9.25
 49
6
 49
-1.5
 49
0.25
 49
-1.5
  0
LTYPE
  2
double-dashed_dotted
 70
   64
  3
------   -----------   -   -----
 72
   65
 73
    6
 40
16.75
 49
6
 49
-1.5
 49
6
 49
-1.5
 49
0.25
 49
-1.5
  0
LTYPE
  2
dashed_double-dotted
 70
   64
  3
---------    -    -    ---------
 72
   65
 73
    6
 40
11
 49
6
 49
-1.5
 49
0.25
 49
-1.5
 49
0.25
 49
-1.5
  0
LTYPE
  2
double-dashed_double-dotted
 70
   64
  3
-----   ---------   -   -   ----
 72
   65
 73
    8
 40
18.5
 49
6
 49
-1.5
 49
6
 49
-1.5
 49
0.25
 49
-1.5
 49
0.25
 49
-1.5
  0
LTYPE
  2
dashed_triplicate-dotted
 70
   64
  3
-------    -    -    -    ------
 72
   65
 73
    8
 40
12.75
 49
6
 49
-1.5
 49
0.25
 49
-1.5
 49
0.25
 49
-1.5
 49
0.25
 49
-1.5
  0
LTYPE
  2
double-dashed_triplicate-dotted
 70
   64
  3
-----  ---------  -  -  -  -----
 72
   65
 73
   10
 40
20.25
 49
6
 49
-1.5
 49
6
 49
-1.5
 49
0.25
 49
-1.5
 49
0.25
 49
-1.5
 49
0.25
 49
-1.5
  0
LTYPE
  2
undefined
 70
   64
  3
--------------------------------
 72
   65
 73
    0
 40
0
  0
ENDTAB
  0
TABLE
  2
STYLE
  5
3
100
AcDbSymbolTable
 70
     1
  0
STYLE
  5
10
100
AcDbSymbolTableRecord
100
AcDbTextStyleTableRecord
  2
STANDARD
 70
     0
 40
0.0
 41
1.0
 50
0.0
 71
     0
 42
0.2
  3
txt
  4
bigfont.shx
  0
STYLE
  5
26
100
AcDbSymbolTableRecord
100
AcDbTextStyleTableRecord
  2
TATEGAKI
 70
    68
 40
0.0
 41
1.0
 50
0.0
 71
     0
 42
1.0
  3
txt
  4
bigfont.shx
  0
ENDTAB
  0
TABLE
  2
LAYER
 70
   11
  0
LAYER
  2
_0-0_躯体
 70
   64
 62
    7
  6
CONTINUOUS
  0
LAYER
  2
_0-1_耐火帯
 70
   64
 62
    7
  6
CONTINUOUS
  0
LAYER
  2
_0-9_小物
 70
   64
 62
    7
  6
CONTINUOUS
  0
LAYER
  2
_0-a_
 70
   64
 62
    7
  6
CONTINUOUS
  0
LAYER
  2
_0-e_付箋
 70
   64
 62
    7
  6
CONTINUOUS
  0
LAYER
  2
_0-f_寸法
 70
   64
 62
    7
  6
CONTINUOUS
  0
LAYER
  2
_1-0_
 70
   64
 62
    7
  6
CONTINUOUS
  0
LAYER
  2
_1-e_
 70
   64
 62
    7
  6
CONTINUOUS
  0
LAYER
  2
_1-f_
 70
   64
 62
    7
  6
CONTINUOUS
  0
LAYER
  2
_f-0_
 70
   64
 62
    7
  6
CONTINUOUS
  0
LAYER
  2
ADD_LINE
 70
   64
 62
    7
  6
CONTINUOUS
  0
ENDTAB
  0
ENDSEC
  0
SECTION
  2
BLOCKS
  0
BLOCK
  2
-000-
 70
   64
 10
0
 20
0
 30
0
  0
LINE
  8
_0-9_小物
  6
CONTINUOUS
 62
    3
 10
-299.09971691628482
 20
-13.404489999976931
 11
-301.04463691628519
 21
-14.507794999977023
  0
LINE
  8
_0-9_小物
  6
CONTINUOUS
 62
    3
 10
-301.04463691628519
 20
-14.507794999977023
 11
-300.93996691628547
 21
-16.505054999977119
  0
LINE
  8
_0-9_小物
  6
CONTINUOUS
 62
    3
 10
-300.93996691628547
 20
-16.505054999977119
 11
-298.94270691628492
 21
-16.400379999977076
  0
LINE
  8
_0-9_小物
  6
CONTINUOUS
 62
    3
 10
-299.20438691628499
 20
-11.407234999977163
 11
-299.09971691628482
 21
-13.404489999976931
  0
LINE
  8
_0-9_小物
  6
CONTINUOUS
 62
    3
 10
-301.30631691628525
 20
-9.5146449999772358
 11
-301.20164691628509
 21
-11.511904999977332
  0
LINE
  8
_0-9_小物
  6
CONTINUOUS
 62
    3
 10
-301.20164691628509
 20
-11.511904999977332
 11
-299.20438691628499
 21
-11.407234999977163
  0
LINE
  8
_0-9_小物
  6
CONTINUOUS
 62
    3
 10
-299.5659419162854
 20
-8.5999999999769443
 11
-301.30631691628525
 21
-9.5146449999772358
  0
LINE
  8
_0-9_小物
  6
CONTINUOUS
 62
    3
 10
-308.03216691628415
 20
-13.404489999976931
 11
-306.0872469162847
 21
-14.507794999977023
  0
LINE
  8
_0-9_小物
  6
CONTINUOUS
 62
    3
 10
-306.0872469162847
 20
-14.507794999977023
 11
-306.19191691628532
 21
-16.505054999977119
  0
LINE
  8
_0-9_小物
  6
CONTINUOUS
 62
    3
 10
-306.19191691628532
 20
-16.505054999977119
 11
-308.18917691628542
 21
-16.400379999977076
  0
LINE
  8
_0-9_小物
  6
CONTINUOUS
 62
    3
 10
-307.9274969162858
 20
-11.407234999977163
 11
-308.03216691628415
 21
-13.404489999976931
  0
LINE
  8
_0-9_小物
  6
CONTINUOUS
 62
    3
 10
-305.82556691628508
 20
-9.5146449999772358
 11
-305.93023691628571
 21
-11.511904999977332
  0
LINE
  8
_0-9_小物
  6
CONTINUOUS
 62
    3
 10
-305.93023691628571
 20
-11.511904999977332
 11
-307.9274969162858
 21
-11.407234999977163
  0
LINE
  8
_0-9_小物
  6
CONTINUOUS
 62
    3
 10
-307.56594191628449
 20
-8.5999999999769443
 11
-305.82556691628508
 21
-9.5146449999772358
  0
LINE
  8
_0-9_小物
  6
CONTINUOUS
 62
    3
 10
-298.94270691628492
 20
-16.400379999977076
 11
-297.24734191628579
 21
-11.742399999977579
  0
LINE
  8
_0-9_小物
  6
CONTINUOUS
 62
    3
 10
-300.00688691628477
 20
-16.400379999977076
 11
-298.18703191628458
 21
-11.400379999977076
  0
LINE
  8
_0-9_小物
  6
CONTINUOUS
 62
    3
 10
-308.18917691628542
 20
-16.400379999977076
 11
-309.884541916285
 21
-11.742399999977579
  0
LINE
  8
_0-9_小物
  6
CONTINUOUS
 62
    3
 10
-307.12499691628602
 20
-16.400379999977076
 11
-308.94485191628576
 21
-11.400379999977076
  0
LINE
  8
_0-9_小物
  6
CONTINUOUS
 62
    3
 10
-299.5659419162854
 20
-8.5999999999769443
 11
-299.5659419162854
 21
-4.5999999999773991
  0
LINE
  8
_0-9_小物
  6
CONTINUOUS
 62
    3
 10
-307.56594191628449
 20
-8.5999999999769443
 11
-307.56594191628449
 21
-4.5999999999773991
  0
LINE
  8
_0-9_小物
  6
CONTINUOUS
 62
    3
 10
-309.884541916285
 20
-11.742399999977579
 11
-310.87689691628532
 21
-4.9387799999765321
  0
ARC
  8
_0-9_小物
  6
CONTINUOUS
 62
    3
 10
-310.48108691628534
 20
-4.8810449999766661
 40
0.4
 50
98.130101999958413
 51
188.2984660000358
  0
LINE
  8
_0-9_小物
  6
CONTINUOUS
 62
    3
 10
-310.53765691628598
 20
-4.4850649999768848
 11
-310.34083191628508
 21
-4.4569499999768141
  0
ARC
  8
_0-9_小物
  6
CONTINUOUS
 62
    3
 10
-310.28426191628398
 20
-4.8529299999770501
 40
0.4
 50
8.1301020000240456
 51
98.130102000220958
  0
LINE
  8
_0-9_小物
  6
CONTINUOUS
 62
    3
 10
-309.88828191628511
 20
-4.7963599999773123
 11
-308.94485191628576
 21
-11.400379999977076
  0
LINE
  8
_0-9_小物
  6
CONTINUOUS
 62
    3
 10
-297.24734191628579
 20
-11.742399999977579
 11
-296.25498691628547
 21
-4.9387799999765321
  0
ARC
  8
_0-9_小物
  6
CONTINUOUS
 62
    3
 10
-296.650796916285
 20
-4.8810449999766661
 40
0.4
 50
351.70153399995615
 51
81.869898000041587
  0
LINE
  8
_0-9_小物
  6
CONTINUOUS
 62
    3
 10
-296.59423191628559
 20
-4.4850649999768848
 11
-296.79105191628526
 21
-4.4569499999768141
  0
ARC
  8
_0-9_小物
  6
CONTINUOUS
 62
    3
 10
-296.84762191628454
 20
-4.8529299999770501
 40
0.4
 50
81.869898000041587
 51
171.86989800000819
  0
LINE
  8
_0-9_小物
  6
CONTINUOUS
 62
    3
 10
-297.24360191628523
 20
-4.7963599999773123
 11
-298.18703191628458
 21
-11.400379999977076
  0
LINE
  8
_0-9_小物
  6
CONTINUOUS
 62
    3
 10
-297.24734191628579
 20
-11.742399999977579
 11
-296.25498691628547
 21
-4.9387799999765321
  0
ARC
  8
_0-9_小物
  6
CONTINUOUS
 62
    3
 10
-296.650796916285
 20
-4.8810449999766661
 40
0.4
 50
351.70153399995615
 51
81.869898000041587
  0
LINE
  8
_0-9_小物
  6
CONTINUOUS
 62
    3
 10
-296.59423191628559
 20
-4.4850649999768848
 11
-296.79105191628526
 21
-4.4569499999768141
  0
ARC
  8
_0-9_小物
  6
CONTINUOUS
 62
    3
 10
-296.84762191628454
 20
-4.8529299999770501
 40
0.4
 50
81.869898000041587
 51
171.86989800000819
  0
LINE
  8
_0-9_小物
  6
CONTINUOUS
 62
    3
 10
-297.24360191628523
 20
-4.7963599999773123
 11
-298.18703191628458
 21
-11.400379999977076
  0
LINE
  8
_0-9_小物
  6
CONTINUOUS
 62
    3
 10
-299.5659419162854
 20
3.4000000000230557
 11
-299.5659419162854
 21
-4.5999999999773991
  0
LINE
  8
_0-9_小物
  6
CONTINUOUS
 62
    3
 10
-303.06594191628449
 20
-4.5999999999773991
 11
-303.56594191628449
 21
-4.5999999999773991
  0
LINE
  8
_0-9_小物
  6
CONTINUOUS
 62
    3
 10
-307.56594191628449
 20
3.4000000000230557
 11
-307.56594191628449
 21
-4.5999999999773991
  0
LINE
  8
_0-9_小物
  6
CONTINUOUS
 62
    3
 10
-304.0659419162854
 20
-4.5999999999773991
 11
-303.56594191628449
 21
-4.5999999999773991
  0
LINE
  8
_0-9_小物
  6
CONTINUOUS
 62
    3
 10
-298.15766691628471
 20
-31.379824999977018
 11
-298.05299691628591
 21
-33.377084999977114
  0
LINE
  8
_0-9_小物
  6
CONTINUOUS
 62
    3
 10
-298.31467691628552
 20
-28.383934999977328
 11
-300.25959691628543
 21
-29.48723499997709
  0
LINE
  8
_0-9_小物
  6
CONTINUOUS
 62
    3
 10
-300.25959691628543
 20
-29.48723499997709
 11
-300.15492691628435
 21
-31.484494999977187
  0
LINE
  8
_0-9_小物
  6
CONTINUOUS
 62
    3
 10
-300.15492691628435
 20
-31.484494999977187
 11
-298.15766691628471
 21
-31.379824999977018
  0
LINE
  8
_0-9_小物
  6
CONTINUOUS
 62
    3
 10
-298.41934691628524
 20
-26.386674999976776
 11
-298.31467691628552
 21
-28.383934999977328
  0
LINE
  8
_0-9_小物
  6
CONTINUOUS
 62
    3
 10
-298.57635691628514
 20
-23.390789999976505
 11
-300.52127691628596
 21
-24.494089999977632
  0
LINE
  8
_0-9_小物
  6
CONTINUOUS
 62
    3
 10
-300.52127691628596
 20
-24.494089999977632
 11
-300.41660691628533
 21
-26.491349999976819
  0
LINE
  8
_0-9_小物
  6
CONTINUOUS
 62
    3
 10
-300.41660691628533
 20
-26.491349999976819
 11
-298.41934691628524
 21
-26.386674999976776
  0
LINE
  8
_0-9_小物
  6
CONTINUOUS
 62
    3
 10
-298.6810269162853
 20
-21.393529999976863
 11
-298.57635691628514
 21
-23.390789999976505
  0
LINE
  8
_0-9_小物
  6
CONTINUOUS
 62
    3
 10
-298.83803691628475
 20
-18.397639999977628
 11
-300.78295691628466
 21
-19.500939999976936
  0
LINE
  8
_0-9_小物
  6
CONTINUOUS
 62
    3
 10
-300.78295691628466
 20
-19.500939999976936
 11
-300.67828691628586
 21
-21.498199999976578
  0
LINE
  8
_0-9_小物
  6
CONTINUOUS
 62
    3
 10
-300.67828691628586
 20
-21.498199999976578
 11
-298.6810269162853
 21
-21.393529999976863
  0
LINE
  8
_0-9_小物
  6
CONTINUOUS
 62
    3
 10
-298.94270691628492
 20
-16.400379999977076
 11
-298.83803691628475
 21
-18.397639999977628
  0
LINE
  8
_0-9_小物
  6
CONTINUOUS
 62
    3
 10
-308.97421691628517
 20
-31.379824999977018
 11
-309.07888691628489
 21
-33.377084999977114
  0
LINE
  8
_0-9_小物
  6
CONTINUOUS
 62
    3
 10
-308.81720691628527
 20
-28.383934999977328
 11
-306.87228691628491
 21
-29.48723499997709
  0
LINE
  8
_0-9_小物
  6
CONTINUOUS
 62
    3
 10
-306.87228691628491
 20
-29.48723499997709
 11
-306.97695691628599
 21
-31.484494999977187
  0
LINE
  8
_0-9_小物
  6
CONTINUOUS
 62
    3
 10
-306.97695691628599
 20
-31.484494999977187
 11
-308.97421691628517
 21
-31.379824999977018
  0
LINE
  8
_0-9_小物
  6
CONTINUOUS
 62
    3
 10
-308.71253691628465
 20
-26.386674999976776
 11
-308.81720691628527
 21
-28.383934999977328
  0
LINE
  8
_0-9_小物
  6
CONTINUOUS
 62
    3
 10
-308.55552691628566
 20
-23.390789999976505
 11
-306.61060691628529
 21
-24.494089999977632
  0
LINE
  8
_0-9_小物
  6
CONTINUOUS
 62
    3
 10
-306.61060691628529
 20
-24.494089999977632
 11
-306.71527691628455
 21
-26.491349999976819
  0
LINE
  8
_0-9_小物
  6
CONTINUOUS
 62
    3
 10
-306.71527691628455
 20
-26.491349999976819
 11
-308.71253691628465
 21
-26.386674999976776
  0
LINE
  8
_0-9_小物
  6
CONTINUOUS
 62
    3
 10
-308.45085691628594
 20
-21.393529999976863
 11
-308.55552691628566
 21
-23.390789999976505
  0
LINE
  8
_0-9_小物
  6
CONTINUOUS
 62
    3
 10
-308.29384691628604
 20
-18.397639999977628
 11
-306.34892691628522
 21
-19.500939999976936
  0
LINE
  8
_0-9_小物
  6
CONTINUOUS
 62
    3
 10
-306.34892691628522
 20
-19.500939999976936
 11
-306.45359691628494
 21
-21.498199999976578
  0
LINE
  8
_0-9_小物
  6
CONTINUOUS
 62
    3
 10
-306.45359691628494
 20
-21.498199999976578
 11
-308.45085691628594
 21
-21.393529999976863
  0
LINE
  8
_0-9_小物
  6
CONTINUOUS
 62
    3
 10
-308.18917691628542
 20
-16.400379999977076
 11
-308.29384691628604
 21
-18.397639999977628
  0
LINE
  8
_0-9_小物
  6
CONTINUOUS
 62
    3
 10
-301.54819691628529
 20
-33.560259999977234
 11
-298.05299691628591
 21
-33.377084999977114
  0
LINE
  8
_0-9_小物
  6
CONTINUOUS
 62
    3
 10
-298.05299691628591
 20
-33.377084999977114
 11
-299.94558191628551
 21
-35.479014999976471
  0
LINE
  8
_0-9_小物
  6
CONTINUOUS
 62
    3
 10
-299.94558191628551
 20
-35.479014999976471
 11
-301.44352691628467
 21
-35.55751999997733
  0
LINE
  8
_0-9_小物
  6
CONTINUOUS
 62
    3
 10
-301.44352691628467
 20
-35.55751999997733
 11
-303.06594191628449
 21
-4.5999999999773991
  0
LINE
  8
_0-9_小物
  6
CONTINUOUS
 62
    3
 10
-305.5836869162855
 20
-33.560259999977234
 11
-309.07888691628489
 21
-33.377084999977114
  0
LINE
  8
_0-9_小物
  6
CONTINUOUS
 62
    3
 10
-309.07888691628489
 20
-33.377084999977114
 11
-307.18630191628529
 21
-35.479014999976471
  0
LINE
  8
_0-9_小物
  6
CONTINUOUS
 62
    3
 10
-307.18630191628529
 20
-35.479014999976471
 11
-305.68835691628522
 21
-35.55751999997733
  0
LINE
  8
_0-9_小物
  6
CONTINUOUS
 62
    3
 10
-305.68835691628522
 20
-35.55751999997733
 11
-304.0659419162854
 21
-4.5999999999773991
  0
LINE
  8
_0-9_小物
  6
CONTINUOUS
 62
    3
 10
-298.56594191628312
 20
3.4000000000230557
 11
-299.56594191628403
 21
-1.5999999999764896
  0
LINE
  8
_0-9_小物
  6
CONTINUOUS
 62
    3
 10
-303.56594191628312
 20
-1.5999999999764896
 11
-303.56594191628312
 21
3.4000000000230557
  0
LINE
  8
_0-9_小物
  6
CONTINUOUS
 62
    3
 10
-302.56594191628403
 20
3.4000000000230557
 11
-303.56594191628312
 21
-1.5999999999764896
  0
LINE
  8
_0-9_小物
  6
CONTINUOUS
 62
    3
 10
-304.56594191628358
 20
3.4000000000230557
 11
-303.56594191628312
 21
-1.5999999999764896
  0
LINE
  8
_0-9_小物
  6
CONTINUOUS
 62
    3
 10
-308.56594191628267
 20
3.4000000000230557
 11
-307.56594191628312
 21
-1.5999999999764896
  0
LINE
  8
_0-9_小物
  6
CONTINUOUS
 62
    3
 10
-298.56594191628312
 20
3.4000000000230557
 11
-308.56594191628312
 21
3.4000000000230557
  0
ENDBLK
  0
BLOCK
  2
-001-_1_
 70
   64
 10
0
 20
0
 30
0
  0
LINE
  8
_0-9_小物
  6
CONTINUOUS
 62
    3
 10
-28.157666916283802
 20
-31.379824999988614
 11
-28.052996916285451
 21
-33.377084999988483
  0
LINE
  8
_0-9_小物
  6
CONTINUOUS
 62
    3
 10
-28.314676916285066
 20
-28.383934999988696
 11
-30.259596916284522
 21
-29.487234999988686
  0
LINE
  8
_0-9_小物
  6
CONTINUOUS
 62
    3
 10
-30.259596916284522
 20
-29.487234999988686
 11
-30.154926916284353
 21
-31.484494999988556
  0
LINE
  8
_0-9_小物
  6
CONTINUOUS
 62
    3
 10
-30.154926916284353
 20
-31.484494999988556
 11
-28.157666916283802
 21
-31.379824999988614
  0
LINE
  8
_0-9_小物
  6
CONTINUOUS
 62
    3
 10
-28.41934691628478
 20
-26.386674999988372
 11
-28.314676916285066
 21
-28.383934999988696
  0
LINE
  8
_0-9_小物
  6
CONTINUOUS
 62
    3
 10
-28.576356916284681
 20
-23.390789999988328
 11
-30.521276916285501
 21
-24.494089999989228
  0
LINE
  8
_0-9_小物
  6
CONTINUOUS
 62
    3
 10
-30.521276916285501
 20
-24.494089999989228
 11
-30.416606916284422
 21
-26.491349999988415
  0
LINE
  8
_0-9_小物
  6
CONTINUOUS
 62
    3
 10
-30.416606916284422
 20
-26.491349999988415
 11
-28.41934691628478
 21
-26.386674999988372
  0
LINE
  8
_0-9_小物
  6
CONTINUOUS
 62
    3
 10
-28.681026916285305
 20
-21.393529999988232
 11
-28.576356916284681
 21
-23.390789999988328
  0
LINE
  8
_0-9_小物
  6
CONTINUOUS
 62
    3
 10
-28.838036916284295
 20
-18.397639999989224
 11
-30.782956916283752
 21
-19.500939999988304
  0
LINE
  8
_0-9_小物
  6
CONTINUOUS
 62
    3
 10
-30.782956916283752
 20
-19.500939999988304
 11
-30.678286916285401
 21
-21.498199999988401
  0
LINE
  8
_0-9_小物
  6
CONTINUOUS
 62
    3
 10
-30.678286916285401
 20
-21.498199999988401
 11
-28.681026916285305
 21
-21.393529999988232
  0
LINE
  8
_0-9_小物
  6
CONTINUOUS
 62
    3
 10
-28.942706916284919
 20
-16.400379999988445
 11
-28.838036916284295
 21
-18.397639999989224
  0
LINE
  8
_0-9_小物
  6
CONTINUOUS
 62
    3
 10
-29.099716916284819
 20
-13.4044899999883
 11
-31.04463691628473
 21
-14.507794999988619
  0
LINE
  8
_0-9_小物
  6
CONTINUOUS
 62
    3
 10
-31.04463691628473
 20
-14.507794999988619
 11
-30.939966916285016
 21
-16.505054999988488
  0
LINE
  8
_0-9_小物
  6
CONTINUOUS
 62
    3
 10
-30.939966916285016
 20
-16.505054999988488
 11
-28.942706916284919
 21
-16.400379999988445
  0
LINE
  8
_0-9_小物
  6
CONTINUOUS
 62
    3
 10
-29.204386916284534
 20
-11.407234999988759
 11
-29.099716916284819
 21
-13.4044899999883
  0
LINE
  8
_0-9_小物
  6
CONTINUOUS
 62
    3
 10
-31.306316916285255
 20
-9.5146449999888318
 11
-31.201646916284631
 21
-11.511904999988701
  0
LINE
  8
_0-9_小物
  6
CONTINUOUS
 62
    3
 10
-31.201646916284631
 20
-11.511904999988701
 11
-29.204386916284534
 21
-11.407234999988759
  0
LINE
  8
_0-9_小物
  6
CONTINUOUS
 62
    3
 10
-29.565941916284487
 20
-8.599999999988313
 11
-31.306316916285255
 21
-9.5146449999888318
  0
LINE
  8
_0-9_小物
  6
CONTINUOUS
 62
    3
 10
-38.974216916284718
 20
-31.379824999988614
 11
-39.078886916284432
 21
-33.377084999988483
  0
LINE
  8
_0-9_小物
  6
CONTINUOUS
 62
    3
 10
-38.817206916284817
 20
-28.383934999988696
 11
-36.872286916284907
 21
-29.487234999988686
  0
LINE
  8
_0-9_小物
  6
CONTINUOUS
 62
    3
 10
-36.872286916284907
 20
-29.487234999988686
 11
-36.976956916285076
 21
-31.484494999988556
  0
LINE
  8
_0-9_小物
  6
CONTINUOUS
 62
    3
 10
-36.976956916285076
 20
-31.484494999988556
 11
-38.974216916284718
 21
-31.379824999988614
  0
LINE
  8
_0-9_小物
  6
CONTINUOUS
 62
    3
 10
-38.712536916283739
 20
-26.386674999988372
 11
-38.817206916284817
 21
-28.383934999988696
  0
LINE
  8
_0-9_小物
  6
CONTINUOUS
 62
    3
 10
-38.555526916285203
 20
-23.390789999988328
 11
-36.610606916285292
 21
-24.494089999989228
  0
LINE
  8
_0-9_小物
  6
CONTINUOUS
 62
    3
 10
-36.610606916285292
 20
-24.494089999989228
 11
-36.715276916284097
 21
-26.491349999988415
  0
LINE
  8
_0-9_小物
  6
CONTINUOUS
 62
    3
 10
-36.715276916284097
 20
-26.491349999988415
 11
-38.712536916283739
 21
-26.386674999988372
  0
LINE
  8
_0-9_小物
  6
CONTINUOUS
 62
    3
 10
-38.450856916285488
 20
-21.393529999988232
 11
-38.555526916285203
 21
-23.390789999988328
  0
LINE
  8
_0-9_小物
  6
CONTINUOUS
 62
    3
 10
-38.293846916285588
 20
-18.397639999989224
 11
-36.348926916284768
 21
-19.500939999988304
  0
LINE
  8
_0-9_小物
  6
CONTINUOUS
 62
    3
 10
-36.348926916284768
 20
-19.500939999988304
 11
-36.453596916284482
 21
-21.498199999988401
  0
LINE
  8
_0-9_小物
  6
CONTINUOUS
 62
    3
 10
-36.453596916284482
 20
-21.498199999988401
 11
-38.450856916285488
 21
-21.393529999988232
  0
LINE
  8
_0-9_小物
  6
CONTINUOUS
 62
    3
 10
-38.189176916284509
 20
-16.400379999988445
 11
-38.293846916285588
 21
-18.397639999989224
  0
LINE
  8
_0-9_小物
  6
CONTINUOUS
 62
    3
 10
-38.032166916284154
 20
-13.4044899999883
 11
-36.087246916283789
 21
-14.507794999988619
  0
LINE
  8
_0-9_小物
  6
CONTINUOUS
 62
    3
 10
-36.087246916283789
 20
-14.507794999988619
 11
-36.191916916284868
 21
-16.505054999988488
  0
LINE
  8
_0-9_小物
  6
CONTINUOUS
 62
    3
 10
-36.191916916284868
 20
-16.505054999988488
 11
-38.189176916284509
 21
-16.400379999988445
  0
LINE
  8
_0-9_小物
  6
CONTINUOUS
 62
    3
 10
-37.927496916284895
 20
-11.407234999988759
 11
-38.032166916284154
 21
-13.4044899999883
  0
LINE
  8
_0-9_小物
  6
CONTINUOUS
 62
    3
 10
-35.825566916284174
 20
-9.5146449999888318
 11
-35.930236916285253
 21
-11.511904999988701
  0
LINE
  8
_0-9_小物
  6
CONTINUOUS
 62
    3
 10
-35.930236916285253
 20
-11.511904999988701
 11
-37.927496916284895
 21
-11.407234999988759
  0
LINE
  8
_0-9_小物
  6
CONTINUOUS
 62
    3
 10
-37.565941916284032
 20
-8.599999999988313
 11
-35.825566916284174
 21
-9.5146449999888318
  0
LINE
  8
_0-9_小物
  6
CONTINUOUS
 62
    3
 10
-28.942706916284919
 20
-16.400379999988445
 11
-27.247341916285336
 21
-11.742399999988947
  0
LINE
  8
_0-9_小物
  6
CONTINUOUS
 62
    3
 10
-30.006886916284316
 20
-16.400379999988445
 11
-28.187031916284582
 21
-11.400379999988672
  0
LINE
  8
_0-9_小物
  6
CONTINUOUS
 62
    3
 10
-38.189176916284509
 20
-16.400379999988445
 11
-39.884541916284093
 21
-11.742399999988947
  0
LINE
  8
_0-9_小物
  6
CONTINUOUS
 62
    3
 10
-37.124996916285113
 20
-16.400379999988445
 11
-38.944851916284847
 21
-11.400379999988672
  0
LINE
  8
_0-9_小物
  6
CONTINUOUS
 62
    3
 10
-31.548196916284837
 20
-33.56025999998883
 11
-28.052996916285451
 21
-33.377084999988483
  0
LINE
  8
_0-9_小物
  6
CONTINUOUS
 62
    3
 10
-28.052996916285451
 20
-33.377084999988483
 11
-29.94558191628505
 21
-35.479014999988294
  0
LINE
  8
_0-9_小物
  6
CONTINUOUS
 62
    3
 10
-29.94558191628505
 20
-35.479014999988294
 11
-31.443526916283759
 21
-35.557519999988926
  0
LINE
  8
_0-9_小物
  6
CONTINUOUS
 62
    3
 10
-31.443526916283759
 20
-35.557519999988926
 11
-33.065941916284032
 21
-4.5999999999889951
  0
LINE
  8
_0-9_小物
  6
CONTINUOUS
 62
    3
 10
-29.565941916284487
 20
-8.599999999988313
 11
-29.565941916284487
 21
-4.5999999999889951
  0
LINE
  8
_0-9_小物
  6
CONTINUOUS
 62
    3
 10
-35.583686916285046
 20
-33.56025999998883
 11
-39.078886916284432
 21
-33.377084999988483
  0
LINE
  8
_0-9_小物
  6
CONTINUOUS
 62
    3
 10
-39.078886916284432
 20
-33.377084999988483
 11
-37.186301916284833
 21
-35.479014999988294
  0
LINE
  8
_0-9_小物
  6
CONTINUOUS
 62
    3
 10
-37.186301916284833
 20
-35.479014999988294
 11
-35.688356916284761
 21
-35.557519999988926
  0
LINE
  8
_0-9_小物
  6
CONTINUOUS
 62
    3
 10
-35.688356916284761
 20
-35.557519999988926
 11
-34.065941916284487
 21
-4.5999999999889951
  0
LINE
  8
_0-9_小物
  6
CONTINUOUS
 62
    3
 10
-37.565941916284032
 20
-8.599999999988313
 11
-37.565941916284032
 21
-4.5999999999889951
  0
LINE
  8
_0-9_小物
  6
CONTINUOUS
 62
    3
 10
-39.884541916284093
 20
-11.742399999988947
 11
-40.876896916284409
 21
-4.9387799999879007
  0
ARC
  8
_0-9_小物
  6
CONTINUOUS
 62
    3
 10
-40.481086916284426
 20
-4.8810449999884895
 40
0.4
 50
98.130101999958413
 51
188.29846600001969
  0
LINE
  8
_0-9_小物
  6
CONTINUOUS
 62
    3
 10
-40.537656916285528
 20
-4.4850649999884808
 11
-40.340831916284174
 21
-4.4569499999881828
  0
ARC
  8
_0-9_小物
  6
CONTINUOUS
 62
    3
 10
-40.284261916283981
 20
-4.8529299999884188
 40
0.4
 50
8.1301020000240456
 51
98.130102000220958
  0
LINE
  8
_0-9_小物
  6
CONTINUOUS
 62
    3
 10
-39.8882819162842
 20
-4.796359999988681
 11
-38.944851916284847
 21
-11.400379999988672
  0
LINE
  8
_0-9_小物
  6
CONTINUOUS
 62
    3
 10
-27.247341916285336
 20
-11.742399999988947
 11
-26.25498691628502
 21
-4.9387799999879007
  0
ARC
  8
_0-9_小物
  6
CONTINUOUS
 62
    3
 10
-26.650796916285003
 20
-4.8810449999884895
 40
0.4
 50
351.70153399996417
 51
81.869898000041587
  0
LINE
  8
_0-9_小物
  6
CONTINUOUS
 62
    3
 10
-26.594231916285139
 20
-4.4850649999884808
 11
-26.791051916285255
 21
-4.4569499999881828
  0
ARC
  8
_0-9_小物
  6
CONTINUOUS
 62
    3
 10
-26.847621916284083
 20
-4.8529299999884188
 40
0.4
 50
81.869898000041587
 51
171.86989800000936
  0
LINE
  8
_0-9_小物
  6
CONTINUOUS
 62
    3
 10
-27.243601916285229
 20
-4.796359999988681
 11
-28.187031916284582
 21
-11.400379999988672
  0
LINE
  8
_0-9_小物
  6
CONTINUOUS
 62
    3
 10
-27.247341916285336
 20
-11.742399999988947
 11
-26.25498691628502
 21
-4.9387799999879007
  0
ARC
  8
_0-9_小物
  6
CONTINUOUS
 62
    3
 10
-26.650796916285003
 20
-4.8810449999884895
 40
0.4
 50
351.70153399996417
 51
81.869898000041587
  0
LINE
  8
_0-9_小物
  6
CONTINUOUS
 62
    3
 10
-26.594231916285139
 20
-4.4850649999884808
 11
-26.791051916285255
 21
-4.4569499999881828
  0
ARC
  8
_0-9_小物
  6
CONTINUOUS
 62
    3
 10
-26.847621916284083
 20
-4.8529299999884188
 40
0.4
 50
81.869898000041587
 51
171.86989800000936
  0
LINE
  8
_0-9_小物
  6
CONTINUOUS
 62
    3
 10
-27.243601916285229
 20
-4.796359999988681
 11
-28.187031916284582
 21
-11.400379999988672
  0
LINE
  8
_0-9_小物
  6
CONTINUOUS
 62
    3
 10
-28.565941916284032
 20
3.400000000011687
 11
-29.565941916284487
 21
-1.599999999988313
  0
LINE
  8
_0-9_小物
  6
CONTINUOUS
 62
    3
 10
-29.565941916284487
 20
3.400000000011687
 11
-29.565941916284487
 21
-4.5999999999889951
  0
LINE
  8
_0-9_小物
  6
CONTINUOUS
 62
    3
 10
-33.065941916284032
 20
-4.5999999999889951
 11
-33.565941916283577
 21
-4.5999999999889951
  0
LINE
  8
_0-9_小物
  6
CONTINUOUS
 62
    3
 10
-33.565941916283577
 20
-1.599999999988313
 11
-33.565941916283577
 21
3.400000000011687
  0
LINE
  8
_0-9_小物
  6
CONTINUOUS
 62
    3
 10
-32.565941916284487
 20
3.400000000011687
 11
-33.565941916283577
 21
-1.599999999988313
  0
LINE
  8
_0-9_小物
  6
CONTINUOUS
 62
    3
 10
-34.565941916284942
 20
3.400000000011687
 11
-33.565941916283577
 21
-1.599999999988313
  0
LINE
  8
_0-9_小物
  6
CONTINUOUS
 62
    3
 10
-38.565941916284032
 20
3.400000000011687
 11
-37.565941916284032
 21
-1.599999999988313
  0
LINE
  8
_0-9_小物
  6
CONTINUOUS
 62
    3
 10
-37.565941916284032
 20
3.400000000011687
 11
-37.565941916284032
 21
-4.5999999999889951
  0
LINE
  8
_0-9_小物
  6
CONTINUOUS
 62
    3
 10
-34.065941916284487
 20
-4.5999999999889951
 11
-33.565941916283577
 21
-4.5999999999889951
  0
LINE
  8
_0-9_小物
  6
CONTINUOUS
 62
    3
 10
-28.565941916284032
 20
3.400000000011687
 11
-38.565941916284032
 21
3.400000000011687
  0
ENDBLK
  0
BLOCK
  2
-002-_2_
 70
   64
 10
0
 20
0
 30
0
  0
LINE
  8
_0-9_小物
  6
CONTINUOUS
 62
    3
 10
106.84233308371665
 20
-31.379824999989069
 11
106.94700308371455
 21
-33.377084999988938
  0
LINE
  8
_0-9_小物
  6
CONTINUOUS
 62
    3
 10
106.68532308371493
 20
-28.383934999989151
 11
104.74040308371593
 21
-29.487234999989141
  0
LINE
  8
_0-9_小物
  6
CONTINUOUS
 62
    3
 10
104.74040308371593
 20
-29.487234999989141
 11
104.84507308371565
 21
-31.48449499998901
  0
LINE
  8
_0-9_小物
  6
CONTINUOUS
 62
    3
 10
104.84507308371565
 20
-31.48449499998901
 11
106.84233308371665
 21
-31.379824999989069
  0
LINE
  8
_0-9_小物
  6
CONTINUOUS
 62
    3
 10
106.58065308371522
 20
-26.386674999988827
 11
106.68532308371493
 21
-28.383934999989151
  0
LINE
  8
_0-9_小物
  6
CONTINUOUS
 62
    3
 10
106.42364308371532
 20
-23.390789999988783
 11
104.4787230837145
 21
-24.494089999989683
  0
LINE
  8
_0-9_小物
  6
CONTINUOUS
 62
    3
 10
104.4787230837145
 20
-24.494089999989683
 11
104.58339308371603
 21
-26.49134999998887
  0
LINE
  8
_0-9_小物
  6
CONTINUOUS
 62
    3
 10
104.58339308371603
 20
-26.49134999998887
 11
106.58065308371522
 21
-26.386674999988827
  0
LINE
  8
_0-9_小物
  6
CONTINUOUS
 62
    3
 10
106.3189730837147
 20
-21.393529999988687
 11
106.42364308371532
 21
-23.390789999988783
  0
LINE
  8
_0-9_小物
  6
CONTINUOUS
 62
    3
 10
106.1619630837157
 20
-18.397639999989678
 11
104.2170430837167
 21
-19.500939999988759
  0
LINE
  8
_0-9_小物
  6
CONTINUOUS
 62
    3
 10
104.2170430837167
 20
-19.500939999988759
 11
104.3217130837146
 21
-21.498199999988856
  0
LINE
  8
_0-9_小物
  6
CONTINUOUS
 62
    3
 10
104.3217130837146
 20
-21.498199999988856
 11
106.3189730837147
 21
-21.393529999988687
  0
LINE
  8
_0-9_小物
  6
CONTINUOUS
 62
    3
 10
106.05729308371508
 20
-16.4003799999889
 11
106.1619630837157
 21
-18.397639999989678
  0
LINE
  8
_0-9_小物
  6
CONTINUOUS
 62
    3
 10
105.90028308371518
 20
-13.404489999988755
 11
103.95536308371527
 21
-14.507794999989073
  0
LINE
  8
_0-9_小物
  6
CONTINUOUS
 62
    3
 10
103.95536308371527
 20
-14.507794999989073
 11
104.06003308371498
 21
-16.505054999988943
  0
LINE
  8
_0-9_小物
  6
CONTINUOUS
 62
    3
 10
104.06003308371498
 20
-16.505054999988943
 11
106.05729308371508
 21
-16.4003799999889
  0
LINE
  8
_0-9_小物
  6
CONTINUOUS
 62
    3
 10
105.79561308371547
 20
-11.407234999989214
 11
105.90028308371518
 21
-13.404489999988755
  0
LINE
  8
_0-9_小物
  6
CONTINUOUS
 62
    3
 10
103.69368308371475
 20
-9.5146449999892866
 11
103.79835308371537
 21
-11.511904999989156
  0
LINE
  8
_0-9_小物
  6
CONTINUOUS
 62
    3
 10
103.79835308371537
 20
-11.511904999989156
 11
105.79561308371547
 21
-11.407234999989214
  0
LINE
  8
_0-9_小物
  6
CONTINUOUS
 62
    3
 10
105.43405808371597
 20
-8.5999999999887677
 11
103.69368308371475
 21
-9.5146449999892866
  0
LINE
  8
_0-9_小物
  6
CONTINUOUS
 62
    3
 10
96.025783083715282
 20
-31.379824999989069
 11
95.921113083715568
 21
-33.377084999988938
  0
LINE
  8
_0-9_小物
  6
CONTINUOUS
 62
    3
 10
96.182793083715183
 20
-28.383934999989151
 11
98.127713083715093
 21
-29.487234999989141
  0
LINE
  8
_0-9_小物
  6
CONTINUOUS
 62
    3
 10
98.127713083715093
 20
-29.487234999989141
 11
98.023043083715379
 21
-31.48449499998901
  0
LINE
  8
_0-9_小物
  6
CONTINUOUS
 62
    3
 10
98.023043083715379
 20
-31.48449499998901
 11
96.025783083715282
 21
-31.379824999989069
  0
LINE
  8
_0-9_小物
  6
CONTINUOUS
 62
    3
 10
96.287463083716716
 20
-26.386674999988827
 11
96.182793083715183
 21
-28.383934999989151
  0
LINE
  8
_0-9_小物
  6
CONTINUOUS
 62
    3
 10
96.444473083714797
 20
-23.390789999988783
 11
98.389393083714708
 21
-24.494089999989683
  0
LINE
  8
_0-9_小物
  6
CONTINUOUS
 62
    3
 10
98.389393083714708
 20
-24.494089999989683
 11
98.284723083715903
 21
-26.49134999998887
  0
LINE
  8
_0-9_小物
  6
CONTINUOUS
 62
    3
 10
98.284723083715903
 20
-26.49134999998887
 11
96.287463083716716
 21
-26.386674999988827
  0
LINE
  8
_0-9_小物
  6
CONTINUOUS
 62
    3
 10
96.549143083714512
 20
-21.393529999988687
 11
96.444473083714797
 21
-23.390789999988783
  0
LINE
  8
_0-9_小物
  6
CONTINUOUS
 62
    3
 10
96.706153083714412
 20
-18.397639999989678
 11
98.651073083715232
 21
-19.500939999988759
  0
LINE
  8
_0-9_小物
  6
CONTINUOUS
 62
    3
 10
98.651073083715232
 20
-19.500939999988759
 11
98.546403083715518
 21
-21.498199999988856
  0
LINE
  8
_0-9_小物
  6
CONTINUOUS
 62
    3
 10
98.546403083715518
 20
-21.498199999988856
 11
96.549143083714512
 21
-21.393529999988687
  0
LINE
  8
_0-9_小物
  6
CONTINUOUS
 62
    3
 10
96.810823083715945
 20
-16.4003799999889
 11
96.706153083714412
 21
-18.397639999989678
  0
LINE
  8
_0-9_小物
  6
CONTINUOUS
 62
    3
 10
96.967833083715846
 20
-13.404489999988755
 11
98.912753083716666
 21
-14.507794999989073
  0
LINE
  8
_0-9_小物
  6
CONTINUOUS
 62
    3
 10
98.912753083716666
 20
-14.507794999989073
 11
98.808083083715132
 21
-16.505054999988943
  0
LINE
  8
_0-9_小物
  6
CONTINUOUS
 62
    3
 10
98.808083083715132
 20
-16.505054999988943
 11
96.810823083715945
 21
-16.4003799999889
  0
LINE
  8
_0-9_小物
  6
CONTINUOUS
 62
    3
 10
97.07250308371556
 20
-11.407234999989214
 11
96.967833083715846
 21
-13.404489999988755
  0
LINE
  8
_0-9_小物
  6
CONTINUOUS
 62
    3
 10
99.174433083716281
 20
-9.5146449999892866
 11
99.069763083714747
 21
-11.511904999989156
  0
LINE
  8
_0-9_小物
  6
CONTINUOUS
 62
    3
 10
99.069763083714747
 20
-11.511904999989156
 11
97.07250308371556
 21
-11.407234999989214
  0
LINE
  8
_0-9_小物
  6
CONTINUOUS
 62
    3
 10
97.434058083715968
 20
-8.5999999999887677
 11
99.174433083716281
 21
-9.5146449999892866
  0
LINE
  8
_0-9_小物
  6
CONTINUOUS
 62
    3
 10
106.05729308371508
 20
-16.4003799999889
 11
107.75265808371512
 21
-11.742399999989402
  0
LINE
  8
_0-9_小物
  6
CONTINUOUS
 62
    3
 10
104.99311308371568
 20
-16.4003799999889
 11
106.81296808371542
 21
-11.400379999989127
  0
LINE
  8
_0-9_小物
  6
CONTINUOUS
 62
    3
 10
96.810823083715945
 20
-16.4003799999889
 11
95.115458083716362
 21
-11.742399999989402
  0
LINE
  8
_0-9_小物
  6
CONTINUOUS
 62
    3
 10
97.875003083715342
 20
-16.4003799999889
 11
96.055148083715608
 21
-11.400379999989127
  0
LINE
  8
_0-9_小物
  6
CONTINUOUS
 62
    3
 10
103.45180308371516
 20
-33.560259999989285
 11
106.94700308371455
 21
-33.377084999988938
  0
LINE
  8
_0-9_小物
  6
CONTINUOUS
 62
    3
 10
106.94700308371455
 20
-33.377084999988938
 11
105.05441808371495
 21
-35.479014999988749
  0
LINE
  8
_0-9_小物
  6
CONTINUOUS
 62
    3
 10
105.05441808371495
 20
-35.479014999988749
 11
103.5564730837167
 21
-35.557519999989381
  0
LINE
  8
_0-9_小物
  6
CONTINUOUS
 62
    3
 10
103.5564730837167
 20
-35.557519999989381
 11
101.93405808371597
 21
-4.5999999999894499
  0
LINE
  8
_0-9_小物
  6
CONTINUOUS
 62
    3
 10
105.43405808371597
 20
-8.5999999999887677
 11
105.43405808371597
 21
-4.5999999999894499
  0
LINE
  8
_0-9_小物
  6
CONTINUOUS
 62
    3
 10
99.416313083714954
 20
-33.560259999989285
 11
95.921113083715568
 21
-33.377084999988938
  0
LINE
  8
_0-9_小物
  6
CONTINUOUS
 62
    3
 10
95.921113083715568
 20
-33.377084999988938
 11
97.813698083715167
 21
-35.479014999988749
  0
LINE
  8
_0-9_小物
  6
CONTINUOUS
 62
    3
 10
97.813698083715167
 20
-35.479014999988749
 11
99.311643083715239
 21
-35.557519999989381
  0
LINE
  8
_0-9_小物
  6
CONTINUOUS
 62
    3
 10
99.311643083715239
 20
-35.557519999989381
 11
100.93405808371597
 21
-4.5999999999894499
  0
LINE
  8
_0-9_小物
  6
CONTINUOUS
 62
    3
 10
97.434058083715968
 20
-8.5999999999887677
 11
97.434058083715968
 21
-4.5999999999894499
  0
LINE
  8
_0-9_小物
  6
CONTINUOUS
 62
    3
 10
95.115458083716362
 20
-11.742399999989402
 11
94.123103083716046
 21
-4.9387799999883555
  0
ARC
  8
_0-9_小物
  6
CONTINUOUS
 62
    3
 10
94.518913083716029
 20
-4.8810449999889443
 40
0.4
 50
98.130101999958413
 51
188.29846600001969
  0
LINE
  8
_0-9_小物
  6
CONTINUOUS
 62
    3
 10
94.462343083714472
 20
-4.4850649999889356
 11
94.659168083716281
 21
-4.4569499999886375
  0
ARC
  8
_0-9_小物
  6
CONTINUOUS
 62
    3
 10
94.715738083716019
 20
-4.8529299999888735
 40
0.4
 50
8.1301020000240456
 51
98.130102000220958
  0
LINE
  8
_0-9_小物
  6
CONTINUOUS
 62
    3
 10
95.111718083716255
 20
-4.7963599999891358
 11
96.055148083715608
 21
-11.400379999989127
  0
LINE
  8
_0-9_小物
  6
CONTINUOUS
 62
    3
 10
107.75265808371512
 20
-11.742399999989402
 11
108.74501308371543
 21
-4.9387799999883555
  0
ARC
  8
_0-9_小物
  6
CONTINUOUS
 62
    3
 10
108.34920308371545
 20
-4.8810449999889443
 40
0.4
 50
351.70153399996417
 51
81.869898000041587
  0
LINE
  8
_0-9_小物
  6
CONTINUOUS
 62
    3
 10
108.40576808371577
 20
-4.4850649999889356
 11
108.2089480837152
 21
-4.4569499999886375
  0
ARC
  8
_0-9_小物
  6
CONTINUOUS
 62
    3
 10
108.15237808371592
 20
-4.8529299999888735
 40
0.4
 50
81.869898000041587
 51
171.86989800000819
  0
LINE
  8
_0-9_小物
  6
CONTINUOUS
 62
    3
 10
107.75639808371523
 20
-4.7963599999891358
 11
106.81296808371542
 21
-11.400379999989127
  0
LINE
  8
_0-9_小物
  6
CONTINUOUS
 62
    3
 10
107.75265808371512
 20
-11.742399999989402
 11
108.74501308371543
 21
-4.9387799999883555
  0
ARC
  8
_0-9_小物
  6
CONTINUOUS
 62
    3
 10
108.34920308371545
 20
-4.8810449999889443
 40
0.4
 50
351.70153399996417
 51
81.869898000041587
  0
LINE
  8
_0-9_小物
  6
CONTINUOUS
 62
    3
 10
108.40576808371577
 20
-4.4850649999889356
 11
108.2089480837152
 21
-4.4569499999886375
  0
ARC
  8
_0-9_小物
  6
CONTINUOUS
 62
    3
 10
108.15237808371592
 20
-4.8529299999888735
 40
0.4
 50
81.869898000041587
 51
171.86989800000819
  0
LINE
  8
_0-9_小物
  6
CONTINUOUS
 62
    3
 10
107.75639808371523
 20
-4.7963599999891358
 11
106.81296808371542
 21
-11.400379999989127
  0
LINE
  8
_0-9_小物
  6
CONTINUOUS
 62
    3
 10
106.43405808371597
 20
3.4000000000112323
 11
105.43405808371597
 21
-1.5999999999887677
  0
LINE
  8
_0-9_小物
  6
CONTINUOUS
 62
    3
 10
105.43405808371597
 20
3.4000000000112323
 11
105.43405808371597
 21
-4.5999999999894499
  0
LINE
  8
_0-9_小物
  6
CONTINUOUS
 62
    3
 10
101.93405808371597
 20
-4.5999999999894499
 11
101.43405808371688
 21
-4.5999999999894499
  0
LINE
  8
_0-9_小物
  6
CONTINUOUS
 62
    3
 10
101.43405808371688
 20
-1.5999999999887677
 11
101.43405808371688
 21
3.4000000000112323
  0
LINE
  8
_0-9_小物
  6
CONTINUOUS
 62
    3
 10
102.43405808371597
 20
3.4000000000112323
 11
101.43405808371688
 21
-1.5999999999887677
  0
LINE
  8
_0-9_小物
  6
CONTINUOUS
 62
    3
 10
100.43405808371506
 20
3.4000000000112323
 11
101.43405808371688
 21
-1.5999999999887677
  0
LINE
  8
_0-9_小物
  6
CONTINUOUS
 62
    3
 10
96.434058083715968
 20
3.4000000000112323
 11
97.434058083715968
 21
-1.5999999999887677
  0
LINE
  8
_0-9_小物
  6
CONTINUOUS
 62
    3
 10
97.434058083715968
 20
3.4000000000112323
 11
97.434058083715968
 21
-4.5999999999894499
  0
LINE
  8
_0-9_小物
  6
CONTINUOUS
 62
    3
 10
100.93405808371597
 20
-4.5999999999894499
 11
101.43405808371688
 21
-4.5999999999894499
  0
LINE
  8
_0-9_小物
  6
CONTINUOUS
 62
    3
 10
106.43405808371597
 20
3.4000000000112323
 11
96.434058083715968
 21
3.4000000000112323
  0
ENDBLK
  0
ENDSEC
  0
SECTION
  2
ENTITIES
  0
LINE
  8
_f-0_
  6
CONTINUOUS
 62
    6
 10
19.999999999999886
 20
20.000000000000114
 11
820.99999999999989
 21
20.000000000000114
  0
LINE
  8
_f-0_
  6
CONTINUOUS
 62
    6
 10
19.999999999999886
 20
554
 11
19.999999999999886
 21
20.000000000000114
  0
LINE
  8
_f-0_
  6
CONTINUOUS
 62
    6
 10
820.99999999999989
 20
554
 11
19.999999999999886
 21
554
  0
LINE
  8
_f-0_
  6
CONTINUOUS
 62
    6
 10
820.99999999999989
 20
20.000000000000114
 11
820.99999999999989
 21
554
  0
LINE
  8
_1-0_
  6
CONTINUOUS
 62
    2
 10
723.26811616743055
 20
360.69028008718806
 11
763.66811616743132
 21
360.69028008718806
  0
LINE
  8
_1-0_
  6
CONTINUOUS
 62
    2
 10
723.26811616743055
 20
359.69028008718806
 11
765.66811616743132
 21
359.69028008718806
  0
LINE
  8
_1-0_
  6
CONTINUOUS
 62
    2
 10
683.26811616743055
 20
360.69028008719033
 11
683.26811616743055
 21
340.69028008718806
  0
LINE
  8
_1-0_
  6
CENTER1
 62
    2
 10
703.26811616743055
 20
360.69028008718806
 11
703.26811616743055
 21
340.69028008718806
  0
LINE
  8
_1-0_
  6
CONTINUOUS
 62
    2
 10
723.26811616743055
 20
360.69028008718806
 11
723.26811616743055
 21
340.69028008718806
  0
LINE
  8
_1-f_
  6
CONTINUOUS
 62
    4
 10
623.86811616743125
 20
405.49028008718574
 11
623.86811616743125
 21
318.69028008718811
  0
LINE
  8
_1-f_
  6
CONTINUOUS
 62
    4
 10
623.86811616743125
 20
318.69028008718811
 11
801.66811616743132
 21
318.69028008718811
  0
LINE
  8
_1-f_
  6
CONTINUOUS
 62
    4
 10
801.66811616743132
 20
405.49028008718574
 11
801.66811616743132
 21
318.69028008718811
  0
LINE
  8
_1-f_
  6
CONTINUOUS
 62
    4
 10
801.66811616743132
 20
405.49028008718574
 11
623.86811616743125
 21
405.49028008718574
  0
TEXT
  8
_0-f_寸法
 62
    4
 10
669.99999999999989
 20
256.50000000000011
 40
8
 41
0.8662499999999999
 50
0
  1
ＴＴＫフレーム(ＥＫ)
  0
TEXT
  8
_0-f_寸法
 62
    4
 10
669.99999999999989
 20
236.50000000000011
 40
8
 41
0.8662499999999999
 50
0
  1
ユカホルダーキャップ
  0
TEXT
  8
_0-f_寸法
 62
    4
 10
669.99999999999989
 20
226.50000000000011
 40
8
 41
0.8662499999999999
 50
0
  1
ステンドリリングねじ(皿5x19))
  0
TEXT
  8
_0-f_寸法
 62
    4
 10
658.06999999999994
 20
296.50000000000011
 40
8
 41
0.8662499999999999
 50
0
  1
 1
  0
TEXT
  8
_0-f_寸法
 62
    4
 10
658.06999999999994
 20
286.50000000000011
 40
8
 41
0.8662499999999999
 50
0
  1
 2
  0
TEXT
  8
_0-f_寸法
 62
    4
 10
658.06999999999994
 20
276.50000000000011
 40
8
 41
0.8662499999999999
 50
0
  1
 3
  0
TEXT
  8
_0-f_寸法
 62
    4
 10
658.06999999999994
 20
266.50000000000011
 40
8
 41
0.8662499999999999
 50
0
  1
 4
  0
TEXT
  8
_0-f_寸法
 62
    4
 10
658.06999999999994
 20
256.50000000000011
 40
8
 41
0.8662499999999999
 50
0
  1
 5
  0
TEXT
  8
_0-f_寸法
 62
    4
 10
658.06999999999994
 20
246.50000000000011
 40
8
 41
0.8662499999999999
 50
0
  1
 6
  0
TEXT
  8
_0-f_寸法
 62
    4
 10
658.06999999999994
 20
236.50000000000011
 40
8
 41
0.8662499999999999
 50
0
  1
 7
  0
TEXT
  8
_0-f_寸法
 62
    4
 10
658.06999999999994
 20
226.50000000000011
 40
8
 41
0.8662499999999999
 50
0
  1
 8
  0
TEXT
  8
_0-f_寸法
 62
    4
 10
669.99999999999989
 20
276.50000000000011
 40
8
 41
0.8662499999999999
 50
0
  1
ＴＴＫサイドプレート(ＢＫ)　(t＝2.5)
  0
TEXT
  8
_0-f_寸法
 62
    4
 10
669.99999999999989
 20
246.50000000000011
 40
8
 41
0.8662499999999999
 50
0
  1
止水補助板FS600
  0
TEXT
  8
_0-f_寸法
 62
    4
 10
669.99999999999989
 20
296.50000000000011
 40
8
 41
0.8662499999999999
 50
0
  1
ＴＴＫサイドプレート(Ｄ)　(t＝2.5)
  0
TEXT
  8
_0-f_寸法
 62
    4
 10
669.99999999999989
 20
286.50000000000011
 40
8
 41
0.8662499999999999
 50
0
  1
ＴＴＫセンタープレート(Ｄ)　(t＝3.0)
  0
TEXT
  8
_0-f_寸法
 62
    4
 10
670.61750515492611
 20
266.09128396528399
 40
8
 41
0.8662499999999999
 50
0
  1
ＴＴＫフレーム(Ｄ)
  0
TEXT
  8
_0-f_寸法
 62
    4
 10
669.99999999999989
 20
216.50000000000011
 40
8
 41
0.8662499999999999
 50
0
  1
アンカープラグ(Φ8×40)
  0
TEXT
  8
_0-f_寸法
 62
    4
 10
669.99999999999989
 20
206.50000000000011
 40
8
 41
0.8662499999999999
 50
0
  1
ステンタッピンねじ(なべ5×50)
  0
TEXT
  8
_0-f_寸法
 62
    4
 10
669.99999999999989
 20
196.50000000000011
 40
8
 41
0.8662499999999999
 50
0
  1
ステスワッシャー1.5×18×5.5穴
  0
TEXT
  8
_0-f_寸法
 62
    4
 10
669.99999999999989
 20
186.50000000000011
 40
8
 41
0.8662499999999999
 50
0
  1
ブチルテープ(ｔ1.0×w30) (6m／巻)
  0
TEXT
  8
_0-f_寸法
 62
    4
 10
658.06999999999994
 20
216.50000000000011
 40
8
 41
0.8662499999999999
 50
0
  1
 9
  0
TEXT
  8
_0-f_寸法
 62
    4
 10
658.06999999999994
 20
206.50000000000011
 40
8
 41
0.8662499999999999
 50
0
  1
10
  0
TEXT
  8
_0-f_寸法
 62
    4
 10
658.06999999999994
 20
186.50000000000011
 40
8
 41
0.8662499999999999
 50
0
  1
◎
  0
TEXT
  8
_0-f_寸法
 62
    4
 10
658.06999999999994
 20
196.50000000000011
 40
8
 41
0.8662499999999999
 50
0
  1
11
  0
TEXT
  8
_0-f_寸法
 62
    4
 10
658.06999999999994
 20
176.50000000000011
 40
8
 41
0.8662499999999999
 50
0
  1
※
  0
TEXT
  8
_0-f_寸法
 62
    4
 10
669.99999999999989
 20
176.50000000000011
 40
8
 41
0.8662499999999999
 50
0
  1
床仕上材厚さ：3.0㎜
  0
TEXT
  8
_1-f_
 62
    4
 10
679.26811616743055
 20
328.69028008718806
 40
6
 41
1
 50
0
  1
床下地仕上げ寸法
  0
LINE
  8
_1-0_
  6
CONTINUOUS
 62
    2
 10
670.86811616742943
 20
360.69028008719033
 11
683.26811616743055
 21
360.69028008719033
  0
LINE
  8
_1-0_
  6
CONTINUOUS
 62
    2
 10
683.26811616743055
 20
359.69028008719033
 11
668.86811616742943
 21
359.69028008719033
  0
LINE
  8
_1-0_
  6
CONTINUOUS
 62
    2
 10
662.86811616743023
 20
366.810280087188
 11
670.86811616742943
 21
366.810280087188
  0
LINE
  8
_1-0_
  6
CONTINUOUS
 62
    2
 10
668.86811616742943
 20
366.810280087188
 11
668.86811616742943
 21
359.69028008719033
  0
LINE
  8
_1-0_
  6
CONTINUOUS
 62
    2
 10
668.86811616742943
 20
366.810280087188
 11
668.86811616742943
 21
359.69028008719033
  0
LINE
  8
_1-0_
  6
CONTINUOUS
 62
    2
 10
670.86811616742943
 20
366.810280087188
 11
670.86811616742943
 21
360.69028008718806
  0
LINE
  8
_1-0_
  6
CONTINUOUS
 62
    2
 10
683.26811616743055
 20
360.02373879797483
 11
682.93465745664605
 21
359.69028008719033
  0
LINE
  8
_1-0_
  6
CONTINUOUS
 62
    2
 10
683.26811616743055
 20
360.58942422292404
 11
682.36897203169701
 21
359.69028008719033
  0
LINE
  8
_1-0_
  6
CONTINUOUS
 62
    2
 10
682.80328660674775
 20
360.69028008719033
 11
681.80328660674775
 21
359.69028008719033
  0
LINE
  8
_1-0_
  6
CONTINUOUS
 62
    2
 10
682.23760118179837
 20
360.69028008719033
 11
681.23760118179837
 21
359.69028008719033
  0
LINE
  8
_1-0_
  6
CONTINUOUS
 62
    2
 10
681.67191575684865
 20
360.69028008719033
 11
680.67191575684865
 21
359.69028008719033
  0
LINE
  8
_1-0_
  6
CONTINUOUS
 62
    2
 10
681.10623033189972
 20
360.69028008719033
 11
680.10623033189972
 21
359.69028008719033
  0
LINE
  8
_1-0_
  6
CONTINUOUS
 62
    2
 10
680.54054490695034
 20
360.69028008719033
 11
679.54054490695034
 21
359.69028008719033
  0
LINE
  8
_1-0_
  6
CONTINUOUS
 62
    2
 10
679.97485948200108
 20
360.69028008719033
 11
678.97485948200108
 21
359.69028008719033
  0
LINE
  8
_1-0_
  6
CONTINUOUS
 62
    2
 10
679.40917405705204
 20
360.69028008719033
 11
678.40917405705204
 21
359.69028008719033
  0
LINE
  8
_1-0_
  6
CONTINUOUS
 62
    2
 10
678.84348863210312
 20
360.69028008719033
 11
677.84348863210312
 21
359.69028008719033
  0
LINE
  8
_1-0_
  6
CONTINUOUS
 62
    2
 10
678.27780320715374
 20
360.69028008719033
 11
677.27780320715374
 21
359.69028008719033
  0
LINE
  8
_1-0_
  6
CONTINUOUS
 62
    2
 10
677.71211778220447
 20
360.69028008719033
 11
676.71211778220447
 21
359.69028008719033
  0
LINE
  8
_1-0_
  6
CONTINUOUS
 62
    2
 10
677.14643235725543
 20
360.69028008719033
 11
676.14643235725543
 21
359.69028008719033
  0
LINE
  8
_1-0_
  6
CONTINUOUS
 62
    2
 10
676.58074693230537
 20
360.69028008719033
 11
675.58074693230537
 21
359.69028008719033
  0
LINE
  8
_1-0_
  6
CONTINUOUS
 62
    2
 10
676.01506150735679
 20
360.69028008719033
 11
675.01506150735679
 21
359.69028008719033
  0
LINE
  8
_1-0_
  6
CONTINUOUS
 62
    2
 10
675.44937608240707
 20
360.69028008719033
 11
674.44937608240707
 21
359.69028008719033
  0
LINE
  8
_1-0_
  6
CONTINUOUS
 62
    2
 10
674.88369065745849
 20
360.69028008719033
 11
673.88369065745849
 21
359.69028008719033
  0
LINE
  8
_1-0_
  6
CONTINUOUS
 62
    2
 10
674.31800523250877
 20
360.69028008719033
 11
673.31800523250877
 21
359.69028008719033
  0
LINE
  8
_1-0_
  6
CONTINUOUS
 62
    2
 10
673.75231980755984
 20
360.69028008719033
 11
672.75231980755984
 21
359.69028008719033
  0
LINE
  8
_1-0_
  6
CONTINUOUS
 62
    2
 10
673.18663438261046
 20
360.69028008719033
 11
672.18663438261046
 21
359.69028008719033
  0
LINE
  8
_1-0_
  6
CONTINUOUS
 62
    2
 10
672.6209489576612
 20
360.69028008719033
 11
671.6209489576612
 21
359.69028008719033
  0
LINE
  8
_1-0_
  6
CONTINUOUS
 62
    2
 10
672.05526353271216
 20
360.69028008719033
 11
671.05526353271216
 21
359.69028008719033
  0
LINE
  8
_1-0_
  6
CONTINUOUS
 62
    2
 10
671.4895781077629
 20
360.69028008719033
 11
670.4895781077629
 21
359.69028008719033
  0
LINE
  8
_1-0_
  6
CONTINUOUS
 62
    2
 10
670.92389268281352
 20
360.69028008719033
 11
669.92389268281352
 21
359.69028008719033
  0
LINE
  8
_1-0_
  6
CONTINUOUS
 62
    2
 10
670.86811616742943
 20
361.20018899675597
 11
669.35820725786459
 21
359.69028008719033
  0
LINE
  8
_1-0_
  6
CONTINUOUS
 62
    2
 10
670.86811616742943
 20
361.76587442170535
 11
668.86811616742943
 21
359.76587442170535
  0
LINE
  8
_1-0_
  6
CONTINUOUS
 62
    2
 10
670.86811616742943
 20
362.3315598466545
 11
668.86811616742943
 21
360.3315598466545
  0
LINE
  8
_1-0_
  6
CONTINUOUS
 62
    2
 10
670.86811616742943
 20
362.89724527160371
 11
668.86811616742943
 21
360.89724527160371
  0
LINE
  8
_1-0_
  6
CONTINUOUS
 62
    2
 10
670.86811616742943
 20
363.46293069655303
 11
668.86811616742943
 21
361.46293069655303
  0
LINE
  8
_1-0_
  6
CONTINUOUS
 62
    2
 10
670.86811616742943
 20
364.02861612150218
 11
668.86811616742943
 21
362.02861612150218
  0
LINE
  8
_1-0_
  6
CONTINUOUS
 62
    2
 10
670.86811616742943
 20
364.59430154645156
 11
668.86811616742943
 21
362.59430154645156
  0
LINE
  8
_1-0_
  6
CONTINUOUS
 62
    2
 10
670.86811616742943
 20
365.15998697140071
 11
668.86811616742943
 21
363.15998697140071
  0
LINE
  8
_1-0_
  6
CONTINUOUS
 62
    2
 10
670.86811616742943
 20
365.72567239634992
 11
668.86811616742943
 21
363.72567239634992
  0
LINE
  8
_1-0_
  6
CONTINUOUS
 62
    2
 10
670.86811616742943
 20
366.29135782129924
 11
668.86811616742943
 21
364.29135782129924
  0
LINE
  8
_1-0_
  6
CONTINUOUS
 62
    2
 10
670.82135300836944
 20
366.810280087188
 11
668.86811616742943
 21
364.8570432462484
  0
LINE
  8
_1-0_
  6
CONTINUOUS
 62
    2
 10
670.25566758342086
 20
366.810280087188
 11
668.86811616742943
 21
365.42272867119777
  0
LINE
  8
_1-0_
  6
CONTINUOUS
 62
    2
 10
669.68998215847114
 20
366.810280087188
 11
668.86811616742943
 21
365.98841409614693
  0
LINE
  8
_1-0_
  6
CONTINUOUS
 62
    2
 10
669.12429673352221
 20
366.81028008718806
 11
668.86811616742943
 21
366.55409952109608
  0
LINE
  8
_1-e_
  6
CONTINUOUS
 62
    4
 10
661.86811616743023
 20
366.810280087188
 11
641.86811616743023
 21
366.810280087188
  0
LINE
  8
_1-e_
  6
CONTINUOUS
 62
    4
 10
669.86811616742943
 20
360.69028008719033
 11
641.86811616743023
 21
360.69028008719033
  0
POINT
  8
_1-e_
 62
    4
 10
642.86811616743023
 20
360.69028008719033
  0
POINT
  8
_1-e_
 62
    4
 10
642.86811616743023
 20
366.810280087188
  0
LINE
  8
_1-e_
  6
CONTINUOUS
 62
    4
 10
642.86811616743023
 20
360.69028008719033
 11
642.86811616743023
 21
366.810280087188
  0
TEXT
  8
_1-e_
 62
    4
 10
642.86811616743023
 20
357.75028008718914
 40
6
 41
1
 50
90
  1
30.6
  0
LINE
  8
_1-0_
  6
CONTINUOUS
 62
    2
 10
763.66811616743132
 20
366.81028008718812
 11
771.66811616743132
 21
366.81028008718812
  0
LINE
  8
_1-0_
  6
CONTINUOUS
 62
    2
 10
765.66811616743132
 20
359.97632418750072
 11
765.38207206711797
 21
359.69028008718806
  0
LINE
  8
_1-0_
  6
CONTINUOUS
 62
    2
 10
765.66811616743132
 20
360.54200961244993
 11
764.81638664216825
 21
359.69028008718806
  0
LINE
  8
_1-0_
  6
CONTINUOUS
 62
    2
 10
765.66811616743132
 20
361.1076950373992
 11
764.25070121722001
 21
359.69028008718806
  0
LINE
  8
_1-0_
  6
CONTINUOUS
 62
    2
 10
765.66811616743132
 20
361.67338046234846
 11
763.68501579227075
 21
359.69028008718806
  0
LINE
  8
_1-0_
  6
CONTINUOUS
 62
    2
 10
765.66811616743132
 20
362.23906588729761
 11
763.11933036732137
 21
359.69028008718806
  0
LINE
  8
_1-0_
  6
CONTINUOUS
 62
    2
 10
765.66811616743132
 20
362.80475131224694
 11
763.66811616743132
 21
360.80475131224694
  0
LINE
  8
_1-0_
  6
CONTINUOUS
 62
    2
 10
763.55364494237165
 20
360.69028008718806
 11
762.55364494237165
 21
359.69028008718806
  0
LINE
  8
_1-0_
  6
CONTINUOUS
 62
    2
 10
765.66811616743132
 20
363.37043673719614
 11
763.66811616743132
 21
361.37043673719614
  0
LINE
  8
_1-0_
  6
CONTINUOUS
 62
    2
 10
762.98795951742341
 20
360.69028008718806
 11
761.98795951742341
 21
359.69028008718806
  0
LINE
  8
_1-0_
  6
CONTINUOUS
 62
    2
 10
765.66811616743132
 20
363.93612216214541
 11
763.66811616743132
 21
361.93612216214541
  0
LINE
  8
_1-0_
  6
CONTINUOUS
 62
    2
 10
762.42227409247414
 20
360.69028008718806
 11
761.42227409247414
 21
359.69028008718806
  0
LINE
  8
_1-0_
  6
CONTINUOUS
 62
    2
 10
765.66811616743132
 20
364.50180758709467
 11
763.66811616743132
 21
362.50180758709467
  0
LINE
  8
_1-0_
  6
CONTINUOUS
 62
    2
 10
761.85658866752476
 20
360.69028008718806
 11
760.85658866752476
 21
359.69028008718806
  0
LINE
  8
_1-0_
  6
CONTINUOUS
 62
    2
 10
765.66811616743132
 20
365.067493012044
 11
763.66811616743132
 21
363.067493012044
  0
LINE
  8
_1-0_
  6
CONTINUOUS
 62
    2
 10
761.2909032425747
 20
360.69028008718806
 11
760.2909032425747
 21
359.69028008718806
  0
LINE
  8
_1-0_
  6
CONTINUOUS
 62
    2
 10
765.66811616743132
 20
365.63317843699315
 11
763.66811616743132
 21
363.63317843699315
  0
LINE
  8
_1-0_
  6
CONTINUOUS
 62
    2
 10
760.7252178176268
 20
360.69028008718806
 11
759.7252178176268
 21
359.69028008718806
  0
LINE
  8
_1-0_
  6
CONTINUOUS
 62
    2
 10
765.66811616743132
 20
366.1988638619423
 11
763.66811616743132
 21
364.1988638619423
  0
LINE
  8
_1-0_
  6
CONTINUOUS
 62
    2
 10
760.15953239267674
 20
360.69028008718806
 11
759.15953239267674
 21
359.69028008718806
  0
LINE
  8
_1-0_
  6
CONTINUOUS
 62
    2
 10
759.59384696772747
 20
360.69028008718806
 11
758.59384696772747
 21
359.69028008718806
  0
LINE
  8
_1-0_
  6
CONTINUOUS
 62
    2
 10
759.02816154277809
 20
360.69028008718806
 11
758.02816154277809
 21
359.69028008718806
  0
LINE
  8
_1-0_
  6
CONTINUOUS
 62
    2
 10
758.46247611782837
 20
360.69028008718806
 11
757.46247611782837
 21
359.69028008718806
  0
LINE
  8
_1-0_
  6
CONTINUOUS
 62
    2
 10
757.89679069288013
 20
360.69028008718806
 11
756.89679069288013
 21
359.69028008718806
  0
LINE
  8
_1-0_
  6
CONTINUOUS
 62
    2
 10
757.33110526793087
 20
360.69028008718806
 11
756.33110526793087
 21
359.69028008718806
  0
LINE
  8
_1-0_
  6
CONTINUOUS
 62
    2
 10
756.76541984298149
 20
360.69028008718806
 11
755.76541984298149
 21
359.69028008718806
  0
LINE
  8
_1-0_
  6
CONTINUOUS
 62
    2
 10
756.19973441803177
 20
360.69028008718806
 11
755.19973441803177
 21
359.69028008718806
  0
LINE
  8
_1-0_
  6
CONTINUOUS
 62
    2
 10
755.63404899308352
 20
360.69028008718806
 11
754.63404899308352
 21
359.69028008718806
  0
LINE
  8
_1-0_
  6
CONTINUOUS
 62
    2
 10
755.06836356813346
 20
360.69028008718806
 11
754.06836356813346
 21
359.69028008718806
  0
LINE
  8
_1-0_
  6
CONTINUOUS
 62
    2
 10
754.5026781431842
 20
360.69028008718806
 11
753.5026781431842
 21
359.69028008718806
  0
LINE
  8
_1-0_
  6
CONTINUOUS
 62
    2
 10
753.93699271823482
 20
360.69028008718806
 11
752.93699271823482
 21
359.69028008718806
  0
LINE
  8
_1-0_
  6
CONTINUOUS
 62
    2
 10
753.3713072932851
 20
360.69028008718806
 11
752.3713072932851
 21
359.69028008718806
  0
LINE
  8
_1-0_
  6
CONTINUOUS
 62
    2
 10
752.80562186833686
 20
360.69028008718806
 11
751.80562186833686
 21
359.69028008718806
  0
LINE
  8
_1-0_
  6
CONTINUOUS
 62
    2
 10
752.23993644338759
 20
360.69028008718806
 11
751.23993644338759
 21
359.69028008718806
  0
LINE
  8
_1-0_
  6
CONTINUOUS
 62
    2
 10
751.67425101843821
 20
360.69028008718806
 11
750.67425101843821
 21
359.69028008718806
  0
LINE
  8
_1-0_
  6
CONTINUOUS
 62
    2
 10
751.10856559348849
 20
360.69028008718806
 11
750.10856559348849
 21
359.69028008718806
  0
LINE
  8
_1-0_
  6
CONTINUOUS
 62
    2
 10
750.54288016854025
 20
360.69028008718806
 11
749.54288016854025
 21
359.69028008718806
  0
LINE
  8
_1-0_
  6
CONTINUOUS
 62
    2
 10
749.97719474359099
 20
360.69028008718806
 11
748.97719474359099
 21
359.69028008718806
  0
LINE
  8
_1-0_
  6
CONTINUOUS
 62
    2
 10
749.41150931864161
 20
360.69028008718806
 11
748.41150931864161
 21
359.69028008718806
  0
LINE
  8
_1-0_
  6
CONTINUOUS
 62
    2
 10
748.84582389369154
 20
360.69028008718806
 11
747.84582389369154
 21
359.69028008718806
  0
LINE
  8
_1-0_
  6
CONTINUOUS
 62
    2
 10
748.28013846874182
 20
360.69028008718806
 11
747.28013846874182
 21
359.69028008718806
  0
LINE
  8
_1-0_
  6
CONTINUOUS
 62
    2
 10
747.71445304379358
 20
360.69028008718806
 11
746.71445304379358
 21
359.69028008718806
  0
LINE
  8
_1-0_
  6
CONTINUOUS
 62
    2
 10
747.14876761884432
 20
360.69028008718806
 11
746.14876761884432
 21
359.69028008718806
  0
LINE
  8
_1-0_
  6
CONTINUOUS
 62
    2
 10
746.58308219389494
 20
360.69028008718806
 11
745.58308219389494
 21
359.69028008718806
  0
LINE
  8
_1-0_
  6
CONTINUOUS
 62
    2
 10
746.01739676894522
 20
360.69028008718806
 11
745.01739676894522
 21
359.69028008718806
  0
LINE
  8
_1-0_
  6
CONTINUOUS
 62
    2
 10
745.45171134399698
 20
360.69028008718806
 11
744.45171134399698
 21
359.69028008718806
  0
LINE
  8
_1-0_
  6
CONTINUOUS
 62
    2
 10
744.88602591904771
 20
360.69028008718806
 11
743.88602591904771
 21
359.69028008718806
  0
LINE
  8
_1-0_
  6
CONTINUOUS
 62
    2
 10
744.32034049409833
 20
360.69028008718806
 11
743.32034049409833
 21
359.69028008718806
  0
LINE
  8
_1-0_
  6
CONTINUOUS
 62
    2
 10
743.75465506914827
 20
360.69028008718806
 11
742.75465506914827
 21
359.69028008718806
  0
LINE
  8
_1-0_
  6
CONTINUOUS
 62
    2
 10
743.18896964420037
 20
360.69028008718806
 11
742.18896964420037
 21
359.69028008718806
  0
LINE
  8
_1-0_
  6
CONTINUOUS
 62
    2
 10
742.62328421925031
 20
360.69028008718806
 11
741.62328421925031
 21
359.69028008718806
  0
LINE
  8
_1-0_
  6
CONTINUOUS
 62
    2
 10
742.05759879430104
 20
360.69028008718806
 11
741.05759879430104
 21
359.69028008718806
  0
LINE
  8
_1-0_
  6
CONTINUOUS
 62
    2
 10
741.49191336935166
 20
360.69028008718806
 11
740.49191336935166
 21
359.69028008718806
  0
LINE
  8
_1-0_
  6
CONTINUOUS
 62
    2
 10
740.92622794440194
 20
360.69028008718806
 11
739.92622794440194
 21
359.69028008718806
  0
LINE
  8
_1-0_
  6
CONTINUOUS
 62
    2
 10
740.3605425194537
 20
360.69028008718806
 11
739.3605425194537
 21
359.69028008718806
  0
LINE
  8
_1-0_
  6
CONTINUOUS
 62
    2
 10
739.79485709450444
 20
360.69028008718806
 11
738.79485709450444
 21
359.69028008718806
  0
LINE
  8
_1-0_
  6
CONTINUOUS
 62
    2
 10
739.22917166955506
 20
360.69028008718806
 11
738.22917166955506
 21
359.69028008718806
  0
LINE
  8
_1-0_
  6
CONTINUOUS
 62
    2
 10
738.66348624460534
 20
360.69028008718806
 11
737.66348624460534
 21
359.69028008718806
  0
LINE
  8
_1-0_
  6
CONTINUOUS
 62
    2
 10
738.0978008196571
 20
360.69028008718806
 11
737.0978008196571
 21
359.69028008718806
  0
LINE
  8
_1-0_
  6
CONTINUOUS
 62
    2
 10
737.53211539470703
 20
360.69028008718806
 11
736.53211539470703
 21
359.69028008718806
  0
LINE
  8
_1-0_
  6
CONTINUOUS
 62
    2
 10
736.96642996975777
 20
360.69028008718806
 11
735.96642996975777
 21
359.69028008718806
  0
LINE
  8
_1-0_
  6
CONTINUOUS
 62
    2
 10
736.40074454480839
 20
360.69028008718806
 11
735.40074454480839
 21
359.69028008718806
  0
LINE
  8
_1-0_
  6
CONTINUOUS
 62
    2
 10
735.83505911985867
 20
360.69028008718806
 11
734.83505911985867
 21
359.69028008718806
  0
LINE
  8
_1-0_
  6
CONTINUOUS
 62
    2
 10
735.26937369491043
 20
360.69028008718806
 11
734.26937369491043
 21
359.69028008718806
  0
LINE
  8
_1-0_
  6
CONTINUOUS
 62
    2
 10
734.70368826996116
 20
360.69028008718806
 11
733.70368826996116
 21
359.69028008718806
  0
LINE
  8
_1-0_
  6
CONTINUOUS
 62
    2
 10
734.13800284501178
 20
360.69028008718806
 11
733.13800284501178
 21
359.69028008718806
  0
LINE
  8
_1-0_
  6
CONTINUOUS
 62
    2
 10
733.57231742006206
 20
360.69028008718806
 11
732.57231742006206
 21
359.69028008718806
  0
LINE
  8
_1-0_
  6
CONTINUOUS
 62
    2
 10
733.00663199511382
 20
360.69028008718806
 11
732.00663199511382
 21
359.69028008718806
  0
LINE
  8
_1-0_
  6
CONTINUOUS
 62
    2
 10
732.44094657016456
 20
360.69028008718806
 11
731.44094657016456
 21
359.69028008718806
  0
LINE
  8
_1-0_
  6
CONTINUOUS
 62
    2
 10
731.87526114521518
 20
360.69028008718806
 11
730.87526114521518
 21
359.69028008718806
  0
LINE
  8
_1-0_
  6
CONTINUOUS
 62
    2
 10
731.30957572026512
 20
360.69028008718806
 11
730.30957572026512
 21
359.69028008718806
  0
LINE
  8
_1-0_
  6
CONTINUOUS
 62
    2
 10
730.7438902953154
 20
360.69028008718806
 11
729.7438902953154
 21
359.69028008718806
  0
LINE
  8
_1-0_
  6
CONTINUOUS
 62
    2
 10
730.17820487036715
 20
360.69028008718806
 11
729.17820487036715
 21
359.69028008718806
  0
LINE
  8
_1-0_
  6
CONTINUOUS
 62
    2
 10
729.61251944541789
 20
360.69028008718806
 11
728.61251944541789
 21
359.69028008718806
  0
LINE
  8
_1-0_
  6
CONTINUOUS
 62
    2
 10
729.04683402046851
 20
360.69028008718806
 11
728.04683402046851
 21
359.69028008718806
  0
LINE
  8
_1-0_
  6
CONTINUOUS
 62
    2
 10
728.48114859551879
 20
360.69028008718806
 11
727.48114859551879
 21
359.69028008718806
  0
LINE
  8
_1-0_
  6
CONTINUOUS
 62
    2
 10
727.91546317057055
 20
360.69028008718806
 11
726.91546317057055
 21
359.69028008718806
  0
LINE
  8
_1-0_
  6
CONTINUOUS
 62
    2
 10
727.34977774562128
 20
360.69028008718806
 11
726.34977774562128
 21
359.69028008718806
  0
LINE
  8
_1-0_
  6
CONTINUOUS
 62
    2
 10
726.7840923206719
 20
360.69028008718806
 11
725.7840923206719
 21
359.69028008718806
  0
LINE
  8
_1-0_
  6
CONTINUOUS
 62
    2
 10
726.21840689572218
 20
360.69028008718806
 11
725.21840689572218
 21
359.69028008718806
  0
LINE
  8
_1-0_
  6
CONTINUOUS
 62
    2
 10
725.65272147077394
 20
360.69028008718806
 11
724.65272147077394
 21
359.69028008718806
  0
LINE
  8
_1-0_
  6
CONTINUOUS
 62
    2
 10
725.08703604582388
 20
360.69028008718806
 11
724.08703604582388
 21
359.69028008718806
  0
LINE
  8
_1-0_
  6
CONTINUOUS
 62
    2
 10
724.52135062087461
 20
360.69028008718806
 11
723.52135062087461
 21
359.69028008718806
  0
LINE
  8
_1-0_
  6
CONTINUOUS
 62
    2
 10
723.95566519592523
 20
360.69028008718806
 11
723.26811616743055
 21
360.00273105869354
  0
LINE
  8
_1-0_
  6
CONTINUOUS
 62
    2
 10
723.38997977097551
 20
360.69028008718806
 11
723.26811616743055
 21
360.56841648364281
  0
LINE
  8
_1-0_
  6
CONTINUOUS
 62
    2
 10
763.66811616743132
 20
366.81028008718812
 11
763.66811616743132
 21
360.69028008718806
  0
LINE
  8
_1-0_
  6
CONTINUOUS
 62
    2
 10
765.66811616743132
 20
359.69028008718806
 11
765.66811616743132
 21
366.81028008718812
  0
LINE
  8
_1-0_
  6
CONTINUOUS
 62
    2
 10
765.14816154277742
 20
366.81028008718812
 11
763.66811616743132
 21
365.33023471184089
  0
LINE
  8
_1-0_
  6
CONTINUOUS
 62
    2
 10
764.58247611782917
 20
366.81028008718812
 11
763.66811616743132
 21
365.89592013679004
  0
LINE
  8
_1-0_
  6
CONTINUOUS
 62
    2
 10
764.01679069288025
 20
366.81028008718812
 11
763.66811616743132
 21
366.46160556173919
  0
LINE
  8
_1-0_
  6
CONTINUOUS
 62
    2
 10
765.66811616743132
 20
366.76454928689185
 11
763.66811616743132
 21
364.76454928689162
  0
LINE
  8
_1-e_
  6
CONTINUOUS
 62
    4
 10
764.66811616743132
 20
360.69028008718806
 11
792.66811616743132
 21
360.69028008718806
  0
LINE
  8
_1-e_
  6
CONTINUOUS
 62
    4
 10
772.66811616743132
 20
366.81028008718812
 11
792.66811616743132
 21
366.81028008718812
  0
POINT
  8
_1-e_
 62
    4
 10
791.66811616743132
 20
366.81028008718812
  0
POINT
  8
_1-e_
 62
    4
 10
791.66811616743132
 20
360.69028008718806
  0
LINE
  8
_1-e_
  6
CONTINUOUS
 62
    4
 10
791.66811616743132
 20
366.81028008718812
 11
791.66811616743132
 21
360.69028008718806
  0
TEXT
  8
_1-e_
 62
    4
 10
791.66811616743132
 20
357.75028008718812
 40
6
 41
1
 50
90
  1
30.6
  0
LINE
  8
_1-0_
  6
CONTINUOUS
 62
    4
 10
683.26811616743055
 20
361.69028008719033
 11
683.26811616743055
 21
387.810280087188
  0
LINE
  8
_1-0_
  6
CONTINUOUS
 62
    4
 10
670.86811616742943
 20
367.810280087188
 11
670.86811616742943
 21
387.810280087188
  0
POINT
  8
_1-0_
 62
    4
 10
670.86811616742943
 20
386.810280087188
  0
POINT
  8
_1-0_
 62
    4
 10
683.26811616743055
 20
386.810280087188
  0
LINE
  8
_1-0_
  6
CONTINUOUS
 62
    4
 10
670.86811616742943
 20
386.810280087188
 11
683.26811616743055
 21
386.810280087188
  0
TEXT
  8
_1-0_
 62
    4
 10
673.4681161674298
 20
386.810280087188
 40
9
 41
0.8
 50
0
  1
62
  0
LINE
  8
_1-0_
  6
CONTINUOUS
 62
    4
 10
723.26811616743055
 20
361.69028008718806
 11
723.26811616743055
 21
387.810280087188
  0
POINT
  8
_1-0_
 62
    4
 10
683.26811616743055
 20
386.810280087188
  0
POINT
  8
_1-0_
 62
    4
 10
723.26811616743055
 20
386.810280087188
  0
LINE
  8
_1-0_
  6
CONTINUOUS
 62
    4
 10
683.26811616743055
 20
386.810280087188
 11
723.26811616743055
 21
386.810280087188
  0
TEXT
  8
_1-0_
 62
    4
 10
697.86811616743057
 20
386.810280087188
 40
9
 41
0.8
 50
0
  1
200
  0
LINE
  8
_1-0_
  6
CONTINUOUS
 62
    4
 10
763.66811616743132
 20
367.81028008718812
 11
763.66811616743132
 21
387.810280087188
  0
POINT
  8
_1-0_
 62
    4
 10
723.26811616743055
 20
386.810280087188
  0
POINT
  8
_1-0_
 62
    4
 10
763.66811616743132
 20
386.810280087188
  0
LINE
  8
_1-0_
  6
CONTINUOUS
 62
    4
 10
723.26811616743055
 20
386.810280087188
 11
763.66811616743132
 21
386.810280087188
  0
TEXT
  8
_1-0_
 62
    4
 10
738.06811616743096
 20
386.810280087188
 40
9
 41
0.8
 50
0
  1
202
  0
LINE
  8
_0-a_
  6
CONTINUOUS
 62
    3
 10
558.92525651892527
 20
334.00000000001171
 11
554.93405808371506
 21
334.00000000001171
  0
LINE
  8
_0-a_
  6
CONTINUOUS
 62
    3
 10
562.93405808371415
 20
334.00000000001171
 11
562.92525651892436
 21
334.00000000001171
  0
LINE
  8
_0-a_
  6
CONTINUOUS
 62
    3
 10
556.93405808371597
 20
334.00000000001171
 11
559.93405808371597
 21
331.00000000001171
  0
LINE
  8
_0-a_
  6
CONTINUOUS
 62
    3
 10
553.93405808371597
 20
331.00000000001171
 11
556.93405808371597
 21
334.00000000001171
  0
LINE
  8
_0-a_
  6
CONTINUOUS
 62
    3
 10
562.93405808371597
 20
334.00000000001171
 11
565.93405808371597
 21
331.00000000001171
  0
LINE
  8
_0-a_
  6
CONTINUOUS
 62
    3
 10
559.93405808371597
 20
331.00000000001171
 11
562.93405808371597
 21
334.00000000001171
  0
LINE
  8
_0-a_
  6
CONTINUOUS
 62
    3
 10
565.93405808371597
 20
331.00000000001171
 11
568.93405808371597
 21
334.00000000001171
  0
LINE
  8
_0-a_
  6
CONTINUOUS
 62
    3
 10
568.93405808371506
 20
334.00000000001171
 11
571.93405808371506
 21
331.00000000001171
  0
LINE
  8
_0-a_
  6
CONTINUOUS
 62
    3
 10
565.93405808371506
 20
331.00000000001171
 11
568.93405808371506
 21
334.00000000001171
  0
LINE
  8
_0-a_
  6
CONTINUOUS
 62
    3
 10
544.8340580837156
 20
331.35519757901955
 11
540.03405808371542
 21
330.05218414034641
  0
LINE
  8
_0-a_
  6
CONTINUOUS
 62
    3
 10
327.93405808371597
 20
303.00000000001171
 11
381.93405808371597
 21
303.00000000001171
  0
LINE
  8
_0-a_
  6
CONTINUOUS
 62
    3
 10
162.43405808371733
 20
322.80000000002303
 11
433.43405808371597
 21
322.80000000002303
  0
LINE
  8
_0-a_
  6
CONTINUOUS
 62
    3
 10
401.93405808371597
 20
302.00000000001171
 11
401.93405808371597
 21
303.00000000001171
  0
LINE
  8
_0-a_
  6
CONTINUOUS
 62
    3
 10
395.93405808371597
 20
308.00000000001171
 11
377.93405808371506
 21
308.00000000001171
  0
LINE
  8
_0-a_
  6
CONTINUOUS
 62
    3
 10
395.93405808371597
 20
306.50000000001171
 11
377.93405808371506
 21
306.50000000001171
  0
LINE
  8
_0-a_
  6
CONTINUOUS
 62
    3
 10
395.93405808371597
 20
308.00000000001171
 11
395.93405808371597
 21
306.50000000001171
  0
LINE
  8
_0-a_
  6
CONTINUOUS
 62
    3
 10
377.93405808371506
 20
308.00000000001171
 11
377.93405808371506
 21
306.50000000001171
  0
LINE
  8
_0-a_
  6
CONTINUOUS
 62
    3
 10
391.43405808371597
 20
308.00000000001171
 11
391.32514529991556
 21
309.2448788150117
  0
LINE
  8
_0-a_
  6
CONTINUOUS
 62
    3
 10
382.54297086741542
 20
309.2448788150117
 11
382.43405808371597
 21
308.00000000001171
  0
ARC
  8
_0-a_
  6
CONTINUOUS
 62
    3
 10
383.52920361861459
 20
309.1585946297115
 40
0.9899999999999997
 50
127.36755803205183
 51
175.0000000012005
  0
ARC
  8
_0-a_
  6
CONTINUOUS
 62
    3
 10
390.33891254881553
 20
309.1585946297115
 40
0.9899999999999997
 50
4.9999999987995034
 51
52.632441967948175
  0
ARC
  8
_0-a_
  6
CONTINUOUS
 62
    3
 10
386.93405808371506
 20
304.70000000001153
 40
6.5999999999999996
 50
52.632441967704736
 51
68.266383543398021
  0
ARC
  8
_0-a_
  6
CONTINUOUS
 62
    3
 10
386.93405808371506
 20
304.70000000001153
 40
6.5999999999999996
 50
111.74840859090317
 51
127.36755803230515
  0
LINE
  8
_0-a_
  6
CONTINUOUS
 62
    3
 10
387.24905808371557
 20
311.25912712961178
 11
387.24905808371557
 21
310.82331223961148
  0
LINE
  8
_0-a_
  6
CONTINUOUS
 62
    3
 10
387.59634676561643
 20
311.25912712961178
 11
387.24905808371557
 21
311.25912712961178
  0
LINE
  8
_0-a_
  6
CONTINUOUS
 62
    3
 10
389.37656135221539
 20
310.82331223961148
 11
387.59634676561643
 21
311.25912712961178
  0
LINE
  8
_0-a_
  6
CONTINUOUS
 62
    3
 10
386.27176940171546
 20
311.25912712961178
 11
384.97185913401506
 21
310.99369130821185
  0
LINE
  8
_0-a_
  6
CONTINUOUS
 62
    3
 10
384.97185913401506
 20
310.99369130821185
 11
384.4915548151165
 21
310.82331223961148
  0
LINE
  8
_0-a_
  6
CONTINUOUS
 62
    3
 10
386.61905808371546
 20
311.25912712961178
 11
386.27176940171546
 21
311.25912712961178
  0
LINE
  8
_0-a_
  6
CONTINUOUS
 62
    3
 10
386.61905808371546
 20
310.82331223961148
 11
386.61905808371546
 21
311.25912712961178
  0
LINE
  8
_0-a_
  6
CONTINUOUS
 62
    3
 10
387.24905808371557
 20
310.82331223961148
 11
386.93405808371506
 21
310.82841741401182
  0
LINE
  8
_0-a_
  6
CONTINUOUS
 62
    3
 10
386.93405808371506
 20
310.82841741401182
 11
386.61905808371546
 21
310.82331223961148
  0
LINE
  8
_0-a_
  6
CONTINUOUS
 62
    3
 10
379.43405808371597
 20
303.00000000001171
 11
379.43405808371597
 21
306.50000000001171
  0
LINE
  8
_0-a_
  6
CONTINUOUS
 62
    3
 10
394.43405808371597
 20
303.00000000001171
 11
394.43405808371597
 21
306.50000000001171
  0
LINE
  8
_0-a_
  6
CONTINUOUS
 62
    3
 10
387.23405808371615
 20
306.50000000001171
 11
386.93405808371506
 21
306.20000000001198
  0
LINE
  8
_0-a_
  6
CONTINUOUS
 62
    3
 10
386.93405808371506
 20
306.20000000001198
 11
386.63405808371579
 21
306.50000000001171
  0
LINE
  8
_0-a_
  6
CONTINUOUS
 62
    3
 10
387.23405808371615
 20
306.50000000001171
 11
386.93405808371597
 21
306.20000000001198
  0
LINE
  8
_0-a_
  6
CONTINUOUS
 62
    3
 10
386.93405808371597
 20
306.20000000001198
 11
386.63405808371579
 21
306.50000000001171
  0
LINE
  8
_0-a_
  6
CONTINUOUS
 62
    3
 10
406.93405808371597
 20
306.50000000001171
 11
392.23405808371615
 21
306.50000000001171
  0
LINE
  8
_0-a_
  6
CONTINUOUS
 62
    3
 10
391.63405808371579
 20
306.50000000001171
 11
387.23405808371615
 21
306.50000000001171
  0
LINE
  8
_0-a_
  6
CONTINUOUS
 62
    3
 10
386.63405808371579
 20
306.50000000001171
 11
367.23405808371615
 21
306.50000000001171
  0
LINE
  8
_0-a_
  6
CONTINUOUS
 62
    3
 10
498.93405808371597
 20
306.50000000001171
 11
501.43405808371597
 21
305.50000000001216
  0
LINE
  8
_0-a_
  6
CONTINUOUS
 62
    3
 10
518.6340580837167
 20
305.50000000001171
 11
501.43405808371597
 21
305.50000000001171
  0
LINE
  8
_0-a_
  6
CONTINUOUS
 62
    3
 10
549.93405808371597
 20
303.00000000001171
 11
549.93405808371597
 21
321.50000000001171
  0
LINE
  8
_0-a_
  6
CONTINUOUS
 62
    3
 10
406.93405808371597
 20
306.50000000001171
 11
498.93405808371597
 21
306.50000000001171
  0
LINE
  8
_0-a_
  6
CONTINUOUS
 62
    3
 10
332.93405808371597
 20
303.00000000001171
 11
549.93405808371597
 21
303.00000000001171
  0
LINE
  8
_0-a_
  6
CONTINUOUS
 62
    3
 10
152.70138507169565
 20
303.00000000002308
 11
101.93405808371688
 21
303.00000000002308
  0
LINE
  8
_0-a_
  6
CONTINUOUS
 62
    3
 10
150.93405808371733
 20
303.00000000002308
 11
101.93405808371688
 21
303.00000000002308
  0
LINE
  8
_0-a_
  6
CONTINUOUS
 62
    3
 10
160.43405808371733
 20
323.80000000002303
 11
160.43405808371733
 21
316.80000000002303
  0
LINE
  8
_0-a_
  6
CONTINUOUS
 62
    3
 10
160.43405808371733
 20
316.80000000002303
 11
162.43405808371733
 21
316.80000000002303
  0
LINE
  8
_0-a_
  6
CONTINUOUS
 62
    3
 10
160.43405808371733
 20
323.80000000002303
 11
160.43405808371733
 21
316.80000000002303
  0
LINE
  8
_0-a_
  6
CONTINUOUS
 62
    3
 10
162.43405808371733
 20
322.80000000002303
 11
162.43405808371733
 21
316.80000000002303
  0
ARC
  8
_0-a_
  6
CONTINUOUS
 62
    3
 10
172.53405808371724
 20
304.00000000002308
 40
1
 50
270
 51
0
  0
ARC
  8
_0-a_
  6
CONTINUOUS
 62
    3
 10
167.53405808371724
 20
308.50000000002308
 40
3
 50
270
 51
0
  0
LINE
  8
_0-a_
  6
CONTINUOUS
 62
    3
 10
173.0340580837177
 20
316.80000000002326
 11
173.53405808371724
 21
314.80000000002326
  0
LINE
  8
_0-a_
  6
CONTINUOUS
 62
    3
 10
173.53405808371724
 20
316.80000000002326
 11
173.0340580837177
 21
316.80000000002326
  0
LINE
  8
_0-a_
  6
CONTINUOUS
 62
    3
 10
173.53405808371724
 20
319.80000000002326
 11
173.53405808371724
 21
316.80000000002326
  0
ARC
  8
_0-a_
  6
CONTINUOUS
 62
    3
 10
172.03405808371724
 20
319.80000000002326
 40
1.5
 50
0
 51
180
  0
LINE
  8
_0-a_
  6
CONTINUOUS
 62
    3
 10
170.5340580837177
 20
316.80000000002326
 11
170.5340580837177
 21
319.80000000002326
  0
LINE
  8
_0-a_
  6
CONTINUOUS
 62
    3
 10
171.03405808371724
 20
316.80000000002326
 11
170.5340580837177
 21
316.80000000002326
  0
LINE
  8
_0-a_
  6
CONTINUOUS
 62
    3
 10
170.5340580837177
 20
314.80000000002326
 11
171.03405808371724
 21
316.80000000002326
  0
LINE
  8
_0-a_
  6
CONTINUOUS
 62
    3
 10
175.03405808371724
 20
319.79999800002349
 11
175.03405808371724
 21
314.80000000002326
  0
LINE
  8
_0-a_
  6
CONTINUOUS
 62
    3
 10
175.03405808371724
 20
314.80000000002326
 11
173.5340580837177
 21
314.80000000002326
  0
LINE
  8
_0-a_
  6
CONTINUOUS
 62
    3
 10
170.53405808371724
 20
314.80000000002326
 11
169.03405808371724
 21
314.80000000002326
  0
LINE
  8
_0-a_
  6
CONTINUOUS
 62
    3
 10
169.03405808371724
 20
314.80000000002326
 11
169.03405808371724
 21
319.79999800002349
  0
ARC
  8
_0-a_
  6
CONTINUOUS
 62
    3
 10
172.03405808371724
 20
319.79999800002349
 40
1.7000010000000001
 50
0
 51
180
  0
ARC
  8
_0-a_
  6
CONTINUOUS
 62
    3
 10
172.03405808371724
 20
319.79999800002349
 40
3
 50
0
 51
180
  0
LINE
  8
_0-a_
  6
CONTINUOUS
 62
    3
 10
170.53406408371654
 20
316.79999800002327
 11
170.7779070837172
 21
316.79999800002327
  0
ARC
  8
_0-a_
  6
CONTINUOUS
 62
    3
 10
170.7779070837172
 20
316.60000000002344
 40
0.200001
 50
345.9635980000387
 51
90
  0
LINE
  8
_0-a_
  6
CONTINUOUS
 62
    3
 10
170.53405808371724
 20
314.80000000002326
 11
170.97193508371754
 21
316.55149300002347
  0
LINE
  8
_0-a_
  6
CONTINUOUS
 62
    3
 10
173.5340580837177
 20
316.79999800002327
 11
173.29021208371739
 21
316.79999800002327
  0
ARC
  8
_0-a_
  6
CONTINUOUS
 62
    3
 10
173.29021208371739
 20
316.60000000002344
 40
0.200001
 50
90
 51
194.03619200007512
  0
LINE
  8
_0-a_
  6
CONTINUOUS
 62
    3
 10
173.53405508371759
 20
314.80000000002326
 11
173.09618408371705
 21
316.55149300002347
  0
LINE
  8
_0-a_
  6
CONTINUOUS
 62
    3
 10
170.53406408371654
 20
316.79999800002327
 11
170.33406308371775
 21
316.79999800002327
  0
LINE
  8
_0-a_
  6
CONTINUOUS
 62
    3
 10
170.33406308371775
 20
316.79999800002327
 11
170.33405708371754
 21
319.79999800002349
  0
LINE
  8
_0-a_
  6
CONTINUOUS
 62
    3
 10
173.53405508371759
 20
316.79999800002327
 11
173.7340590837174
 21
316.79999800002327
  0
LINE
  8
_0-a_
  6
CONTINUOUS
 62
    3
 10
173.7340590837174
 20
316.79999800002327
 11
173.7340590837174
 21
319.79999800002349
  0
LINE
  8
_0-a_
  6
CONTINUOUS
 62
    3
 10
173.53405808371724
 20
314.79998799996304
 11
173.53405808371724
 21
304.00000000002308
  0
LINE
  8
_0-a_
  6
CONTINUOUS
 62
    3
 10
170.5340580837177
 20
308.50000000002308
 11
170.5340580837177
 21
314.80000000002531
  0
LINE
  8
_0-a_
  6
CONTINUOUS
 62
    3
 10
172.53405808371724
 20
303.00000000002308
 11
129.29374754419212
 21
303.00000000002308
  0
LINE
  8
_0-a_
  6
CONTINUOUS
 62
    3
 10
154.73405808371706
 20
326.00000000002308
 11
154.73405808371706
 21
305.50000000002308
  0
LINE
  8
_0-a_
  6
CONTINUOUS
 62
    3
 10
154.73405808371706
 20
326.00000000002308
 11
154.73405808371706
 21
305.50000000002308
  0
ARC
  8
_0-a_
  6
CONTINUOUS
 62
    3
 10
153.73405808371706
 20
326.00000000002308
 40
1
 50
0
 51
180
  0
LINE
  8
_0-a_
  6
CONTINUOUS
 62
    3
 10
152.73405808371706
 20
326.00000000002308
 11
152.73405808371706
 21
305.50000000002308
  0
LINE
  8
_0-a_
  6
CONTINUOUS
 62
    3
 10
154.73405808371706
 20
305.50000000002308
 11
167.53405808371724
 21
305.50000000002308
  0
LINE
  8
_0-a_
  6
CONTINUOUS
 62
    3
 10
117.23405808371706
 20
305.50000000002308
 11
152.73405808371706
 21
305.50000000002308
  0
LINE
  8
_0-a_
  6
CONTINUOUS
 62
    3
 10
116.93405808371642
 20
305.2000000000229
 11
117.2340580837166
 21
305.50000000002308
  0
LINE
  8
_0-a_
  6
CONTINUOUS
 62
    3
 10
116.63405808371715
 20
305.50000000002308
 11
116.93405808371642
 21
305.2000000000229
  0
LINE
  8
_0-a_
  6
CONTINUOUS
 62
    3
 10
125.93405808371779
 20
307.00000000002308
 11
107.93405808371688
 21
307.00000000002308
  0
LINE
  8
_0-a_
  6
CONTINUOUS
 62
    3
 10
125.93405808371779
 20
305.50000000002308
 11
107.93405808371688
 21
305.50000000002308
  0
LINE
  8
_0-a_
  6
CONTINUOUS
 62
    3
 10
125.93405808371779
 20
307.00000000002308
 11
125.93405808371779
 21
305.50000000002308
  0
LINE
  8
_0-a_
  6
CONTINUOUS
 62
    3
 10
107.93405808371688
 20
307.00000000002308
 11
107.93405808371688
 21
305.50000000002308
  0
LINE
  8
_0-a_
  6
CONTINUOUS
 62
    3
 10
121.43405808371779
 20
307.00000000002308
 11
121.32514529991738
 21
308.24487881502307
  0
LINE
  8
_0-a_
  6
CONTINUOUS
 62
    3
 10
112.54297086741724
 20
308.24487881502307
 11
112.43405808371824
 21
307.00000000002308
  0
ARC
  8
_0-a_
  6
CONTINUOUS
 62
    3
 10
113.52920361861641
 20
308.15859462972287
 40
0.9899999999999997
 50
127.36755803205183
 51
175.0000000012005
  0
ARC
  8
_0-a_
  6
CONTINUOUS
 62
    3
 10
120.33891254881735
 20
308.15859462972287
 40
0.9899999999999997
 50
4.9999999987995034
 51
52.632441967948175
  0
ARC
  8
_0-a_
  6
CONTINUOUS
 62
    3
 10
116.93405808371688
 20
303.7000000000229
 40
6.5999999999999996
 50
52.632441967704736
 51
68.266383543398021
  0
ARC
  8
_0-a_
  6
CONTINUOUS
 62
    3
 10
116.93405808371688
 20
303.7000000000229
 40
6.5999999999999996
 50
111.74840859090317
 51
127.36755803230515
  0
LINE
  8
_0-a_
  6
CONTINUOUS
 62
    3
 10
117.24905808371784
 20
310.25912712962315
 11
117.24905808371784
 21
309.82331223962285
  0
LINE
  8
_0-a_
  6
CONTINUOUS
 62
    3
 10
117.5963467656187
 20
310.25912712962315
 11
117.24905808371784
 21
310.25912712962315
  0
LINE
  8
_0-a_
  6
CONTINUOUS
 62
    3
 10
119.37656135221766
 20
309.82331223962285
 11
117.5963467656187
 21
310.25912712962315
  0
LINE
  8
_0-a_
  6
CONTINUOUS
 62
    3
 10
116.27176940171773
 20
310.25912712962315
 11
114.97185913401734
 21
309.99369130822322
  0
LINE
  8
_0-a_
  6
CONTINUOUS
 62
    3
 10
114.97185913401734
 20
309.99369130822322
 11
114.49155481511877
 21
309.82331223962285
  0
LINE
  8
_0-a_
  6
CONTINUOUS
 62
    3
 10
116.61905808371773
 20
310.25912712962315
 11
116.27176940171773
 21
310.25912712962315
  0
LINE
  8
_0-a_
  6
CONTINUOUS
 62
    3
 10
116.61905808371773
 20
309.82331223962285
 11
116.61905808371773
 21
310.25912712962315
  0
LINE
  8
_0-a_
  6
CONTINUOUS
 62
    3
 10
117.24905808371784
 20
309.82331223962285
 11
116.93405808371688
 21
309.82841741402319
  0
LINE
  8
_0-a_
  6
CONTINUOUS
 62
    3
 10
116.93405808371688
 20
309.82841741402319
 11
116.61905808371773
 21
309.82331223962285
  0
LINE
  8
_0-a_
  6
CONTINUOUS
 62
    3
 10
97.934058083716423
 20
305.50000000002308
 11
111.6340580837176
 21
305.50000000002308
  0
LINE
  8
_0-a_
  6
CONTINUOUS
 62
    3
 10
162.43405808371733
 20
322.80000000002303
 11
190.91116866374648
 21
322.80000000002303
  0
LINE
  8
_0-a_
  6
CONTINUOUS
 62
    3
 10
79.434058083718242
 20
331.00000000001171
 11
59.789844827061074
 21
331.00000000001171
  0
LINE
  8
_0-a_
  6
CONTINUOUS
 62
    3
 10
171.93405808371733
 20
328.50000000001171
 11
108.43405808371688
 21
328.50000000001171
  0
ARC
  8
_0-a_
  6
CONTINUOUS
 62
    3
 10
327.93405808371597
 20
304.00000000001171
 40
1
 50
180
 51
270
  0
ARC
  8
_0-a_
  6
CONTINUOUS
 62
    3
 10
332.93405808371597
 20
309.50000000001148
 40
3
 50
180
 51
270
  0
LINE
  8
_0-a_
  6
CONTINUOUS
 62
    3
 10
325.43405658371637
 20
319.79999800002349
 11
325.43405658371637
 21
314.80000000002326
  0
LINE
  8
_0-a_
  6
CONTINUOUS
 62
    3
 10
325.43405658371637
 20
314.80000000002326
 11
326.93405658371546
 21
314.80000000002326
  0
LINE
  8
_0-a_
  6
CONTINUOUS
 62
    3
 10
329.93405658371546
 20
314.80000000002326
 11
331.43405658371546
 21
314.80000000002326
  0
LINE
  8
_0-a_
  6
CONTINUOUS
 62
    3
 10
331.43405658371546
 20
314.80000000002326
 11
331.43405658371546
 21
319.79999800002349
  0
ARC
  8
_0-a_
  6
CONTINUOUS
 62
    3
 10
328.43405658371546
 20
319.79999800002349
 40
1.7000010000000001
 50
0
 51
180
  0
ARC
  8
_0-a_
  6
CONTINUOUS
 62
    3
 10
328.43405658371546
 20
319.79999800002349
 40
3
 50
0
 51
180
  0
LINE
  8
_0-a_
  6
CONTINUOUS
 62
    3
 10
329.93405058371616
 20
316.79999800002304
 11
329.69020758371505
 21
316.79999800002304
  0
ARC
  8
_0-a_
  6
CONTINUOUS
 62
    3
 10
329.69020758371505
 20
316.60000000002344
 40
0.200001
 50
90
 51
194.03640200009357
  0
LINE
  8
_0-a_
  6
CONTINUOUS
 62
    3
 10
329.93405658371546
 20
314.80000000002326
 11
329.49617958371516
 21
316.55149300002347
  0
LINE
  8
_0-a_
  6
CONTINUOUS
 62
    3
 10
326.93405658371546
 20
316.79999800002304
 11
327.17790258371576
 21
316.79999800002304
  0
ARC
  8
_0-a_
  6
CONTINUOUS
 62
    3
 10
327.17790258371576
 20
316.60000000002344
 40
0.200001
 50
345.96380799999201
 51
90
  0
LINE
  8
_0-a_
  6
CONTINUOUS
 62
    3
 10
326.93405958371557
 20
314.80000000002326
 11
327.37193058371656
 21
316.55149300002347
  0
LINE
  8
_0-a_
  6
CONTINUOUS
 62
    3
 10
329.93405058371616
 20
316.79999800002304
 11
330.1340515837154
 21
316.79999800002304
  0
LINE
  8
_0-a_
  6
CONTINUOUS
 62
    3
 10
330.1340515837154
 20
316.79999800002304
 11
330.13405758371562
 21
319.79999800002349
  0
LINE
  8
_0-a_
  6
CONTINUOUS
 62
    3
 10
326.93405958371557
 20
316.79999800002304
 11
326.7340555837153
 21
316.79999800002304
  0
LINE
  8
_0-a_
  6
CONTINUOUS
 62
    3
 10
326.7340555837153
 20
316.79999800002304
 11
326.7340555837153
 21
319.79999800002349
  0
LINE
  8
_0-a_
  6
CONTINUOUS
 62
    3
 10
327.43405808371597
 20
316.80000000002326
 11
326.93405808371597
 21
314.80000000002326
  0
LINE
  8
_0-a_
  6
CONTINUOUS
 62
    3
 10
326.93405808371597
 20
316.80000000002326
 11
327.43405808371597
 21
316.80000000002326
  0
LINE
  8
_0-a_
  6
CONTINUOUS
 62
    3
 10
326.93405808371597
 20
319.80000000002326
 11
326.93405808371597
 21
316.80000000002326
  0
ARC
  8
_0-a_
  6
CONTINUOUS
 62
    3
 10
328.43405808371597
 20
319.80000000002326
 40
1.5
 50
0
 51
180
  0
LINE
  8
_0-a_
  6
CONTINUOUS
 62
    3
 10
329.93405808371597
 20
316.80000000002326
 11
329.93405808371597
 21
319.80000000002326
  0
LINE
  8
_0-a_
  6
CONTINUOUS
 62
    3
 10
329.43405808371597
 20
316.80000000002326
 11
329.93405808371597
 21
316.80000000002326
  0
LINE
  8
_0-a_
  6
CONTINUOUS
 62
    3
 10
329.93405808371597
 20
314.80000000002326
 11
329.43405808371597
 21
316.80000000002326
  0
LINE
  8
_0-a_
  6
CONTINUOUS
 62
    3
 10
326.93405808371597
 20
314.7999939999944
 11
326.93405808371597
 21
304.00000000001171
  0
LINE
  8
_0-a_
  6
CONTINUOUS
 62
    3
 10
326.93405808371597
 20
314.7999939999944
 11
326.93405808371597
 21
304.00000000001171
  0
LINE
  8
_0-a_
  6
CONTINUOUS
 62
    3
 10
329.93405808371597
 20
309.50000000001148
 11
329.93405808371597
 21
314.80000000002326
  0
LINE
  8
_0-a_
  6
CONTINUOUS
 62
    3
 10
335.93405808371597
 20
334.00000000001171
 11
335.93405808371597
 21
331.00000000001171
  0
LINE
  8
_0-a_
  6
CONTINUOUS
 62
    3
 10
326.93405808371597
 20
328.50000000001171
 11
326.93405808371597
 21
330.50000000001171
  0
LINE
  8
_0-a_
  6
CONTINUOUS
 62
    3
 10
335.93405808371597
 20
334.00000000001171
 11
534.93405808371597
 21
334.00000000001171
  0
ARC
  8
_0-a_
  6
CONTINUOUS
 62
    3
 10
334.93405808371597
 20
334.00000000001171
 40
1
 50
0
 51
90
  0
LINE
  8
_0-a_
  6
CONTINUOUS
 62
    3
 10
545.43405808371597
 20
305.50000000001171
 11
519.23405808371615
 21
305.50000000001171
  0
LINE
  8
_0-a_
  6
CONTINUOUS
 62
    3
 10
530.43405808371506
 20
305.50000000001125
 11
512.43405808371415
 21
305.50000000001125
  0
ARC
  8
_0-a_
  6
CONTINUOUS
 62
    3
 10
545.43405808371597
 20
307.50000000001171
 40
2
 50
270
 51
0
  0
LINE
  8
_0-a_
  6
CONTINUOUS
 62
    3
 10
534.93405808371597
 20
334.50000000001171
 11
534.93405808371597
 21
331.00000000001171
  0
LINE
  8
_0-a_
  6
CONTINUOUS
 62
    3
 10
546.43405808371597
 20
327.00000000001171
 11
542.73405808371524
 21
327.00000000001171
  0
LINE
  8
_0-a_
  6
CONTINUOUS
 62
    3
 10
542.13405808371488
 20
327.00000000001171
 11
538.43405808371506
 21
327.00000000001171
  0
LINE
  8
_0-a_
  6
CONTINUOUS
 62
    3
 10
536.93405808371506
 20
324.50000000001171
 11
546.43405808371597
 21
324.50000000001171
  0
LINE
  8
_0-a_
  6
CONTINUOUS
 62
    3
 10
534.93405808371597
 20
328.50000000001171
 11
534.93405808371597
 21
326.50000000001171
  0
ARC
  8
_0-a_
  6
CONTINUOUS
 62
    3
 10
536.93405808371506
 20
326.50000000001171
 40
2
 50
180
 51
270
  0
ARC
  8
_0-a_
  6
CONTINUOUS
 62
    3
 10
546.43405808371597
 20
323.50000000001171
 40
1
 50
0
 51
90
  0
ARC
  8
_0-a_
  6
CONTINUOUS
 62
    3
 10
536.93405808371506
 20
326.50000000001171
 40
2
 50
180
 51
270
  0
LINE
  8
_0-a_
  6
CONTINUOUS
 62
    3
 10
538.43405808371506
 20
328.50000000001171
 11
534.93405808371597
 21
328.50000000001171
  0
LINE
  8
_0-a_
  6
CONTINUOUS
 62
    3
 10
549.93405808371506
 20
324.00000000001171
 11
549.93405808371506
 21
327.83157694661247
  0
LINE
  8
_0-a_
  6
CONTINUOUS
 62
    3
 10
549.93405808371597
 20
324.00000000001171
 11
549.93405808371597
 21
328.50000000001171
  0
LINE
  8
_0-a_
  6
CONTINUOUS
 62
    3
 10
552.43405808371597
 20
323.50000000001171
 11
550.43405808371506
 21
323.50000000001171
  0
ARC
  8
_0-a_
  6
CONTINUOUS
 62
    3
 10
550.93405808371506
 20
321.00000000001171
 40
1
 50
90
 51
180
  0
LINE
  8
_0-a_
  6
CONTINUOUS
 62
    3
 10
550.93405808371506
 20
322.00000000001171
 11
553.43405808371506
 21
322.00000000001171
  0
ARC
  8
_0-a_
  6
CONTINUOUS
 62
    3
 10
553.43405808371506
 20
322.50000000001171
 40
0.5
 50
270
 51
0
  0
ARC
  8
_0-a_
  6
CONTINUOUS
 62
    3
 10
553.18405808371506
 20
330.25000000001171
 40
0.75
 50
0
 51
180
  0
ARC
  8
_0-a_
  6
CONTINUOUS
 62
    3
 10
550.43405808371506
 20
324.00000000001171
 40
0.5
 50
180
 51
270
  0
LINE
  8
_0-a_
  6
CONTINUOUS
 62
    3
 10
552.43405808371597
 20
330.25000000001171
 11
552.43405808371597
 21
323.50000000001171
  0
LINE
  8
_0-a_
  6
CONTINUOUS
 62
    3
 10
549.93405808371597
 20
324.02598353497376
 11
549.93405808371597
 21
326.00000000002308
  0
LINE
  8
_0-a_
  6
CONTINUOUS
 62
    3
 10
546.43405808371597
 20
332.50000000001171
 11
538.43405808371506
 21
332.50000000001171
  0
LINE
  8
_0-a_
  6
CONTINUOUS
 62
    3
 10
538.43405808371506
 20
327.00000000001171
 11
538.43405808371506
 21
332.50000000001171
  0
LINE
  8
_0-a_
  6
CONTINUOUS
 62
    3
 10
545.18405808371506
 20
332.50000000001171
 11
539.68405808371597
 21
332.50000000001171
  0
LINE
  8
_0-a_
  6
CONTINUOUS
 62
    3
 10
547.43405808371506
 20
335.30000000001166
 11
544.33405808371469
 21
332.20000000001176
  0
LINE
  8
_0-a_
  6
CONTINUOUS
 62
    3
 10
537.43405808371597
 20
335.30000000001166
 11
540.53405808371542
 21
332.20000000001176
  0
LINE
  8
_0-a_
  6
CONTINUOUS
 62
    3
 10
547.43405808371506
 20
335.50000000001171
 11
547.43405808371506
 21
335.30000000001166
  0
LINE
  8
_0-a_
  6
CONTINUOUS
 62
    3
 10
547.43405808371506
 20
335.30000000001166
 11
537.43405808371597
 21
335.30000000001166
  0
LINE
  8
_0-a_
  6
CONTINUOUS
 62
    3
 10
537.43405808371597
 20
335.50000000001171
 11
537.43405808371597
 21
335.30000000001166
  0
LINE
  8
_0-a_
  6
CONTINUOUS
 62
    3
 10
545.18405808371506
 20
333.00000000001171
 11
545.18405808371506
 21
332.50000000001171
  0
LINE
  8
_0-a_
  6
CONTINUOUS
 62
    3
 10
539.68405808371597
 20
333.00000000001171
 11
539.68405808371597
 21
332.50000000001171
  0
LINE
  8
_0-a_
  6
CONTINUOUS
 62
    3
 10
539.68405808371597
 20
333.00000000001171
 11
545.18405808371506
 21
333.00000000001171
  0
LINE
  8
_0-a_
  6
CONTINUOUS
 62
    3
 10
542.73405808371524
 20
335.50000000001171
 11
542.43405808371506
 21
335.20000000001153
  0
LINE
  8
_0-a_
  6
CONTINUOUS
 62
    3
 10
542.43405808371506
 20
335.20000000001153
 11
542.13405808371579
 21
335.50000000001171
  0
LINE
  8
_0-a_
  6
CONTINUOUS
 62
    3
 10
547.43405808371506
 20
335.50000000001171
 11
537.43405808371597
 21
335.50000000001171
  0
LINE
  8
_0-a_
  6
CONTINUOUS
 62
    3
 10
553.93405808371597
 20
322.50000000001171
 11
553.93405808371597
 21
330.25000000001171
  0
ARC
  8
_0-a_
  6
CONTINUOUS
 62
    3
 10
535.93405808371597
 20
334.50000000001171
 40
1
 50
90
 51
180
  0
LINE
  8
_0-a_
  6
CONTINUOUS
 62
    3
 10
535.93405808371597
 20
335.50000000001171
 11
551.93405808371506
 21
335.50000000001171
  0
LINE
  8
_0-a_
  6
CONTINUOUS
 62
    3
 10
563.93405808371506
 20
331.00000000001171
 11
583.57827134037223
 21
331.00000000001171
  0
LINE
  8
_0-a_
  6
CONTINUOUS
 62
    3
 10
558.5321342950682
 20
331.00000000001171
 11
583.57827134037223
 21
331.00000000001171
  0
LINE
  8
_0-a_
  6
CONTINUOUS
 62
    3
 10
553.93405808371597
 20
322.50000000001171
 11
553.93405808371597
 21
330.25000000001171
  0
LINE
  8
_0-a_
  6
CONTINUOUS
 62
    3
 10
551.93405808372688
 20
335.50000000001171
 11
560.43405808371506
 21
335.50000000001171
  0
LINE
  8
_0-a_
  6
CONTINUOUS
 62
    3
 10
546.43405808371597
 20
328.50000000001171
 11
546.43405808371597
 21
327.00000000001171
  0
ARC
  8
_0-a_
  6
CONTINUOUS
 62
    3
 10
551.43405808371506
 20
325.50000000001171
 40
0.5
 50
270
 51
0
  0
LINE
  8
_0-a_
  6
CONTINUOUS
 62
    3
 10
550.43405808371597
 20
325.00000000001171
 11
551.43405808371506
 21
325.00000000001171
  0
ARC
  8
_0-a_
  6
CONTINUOUS
 62
    3
 10
550.43405808371597
 20
325.50000000001171
 40
0.5
 50
180
 51
270
  0
LINE
  8
_0-a_
  6
CONTINUOUS
 62
    3
 10
551.93405808371506
 20
325.50000000001171
 11
551.93405808371506
 21
334.00000000001171
  0
LINE
  8
_0-a_
  6
CONTINUOUS
 62
    3
 10
546.43405808371597
 20
332.50000000001171
 11
546.43405808371597
 21
328.50000000001171
  0
LINE
  8
_0-a_
  6
CONTINUOUS
 62
    3
 10
549.93405808371506
 20
328.50000000001171
 11
549.93405808371506
 21
325.00000000001171
  0
LINE
  8
_0-a_
  6
CONTINUOUS
 62
    3
 10
546.43405808371597
 20
328.50000000001171
 11
549.93405808371506
 21
328.50000000001171
  0
LINE
  8
_0-a_
  6
CONTINUOUS
 62
    3
 10
549.93405808371597
 20
303.00000000001171
 11
549.93405808371597
 21
321.00000000001171
  0
LINE
  8
_0-a_
  6
CONTINUOUS
 62
    3
 10
549.93405808371597
 20
303.00000000001171
 11
549.93405808371597
 21
321.00000000001171
  0
LINE
  8
_0-a_
  6
CONTINUOUS
 62
    3
 10
547.43405808371597
 20
323.50000000001171
 11
547.43405808371597
 21
307.50000000001171
  0
LINE
  8
_0-a_
  6
CONTINUOUS
 62
    3
 10
547.43405808371506
 20
323.50000000001171
 11
547.43405808371506
 21
307.50000000001171
  0
LINE
  8
_0-a_
  6
CONTINUOUS
 62
    3
 10
542.73405808371524
 20
327.00000000001171
 11
542.43405808371597
 21
326.70000000001198
  0
LINE
  8
_0-a_
  6
CONTINUOUS
 62
    3
 10
542.43405808371597
 20
326.70000000001198
 11
542.13405808371488
 21
327.00000000001171
  0
LINE
  8
_0-a_
  6
CONTINUOUS
 62
    3
 10
544.18405808371597
 20
323.20000000001153
 11
544.18405808371597
 21
317.85677313260715
  0
LINE
  8
_0-a_
  6
CONTINUOUS
 62
    3
 10
544.22405808371593
 20
328.00301343868466
 11
544.22405808371593
 21
327.20738171935443
  0
LINE
  8
_0-a_
  6
CONTINUOUS
 62
    3
 10
544.22405808371593
 20
326.50301343868466
 11
544.22405808371593
 21
325.70738171935443
  0
LINE
  8
_0-a_
  6
CONTINUOUS
 62
    3
 10
544.22405808371593
 20
325.00301343868466
 11
544.22405808371593
 21
323.20000000001153
  0
LINE
  8
_0-a_
  6
CONTINUOUS
 62
    3
 10
544.22405808371593
 20
329.20000000001153
 11
544.22405808371593
 21
328.70738171935443
  0
LINE
  8
_0-a_
  6
CONTINUOUS
 62
    3
 10
540.64405808371509
 20
323.70000000001153
 11
540.64405808371509
 21
323.20000000001153
  0
LINE
  8
_0-a_
  6
CONTINUOUS
 62
    3
 10
540.64405808371509
 20
325.20000000001153
 11
540.64405808371509
 21
324.4043682806813
  0
LINE
  8
_0-a_
  6
CONTINUOUS
 62
    3
 10
540.64405808371509
 20
326.70000000001153
 11
540.64405808371509
 21
325.9043682806813
  0
LINE
  8
_0-a_
  6
CONTINUOUS
 62
    3
 10
540.64405808371509
 20
328.20000000001153
 11
540.64405808371509
 21
327.4043682806813
  0
LINE
  8
_0-a_
  6
CONTINUOUS
 62
    3
 10
540.64405808371509
 20
329.20000000001153
 11
540.64405808371509
 21
328.9043682806813
  0
LINE
  8
_0-a_
  6
CONTINUOUS
 62
    3
 10
542.43405808371597
 20
329.20369085968298
 11
540.03405808371542
 21
328.55218414034641
  0
LINE
  8
_0-a_
  6
CONTINUOUS
 62
    3
 10
540.64405808371509
 20
328.20000000001153
 11
542.43405808371597
 21
328.85150671934809
  0
LINE
  8
_0-a_
  6
CONTINUOUS
 62
    3
 10
540.64405808371509
 20
328.9043682806813
 11
541.45629955705033
 21
329.20000000001153
  0
LINE
  8
_0-a_
  6
CONTINUOUS
 62
    3
 10
544.48405808371524
 20
323.20000000001153
 11
544.48405808371524
 21
317.6835680518501
  0
LINE
  8
_0-a_
  6
CONTINUOUS
 62
    3
 10
544.48405808371524
 20
323.20000000001153
 11
540.38405808371579
 21
323.20000000001153
  0
LINE
  8
_0-a_
  6
CONTINUOUS
 62
    3
 10
540.38405808371579
 20
323.20000000001153
 11
540.38405808371579
 21
317.6835680518501
  0
LINE
  8
_0-a_
  6
CONTINUOUS
 62
    3
 10
540.03405808371542
 20
328.55218414034641
 11
540.64405808371509
 21
328.9043682806813
  0
LINE
  8
_0-a_
  6
CONTINUOUS
 62
    3
 10
540.64405808371509
 20
328.20000000001153
 11
540.03405808371542
 21
328.55218414034641
  0
LINE
  8
_0-a_
  6
CONTINUOUS
 62
    3
 10
544.8340580837156
 20
328.35519757901955
 11
540.03405808371542
 21
327.05218414034641
  0
LINE
  8
_0-a_
  6
CONTINUOUS
 62
    3
 10
540.64405808371509
 20
326.70000000001153
 11
544.22405808371593
 21
328.00301343868466
  0
LINE
  8
_0-a_
  6
CONTINUOUS
 62
    3
 10
540.64405808371509
 20
327.4043682806813
 11
544.22405808371593
 21
328.70738171935443
  0
LINE
  8
_0-a_
  6
CONTINUOUS
 62
    3
 10
540.03405808371542
 20
327.05218414034641
 11
540.64405808371509
 21
327.4043682806813
  0
LINE
  8
_0-a_
  6
CONTINUOUS
 62
    3
 10
540.64405808371509
 20
326.70000000001153
 11
540.03405808371542
 21
327.05218414034641
  0
LINE
  8
_0-a_
  6
CONTINUOUS
 62
    3
 10
544.8340580837156
 20
328.35519757901955
 11
544.22405808371593
 21
328.00301343868466
  0
LINE
  8
_0-a_
  6
CONTINUOUS
 62
    3
 10
544.22405808371593
 20
328.70738171935443
 11
544.8340580837156
 21
328.35519757901955
  0
LINE
  8
_0-a_
  6
CONTINUOUS
 62
    3
 10
544.8340580837156
 20
326.85519757901955
 11
540.03405808371542
 21
325.55218414034641
  0
LINE
  8
_0-a_
  6
CONTINUOUS
 62
    3
 10
540.64405808371509
 20
325.20000000001153
 11
544.22405808371593
 21
326.50301343868466
  0
LINE
  8
_0-a_
  6
CONTINUOUS
 62
    3
 10
540.64405808371509
 20
325.9043682806813
 11
544.22405808371593
 21
327.20738171935443
  0
LINE
  8
_0-a_
  6
CONTINUOUS
 62
    3
 10
540.03405808371542
 20
325.55218414034641
 11
540.64405808371509
 21
325.9043682806813
  0
LINE
  8
_0-a_
  6
CONTINUOUS
 62
    3
 10
540.64405808371509
 20
325.20000000001153
 11
540.03405808371542
 21
325.55218414034641
  0
LINE
  8
_0-a_
  6
CONTINUOUS
 62
    3
 10
544.8340580837156
 20
326.85519757901955
 11
544.22405808371593
 21
326.50301343868466
  0
LINE
  8
_0-a_
  6
CONTINUOUS
 62
    3
 10
544.22405808371593
 20
327.20738171935443
 11
544.8340580837156
 21
326.85519757901955
  0
LINE
  8
_0-a_
  6
CONTINUOUS
 62
    3
 10
544.8340580837156
 20
325.35519757901955
 11
540.03405808371542
 21
324.05218414034641
  0
LINE
  8
_0-a_
  6
CONTINUOUS
 62
    3
 10
540.64405808371509
 20
323.70000000001153
 11
544.22405808371593
 21
325.00301343868466
  0
LINE
  8
_0-a_
  6
CONTINUOUS
 62
    3
 10
540.64405808371509
 20
324.4043682806813
 11
544.22405808371593
 21
325.70738171935443
  0
LINE
  8
_0-a_
  6
CONTINUOUS
 62
    3
 10
540.03405808371542
 20
324.05218414034641
 11
540.64405808371509
 21
324.4043682806813
  0
LINE
  8
_0-a_
  6
CONTINUOUS
 62
    3
 10
540.64405808371509
 20
323.70000000001153
 11
540.03405808371542
 21
324.05218414034641
  0
LINE
  8
_0-a_
  6
CONTINUOUS
 62
    3
 10
544.8340580837156
 20
325.35519757901955
 11
544.22405808371593
 21
325.00301343868466
  0
LINE
  8
_0-a_
  6
CONTINUOUS
 62
    3
 10
544.22405808371593
 20
325.70738171935443
 11
544.8340580837156
 21
325.35519757901955
  0
LINE
  8
_0-a_
  6
CONTINUOUS
 62
    3
 10
542.43405808371597
 20
316.84641016152534
 11
541.31374877083533
 21
323.20000000001153
  0
LINE
  8
_0-a_
  6
CONTINUOUS
 62
    3
 10
542.43405808371597
 20
316.84641016152534
 11
540.68405808371597
 21
317.85677313260715
  0
LINE
  8
_0-a_
  6
CONTINUOUS
 62
    3
 10
540.68405808371597
 20
323.20000000001153
 11
540.68405808371597
 21
317.85677313260715
  0
LINE
  8
_0-a_
  6
CONTINUOUS
 62
    3
 10
544.22405808371593
 20
323.70000000001153
 11
544.22405808371593
 21
323.20000000001153
  0
LINE
  8
_0-a_
  6
CONTINUOUS
 62
    3
 10
540.38405808371579
 20
323.20000000001153
 11
540.38405808371579
 21
317.6835680518501
  0
LINE
  8
_0-a_
  6
CONTINUOUS
 62
    3
 10
540.38405808371579
 20
323.20000000001153
 11
544.48405808371524
 21
323.20000000001153
  0
LINE
  8
_0-a_
  6
CONTINUOUS
 62
    3
 10
544.48405808371524
 20
323.20000000001153
 11
544.48405808371524
 21
317.6835680518501
  0
LINE
  8
_0-a_
  6
CONTINUOUS
 62
    3
 10
542.43405808371597
 20
316.50000000001171
 11
540.38405808371579
 21
317.6835680518501
  0
LINE
  8
_0-a_
  6
CONTINUOUS
 62
    3
 10
542.43405808371597
 20
316.50000000001171
 11
544.48405808371524
 21
317.6835680518501
  0
LINE
  8
_0-a_
  6
CONTINUOUS
 62
    3
 10
544.3340580837156
 20
332.20000000001153
 11
540.53405808371633
 21
332.20000000001153
  0
LINE
  8
_0-a_
  6
CONTINUOUS
 62
    3
 10
544.22405808371593
 20
331.00301343868466
 11
544.22405808371593
 21
330.20738171935443
  0
LINE
  8
_0-a_
  6
CONTINUOUS
 62
    3
 10
544.22405808371593
 20
329.50301343868466
 11
544.22405808371593
 21
328.70738171935443
  0
LINE
  8
_0-a_
  6
CONTINUOUS
 62
    3
 10
544.22405808371593
 20
332.20000000001153
 11
544.22405808371593
 21
331.70738171935443
  0
LINE
  8
_0-a_
  6
CONTINUOUS
 62
    3
 10
540.64405808371509
 20
329.70000000001153
 11
540.64405808371509
 21
328.9043682806813
  0
LINE
  8
_0-a_
  6
CONTINUOUS
 62
    3
 10
540.64405808371509
 20
331.20000000001153
 11
540.64405808371509
 21
330.4043682806813
  0
LINE
  8
_0-a_
  6
CONTINUOUS
 62
    3
 10
540.64405808371509
 20
332.20000000001153
 11
540.64405808371509
 21
331.9043682806813
  0
LINE
  8
_0-a_
  6
CONTINUOUS
 62
    3
 10
542.43405808371597
 20
332.20369085968298
 11
540.03405808371542
 21
331.55218414034641
  0
LINE
  8
_0-a_
  6
CONTINUOUS
 62
    3
 10
540.64405808371509
 20
331.20000000001153
 11
542.43405808371597
 21
331.85150671934809
  0
LINE
  8
_0-a_
  6
CONTINUOUS
 62
    3
 10
540.64405808371509
 20
331.9043682806813
 11
541.45629955705033
 21
332.20000000001153
  0
LINE
  8
_0-a_
  6
CONTINUOUS
 62
    3
 10
540.03405808371542
 20
331.55218414034641
 11
540.64405808371509
 21
331.9043682806813
  0
LINE
  8
_0-a_
  6
CONTINUOUS
 62
    3
 10
540.64405808371509
 20
331.20000000001153
 11
540.03405808371542
 21
331.55218414034641
  0
LINE
  8
_0-a_
  6
CONTINUOUS
 62
    3
 10
540.64405808371509
 20
329.70000000001153
 11
544.22405808371593
 21
331.00301343868466
  0
LINE
  8
_0-a_
  6
CONTINUOUS
 62
    3
 10
540.64405808371509
 20
330.4043682806813
 11
544.22405808371593
 21
331.70738171935443
  0
LINE
  8
_0-a_
  6
CONTINUOUS
 62
    3
 10
540.03405808371542
 20
330.05218414034641
 11
540.64405808371509
 21
330.4043682806813
  0
LINE
  8
_0-a_
  6
CONTINUOUS
 62
    3
 10
540.64405808371509
 20
329.70000000001153
 11
540.03405808371542
 21
330.05218414034641
  0
LINE
  8
_0-a_
  6
CONTINUOUS
 62
    3
 10
544.8340580837156
 20
331.35519757901955
 11
544.22405808371593
 21
331.00301343868466
  0
LINE
  8
_0-a_
  6
CONTINUOUS
 62
    3
 10
544.22405808371593
 20
331.70738171935443
 11
544.8340580837156
 21
331.35519757901955
  0
LINE
  8
_0-a_
  6
CONTINUOUS
 62
    3
 10
544.8340580837156
 20
329.85519757901955
 11
540.03405808371542
 21
328.55218414034641
  0
LINE
  8
_0-a_
  6
CONTINUOUS
 62
    3
 10
540.64405808371509
 20
328.20000000001153
 11
544.22405808371593
 21
329.50301343868466
  0
LINE
  8
_0-a_
  6
CONTINUOUS
 62
    3
 10
540.64405808371509
 20
328.9043682806813
 11
544.22405808371593
 21
330.20738171935443
  0
LINE
  8
_0-a_
  6
CONTINUOUS
 62
    3
 10
540.03405808371542
 20
328.55218414034641
 11
540.64405808371509
 21
328.9043682806813
  0
LINE
  8
_0-a_
  6
CONTINUOUS
 62
    3
 10
540.64405808371509
 20
328.20000000001153
 11
540.03405808371542
 21
328.55218414034641
  0
LINE
  8
_0-a_
  6
CONTINUOUS
 62
    3
 10
544.8340580837156
 20
329.85519757901955
 11
544.22405808371593
 21
329.50301343868466
  0
LINE
  8
_0-a_
  6
CONTINUOUS
 62
    3
 10
544.22405808371593
 20
330.20738171935443
 11
544.8340580837156
 21
329.85519757901955
  0
LINE
  8
_0-a_
  6
CONTINUOUS
 62
    3
 10
544.8340580837156
 20
328.35519757901955
 11
544.22405808371593
 21
328.00301343868466
  0
LINE
  8
_0-a_
  6
CONTINUOUS
 62
    3
 10
544.22405808371593
 20
328.70738171935443
 11
544.8340580837156
 21
328.35519757901955
  0
LINE
  8
_0-a_
  6
CONTINUOUS
 62
    3
 10
335.93405808371597
 20
331.00000000001171
 11
534.93405808371597
 21
331.00000000001171
  0
LINE
  8
_0-a_
  6
CONTINUOUS
 62
    3
 10
326.93405808371597
 20
328.50000000001171
 11
538.43405808371506
 21
328.50000000001171
  0
LINE
  8
_0-a_
  6
CONTINUOUS
 62
    3
 10
166.43405808371733
 20
328.80000000002303
 11
429.43405808371597
 21
328.80000000002303
  0
LINE
  8
_0-a_
  6
CONTINUOUS
 62
    3
 10
166.43405808371733
 20
325.80000000002303
 11
429.43405808371597
 21
325.80000000002303
  0
LINE
  8
_0-a_
  6
CONTINUOUS
 62
    3
 10
435.43405808371597
 20
323.80000000001189
 11
435.43405808371597
 21
316.80000000001189
  0
LINE
  8
_0-a_
  6
CONTINUOUS
 62
    3
 10
435.43405808371597
 20
323.80000000001189
 11
435.43405808371597
 21
316.80000000001189
  0
LINE
  8
_0-a_
  6
CONTINUOUS
 62
    3
 10
435.43405808371597
 20
316.80000000001189
 11
433.43405808371597
 21
316.80000000001189
  0
LINE
  8
_0-a_
  6
CONTINUOUS
 62
    3
 10
435.43405808371597
 20
323.80000000001189
 11
435.43405808371597
 21
316.80000000001189
  0
LINE
  8
_0-a_
  6
CONTINUOUS
 62
    3
 10
429.43405808371597
 20
325.80000000001189
 11
429.43405808371597
 21
328.80000000001189
  0
LINE
  8
_0-a_
  6
CONTINUOUS
 62
    3
 10
433.43405808371597
 20
322.80000000001189
 11
433.43405808371597
 21
316.80000000001189
  0
LINE
  8
_0-a_
  6
CONTINUOUS
 62
    3
 10
379.43405808371597
 20
306.50000000001171
 11
332.93405808371597
 21
306.50000000001171
  0
LINE
  8
_0-a_
  6
CONTINUOUS
 62
    3
 10
166.43405808371733
 20
325.80000000002303
 11
166.43405808371733
 21
328.30000000002303
  0
LINE
  8
_0-a_
  6
CONTINUOUS
 62
    3
 10
431.43405808371597
 20
328.50000000001171
 11
429.43405808371597
 21
328.50000000001171
  0
LINE
  8
_0-a_
  6
CONTINUOUS
 62
    3
 10
431.43405808371597
 20
328.50000000001171
 11
435.43405808371597
 21
323.80000000001189
  0
LINE
  8
_0-a_
  6
CONTINUOUS
 62
    3
 10
164.43405808371688
 20
328.50000000001171
 11
160.43405808371733
 21
323.80000000002303
  0
ARC
  8
_0-a_
  6
CONTINUOUS
 62
    3
 10
560.93405808371506
 20
334.50000000001171
 40
1
 50
0
 51
90
  0
LINE
  8
_0-a_
  6
CONTINUOUS
 62
    3
 10
561.93405808371506
 20
334.50000000001171
 11
561.93405808371506
 21
334.00000000001171
  0
LINE
  8
_0-a_
  6
CONTINUOUS
 62
    3
 10
560.93405808371506
 20
335.50000000001171
 11
558.83598187236009
 21
335.50000000001171
  0
LINE
  8
_0-a_
  6
CONTINUOUS
 62
    3
 10
326.93405808371597
 20
328.50000000001171
 11
326.93405808371597
 21
330.50000000001171
  0
LINE
  8
_0-a_
  6
CONTINUOUS
 62
    3
 10
334.63405808371579
 20
335.00000000001171
 11
326.93405808371597
 21
330.50000000001171
  0
LINE
  8
_0-a_
  6
CONTINUOUS
 62
    3
 10
326.93405808371597
 20
328.50000000001171
 11
326.93405808371597
 21
330.50000000001171
  0
ARC
  8
_0-a_
  6
CONTINUOUS
 62
    3
 10
334.93405808371597
 20
334.00000000001171
 40
1
 50
0
 51
90
  0
LINE
  8
_0-a_
  6
CONTINUOUS
 62
    3
 10
335.93405808371597
 20
334.00000000001171
 11
335.93405808371597
 21
331.00000000001171
  0
LINE
  8
_0-a_
  6
CONTINUOUS
 62
    3
 10
334.93405808371597
 20
335.00000000001171
 11
334.63405808371579
 21
335.00000000001171
  0
ARC
  8
_0-a_
  6
CONTINUOUS
 62
    3
 10
334.93405808371597
 20
334.00000000001171
 40
1
 50
0
 51
90
  0
LINE
  8
_0-a_
  6
CONTINUOUS
 62
    3
 10
334.63405808371579
 20
335.00000000001171
 11
334.93405808371597
 21
335.00000000001171
  0
LINE
  8
_0-a_
  6
CONTINUOUS
 62
    3
 10
162.93405808371733
 20
334.00000000001171
 11
162.93405808371733
 21
331.00000000001171
  0
LINE
  8
_0-a_
  6
CONTINUOUS
 62
    3
 10
171.93405808371733
 20
328.50000000001171
 11
171.93405808371733
 21
330.50000000001171
  0
ARC
  8
_0-a_
  6
CONTINUOUS
 62
    3
 10
163.93405808371733
 20
334.00000000001171
 40
1
 50
90
 51
180
  0
LINE
  8
_0-a_
  6
CONTINUOUS
 62
    3
 10
171.93405808371733
 20
328.50000000001171
 11
171.93405808371733
 21
330.50000000001171
  0
LINE
  8
_0-a_
  6
CONTINUOUS
 62
    3
 10
164.23405808371751
 20
335.00000000001171
 11
171.93405808371733
 21
330.50000000001171
  0
LINE
  8
_0-a_
  6
CONTINUOUS
 62
    3
 10
171.93405808371733
 20
328.50000000001171
 11
171.93405808371733
 21
330.50000000001171
  0
ARC
  8
_0-a_
  6
CONTINUOUS
 62
    3
 10
163.93405808371733
 20
334.00000000001171
 40
1
 50
90
 51
180
  0
LINE
  8
_0-a_
  6
CONTINUOUS
 62
    3
 10
162.93405808371733
 20
334.00000000001171
 11
162.93405808371733
 21
331.00000000001171
  0
LINE
  8
_0-a_
  6
CONTINUOUS
 62
    3
 10
163.93405808371733
 20
335.00000000001171
 11
164.23405808371751
 21
335.00000000001171
  0
ARC
  8
_0-a_
  6
CONTINUOUS
 62
    3
 10
163.93405808371733
 20
334.00000000001171
 40
1
 50
90
 51
180
  0
LINE
  8
_0-a_
  6
CONTINUOUS
 62
    3
 10
164.23405808371751
 20
335.00000000001171
 11
163.93405808371733
 21
335.00000000001171
  0
LINE
  8
_0-a_
  6
CONTINUOUS
 62
    3
 10
166.43405808371733
 20
328.80000000002303
 11
166.43405808371733
 21
328.30000000002303
  0
LINE
  8
_0-a_
  6
CONTINUOUS
 62
    3
 10
96.434058083714604
 20
324.00000000001171
 11
96.434058083714604
 21
307.50000000001171
  0
ARC
  8
_0-a_
  6
CONTINUOUS
 62
    3
 10
98.434058083714604
 20
307.50000000001148
 40
2
 50
180
 51
270
  0
LINE
  8
_0-a_
  6
CONTINUOUS
 62
    3
 10
108.9340580837146
 20
334.50000000001148
 11
108.9340580837146
 21
331.00000000001171
  0
LINE
  8
_0-a_
  6
CONTINUOUS
 62
    3
 10
106.93405808371551
 20
324.50000000001171
 11
97.434058083715058
 21
324.50000000001171
  0
LINE
  8
_0-a_
  6
CONTINUOUS
 62
    3
 10
108.9340580837146
 20
328.50000000001171
 11
108.9340580837146
 21
326.50000000001171
  0
ARC
  8
_0-a_
  6
CONTINUOUS
 62
    3
 10
106.93405808371551
 20
326.50000000001171
 40
2
 50
270
 51
0
  0
ARC
  8
_0-a_
  6
CONTINUOUS
 62
    3
 10
97.434058083715058
 20
323.50000000001171
 40
1
 50
90
 51
180
  0
ARC
  8
_0-a_
  6
CONTINUOUS
 62
    3
 10
106.93405808371551
 20
326.50000000001171
 40
2
 50
270
 51
0
  0
LINE
  8
_0-a_
  6
CONTINUOUS
 62
    3
 10
105.43405808371551
 20
328.50000000001171
 11
108.9340580837146
 21
328.50000000001171
  0
LINE
  8
_0-a_
  6
CONTINUOUS
 62
    3
 10
93.934058083715513
 20
324.00000000001171
 11
93.934058083715513
 21
327.83157694661247
  0
LINE
  8
_0-a_
  6
CONTINUOUS
 62
    3
 10
93.934058083714604
 20
324.00000000001171
 11
93.934058083714604
 21
328.50000000001171
  0
LINE
  8
_0-a_
  6
CONTINUOUS
 62
    3
 10
91.434058083715058
 20
323.50000000001171
 11
93.434058083715513
 21
323.50000000001171
  0
ARC
  8
_0-a_
  6
CONTINUOUS
 62
    3
 10
92.934058083715513
 20
321.00000000001171
 40
1
 50
0
 51
90
  0
ARC
  8
_0-a_
  6
CONTINUOUS
 62
    3
 10
93.434058083715513
 20
324.00000000001171
 40
0.5
 50
270
 51
0
  0
LINE
  8
_0-a_
  6
CONTINUOUS
 62
    3
 10
91.434058083715058
 20
330.25000000001171
 11
91.434058083715058
 21
323.50000000001171
  0
LINE
  8
_0-a_
  6
CONTINUOUS
 62
    3
 10
93.934058083714604
 20
324.02598353497376
 11
93.934058083714604
 21
326.00000000002285
  0
LINE
  8
_0-a_
  6
CONTINUOUS
 62
    3
 10
97.434058083715058
 20
332.50000000001171
 11
105.43405808371551
 21
332.50000000001171
  0
LINE
  8
_0-a_
  6
CONTINUOUS
 62
    3
 10
105.43405808371551
 20
327.00000000001171
 11
105.43405808371551
 21
332.50000000001171
  0
LINE
  8
_0-a_
  6
CONTINUOUS
 62
    3
 10
98.684058083715513
 20
332.50000000001148
 11
104.18405808371506
 21
332.50000000001148
  0
LINE
  8
_0-a_
  6
CONTINUOUS
 62
    3
 10
96.434058083715513
 20
335.30000000001144
 11
99.534058083715877
 21
332.20000000001153
  0
LINE
  8
_0-a_
  6
CONTINUOUS
 62
    3
 10
106.43405808371506
 20
335.30000000001144
 11
103.33405808371515
 21
332.20000000001153
  0
LINE
  8
_0-a_
  6
CONTINUOUS
 62
    3
 10
96.434058083715513
 20
335.50000000001148
 11
96.434058083715513
 21
335.30000000001144
  0
LINE
  8
_0-a_
  6
CONTINUOUS
 62
    3
 10
96.434058083715513
 20
335.30000000001144
 11
106.43405808371506
 21
335.30000000001144
  0
LINE
  8
_0-a_
  6
CONTINUOUS
 62
    3
 10
106.43405808371506
 20
335.50000000001148
 11
106.43405808371506
 21
335.30000000001144
  0
LINE
  8
_0-a_
  6
CONTINUOUS
 62
    3
 10
98.684058083715513
 20
333.00000000001171
 11
98.684058083715513
 21
332.50000000001148
  0
LINE
  8
_0-a_
  6
CONTINUOUS
 62
    3
 10
104.18405808371506
 20
333.00000000001171
 11
104.18405808371506
 21
332.50000000001148
  0
LINE
  8
_0-a_
  6
CONTINUOUS
 62
    3
 10
104.18405808371506
 20
333.00000000001171
 11
98.684058083715513
 21
333.00000000001171
  0
LINE
  8
_0-a_
  6
CONTINUOUS
 62
    3
 10
101.13405808371533
 20
335.50000000001148
 11
101.43405808371551
 21
335.2000000000113
  0
LINE
  8
_0-a_
  6
CONTINUOUS
 62
    3
 10
101.43405808371551
 20
335.2000000000113
 11
101.73405808371524
 21
335.50000000001148
  0
LINE
  8
_0-a_
  6
CONTINUOUS
 62
    3
 10
96.434058083715513
 20
335.50000000001148
 11
106.43405808371506
 21
335.50000000001148
  0
ARC
  8
_0-a_
  6
CONTINUOUS
 62
    3
 10
107.9340580837146
 20
334.50000000001148
 40
1
 50
0
 51
90
  0
LINE
  8
_0-a_
  6
CONTINUOUS
 62
    3
 10
86.942859648506214
 20
334.00000000001148
 11
90.934058083715968
 21
334.00000000001148
  0
LINE
  8
_0-a_
  6
CONTINUOUS
 62
    3
 10
107.9340580837146
 20
335.50000000001148
 11
91.934058083715968
 21
335.50000000001148
  0
LINE
  8
_0-a_
  6
CONTINUOUS
 62
    3
 10
91.93405808370369
 20
335.50000000001148
 11
83.434058083715968
 21
335.50000000001148
  0
LINE
  8
_0-a_
  6
CONTINUOUS
 62
    3
 10
97.434058083715058
 20
328.50000000001171
 11
97.434058083715058
 21
327.00000000001171
  0
ARC
  8
_0-a_
  6
CONTINUOUS
 62
    3
 10
92.434058083715968
 20
325.50000000001171
 40
0.5
 50
180
 51
270
  0
LINE
  8
_0-a_
  6
CONTINUOUS
 62
    3
 10
93.434058083715058
 20
325.00000000001171
 11
92.434058083715968
 21
325.00000000001171
  0
ARC
  8
_0-a_
  6
CONTINUOUS
 62
    3
 10
93.434058083715058
 20
325.50000000001171
 40
0.5
 50
270
 51
0
  0
LINE
  8
_0-a_
  6
CONTINUOUS
 62
    3
 10
91.934058083715968
 20
325.50000000001171
 11
91.934058083715968
 21
334.00000000001148
  0
LINE
  8
_0-a_
  6
CONTINUOUS
 62
    3
 10
97.434058083715058
 20
332.50000000001171
 11
97.434058083715058
 21
328.50000000001171
  0
LINE
  8
_0-a_
  6
CONTINUOUS
 62
    3
 10
93.934058083715513
 20
328.50000000001171
 11
93.934058083715513
 21
325.00000000001171
  0
LINE
  8
_0-a_
  6
CONTINUOUS
 62
    3
 10
97.434058083715058
 20
328.50000000001171
 11
93.934058083715513
 21
328.50000000001171
  0
LINE
  8
_0-a_
  6
CONTINUOUS
 62
    3
 10
93.934058083714604
 20
303.00000000001148
 11
93.934058083714604
 21
321.00000000001171
  0
LINE
  8
_0-a_
  6
CONTINUOUS
 62
    3
 10
93.934058083714604
 20
303.00000000001148
 11
93.934058083714604
 21
321.00000000001171
  0
LINE
  8
_0-a_
  6
CONTINUOUS
 62
    3
 10
96.434058083714604
 20
323.50000000001171
 11
96.434058083714604
 21
307.50000000001148
  0
LINE
  8
_0-a_
  6
CONTINUOUS
 62
    3
 10
96.434058083715968
 20
323.50000000001171
 11
96.434058083715968
 21
307.50000000001148
  0
LINE
  8
_0-a_
  6
CONTINUOUS
 62
    3
 10
99.534058083715422
 20
332.20000000001153
 11
103.33405808371469
 21
332.20000000001153
  0
ARC
  8
_0-a_
  6
CONTINUOUS
 62
    3
 10
82.934058083715968
 20
334.50000000001148
 40
1
 50
90
 51
180
  0
LINE
  8
_0-a_
  6
CONTINUOUS
 62
    3
 10
81.934058083715968
 20
334.50000000001148
 11
81.934058083715968
 21
334.00000000001148
  0
LINE
  8
_0-a_
  6
CONTINUOUS
 62
    3
 10
82.934058083716877
 20
334.00000000001148
 11
82.942859648507124
 21
334.00000000001148
  0
LINE
  8
_0-a_
  6
CONTINUOUS
 62
    3
 10
82.934058083715968
 20
335.50000000001148
 11
85.032134295070477
 21
335.50000000001148
  0
LINE
  8
_0-a_
  6
CONTINUOUS
 62
    3
 10
92.934058083715513
 20
322.00000000001171
 11
90.434058083715058
 21
322.00000000001171
  0
LINE
  8
_0-a_
  6
CONTINUOUS
 62
    3
 10
162.93405808371733
 20
334.00000000001171
 11
108.9340580837146
 21
334.00000000001171
  0
LINE
  8
_0-a_
  6
CONTINUOUS
 62
    3
 10
91.934058083715968
 20
334.00000000001148
 11
59.789844827061074
 21
334.00000000001148
  0
LINE
  8
_0-a_
  6
CONTINUOUS
 62
    3
 10
162.93405808371733
 20
331.00000000001171
 11
108.9340580837146
 21
331.00000000001171
  0
LINE
  8
_0-a_
  6
CONTINUOUS
 62
    3
 10
109.93405808371824
 20
331.00000000001148
 11
108.9340580837146
 21
331.00000000001148
  0
LINE
  8
_0-a_
  6
CONTINUOUS
 62
    3
 10
526.43405808371506
 20
307.00000000001125
 11
526.32514529991465
 21
308.24487881501148
  0
LINE
  8
_0-a_
  6
CONTINUOUS
 62
    3
 10
517.54297086741451
 20
308.24487881501148
 11
517.43405808371506
 21
307.00000000001125
  0
ARC
  8
_0-a_
  6
CONTINUOUS
 62
    3
 10
518.52920361861368
 20
308.15859462971127
 40
0.9899999999999997
 50
127.36755803205183
 51
175.0000000012005
  0
ARC
  8
_0-a_
  6
CONTINUOUS
 62
    3
 10
525.33891254881462
 20
308.15859462971127
 40
0.9899999999999997
 50
4.9999999987995034
 51
52.632441967948175
  0
ARC
  8
_0-a_
  6
CONTINUOUS
 62
    3
 10
521.93405808371415
 20
303.7000000000113
 40
6.5999999999999996
 50
52.632441967704736
 51
68.266383543398021
  0
ARC
  8
_0-a_
  6
CONTINUOUS
 62
    3
 10
521.93405808371415
 20
303.7000000000113
 40
6.5999999999999996
 50
111.74840859090317
 51
127.36755803230515
  0
LINE
  8
_0-a_
  6
CONTINUOUS
 62
    3
 10
522.24905808371466
 20
310.25912712961156
 11
522.24905808371466
 21
309.82331223961125
  0
LINE
  8
_0-a_
  6
CONTINUOUS
 62
    3
 10
522.59634676561552
 20
310.25912712961156
 11
522.24905808371466
 21
310.25912712961156
  0
LINE
  8
_0-a_
  6
CONTINUOUS
 62
    3
 10
524.37656135221448
 20
309.82331223961125
 11
522.59634676561552
 21
310.25912712961156
  0
LINE
  8
_0-a_
  6
CONTINUOUS
 62
    3
 10
521.27176940171455
 20
310.25912712961156
 11
519.97185913401415
 21
309.99369130821162
  0
LINE
  8
_0-a_
  6
CONTINUOUS
 62
    3
 10
519.97185913401415
 20
309.99369130821162
 11
519.49155481511559
 21
309.82331223961125
  0
LINE
  8
_0-a_
  6
CONTINUOUS
 62
    3
 10
521.61905808371455
 20
310.25912712961156
 11
521.27176940171455
 21
310.25912712961156
  0
LINE
  8
_0-a_
  6
CONTINUOUS
 62
    3
 10
521.61905808371455
 20
309.82331223961125
 11
521.61905808371455
 21
310.25912712961156
  0
LINE
  8
_0-a_
  6
CONTINUOUS
 62
    3
 10
522.24905808371466
 20
309.82331223961125
 11
521.93405808371415
 21
309.8284174140116
  0
LINE
  8
_0-a_
  6
CONTINUOUS
 62
    3
 10
521.93405808371415
 20
309.8284174140116
 11
521.61905808371455
 21
309.82331223961125
  0
LINE
  8
_0-a_
  6
CONTINUOUS
 62
    3
 10
514.43405808371506
 20
303.00000000001171
 11
514.43405808371506
 21
305.50000000001171
  0
LINE
  8
_0-a_
  6
CONTINUOUS
 62
    3
 10
521.93405808371597
 20
305.20000000001107
 11
521.6340580837167
 21
305.50000000001194
  0
LINE
  8
_0-a_
  6
CONTINUOUS
 62
    3
 10
522.23405808371615
 20
305.50000000001194
 11
521.93405808371597
 21
305.20000000001107
  0
LINE
  8
_0-a_
  6
CONTINUOUS
 62
    3
 10
79.434058083718696
 20
331.00000000001171
 11
59.789844827061074
 21
331.00000000001171
  0
LINE
  8
_0-a_
  6
CONTINUOUS
 62
    3
 10
162.93405808371733
 20
334.00000000001171
 11
162.93405808371733
 21
331.00000000001171
  0
LINE
  8
_0-a_
  6
CONTINUOUS
 62
    3
 10
162.93405808371733
 20
334.00000000001171
 11
162.93405808371733
 21
331.00000000001171
  0
LINE
  8
_0-a_
  6
CONTINUOUS
 62
    3
 10
108.93405808371506
 20
334.50000000001148
 11
108.93405808371506
 21
331.00000000001171
  0
ARC
  8
_0-a_
  6
CONTINUOUS
 62
    3
 10
90.684058083715513
 20
330.25000000001171
 40
0.75
 50
0
 51
180
  0
LINE
  8
_0-a_
  6
CONTINUOUS
 62
    3
 10
86.942859648506214
 20
334.00000000001148
 11
90.934058083716423
 21
334.00000000001148
  0
LINE
  8
_0-a_
  6
CONTINUOUS
 62
    3
 10
82.934058083717332
 20
334.00000000001148
 11
82.942859648507579
 21
334.00000000001148
  0
LINE
  8
_0-a_
  6
CONTINUOUS
 62
    3
 10
162.93405808371733
 20
334.00000000001171
 11
108.93405808371506
 21
334.00000000001171
  0
LINE
  8
_0-a_
  6
CONTINUOUS
 62
    3
 10
162.93405808371733
 20
331.00000000001171
 11
108.93405808371506
 21
331.00000000001171
  0
LINE
  8
_0-a_
  6
CONTINUOUS
 62
    3
 10
109.93405808371824
 20
331.00000000001148
 11
108.93405808371506
 21
331.00000000001148
  0
LINE
  8
_0-a_
  6
CONTINUOUS
 62
    3
 10
79.434058083718696
 20
331.00000000001148
 11
59.789844827061074
 21
331.00000000001148
  0
LINE
  8
_0-a_
  6
CONTINUOUS
 62
    3
 10
162.93405808371733
 20
334.00000000001148
 11
162.93405808371733
 21
331.00000000001148
  0
LINE
  8
_0-a_
  6
CONTINUOUS
 62
    3
 10
162.93405808371733
 20
334.00000000001148
 11
162.93405808371733
 21
331.00000000001148
  0
LINE
  8
_0-a_
  6
CONTINUOUS
 62
    3
 10
82.934058083717332
 20
334.00000000001125
 11
82.942859648507124
 21
334.00000000001125
  0
LINE
  8
_0-a_
  6
CONTINUOUS
 62
    3
 10
114.93405808371506
 20
334.00000000001148
 11
117.93405808371506
 21
331.00000000001148
  0
LINE
  8
_0-a_
  6
CONTINUOUS
 62
    3
 10
111.93405808371506
 20
331.00000000001148
 11
114.93405808371506
 21
334.00000000001148
  0
LINE
  8
_0-a_
  6
CONTINUOUS
 62
    3
 10
120.93405808371506
 20
334.00000000001148
 11
123.93405808371506
 21
331.00000000001148
  0
LINE
  8
_0-a_
  6
CONTINUOUS
 62
    3
 10
117.93405808371506
 20
331.00000000001148
 11
120.93405808371506
 21
334.00000000001148
  0
LINE
  8
_0-a_
  6
CONTINUOUS
 62
    3
 10
126.93405808371506
 20
334.00000000001148
 11
129.93405808371506
 21
331.00000000001148
  0
LINE
  8
_0-a_
  6
CONTINUOUS
 62
    3
 10
123.93405808371506
 20
331.00000000001148
 11
126.93405808371506
 21
334.00000000001148
  0
LINE
  8
_0-a_
  6
CONTINUOUS
 62
    3
 10
132.93405808371506
 20
334.00000000001148
 11
135.93405808371506
 21
331.00000000001148
  0
LINE
  8
_0-a_
  6
CONTINUOUS
 62
    3
 10
129.93405808371506
 20
331.00000000001148
 11
132.93405808371506
 21
334.00000000001148
  0
LINE
  8
_0-a_
  6
CONTINUOUS
 62
    3
 10
138.93405808371506
 20
334.00000000001148
 11
141.93405808371506
 21
331.00000000001148
  0
LINE
  8
_0-a_
  6
CONTINUOUS
 62
    3
 10
135.93405808371506
 20
331.00000000001148
 11
138.93405808371506
 21
334.00000000001148
  0
LINE
  8
_0-a_
  6
CONTINUOUS
 62
    3
 10
144.93405808371506
 20
334.00000000001148
 11
147.93405808371506
 21
331.00000000001148
  0
LINE
  8
_0-a_
  6
CONTINUOUS
 62
    3
 10
141.93405808371506
 20
331.00000000001148
 11
144.93405808371506
 21
334.00000000001148
  0
LINE
  8
_0-a_
  6
CONTINUOUS
 62
    3
 10
150.93405808371506
 20
334.00000000001148
 11
153.93405808371506
 21
331.00000000001148
  0
LINE
  8
_0-a_
  6
CONTINUOUS
 62
    3
 10
147.93405808371506
 20
331.00000000001148
 11
150.93405808371506
 21
334.00000000001148
  0
LINE
  8
_0-a_
  6
CONTINUOUS
 62
    3
 10
156.93405808371506
 20
334.00000000001148
 11
159.93405808371506
 21
331.00000000001148
  0
LINE
  8
_0-a_
  6
CONTINUOUS
 62
    3
 10
153.93405808371506
 20
331.00000000001148
 11
156.93405808371506
 21
334.00000000001148
  0
LINE
  8
_0-a_
  6
CONTINUOUS
 62
    3
 10
159.93405808371506
 20
331.00000000001148
 11
162.93405808371506
 21
334.00000000001148
  0
LINE
  8
_0-a_
  6
CONTINUOUS
 62
    3
 10
85.335981872362368
 20
331.00000000001125
 11
89.934058083714149
 21
331.00000000001125
  0
LINE
  8
_0-a_
  6
CONTINUOUS
 62
    3
 10
89.934058083714149
 20
331.00000000001125
 11
59.789844827061074
 21
331.00000000001125
  0
LINE
  8
_0-a_
  6
CONTINUOUS
 62
    3
 10
68.934058083714149
 20
334.00000000001125
 11
71.934058083714149
 21
331.00000000001125
  0
LINE
  8
_0-a_
  6
CONTINUOUS
 62
    3
 10
65.934058083714149
 20
331.00000000001125
 11
68.934058083714149
 21
334.00000000001125
  0
LINE
  8
_0-a_
  6
CONTINUOUS
 62
    3
 10
74.934058083714149
 20
334.00000000001125
 11
77.934058083714149
 21
331.00000000001125
  0
LINE
  8
_0-a_
  6
CONTINUOUS
 62
    3
 10
71.934058083714149
 20
331.00000000001125
 11
74.934058083714149
 21
334.00000000001125
  0
LINE
  8
_0-a_
  6
CONTINUOUS
 62
    3
 10
80.934058083714149
 20
334.00000000001125
 11
83.934058083714149
 21
331.00000000001125
  0
LINE
  8
_0-a_
  6
CONTINUOUS
 62
    3
 10
77.934058083714149
 20
331.00000000001125
 11
80.934058083714149
 21
334.00000000001125
  0
LINE
  8
_0-a_
  6
CONTINUOUS
 62
    3
 10
83.934058083714149
 20
331.00000000001125
 11
86.934058083714149
 21
334.00000000001125
  0
LINE
  8
_0-a_
  6
CONTINUOUS
 62
    3
 10
108.93405808371506
 20
334.00000000001148
 11
111.93405808371506
 21
331.00000000001148
  0
LINE
  8
_0-a_
  6
CONTINUOUS
 62
    3
 10
89.934058083715513
 20
331.00000000001148
 11
59.789844827061074
 21
331.00000000001148
  0
LINE
  8
_0-a_
  6
CONTINUOUS
 62
    3
 10
86.934058083714149
 20
334.00000000001125
 11
89.934058083715513
 21
331.00000000001012
  0
LINE
  8
_0-a_
  6
CONTINUOUS
 62
    3
 10
85.335981872362368
 20
331.00000000001148
 11
89.934058083715513
 21
331.00000000001148
  0
LINE
  8
_0-a_
  6
CONTINUOUS
 62
    3
 10
89.934058083715513
 20
331.00000000001148
 11
59.789844827061074
 21
331.00000000001148
  0
LINE
  8
_0-a_
  6
CONTINUOUS
 62
    3
 10
169.43405808371688
 20
328.80000000002281
 11
172.43405808371688
 21
325.80000000002281
  0
LINE
  8
_0-a_
  6
CONTINUOUS
 62
    3
 10
175.43405808371688
 20
328.80000000002281
 11
178.43405808371688
 21
325.80000000002281
  0
LINE
  8
_0-a_
  6
CONTINUOUS
 62
    3
 10
172.43405808371688
 20
325.80000000002281
 11
175.43405808371688
 21
328.80000000002281
  0
LINE
  8
_0-a_
  6
CONTINUOUS
 62
    3
 10
181.43405808371688
 20
328.80000000002281
 11
184.43405808371688
 21
325.80000000002281
  0
LINE
  8
_0-a_
  6
CONTINUOUS
 62
    3
 10
178.43405808371688
 20
325.80000000002281
 11
181.43405808371688
 21
328.80000000002281
  0
LINE
  8
_0-a_
  6
CONTINUOUS
 62
    3
 10
187.43405808371688
 20
328.80000000002281
 11
190.43405808371688
 21
325.80000000002281
  0
LINE
  8
_0-a_
  6
CONTINUOUS
 62
    3
 10
184.43405808371688
 20
325.80000000002281
 11
187.43405808371688
 21
328.80000000002281
  0
LINE
  8
_0-a_
  6
CONTINUOUS
 62
    3
 10
193.43405808371688
 20
328.80000000002281
 11
196.43405808371688
 21
325.80000000002281
  0
LINE
  8
_0-a_
  6
CONTINUOUS
 62
    3
 10
190.43405808371688
 20
325.80000000002281
 11
193.43405808371688
 21
328.80000000002281
  0
LINE
  8
_0-a_
  6
CONTINUOUS
 62
    3
 10
199.43405808371688
 20
328.80000000002281
 11
202.43405808371688
 21
325.80000000002281
  0
LINE
  8
_0-a_
  6
CONTINUOUS
 62
    3
 10
196.43405808371688
 20
325.80000000002281
 11
199.43405808371688
 21
328.80000000002281
  0
LINE
  8
_0-a_
  6
CONTINUOUS
 62
    3
 10
205.43405808371688
 20
328.80000000002281
 11
208.43405808371688
 21
325.80000000002281
  0
LINE
  8
_0-a_
  6
CONTINUOUS
 62
    3
 10
202.43405808371688
 20
325.80000000002281
 11
205.43405808371688
 21
328.80000000002281
  0
LINE
  8
_0-a_
  6
CONTINUOUS
 62
    3
 10
208.43405808371688
 20
325.80000000002281
 11
211.43405808371688
 21
328.80000000002281
  0
LINE
  8
_0-a_
  6
CONTINUOUS
 62
    3
 10
166.43405808371688
 20
325.80000000002281
 11
169.43405808371688
 21
328.80000000002281
  0
LINE
  8
_0-a_
  6
CONTINUOUS
 62
    3
 10
211.43405808371688
 20
328.80000000002281
 11
214.43405808371688
 21
325.80000000002281
  0
LINE
  8
_0-a_
  6
CONTINUOUS
 62
    3
 10
217.43405808371688
 20
328.80000000002281
 11
220.43405808371688
 21
325.80000000002281
  0
LINE
  8
_0-a_
  6
CONTINUOUS
 62
    3
 10
214.43405808371688
 20
325.80000000002281
 11
217.43405808371688
 21
328.80000000002281
  0
LINE
  8
_0-a_
  6
CONTINUOUS
 62
    3
 10
223.43405808371688
 20
328.80000000002281
 11
226.43405808371688
 21
325.80000000002281
  0
LINE
  8
_0-a_
  6
CONTINUOUS
 62
    3
 10
220.43405808371688
 20
325.80000000002281
 11
223.43405808371688
 21
328.80000000002281
  0
LINE
  8
_0-a_
  6
CONTINUOUS
 62
    3
 10
229.43405808371688
 20
328.80000000002281
 11
232.43405808371688
 21
325.80000000002281
  0
LINE
  8
_0-a_
  6
CONTINUOUS
 62
    3
 10
226.43405808371688
 20
325.80000000002281
 11
229.43405808371688
 21
328.80000000002281
  0
LINE
  8
_0-a_
  6
CONTINUOUS
 62
    3
 10
235.43405808371688
 20
328.80000000002281
 11
238.43405808371688
 21
325.80000000002281
  0
LINE
  8
_0-a_
  6
CONTINUOUS
 62
    3
 10
232.43405808371688
 20
325.80000000002281
 11
235.43405808371688
 21
328.80000000002281
  0
LINE
  8
_0-a_
  6
CONTINUOUS
 62
    3
 10
241.43405808371688
 20
328.80000000002281
 11
244.43405808371688
 21
325.80000000002281
  0
LINE
  8
_0-a_
  6
CONTINUOUS
 62
    3
 10
238.43405808371688
 20
325.80000000002281
 11
241.43405808371688
 21
328.80000000002281
  0
LINE
  8
_0-a_
  6
CONTINUOUS
 62
    3
 10
247.43405808371688
 20
328.80000000002281
 11
250.43405808371688
 21
325.80000000002281
  0
LINE
  8
_0-a_
  6
CONTINUOUS
 62
    3
 10
244.43405808371688
 20
325.80000000002281
 11
247.43405808371688
 21
328.80000000002281
  0
LINE
  8
_0-a_
  6
CONTINUOUS
 62
    3
 10
250.43405808371688
 20
325.80000000002281
 11
253.43405808371688
 21
328.80000000002281
  0
LINE
  8
_0-a_
  6
CONTINUOUS
 62
    3
 10
208.43405808371688
 20
325.80000000002281
 11
211.43405808371688
 21
328.80000000002281
  0
LINE
  8
_0-a_
  6
CONTINUOUS
 62
    3
 10
253.43405808371688
 20
328.80000000002281
 11
256.43405808371688
 21
325.80000000002281
  0
LINE
  8
_0-a_
  6
CONTINUOUS
 62
    3
 10
259.43405808371688
 20
328.80000000002281
 11
262.43405808371688
 21
325.80000000002281
  0
LINE
  8
_0-a_
  6
CONTINUOUS
 62
    3
 10
256.43405808371688
 20
325.80000000002281
 11
259.43405808371688
 21
328.80000000002281
  0
LINE
  8
_0-a_
  6
CONTINUOUS
 62
    3
 10
265.43405808371688
 20
328.80000000002281
 11
268.43405808371688
 21
325.80000000002281
  0
LINE
  8
_0-a_
  6
CONTINUOUS
 62
    3
 10
262.43405808371688
 20
325.80000000002281
 11
265.43405808371688
 21
328.80000000002281
  0
LINE
  8
_0-a_
  6
CONTINUOUS
 62
    3
 10
271.43405808371688
 20
328.80000000002281
 11
274.43405808371688
 21
325.80000000002281
  0
LINE
  8
_0-a_
  6
CONTINUOUS
 62
    3
 10
268.43405808371688
 20
325.80000000002281
 11
271.43405808371688
 21
328.80000000002281
  0
LINE
  8
_0-a_
  6
CONTINUOUS
 62
    3
 10
277.43405808371688
 20
328.80000000002281
 11
280.43405808371688
 21
325.80000000002281
  0
LINE
  8
_0-a_
  6
CONTINUOUS
 62
    3
 10
274.43405808371688
 20
325.80000000002281
 11
277.43405808371688
 21
328.80000000002281
  0
LINE
  8
_0-a_
  6
CONTINUOUS
 62
    3
 10
283.43405808371688
 20
328.80000000002281
 11
286.43405808371688
 21
325.80000000002281
  0
LINE
  8
_0-a_
  6
CONTINUOUS
 62
    3
 10
280.43405808371688
 20
325.80000000002281
 11
283.43405808371688
 21
328.80000000002281
  0
LINE
  8
_0-a_
  6
CONTINUOUS
 62
    3
 10
289.43405808371688
 20
328.80000000002281
 11
292.43405808371688
 21
325.80000000002281
  0
LINE
  8
_0-a_
  6
CONTINUOUS
 62
    3
 10
286.43405808371688
 20
325.80000000002281
 11
289.43405808371688
 21
328.80000000002281
  0
LINE
  8
_0-a_
  6
CONTINUOUS
 62
    3
 10
292.43405808371688
 20
325.80000000002281
 11
295.43405808371688
 21
328.80000000002281
  0
LINE
  8
_0-a_
  6
CONTINUOUS
 62
    3
 10
250.43405808371688
 20
325.80000000002281
 11
253.43405808371688
 21
328.80000000002281
  0
LINE
  8
_0-a_
  6
CONTINUOUS
 62
    3
 10
295.43405808371642
 20
328.80000000002281
 11
298.43405808371642
 21
325.80000000002281
  0
LINE
  8
_0-a_
  6
CONTINUOUS
 62
    3
 10
301.43405808371642
 20
328.80000000002281
 11
304.43405808371688
 21
325.80000000002281
  0
LINE
  8
_0-a_
  6
CONTINUOUS
 62
    3
 10
298.43405808371642
 20
325.80000000002281
 11
301.43405808371642
 21
328.80000000002281
  0
LINE
  8
_0-a_
  6
CONTINUOUS
 62
    3
 10
307.43405808371688
 20
328.80000000002281
 11
310.43405808371688
 21
325.80000000002281
  0
LINE
  8
_0-a_
  6
CONTINUOUS
 62
    3
 10
304.43405808371688
 20
325.80000000002281
 11
307.43405808371688
 21
328.80000000002281
  0
LINE
  8
_0-a_
  6
CONTINUOUS
 62
    3
 10
313.43405808371688
 20
328.80000000002281
 11
316.43405808371688
 21
325.80000000002281
  0
LINE
  8
_0-a_
  6
CONTINUOUS
 62
    3
 10
310.43405808371688
 20
325.80000000002281
 11
313.43405808371688
 21
328.80000000002281
  0
LINE
  8
_0-a_
  6
CONTINUOUS
 62
    3
 10
319.43405808371688
 20
328.80000000002281
 11
322.43405808371688
 21
325.80000000002281
  0
LINE
  8
_0-a_
  6
CONTINUOUS
 62
    3
 10
316.43405808371688
 20
325.80000000002281
 11
319.43405808371688
 21
328.80000000002281
  0
LINE
  8
_0-a_
  6
CONTINUOUS
 62
    3
 10
325.43405808371688
 20
328.80000000002281
 11
328.43405808371688
 21
325.80000000002281
  0
LINE
  8
_0-a_
  6
CONTINUOUS
 62
    3
 10
322.43405808371688
 20
325.80000000002281
 11
325.43405808371688
 21
328.80000000002281
  0
LINE
  8
_0-a_
  6
CONTINUOUS
 62
    3
 10
331.43405808371688
 20
328.80000000002281
 11
334.43405808371688
 21
325.80000000002281
  0
LINE
  8
_0-a_
  6
CONTINUOUS
 62
    3
 10
328.43405808371688
 20
325.80000000002281
 11
331.43405808371688
 21
328.80000000002281
  0
LINE
  8
_0-a_
  6
CONTINUOUS
 62
    3
 10
334.43405808371688
 20
325.80000000002281
 11
337.43405808371688
 21
328.80000000002281
  0
LINE
  8
_0-a_
  6
CONTINUOUS
 62
    3
 10
292.43405808371642
 20
325.80000000002281
 11
295.43405808371642
 21
328.80000000002281
  0
LINE
  8
_0-a_
  6
CONTINUOUS
 62
    3
 10
337.43405808371688
 20
328.80000000002281
 11
340.43405808371688
 21
325.80000000002281
  0
LINE
  8
_0-a_
  6
CONTINUOUS
 62
    3
 10
343.43405808371688
 20
328.80000000002281
 11
346.43405808371688
 21
325.80000000002281
  0
LINE
  8
_0-a_
  6
CONTINUOUS
 62
    3
 10
340.43405808371688
 20
325.80000000002281
 11
343.43405808371688
 21
328.80000000002281
  0
LINE
  8
_0-a_
  6
CONTINUOUS
 62
    3
 10
349.43405808371688
 20
328.80000000002281
 11
352.43405808371688
 21
325.80000000002281
  0
LINE
  8
_0-a_
  6
CONTINUOUS
 62
    3
 10
346.43405808371688
 20
325.80000000002281
 11
349.43405808371688
 21
328.80000000002281
  0
LINE
  8
_0-a_
  6
CONTINUOUS
 62
    3
 10
355.43405808371688
 20
328.80000000002281
 11
358.43405808371688
 21
325.80000000002281
  0
LINE
  8
_0-a_
  6
CONTINUOUS
 62
    3
 10
352.43405808371688
 20
325.80000000002281
 11
355.43405808371688
 21
328.80000000002281
  0
LINE
  8
_0-a_
  6
CONTINUOUS
 62
    3
 10
361.43405808371688
 20
328.80000000002281
 11
364.43405808371688
 21
325.80000000002281
  0
LINE
  8
_0-a_
  6
CONTINUOUS
 62
    3
 10
358.43405808371688
 20
325.80000000002281
 11
361.43405808371688
 21
328.80000000002281
  0
LINE
  8
_0-a_
  6
CONTINUOUS
 62
    3
 10
367.43405808371688
 20
328.80000000002281
 11
370.43405808371688
 21
325.80000000002281
  0
LINE
  8
_0-a_
  6
CONTINUOUS
 62
    3
 10
364.43405808371688
 20
325.80000000002281
 11
367.43405808371688
 21
328.80000000002281
  0
LINE
  8
_0-a_
  6
CONTINUOUS
 62
    3
 10
373.43405808371688
 20
328.80000000002281
 11
376.43405808371688
 21
325.80000000002281
  0
LINE
  8
_0-a_
  6
CONTINUOUS
 62
    3
 10
370.43405808371688
 20
325.80000000002281
 11
373.43405808371688
 21
328.80000000002281
  0
LINE
  8
_0-a_
  6
CONTINUOUS
 62
    3
 10
376.43405808371688
 20
325.80000000002281
 11
379.43405808371688
 21
328.80000000002281
  0
LINE
  8
_0-a_
  6
CONTINUOUS
 62
    3
 10
334.43405808371688
 20
325.80000000002281
 11
337.43405808371688
 21
328.80000000002281
  0
LINE
  8
_0-a_
  6
CONTINUOUS
 62
    3
 10
379.43405808371688
 20
328.80000000002281
 11
382.43405808371688
 21
325.80000000002281
  0
LINE
  8
_0-a_
  6
CONTINUOUS
 62
    3
 10
385.43405808371688
 20
328.80000000002281
 11
388.43405808371688
 21
325.80000000002281
  0
LINE
  8
_0-a_
  6
CONTINUOUS
 62
    3
 10
382.43405808371688
 20
325.80000000002281
 11
385.43405808371688
 21
328.80000000002281
  0
LINE
  8
_0-a_
  6
CONTINUOUS
 62
    3
 10
391.43405808371688
 20
328.80000000002281
 11
394.43405808371688
 21
325.80000000002281
  0
LINE
  8
_0-a_
  6
CONTINUOUS
 62
    3
 10
388.43405808371688
 20
325.80000000002281
 11
391.43405808371688
 21
328.80000000002281
  0
LINE
  8
_0-a_
  6
CONTINUOUS
 62
    3
 10
397.43405808371688
 20
328.80000000002281
 11
400.43405808371688
 21
325.80000000002281
  0
LINE
  8
_0-a_
  6
CONTINUOUS
 62
    3
 10
394.43405808371688
 20
325.80000000002281
 11
397.43405808371688
 21
328.80000000002281
  0
LINE
  8
_0-a_
  6
CONTINUOUS
 62
    3
 10
403.43405808371688
 20
328.80000000002281
 11
406.43405808371688
 21
325.80000000002281
  0
LINE
  8
_0-a_
  6
CONTINUOUS
 62
    3
 10
400.43405808371688
 20
325.80000000002281
 11
403.43405808371688
 21
328.80000000002281
  0
LINE
  8
_0-a_
  6
CONTINUOUS
 62
    3
 10
409.43405808371688
 20
328.80000000002281
 11
412.43405808371688
 21
325.80000000002281
  0
LINE
  8
_0-a_
  6
CONTINUOUS
 62
    3
 10
406.43405808371688
 20
325.80000000002281
 11
409.43405808371688
 21
328.80000000002281
  0
LINE
  8
_0-a_
  6
CONTINUOUS
 62
    3
 10
415.43405808371688
 20
328.80000000002281
 11
418.43405808371688
 21
325.80000000002281
  0
LINE
  8
_0-a_
  6
CONTINUOUS
 62
    3
 10
412.43405808371688
 20
325.80000000002281
 11
415.43405808371688
 21
328.80000000002281
  0
LINE
  8
_0-a_
  6
CONTINUOUS
 62
    3
 10
418.43405808371688
 20
325.80000000002281
 11
421.43405808371688
 21
328.80000000002281
  0
LINE
  8
_0-a_
  6
CONTINUOUS
 62
    3
 10
376.43405808371688
 20
325.80000000002281
 11
379.43405808371688
 21
328.80000000002281
  0
LINE
  8
_0-a_
  6
CONTINUOUS
 62
    3
 10
421.43405808371688
 20
328.80000000002303
 11
424.43405808371688
 21
325.80000000002303
  0
LINE
  8
_0-a_
  6
CONTINUOUS
 62
    3
 10
424.43405808371688
 20
325.80000000002303
 11
427.43405808371688
 21
328.80000000002303
  0
LINE
  8
_0-a_
  6
CONTINUOUS
 62
    3
 10
427.43405808371688
 20
328.80000000002303
 11
429.43405808371597
 21
326.80000000002417
  0
LINE
  8
_0-a_
  6
CONTINUOUS
 62
    3
 10
338.93405808371597
 20
334.00000000001171
 11
341.93405808371597
 21
331.00000000001171
  0
LINE
  8
_0-a_
  6
CONTINUOUS
 62
    3
 10
335.93405808371597
 20
331.00000000001171
 11
338.93405808371597
 21
334.00000000001171
  0
LINE
  8
_0-a_
  6
CONTINUOUS
 62
    3
 10
344.93405808371597
 20
334.00000000001171
 11
347.93405808371597
 21
331.00000000001171
  0
LINE
  8
_0-a_
  6
CONTINUOUS
 62
    3
 10
341.93405808371597
 20
331.00000000001171
 11
344.93405808371597
 21
334.00000000001171
  0
LINE
  8
_0-a_
  6
CONTINUOUS
 62
    3
 10
350.93405808371597
 20
334.00000000001171
 11
353.93405808371597
 21
331.00000000001171
  0
LINE
  8
_0-a_
  6
CONTINUOUS
 62
    3
 10
347.93405808371597
 20
331.00000000001171
 11
350.93405808371597
 21
334.00000000001171
  0
LINE
  8
_0-a_
  6
CONTINUOUS
 62
    3
 10
356.93405808371597
 20
334.00000000001171
 11
359.93405808371597
 21
331.00000000001171
  0
LINE
  8
_0-a_
  6
CONTINUOUS
 62
    3
 10
353.93405808371597
 20
331.00000000001171
 11
356.93405808371597
 21
334.00000000001171
  0
LINE
  8
_0-a_
  6
CONTINUOUS
 62
    3
 10
362.93405808371597
 20
334.00000000001171
 11
365.93405808371597
 21
331.00000000001171
  0
LINE
  8
_0-a_
  6
CONTINUOUS
 62
    3
 10
359.93405808371597
 20
331.00000000001171
 11
362.93405808371597
 21
334.00000000001171
  0
LINE
  8
_0-a_
  6
CONTINUOUS
 62
    3
 10
365.93405808371597
 20
331.00000000001171
 11
368.93405808371597
 21
334.00000000001171
  0
LINE
  8
_0-a_
  6
CONTINUOUS
 62
    3
 10
368.93405808371597
 20
334.00000000001171
 11
371.93405808371597
 21
331.00000000001171
  0
LINE
  8
_0-a_
  6
CONTINUOUS
 62
    3
 10
374.93405808371597
 20
334.00000000001171
 11
377.93405808371597
 21
331.00000000001171
  0
LINE
  8
_0-a_
  6
CONTINUOUS
 62
    3
 10
371.93405808371597
 20
331.00000000001171
 11
374.93405808371597
 21
334.00000000001171
  0
LINE
  8
_0-a_
  6
CONTINUOUS
 62
    3
 10
380.93405808371597
 20
334.00000000001171
 11
383.93405808371597
 21
331.00000000001171
  0
LINE
  8
_0-a_
  6
CONTINUOUS
 62
    3
 10
377.93405808371597
 20
331.00000000001171
 11
380.93405808371597
 21
334.00000000001171
  0
LINE
  8
_0-a_
  6
CONTINUOUS
 62
    3
 10
386.93405808371597
 20
334.00000000001171
 11
389.93405808371597
 21
331.00000000001171
  0
LINE
  8
_0-a_
  6
CONTINUOUS
 62
    3
 10
383.93405808371597
 20
331.00000000001171
 11
386.93405808371597
 21
334.00000000001171
  0
LINE
  8
_0-a_
  6
CONTINUOUS
 62
    3
 10
392.93405808371597
 20
334.00000000001171
 11
395.93405808371597
 21
331.00000000001171
  0
LINE
  8
_0-a_
  6
CONTINUOUS
 62
    3
 10
389.93405808371597
 20
331.00000000001171
 11
392.93405808371597
 21
334.00000000001171
  0
LINE
  8
_0-a_
  6
CONTINUOUS
 62
    3
 10
398.93405808371597
 20
334.00000000001171
 11
401.93405808371597
 21
331.00000000001171
  0
LINE
  8
_0-a_
  6
CONTINUOUS
 62
    3
 10
395.93405808371597
 20
331.00000000001171
 11
398.93405808371597
 21
334.00000000001171
  0
LINE
  8
_0-a_
  6
CONTINUOUS
 62
    3
 10
404.93405808371597
 20
334.00000000001171
 11
407.93405808371597
 21
331.00000000001171
  0
LINE
  8
_0-a_
  6
CONTINUOUS
 62
    3
 10
401.93405808371597
 20
331.00000000001171
 11
404.93405808371597
 21
334.00000000001171
  0
LINE
  8
_0-a_
  6
CONTINUOUS
 62
    3
 10
407.93405808371597
 20
331.00000000001171
 11
410.93405808371597
 21
334.00000000001171
  0
LINE
  8
_0-a_
  6
CONTINUOUS
 62
    3
 10
365.93405808371597
 20
331.00000000001171
 11
368.93405808371597
 21
334.00000000001171
  0
LINE
  8
_0-a_
  6
CONTINUOUS
 62
    3
 10
410.93405808371506
 20
334.00000000001171
 11
413.93405808371506
 21
331.00000000001171
  0
LINE
  8
_0-a_
  6
CONTINUOUS
 62
    3
 10
407.93405808371506
 20
331.00000000001171
 11
410.93405808371506
 21
334.00000000001171
  0
LINE
  8
_0-a_
  6
CONTINUOUS
 62
    3
 10
416.93405808371506
 20
334.00000000001171
 11
419.93405808371506
 21
331.00000000001171
  0
LINE
  8
_0-a_
  6
CONTINUOUS
 62
    3
 10
413.93405808371506
 20
331.00000000001171
 11
416.93405808371506
 21
334.00000000001171
  0
LINE
  8
_0-a_
  6
CONTINUOUS
 62
    3
 10
422.93405808371506
 20
334.00000000001171
 11
425.93405808371506
 21
331.00000000001171
  0
LINE
  8
_0-a_
  6
CONTINUOUS
 62
    3
 10
419.93405808371506
 20
331.00000000001171
 11
422.93405808371506
 21
334.00000000001171
  0
LINE
  8
_0-a_
  6
CONTINUOUS
 62
    3
 10
428.93405808371506
 20
334.00000000001171
 11
431.93405808371506
 21
331.00000000001171
  0
LINE
  8
_0-a_
  6
CONTINUOUS
 62
    3
 10
425.93405808371506
 20
331.00000000001171
 11
428.93405808371506
 21
334.00000000001171
  0
LINE
  8
_0-a_
  6
CONTINUOUS
 62
    3
 10
434.93405808371506
 20
334.00000000001171
 11
437.93405808371506
 21
331.00000000001171
  0
LINE
  8
_0-a_
  6
CONTINUOUS
 62
    3
 10
431.93405808371506
 20
331.00000000001171
 11
434.93405808371506
 21
334.00000000001171
  0
LINE
  8
_0-a_
  6
CONTINUOUS
 62
    3
 10
440.93405808371506
 20
334.00000000001171
 11
443.93405808371506
 21
331.00000000001171
  0
LINE
  8
_0-a_
  6
CONTINUOUS
 62
    3
 10
437.93405808371506
 20
331.00000000001171
 11
440.93405808371506
 21
334.00000000001171
  0
LINE
  8
_0-a_
  6
CONTINUOUS
 62
    3
 10
443.93405808371506
 20
331.00000000001171
 11
446.93405808371506
 21
334.00000000001171
  0
LINE
  8
_0-a_
  6
CONTINUOUS
 62
    3
 10
446.93405808371506
 20
334.00000000001171
 11
449.93405808371506
 21
331.00000000001171
  0
LINE
  8
_0-a_
  6
CONTINUOUS
 62
    3
 10
452.93405808371506
 20
334.00000000001171
 11
455.93405808371506
 21
331.00000000001171
  0
LINE
  8
_0-a_
  6
CONTINUOUS
 62
    3
 10
449.93405808371506
 20
331.00000000001171
 11
452.93405808371506
 21
334.00000000001171
  0
LINE
  8
_0-a_
  6
CONTINUOUS
 62
    3
 10
458.93405808371506
 20
334.00000000001171
 11
461.93405808371506
 21
331.00000000001171
  0
LINE
  8
_0-a_
  6
CONTINUOUS
 62
    3
 10
455.93405808371506
 20
331.00000000001171
 11
458.93405808371506
 21
334.00000000001171
  0
LINE
  8
_0-a_
  6
CONTINUOUS
 62
    3
 10
464.93405808371506
 20
334.00000000001171
 11
467.93405808371506
 21
331.00000000001171
  0
LINE
  8
_0-a_
  6
CONTINUOUS
 62
    3
 10
461.93405808371506
 20
331.00000000001171
 11
464.93405808371506
 21
334.00000000001171
  0
LINE
  8
_0-a_
  6
CONTINUOUS
 62
    3
 10
470.93405808371506
 20
334.00000000001171
 11
473.93405808371506
 21
331.00000000001171
  0
LINE
  8
_0-a_
  6
CONTINUOUS
 62
    3
 10
467.93405808371506
 20
331.00000000001171
 11
470.93405808371506
 21
334.00000000001171
  0
LINE
  8
_0-a_
  6
CONTINUOUS
 62
    3
 10
476.93405808371506
 20
334.00000000001171
 11
479.93405808371506
 21
331.00000000001171
  0
LINE
  8
_0-a_
  6
CONTINUOUS
 62
    3
 10
473.93405808371506
 20
331.00000000001171
 11
476.93405808371506
 21
334.00000000001171
  0
LINE
  8
_0-a_
  6
CONTINUOUS
 62
    3
 10
482.93405808371506
 20
334.00000000001171
 11
485.93405808371506
 21
331.00000000001171
  0
LINE
  8
_0-a_
  6
CONTINUOUS
 62
    3
 10
479.93405808371506
 20
331.00000000001171
 11
482.93405808371506
 21
334.00000000001171
  0
LINE
  8
_0-a_
  6
CONTINUOUS
 62
    3
 10
485.93405808371506
 20
331.00000000001171
 11
488.93405808371506
 21
334.00000000001171
  0
LINE
  8
_0-a_
  6
CONTINUOUS
 62
    3
 10
443.93405808371506
 20
331.00000000001171
 11
446.93405808371506
 21
334.00000000001171
  0
LINE
  8
_0-a_
  6
CONTINUOUS
 62
    3
 10
488.93405808371506
 20
334.00000000001171
 11
491.93405808371506
 21
331.00000000001171
  0
LINE
  8
_0-a_
  6
CONTINUOUS
 62
    3
 10
485.93405808371506
 20
331.00000000001171
 11
488.93405808371506
 21
334.00000000001171
  0
LINE
  8
_0-a_
  6
CONTINUOUS
 62
    3
 10
494.93405808371506
 20
334.00000000001171
 11
497.93405808371506
 21
331.00000000001171
  0
LINE
  8
_0-a_
  6
CONTINUOUS
 62
    3
 10
491.93405808371506
 20
331.00000000001171
 11
494.93405808371506
 21
334.00000000001171
  0
LINE
  8
_0-a_
  6
CONTINUOUS
 62
    3
 10
500.93405808371506
 20
334.00000000001171
 11
503.93405808371506
 21
331.00000000001171
  0
LINE
  8
_0-a_
  6
CONTINUOUS
 62
    3
 10
497.93405808371506
 20
331.00000000001171
 11
500.93405808371506
 21
334.00000000001171
  0
LINE
  8
_0-a_
  6
CONTINUOUS
 62
    3
 10
506.93405808371506
 20
334.00000000001171
 11
509.93405808371506
 21
331.00000000001171
  0
LINE
  8
_0-a_
  6
CONTINUOUS
 62
    3
 10
503.93405808371506
 20
331.00000000001171
 11
506.93405808371506
 21
334.00000000001171
  0
LINE
  8
_0-a_
  6
CONTINUOUS
 62
    3
 10
512.93405808371506
 20
334.00000000001171
 11
515.93405808371506
 21
331.00000000001171
  0
LINE
  8
_0-a_
  6
CONTINUOUS
 62
    3
 10
509.93405808371506
 20
331.00000000001171
 11
512.93405808371506
 21
334.00000000001171
  0
LINE
  8
_0-a_
  6
CONTINUOUS
 62
    3
 10
518.93405808371506
 20
334.00000000001171
 11
521.93405808371506
 21
331.00000000001171
  0
LINE
  8
_0-a_
  6
CONTINUOUS
 62
    3
 10
515.93405808371506
 20
331.00000000001171
 11
518.93405808371506
 21
334.00000000001171
  0
LINE
  8
_0-a_
  6
CONTINUOUS
 62
    3
 10
521.93405808371506
 20
331.00000000001171
 11
524.93405808371506
 21
334.00000000001171
  0
LINE
  8
_0-a_
  6
CONTINUOUS
 62
    3
 10
524.93405808371506
 20
334.00000000001171
 11
527.93405808371506
 21
331.00000000001171
  0
LINE
  8
_0-a_
  6
CONTINUOUS
 62
    3
 10
530.93405808371506
 20
334.00000000001171
 11
533.93405808371506
 21
331.00000000001171
  0
LINE
  8
_0-a_
  6
CONTINUOUS
 62
    3
 10
527.93405808371506
 20
331.00000000001171
 11
530.93405808371506
 21
334.00000000001171
  0
LINE
  8
_0-a_
  6
CONTINUOUS
 62
    3
 10
521.93405808371506
 20
331.00000000001171
 11
524.93405808371506
 21
334.00000000001171
  0
LINE
  8
_0-a_
  6
CONTINUOUS
 62
    3
 10
577.93405808371506
 20
331.00000000001171
 11
580.93405808371506
 21
334.00000000001171
  0
LINE
  8
_0-a_
  6
CONTINUOUS
 62
    3
 10
571.93405808371506
 20
331.00000000001171
 11
574.93405808371506
 21
334.00000000001171
  0
LINE
  8
_0-a_
  6
CONTINUOUS
 62
    3
 10
574.93405808371506
 20
334.00000000001171
 11
577.93405808371506
 21
331.00000000001171
  0
LINE
  8
_0-a_
  6
CONTINUOUS
 62
    3
 10
580.93405808371415
 20
334.00000000001171
 11
580.92525651892345
 21
334.00000000001171
  0
LINE
  8
_0-a_
  6
CONTINUOUS
 62
    3
 10
576.92525651892436
 20
334.00000000001171
 11
572.93405808371506
 21
334.00000000001171
  0
LINE
  8
_0-a_
  6
CONTINUOUS
 62
    3
 10
571.93405808371506
 20
334.00000000001171
 11
583.57827134037223
 21
334.00000000001171
  0
LINE
  8
_0-a_
  6
CONTINUOUS
 62
    3
 10
551.93405808371506
 20
334.00000000001171
 11
583.57827134037223
 21
334.00000000001171
  0
LINE
  8
_0-a_
  6
CONTINUOUS
 62
    3
 10
580.93405808371506
 20
334.00000000001171
 11
583.57827134037223
 21
331.35578674335454
  0
LINE
  8
_0-a_
  6
CONTINUOUS
 62
    3
 10
101.73405808371479
 20
327.00000000001171
 11
101.43405808371551
 21
326.70000000001198
  0
LINE
  8
_0-a_
  6
CONTINUOUS
 62
    3
 10
101.43405808371551
 20
326.70000000001198
 11
101.13405808371442
 21
327.00000000001171
  0
LINE
  8
_0-a_
  6
CONTINUOUS
 62
    3
 10
103.18405808371551
 20
323.20000000001153
 11
103.18405808371551
 21
317.85677313260692
  0
LINE
  8
_0-a_
  6
CONTINUOUS
 62
    3
 10
103.22405808371548
 20
328.00301343868443
 11
103.22405808371548
 21
327.2073817193542
  0
LINE
  8
_0-a_
  6
CONTINUOUS
 62
    3
 10
103.22405808371548
 20
326.50301343868443
 11
103.22405808371548
 21
325.7073817193542
  0
LINE
  8
_0-a_
  6
CONTINUOUS
 62
    3
 10
103.22405808371548
 20
325.00301343868443
 11
103.22405808371548
 21
323.20000000001153
  0
LINE
  8
_0-a_
  6
CONTINUOUS
 62
    3
 10
103.22405808371548
 20
329.20000000001153
 11
103.22405808371548
 21
328.7073817193542
  0
LINE
  8
_0-a_
  6
CONTINUOUS
 62
    3
 10
99.644058083715095
 20
323.70000000001153
 11
99.644058083715095
 21
323.20000000001153
  0
LINE
  8
_0-a_
  6
CONTINUOUS
 62
    3
 10
99.644058083715095
 20
325.20000000001153
 11
99.644058083715095
 21
324.4043682806813
  0
LINE
  8
_0-a_
  6
CONTINUOUS
 62
    3
 10
99.644058083715095
 20
326.70000000001153
 11
99.644058083715095
 21
325.9043682806813
  0
LINE
  8
_0-a_
  6
CONTINUOUS
 62
    3
 10
99.644058083715095
 20
328.20000000001153
 11
99.644058083715095
 21
327.4043682806813
  0
LINE
  8
_0-a_
  6
CONTINUOUS
 62
    3
 10
99.644058083715095
 20
329.20000000001153
 11
99.644058083715095
 21
328.9043682806813
  0
LINE
  8
_0-a_
  6
CONTINUOUS
 62
    3
 10
101.43405808371506
 20
329.20369085968275
 11
99.034058083714967
 21
328.55218414034641
  0
LINE
  8
_0-a_
  6
CONTINUOUS
 62
    3
 10
99.644058083715095
 20
328.20000000001153
 11
101.43405808371506
 21
328.85150671934787
  0
LINE
  8
_0-a_
  6
CONTINUOUS
 62
    3
 10
99.644058083715095
 20
328.9043682806813
 11
100.45629955704942
 21
329.20000000001153
  0
LINE
  8
_0-a_
  6
CONTINUOUS
 62
    3
 10
103.48405808371479
 20
323.20000000001153
 11
103.48405808371479
 21
317.6835680518501
  0
LINE
  8
_0-a_
  6
CONTINUOUS
 62
    3
 10
103.48405808371479
 20
323.20000000001153
 11
99.384058083715331
 21
323.20000000001153
  0
LINE
  8
_0-a_
  6
CONTINUOUS
 62
    3
 10
99.384058083715331
 20
323.20000000001153
 11
99.384058083715331
 21
317.6835680518501
  0
LINE
  8
_0-a_
  6
CONTINUOUS
 62
    3
 10
99.034058083714967
 20
328.55218414034641
 11
99.644058083715095
 21
328.9043682806813
  0
LINE
  8
_0-a_
  6
CONTINUOUS
 62
    3
 10
99.644058083715095
 20
328.20000000001153
 11
99.034058083714967
 21
328.55218414034641
  0
LINE
  8
_0-a_
  6
CONTINUOUS
 62
    3
 10
103.83405808371515
 20
328.35519757901932
 11
99.034058083714967
 21
327.05218414034641
  0
LINE
  8
_0-a_
  6
CONTINUOUS
 62
    3
 10
99.644058083715095
 20
326.70000000001153
 11
103.22405808371548
 21
328.00301343868443
  0
LINE
  8
_0-a_
  6
CONTINUOUS
 62
    3
 10
99.644058083715095
 20
327.4043682806813
 11
103.22405808371548
 21
328.7073817193542
  0
LINE
  8
_0-a_
  6
CONTINUOUS
 62
    3
 10
99.034058083714967
 20
327.05218414034641
 11
99.644058083715095
 21
327.4043682806813
  0
LINE
  8
_0-a_
  6
CONTINUOUS
 62
    3
 10
99.644058083715095
 20
326.70000000001153
 11
99.034058083714967
 21
327.05218414034641
  0
LINE
  8
_0-a_
  6
CONTINUOUS
 62
    3
 10
103.83405808371515
 20
328.35519757901932
 11
103.22405808371548
 21
328.00301343868443
  0
LINE
  8
_0-a_
  6
CONTINUOUS
 62
    3
 10
103.22405808371548
 20
328.7073817193542
 11
103.83405808371515
 21
328.35519757901932
  0
LINE
  8
_0-a_
  6
CONTINUOUS
 62
    3
 10
103.83405808371515
 20
326.85519757901932
 11
99.034058083714967
 21
325.55218414034641
  0
LINE
  8
_0-a_
  6
CONTINUOUS
 62
    3
 10
99.644058083715095
 20
325.20000000001153
 11
103.22405808371548
 21
326.50301343868443
  0
LINE
  8
_0-a_
  6
CONTINUOUS
 62
    3
 10
99.644058083715095
 20
325.9043682806813
 11
103.22405808371548
 21
327.2073817193542
  0
LINE
  8
_0-a_
  6
CONTINUOUS
 62
    3
 10
99.034058083714967
 20
325.55218414034641
 11
99.644058083715095
 21
325.9043682806813
  0
LINE
  8
_0-a_
  6
CONTINUOUS
 62
    3
 10
99.644058083715095
 20
325.20000000001153
 11
99.034058083714967
 21
325.55218414034641
  0
LINE
  8
_0-a_
  6
CONTINUOUS
 62
    3
 10
103.83405808371515
 20
326.85519757901932
 11
103.22405808371548
 21
326.50301343868443
  0
LINE
  8
_0-a_
  6
CONTINUOUS
 62
    3
 10
103.22405808371548
 20
327.2073817193542
 11
103.83405808371515
 21
326.85519757901932
  0
LINE
  8
_0-a_
  6
CONTINUOUS
 62
    3
 10
103.83405808371515
 20
325.35519757901932
 11
99.034058083714967
 21
324.05218414034641
  0
LINE
  8
_0-a_
  6
CONTINUOUS
 62
    3
 10
99.644058083715095
 20
323.70000000001153
 11
103.22405808371548
 21
325.00301343868443
  0
LINE
  8
_0-a_
  6
CONTINUOUS
 62
    3
 10
99.644058083715095
 20
324.4043682806813
 11
103.22405808371548
 21
325.7073817193542
  0
LINE
  8
_0-a_
  6
CONTINUOUS
 62
    3
 10
99.034058083714967
 20
324.05218414034641
 11
99.644058083715095
 21
324.4043682806813
  0
LINE
  8
_0-a_
  6
CONTINUOUS
 62
    3
 10
99.644058083715095
 20
323.70000000001153
 11
99.034058083714967
 21
324.05218414034641
  0
LINE
  8
_0-a_
  6
CONTINUOUS
 62
    3
 10
103.83405808371515
 20
325.35519757901932
 11
103.22405808371548
 21
325.00301343868443
  0
LINE
  8
_0-a_
  6
CONTINUOUS
 62
    3
 10
103.22405808371548
 20
325.7073817193542
 11
103.83405808371515
 21
325.35519757901932
  0
LINE
  8
_0-a_
  6
CONTINUOUS
 62
    3
 10
101.43405808371506
 20
316.84641016152534
 11
100.31374877083488
 21
323.20000000001153
  0
LINE
  8
_0-a_
  6
CONTINUOUS
 62
    3
 10
101.43405808371506
 20
316.84641016152534
 11
99.684058083715058
 21
317.85677313260692
  0
LINE
  8
_0-a_
  6
CONTINUOUS
 62
    3
 10
99.684058083715058
 20
323.20000000001153
 11
99.684058083715058
 21
317.85677313260692
  0
LINE
  8
_0-a_
  6
CONTINUOUS
 62
    3
 10
103.22405808371548
 20
323.70000000001153
 11
103.22405808371548
 21
323.20000000001153
  0
LINE
  8
_0-a_
  6
CONTINUOUS
 62
    3
 10
99.384058083715331
 20
323.20000000001153
 11
99.384058083715331
 21
317.6835680518501
  0
LINE
  8
_0-a_
  6
CONTINUOUS
 62
    3
 10
99.384058083715331
 20
323.20000000001153
 11
103.48405808371479
 21
323.20000000001153
  0
LINE
  8
_0-a_
  6
CONTINUOUS
 62
    3
 10
103.48405808371479
 20
323.20000000001153
 11
103.48405808371479
 21
317.6835680518501
  0
LINE
  8
_0-a_
  6
CONTINUOUS
 62
    3
 10
101.43405808371506
 20
316.50000000001148
 11
99.384058083715331
 21
317.6835680518501
  0
LINE
  8
_0-a_
  6
CONTINUOUS
 62
    3
 10
101.43405808371506
 20
316.50000000001148
 11
103.48405808371479
 21
317.6835680518501
  0
LINE
  8
_0-a_
  6
CONTINUOUS
 62
    3
 10
103.22405808371548
 20
331.00301343868443
 11
103.22405808371548
 21
330.2073817193542
  0
LINE
  8
_0-a_
  6
CONTINUOUS
 62
    3
 10
103.22405808371548
 20
329.50301343868443
 11
103.22405808371548
 21
328.7073817193542
  0
LINE
  8
_0-a_
  6
CONTINUOUS
 62
    3
 10
103.22405808371548
 20
332.20000000001153
 11
103.22405808371548
 21
331.7073817193542
  0
LINE
  8
_0-a_
  6
CONTINUOUS
 62
    3
 10
99.644058083715095
 20
329.70000000001153
 11
99.644058083715095
 21
328.9043682806813
  0
LINE
  8
_0-a_
  6
CONTINUOUS
 62
    3
 10
99.644058083715095
 20
331.20000000001153
 11
99.644058083715095
 21
330.4043682806813
  0
LINE
  8
_0-a_
  6
CONTINUOUS
 62
    3
 10
99.644058083715095
 20
332.20000000001153
 11
99.644058083715095
 21
331.9043682806813
  0
LINE
  8
_0-a_
  6
CONTINUOUS
 62
    3
 10
101.43405808371506
 20
332.20369085968275
 11
99.034058083714967
 21
331.55218414034641
  0
LINE
  8
_0-a_
  6
CONTINUOUS
 62
    3
 10
99.644058083715095
 20
331.20000000001153
 11
101.43405808371506
 21
331.85150671934787
  0
LINE
  8
_0-a_
  6
CONTINUOUS
 62
    3
 10
99.644058083715095
 20
331.9043682806813
 11
100.45629955704942
 21
332.20000000001153
  0
LINE
  8
_0-a_
  6
CONTINUOUS
 62
    3
 10
99.034058083714967
 20
331.55218414034641
 11
99.644058083715095
 21
331.9043682806813
  0
LINE
  8
_0-a_
  6
CONTINUOUS
 62
    3
 10
99.644058083715095
 20
331.20000000001153
 11
99.034058083714967
 21
331.55218414034641
  0
LINE
  8
_0-a_
  6
CONTINUOUS
 62
    3
 10
103.83405808371515
 20
331.35519757901932
 11
99.034058083714967
 21
330.05218414034641
  0
LINE
  8
_0-a_
  6
CONTINUOUS
 62
    3
 10
99.644058083715095
 20
329.70000000001153
 11
103.22405808371548
 21
331.00301343868443
  0
LINE
  8
_0-a_
  6
CONTINUOUS
 62
    3
 10
99.644058083715095
 20
330.4043682806813
 11
103.22405808371548
 21
331.7073817193542
  0
LINE
  8
_0-a_
  6
CONTINUOUS
 62
    3
 10
99.034058083714967
 20
330.05218414034641
 11
99.644058083715095
 21
330.4043682806813
  0
LINE
  8
_0-a_
  6
CONTINUOUS
 62
    3
 10
99.644058083715095
 20
329.70000000001153
 11
99.034058083714967
 21
330.05218414034641
  0
LINE
  8
_0-a_
  6
CONTINUOUS
 62
    3
 10
103.83405808371515
 20
331.35519757901932
 11
103.22405808371548
 21
331.00301343868443
  0
LINE
  8
_0-a_
  6
CONTINUOUS
 62
    3
 10
103.22405808371548
 20
331.7073817193542
 11
103.83405808371515
 21
331.35519757901932
  0
LINE
  8
_0-a_
  6
CONTINUOUS
 62
    3
 10
103.83405808371515
 20
329.85519757901932
 11
99.034058083714967
 21
328.55218414034641
  0
LINE
  8
_0-a_
  6
CONTINUOUS
 62
    3
 10
99.644058083715095
 20
328.20000000001153
 11
103.22405808371548
 21
329.50301343868443
  0
LINE
  8
_0-a_
  6
CONTINUOUS
 62
    3
 10
99.644058083715095
 20
328.9043682806813
 11
103.22405808371548
 21
330.2073817193542
  0
LINE
  8
_0-a_
  6
CONTINUOUS
 62
    3
 10
99.034058083714967
 20
328.55218414034641
 11
99.644058083715095
 21
328.9043682806813
  0
LINE
  8
_0-a_
  6
CONTINUOUS
 62
    3
 10
99.644058083715095
 20
328.20000000001153
 11
99.034058083714967
 21
328.55218414034641
  0
LINE
  8
_0-a_
  6
CONTINUOUS
 62
    3
 10
103.83405808371515
 20
329.85519757901932
 11
103.22405808371548
 21
329.50301343868443
  0
LINE
  8
_0-a_
  6
CONTINUOUS
 62
    3
 10
103.22405808371548
 20
330.2073817193542
 11
103.83405808371515
 21
329.85519757901932
  0
LINE
  8
_0-a_
  6
CONTINUOUS
 62
    3
 10
103.83405808371515
 20
328.35519757901932
 11
103.22405808371548
 21
328.00301343868443
  0
LINE
  8
_0-a_
  6
CONTINUOUS
 62
    3
 10
103.22405808371548
 20
328.7073817193542
 11
103.83405808371515
 21
328.35519757901932
  0
LINE
  8
_0-a_
  6
CONTINUOUS
 62
    3
 10
105.43405808371551
 20
327.00000000001171
 11
101.73405808371524
 21
327.00000000001171
  0
LINE
  8
_0-a_
  6
CONTINUOUS
 62
    3
 10
101.13405808371442
 20
327.00000000001171
 11
97.434058083714149
 21
327.00000000001171
  0
LINE
  8
_0-a_
  6
DASHED1
 62
    3
 10
109.43405808371733
 20
303.00000000002308
 11
109.43405808371733
 21
305.50000000002308
  0
LINE
  8
_0-a_
  6
DASHED1
 62
    3
 10
124.43405808371733
 20
303.00000000002308
 11
124.43405808371733
 21
305.50000000002308
  0
LINE
  8
_0-a_
  6
CONTINUOUS
 62
    3
 10
85.335981872362368
 20
331.00000000001148
 11
89.934058083715513
 21
331.00000000001148
  0
LINE
  8
_0-a_
  6
CONTINUOUS
 62
    3
 10
89.934058083715513
 20
331.00000000001148
 11
89.934058083715513
 21
334.00000000001148
  0
ARC
  8
_0-a_
  6
CONTINUOUS
 62
    3
 10
90.684058083715513
 20
330.25000000001171
 40
0.75
 50
0
 51
180
  0
LINE
  8
_0-a_
  6
CONTINUOUS
 62
    3
 10
89.934058083715058
 20
322.50000000001171
 11
89.934058083715513
 21
330.25000000001171
  0
ARC
  8
_0-a_
  6
CONTINUOUS
 62
    3
 10
90.434058083715058
 20
322.50000000001171
 40
0.5
 50
180
 51
270
  0
LINE
  8
_0-a_
  6
CONTINUOUS
 62
    3
 10
93.934058083713694
 20
303.00000000002308
 11
93.934058083713694
 21
321.00000000001171
  0
LINE
  8
_0-a_
  6
CONTINUOUS
 62
    3
 10
152.70138507169565
 20
303.00000000002308
 11
93.934058083713694
 21
303.00000000002308
  0
LINE
  8
_0-a_
  6
CONTINUOUS
 62
    3
 10
553.93405808371597
 20
334.00000000001171
 11
553.93405808371597
 21
331.00000000001171
  0
LINE
  8
_0-a_
  6
CONTINUOUS
 62
    3
 10
558.5321342950682
 20
331.00000000001171
 11
553.93405808371597
 21
331.00000000001171
  0
LINE
  8
_0-f_寸法
  6
CONTINUOUS
 62
    4
 10
171.93405808371733
 20
335.50000000001148
 11
171.93405808371733
 21
375.50000000001148
  0
LINE
  8
_0-f_寸法
  6
CONTINUOUS
 62
    4
 10
81.934058083715968
 20
335.50000000001148
 11
81.934058083715968
 21
375.50000000001148
  0
POINT
  8
_0-f_寸法
 62
    4
 10
81.934058083715968
 20
374.50000000001148
  0
POINT
  8
_0-f_寸法
 62
    4
 10
171.93405808371733
 20
374.50000000001148
  0
LINE
  8
_0-f_寸法
  6
CONTINUOUS
 62
    4
 10
81.934058083715968
 20
374.50000000001148
 11
171.93405808371733
 21
374.50000000001148
  0
TEXT
  8
_0-f_寸法
 62
    4
 10
123.33405808371685
 20
374.50000000001148
 40
9
 41
0.8
 50
0
  1
90
  0
LINE
  8
_0-f_寸法
  6
CONTINUOUS
 62
    4
 10
326.93405808371597
 20
335.50000000001148
 11
326.93405808371597
 21
375.50000000001148
  0
POINT
  8
_0-f_寸法
 62
    4
 10
171.93405808371733
 20
374.50000000001148
  0
POINT
  8
_0-f_寸法
 62
    4
 10
326.93405808371597
 20
374.50000000001148
  0
LINE
  8
_0-f_寸法
  6
CONTINUOUS
 62
    4
 10
171.93405808371733
 20
374.50000000001148
 11
326.93405808371597
 21
374.50000000001148
  0
TEXT
  8
_0-f_寸法
 62
    4
 10
244.03405808371642
 20
374.50000000001148
 40
9
 41
0.8
 50
0
  1
155
  0
LINE
  8
_0-f_寸法
  6
CONTINUOUS
 62
    4
 10
561.93405808371506
 20
335.50000000001148
 11
561.93405808371506
 21
375.50000000001137
  0
POINT
  8
_0-f_寸法
 62
    4
 10
326.93405808371597
 20
374.50000000001148
  0
POINT
  8
_0-f_寸法
 62
    4
 10
561.93405808371506
 20
374.50000000001137
  0
LINE
  8
_0-f_寸法
  6
CONTINUOUS
 62
    4
 10
326.93405808371597
 20
374.50000000001148
 11
561.93405808371506
 21
374.50000000001137
  0
TEXT
  8
_0-f_寸法
 62
    4
 10
439.03405808371554
 20
374.50000000001148
 40
9
 41
0.8
 50
0
  1
235
  0
LINE
  8
_0-f_寸法
  6
CONTINUOUS
 62
    4
 10
561.93405808371506
 20
375.50000000001137
 11
561.93405808371506
 21
395.50000000001125
  0
LINE
  8
_0-f_寸法
  6
CONTINUOUS
 62
    4
 10
81.934058083715968
 20
375.50000000001148
 11
81.934058083715968
 21
395.50000000001148
  0
POINT
  8
_0-f_寸法
 62
    4
 10
81.934058083715968
 20
394.50000000001148
  0
POINT
  8
_0-f_寸法
 62
    4
 10
561.93405808371506
 20
394.50000000001125
  0
LINE
  8
_0-f_寸法
  6
CONTINUOUS
 62
    4
 10
81.934058083715968
 20
394.50000000001148
 11
561.93405808371506
 21
394.50000000001125
  0
TEXT
  8
_0-f_寸法
 62
    4
 10
316.53405808371554
 20
394.50000000001148
 40
9
 41
0.8
 50
0
  1
480
  0
LINE
  8
_0-0_躯体
  6
CONTINUOUS
 62
    2
 10
553.93405808371597
 20
331.00000000001148
 11
593.93405808371597
 21
331.00000000001148
  0
LINE
  8
_0-0_躯体
  6
CONTINUOUS
 62
    2
 10
49.934058083714604
 20
331.00000000001125
 11
89.934058083714149
 21
331.00000000001125
  0
LINE
  8
_0-f_寸法
  6
CONTINUOUS
 62
    4
 10
326.93405808371597
 20
303.00000000001171
 11
326.93405808371597
 21
276.00000000001171
  0
LINE
  8
_0-f_寸法
  6
CONTINUOUS
 62
    4
 10
351.93405808371597
 20
296.00000000001171
 11
351.93405808371597
 21
276.00000000001171
  0
POINT
  8
_0-f_寸法
 62
    4
 10
351.93405808371597
 20
277.00000000001171
  0
POINT
  8
_0-f_寸法
 62
    4
 10
326.93405808371597
 20
277.00000000001171
  0
LINE
  8
_0-f_寸法
  6
CONTINUOUS
 62
    4
 10
351.93405808371597
 20
277.00000000001171
 11
326.93405808371597
 21
277.00000000001171
  0
TEXT
  8
_0-f_寸法
 62
    4
 10
335.83405808371595
 20
277.00000000001171
 40
9
 41
0.8
 50
0
  1
25
  0
CIRCLE
  8
_0-e_付箋
  6
CONTINUOUS
 62
    4
 10
319.44638360546639
 20
294.93096437313864
 40
4.8827102566353844
  0
TEXT
  8
_0-e_付箋
 62
    4
 10
316.44638360546639
 20
291.93096437313864
 40
6
 41
1
 50
0
  1
４
  0
LINE
  8
_0-e_付箋
  6
CONTINUOUS
 62
    4
 10
326.93405808371597
 20
309.39999700000305
 11
321.2092471637751
 21
299.48433362294043
  0
CIRCLE
  8
_0-e_付箋
  6
CONTINUOUS
 62
    4
 10
188.02443914048388
 20
309.79999900002338
 40
4.8827102566353844
  0
TEXT
  8
_0-e_付箋
 62
    4
 10
185.02443914048388
 20
306.79999900002338
 40
6
 41
1
 50
0
  1
７
  0
LINE
  8
_0-e_付箋
  6
CONTINUOUS
 62
    4
 10
183.79588801891884
 20
312.24135412834096
 11
175.03405808371724
 21
317.29999900002338
  0
CIRCLE
  8
_0-e_付箋
  6
CONTINUOUS
 62
    4
 10
184.14065980151543
 20
296.09339528220983
 40
4.8827102566353844
  0
TEXT
  8
_0-e_付箋
 62
    4
 10
181.14065980151543
 20
293.09339528220983
 40
6
 41
1
 50
0
  1
５
  0
LINE
  8
_0-e_付箋
  6
CONTINUOUS
 62
    4
 10
180.68806226847971
 20
299.54599281524577
 11
173.53405808371724
 21
306.69999700000801
  0
CIRCLE
  8
_0-e_付箋
  6
CONTINUOUS
 62
    4
 10
549.93405808371506
 20
347.24038105677835
 40
4.8827102566353844
  0
TEXT
  8
_0-e_付箋
 62
    4
 10
546.93405808371506
 20
344.24038105677835
 40
6
 41
1
 50
0
  1
８
  0
LINE
  8
_0-e_付箋
  6
CONTINUOUS
 62
    4
 10
547.49270295539725
 20
343.0118299352132
 11
542.43405808371506
 21
334.25000000001171
  0
CIRCLE
  8
_0-e_付箋
  6
CONTINUOUS
 62
    4
 10
144.17173256196554
 20
344.21903262687613
 40
4.8827102566353844
  0
TEXT
  8
_0-e_付箋
 62
    4
 10
141.17173256196554
 20
341.21903262687613
 40
6
 41
1
 50
0
  1
３
  0
LINE
  8
_0-e_付箋
  6
CONTINUOUS
 62
    4
 10
136.68405808371597
 20
329.7500000000116
 11
142.40886900365683
 21
339.66566337707411
  0
CIRCLE
  8
_0-e_付箋
  6
CONTINUOUS
 62
    4
 10
490.67173256196509
 20
344.2190326268759
 40
4.8827102566353844
  0
TEXT
  8
_0-e_付箋
 62
    4
 10
487.67173256196509
 20
341.2190326268759
 40
6
 41
1
 50
0
  1
１
  0
LINE
  8
_0-e_付箋
  6
CONTINUOUS
 62
    4
 10
483.18405808371597
 20
329.75000000001148
 11
488.90886900365683
 21
339.66566337707411
  0
CIRCLE
  8
_0-e_付箋
  6
CONTINUOUS
 62
    4
 10
257.72173181196547
 20
338.82903062688786
 40
4.8827102566353844
  0
TEXT
  8
_0-e_付箋
 62
    4
 10
254.72173181196547
 20
335.82903062688786
 40
6
 41
1
 50
0
  1
２
  0
LINE
  8
_0-e_付箋
  6
CONTINUOUS
 62
    4
 10
250.23405733371635
 20
324.35999800002344
 11
255.95886825365722
 21
334.27566137708607
  0
CIRCLE
  8
_0-e_付箋
  6
CONTINUOUS
 62
    4
 10
401.93405808371233
 20
283.26411670145774
 40
4.8827102566353844
  0
TEXT
  8
_0-e_付箋
 62
    4
 10
398.93405808371233
 20
280.26411670145774
 40
6
 41
1
 50
0
  1
10
  0
LINE
  8
_0-e_付箋
  6
CONTINUOUS
 62
    4
 10
399.49270295539452
 20
287.49266782302288
 11
386.93405808371233
 21
309.24487881499101
  0
CIRCLE
  8
_0-e_付箋
  6
CONTINUOUS
 62
    4
 10
541.43405808371324
 20
280.26923788647821
 40
4.8827102566353844
  0
TEXT
  8
_0-e_付箋
 62
    4
 10
538.43405808371324
 20
277.26923788647821
 40
6
 41
1
 50
0
  1
11
  0
LINE
  8
_0-e_付箋
  6
CONTINUOUS
 62
    4
 10
538.99270295539543
 20
284.49778900804336
 11
526.43405808371324
 21
306.25000000001148
  0
CIRCLE
  8
_0-e_付箋
  6
CONTINUOUS
 62
    4
 10
322.45082262669837
 20
216.1203233727183
 40
4.8827102566353844
  0
TEXT
  8
_0-e_付箋
 62
    4
 10
319.45082262669837
 20
213.1203233727183
 40
6
 41
1
 50
0
  1
６
  0
LINE
  8
_0-e_付箋
  6
CONTINUOUS
 62
    4
 10
318.9982250936622
 20
219.5729209057543
 11
311.84422090890018
 21
226.72692509051654
  0
LINE
  8
_0-a_
  6
CONTINUOUS
 62
    3
 10
62.934058083714604
 20
334.00000000001171
 11
65.934058083714604
 21
331.00000000001171
  0
LINE
  8
_0-a_
  6
CONTINUOUS
 62
    3
 10
59.934058083714604
 20
331.00000000001171
 11
62.934058083714604
 21
334.00000000001171
  0
LINE
  8
_0-0_躯体
  6
CONTINUOUS
 62
    2
 10
351.93405808371597
 20
300.40000000001169
 11
553.93405808371597
 21
300.40000000001169
  0
LINE
  8
_0-0_躯体
  6
CONTINUOUS
 62
    2
 10
351.93405808371597
 20
295.40000000001169
 11
563.93405808371597
 21
295.40000000001169
  0
LINE
  8
_0-0_躯体
  6
CONTINUOUS
 62
    2
 10
89.934058083714149
 20
300.40000000002317
 11
151.93405808371688
 21
300.40000000002317
  0
LINE
  8
_0-0_躯体
  6
CONTINUOUS
 62
    2
 10
79.934058083714376
 20
329.40000000001157
 11
79.934058083714376
 21
295.40000000002317
  0
LINE
  8
_0-0_躯体
  6
CONTINUOUS
 62
    2
 10
151.93405808371688
 20
295.40000000002317
 11
79.934058083714376
 21
295.40000000002317
  0
LINE
  8
_0-0_躯体
  6
CONTINUOUS
 62
    2
 10
89.934058083714149
 20
331.0000000000116
 11
89.934058083714149
 21
300.4000000000118
  0
LINE
  8
_0-0_躯体
  6
CONTINUOUS
 62
    2
 10
79.934058083714376
 20
331.00000000001125
 11
79.934058083714376
 21
295.40000000002317
  0
LINE
  8
_0-0_躯体
  6
CONTINUOUS
 62
    2
 10
151.93405808371688
 20
297.06729355394589
 11
150.26676452979416
 21
295.40000000002317
  0
LINE
  8
_0-0_躯体
  6
CONTINUOUS
 62
    2
 10
151.93405808371688
 20
299.8957206786921
 11
147.43833740504795
 21
295.40000000002317
  0
LINE
  8
_0-0_躯体
  6
CONTINUOUS
 62
    2
 10
149.60991028030173
 20
300.40000000002317
 11
144.60991028030173
 21
295.40000000002317
  0
LINE
  8
_0-0_躯体
  6
CONTINUOUS
 62
    2
 10
146.78148315555552
 20
300.40000000002317
 11
141.78148315555552
 21
295.40000000002317
  0
LINE
  8
_0-0_躯体
  6
CONTINUOUS
 62
    2
 10
143.95305603080976
 20
300.40000000002317
 11
138.95305603080976
 21
295.40000000002317
  0
LINE
  8
_0-0_躯体
  6
CONTINUOUS
 62
    2
 10
141.12462890606355
 20
300.40000000002317
 11
136.12462890606355
 21
295.40000000002317
  0
LINE
  8
_0-0_躯体
  6
CONTINUOUS
 62
    2
 10
138.29620178131734
 20
300.40000000002317
 11
133.29620178131711
 21
295.40000000002317
  0
LINE
  8
_0-0_躯体
  6
CONTINUOUS
 62
    2
 10
135.46777465657112
 20
300.40000000002317
 11
130.4677746565709
 21
295.40000000002317
  0
LINE
  8
_0-0_躯体
  6
CONTINUOUS
 62
    2
 10
132.63934753182468
 20
300.40000000002317
 11
127.63934753182468
 21
295.40000000002317
  0
LINE
  8
_0-0_躯体
  6
CONTINUOUS
 62
    2
 10
129.81092040707847
 20
300.40000000002317
 11
124.81092040707847
 21
295.40000000002317
  0
LINE
  8
_0-0_躯体
  6
CONTINUOUS
 62
    2
 10
126.98249328233226
 20
300.40000000002317
 11
121.98249328233226
 21
295.40000000002317
  0
LINE
  8
_0-0_躯体
  6
CONTINUOUS
 62
    2
 10
124.15406615758604
 20
300.40000000002317
 11
119.15406615758604
 21
295.40000000002317
  0
LINE
  8
_0-0_躯体
  6
CONTINUOUS
 62
    2
 10
121.32563903284006
 20
300.40000000002317
 11
116.32563903284006
 21
295.40000000002317
  0
LINE
  8
_0-0_躯体
  6
CONTINUOUS
 62
    2
 10
118.49721190809385
 20
300.40000000002317
 11
113.49721190809385
 21
295.40000000002317
  0
LINE
  8
_0-0_躯体
  6
CONTINUOUS
 62
    2
 10
115.66878478334763
 20
300.40000000002317
 11
110.66878478334763
 21
295.40000000002317
  0
LINE
  8
_0-0_躯体
  6
CONTINUOUS
 62
    2
 10
112.84035765860142
 20
300.40000000002317
 11
107.84035765860142
 21
295.40000000002317
  0
LINE
  8
_0-0_躯体
  6
CONTINUOUS
 62
    2
 10
110.01193053385521
 20
300.40000000002317
 11
105.01193053385521
 21
295.40000000002317
  0
LINE
  8
_0-0_躯体
  6
CONTINUOUS
 62
    2
 10
107.18350340910899
 20
300.40000000002317
 11
102.18350340910899
 21
295.40000000002317
  0
LINE
  8
_0-0_躯体
  6
CONTINUOUS
 62
    2
 10
104.35507628436278
 20
300.40000000002317
 11
99.355076284362781
 21
295.40000000002317
  0
LINE
  8
_0-0_躯体
  6
CONTINUOUS
 62
    2
 10
101.52664915961657
 20
300.40000000002317
 11
96.526649159616568
 21
295.40000000002317
  0
LINE
  8
_0-0_躯体
  6
CONTINUOUS
 62
    2
 10
98.698222034870355
 20
300.40000000002317
 11
93.698222034870355
 21
295.40000000002317
  0
LINE
  8
_0-0_躯体
  6
CONTINUOUS
 62
    2
 10
95.869794910124142
 20
300.40000000002317
 11
90.869794910124142
 21
295.40000000002317
  0
LINE
  8
_0-0_躯体
  6
CONTINUOUS
 62
    2
 10
93.041367785377929
 20
300.40000000002317
 11
88.041367785377929
 21
295.40000000002317
  0
LINE
  8
_0-0_躯体
  6
CONTINUOUS
 62
    2
 10
90.212940660631944
 20
300.40000000002317
 11
85.212940660631944
 21
295.40000000002317
  0
LINE
  8
_0-0_躯体
  6
CONTINUOUS
 62
    2
 10
89.934058083714149
 20
302.94954454785159
 11
82.384513535885731
 21
295.40000000002317
  0
LINE
  8
_0-0_躯体
  6
CONTINUOUS
 62
    2
 10
89.934058083714149
 20
305.7779716725978
 11
79.934058083714376
 21
295.77797167259803
  0
LINE
  8
_0-0_躯体
  6
CONTINUOUS
 62
    2
 10
89.934058083714149
 20
308.60639879734401
 11
79.934058083714376
 21
298.60639879734413
  0
LINE
  8
_0-0_躯体
  6
CONTINUOUS
 62
    2
 10
89.934058083714149
 20
311.43482592209023
 11
79.934058083714376
 21
301.43482592209034
  0
LINE
  8
_0-0_躯体
  6
CONTINUOUS
 62
    2
 10
89.934058083714149
 20
314.26325304683644
 11
79.934058083714376
 21
304.26325304683655
  0
LINE
  8
_0-0_躯体
  6
CONTINUOUS
 62
    2
 10
89.934058083714149
 20
317.09168017158265
 11
79.934058083714376
 21
307.09168017158265
  0
LINE
  8
_0-0_躯体
  6
CONTINUOUS
 62
    2
 10
89.934058083714149
 20
319.92010729632887
 11
79.934058083714376
 21
309.92010729632887
  0
LINE
  8
_0-0_躯体
  6
CONTINUOUS
 62
    2
 10
89.934058083714149
 20
322.74853442107508
 11
79.934058083714376
 21
312.74853442107508
  0
LINE
  8
_0-0_躯体
  6
CONTINUOUS
 62
    2
 10
89.934058083714149
 20
325.57696154582129
 11
79.934058083714376
 21
315.57696154582129
  0
LINE
  8
_0-0_躯体
  6
CONTINUOUS
 62
    2
 10
89.934058083714149
 20
328.40538867056728
 11
79.934058083714376
 21
318.4053886705675
  0
LINE
  8
_0-0_躯体
  6
CONTINUOUS
 62
    2
 10
89.700242288411914
 20
331.00000000001125
 11
79.934058083714376
 21
321.23381579531372
  0
LINE
  8
_0-0_躯体
  6
CONTINUOUS
 62
    2
 10
86.871815163665701
 20
331.00000000001125
 11
79.934058083714376
 21
324.06224292005993
  0
LINE
  8
_0-0_躯体
  6
CONTINUOUS
 62
    2
 10
84.043388038919488
 20
331.00000000001125
 11
79.934058083714376
 21
326.89067004480603
  0
LINE
  8
_0-0_躯体
  6
CONTINUOUS
 62
    2
 10
81.21496091417373
 20
331.0000000000116
 11
79.934058083714376
 21
329.71909716955213
  0
LINE
  8
_0-0_躯体
  6
CONTINUOUS
 62
    2
 10
563.93405808371597
 20
296.83022050157479
 11
562.50383758215264
 21
295.40000000001169
  0
LINE
  8
_0-0_躯体
  6
CONTINUOUS
 62
    2
 10
563.93405808371597
 20
299.65864762632111
 11
559.67541045740643
 21
295.40000000001169
  0
LINE
  8
_0-0_躯体
  6
CONTINUOUS
 62
    2
 10
563.93405808371597
 20
302.48707475106721
 11
556.84698333266022
 21
295.40000000001169
  0
LINE
  8
_0-0_躯体
  6
CONTINUOUS
 62
    2
 10
563.93405808371597
 20
305.31550187581354
 11
554.018556207914
 21
295.40000000001169
  0
LINE
  8
_0-0_躯体
  6
CONTINUOUS
 62
    2
 10
563.93405808371597
 20
308.14392900055964
 11
551.19012908316779
 21
295.40000000001169
  0
LINE
  8
_0-0_躯体
  6
CONTINUOUS
 62
    2
 10
563.93405808371597
 20
310.97235612530585
 11
553.93405808371597
 21
300.97235612530585
  0
LINE
  8
_0-0_躯体
  6
CONTINUOUS
 62
    2
 10
553.36170195842158
 20
300.40000000001169
 11
548.36170195842158
 21
295.40000000001169
  0
LINE
  8
_0-0_躯体
  6
CONTINUOUS
 62
    2
 10
563.93405808371597
 20
313.80078325005184
 11
553.93405808371597
 21
303.80078325005195
  0
LINE
  8
_0-0_躯体
  6
CONTINUOUS
 62
    2
 10
550.53327483367582
 20
300.40000000001169
 11
545.53327483367582
 21
295.40000000001169
  0
LINE
  8
_0-0_躯体
  6
CONTINUOUS
 62
    2
 10
563.93405808371597
 20
316.62921037479828
 11
553.93405808371597
 21
306.62921037479828
  0
LINE
  8
_0-0_躯体
  6
CONTINUOUS
 62
    2
 10
547.70484770892915
 20
300.40000000001169
 11
542.70484770892915
 21
295.40000000001169
  0
LINE
  8
_0-0_躯体
  6
CONTINUOUS
 62
    2
 10
563.93405808371597
 20
319.45763749954426
 11
553.93405808371597
 21
309.45763749954438
  0
LINE
  8
_0-0_躯体
  6
CONTINUOUS
 62
    2
 10
544.87642058418339
 20
300.40000000001169
 11
539.87642058418339
 21
295.40000000001169
  0
LINE
  8
_0-0_躯体
  6
CONTINUOUS
 62
    2
 10
563.93405808371597
 20
322.2860646242907
 11
553.93405808371597
 21
312.2860646242907
  0
LINE
  8
_0-0_躯体
  6
CONTINUOUS
 62
    2
 10
542.04799345943673
 20
300.40000000001169
 11
537.04799345943673
 21
295.40000000001169
  0
LINE
  8
_0-0_躯体
  6
CONTINUOUS
 62
    2
 10
563.93405808371597
 20
325.11449174903669
 11
553.93405808371597
 21
315.11449174903669
  0
LINE
  8
_0-0_躯体
  6
CONTINUOUS
 62
    2
 10
539.21956633469097
 20
300.40000000001169
 11
534.21956633469097
 21
295.40000000001169
  0
LINE
  8
_0-0_躯体
  6
CONTINUOUS
 62
    2
 10
563.93405808371597
 20
327.94291887378267
 11
553.93405808371597
 21
317.94291887378267
  0
LINE
  8
_0-0_躯体
  6
CONTINUOUS
 62
    2
 10
536.39113920994475
 20
300.40000000001169
 11
531.39113920994475
 21
295.40000000001169
  0
LINE
  8
_0-0_躯体
  6
CONTINUOUS
 62
    2
 10
533.56271208519854
 20
300.40000000001169
 11
528.56271208519854
 21
295.40000000001169
  0
LINE
  8
_0-0_躯体
  6
CONTINUOUS
 62
    2
 10
530.73428496045187
 20
300.40000000001169
 11
525.73428496045187
 21
295.40000000001169
  0
LINE
  8
_0-0_躯体
  6
CONTINUOUS
 62
    2
 10
527.90585783570612
 20
300.40000000001169
 11
522.90585783570612
 21
295.40000000001169
  0
LINE
  8
_0-0_躯体
  6
CONTINUOUS
 62
    2
 10
525.0774307109599
 20
300.40000000001169
 11
520.0774307109599
 21
295.40000000001169
  0
LINE
  8
_0-0_躯体
  6
CONTINUOUS
 62
    2
 10
522.24900358621369
 20
300.40000000001169
 11
517.24900358621369
 21
295.40000000001169
  0
LINE
  8
_0-0_躯体
  6
CONTINUOUS
 62
    2
 10
519.42057646146748
 20
300.40000000001169
 11
514.42057646146748
 21
295.40000000001169
  0
LINE
  8
_0-0_躯体
  6
CONTINUOUS
 62
    2
 10
516.59214933672126
 20
300.40000000001169
 11
511.59214933672126
 21
295.40000000001169
  0
LINE
  8
_0-0_躯体
  6
CONTINUOUS
 62
    2
 10
513.76372221197505
 20
300.40000000001169
 11
508.76372221197505
 21
295.40000000001169
  0
LINE
  8
_0-0_躯体
  6
CONTINUOUS
 62
    2
 10
510.93529508722884
 20
300.40000000001169
 11
505.93529508722884
 21
295.40000000001169
  0
LINE
  8
_0-0_躯体
  6
CONTINUOUS
 62
    2
 10
508.10686796248262
 20
300.40000000001169
 11
503.10686796248262
 21
295.40000000001169
  0
LINE
  8
_0-0_躯体
  6
CONTINUOUS
 62
    2
 10
505.27844083773641
 20
300.40000000001169
 11
500.27844083773641
 21
295.40000000001169
  0
LINE
  8
_0-0_躯体
  6
CONTINUOUS
 62
    2
 10
502.4500137129902
 20
300.40000000001169
 11
497.4500137129902
 21
295.40000000001169
  0
LINE
  8
_0-0_躯体
  6
CONTINUOUS
 62
    2
 10
499.62158658824399
 20
300.40000000001169
 11
494.62158658824399
 21
295.40000000001169
  0
LINE
  8
_0-0_躯体
  6
CONTINUOUS
 62
    2
 10
496.79315946349823
 20
300.40000000001169
 11
491.79315946349823
 21
295.40000000001169
  0
LINE
  8
_0-0_躯体
  6
CONTINUOUS
 62
    2
 10
493.96473233875156
 20
300.40000000001169
 11
488.96473233875201
 21
295.40000000001169
  0
LINE
  8
_0-0_躯体
  6
CONTINUOUS
 62
    2
 10
491.1363052140058
 20
300.40000000001169
 11
486.1363052140058
 21
295.40000000001169
  0
LINE
  8
_0-0_躯体
  6
CONTINUOUS
 62
    2
 10
488.30787808925913
 20
300.40000000001169
 11
483.30787808925959
 21
295.40000000001169
  0
LINE
  8
_0-0_躯体
  6
CONTINUOUS
 62
    2
 10
485.47945096451338
 20
300.40000000001169
 11
480.47945096451338
 21
295.40000000001169
  0
LINE
  8
_0-0_躯体
  6
CONTINUOUS
 62
    2
 10
482.65102383976716
 20
300.40000000001169
 11
477.65102383976716
 21
295.40000000001169
  0
LINE
  8
_0-0_躯体
  6
CONTINUOUS
 62
    2
 10
479.82259671502095
 20
300.40000000001169
 11
474.82259671502095
 21
295.40000000001169
  0
LINE
  8
_0-0_躯体
  6
CONTINUOUS
 62
    2
 10
476.99416959027474
 20
300.40000000001169
 11
471.99416959027474
 21
295.40000000001169
  0
LINE
  8
_0-0_躯体
  6
CONTINUOUS
 62
    2
 10
474.16574246552852
 20
300.40000000001169
 11
469.16574246552852
 21
295.40000000001169
  0
LINE
  8
_0-0_躯体
  6
CONTINUOUS
 62
    2
 10
471.33731534078231
 20
300.40000000001169
 11
466.33731534078231
 21
295.40000000001169
  0
LINE
  8
_0-0_躯体
  6
CONTINUOUS
 62
    2
 10
468.5088882160361
 20
300.40000000001169
 11
463.5088882160361
 21
295.40000000001169
  0
LINE
  8
_0-0_躯体
  6
CONTINUOUS
 62
    2
 10
465.68046109128989
 20
300.40000000001169
 11
460.68046109128989
 21
295.40000000001169
  0
LINE
  8
_0-0_躯体
  6
CONTINUOUS
 62
    2
 10
462.85203396654367
 20
300.40000000001169
 11
457.85203396654367
 21
295.40000000001169
  0
LINE
  8
_0-0_躯体
  6
CONTINUOUS
 62
    2
 10
460.02360684179746
 20
300.40000000001169
 11
455.02360684179746
 21
295.40000000001169
  0
LINE
  8
_0-0_躯体
  6
CONTINUOUS
 62
    2
 10
457.19517971705125
 20
300.40000000001169
 11
452.19517971705125
 21
295.40000000001169
  0
LINE
  8
_0-0_躯体
  6
CONTINUOUS
 62
    2
 10
454.36675259230503
 20
300.40000000001169
 11
449.36675259230503
 21
295.40000000001169
  0
LINE
  8
_0-0_躯体
  6
CONTINUOUS
 62
    2
 10
451.53832546755882
 20
300.40000000001169
 11
446.53832546755882
 21
295.40000000001169
  0
LINE
  8
_0-0_躯体
  6
CONTINUOUS
 62
    2
 10
448.70989834281261
 20
300.40000000001169
 11
443.70989834281261
 21
295.40000000001169
  0
LINE
  8
_0-0_躯体
  6
CONTINUOUS
 62
    2
 10
445.88147121806639
 20
300.40000000001169
 11
440.88147121806639
 21
295.40000000001169
  0
LINE
  8
_0-0_躯体
  6
CONTINUOUS
 62
    2
 10
443.05304409332018
 20
300.40000000001169
 11
438.05304409332018
 21
295.40000000001169
  0
LINE
  8
_0-0_躯体
  6
CONTINUOUS
 62
    2
 10
440.22461696857442
 20
300.40000000001169
 11
435.22461696857442
 21
295.40000000001169
  0
LINE
  8
_0-0_躯体
  6
CONTINUOUS
 62
    2
 10
437.39618984382776
 20
300.40000000001169
 11
432.39618984382776
 21
295.40000000001169
  0
LINE
  8
_0-0_躯体
  6
CONTINUOUS
 62
    2
 10
434.567762719082
 20
300.40000000001169
 11
429.567762719082
 21
295.40000000001169
  0
LINE
  8
_0-0_躯体
  6
CONTINUOUS
 62
    2
 10
431.73933559433533
 20
300.40000000001169
 11
426.73933559433533
 21
295.40000000001169
  0
LINE
  8
_0-0_躯体
  6
CONTINUOUS
 62
    2
 10
428.91090846958957
 20
300.40000000001169
 11
423.91090846958957
 21
295.40000000001169
  0
LINE
  8
_0-0_躯体
  6
CONTINUOUS
 62
    2
 10
426.08248134484336
 20
300.40000000001169
 11
421.08248134484336
 21
295.40000000001169
  0
LINE
  8
_0-0_躯体
  6
CONTINUOUS
 62
    2
 10
423.25405422009715
 20
300.40000000001169
 11
418.25405422009715
 21
295.40000000001169
  0
LINE
  8
_0-0_躯体
  6
CONTINUOUS
 62
    2
 10
420.42562709535048
 20
300.40000000001169
 11
415.42562709535048
 21
295.40000000001169
  0
LINE
  8
_0-0_躯体
  6
CONTINUOUS
 62
    2
 10
417.59719997060472
 20
300.40000000001169
 11
412.59719997060472
 21
295.40000000001169
  0
LINE
  8
_0-0_躯体
  6
CONTINUOUS
 62
    2
 10
414.76877284585851
 20
300.40000000001169
 11
409.76877284585851
 21
295.40000000001169
  0
LINE
  8
_0-0_躯体
  6
CONTINUOUS
 62
    2
 10
411.94034572111229
 20
300.40000000001169
 11
406.94034572111229
 21
295.40000000001169
  0
LINE
  8
_0-0_躯体
  6
CONTINUOUS
 62
    2
 10
409.11191859636608
 20
300.40000000001169
 11
404.11191859636608
 21
295.40000000001169
  0
LINE
  8
_0-0_躯体
  6
CONTINUOUS
 62
    2
 10
406.28349147161987
 20
300.40000000001169
 11
401.28349147161987
 21
295.40000000001169
  0
LINE
  8
_0-0_躯体
  6
CONTINUOUS
 62
    2
 10
403.45506434687366
 20
300.40000000001169
 11
398.45506434687366
 21
295.40000000001169
  0
LINE
  8
_0-0_躯体
  6
CONTINUOUS
 62
    2
 10
400.62663722212744
 20
300.40000000001169
 11
395.62663722212744
 21
295.40000000001169
  0
LINE
  8
_0-0_躯体
  6
CONTINUOUS
 62
    2
 10
397.79821009738123
 20
300.40000000001169
 11
392.79821009738123
 21
295.40000000001169
  0
LINE
  8
_0-0_躯体
  6
CONTINUOUS
 62
    2
 10
394.96978297263502
 20
300.40000000001169
 11
389.96978297263502
 21
295.40000000001169
  0
LINE
  8
_0-0_躯体
  6
CONTINUOUS
 62
    2
 10
392.1413558478888
 20
300.40000000001169
 11
387.1413558478888
 21
295.40000000001169
  0
LINE
  8
_0-0_躯体
  6
CONTINUOUS
 62
    2
 10
389.31292872314259
 20
300.40000000001169
 11
384.31292872314259
 21
295.40000000001169
  0
LINE
  8
_0-0_躯体
  6
CONTINUOUS
 62
    2
 10
386.48450159839638
 20
300.40000000001169
 11
381.48450159839683
 21
295.40000000001169
  0
LINE
  8
_0-0_躯体
  6
CONTINUOUS
 62
    2
 10
383.65607447365016
 20
300.40000000001169
 11
378.65607447365016
 21
295.40000000001169
  0
LINE
  8
_0-0_躯体
  6
CONTINUOUS
 62
    2
 10
380.82764734890441
 20
300.40000000001169
 11
375.82764734890441
 21
295.40000000001169
  0
LINE
  8
_0-0_躯体
  6
CONTINUOUS
 62
    2
 10
377.99922022415774
 20
300.40000000001169
 11
372.99922022415774
 21
295.40000000001169
  0
LINE
  8
_0-0_躯体
  6
CONTINUOUS
 62
    2
 10
375.17079309941198
 20
300.40000000001169
 11
370.17079309941198
 21
295.40000000001169
  0
LINE
  8
_0-0_躯体
  6
CONTINUOUS
 62
    2
 10
372.34236597466577
 20
300.40000000001169
 11
367.34236597466577
 21
295.40000000001169
  0
LINE
  8
_0-0_躯体
  6
CONTINUOUS
 62
    2
 10
369.51393884991955
 20
300.40000000001169
 11
364.51393884991955
 21
295.40000000001169
  0
LINE
  8
_0-0_躯体
  6
CONTINUOUS
 62
    2
 10
366.68551172517334
 20
300.40000000001169
 11
361.68551172517334
 21
295.40000000001169
  0
LINE
  8
_0-0_躯体
  6
CONTINUOUS
 62
    2
 10
363.85708460042713
 20
300.40000000001169
 11
358.85708460042713
 21
295.40000000001169
  0
LINE
  8
_0-0_躯体
  6
CONTINUOUS
 62
    2
 10
361.02865747568092
 20
300.40000000001169
 11
356.02865747568092
 21
295.40000000001169
  0
LINE
  8
_0-0_躯体
  6
CONTINUOUS
 62
    2
 10
358.2002303509347
 20
300.40000000001169
 11
353.2002303509347
 21
295.40000000001169
  0
LINE
  8
_0-0_躯体
  6
CONTINUOUS
 62
    2
 10
355.37180322618849
 20
300.40000000001169
 11
351.93405808371597
 21
296.96225485753894
  0
LINE
  8
_0-0_躯体
  6
CONTINUOUS
 62
    2
 10
352.54337610144228
 20
300.40000000001169
 11
351.93405808371597
 21
299.79068198228515
  0
LINE
  8
_0-0_躯体
  6
CONTINUOUS
 62
    2
 10
553.93405808371597
 20
331.00000000001148
 11
553.93405808371597
 21
300.40000000001169
  0
LINE
  8
_0-0_躯体
  6
CONTINUOUS
 62
    2
 10
563.93405808371597
 20
295.40000000001169
 11
563.93405808371597
 21
331.00000000001148
  0
LINE
  8
_0-0_躯体
  6
CONTINUOUS
 62
    2
 10
561.33428496045178
 20
331.00000000001148
 11
553.93405808371597
 21
323.59977312327555
  0
LINE
  8
_0-0_躯体
  6
CONTINUOUS
 62
    2
 10
558.50585783570602
 20
331.00000000001148
 11
553.93405808371597
 21
326.42820024802154
  0
LINE
  8
_0-0_躯体
  6
CONTINUOUS
 62
    2
 10
555.67743071095708
 20
331.00000000001148
 11
553.93405808371597
 21
329.25662737276753
  0
LINE
  8
_0-0_躯体
  6
CONTINUOUS
 62
    2
 10
563.93405808371597
 20
330.771345998529
 11
553.93405808371597
 21
320.77134599852911
  0
LINE
  8
_0-a_
  6
CONTINUOUS
 62
    3
 10
93.934058083714604
 20
303.00000000001148
 11
93.934058083714604
 21
302.00000000002308
  0
LINE
  8
_0-1_耐火帯
  6
CONTINUOUS
 62
    4
 10
161.53405808371588
 20
240.90000000001112
 11
163.53405808371588
 21
240.90000000001112
  0
ARC
  8
_0-1_耐火帯
  6
CONTINUOUS
 62
    4
 10
163.53405808371588
 20
241.90000000001112
 40
1
 50
270
 51
0
  0
LINE
  8
_0-1_耐火帯
  6
CONTINUOUS
 62
    4
 10
164.53405808371588
 20
241.90000000001112
 11
164.53405808371588
 21
244.90000000001112
  0
ARC
  8
_0-1_耐火帯
  6
CONTINUOUS
 62
    4
 10
163.53405808371588
 20
244.90000000001112
 40
1
 50
0
 51
90
  0
LINE
  8
_0-1_耐火帯
  6
CONTINUOUS
 62
    4
 10
163.53405808371588
 20
245.90000000001112
 11
161.53405808371588
 21
245.90000000001112
  0
ARC
  8
_0-1_耐火帯
  6
CONTINUOUS
 62
    4
 10
153.43405808371597
 20
245.40000000001112
 40
1
 50
90
 51
180
  0
LINE
  8
_0-1_耐火帯
  6
CONTINUOUS
 62
    4
 10
152.43405808371597
 20
245.40000000001112
 11
152.43405808371597
 21
241.40000000001112
  0
ARC
  8
_0-1_耐火帯
  6
CONTINUOUS
 62
    4
 10
153.43405808371597
 20
241.40000000001112
 40
1
 50
180
 51
270
  0
LINE
  8
_0-1_耐火帯
  6
CONTINUOUS
 62
    4
 10
151.93405808371597
 20
229.17500000001121
 11
155.03405808371588
 21
232.27500000001112
  0
ARC
  8
_0-1_耐火帯
  6
CONTINUOUS
 62
    4
 10
154.93405808371597
 20
257.4890840000113
 40
3
 50
180
 51
239.19386900000043
  0
LINE
  8
_0-1_耐火帯
  6
CONTINUOUS
 62
    4
 10
153.39765408371602
 20
254.91237000001126
 11
155.03405808371588
 21
253.93663800001138
  0
LINE
  8
_0-1_耐火帯
  6
CONTINUOUS
 62
    4
 10
155.03405808371588
 20
253.93663800001138
 11
155.03405808371588
 21
232.27500000001112
  0
ARC
  8
_0-1_耐火帯
  6
CONTINUOUS
 62
    4
 10
154.93405808371597
 20
259.52538022291139
 40
3
 50
105.12400699999921
 51
180
  0
LINE
  8
_0-1_耐火帯
  6
CONTINUOUS
 62
    4
 10
157.77189592151592
 20
263.40000000001135
 11
154.15133008371583
 21
262.42147022291135
  0
LINE
  8
_0-1_耐火帯
  6
CONTINUOUS
 62
    4
 10
151.93405808371597
 20
259.52538022291139
 11
151.93405808371597
 21
257.4890840000113
  0
LINE
  8
_0-1_耐火帯
  6
CONTINUOUS
 62
    4
 10
157.77189592151592
 20
263.40000000001135
 11
159.93405808371597
 21
253.40000000001135
  0
LINE
  8
_0-1_耐火帯
  6
CONTINUOUS
 62
    4
 10
159.93405808371597
 20
253.40000000001135
 11
159.93405808371597
 21
233.40000000001112
  0
LINE
  8
_0-1_耐火帯
  6
CONTINUOUS
 62
    4
 10
161.53405808371588
 20
233.40000000001112
 11
159.93405808371597
 21
233.40000000001112
  0
LINE
  8
_0-1_耐火帯
  6
CONTINUOUS
 62
    4
 10
161.53405808371588
 20
233.40000000001112
 11
164.43405808371597
 21
230.50000000001103
  0
LINE
  8
_0-1_耐火帯
  6
CONTINUOUS
 62
    4
 10
161.53405808371588
 20
253.40000000001135
 11
161.53405808371588
 21
233.40000000001112
  0
LINE
  8
_0-1_耐火帯
  6
CONTINUOUS
 62
    4
 10
159.93405808371597
 20
253.40000000001135
 11
159.93405808371597
 21
233.40000000001112
  0
LINE
  8
_0-1_耐火帯
  6
CONTINUOUS
 62
    4
 10
161.53405808371588
 20
233.40000000001112
 11
159.93405808371597
 21
233.40000000001112
  0
LINE
  8
_0-1_耐火帯
  6
CONTINUOUS
 62
    4
 10
155.03405808371588
 20
233.40000000001112
 11
153.43405808371597
 21
233.40000000001112
  0
LINE
  8
_0-1_耐火帯
  6
CONTINUOUS
 62
    4
 10
153.43405808371597
 20
253.40000000001135
 11
155.03405808371588
 21
253.40000000001135
  0
LINE
  8
_0-1_耐火帯
  6
CONTINUOUS
 62
    4
 10
153.43405808371597
 20
233.40000000001112
 11
153.43405808371597
 21
253.40000000001135
  0
LINE
  8
_0-1_耐火帯
  6
CONTINUOUS
 62
    4
 10
155.03405808371588
 20
233.40000000001112
 11
155.03405808371588
 21
253.40000000001135
  0
LINE
  8
_0-1_耐火帯
  6
CONTINUOUS
 62
    4
 10
161.53405808371588
 20
233.40000000001112
 11
159.93405808371597
 21
233.40000000001112
  0
LINE
  8
_0-1_耐火帯
  6
CONTINUOUS
 62
    4
 10
151.93405808371597
 20
300.40000000001169
 11
159.93405808371597
 21
253.40000000001157
  0
LINE
  8
_0-1_耐火帯
  6
CONTINUOUS
 62
    4
 10
161.5340580837161
 20
233.40000000001157
 11
159.93405808371597
 21
233.40000000001157
  0
LINE
  8
_0-1_耐火帯
  6
CONTINUOUS
 62
    4
 10
153.28473007568971
 20
302.00000000001205
 11
161.53405808371588
 21
253.53519795286059
  0
LINE
  8
_0-1_耐火帯
  6
CONTINUOUS
 62
    4
 10
159.93405808371574
 20
253.40000000001203
 11
159.93405808371574
 21
233.40000000001157
  0
LINE
  8
_0-1_耐火帯
  6
CONTINUOUS
 62
    4
 10
161.53405808371588
 20
253.53519795286059
 11
161.53405808371588
 21
233.40000000001157
  0
LINE
  8
_0-1_耐火帯
  6
CONTINUOUS
 62
    4
 10
161.53405808371588
 20
233.40000000001157
 11
159.93405808371574
 21
233.40000000001157
  0
LINE
  8
_0-1_耐火帯
  6
CONTINUOUS
 62
    4
 10
93.934058083715513
 20
300.4000000000118
 11
151.93405808371574
 21
300.4000000000118
  0
LINE
  8
_0-1_耐火帯
  6
CONTINUOUS
 62
    4
 10
93.934058083715513
 20
302.00000000001182
 11
93.934058083715513
 21
300.4000000000118
  0
LINE
  8
_0-1_耐火帯
  6
CONTINUOUS
 62
    4
 10
342.33405808371583
 20
240.90000000001135
 11
340.33405808371583
 21
240.90000000001135
  0
ARC
  8
_0-1_耐火帯
  6
CONTINUOUS
 62
    4
 10
340.33405808371583
 20
241.90000000001135
 40
1
 50
180
 51
270
  0
LINE
  8
_0-1_耐火帯
  6
CONTINUOUS
 62
    4
 10
339.33405808371583
 20
241.90000000001135
 11
339.33405808371583
 21
244.90000000001135
  0
ARC
  8
_0-1_耐火帯
  6
CONTINUOUS
 62
    4
 10
340.33405808371583
 20
244.90000000001135
 40
1
 50
90
 51
180
  0
LINE
  8
_0-1_耐火帯
  6
CONTINUOUS
 62
    4
 10
340.33405808371583
 20
245.90000000001135
 11
342.33405808371583
 21
245.90000000001135
  0
ARC
  8
_0-1_耐火帯
  6
CONTINUOUS
 62
    4
 10
350.43405808371597
 20
245.40000000001135
 40
1
 50
0
 51
90
  0
LINE
  8
_0-1_耐火帯
  6
CONTINUOUS
 62
    4
 10
351.43405808371597
 20
245.40000000001135
 11
351.43405808371597
 21
241.40000000001135
  0
ARC
  8
_0-1_耐火帯
  6
CONTINUOUS
 62
    4
 10
350.43405808371597
 20
241.40000000001135
 40
1
 50
270
 51
0
  0
LINE
  8
_0-1_耐火帯
  6
CONTINUOUS
 62
    4
 10
351.93405808371597
 20
229.17500000001144
 11
348.83405808371583
 21
232.27500000001135
  0
ARC
  8
_0-1_耐火帯
  6
CONTINUOUS
 62
    4
 10
348.93405808371597
 20
257.4890840000113
 40
3
 50
300.80613099999954
 51
0
  0
LINE
  8
_0-1_耐火帯
  6
CONTINUOUS
 62
    4
 10
350.47046208371592
 20
254.91237000001126
 11
348.83405808371583
 21
253.93663800001138
  0
LINE
  8
_0-1_耐火帯
  6
CONTINUOUS
 62
    4
 10
348.83405808371583
 20
253.93663800001138
 11
348.83405808371583
 21
232.27500000001135
  0
ARC
  8
_0-1_耐火帯
  6
CONTINUOUS
 62
    4
 10
348.93405808371597
 20
259.52538022291139
 40
3
 50
0
 51
74.87599300000528
  0
LINE
  8
_0-1_耐火帯
  6
CONTINUOUS
 62
    4
 10
346.09622024591579
 20
263.40000000001135
 11
349.71678608371587
 21
262.42147022291135
  0
LINE
  8
_0-1_耐火帯
  6
CONTINUOUS
 62
    4
 10
351.93405808371597
 20
259.52538022291139
 11
351.93405808371597
 21
257.4890840000113
  0
LINE
  8
_0-1_耐火帯
  6
CONTINUOUS
 62
    4
 10
346.09622024591579
 20
263.40000000001135
 11
343.93405808371597
 21
253.40000000001135
  0
LINE
  8
_0-1_耐火帯
  6
CONTINUOUS
 62
    4
 10
343.93405808371597
 20
253.40000000001135
 11
343.93405808371597
 21
233.40000000001135
  0
LINE
  8
_0-1_耐火帯
  6
CONTINUOUS
 62
    4
 10
342.33405808371583
 20
233.40000000001135
 11
343.93405808371597
 21
233.40000000001135
  0
LINE
  8
_0-1_耐火帯
  6
CONTINUOUS
 62
    4
 10
342.33405808371583
 20
233.40000000001135
 11
339.43405808371597
 21
230.50000000001125
  0
LINE
  8
_0-1_耐火帯
  6
CONTINUOUS
 62
    4
 10
342.33405808371583
 20
233.40000000001135
 11
343.93405808371597
 21
233.40000000001135
  0
LINE
  8
_0-1_耐火帯
  6
CONTINUOUS
 62
    4
 10
343.93405808371597
 20
233.40000000001135
 11
343.93405808371597
 21
253.40000000001135
  0
LINE
  8
_0-1_耐火帯
  6
CONTINUOUS
 62
    4
 10
348.83405808371583
 20
233.40000000001135
 11
350.43405808371597
 21
233.40000000001135
  0
LINE
  8
_0-1_耐火帯
  6
CONTINUOUS
 62
    4
 10
350.43405808371597
 20
253.40000000001135
 11
348.83405808371583
 21
253.40000000001135
  0
LINE
  8
_0-1_耐火帯
  6
CONTINUOUS
 62
    4
 10
350.43405808371597
 20
233.40000000001135
 11
350.43405808371597
 21
253.40000000001135
  0
LINE
  8
_0-1_耐火帯
  6
CONTINUOUS
 62
    4
 10
348.83405808371583
 20
233.40000000001135
 11
348.83405808371583
 21
253.40000000001135
  0
LINE
  8
_0-1_耐火帯
  6
CONTINUOUS
 62
    4
 10
343.93405808371574
 20
233.40000000001135
 11
343.93405808371574
 21
253.40000000001135
  0
LINE
  8
_0-1_耐火帯
  6
CONTINUOUS
 62
    4
 10
342.33405808371583
 20
233.40000000001135
 11
343.93405808371574
 21
233.40000000001135
  0
LINE
  8
_0-1_耐火帯
  6
CONTINUOUS
 62
    4
 10
342.33405808371583
 20
233.40000000001135
 11
342.33405808371583
 21
253.57099600001118
  0
LINE
  8
_0-1_耐火帯
  6
CONTINUOUS
 62
    4
 10
342.33405808371583
 20
233.40000000001135
 11
343.93405808371574
 21
233.40000000001135
  0
LINE
  8
_0-1_耐火帯
  6
CONTINUOUS
 62
    4
 10
343.93405808371574
 20
233.40000000001135
 11
343.93405808371574
 21
253.40000000001135
  0
LINE
  8
_0-1_耐火帯
  6
CONTINUOUS
 62
    4
 10
343.93405808371597
 20
253.40000000001157
 11
343.93405808371597
 21
233.40000000001135
  0
LINE
  8
_0-1_耐火帯
  6
CONTINUOUS
 62
    4
 10
342.3340580837156
 20
233.40000000001135
 11
343.93405808371597
 21
233.40000000001135
  0
LINE
  8
_0-1_耐火帯
  6
CONTINUOUS
 62
    4
 10
342.3340580837156
 20
233.40000000001112
 11
343.93405808371551
 21
233.40000000001112
  0
LINE
  8
_0-1_耐火帯
  6
CONTINUOUS
 62
    4
 10
350.58338609174177
 20
302.00000000001148
 11
342.33405808371606
 21
253.53519795286059
  0
LINE
  8
_0-1_耐火帯
  6
CONTINUOUS
 62
    4
 10
351.93405808371597
 20
300.40000000001169
 11
343.93405808371597
 21
253.40000000001157
  0
LINE
  8
_0-1_耐火帯
  6
CONTINUOUS
 62
    4
 10
343.93405808371597
 20
253.40000000001157
 11
343.93405808371597
 21
233.40000000001135
  0
LINE
  8
_0-1_耐火帯
  6
CONTINUOUS
 62
    4
 10
342.33405808371606
 20
233.40000000001135
 11
343.93405808371597
 21
233.40000000001135
  0
LINE
  8
_0-1_耐火帯
  6
CONTINUOUS
 62
    4
 10
549.93405808371597
 20
302.00000000001125
 11
549.93405808371597
 21
300.40000000001169
  0
LINE
  8
_0-1_耐火帯
  6
CONTINUOUS
 62
    4
 10
549.93405808371597
 20
300.40000000001169
 11
351.93405808371597
 21
300.40000000001169
  0
LINE
  8
_0-1_耐火帯
  6
CONTINUOUS
 62
    4
 10
549.93405808371597
 20
302.00000000001125
 11
350.70908408371577
 21
302.00000000001125
  0
LINE
  8
_0-1_耐火帯
  6
DASHED1
 62
    4
 10
112.8340580837156
 20
302.00000000001182
 11
114.43405808371551
 21
300.4000000000118
  0
LINE
  8
_0-1_耐火帯
  6
DASHED1
 62
    4
 10
119.43405808371551
 20
300.4000000000118
 11
121.03405808371542
 21
302.00000000001182
  0
LINE
  8
_0-1_耐火帯
  6
DASHED1
 62
    4
 10
129.93405808371574
 20
302.00000000001182
 11
129.93405808371574
 21
300.4000000000118
  0
LINE
  8
_0-1_耐火帯
  6
DASHED1
 62
    4
 10
112.8340580837156
 20
302.00000000001182
 11
114.43405808371551
 21
300.4000000000118
  0
LINE
  8
_0-1_耐火帯
  6
DASHED1
 62
    4
 10
119.43405808371551
 20
300.4000000000118
 11
121.03405808371588
 21
302.00000000001182
  0
LINE
  8
_0-1_耐火帯
  6
DASHED1
 62
    4
 10
129.93405808371574
 20
302.00000000001182
 11
129.93405808371574
 21
300.4000000000118
  0
LINE
  8
_0-1_耐火帯
  6
DASHED1
 62
    4
 10
103.93405808371597
 20
302.00000000001182
 11
103.93405808371597
 21
300.4000000000118
  0
LINE
  8
_0-1_耐火帯
  6
DASHED1
 62
    4
 10
399.93405808371597
 20
302.00000000001125
 11
399.93405808371597
 21
300.40000000001169
  0
LINE
  8
_0-1_耐火帯
  6
DASHED1
 62
    4
 10
391.03405808371588
 20
302.00000000001125
 11
389.43405808371597
 21
300.40000000001169
  0
LINE
  8
_0-1_耐火帯
  6
DASHED1
 62
    4
 10
384.43405808371597
 20
300.40000000001169
 11
382.83405808371606
 21
302.00000000001125
  0
LINE
  8
_0-1_耐火帯
  6
DASHED1
 62
    4
 10
373.93405808371597
 20
302.00000000001125
 11
373.93405808371597
 21
300.40000000001169
  0
LINE
  8
_0-1_耐火帯
  6
DASHED1
 62
    4
 10
534.93405808371597
 20
302.00000000001125
 11
534.93405808371597
 21
300.40000000001169
  0
LINE
  8
_0-1_耐火帯
  6
DASHED1
 62
    4
 10
526.03405808371588
 20
302.00000000001125
 11
524.43405808371597
 21
300.40000000001169
  0
LINE
  8
_0-1_耐火帯
  6
DASHED1
 62
    4
 10
519.43405808371597
 20
300.40000000001169
 11
517.83405808371606
 21
302.00000000001125
  0
LINE
  8
_0-1_耐火帯
  6
DASHED1
 62
    4
 10
508.93405808371597
 20
302.00000000001125
 11
508.93405808371597
 21
300.40000000001169
  0
LINE
  8
_0-1_耐火帯
  6
CONTINUOUS
 62
    4
 10
164.43405808371597
 20
206.17500000001121
 11
164.43405808371597
 21
230.50000000001103
  0
LINE
  8
_0-1_耐火帯
  6
CONTINUOUS
 62
    4
 10
151.93405808371597
 20
206.17500000001121
 11
151.93405808371597
 21
229.17500000001121
  0
LINE
  8
_0-1_耐火帯
  6
CONTINUOUS
 62
    4
 10
339.43405808371597
 20
206.17500000001121
 11
339.43405808371597
 21
230.50000000001125
  0
LINE
  8
_0-1_耐火帯
  6
CONTINUOUS
 62
    4
 10
351.93405808371597
 20
206.17500000001121
 11
351.93405808371597
 21
229.17500000001144
  0
ARC
  8
_0-1_耐火帯
  6
CONTINUOUS
 62
    4
 10
251.93405808371597
 20
206.17500000001144
 40
87.5
 50
180.00000000000014
 51
0
  0
ARC
  8
_0-1_耐火帯
  6
CONTINUOUS
 62
    4
 10
251.93405808371597
 20
206.17500000001144
 40
100
 50
180.00000000000014
 51
0
  0
LINE
  8
_0-1_耐火帯
  6
CONTINUOUS
 62
    4
 10
93.934058083715513
 20
302.00000000001182
 11
153.28473007568994
 21
302.00000000001182
  0
LINE
  8
_0-1_耐火帯
  6
CONTINUOUS
 62
    4
 10
153.28473007568994
 20
302.00000000001182
 11
161.5340580837161
 21
253.53519795286013
  0
ARC
  8
_0-a_
  6
CONTINUOUS
 62
    3
 10
212.29279980516105
 20
274.96405097087427
 40
49.999999999999993
 50
195.00000000000063
 51
227.95304896588627
  0
LINE
  8
_0-a_
  6
CONTINUOUS
 62
    3
 10
164.88554087507248
 20
262.56888799288367
 11
154.05205706366962
 21
303.00000000001182
  0
ARC
  8
_0-a_
  6
CONTINUOUS
 62
    3
 10
291.57531636226997
 20
274.96405097087427
 40
49.999999999999993
 50
312.0469510341137
 51
344.99999999999943
  0
LINE
  8
_0-a_
  6
CONTINUOUS
 62
    3
 10
338.98257529235855
 20
262.56888799288367
 11
349.8160591037614
 21
303.00000000001182
  0
ARC
  8
_0-a_
  6
CONTINUOUS
 62
    3
 10
213.18183218952584
 20
275.50984024801028
 40
49.999999999999993
 50
195.00000000000088
 51
227.61539660672301
  0
ARC
  8
_0-a_
  6
CONTINUOUS
 62
    3
 10
290.68628397790519
 20
275.50984024801028
 40
49.999999999999993
 50
312.38460339327696
 51
344.99999999999909
  0
ARC
  8
_0-a_
  6
CONTINUOUS
 62
    3
 10
251.93405808371551
 20
318.91764267465192
 40
109.18908329725554
 50
227.9530489658863
 51
312.0469510341137
  0
ARC
  8
_0-a_
  6
CONTINUOUS
 62
    3
 10
251.93405808371551
 20
318.91764267465192
 40
108.18749402366947
 50
227.95304896588632
 51
312.0469510341137
  0
LINE
  8
_0-f_寸法
  6
CONTINUOUS
 62
    4
 10
173.53405808371724
 20
303.00000000002308
 11
173.53405808371724
 21
276.00000000002308
  0
LINE
  8
_0-f_寸法
  6
CONTINUOUS
 62
    4
 10
151.93405808371688
 20
296.00000000002308
 11
151.93405808371688
 21
276.00000000002308
  0
POINT
  8
_0-f_寸法
 62
    4
 10
151.93405808371688
 20
277.00000000002308
  0
POINT
  8
_0-f_寸法
 62
    4
 10
173.53405808371724
 20
277.00000000002308
  0
LINE
  8
_0-f_寸法
  6
CONTINUOUS
 62
    4
 10
151.93405808371688
 20
277.00000000002308
 11
173.53405808371724
 21
277.00000000002308
  0
TEXT
  8
_0-f_寸法
 62
    4
 10
155.53405808371707
 20
277.00000000002308
 40
9
 41
0.8
 50
0
  1
21.6
  0
LINE
  8
_f-0_
  6
CONTINUOUS
 62
    6
 10
219.99999999999989
 20
554
 11
219.99999999999989
 21
534.00000000000011
  0
LINE
  8
_f-0_
  6
CONTINUOUS
 62
    6
 10
219.99999999999989
 20
534.00000000000011
 11
19.999999999999886
 21
534.00000000000011
  0
TEXT
  8
_f-0_
 62
    4
 10
47.399999999999864
 20
536
 40
16
 41
1
 50
0
  1
200TTK-A　耐火仕様
  0
LINE
  8
_0-a_
  6
CONTINUOUS
 62
    3
 10
529.43405808371506
 20
303.00000000001171
 11
529.43405808371506
 21
305.50000000001171
  0
LINE
  8
_0-a_
  6
CONTINUOUS
 62
    3
 10
530.68405808371642
 20
307.00000000001125
 11
530.68405808371642
 21
305.50000000001125
  0
LINE
  8
_0-a_
  6
CONTINUOUS
 62
    3
 10
513.18405808371551
 20
307.00000000001125
 11
513.18405808371551
 21
305.50000000001125
  0
LINE
  8
_0-a_
  6
CONTINUOUS
 62
    3
 10
530.68405808371642
 20
307.00000000001125
 11
513.18405808371551
 21
307.00000000001125
  0
INSERT
  2
-000-
  8
_0-9_小物
 10
420.5
 20
297
 41
1
 42
1
 50
0
  0
LINE
  8
_0-9_小物
  6
CONTINUOUS
 62
    3
 10
114.43405808371551
 20
259.49999331354604
 11
116.93405808371551
 21
257.00000000002308
  0
LINE
  8
_0-9_小物
  6
CONTINUOUS
 62
    3
 10
116.93405808371551
 20
257.00000000002308
 11
119.43405808371551
 21
259.21811811555324
  0
LINE
  8
_0-9_小物
  6
CONTINUOUS
 62
    3
 10
114.43405808371551
 20
259.49999331354604
 11
114.43405808371551
 21
261.46226865075766
  0
LINE
  8
_0-9_小物
  6
CONTINUOUS
 62
    3
 10
119.43405808371551
 20
259.21811811555324
 11
119.43405808371551
 21
261.46226865075772
  0
INSERT
  2
-001-_1_
  8
_0-9_小物
 10
420.5
 20
297
 41
1
 42
1
 50
0
  0
LINE
  8
_0-9_小物
  6
CONTINUOUS
 62
    3
 10
384.43405808371506
 20
260.49999331353467
 11
386.93405808371506
 21
258.00000000001171
  0
LINE
  8
_0-9_小物
  6
CONTINUOUS
 62
    3
 10
386.93405808371506
 20
258.00000000001171
 11
389.43405808371506
 21
260.21811811554187
  0
LINE
  8
_0-9_小物
  6
CONTINUOUS
 62
    3
 10
384.43405808371506
 20
260.49999331353467
 11
384.43405808371506
 21
261.46226865074607
  0
LINE
  8
_0-9_小物
  6
CONTINUOUS
 62
    3
 10
389.43405808371506
 20
260.21811811554187
 11
389.43405808371506
 21
261.46226865074601
  0
INSERT
  2
-002-_2_
  8
_0-9_小物
 10
420.5
 20
297
 41
1
 42
1
 50
0
  0
LINE
  8
_0-9_小物
  6
CONTINUOUS
 62
    3
 10
519.43405808371506
 20
259.49999331353422
 11
521.93405808371506
 21
257.00000000001125
  0
LINE
  8
_0-9_小物
  6
CONTINUOUS
 62
    3
 10
521.93405808371506
 20
257.00000000001125
 11
524.43405808371506
 21
259.21811811554142
  0
LINE
  8
_0-9_小物
  6
CONTINUOUS
 62
    3
 10
519.43405808371506
 20
259.49999331353422
 11
519.43405808371506
 21
261.46226865074567
  0
LINE
  8
_0-9_小物
  6
CONTINUOUS
 62
    3
 10
524.43405808371506
 20
259.21811811554142
 11
524.43405808371506
 21
261.46226865074556
  0
CIRCLE
  8
_0-e_付箋
  6
CONTINUOUS
 62
    4
 10
405.60715348190513
 20
240.23684899608452
 40
4.8827102566353844
  0
TEXT
  8
_0-e_付箋
 62
    4
 10
402.60715348190513
 20
237.23684899608452
 40
6
 41
1
 50
0
  1
９
  0
LINE
  8
_0-e_付箋
  6
CONTINUOUS
 62
    4
 10
392.39466808371515
 20
264.62154500001145
 11
403.84428992359688
 21
244.79021824588631
  0
LINE
  8
_0-0_躯体
  6
CENTER1
 62
    2
 10
251.93405808371551
 20
300.40000000001169
 11
251.93405808371551
 21
105.40000000001157
  0
LINE
  8
_0-0_躯体
  6
CONTINUOUS
 62
    2
 10
351.93405808371597
 20
300.40000000001169
 11
351.93405808371597
 21
105.40000000001157
  0
LINE
  8
_0-0_躯体
  6
CONTINUOUS
 62
    2
 10
151.93405808371506
 20
300.40000000002317
 11
151.93405808371506
 21
105.40000000001157
  0
LINE
  8
_0-f_寸法
  6
CONTINUOUS
 62
    4
 10
116.93405808371551
 20
256.00000000002308
 11
116.93405808371551
 21
84.400000000011573
  0
LINE
  8
_0-f_寸法
  6
CONTINUOUS
 62
    4
 10
151.93405808371506
 20
104.40000000001157
 11
151.93405808371506
 21
84.400000000011573
  0
POINT
  8
_0-f_寸法
 62
    4
 10
151.93405808371506
 20
85.400000000011573
  0
POINT
  8
_0-f_寸法
 62
    4
 10
116.93405808371551
 20
85.400000000011573
  0
LINE
  8
_0-f_寸法
  6
CONTINUOUS
 62
    4
 10
151.93405808371506
 20
85.400000000011573
 11
116.93405808371551
 21
85.400000000011573
  0
TEXT
  8
_0-f_寸法
 62
    4
 10
130.83405808371526
 20
85.400000000011573
 40
9
 41
0.8
 50
0
  1
35
  0
LINE
  8
_0-f_寸法
  6
CONTINUOUS
 62
    4
 10
351.93405808371597
 20
104.40000000001157
 11
351.93405808371597
 21
84.400000000011573
  0
LINE
  8
_0-f_寸法
  6
CONTINUOUS
 62
    4
 10
151.93405808371506
 20
104.40000000001157
 11
151.93405808371506
 21
84.400000000011573
  0
POINT
  8
_0-f_寸法
 62
    4
 10
151.93405808371506
 20
85.400000000011573
  0
POINT
  8
_0-f_寸法
 62
    4
 10
351.93405808371597
 20
85.400000000011573
  0
LINE
  8
_0-f_寸法
  6
CONTINUOUS
 62
    4
 10
151.93405808371506
 20
85.400000000011573
 11
351.93405808371597
 21
85.400000000011573
  0
TEXT
  8
_0-f_寸法
 62
    4
 10
246.53405808371551
 20
85.400000000011573
 40
9
 41
0.8
 50
0
  1
200
  0
LINE
  8
_0-f_寸法
  6
CONTINUOUS
 62
    4
 10
386.93405808371506
 20
257.00000000001171
 11
386.93405808371506
 21
84.400000000011573
  0
POINT
  8
_0-f_寸法
 62
    4
 10
351.93405808371597
 20
85.400000000011573
  0
POINT
  8
_0-f_寸法
 62
    4
 10
386.93405808371506
 20
85.400000000011573
  0
LINE
  8
_0-f_寸法
  6
CONTINUOUS
 62
    4
 10
351.93405808371597
 20
85.400000000011573
 11
386.93405808371506
 21
85.400000000011573
  0
TEXT
  8
_0-f_寸法
 62
    4
 10
365.83405808371549
 20
85.400000000011573
 40
9
 41
0.8
 50
0
  1
35
  0
LINE
  8
_0-f_寸法
  6
CONTINUOUS
 62
    4
 10
521.93405808371506
 20
256.00000000001125
 11
521.93405808371506
 21
84.400000000011573
  0
POINT
  8
_0-f_寸法
 62
    4
 10
386.93405808371506
 20
85.400000000011573
  0
POINT
  8
_0-f_寸法
 62
    4
 10
521.93405808371506
 20
85.400000000011573
  0
LINE
  8
_0-f_寸法
  6
CONTINUOUS
 62
    4
 10
386.93405808371506
 20
85.400000000011573
 11
521.93405808371506
 21
85.400000000011573
  0
TEXT
  8
_0-f_寸法
 62
    4
 10
449.03405808371508
 20
85.400000000011573
 40
9
 41
0.8
 50
0
  1
135
  0
TEXT
  8
_0-f_寸法
 62
    4
 10
658.06999999999994
 20
166.50000000000011
 40
8
 41
0.8662499999999999
 50
0
  1
※
  0
TEXT
  8
_0-e_付箋
 62
    4
 10
271.12501033884234
 20
97.05339113825255
 40
6
 41
1
 50
0
  1
耐火帯
  0
LINE
  8
_0-e_付箋
  6
CONTINUOUS
 62
    4
 10
271.12501033884234
 20
97.05339113825255
 11
289.12501033884234
 21
97.05339113825255
  0
LINE
  8
_0-e_付箋
  6
CONTINUOUS
 62
    4
 10
264.87501033884234
 20
107.87870868555802
 11
271.12501033884234
 21
97.05339113825255
  0
LINE
  8
_0-a_
  6
CONTINUOUS
 62
    3
 10
401.93405808371597
 20
302.00000000001171
 11
350.58338609174109
 21
302.00000000001171
  0
LINE
  8
_0-a_
  6
CONTINUOUS
 62
    3
 10
339.87160767672333
 20
262.02309871574766
 11
350.58338609174109
 21
302.00000000001171
  0
LINE
  8
_0-a_
  6
CONTINUOUS
 62
    3
 10
153.28473007568698
 20
302.00000000002308
 11
93.934058083714604
 21
302.00000000002308
  0
LINE
  8
_0-a_
  6
CONTINUOUS
 62
    3
 10
163.9965084907077
 20
262.02309871574766
 11
153.28473007568698
 21
302.00000000002308
  0
TEXT
  8
_0-f_寸法
 62
    4
 10
669.99999999999989
 20
166.50000000000011
 40
8
 41
0.8662499999999999
 50
0
  1
耐火帯：耐火帯TTK-33
  0
LINE
  8
_0-f_寸法
  6
CONTINUOUS
 62
    4
 10
554.93405808371597
 20
300.40000000001169
 11
614.93405808371597
 21
300.40000000001169
  0
LINE
  8
_0-f_寸法
  6
CONTINUOUS
 62
    4
 10
594.93405808371597
 20
331.00000000001148
 11
614.93405808371597
 21
331.00000000001148
  0
POINT
  8
_0-f_寸法
 62
    4
 10
613.93405808371597
 20
331.00000000001148
  0
POINT
  8
_0-f_寸法
 62
    4
 10
613.93405808371597
 20
300.40000000001169
  0
LINE
  8
_0-f_寸法
  6
CONTINUOUS
 62
    4
 10
613.93405808371597
 20
331.00000000001148
 11
613.93405808371597
 21
300.40000000001169
  0
TEXT
  8
_0-f_寸法
 62
    4
 10
613.93405808371597
 20
308.50000000001154
 40
9
 41
0.8
 50
90
  1
30.6
  0
TEXT
  8
_f-0_
 62
    4
 10
806.87199999999984
 20
594
 40
16
 41
1
 50
0
  1
A1版
  0
ENDSEC
  0
EOF
