  0
SECTION
  2
HEADER
  9
$ACADVER
  1
AC1009
  9
$INSBASE
 10
0
 20
0
 30
0
  9
$EXTMIN
 10
0
 20
0
  9
$EXTMAX
 10
841
 20
594
  9
$LIMMIN
 10
0
 20
0
  9
$LIMMAX
 10
841
 20
594
  9
$LTSCALE
 40
1
  0
ENDSEC
  0
SECTION
  2
TABLES
  0
TABLE
  2
LTYPE
 70
     9
  0
LTYPE
  2
CONTINUOUS
 70
    64
  3
実線
 72
    65
 73
     0
 40
0.0
  0
LTYPE
  2
DASHED1
 70
    64
  3
--  --  --  --  --  --  --  --  
 72
    65
 73
     2
 40
2.5
 49
1.25
 49
-1.25
  0
LTYPE
  2
DASHED2
 70
    64
  3
----    ----    ----    ----    
 72
    65
 73
     2
 40
5.0
 49
2.5
 49
-2.5
  0
LTYPE
  2
DASHED3
 70
    64
  3
------  ------  ------  ------  
 72
    65
 73
     2
 40
5.0
 49
3.75
 49
-1.25
  0
LTYPE
  2
CENTER1
 70
    64
  3
----- - ----- - ----- - ----- - 
 72
    65
 73
     4
 40
10.0
 49
6.25
 49
-1.25
 49
1.25
 49
-1.25
  0
LTYPE
  2
CENTER2
 70
    64
  3
----------  --  ----------  --  
 72
    65
 73
     4
 40
20.0
 49
12.5
 49
-2.5
 49
2.5
 49
-2.5
  0
LTYPE
  2
PHANTOM1
 70
    64
  3
--- - - --- - - --- - - --- - - 
 72
    65
 73
     6
 40
10.0
 49
3.25
 49
-1.25
 49
1.25
 49
-1.25
 49
1.25
 49
-1.25
  0
LTYPE
  2
PHANTOM2
 70
    64
  3
--------  -  -  --------  -  -  
 72
    65
 73
     6
 40
20.0
 49
10.0
 49
-2.5
 49
1.25
 49
-2.5
 49
1.25
 49
-2.5
  0
LTYPE
  2
DOT
 70
    64
  3
-   -   -   -   -   -   -   -   
 72
    65
 73
     2
 40
2.5
 49
0.625
 49
-1.875
  0
LTYPE
  2
DUMMY
 70
    64
  3
ダミー
 72
    65
 73
     0
 40
0.0
  0
LTYPE
  2
RAND1
 70
    64
  3
ランダム線1
 72
    65
 73
     4
 40
10.0
 49
1.0
 49
-2.0
 49
3.0
 49
-4.0
  0
LTYPE
  2
RAND2
 70
    64
  3
ランダム線2
 72
    65
 73
     4
 40
14.0
 49
2.0
 49
-3.0
 49
4.0
 49
-5.0
  0
LTYPE
  2
RAND3
 70
    64
  3
ランダム線3
 72
    65
 73
     4
 40
18.0
 49
3.0
 49
-4.0
 49
5.0
 49
-6.0
  0
LTYPE
  2
RAND4
 70
    64
  3
ランダム線4
 72
    65
 73
     4
 40
22.0
 49
4.0
 49
-5.0
 49
6.0
 49
-7.0
  0
LTYPE
  2
RAND5
 70
    64
  3
ランダム線5
 72
    65
 73
     4
 40
26.0
 49
5.0
 49
-6.0
 49
7.0
 49
-8.0
  0
LTYPE
  2
LONG1
 70
    64
  3
----------  --  ----------  --  
 72
    65
 73
     4
 40
40.0
 49
32.5
 49
-2.5
 49
2.5
 49
-2.5
  0
LTYPE
  2
LONG2
 70
    64
  3
--------  -  -  --------  -  -  
 72
    65
 73
     6
 40
40.0
 49
30.0
 49
-2.5
 49
1.25
 49
-2.5
 49
1.25
 49
-2.5
  0
LTYPE
  2
LONG3
 70
    64
  3
+++++++++++++++..+++++++++++++++
 72
    65
 73
     2
 40
40.0
 49
37.5
 49
-2.5
  0
LTYPE
  2
LONG4
 70
    64
  3
+++++++++++++++..+++++++++++++++
 72
    65
 73
     2
 40
80.0
 49
75.0
 49
-5.0
  0
LTYPE
  2
LONG5
 70
    64
  3
----------  --  ----------  --  
 72
    65
 73
     4
 40
60.0
 49
37.5
 49
-7.5
 49
7.5
 49
-7.5
  0
LTYPE
  2
dashed
 70
   64
  3
-------   -------------   ------
 72
   65
 73
    2
 40
7.5
 49
6
 49
-1.5
  0
LTYPE
  2
dashed_spaced
 70
   64
  3
----        --------        ----
 72
   65
 73
    2
 40
12
 49
6
 49
-6
  0
LTYPE
  2
long_dashed_dotted
 70
   64
  3
------------- --- --------------
 72
   65
 73
    4
 40
15.25
 49
12
 49
-1.5
 49
0.25
 49
-1.5
  0
LTYPE
  2
long_dashed_double-dotted
 70
   64
  3
----------- --- --- ------------
 72
   65
 73
    6
 40
17
 49
12
 49
-1.5
 49
0.25
 49
-1.5
 49
0.25
 49
-1.5
  0
LTYPE
  2
long_dashed_triplicate-dotted
 70
   64
  3
--------- --- --- --- ----------
 72
   65
 73
    8
 40
18.75
 49
12
 49
-1.5
 49
0.25
 49
-1.5
 49
0.25
 49
-1.5
 49
0.25
 49
-1.5
  0
LTYPE
  2
dotted
 70
   64
  3
   -       -       -       -    
 72
   65
 73
    2
 40
1.75
 49
0.25
 49
-1.5
  0
LTYPE
  2
chain
 70
   64
  3
-------------- -- --------------
 72
   65
 73
    4
 40
18.5
 49
12
 49
-1.5
 49
3.5
 49
-1.5
  0
LTYPE
  2
chain_double_dash
 70
   64
  3
------------ -- -- -------------
 72
   65
 73
    6
 40
23.5
 49
12
 49
-1.5
 49
3.5
 49
-1.5
 49
3.5
 49
-1.5
  0
LTYPE
  2
dashed_dotted
 70
   64
  3
-----------     -     ----------
 72
   65
 73
    4
 40
9.25
 49
6
 49
-1.5
 49
0.25
 49
-1.5
  0
LTYPE
  2
double-dashed_dotted
 70
   64
  3
------   -----------   -   -----
 72
   65
 73
    6
 40
16.75
 49
6
 49
-1.5
 49
6
 49
-1.5
 49
0.25
 49
-1.5
  0
LTYPE
  2
dashed_double-dotted
 70
   64
  3
---------    -    -    ---------
 72
   65
 73
    6
 40
11
 49
6
 49
-1.5
 49
0.25
 49
-1.5
 49
0.25
 49
-1.5
  0
LTYPE
  2
double-dashed_double-dotted
 70
   64
  3
-----   ---------   -   -   ----
 72
   65
 73
    8
 40
18.5
 49
6
 49
-1.5
 49
6
 49
-1.5
 49
0.25
 49
-1.5
 49
0.25
 49
-1.5
  0
LTYPE
  2
dashed_triplicate-dotted
 70
   64
  3
-------    -    -    -    ------
 72
   65
 73
    8
 40
12.75
 49
6
 49
-1.5
 49
0.25
 49
-1.5
 49
0.25
 49
-1.5
 49
0.25
 49
-1.5
  0
LTYPE
  2
double-dashed_triplicate-dotted
 70
   64
  3
-----  ---------  -  -  -  -----
 72
   65
 73
   10
 40
20.25
 49
6
 49
-1.5
 49
6
 49
-1.5
 49
0.25
 49
-1.5
 49
0.25
 49
-1.5
 49
0.25
 49
-1.5
  0
LTYPE
  2
undefined
 70
   64
  3
--------------------------------
 72
   65
 73
    0
 40
0
  0
ENDTAB
  0
TABLE
  2
STYLE
  5
3
100
AcDbSymbolTable
 70
     1
  0
STYLE
  5
10
100
AcDbSymbolTableRecord
100
AcDbTextStyleTableRecord
  2
STANDARD
 70
     0
 40
0.0
 41
1.0
 50
0.0
 71
     0
 42
0.2
  3
txt
  4
bigfont.shx
  0
STYLE
  5
26
100
AcDbSymbolTableRecord
100
AcDbTextStyleTableRecord
  2
TATEGAKI
 70
    68
 40
0.0
 41
1.0
 50
0.0
 71
     0
 42
1.0
  3
txt
  4
bigfont.shx
  0
ENDTAB
  0
TABLE
  2
LAYER
 70
   11
  0
LAYER
  2
_0-0_躯体
 70
   64
 62
    7
  6
CONTINUOUS
  0
LAYER
  2
_0-1_耐火帯
 70
   64
 62
    7
  6
CONTINUOUS
  0
LAYER
  2
_0-9_小物
 70
   64
 62
    7
  6
CONTINUOUS
  0
LAYER
  2
_0-a_
 70
   64
 62
    7
  6
CONTINUOUS
  0
LAYER
  2
_0-e_付箋
 70
   64
 62
    7
  6
CONTINUOUS
  0
LAYER
  2
_0-f_寸法
 70
   64
 62
    7
  6
CONTINUOUS
  0
LAYER
  2
_1-0_
 70
   64
 62
    7
  6
CONTINUOUS
  0
LAYER
  2
_1-e_
 70
   64
 62
    7
  6
CONTINUOUS
  0
LAYER
  2
_1-f_
 70
   64
 62
    7
  6
CONTINUOUS
  0
LAYER
  2
_f-0_
 70
   64
 62
    7
  6
CONTINUOUS
  0
LAYER
  2
ADD_LINE
 70
   64
 62
    7
  6
CONTINUOUS
  0
ENDTAB
  0
ENDSEC
  0
SECTION
  2
BLOCKS
  0
BLOCK
  2
-000-
 70
   64
 10
0
 20
0
 30
0
  0
ARC
  8
_0-a_
  6
CONTINUOUS
 62
    3
 10
-255.66594196408835
 20
52.000000170441808
 40
0.2999999999999999
 50
180
 51
270
  0
ARC
  8
_0-a_
  6
CONTINUOUS
 62
    3
 10
-257.96594196408807
 20
60.000000170441353
 40
0.5
 50
0
 51
90
  0
LINE
  8
_0-a_
  6
CONTINUOUS
 62
    3
 10
-253.96594196408853
 20
51.700000170441626
 11
-255.66594196408835
 21
51.700000170441626
  0
LINE
  8
_0-a_
  6
CONTINUOUS
 62
    3
 10
-258.96594196408853
 20
62.000000170441808
 11
-267.93169424691416
 21
61.215598485712917
  0
ARC
  8
_0-a_
  6
CONTINUOUS
 62
    3
 10
-267.84453850416651
 20
60.219403787620877
 40
1
 50
94.999999999999758
 51
333.466531287002
  0
ARC
  8
_0-a_
  6
CONTINUOUS
 62
    3
 10
-266.05519136960231
 20
59.325962781159205
 40
1
 50
91.423665625010599
 51
153.46653128700203
  0
LINE
  8
_0-a_
  6
CONTINUOUS
 62
    3
 10
-259.06487906362429
 20
60.500000170441808
 11
-266.0800364654375
 21
60.325654094121774
  0
LINE
  8
_0-a_
  6
CONTINUOUS
 62
    3
 10
-257.96594196408807
 20
60.500000170441808
 11
-259.06487906362429
 21
60.500000170441808
  0
LINE
  8
_0-a_
  6
CONTINUOUS
 62
    3
 10
-257.46594196408853
 20
52.000000170441808
 11
-257.46594196408853
 21
60.000000170441353
  0
ARC
  8
_0-a_
  6
CONTINUOUS
 62
    3
 10
-255.66594196408835
 20
52.000000170441808
 40
1.8
 50
180
 51
270
  0
LINE
  8
_0-a_
  6
CONTINUOUS
 62
    3
 10
-255.96594196408853
 20
52.000000170441808
 11
-255.96594196408853
 21
61.000000170441808
  0
LINE
  8
_0-a_
  6
CONTINUOUS
 62
    3
 10
-258.96594196408853
 20
62.000000170441808
 11
-256.96594196408853
 21
62.000000170441808
  0
ARC
  8
_0-a_
  6
CONTINUOUS
 62
    3
 10
-256.96594196408853
 20
61.000000170441808
 40
1
 50
0
 51
90
  0
LINE
  8
_0-a_
  6
CONTINUOUS
 62
    3
 10
-253.96594196408853
 20
50.200000170441626
 11
-255.66594196408835
 21
50.200000170441626
  0
LINE
  8
_0-a_
  6
CONTINUOUS
 62
    3
 10
-254.11792579173982
 20
53.089449993119388
 11
-254.44952687025273
 21
55.466431424415759
  0
ARC
  8
_0-a_
  6
CONTINUOUS
 62
    3
 10
-252.78751347956825
 20
58.972881535528586
 40
0.4999999999999986
 50
297.94179900622612
 51
117.94179900622606
  0
LINE
  8
_0-a_
  6
CONTINUOUS
 62
    3
 10
-254.34693673026425
 20
58.711731913303765
 11
-253.0218006913052
 21
59.414593548515086
  0
LINE
  8
_0-a_
  6
CONTINUOUS
 62
    3
 10
-254.44952687025273
 20
55.466431424415759
 11
-254.47825886992007
 21
57.481791062841467
  0
LINE
  8
_0-a_
  6
CONTINUOUS
 62
    3
 10
-254.47825886992007
 20
57.481791062841467
 11
-254.34693673026425
 21
58.711731913303765
  0
LINE
  8
_0-a_
  6
CONTINUOUS
 62
    3
 10
-253.02475209134093
 20
58.281068852413
 11
-252.55322626783129
 21
58.531169522542086
  0
ARC
  8
_0-a_
  6
CONTINUOUS
 62
    3
 10
-253.96594196408853
 20
52.000000170441808
 40
1.8
 50
270
 51
7.9417990062251533
  0
LINE
  8
_0-a_
  6
CONTINUOUS
 62
    3
 10
-252.1832058906158
 20
52.248700979326031
 11
-253.02475209134093
 21
58.281068852413
  0
ARC
  8
_0-a_
  6
CONTINUOUS
 62
    3
 10
-253.96594196408853
 20
52.000000170441808
 40
0.2999999999999999
 50
270
 51
7.9417990062400463
  0
LINE
  8
_0-a_
  6
CONTINUOUS
 62
    3
 10
-253.66881928517626
 20
52.041450305255921
 11
-253.820803112828
 21
53.130900127933501
  0
LINE
  8
_0-a_
  6
CONTINUOUS
 62
    3
 10
-253.820803112828
 20
53.130900127933501
 11
-254.11792579173982
 21
53.089449993119388
  0
ENDBLK
  0
BLOCK
  2
-001-_1_
 70
   64
 10
0
 20
0
 30
0
  0
ARC
  8
_0-a_
  6
CONTINUOUS
 62
    3
 10
-251.96594196408898
 20
17.30000017044199
 40
0.2999999999999999
 50
180
 51
270
  0
LINE
  8
_0-a_
  6
CONTINUOUS
 62
    3
 10
-252.26594196408917
 20
19.000000170441808
 11
-252.26594196408917
 21
17.30000017044199
  0
LINE
  8
_0-a_
  6
CONTINUOUS
 62
    3
 10
-251.96594196408898
 20
15.500000170441808
 11
-243.96594196408898
 21
15.500000170441808
  0
ARC
  8
_0-a_
  6
CONTINUOUS
 62
    3
 10
-251.96594196408898
 20
17.30000017044199
 40
1.8
 50
180
 51
270
  0
LINE
  8
_0-a_
  6
CONTINUOUS
 62
    3
 10
-251.96594196408898
 20
17.000000170441808
 11
-242.96594196408898
 21
17.000000170441808
  0
ARC
  8
_0-a_
  6
CONTINUOUS
 62
    3
 10
-242.96594196408898
 20
16.000000170441808
 40
1
 50
0
 51
90
  0
LINE
  8
_0-a_
  6
CONTINUOUS
 62
    3
 10
-253.76594196408917
 20
19.000000170441808
 11
-253.76594196408917
 21
17.30000017044199
  0
LINE
  8
_0-a_
  6
CONTINUOUS
 62
    3
 10
-250.87649214141095
 20
18.848016342790061
 11
-248.49951071011458
 21
18.516415264277157
  0
ARC
  8
_0-a_
  6
CONTINUOUS
 62
    3
 10
-244.99306059900175
 20
20.178428654961863
 40
0.4999999999999986
 50
332.05820099374034
 51
152.05820099372579
  0
LINE
  8
_0-a_
  6
CONTINUOUS
 62
    3
 10
-245.25421022122657
 20
18.619005404265636
 11
-244.55134858601525
 21
19.944141443224908
  0
LINE
  8
_0-a_
  6
CONTINUOUS
 62
    3
 10
-248.49951071011458
 20
18.516415264277157
 11
-246.48415107168887
 21
18.487683264610041
  0
LINE
  8
_0-a_
  6
CONTINUOUS
 62
    3
 10
-246.48415107168887
 20
18.487683264610041
 11
-245.25421022122657
 21
18.619005404265636
  0
LINE
  8
_0-a_
  6
CONTINUOUS
 62
    3
 10
-245.68487328211779
 20
19.941190043189408
 11
-245.43477261198825
 21
20.412715866699045
  0
ARC
  8
_0-a_
  6
CONTINUOUS
 62
    3
 10
-251.96594196408898
 20
19.000000170441808
 40
1.8
 50
82.058200993760252
 51
180
  0
LINE
  8
_0-a_
  6
CONTINUOUS
 62
    3
 10
-251.71724115520431
 20
20.782736243914314
 11
-245.68487328211779
 21
19.941190043189408
  0
ARC
  8
_0-a_
  6
CONTINUOUS
 62
    3
 10
-251.96594196408898
 20
19.000000170441808
 40
0.2999999999999999
 50
82.058200993760749
 51
180
  0
LINE
  8
_0-a_
  6
CONTINUOUS
 62
    3
 10
-251.92449182927487
 20
19.297122849353855
 11
-250.83504200659684
 21
19.145139021702335
  0
LINE
  8
_0-a_
  6
CONTINUOUS
 62
    3
 10
-250.83504200659684
 20
19.145139021702335
 11
-250.87649214141095
 21
18.848016342790061
  0
LINE
  8
_0-a_
  6
CONTINUOUS
 62
    3
 10
-243.94590985946309
 20
12.769099800587583
 11
-252.28092619891333
 21
9.3738821903168628
  0
ARC
  8
_0-a_
  6
CONTINUOUS
 62
    3
 10
-252.65817260005463
 20
10.299995116922446
 40
1
 50
53.696691075039965
 51
292.16322236205013
  0
ARC
  8
_0-a_
  6
CONTINUOUS
 62
    3
 10
-251.4740531570784
 20
11.911783299273566
 40
1
 50
233.69669107503995
 51
295.73955673704
  0
LINE
  8
_0-a_
  6
CONTINUOUS
 62
    3
 10
-244.71872553343803
 20
14.058496746342598
 11
-251.03977207654827
 21
11.011005888869704
  0
LINE
  8
_0-a_
  6
CONTINUOUS
 62
    3
 10
-243.74099064945051
 20
14.560191120807758
 11
-244.71872553343803
 21
14.058496746342598
  0
ARC
  8
_0-a_
  6
CONTINUOUS
 62
    3
 10
-243.96594196408898
 20
15.000000170441808
 40
0.5
 50
297.08860670016236
 51
90
  0
LINE
  8
_0-a_
  6
CONTINUOUS
 62
    3
 10
-241.97251756164553
 20
14.391583064229735
 11
-241.97099947310346
 21
15.997471415934569
  0
LINE
  8
_0-a_
  6
CONTINUOUS
 62
    3
 10
-243.94590985946309
 20
12.769099800587583
 11
-242.51599019014759
 21
13.5028187931091
  0
ARC
  8
_0-a_
  6
CONTINUOUS
 62
    3
 10
-242.97251711482534
 20
14.392528390137386
 40
1
 50
297.16322236205622
 51
359.94583680716016
  0
ENDBLK
  0
BLOCK
  2
-002-_2_
 70
   64
 10
0
 20
0
 30
0
  0
LINE
  8
_0-f_寸法
  6
CONTINUOUS
 62
    4
 10
-245.36594074375819
 20
-11.000000000011255
 11
-245.36594074375819
 21
-35.999999999707711
  0
LINE
  8
_0-f_寸法
  6
CONTINUOUS
 62
    4
 10
-268.56594191628267
 20
-15.999999999707711
 11
-268.56594191628267
 21
-35.999999999707711
  0
LINE
  8
_0-f_寸法
  6
CONTINUOUS
 62
    4
 10
-268.56594191628267
 20
-34.999999999707711
 11
-245.36594074375819
 21
-34.999999999707711
  0
POINT
  8
_0-f_寸法
 62
    4
 10
-268.56594191628267
 20
-34.999999999707711
  0
POINT
  8
_0-f_寸法
 62
    4
 10
-245.36594074375819
 20
-34.999999999707711
  0
TEXT
  8
_0-f_寸法
 62
    4
 10
-264.16594133002042
 20
-34.999999999707711
 40
9
 41
0.8
 50
0
  1
23.2
  0
ENDBLK
  0
BLOCK
  2
-003-_3_
 70
   64
 10
0
 20
0
 30
0
  0
ARC
  8
_0-9_小物
  6
CONTINUOUS
 62
    3
 10
-276.84698691628466
 20
23.915144999989707
 40
0.4
 50
8.1301019999584128
 51
98.298466000035802
  0
LINE
  8
_0-9_小物
  6
CONTINUOUS
 62
    3
 10
-276.45100691628488
 20
23.971714999990809
 11
-276.42289191628436
 21
23.774889999989455
  0
ARC
  8
_0-9_小物
  6
CONTINUOUS
 62
    3
 10
-276.81887191628459
 20
23.718319999988807
 40
0.4
 50
278.13010200002401
 51
8.1301020002220525
  0
ARC
  8
_0-9_小物
  6
CONTINUOUS
 62
    3
 10
-276.84698691628466
 20
10.08485499998983
 40
0.4
 50
261.70153399996417
 51
351.86989800004159
  0
LINE
  8
_0-9_小物
  6
CONTINUOUS
 62
    3
 10
-276.45100691628488
 20
10.028289999989966
 11
-276.42289191628436
 21
10.225109999990082
  0
ARC
  8
_0-9_小物
  6
CONTINUOUS
 62
    3
 10
-276.81887191628459
 20
10.28167999998891
 40
0.4
 50
351.86989800004159
 51
81.869898000041587
  0
ARC
  8
_0-9_小物
  6
CONTINUOUS
 62
    3
 10
-276.84698691628466
 20
10.08485499998983
 40
0.4
 50
261.70153399996417
 51
351.86989800004159
  0
LINE
  8
_0-9_小物
  6
CONTINUOUS
 62
    3
 10
-276.45100691628488
 20
10.028289999989966
 11
-276.42289191628436
 21
10.225109999990082
  0
ARC
  8
_0-9_小物
  6
CONTINUOUS
 62
    3
 10
-276.81887191628459
 20
10.28167999998891
 40
0.4
 50
351.86989800004159
 51
81.869898000041587
  0
LINE
  8
_0-9_小物
  6
CONTINUOUS
 62
    3
 10
-268.56594191628449
 20
20.999999999988859
 11
-276.5659419162854
 21
20.999999999988859
  0
LINE
  8
_0-9_小物
  6
CONTINUOUS
 62
    3
 10
-290.36358191628563
 20
12.272094999989122
 11
-291.46688191628448
 21
14.217014999989033
  0
LINE
  8
_0-9_小物
  6
CONTINUOUS
 62
    3
 10
-288.36632191628462
 20
12.376764999989746
 11
-290.36358191628563
 21
12.272094999989122
  0
LINE
  8
_0-9_小物
  6
CONTINUOUS
 62
    3
 10
-285.37043191628447
 20
12.533774999989646
 11
-286.47373691628502
 21
14.478694999989557
  0
LINE
  8
_0-9_小物
  6
CONTINUOUS
 62
    3
 10
-286.47373691628502
 20
14.478694999989557
 11
-288.47099691628466
 21
14.374024999989842
  0
LINE
  8
_0-9_小物
  6
CONTINUOUS
 62
    3
 10
-288.47099691628466
 20
14.374024999989842
 11
-288.36632191628462
 21
12.376764999989746
  0
LINE
  8
_0-9_小物
  6
CONTINUOUS
 62
    3
 10
-283.37317691628516
 20
12.63844499998936
 11
-285.37043191628447
 21
12.533774999989646
  0
LINE
  8
_0-9_小物
  6
CONTINUOUS
 62
    3
 10
-281.48058691628523
 20
14.740374999990081
 11
-283.47784691628488
 21
14.635704999989457
  0
LINE
  8
_0-9_小物
  6
CONTINUOUS
 62
    3
 10
-283.47784691628488
 20
14.635704999989457
 11
-283.37317691628516
 21
12.63844499998936
  0
LINE
  8
_0-9_小物
  6
CONTINUOUS
 62
    3
 10
-280.56594191628449
 20
12.999999999989768
 11
-281.48058691628523
 21
14.740374999990081
  0
LINE
  8
_0-9_小物
  6
CONTINUOUS
 62
    3
 10
-290.36358191628563
 20
21.727904999990415
 11
-291.46688191628448
 21
19.782984999989594
  0
LINE
  8
_0-9_小物
  6
CONTINUOUS
 62
    3
 10
-288.36632191628462
 20
21.623234999989791
 11
-290.36358191628563
 21
21.727904999990415
  0
LINE
  8
_0-9_小物
  6
CONTINUOUS
 62
    3
 10
-285.37043191628447
 20
21.466224999988981
 11
-286.47373691628502
 21
19.52130499998907
  0
LINE
  8
_0-9_小物
  6
CONTINUOUS
 62
    3
 10
-286.47373691628502
 20
19.52130499998907
 11
-288.47099691628466
 21
19.625974999989694
  0
LINE
  8
_0-9_小物
  6
CONTINUOUS
 62
    3
 10
-288.47099691628466
 20
19.625974999989694
 11
-288.36632191628462
 21
21.623234999989791
  0
LINE
  8
_0-9_小物
  6
CONTINUOUS
 62
    3
 10
-283.37317691628516
 20
21.361554999990176
 11
-285.37043191628447
 21
21.466224999988981
  0
LINE
  8
_0-9_小物
  6
CONTINUOUS
 62
    3
 10
-281.48058691628523
 20
19.259624999989455
 11
-283.47784691628488
 21
19.364294999990079
  0
LINE
  8
_0-9_小物
  6
CONTINUOUS
 62
    3
 10
-283.47784691628488
 20
19.364294999990079
 11
-283.37317691628516
 21
21.361554999990176
  0
LINE
  8
_0-9_小物
  6
CONTINUOUS
 62
    3
 10
-280.56594191628449
 20
20.999999999988859
 11
-281.48058691628523
 21
19.259624999989455
  0
LINE
  8
_0-9_小物
  6
CONTINUOUS
 62
    3
 10
-288.36632191628462
 20
12.376764999989746
 11
-283.70834191628512
 21
10.681399999990163
  0
LINE
  8
_0-9_小物
  6
CONTINUOUS
 62
    3
 10
-288.36632191628462
 20
13.440944999989142
 11
-283.36632191628507
 21
11.621089999989408
  0
LINE
  8
_0-9_小物
  6
CONTINUOUS
 62
    3
 10
-288.36632191628462
 20
21.623234999989791
 11
-283.70834191628512
 21
23.318599999989374
  0
LINE
  8
_0-9_小物
  6
CONTINUOUS
 62
    3
 10
-288.36632191628462
 20
20.559054999990394
 11
-283.36632191628507
 21
22.378909999990128
  0
LINE
  8
_0-9_小物
  6
CONTINUOUS
 62
    3
 10
-280.56594191628449
 20
12.999999999989768
 11
-276.5659419162854
 21
12.999999999989768
  0
LINE
  8
_0-9_小物
  6
CONTINUOUS
 62
    3
 10
-280.56594191628449
 20
20.999999999988859
 11
-276.5659419162854
 21
20.999999999988859
  0
LINE
  8
_0-9_小物
  6
CONTINUOUS
 62
    3
 10
-283.70834191628512
 20
23.318599999989374
 11
-276.90472191628407
 21
24.31095499998969
  0
LINE
  8
_0-9_小物
  6
CONTINUOUS
 62
    3
 10
-276.76230191628485
 20
23.322339999989481
 11
-283.36632191628507
 21
22.378909999990128
  0
LINE
  8
_0-9_小物
  6
CONTINUOUS
 62
    3
 10
-283.70834191628512
 20
10.681399999990163
 11
-276.90472191628407
 21
9.6890449999898465
  0
LINE
  8
_0-9_小物
  6
CONTINUOUS
 62
    3
 10
-276.76230191628485
 20
10.677659999990055
 11
-283.36632191628507
 21
11.621089999989408
  0
LINE
  8
_0-9_小物
  6
CONTINUOUS
 62
    3
 10
-283.70834191628512
 20
10.681399999990163
 11
-276.90472191628407
 21
9.6890449999898465
  0
LINE
  8
_0-9_小物
  6
CONTINUOUS
 62
    3
 10
-276.76230191628485
 20
10.677659999990055
 11
-283.36632191628507
 21
11.621089999989408
  0
LINE
  8
_0-9_小物
  6
CONTINUOUS
 62
    3
 10
-303.34576691628502
 20
11.591724999989083
 11
-305.34302691628466
 21
11.487054999990278
  0
LINE
  8
_0-9_小物
  6
CONTINUOUS
 62
    3
 10
-300.34987691628487
 20
11.748734999989892
 11
-301.45317691628509
 21
13.693654999989803
  0
LINE
  8
_0-9_小物
  6
CONTINUOUS
 62
    3
 10
-301.45317691628509
 20
13.693654999989803
 11
-303.45043691628473
 21
13.588984999989179
  0
LINE
  8
_0-9_小物
  6
CONTINUOUS
 62
    3
 10
-303.45043691628473
 20
13.588984999989179
 11
-303.34576691628502
 21
11.591724999989083
  0
LINE
  8
_0-9_小物
  6
CONTINUOUS
 62
    3
 10
-298.35261691628477
 20
11.853404999989607
 11
-300.34987691628487
 21
11.748734999989892
  0
LINE
  8
_0-9_小物
  6
CONTINUOUS
 62
    3
 10
-295.3567319162845
 20
12.010414999989507
 11
-296.46003191628563
 21
13.955334999990328
  0
LINE
  8
_0-9_小物
  6
CONTINUOUS
 62
    3
 10
-296.46003191628563
 20
13.955334999990328
 11
-298.45729191628482
 21
13.850664999989704
  0
LINE
  8
_0-9_小物
  6
CONTINUOUS
 62
    3
 10
-298.45729191628482
 20
13.850664999989704
 11
-298.35261691628477
 21
11.853404999989607
  0
LINE
  8
_0-9_小物
  6
CONTINUOUS
 62
    3
 10
-293.35947191628441
 20
12.115084999990131
 11
-295.3567319162845
 21
12.010414999989507
  0
LINE
  8
_0-9_小物
  6
CONTINUOUS
 62
    3
 10
-291.46688191628448
 20
14.217014999989033
 11
-293.46414191628458
 21
14.112344999990228
  0
LINE
  8
_0-9_小物
  6
CONTINUOUS
 62
    3
 10
-293.46414191628458
 20
14.112344999990228
 11
-293.35947191628441
 21
12.115084999990131
  0
LINE
  8
_0-9_小物
  6
CONTINUOUS
 62
    3
 10
-303.34576691628502
 20
22.408274999989544
 11
-305.34302691628466
 21
22.512944999989259
  0
LINE
  8
_0-9_小物
  6
CONTINUOUS
 62
    3
 10
-300.34987691628487
 20
22.251264999989644
 11
-301.45317691628509
 21
20.306344999989733
  0
LINE
  8
_0-9_小物
  6
CONTINUOUS
 62
    3
 10
-301.45317691628509
 20
20.306344999989733
 11
-303.45043691628473
 21
20.411014999990357
  0
LINE
  8
_0-9_小物
  6
CONTINUOUS
 62
    3
 10
-303.45043691628473
 20
20.411014999990357
 11
-303.34576691628502
 21
22.408274999989544
  0
LINE
  8
_0-9_小物
  6
CONTINUOUS
 62
    3
 10
-298.35261691628477
 20
22.14659499998902
 11
-300.34987691628487
 21
22.251264999989644
  0
LINE
  8
_0-9_小物
  6
CONTINUOUS
 62
    3
 10
-295.3567319162845
 20
21.989584999990029
 11
-296.46003191628563
 21
20.044664999990118
  0
LINE
  8
_0-9_小物
  6
CONTINUOUS
 62
    3
 10
-296.46003191628563
 20
20.044664999990118
 11
-298.45729191628482
 21
20.149334999988923
  0
LINE
  8
_0-9_小物
  6
CONTINUOUS
 62
    3
 10
-298.45729191628482
 20
20.149334999988923
 11
-298.35261691628477
 21
22.14659499998902
  0
LINE
  8
_0-9_小物
  6
CONTINUOUS
 62
    3
 10
-293.35947191628441
 20
21.884914999990315
 11
-295.3567319162845
 21
21.989584999990029
  0
LINE
  8
_0-9_小物
  6
CONTINUOUS
 62
    3
 10
-291.46688191628448
 20
19.782984999989594
 11
-293.46414191628458
 21
19.887654999989309
  0
LINE
  8
_0-9_小物
  6
CONTINUOUS
 62
    3
 10
-293.46414191628458
 20
19.887654999989309
 11
-293.35947191628441
 21
21.884914999990315
  0
LINE
  8
_0-9_小物
  6
CONTINUOUS
 62
    3
 10
-305.52620191628523
 20
14.982254999989664
 11
-305.34302691628466
 21
11.487054999990278
  0
LINE
  8
_0-9_小物
  6
CONTINUOUS
 62
    3
 10
-305.34302691628466
 20
11.487054999990278
 11
-307.44495691628447
 21
13.379639999989877
  0
LINE
  8
_0-9_小物
  6
CONTINUOUS
 62
    3
 10
-307.44495691628447
 20
13.379639999989877
 11
-307.52346191628533
 21
14.87758499998904
  0
LINE
  8
_0-9_小物
  6
CONTINUOUS
 62
    3
 10
-307.52346191628533
 20
14.87758499998904
 11
-276.5659419162854
 21
16.499999999988859
  0
LINE
  8
_0-9_小物
  6
CONTINUOUS
 62
    3
 10
-305.52620191628523
 20
19.017744999989873
 11
-305.34302691628466
 21
22.512944999989259
  0
LINE
  8
_0-9_小物
  6
CONTINUOUS
 62
    3
 10
-305.34302691628466
 20
22.512944999989259
 11
-307.44495691628447
 21
20.62035999998966
  0
LINE
  8
_0-9_小物
  6
CONTINUOUS
 62
    3
 10
-307.44495691628447
 20
20.62035999998966
 11
-307.52346191628533
 21
19.122414999989587
  0
LINE
  8
_0-9_小物
  6
CONTINUOUS
 62
    3
 10
-307.52346191628533
 20
19.122414999989587
 11
-276.5659419162854
 21
17.499999999989768
  0
LINE
  8
_0-9_小物
  6
CONTINUOUS
 62
    3
 10
-268.56594191628449
 20
11.999999999988859
 11
-273.56594191628449
 21
12.999999999989768
  0
LINE
  8
_0-9_小物
  6
CONTINUOUS
 62
    3
 10
-268.56594191628449
 20
15.999999999989768
 11
-273.56594191628449
 21
16.999999999988859
  0
LINE
  8
_0-9_小物
  6
CONTINUOUS
 62
    3
 10
-268.56594191628449
 20
12.999999999989768
 11
-276.5659419162854
 21
12.999999999989768
  0
LINE
  8
_0-9_小物
  6
CONTINUOUS
 62
    3
 10
-268.56594191628449
 20
17.999999999989768
 11
-273.56594191628449
 21
16.999999999988859
  0
LINE
  8
_0-9_小物
  6
CONTINUOUS
 62
    3
 10
-268.56594191628449
 20
21.999999999988859
 11
-273.56594191628449
 21
20.999999999988859
  0
LINE
  8
_0-9_小物
  6
CONTINUOUS
 62
    3
 10
-273.56594191628449
 20
16.999999999988859
 11
-268.56594191628267
 21
16.999999999988859
  0
LINE
  8
_0-9_小物
  6
CONTINUOUS
 62
    3
 10
-276.5659419162854
 20
17.499999999989768
 11
-276.5659419162854
 21
16.499999999988859
  0
LINE
  8
_0-9_小物
  6
CONTINUOUS
 62
    3
 10
-268.56594191628449
 20
21.999999999988859
 11
-268.56594191628449
 21
11.999999999988859
  0
ENDBLK
  0
BLOCK
  2
-004-_4_
 70
   64
 10
0
 20
0
 30
0
  0
LINE
  8
_0-9_小物
  6
CONTINUOUS
 62
    3
 10
-28.157666916284711
 20
-51.379825000011579
 11
-28.052996916286361
 21
-53.377085000011448
  0
LINE
  8
_0-9_小物
  6
CONTINUOUS
 62
    3
 10
-28.314676916285975
 20
-48.383935000011661
 11
-30.259596916285432
 21
-49.487235000011651
  0
LINE
  8
_0-9_小物
  6
CONTINUOUS
 62
    3
 10
-30.259596916285432
 20
-49.487235000011651
 11
-30.154926916285262
 21
-51.48449500001152
  0
LINE
  8
_0-9_小物
  6
CONTINUOUS
 62
    3
 10
-30.154926916285262
 20
-51.48449500001152
 11
-28.157666916284711
 21
-51.379825000011579
  0
LINE
  8
_0-9_小物
  6
CONTINUOUS
 62
    3
 10
-28.41934691628569
 20
-46.386675000011337
 11
-28.314676916285975
 21
-48.383935000011661
  0
LINE
  8
_0-9_小物
  6
CONTINUOUS
 62
    3
 10
-28.57635691628559
 20
-43.390790000011293
 11
-30.521276916286411
 21
-44.494090000012193
  0
LINE
  8
_0-9_小物
  6
CONTINUOUS
 62
    3
 10
-30.521276916286411
 20
-44.494090000012193
 11
-30.416606916285332
 21
-46.49135000001138
  0
LINE
  8
_0-9_小物
  6
CONTINUOUS
 62
    3
 10
-30.416606916285332
 20
-46.49135000001138
 11
-28.41934691628569
 21
-46.386675000011337
  0
LINE
  8
_0-9_小物
  6
CONTINUOUS
 62
    3
 10
-28.681026916286214
 20
-41.393530000011197
 11
-28.57635691628559
 21
-43.390790000011293
  0
LINE
  8
_0-9_小物
  6
CONTINUOUS
 62
    3
 10
-28.838036916285205
 20
-38.397640000012188
 11
-30.782956916284661
 21
-39.500940000011269
  0
LINE
  8
_0-9_小物
  6
CONTINUOUS
 62
    3
 10
-30.782956916284661
 20
-39.500940000011269
 11
-30.678286916286311
 21
-41.498200000011366
  0
LINE
  8
_0-9_小物
  6
CONTINUOUS
 62
    3
 10
-30.678286916286311
 20
-41.498200000011366
 11
-28.681026916286214
 21
-41.393530000011197
  0
LINE
  8
_0-9_小物
  6
CONTINUOUS
 62
    3
 10
-28.942706916285829
 20
-36.40038000001141
 11
-28.838036916285205
 21
-38.397640000012188
  0
LINE
  8
_0-9_小物
  6
CONTINUOUS
 62
    3
 10
-29.099716916285729
 20
-33.404490000011265
 11
-31.04463691628564
 21
-34.507795000011583
  0
LINE
  8
_0-9_小物
  6
CONTINUOUS
 62
    3
 10
-31.04463691628564
 20
-34.507795000011583
 11
-30.939966916285925
 21
-36.505055000011453
  0
LINE
  8
_0-9_小物
  6
CONTINUOUS
 62
    3
 10
-30.939966916285925
 20
-36.505055000011453
 11
-28.942706916285829
 21
-36.40038000001141
  0
LINE
  8
_0-9_小物
  6
CONTINUOUS
 62
    3
 10
-29.204386916285443
 20
-31.407235000011724
 11
-29.099716916285729
 21
-33.404490000011265
  0
LINE
  8
_0-9_小物
  6
CONTINUOUS
 62
    3
 10
-31.306316916286164
 20
-29.514645000011797
 11
-31.20164691628554
 21
-31.511905000011666
  0
LINE
  8
_0-9_小物
  6
CONTINUOUS
 62
    3
 10
-31.20164691628554
 20
-31.511905000011666
 11
-29.204386916285443
 21
-31.407235000011724
  0
LINE
  8
_0-9_小物
  6
CONTINUOUS
 62
    3
 10
-29.565941916285396
 20
-28.600000000011278
 11
-31.306316916286164
 21
-29.514645000011797
  0
LINE
  8
_0-9_小物
  6
CONTINUOUS
 62
    3
 10
-38.974216916285627
 20
-51.379825000011579
 11
-39.078886916285342
 21
-53.377085000011448
  0
LINE
  8
_0-9_小物
  6
CONTINUOUS
 62
    3
 10
-38.817206916285727
 20
-48.383935000011661
 11
-36.872286916285816
 21
-49.487235000011651
  0
LINE
  8
_0-9_小物
  6
CONTINUOUS
 62
    3
 10
-36.872286916285816
 20
-49.487235000011651
 11
-36.976956916285985
 21
-51.48449500001152
  0
LINE
  8
_0-9_小物
  6
CONTINUOUS
 62
    3
 10
-36.976956916285985
 20
-51.48449500001152
 11
-38.974216916285627
 21
-51.379825000011579
  0
LINE
  8
_0-9_小物
  6
CONTINUOUS
 62
    3
 10
-38.712536916284648
 20
-46.386675000011337
 11
-38.817206916285727
 21
-48.383935000011661
  0
LINE
  8
_0-9_小物
  6
CONTINUOUS
 62
    3
 10
-38.555526916286112
 20
-43.390790000011293
 11
-36.610606916286201
 21
-44.494090000012193
  0
LINE
  8
_0-9_小物
  6
CONTINUOUS
 62
    3
 10
-36.610606916286201
 20
-44.494090000012193
 11
-36.715276916285006
 21
-46.49135000001138
  0
LINE
  8
_0-9_小物
  6
CONTINUOUS
 62
    3
 10
-36.715276916285006
 20
-46.49135000001138
 11
-38.712536916284648
 21
-46.386675000011337
  0
LINE
  8
_0-9_小物
  6
CONTINUOUS
 62
    3
 10
-38.450856916286398
 20
-41.393530000011197
 11
-38.555526916286112
 21
-43.390790000011293
  0
LINE
  8
_0-9_小物
  6
CONTINUOUS
 62
    3
 10
-38.293846916286498
 20
-38.397640000012188
 11
-36.348926916285677
 21
-39.500940000011269
  0
LINE
  8
_0-9_小物
  6
CONTINUOUS
 62
    3
 10
-36.348926916285677
 20
-39.500940000011269
 11
-36.453596916285392
 21
-41.498200000011366
  0
LINE
  8
_0-9_小物
  6
CONTINUOUS
 62
    3
 10
-36.453596916285392
 20
-41.498200000011366
 11
-38.450856916286398
 21
-41.393530000011197
  0
LINE
  8
_0-9_小物
  6
CONTINUOUS
 62
    3
 10
-38.189176916285419
 20
-36.40038000001141
 11
-38.293846916286498
 21
-38.397640000012188
  0
LINE
  8
_0-9_小物
  6
CONTINUOUS
 62
    3
 10
-38.032166916285064
 20
-33.404490000011265
 11
-36.087246916284698
 21
-34.507795000011583
  0
LINE
  8
_0-9_小物
  6
CONTINUOUS
 62
    3
 10
-36.087246916284698
 20
-34.507795000011583
 11
-36.191916916285777
 21
-36.505055000011453
  0
LINE
  8
_0-9_小物
  6
CONTINUOUS
 62
    3
 10
-36.191916916285777
 20
-36.505055000011453
 11
-38.189176916285419
 21
-36.40038000001141
  0
LINE
  8
_0-9_小物
  6
CONTINUOUS
 62
    3
 10
-37.927496916285804
 20
-31.407235000011724
 11
-38.032166916285064
 21
-33.404490000011265
  0
LINE
  8
_0-9_小物
  6
CONTINUOUS
 62
    3
 10
-35.825566916285084
 20
-29.514645000011797
 11
-35.930236916286162
 21
-31.511905000011666
  0
LINE
  8
_0-9_小物
  6
CONTINUOUS
 62
    3
 10
-35.930236916286162
 20
-31.511905000011666
 11
-37.927496916285804
 21
-31.407235000011724
  0
LINE
  8
_0-9_小物
  6
CONTINUOUS
 62
    3
 10
-37.565941916284942
 20
-28.600000000011278
 11
-35.825566916285084
 21
-29.514645000011797
  0
LINE
  8
_0-9_小物
  6
CONTINUOUS
 62
    3
 10
-28.942706916285829
 20
-36.40038000001141
 11
-27.247341916286246
 21
-31.742400000011912
  0
LINE
  8
_0-9_小物
  6
CONTINUOUS
 62
    3
 10
-30.006886916285225
 20
-36.40038000001141
 11
-28.187031916285491
 21
-31.400380000011637
  0
LINE
  8
_0-9_小物
  6
CONTINUOUS
 62
    3
 10
-38.189176916285419
 20
-36.40038000001141
 11
-39.884541916285002
 21
-31.742400000011912
  0
LINE
  8
_0-9_小物
  6
CONTINUOUS
 62
    3
 10
-37.124996916286022
 20
-36.40038000001141
 11
-38.944851916285756
 21
-31.400380000011637
  0
LINE
  8
_0-9_小物
  6
CONTINUOUS
 62
    3
 10
-31.548196916285747
 20
-53.560260000011795
 11
-28.052996916286361
 21
-53.377085000011448
  0
LINE
  8
_0-9_小物
  6
CONTINUOUS
 62
    3
 10
-28.052996916286361
 20
-53.377085000011448
 11
-29.94558191628596
 21
-55.479015000011259
  0
LINE
  8
_0-9_小物
  6
CONTINUOUS
 62
    3
 10
-29.94558191628596
 20
-55.479015000011259
 11
-31.443526916284668
 21
-55.557520000011891
  0
LINE
  8
_0-9_小物
  6
CONTINUOUS
 62
    3
 10
-31.443526916284668
 20
-55.557520000011891
 11
-33.065941916284942
 21
-24.60000000001196
  0
LINE
  8
_0-9_小物
  6
CONTINUOUS
 62
    3
 10
-29.565941916285396
 20
-28.600000000011278
 11
-29.565941916285396
 21
-24.60000000001196
  0
LINE
  8
_0-9_小物
  6
CONTINUOUS
 62
    3
 10
-35.583686916285956
 20
-53.560260000011795
 11
-39.078886916285342
 21
-53.377085000011448
  0
LINE
  8
_0-9_小物
  6
CONTINUOUS
 62
    3
 10
-39.078886916285342
 20
-53.377085000011448
 11
-37.186301916285743
 21
-55.479015000011259
  0
LINE
  8
_0-9_小物
  6
CONTINUOUS
 62
    3
 10
-37.186301916285743
 20
-55.479015000011259
 11
-35.68835691628567
 21
-55.557520000011891
  0
LINE
  8
_0-9_小物
  6
CONTINUOUS
 62
    3
 10
-35.68835691628567
 20
-55.557520000011891
 11
-34.065941916285396
 21
-24.60000000001196
  0
LINE
  8
_0-9_小物
  6
CONTINUOUS
 62
    3
 10
-37.565941916284942
 20
-28.600000000011278
 11
-37.565941916284942
 21
-24.60000000001196
  0
LINE
  8
_0-9_小物
  6
CONTINUOUS
 62
    3
 10
-39.884541916285002
 20
-31.742400000011912
 11
-40.876896916285318
 21
-24.938780000010865
  0
ARC
  8
_0-9_小物
  6
CONTINUOUS
 62
    3
 10
-40.481086916285335
 20
-24.881045000011454
 40
0.4
 50
98.130101999958413
 51
188.29846600001969
  0
LINE
  8
_0-9_小物
  6
CONTINUOUS
 62
    3
 10
-40.537656916286437
 20
-24.485065000011446
 11
-40.340831916285083
 21
-24.456950000011147
  0
ARC
  8
_0-9_小物
  6
CONTINUOUS
 62
    3
 10
-40.284261916284891
 20
-24.852930000011384
 40
0.4
 50
8.1301020000240456
 51
98.130102000220958
  0
LINE
  8
_0-9_小物
  6
CONTINUOUS
 62
    3
 10
-39.888281916285109
 20
-24.796360000011646
 11
-38.944851916285756
 21
-31.400380000011637
  0
LINE
  8
_0-9_小物
  6
CONTINUOUS
 62
    3
 10
-27.247341916286246
 20
-31.742400000011912
 11
-26.25498691628593
 21
-24.938780000010865
  0
ARC
  8
_0-9_小物
  6
CONTINUOUS
 62
    3
 10
-26.650796916285913
 20
-24.881045000011454
 40
0.4
 50
351.70153399996417
 51
81.869898000041587
  0
LINE
  8
_0-9_小物
  6
CONTINUOUS
 62
    3
 10
-26.594231916286049
 20
-24.485065000011446
 11
-26.791051916286165
 21
-24.456950000011147
  0
ARC
  8
_0-9_小物
  6
CONTINUOUS
 62
    3
 10
-26.847621916284993
 20
-24.852930000011384
 40
0.4
 50
81.869898000041587
 51
171.86989800000936
  0
LINE
  8
_0-9_小物
  6
CONTINUOUS
 62
    3
 10
-27.243601916286138
 20
-24.796360000011646
 11
-28.187031916285491
 21
-31.400380000011637
  0
LINE
  8
_0-9_小物
  6
CONTINUOUS
 62
    3
 10
-27.247341916286246
 20
-31.742400000011912
 11
-26.25498691628593
 21
-24.938780000010865
  0
ARC
  8
_0-9_小物
  6
CONTINUOUS
 62
    3
 10
-26.650796916285913
 20
-24.881045000011454
 40
0.4
 50
351.70153399996417
 51
81.869898000041587
  0
LINE
  8
_0-9_小物
  6
CONTINUOUS
 62
    3
 10
-26.594231916286049
 20
-24.485065000011446
 11
-26.791051916286165
 21
-24.456950000011147
  0
ARC
  8
_0-9_小物
  6
CONTINUOUS
 62
    3
 10
-26.847621916284993
 20
-24.852930000011384
 40
0.4
 50
81.869898000041587
 51
171.86989800000936
  0
LINE
  8
_0-9_小物
  6
CONTINUOUS
 62
    3
 10
-27.243601916286138
 20
-24.796360000011646
 11
-28.187031916285491
 21
-31.400380000011637
  0
LINE
  8
_0-9_小物
  6
CONTINUOUS
 62
    3
 10
-28.565941916284942
 20
-16.600000000011278
 11
-29.565941916285396
 21
-21.600000000011278
  0
LINE
  8
_0-9_小物
  6
CONTINUOUS
 62
    3
 10
-29.565941916285396
 20
-16.600000000011278
 11
-29.565941916285396
 21
-24.60000000001196
  0
LINE
  8
_0-9_小物
  6
CONTINUOUS
 62
    3
 10
-33.065941916284942
 20
-24.60000000001196
 11
-33.565941916284487
 21
-24.60000000001196
  0
LINE
  8
_0-9_小物
  6
CONTINUOUS
 62
    3
 10
-33.565941916284487
 20
-21.600000000011278
 11
-33.565941916284487
 21
-16.600000000011278
  0
LINE
  8
_0-9_小物
  6
CONTINUOUS
 62
    3
 10
-32.565941916285396
 20
-16.600000000011278
 11
-33.565941916284487
 21
-21.600000000011278
  0
LINE
  8
_0-9_小物
  6
CONTINUOUS
 62
    3
 10
-34.565941916285851
 20
-16.600000000011278
 11
-33.565941916284487
 21
-21.600000000011278
  0
LINE
  8
_0-9_小物
  6
CONTINUOUS
 62
    3
 10
-38.565941916284942
 20
-16.600000000011278
 11
-37.565941916284942
 21
-21.600000000011278
  0
LINE
  8
_0-9_小物
  6
CONTINUOUS
 62
    3
 10
-37.565941916284942
 20
-16.600000000011278
 11
-37.565941916284942
 21
-24.60000000001196
  0
LINE
  8
_0-9_小物
  6
CONTINUOUS
 62
    3
 10
-34.065941916285396
 20
-24.60000000001196
 11
-33.565941916284487
 21
-24.60000000001196
  0
LINE
  8
_0-9_小物
  6
CONTINUOUS
 62
    3
 10
-28.565941916284942
 20
-16.600000000011278
 11
-38.565941916284942
 21
-16.600000000011278
  0
ENDBLK
  0
BLOCK
  2
-005-_5_
 70
   64
 10
0
 20
0
 30
0
  0
LINE
  8
_0-9_小物
  6
CONTINUOUS
 62
    3
 10
106.84233308371574
 20
-51.379825000012033
 11
106.94700308371364
 21
-53.377085000011903
  0
LINE
  8
_0-9_小物
  6
CONTINUOUS
 62
    3
 10
106.68532308371402
 20
-48.383935000012116
 11
104.74040308371502
 21
-49.487235000012106
  0
LINE
  8
_0-9_小物
  6
CONTINUOUS
 62
    3
 10
104.74040308371502
 20
-49.487235000012106
 11
104.84507308371474
 21
-51.484495000011975
  0
LINE
  8
_0-9_小物
  6
CONTINUOUS
 62
    3
 10
104.84507308371474
 20
-51.484495000011975
 11
106.84233308371574
 21
-51.379825000012033
  0
LINE
  8
_0-9_小物
  6
CONTINUOUS
 62
    3
 10
106.58065308371431
 20
-46.386675000011792
 11
106.68532308371402
 21
-48.383935000012116
  0
LINE
  8
_0-9_小物
  6
CONTINUOUS
 62
    3
 10
106.42364308371441
 20
-43.390790000011748
 11
104.47872308371359
 21
-44.494090000012648
  0
LINE
  8
_0-9_小物
  6
CONTINUOUS
 62
    3
 10
104.47872308371359
 20
-44.494090000012648
 11
104.58339308371512
 21
-46.491350000011835
  0
LINE
  8
_0-9_小物
  6
CONTINUOUS
 62
    3
 10
104.58339308371512
 20
-46.491350000011835
 11
106.58065308371431
 21
-46.386675000011792
  0
LINE
  8
_0-9_小物
  6
CONTINUOUS
 62
    3
 10
106.31897308371379
 20
-41.393530000011651
 11
106.42364308371441
 21
-43.390790000011748
  0
LINE
  8
_0-9_小物
  6
CONTINUOUS
 62
    3
 10
106.1619630837148
 20
-38.397640000012643
 11
104.21704308371579
 21
-39.500940000011724
  0
LINE
  8
_0-9_小物
  6
CONTINUOUS
 62
    3
 10
104.21704308371579
 20
-39.500940000011724
 11
104.32171308371369
 21
-41.498200000011821
  0
LINE
  8
_0-9_小物
  6
CONTINUOUS
 62
    3
 10
104.32171308371369
 20
-41.498200000011821
 11
106.31897308371379
 21
-41.393530000011651
  0
LINE
  8
_0-9_小物
  6
CONTINUOUS
 62
    3
 10
106.05729308371417
 20
-36.400380000011864
 11
106.1619630837148
 21
-38.397640000012643
  0
LINE
  8
_0-9_小物
  6
CONTINUOUS
 62
    3
 10
105.90028308371427
 20
-33.40449000001172
 11
103.95536308371436
 21
-34.507795000012038
  0
LINE
  8
_0-9_小物
  6
CONTINUOUS
 62
    3
 10
103.95536308371436
 20
-34.507795000012038
 11
104.06003308371407
 21
-36.505055000011907
  0
LINE
  8
_0-9_小物
  6
CONTINUOUS
 62
    3
 10
104.06003308371407
 20
-36.505055000011907
 11
106.05729308371417
 21
-36.400380000011864
  0
LINE
  8
_0-9_小物
  6
CONTINUOUS
 62
    3
 10
105.79561308371456
 20
-31.407235000012179
 11
105.90028308371427
 21
-33.40449000001172
  0
LINE
  8
_0-9_小物
  6
CONTINUOUS
 62
    3
 10
103.69368308371384
 20
-29.514645000012251
 11
103.79835308371446
 21
-31.511905000012121
  0
LINE
  8
_0-9_小物
  6
CONTINUOUS
 62
    3
 10
103.79835308371446
 20
-31.511905000012121
 11
105.79561308371456
 21
-31.407235000012179
  0
LINE
  8
_0-9_小物
  6
CONTINUOUS
 62
    3
 10
105.43405808371506
 20
-28.600000000011732
 11
103.69368308371384
 21
-29.514645000012251
  0
LINE
  8
_0-9_小物
  6
CONTINUOUS
 62
    3
 10
96.025783083714373
 20
-51.379825000012033
 11
95.921113083714658
 21
-53.377085000011903
  0
LINE
  8
_0-9_小物
  6
CONTINUOUS
 62
    3
 10
96.182793083714273
 20
-48.383935000012116
 11
98.127713083714184
 21
-49.487235000012106
  0
LINE
  8
_0-9_小物
  6
CONTINUOUS
 62
    3
 10
98.127713083714184
 20
-49.487235000012106
 11
98.02304308371447
 21
-51.484495000011975
  0
LINE
  8
_0-9_小物
  6
CONTINUOUS
 62
    3
 10
98.02304308371447
 20
-51.484495000011975
 11
96.025783083714373
 21
-51.379825000012033
  0
LINE
  8
_0-9_小物
  6
CONTINUOUS
 62
    3
 10
96.287463083715807
 20
-46.386675000011792
 11
96.182793083714273
 21
-48.383935000012116
  0
LINE
  8
_0-9_小物
  6
CONTINUOUS
 62
    3
 10
96.444473083713888
 20
-43.390790000011748
 11
98.389393083713799
 21
-44.494090000012648
  0
LINE
  8
_0-9_小物
  6
CONTINUOUS
 62
    3
 10
98.389393083713799
 20
-44.494090000012648
 11
98.284723083714994
 21
-46.491350000011835
  0
LINE
  8
_0-9_小物
  6
CONTINUOUS
 62
    3
 10
98.284723083714994
 20
-46.491350000011835
 11
96.287463083715807
 21
-46.386675000011792
  0
LINE
  8
_0-9_小物
  6
CONTINUOUS
 62
    3
 10
96.549143083713602
 20
-41.393530000011651
 11
96.444473083713888
 21
-43.390790000011748
  0
LINE
  8
_0-9_小物
  6
CONTINUOUS
 62
    3
 10
96.706153083713502
 20
-38.397640000012643
 11
98.651073083714323
 21
-39.500940000011724
  0
LINE
  8
_0-9_小物
  6
CONTINUOUS
 62
    3
 10
98.651073083714323
 20
-39.500940000011724
 11
98.546403083714608
 21
-41.498200000011821
  0
LINE
  8
_0-9_小物
  6
CONTINUOUS
 62
    3
 10
98.546403083714608
 20
-41.498200000011821
 11
96.549143083713602
 21
-41.393530000011651
  0
LINE
  8
_0-9_小物
  6
CONTINUOUS
 62
    3
 10
96.810823083715036
 20
-36.400380000011864
 11
96.706153083713502
 21
-38.397640000012643
  0
LINE
  8
_0-9_小物
  6
CONTINUOUS
 62
    3
 10
96.967833083714936
 20
-33.40449000001172
 11
98.912753083715756
 21
-34.507795000012038
  0
LINE
  8
_0-9_小物
  6
CONTINUOUS
 62
    3
 10
98.912753083715756
 20
-34.507795000012038
 11
98.808083083714223
 21
-36.505055000011907
  0
LINE
  8
_0-9_小物
  6
CONTINUOUS
 62
    3
 10
98.808083083714223
 20
-36.505055000011907
 11
96.810823083715036
 21
-36.400380000011864
  0
LINE
  8
_0-9_小物
  6
CONTINUOUS
 62
    3
 10
97.072503083714651
 20
-31.407235000012179
 11
96.967833083714936
 21
-33.40449000001172
  0
LINE
  8
_0-9_小物
  6
CONTINUOUS
 62
    3
 10
99.174433083715371
 20
-29.514645000012251
 11
99.069763083713838
 21
-31.511905000012121
  0
LINE
  8
_0-9_小物
  6
CONTINUOUS
 62
    3
 10
99.069763083713838
 20
-31.511905000012121
 11
97.072503083714651
 21
-31.407235000012179
  0
LINE
  8
_0-9_小物
  6
CONTINUOUS
 62
    3
 10
97.434058083715058
 20
-28.600000000011732
 11
99.174433083715371
 21
-29.514645000012251
  0
LINE
  8
_0-9_小物
  6
CONTINUOUS
 62
    3
 10
106.05729308371417
 20
-36.400380000011864
 11
107.75265808371421
 21
-31.742400000012367
  0
LINE
  8
_0-9_小物
  6
CONTINUOUS
 62
    3
 10
104.99311308371477
 20
-36.400380000011864
 11
106.81296808371451
 21
-31.400380000012092
  0
LINE
  8
_0-9_小物
  6
CONTINUOUS
 62
    3
 10
96.810823083715036
 20
-36.400380000011864
 11
95.115458083715453
 21
-31.742400000012367
  0
LINE
  8
_0-9_小物
  6
CONTINUOUS
 62
    3
 10
97.875003083714432
 20
-36.400380000011864
 11
96.055148083714698
 21
-31.400380000012092
  0
LINE
  8
_0-9_小物
  6
CONTINUOUS
 62
    3
 10
103.45180308371425
 20
-53.560260000012249
 11
106.94700308371364
 21
-53.377085000011903
  0
LINE
  8
_0-9_小物
  6
CONTINUOUS
 62
    3
 10
106.94700308371364
 20
-53.377085000011903
 11
105.05441808371404
 21
-55.479015000011714
  0
LINE
  8
_0-9_小物
  6
CONTINUOUS
 62
    3
 10
105.05441808371404
 20
-55.479015000011714
 11
103.55647308371579
 21
-55.557520000012346
  0
LINE
  8
_0-9_小物
  6
CONTINUOUS
 62
    3
 10
103.55647308371579
 20
-55.557520000012346
 11
101.93405808371506
 21
-24.600000000012415
  0
LINE
  8
_0-9_小物
  6
CONTINUOUS
 62
    3
 10
105.43405808371506
 20
-28.600000000011732
 11
105.43405808371506
 21
-24.600000000012415
  0
LINE
  8
_0-9_小物
  6
CONTINUOUS
 62
    3
 10
99.416313083714044
 20
-53.560260000012249
 11
95.921113083714658
 21
-53.377085000011903
  0
LINE
  8
_0-9_小物
  6
CONTINUOUS
 62
    3
 10
95.921113083714658
 20
-53.377085000011903
 11
97.813698083714257
 21
-55.479015000011714
  0
LINE
  8
_0-9_小物
  6
CONTINUOUS
 62
    3
 10
97.813698083714257
 20
-55.479015000011714
 11
99.31164308371433
 21
-55.557520000012346
  0
LINE
  8
_0-9_小物
  6
CONTINUOUS
 62
    3
 10
99.31164308371433
 20
-55.557520000012346
 11
100.93405808371506
 21
-24.600000000012415
  0
LINE
  8
_0-9_小物
  6
CONTINUOUS
 62
    3
 10
97.434058083715058
 20
-28.600000000011732
 11
97.434058083715058
 21
-24.600000000012415
  0
LINE
  8
_0-9_小物
  6
CONTINUOUS
 62
    3
 10
95.115458083715453
 20
-31.742400000012367
 11
94.123103083715137
 21
-24.93878000001132
  0
ARC
  8
_0-9_小物
  6
CONTINUOUS
 62
    3
 10
94.51891308371512
 20
-24.881045000011909
 40
0.4
 50
98.130101999958413
 51
188.29846600001969
  0
LINE
  8
_0-9_小物
  6
CONTINUOUS
 62
    3
 10
94.462343083713563
 20
-24.4850650000119
 11
94.659168083715372
 21
-24.456950000011602
  0
ARC
  8
_0-9_小物
  6
CONTINUOUS
 62
    3
 10
94.715738083715109
 20
-24.852930000011838
 40
0.4
 50
8.1301020000240456
 51
98.130102000220958
  0
LINE
  8
_0-9_小物
  6
CONTINUOUS
 62
    3
 10
95.111718083715346
 20
-24.7963600000121
 11
96.055148083714698
 21
-31.400380000012092
  0
LINE
  8
_0-9_小物
  6
CONTINUOUS
 62
    3
 10
107.75265808371421
 20
-31.742400000012367
 11
108.74501308371453
 21
-24.93878000001132
  0
ARC
  8
_0-9_小物
  6
CONTINUOUS
 62
    3
 10
108.34920308371454
 20
-24.881045000011909
 40
0.4
 50
351.70153399996417
 51
81.869898000041587
  0
LINE
  8
_0-9_小物
  6
CONTINUOUS
 62
    3
 10
108.40576808371486
 20
-24.4850650000119
 11
108.20894808371429
 21
-24.456950000011602
  0
ARC
  8
_0-9_小物
  6
CONTINUOUS
 62
    3
 10
108.15237808371501
 20
-24.852930000011838
 40
0.4
 50
81.869898000041587
 51
171.86989800000819
  0
LINE
  8
_0-9_小物
  6
CONTINUOUS
 62
    3
 10
107.75639808371432
 20
-24.7963600000121
 11
106.81296808371451
 21
-31.400380000012092
  0
LINE
  8
_0-9_小物
  6
CONTINUOUS
 62
    3
 10
107.75265808371421
 20
-31.742400000012367
 11
108.74501308371453
 21
-24.93878000001132
  0
ARC
  8
_0-9_小物
  6
CONTINUOUS
 62
    3
 10
108.34920308371454
 20
-24.881045000011909
 40
0.4
 50
351.70153399996417
 51
81.869898000041587
  0
LINE
  8
_0-9_小物
  6
CONTINUOUS
 62
    3
 10
108.40576808371486
 20
-24.4850650000119
 11
108.20894808371429
 21
-24.456950000011602
  0
ARC
  8
_0-9_小物
  6
CONTINUOUS
 62
    3
 10
108.15237808371501
 20
-24.852930000011838
 40
0.4
 50
81.869898000041587
 51
171.86989800000819
  0
LINE
  8
_0-9_小物
  6
CONTINUOUS
 62
    3
 10
107.75639808371432
 20
-24.7963600000121
 11
106.81296808371451
 21
-31.400380000012092
  0
LINE
  8
_0-9_小物
  6
CONTINUOUS
 62
    3
 10
106.43405808371506
 20
-16.600000000011732
 11
105.43405808371506
 21
-21.600000000011732
  0
LINE
  8
_0-9_小物
  6
CONTINUOUS
 62
    3
 10
105.43405808371506
 20
-16.600000000011732
 11
105.43405808371506
 21
-24.600000000012415
  0
LINE
  8
_0-9_小物
  6
CONTINUOUS
 62
    3
 10
101.93405808371506
 20
-24.600000000012415
 11
101.43405808371597
 21
-24.600000000012415
  0
LINE
  8
_0-9_小物
  6
CONTINUOUS
 62
    3
 10
101.43405808371597
 20
-21.600000000011732
 11
101.43405808371597
 21
-16.600000000011732
  0
LINE
  8
_0-9_小物
  6
CONTINUOUS
 62
    3
 10
102.43405808371506
 20
-16.600000000011732
 11
101.43405808371597
 21
-21.600000000011732
  0
LINE
  8
_0-9_小物
  6
CONTINUOUS
 62
    3
 10
100.43405808371415
 20
-16.600000000011732
 11
101.43405808371597
 21
-21.600000000011732
  0
LINE
  8
_0-9_小物
  6
CONTINUOUS
 62
    3
 10
96.434058083715058
 20
-16.600000000011732
 11
97.434058083715058
 21
-21.600000000011732
  0
LINE
  8
_0-9_小物
  6
CONTINUOUS
 62
    3
 10
97.434058083715058
 20
-16.600000000011732
 11
97.434058083715058
 21
-24.600000000012415
  0
LINE
  8
_0-9_小物
  6
CONTINUOUS
 62
    3
 10
100.93405808371506
 20
-24.600000000012415
 11
101.43405808371597
 21
-24.600000000012415
  0
LINE
  8
_0-9_小物
  6
CONTINUOUS
 62
    3
 10
106.43405808371506
 20
-16.600000000011732
 11
96.434058083715058
 21
-16.600000000011732
  0
ENDBLK
  0
ENDSEC
  0
SECTION
  2
ENTITIES
  0
LINE
  8
_f-0_
  6
CONTINUOUS
 62
    6
 10
19.999999999999886
 20
20.000000000000114
 11
820.99999999999989
 21
20.000000000000114
  0
LINE
  8
_f-0_
  6
CONTINUOUS
 62
    6
 10
19.999999999999886
 20
554.00000000000011
 11
19.999999999999886
 21
20.000000000000114
  0
LINE
  8
_f-0_
  6
CONTINUOUS
 62
    6
 10
820.99999999999989
 20
554.00000000000011
 11
19.999999999999886
 21
554.00000000000011
  0
LINE
  8
_f-0_
  6
CONTINUOUS
 62
    6
 10
820.99999999999989
 20
20.000000000000114
 11
820.99999999999989
 21
554.00000000000011
  0
LINE
  8
_1-0_
  6
CONTINUOUS
 62
    2
 10
722.59999999999911
 20
356.91927353993901
 11
722.59999999999911
 21
336.91927353994134
  0
LINE
  8
_1-0_
  6
CONTINUOUS
 62
    2
 10
682.59999999999911
 20
373.91927353994117
 11
682.59999999999911
 21
336.91927353994134
  0
LINE
  8
_1-0_
  6
CENTER1
 62
    2
 10
702.59999999999911
 20
356.91927353993901
 11
702.59999999999911
 21
336.91927353994134
  0
LINE
  8
_1-f_
  6
CONTINUOUS
 62
    4
 10
623.19999999999982
 20
401.71927353993919
 11
623.19999999999982
 21
314.91927353994134
  0
LINE
  8
_1-f_
  6
CONTINUOUS
 62
    4
 10
623.19999999999982
 20
314.91927353994134
 11
800.99999999999989
 21
314.91927353994134
  0
LINE
  8
_1-f_
  6
CONTINUOUS
 62
    4
 10
800.99999999999989
 20
401.71927353993919
 11
623.19999999999982
 21
401.71927353993919
  0
LINE
  8
_1-f_
  6
CONTINUOUS
 62
    4
 10
800.99999999999989
 20
401.71927353993919
 11
800.99999999999989
 21
314.91927353994134
  0
ARC
  8
_0-a_
  6
CONTINUOUS
 62
    3
 10
334.93405808371597
 20
313.99999999998886
 40
1
 50
0
 51
90
  0
LINE
  8
_0-a_
  6
CONTINUOUS
 62
    3
 10
335.93405808371597
 20
313.99999999998886
 11
335.93405808371597
 21
310.99999999998886
  0
ARC
  8
_0-a_
  6
CONTINUOUS
 62
    3
 10
334.93405808371597
 20
313.99999999998886
 40
1
 50
0
 51
90
  0
LINE
  8
_0-a_
  6
CONTINUOUS
 62
    3
 10
326.93405808371597
 20
308.49999999998886
 11
326.93405808371597
 21
310.49999999998886
  0
LINE
  8
_0-a_
  6
CONTINUOUS
 62
    3
 10
334.63405808371579
 20
314.99999999998886
 11
326.93405808371597
 21
310.49999999998886
  0
LINE
  8
_0-a_
  6
CONTINUOUS
 62
    3
 10
326.93405808371597
 20
308.49999999998886
 11
326.93405808371597
 21
310.49999999998886
  0
ARC
  8
_0-a_
  6
CONTINUOUS
 62
    3
 10
334.93405808371597
 20
313.99999999998886
 40
1
 50
0
 51
90
  0
LINE
  8
_0-a_
  6
CONTINUOUS
 62
    3
 10
326.93405808371597
 20
308.49999999998886
 11
326.93405808371597
 21
310.49999999998886
  0
LINE
  8
_0-a_
  6
CONTINUOUS
 62
    3
 10
335.93405808371597
 20
313.99999999998886
 11
335.93405808371597
 21
310.99999999998886
  0
LINE
  8
_0-a_
  6
CONTINUOUS
 62
    3
 10
386.63405808371579
 20
286.49999999998875
 11
367.23405808371615
 21
286.49999999998875
  0
LINE
  8
_0-a_
  6
CONTINUOUS
 62
    3
 10
327.93405808371597
 20
282.99999999998875
 11
381.93405808371597
 21
282.99999999998875
  0
LINE
  8
_0-a_
  6
CONTINUOUS
 62
    3
 10
162.43405808371733
 20
302.80000000000018
 11
433.43405808371597
 21
302.80000000000018
  0
LINE
  8
_0-a_
  6
CONTINUOUS
 62
    3
 10
401.93405808371506
 20
281.99999999998875
 11
401.93405808371506
 21
282.99999999998875
  0
LINE
  8
_0-a_
  6
CONTINUOUS
 62
    3
 10
395.93405808371506
 20
287.99999999998875
 11
377.93405808371506
 21
287.99999999998875
  0
LINE
  8
_0-a_
  6
CONTINUOUS
 62
    3
 10
395.93405808371506
 20
286.49999999998875
 11
377.93405808371506
 21
286.49999999998875
  0
LINE
  8
_0-a_
  6
CONTINUOUS
 62
    3
 10
395.93405808371506
 20
287.99999999998875
 11
395.93405808371506
 21
286.49999999998875
  0
LINE
  8
_0-a_
  6
CONTINUOUS
 62
    3
 10
377.93405808371506
 20
287.99999999998875
 11
377.93405808371506
 21
286.49999999998875
  0
LINE
  8
_0-a_
  6
CONTINUOUS
 62
    3
 10
391.43405808371506
 20
287.99999999998875
 11
391.32514529991465
 21
289.24487881498874
  0
LINE
  8
_0-a_
  6
CONTINUOUS
 62
    3
 10
382.54297086741542
 20
289.24487881498874
 11
382.43405808371597
 21
287.99999999998875
  0
ARC
  8
_0-a_
  6
CONTINUOUS
 62
    3
 10
383.52920361861459
 20
289.15859462968854
 40
0.9899999999999997
 50
127.36755803204723
 51
175.0000000012005
  0
ARC
  8
_0-a_
  6
CONTINUOUS
 62
    3
 10
390.33891254881462
 20
289.15859462968854
 40
0.9899999999999997
 50
4.9999999987995034
 51
52.632441967882372
  0
ARC
  8
_0-a_
  6
CONTINUOUS
 62
    3
 10
386.93405808371506
 20
284.69999999998856
 40
6.5999999999999996
 50
52.632441967714605
 51
68.266383543398021
  0
ARC
  8
_0-a_
  6
CONTINUOUS
 62
    3
 10
386.93405808371506
 20
284.69999999998856
 40
6.5999999999999996
 50
111.74840859090317
 51
127.36755803230515
  0
LINE
  8
_0-a_
  6
CONTINUOUS
 62
    3
 10
387.24905808371557
 20
291.25912712958882
 11
387.24905808371557
 21
290.82331223958852
  0
LINE
  8
_0-a_
  6
CONTINUOUS
 62
    3
 10
387.59634676561643
 20
291.25912712958882
 11
387.24905808371557
 21
291.25912712958882
  0
LINE
  8
_0-a_
  6
CONTINUOUS
 62
    3
 10
389.37656135221448
 20
290.82331223958852
 11
387.59634676561643
 21
291.25912712958882
  0
LINE
  8
_0-a_
  6
CONTINUOUS
 62
    3
 10
386.27176940171546
 20
291.25912712958882
 11
384.97185913401506
 21
290.99369130818889
  0
LINE
  8
_0-a_
  6
CONTINUOUS
 62
    3
 10
384.97185913401506
 20
290.99369130818889
 11
384.4915548151165
 21
290.82331223958852
  0
LINE
  8
_0-a_
  6
CONTINUOUS
 62
    3
 10
386.61905808371546
 20
291.25912712958882
 11
386.27176940171546
 21
291.25912712958882
  0
LINE
  8
_0-a_
  6
CONTINUOUS
 62
    3
 10
386.61905808371546
 20
290.82331223958852
 11
386.61905808371546
 21
291.25912712958882
  0
LINE
  8
_0-a_
  6
CONTINUOUS
 62
    3
 10
387.24905808371557
 20
290.82331223958852
 11
386.93405808371506
 21
290.82841741398886
  0
LINE
  8
_0-a_
  6
CONTINUOUS
 62
    3
 10
386.93405808371506
 20
290.82841741398886
 11
386.61905808371546
 21
290.82331223958852
  0
LINE
  8
_0-a_
  6
CONTINUOUS
 62
    3
 10
379.43405808371597
 20
282.99999999998875
 11
379.43405808371597
 21
286.49999999998875
  0
LINE
  8
_0-a_
  6
CONTINUOUS
 62
    3
 10
394.43405808371506
 20
282.99999999998875
 11
394.43405808371506
 21
286.49999999998875
  0
LINE
  8
_0-a_
  6
CONTINUOUS
 62
    3
 10
387.23405808371615
 20
286.49999999998875
 11
386.93405808371506
 21
286.19999999998902
  0
LINE
  8
_0-a_
  6
CONTINUOUS
 62
    3
 10
386.93405808371506
 20
286.19999999998902
 11
386.63405808371579
 21
286.49999999998875
  0
LINE
  8
_0-a_
  6
CONTINUOUS
 62
    3
 10
387.23405808371615
 20
286.49999999998875
 11
386.93405808371597
 21
286.19999999998902
  0
LINE
  8
_0-a_
  6
CONTINUOUS
 62
    3
 10
386.93405808371597
 20
286.19999999998902
 11
386.63405808371579
 21
286.49999999998875
  0
LINE
  8
_0-a_
  6
CONTINUOUS
 62
    3
 10
406.93405808371506
 20
286.49999999998875
 11
392.23405808371615
 21
286.49999999998875
  0
LINE
  8
_0-a_
  6
CONTINUOUS
 62
    3
 10
391.63405808371579
 20
286.49999999998875
 11
387.23405808371615
 21
286.49999999998875
  0
LINE
  8
_0-a_
  6
CONTINUOUS
 62
    3
 10
498.93405808371506
 20
286.49999999998875
 11
501.43405808371506
 21
285.4999999999892
  0
LINE
  8
_0-a_
  6
CONTINUOUS
 62
    3
 10
518.63405808371624
 20
285.49999999998875
 11
501.43405808371506
 21
285.49999999998875
  0
LINE
  8
_0-a_
  6
CONTINUOUS
 62
    3
 10
549.93405808371551
 20
282.99999999998875
 11
549.93405808371551
 21
301.49999999998886
  0
LINE
  8
_0-a_
  6
CONTINUOUS
 62
    3
 10
549.93405808371551
 20
282.99999999998875
 11
549.93405808371551
 21
281.99999999998875
  0
LINE
  8
_0-a_
  6
CONTINUOUS
 62
    3
 10
406.93405808371506
 20
286.49999999998875
 11
498.93405808371506
 21
286.49999999998875
  0
LINE
  8
_0-a_
  6
CONTINUOUS
 62
    3
 10
332.93405808371597
 20
282.99999999998875
 11
549.93405808371551
 21
282.99999999998875
  0
LINE
  8
_0-a_
  6
CONTINUOUS
 62
    3
 10
160.43405808371733
 20
303.80000000000018
 11
160.43405808371733
 21
296.80000000000007
  0
LINE
  8
_0-a_
  6
CONTINUOUS
 62
    3
 10
160.43405808371733
 20
296.80000000000007
 11
162.43405808371733
 21
296.80000000000007
  0
LINE
  8
_0-a_
  6
CONTINUOUS
 62
    3
 10
160.43405808371733
 20
303.80000000000018
 11
160.43405808371733
 21
296.80000000000007
  0
LINE
  8
_0-a_
  6
CONTINUOUS
 62
    3
 10
166.43405808371733
 20
305.80000000000018
 11
166.43405808371733
 21
308.80000000000018
  0
LINE
  8
_0-a_
  6
CONTINUOUS
 62
    3
 10
162.43405808371733
 20
302.80000000000018
 11
162.43405808371733
 21
296.80000000000007
  0
LINE
  8
_0-a_
  6
CONTINUOUS
 62
    3
 10
162.43405808371733
 20
302.80000000000018
 11
190.91116866374648
 21
302.80000000000018
  0
ARC
  8
_0-a_
  6
CONTINUOUS
 62
    3
 10
327.93405808371597
 20
283.99999999998875
 40
1
 50
180
 51
270
  0
ARC
  8
_0-a_
  6
CONTINUOUS
 62
    3
 10
332.93405808371597
 20
289.49999999998852
 40
3
 50
180
 51
270
  0
LINE
  8
_0-a_
  6
CONTINUOUS
 62
    3
 10
325.43405658371637
 20
299.79999800000064
 11
325.43405658371637
 21
294.8000000000003
  0
LINE
  8
_0-a_
  6
CONTINUOUS
 62
    3
 10
325.43405658371637
 20
294.8000000000003
 11
326.93405658371546
 21
294.8000000000003
  0
LINE
  8
_0-a_
  6
CONTINUOUS
 62
    3
 10
329.93405658371546
 20
294.8000000000003
 11
331.43405658371546
 21
294.8000000000003
  0
LINE
  8
_0-a_
  6
CONTINUOUS
 62
    3
 10
331.43405658371546
 20
294.8000000000003
 11
331.43405658371546
 21
299.79999800000064
  0
ARC
  8
_0-a_
  6
CONTINUOUS
 62
    3
 10
328.43405658371546
 20
299.79999800000064
 40
1.7000010000000001
 50
0
 51
180
  0
ARC
  8
_0-a_
  6
CONTINUOUS
 62
    3
 10
328.43405658371546
 20
299.79999800000064
 40
3
 50
0
 51
180
  0
LINE
  8
_0-a_
  6
CONTINUOUS
 62
    3
 10
329.93405058371616
 20
296.79999800000007
 11
329.69020758371505
 21
296.79999800000007
  0
ARC
  8
_0-a_
  6
CONTINUOUS
 62
    3
 10
329.69020758371505
 20
296.60000000000048
 40
0.200001
 50
90
 51
194.03640199995928
  0
LINE
  8
_0-a_
  6
CONTINUOUS
 62
    3
 10
329.93405658371546
 20
294.8000000000003
 11
329.49617958371516
 21
296.55149300000051
  0
LINE
  8
_0-a_
  6
CONTINUOUS
 62
    3
 10
326.93405658371546
 20
296.79999800000007
 11
327.17790258371576
 21
296.79999800000007
  0
ARC
  8
_0-a_
  6
CONTINUOUS
 62
    3
 10
327.17790258371576
 20
296.60000000000048
 40
0.200001
 50
345.96380799999201
 51
90
  0
LINE
  8
_0-a_
  6
CONTINUOUS
 62
    3
 10
326.93405958371557
 20
294.8000000000003
 11
327.37193058371656
 21
296.55149300000051
  0
LINE
  8
_0-a_
  6
CONTINUOUS
 62
    3
 10
329.93405058371616
 20
296.79999800000007
 11
330.1340515837154
 21
296.79999800000007
  0
LINE
  8
_0-a_
  6
CONTINUOUS
 62
    3
 10
330.1340515837154
 20
296.79999800000007
 11
330.13405758371562
 21
299.79999800000064
  0
LINE
  8
_0-a_
  6
CONTINUOUS
 62
    3
 10
326.93405958371557
 20
296.79999800000007
 11
326.7340555837153
 21
296.79999800000007
  0
LINE
  8
_0-a_
  6
CONTINUOUS
 62
    3
 10
326.7340555837153
 20
296.79999800000007
 11
326.7340555837153
 21
299.79999800000064
  0
LINE
  8
_0-a_
  6
CONTINUOUS
 62
    3
 10
327.43405808371597
 20
296.8000000000003
 11
326.93405808371597
 21
294.8000000000003
  0
LINE
  8
_0-a_
  6
CONTINUOUS
 62
    3
 10
326.93405808371597
 20
296.8000000000003
 11
327.43405808371597
 21
296.8000000000003
  0
LINE
  8
_0-a_
  6
CONTINUOUS
 62
    3
 10
326.93405808371597
 20
299.80000000000041
 11
326.93405808371597
 21
296.8000000000003
  0
ARC
  8
_0-a_
  6
CONTINUOUS
 62
    3
 10
328.43405808371597
 20
299.80000000000041
 40
1.5
 50
0
 51
180
  0
LINE
  8
_0-a_
  6
CONTINUOUS
 62
    3
 10
329.93405808371597
 20
296.8000000000003
 11
329.93405808371597
 21
299.80000000000041
  0
LINE
  8
_0-a_
  6
CONTINUOUS
 62
    3
 10
329.43405808371597
 20
296.8000000000003
 11
329.93405808371597
 21
296.8000000000003
  0
LINE
  8
_0-a_
  6
CONTINUOUS
 62
    3
 10
329.93405808371597
 20
294.8000000000003
 11
329.43405808371597
 21
296.8000000000003
  0
LINE
  8
_0-a_
  6
CONTINUOUS
 62
    3
 10
326.93405808371597
 20
294.79999399997143
 11
326.93405808371597
 21
283.99999999998875
  0
LINE
  8
_0-a_
  6
CONTINUOUS
 62
    3
 10
326.93405808371597
 20
294.79999399997143
 11
326.93405808371597
 21
283.99999999998875
  0
LINE
  8
_0-a_
  6
CONTINUOUS
 62
    3
 10
329.93405808371597
 20
289.49999999998852
 11
329.93405808371597
 21
294.8000000000003
  0
LINE
  8
_0-a_
  6
CONTINUOUS
 62
    3
 10
335.93405808371597
 20
313.99999999998886
 11
335.93405808371597
 21
310.99999999998886
  0
LINE
  8
_0-a_
  6
CONTINUOUS
 62
    3
 10
326.93405808371597
 20
308.49999999998886
 11
326.93405808371597
 21
310.49999999998886
  0
LINE
  8
_0-a_
  6
CONTINUOUS
 62
    3
 10
335.93405808371597
 20
313.99999999998886
 11
534.93405808371551
 21
313.99999999998886
  0
ARC
  8
_0-a_
  6
CONTINUOUS
 62
    3
 10
334.93405808371597
 20
313.99999999998886
 40
1
 50
0
 51
90
  0
LINE
  8
_0-a_
  6
CONTINUOUS
 62
    3
 10
545.43405808371551
 20
285.49999999998875
 11
519.23405808371569
 21
285.49999999998875
  0
ARC
  8
_0-a_
  6
CONTINUOUS
 62
    3
 10
545.43405808371551
 20
287.49999999998875
 40
2
 50
270
 51
0
  0
LINE
  8
_0-a_
  6
CONTINUOUS
 62
    3
 10
549.93405808371551
 20
282.99999999998875
 11
549.93405808371551
 21
281.99999999998875
  0
LINE
  8
_0-a_
  6
CONTINUOUS
 62
    3
 10
534.93405808371551
 20
314.49999999998886
 11
534.93405808371551
 21
310.99999999998886
  0
LINE
  8
_0-a_
  6
CONTINUOUS
 62
    3
 10
551.9340580837146
 20
313.99999999998886
 11
583.57827134037268
 21
313.99999999998886
  0
LINE
  8
_0-a_
  6
CONTINUOUS
 62
    3
 10
546.43405808371551
 20
306.99999999998886
 11
542.73405808371569
 21
306.99999999998886
  0
LINE
  8
_0-a_
  6
CONTINUOUS
 62
    3
 10
542.13405808371533
 20
306.99999999998886
 11
538.43405808371551
 21
306.99999999998886
  0
LINE
  8
_0-a_
  6
CONTINUOUS
 62
    3
 10
536.93405808371551
 20
304.49999999998886
 11
546.43405808371551
 21
304.49999999998886
  0
LINE
  8
_0-a_
  6
CONTINUOUS
 62
    3
 10
534.93405808371551
 20
308.49999999998886
 11
534.93405808371551
 21
306.49999999998886
  0
ARC
  8
_0-a_
  6
CONTINUOUS
 62
    3
 10
536.93405808371551
 20
306.49999999998886
 40
2
 50
180
 51
270
  0
ARC
  8
_0-a_
  6
CONTINUOUS
 62
    3
 10
546.43405808371551
 20
303.49999999998886
 40
1
 50
0
 51
90
  0
ARC
  8
_0-a_
  6
CONTINUOUS
 62
    3
 10
536.93405808371551
 20
306.49999999998886
 40
2
 50
180
 51
270
  0
LINE
  8
_0-a_
  6
CONTINUOUS
 62
    3
 10
538.43405808371551
 20
308.49999999998886
 11
534.93405808371551
 21
308.49999999998886
  0
LINE
  8
_0-a_
  6
CONTINUOUS
 62
    3
 10
549.93405808371551
 20
303.99999999998886
 11
549.93405808371551
 21
307.83157694658962
  0
LINE
  8
_0-a_
  6
CONTINUOUS
 62
    3
 10
549.93405808371551
 20
303.99999999998886
 11
549.93405808371551
 21
308.49999999998886
  0
LINE
  8
_0-a_
  6
CONTINUOUS
 62
    3
 10
552.43405808371551
 20
303.49999999998886
 11
550.43405808371551
 21
303.49999999998886
  0
ARC
  8
_0-a_
  6
CONTINUOUS
 62
    3
 10
550.93405808371551
 20
300.99999999998886
 40
1
 50
90
 51
180
  0
LINE
  8
_0-a_
  6
CONTINUOUS
 62
    3
 10
550.93405808371551
 20
301.99999999998886
 11
553.43405808371551
 21
301.99999999998886
  0
ARC
  8
_0-a_
  6
CONTINUOUS
 62
    3
 10
553.43405808371551
 20
302.49999999998886
 40
0.5
 50
270
 51
0
  0
ARC
  8
_0-a_
  6
CONTINUOUS
 62
    3
 10
553.18405808371551
 20
310.24999999998886
 40
0.75
 50
0
 51
180
  0
ARC
  8
_0-a_
  6
CONTINUOUS
 62
    3
 10
550.43405808371551
 20
303.99999999998886
 40
0.5
 50
180
 51
270
  0
LINE
  8
_0-a_
  6
CONTINUOUS
 62
    3
 10
552.43405808371551
 20
310.24999999998886
 11
552.43405808371551
 21
303.49999999998886
  0
LINE
  8
_0-a_
  6
CONTINUOUS
 62
    3
 10
549.93405808371551
 20
304.02598353495091
 11
549.93405808371551
 21
306.00000000000023
  0
LINE
  8
_0-a_
  6
CONTINUOUS
 62
    3
 10
546.43405808371551
 20
312.49999999998886
 11
538.43405808371551
 21
312.49999999998886
  0
LINE
  8
_0-a_
  6
CONTINUOUS
 62
    3
 10
538.43405808371551
 20
306.99999999998886
 11
538.43405808371551
 21
312.49999999998886
  0
LINE
  8
_0-a_
  6
CONTINUOUS
 62
    3
 10
545.18405808371551
 20
312.49999999998886
 11
539.68405808371551
 21
312.49999999998886
  0
LINE
  8
_0-a_
  6
CONTINUOUS
 62
    3
 10
547.43405808371551
 20
315.29999999998881
 11
544.33405808371515
 21
312.1999999999889
  0
LINE
  8
_0-a_
  6
CONTINUOUS
 62
    3
 10
537.43405808371551
 20
315.29999999998881
 11
540.53405808371588
 21
312.1999999999889
  0
LINE
  8
_0-a_
  6
CONTINUOUS
 62
    3
 10
547.43405808371551
 20
315.49999999998886
 11
547.43405808371551
 21
315.29999999998881
  0
LINE
  8
_0-a_
  6
CONTINUOUS
 62
    3
 10
547.43405808371551
 20
315.29999999998881
 11
537.43405808371551
 21
315.29999999998881
  0
LINE
  8
_0-a_
  6
CONTINUOUS
 62
    3
 10
537.43405808371551
 20
315.49999999998886
 11
537.43405808371551
 21
315.29999999998881
  0
LINE
  8
_0-a_
  6
CONTINUOUS
 62
    3
 10
545.18405808371551
 20
312.99999999998886
 11
545.18405808371551
 21
312.49999999998886
  0
LINE
  8
_0-a_
  6
CONTINUOUS
 62
    3
 10
539.68405808371551
 20
312.99999999998886
 11
539.68405808371551
 21
312.49999999998886
  0
LINE
  8
_0-a_
  6
CONTINUOUS
 62
    3
 10
539.68405808371551
 20
312.99999999998886
 11
545.18405808371551
 21
312.99999999998886
  0
LINE
  8
_0-a_
  6
CONTINUOUS
 62
    3
 10
542.73405808371569
 20
315.49999999998886
 11
542.43405808371551
 21
315.19999999998868
  0
LINE
  8
_0-a_
  6
CONTINUOUS
 62
    3
 10
542.43405808371551
 20
315.19999999998868
 11
542.13405808371533
 21
315.49999999998886
  0
LINE
  8
_0-a_
  6
CONTINUOUS
 62
    3
 10
547.43405808371551
 20
315.49999999998886
 11
537.43405808371551
 21
315.49999999998886
  0
LINE
  8
_0-a_
  6
CONTINUOUS
 62
    3
 10
553.93405808371551
 20
302.49999999998886
 11
553.93405808371551
 21
310.24999999998886
  0
ARC
  8
_0-a_
  6
CONTINUOUS
 62
    3
 10
535.93405808371551
 20
314.49999999998886
 40
1
 50
90
 51
180
  0
LINE
  8
_0-a_
  6
CONTINUOUS
 62
    3
 10
556.9252565189239
 20
313.99999999998886
 11
552.9340580837146
 21
313.99999999998886
  0
LINE
  8
_0-a_
  6
CONTINUOUS
 62
    3
 10
535.93405808371551
 20
315.49999999998886
 11
551.9340580837146
 21
315.49999999998886
  0
LINE
  8
_0-a_
  6
CONTINUOUS
 62
    3
 10
563.93405808371551
 20
310.99999999998886
 11
583.57827134037268
 21
310.99999999998886
  0
LINE
  8
_0-a_
  6
CONTINUOUS
 62
    3
 10
558.53213429506866
 20
310.99999999998886
 11
583.57827134037268
 21
310.99999999998886
  0
LINE
  8
_0-a_
  6
CONTINUOUS
 62
    3
 10
553.93405808371551
 20
302.49999999998886
 11
553.93405808371551
 21
310.24999999998886
  0
LINE
  8
_0-a_
  6
CONTINUOUS
 62
    3
 10
551.93405808372734
 20
315.49999999998886
 11
560.4340580837146
 21
315.49999999998886
  0
LINE
  8
_0-a_
  6
CONTINUOUS
 62
    3
 10
546.43405808371551
 20
308.49999999998886
 11
546.43405808371551
 21
306.99999999998886
  0
ARC
  8
_0-a_
  6
CONTINUOUS
 62
    3
 10
551.4340580837146
 20
305.49999999998886
 40
0.5
 50
270
 51
0
  0
LINE
  8
_0-a_
  6
CONTINUOUS
 62
    3
 10
550.43405808371551
 20
304.99999999998886
 11
551.4340580837146
 21
304.99999999998886
  0
ARC
  8
_0-a_
  6
CONTINUOUS
 62
    3
 10
550.43405808371551
 20
305.49999999998886
 40
0.5
 50
180
 51
270
  0
LINE
  8
_0-a_
  6
CONTINUOUS
 62
    3
 10
551.9340580837146
 20
305.49999999998886
 11
551.9340580837146
 21
313.99999999998886
  0
LINE
  8
_0-a_
  6
CONTINUOUS
 62
    3
 10
546.43405808371551
 20
312.49999999998886
 11
546.43405808371551
 21
308.49999999998886
  0
LINE
  8
_0-a_
  6
CONTINUOUS
 62
    3
 10
549.93405808371551
 20
308.49999999998886
 11
549.93405808371551
 21
304.99999999998886
  0
LINE
  8
_0-a_
  6
CONTINUOUS
 62
    3
 10
546.43405808371551
 20
308.49999999998886
 11
549.93405808371551
 21
308.49999999998886
  0
LINE
  8
_0-a_
  6
CONTINUOUS
 62
    3
 10
549.93405808371551
 20
282.99999999998875
 11
549.93405808371551
 21
300.99999999998886
  0
LINE
  8
_0-a_
  6
CONTINUOUS
 62
    3
 10
549.93405808371551
 20
282.99999999998875
 11
549.93405808371551
 21
300.99999999998886
  0
LINE
  8
_0-a_
  6
CONTINUOUS
 62
    3
 10
547.43405808371551
 20
303.49999999998886
 11
547.43405808371551
 21
287.49999999998875
  0
LINE
  8
_0-a_
  6
CONTINUOUS
 62
    3
 10
547.4340580837146
 20
303.49999999998886
 11
547.4340580837146
 21
287.49999999998875
  0
LINE
  8
_0-a_
  6
CONTINUOUS
 62
    3
 10
542.73405808371569
 20
306.99999999998886
 11
542.43405808371551
 21
306.69999999998913
  0
LINE
  8
_0-a_
  6
CONTINUOUS
 62
    3
 10
542.43405808371551
 20
306.69999999998913
 11
542.13405808371533
 21
306.99999999998886
  0
LINE
  8
_0-a_
  6
CONTINUOUS
 62
    3
 10
544.18405808371551
 20
303.19999999998868
 11
544.18405808371551
 21
297.85677313258429
  0
LINE
  8
_0-a_
  6
CONTINUOUS
 62
    3
 10
544.22405808371548
 20
308.00301343866181
 11
544.22405808371548
 21
307.20738171933158
  0
LINE
  8
_0-a_
  6
CONTINUOUS
 62
    3
 10
544.22405808371548
 20
306.50301343866181
 11
544.22405808371548
 21
305.70738171933158
  0
LINE
  8
_0-a_
  6
CONTINUOUS
 62
    3
 10
544.22405808371548
 20
305.00301343866181
 11
544.22405808371548
 21
303.19999999998868
  0
LINE
  8
_0-a_
  6
CONTINUOUS
 62
    3
 10
544.22405808371548
 20
309.19999999998868
 11
544.22405808371548
 21
308.70738171933158
  0
LINE
  8
_0-a_
  6
CONTINUOUS
 62
    3
 10
540.64405808371555
 20
303.69999999998868
 11
540.64405808371555
 21
303.19999999998868
  0
LINE
  8
_0-a_
  6
CONTINUOUS
 62
    3
 10
540.64405808371555
 20
305.19999999998868
 11
540.64405808371555
 21
304.40436828065845
  0
LINE
  8
_0-a_
  6
CONTINUOUS
 62
    3
 10
540.64405808371555
 20
306.69999999998868
 11
540.64405808371555
 21
305.90436828065845
  0
LINE
  8
_0-a_
  6
CONTINUOUS
 62
    3
 10
540.64405808371555
 20
308.19999999998868
 11
540.64405808371555
 21
307.40436828065845
  0
LINE
  8
_0-a_
  6
CONTINUOUS
 62
    3
 10
540.64405808371555
 20
309.19999999998868
 11
540.64405808371555
 21
308.90436828065845
  0
LINE
  8
_0-a_
  6
CONTINUOUS
 62
    3
 10
542.43405808371551
 20
309.20369085966013
 11
540.03405808371497
 21
308.55218414032356
  0
LINE
  8
_0-a_
  6
CONTINUOUS
 62
    3
 10
540.64405808371555
 20
308.19999999998868
 11
542.43405808371551
 21
308.85150671932524
  0
LINE
  8
_0-a_
  6
CONTINUOUS
 62
    3
 10
540.64405808371555
 20
308.90436828065845
 11
541.45629955704987
 21
309.19999999998868
  0
LINE
  8
_0-a_
  6
CONTINUOUS
 62
    3
 10
544.48405808371569
 20
303.19999999998868
 11
544.48405808371569
 21
297.68356805182725
  0
LINE
  8
_0-a_
  6
CONTINUOUS
 62
    3
 10
544.48405808371569
 20
303.19999999998868
 11
540.38405808371533
 21
303.19999999998868
  0
LINE
  8
_0-a_
  6
CONTINUOUS
 62
    3
 10
540.38405808371533
 20
303.19999999998868
 11
540.38405808371533
 21
297.68356805182725
  0
LINE
  8
_0-a_
  6
CONTINUOUS
 62
    3
 10
540.03405808371497
 20
308.55218414032356
 11
540.64405808371555
 21
308.90436828065845
  0
LINE
  8
_0-a_
  6
CONTINUOUS
 62
    3
 10
540.64405808371555
 20
308.19999999998868
 11
540.03405808371497
 21
308.55218414032356
  0
LINE
  8
_0-a_
  6
CONTINUOUS
 62
    3
 10
544.83405808371606
 20
308.35519757899669
 11
540.03405808371497
 21
307.05218414032356
  0
LINE
  8
_0-a_
  6
CONTINUOUS
 62
    3
 10
540.64405808371555
 20
306.69999999998868
 11
544.22405808371548
 21
308.00301343866181
  0
LINE
  8
_0-a_
  6
CONTINUOUS
 62
    3
 10
540.64405808371555
 20
307.40436828065845
 11
544.22405808371548
 21
308.70738171933158
  0
LINE
  8
_0-a_
  6
CONTINUOUS
 62
    3
 10
540.03405808371497
 20
307.05218414032356
 11
540.64405808371555
 21
307.40436828065845
  0
LINE
  8
_0-a_
  6
CONTINUOUS
 62
    3
 10
540.64405808371555
 20
306.69999999998868
 11
540.03405808371497
 21
307.05218414032356
  0
LINE
  8
_0-a_
  6
CONTINUOUS
 62
    3
 10
544.83405808371606
 20
308.35519757899669
 11
544.22405808371548
 21
308.00301343866181
  0
LINE
  8
_0-a_
  6
CONTINUOUS
 62
    3
 10
544.22405808371548
 20
308.70738171933158
 11
544.83405808371606
 21
308.35519757899669
  0
LINE
  8
_0-a_
  6
CONTINUOUS
 62
    3
 10
544.83405808371606
 20
306.85519757899669
 11
540.03405808371497
 21
305.55218414032356
  0
LINE
  8
_0-a_
  6
CONTINUOUS
 62
    3
 10
540.64405808371555
 20
305.19999999998868
 11
544.22405808371548
 21
306.50301343866181
  0
LINE
  8
_0-a_
  6
CONTINUOUS
 62
    3
 10
540.64405808371555
 20
305.90436828065845
 11
544.22405808371548
 21
307.20738171933158
  0
LINE
  8
_0-a_
  6
CONTINUOUS
 62
    3
 10
540.03405808371497
 20
305.55218414032356
 11
540.64405808371555
 21
305.90436828065845
  0
LINE
  8
_0-a_
  6
CONTINUOUS
 62
    3
 10
540.64405808371555
 20
305.19999999998868
 11
540.03405808371497
 21
305.55218414032356
  0
LINE
  8
_0-a_
  6
CONTINUOUS
 62
    3
 10
544.83405808371606
 20
306.85519757899669
 11
544.22405808371548
 21
306.50301343866181
  0
LINE
  8
_0-a_
  6
CONTINUOUS
 62
    3
 10
544.22405808371548
 20
307.20738171933158
 11
544.83405808371606
 21
306.85519757899669
  0
LINE
  8
_0-a_
  6
CONTINUOUS
 62
    3
 10
544.83405808371606
 20
305.35519757899669
 11
540.03405808371497
 21
304.05218414032356
  0
LINE
  8
_0-a_
  6
CONTINUOUS
 62
    3
 10
540.64405808371555
 20
303.69999999998868
 11
544.22405808371548
 21
305.00301343866181
  0
LINE
  8
_0-a_
  6
CONTINUOUS
 62
    3
 10
540.64405808371555
 20
304.40436828065845
 11
544.22405808371548
 21
305.70738171933158
  0
LINE
  8
_0-a_
  6
CONTINUOUS
 62
    3
 10
540.03405808371497
 20
304.05218414032356
 11
540.64405808371555
 21
304.40436828065845
  0
LINE
  8
_0-a_
  6
CONTINUOUS
 62
    3
 10
540.64405808371555
 20
303.69999999998868
 11
540.03405808371497
 21
304.05218414032356
  0
LINE
  8
_0-a_
  6
CONTINUOUS
 62
    3
 10
544.83405808371606
 20
305.35519757899669
 11
544.22405808371548
 21
305.00301343866181
  0
LINE
  8
_0-a_
  6
CONTINUOUS
 62
    3
 10
544.22405808371548
 20
305.70738171933158
 11
544.83405808371606
 21
305.35519757899669
  0
LINE
  8
_0-a_
  6
CONTINUOUS
 62
    3
 10
542.43405808371551
 20
296.84641016150238
 11
541.31374877083488
 21
303.19999999998868
  0
LINE
  8
_0-a_
  6
CONTINUOUS
 62
    3
 10
542.43405808371551
 20
296.84641016150238
 11
540.68405808371551
 21
297.85677313258429
  0
LINE
  8
_0-a_
  6
CONTINUOUS
 62
    3
 10
540.68405808371551
 20
303.19999999998868
 11
540.68405808371551
 21
297.85677313258429
  0
LINE
  8
_0-a_
  6
CONTINUOUS
 62
    3
 10
544.22405808371548
 20
303.69999999998868
 11
544.22405808371548
 21
303.19999999998868
  0
LINE
  8
_0-a_
  6
CONTINUOUS
 62
    3
 10
540.38405808371533
 20
303.19999999998868
 11
540.38405808371533
 21
297.68356805182725
  0
LINE
  8
_0-a_
  6
CONTINUOUS
 62
    3
 10
540.38405808371533
 20
303.19999999998868
 11
544.48405808371569
 21
303.19999999998868
  0
LINE
  8
_0-a_
  6
CONTINUOUS
 62
    3
 10
544.48405808371569
 20
303.19999999998868
 11
544.48405808371569
 21
297.68356805182725
  0
LINE
  8
_0-a_
  6
CONTINUOUS
 62
    3
 10
542.43405808371551
 20
296.49999999998875
 11
540.38405808371533
 21
297.68356805182725
  0
LINE
  8
_0-a_
  6
CONTINUOUS
 62
    3
 10
542.43405808371551
 20
296.49999999998875
 11
544.48405808371569
 21
297.68356805182725
  0
LINE
  8
_0-a_
  6
CONTINUOUS
 62
    3
 10
544.33405808371515
 20
312.19999999998868
 11
540.53405808371588
 21
312.19999999998868
  0
LINE
  8
_0-a_
  6
CONTINUOUS
 62
    3
 10
544.22405808371548
 20
311.00301343866181
 11
544.22405808371548
 21
310.20738171933158
  0
LINE
  8
_0-a_
  6
CONTINUOUS
 62
    3
 10
544.22405808371548
 20
309.50301343866181
 11
544.22405808371548
 21
308.70738171933158
  0
LINE
  8
_0-a_
  6
CONTINUOUS
 62
    3
 10
544.22405808371548
 20
312.19999999998868
 11
544.22405808371548
 21
311.70738171933158
  0
LINE
  8
_0-a_
  6
CONTINUOUS
 62
    3
 10
540.64405808371555
 20
309.69999999998868
 11
540.64405808371555
 21
308.90436828065845
  0
LINE
  8
_0-a_
  6
CONTINUOUS
 62
    3
 10
540.64405808371555
 20
311.19999999998868
 11
540.64405808371555
 21
310.40436828065845
  0
LINE
  8
_0-a_
  6
CONTINUOUS
 62
    3
 10
540.64405808371555
 20
312.19999999998868
 11
540.64405808371555
 21
311.90436828065845
  0
LINE
  8
_0-a_
  6
CONTINUOUS
 62
    3
 10
542.43405808371551
 20
312.20369085966013
 11
540.03405808371497
 21
311.55218414032356
  0
LINE
  8
_0-a_
  6
CONTINUOUS
 62
    3
 10
540.64405808371555
 20
311.90436828065845
 11
541.45629955704987
 21
312.19999999998868
  0
LINE
  8
_0-a_
  6
CONTINUOUS
 62
    3
 10
540.03405808371497
 20
311.55218414032356
 11
540.64405808371555
 21
311.90436828065845
  0
LINE
  8
_0-a_
  6
CONTINUOUS
 62
    3
 10
540.64405808371555
 20
311.19999999998868
 11
540.03405808371497
 21
311.55218414032356
  0
LINE
  8
_0-a_
  6
CONTINUOUS
 62
    3
 10
544.83405808371606
 20
311.35519757899669
 11
540.03405808371497
 21
310.05218414032356
  0
LINE
  8
_0-a_
  6
CONTINUOUS
 62
    3
 10
540.64405808371555
 20
309.69999999998868
 11
544.22405808371548
 21
311.00301343866181
  0
LINE
  8
_0-a_
  6
CONTINUOUS
 62
    3
 10
540.64405808371555
 20
310.40436828065845
 11
544.22405808371548
 21
311.70738171933158
  0
LINE
  8
_0-a_
  6
CONTINUOUS
 62
    3
 10
540.03405808371497
 20
310.05218414032356
 11
540.64405808371555
 21
310.40436828065845
  0
LINE
  8
_0-a_
  6
CONTINUOUS
 62
    3
 10
540.64405808371555
 20
309.69999999998868
 11
540.03405808371497
 21
310.05218414032356
  0
LINE
  8
_0-a_
  6
CONTINUOUS
 62
    3
 10
544.83405808371606
 20
311.35519757899669
 11
544.22405808371548
 21
311.00301343866181
  0
LINE
  8
_0-a_
  6
CONTINUOUS
 62
    3
 10
544.22405808371548
 20
311.70738171933158
 11
544.83405808371606
 21
311.35519757899669
  0
LINE
  8
_0-a_
  6
CONTINUOUS
 62
    3
 10
544.83405808371606
 20
309.85519757899669
 11
540.03405808371497
 21
308.55218414032356
  0
LINE
  8
_0-a_
  6
CONTINUOUS
 62
    3
 10
540.64405808371555
 20
308.19999999998868
 11
544.22405808371548
 21
309.50301343866181
  0
LINE
  8
_0-a_
  6
CONTINUOUS
 62
    3
 10
540.64405808371555
 20
308.90436828065845
 11
544.22405808371548
 21
310.20738171933158
  0
LINE
  8
_0-a_
  6
CONTINUOUS
 62
    3
 10
540.03405808371497
 20
308.55218414032356
 11
540.64405808371555
 21
308.90436828065845
  0
LINE
  8
_0-a_
  6
CONTINUOUS
 62
    3
 10
540.64405808371555
 20
308.19999999998868
 11
540.03405808371497
 21
308.55218414032356
  0
LINE
  8
_0-a_
  6
CONTINUOUS
 62
    3
 10
544.83405808371606
 20
309.85519757899669
 11
544.22405808371548
 21
309.50301343866181
  0
LINE
  8
_0-a_
  6
CONTINUOUS
 62
    3
 10
544.22405808371548
 20
310.20738171933158
 11
544.83405808371606
 21
309.85519757899669
  0
LINE
  8
_0-a_
  6
CONTINUOUS
 62
    3
 10
544.83405808371606
 20
308.35519757899669
 11
544.22405808371548
 21
308.00301343866181
  0
LINE
  8
_0-a_
  6
CONTINUOUS
 62
    3
 10
544.22405808371548
 20
308.70738171933158
 11
544.83405808371606
 21
308.35519757899669
  0
LINE
  8
_0-a_
  6
CONTINUOUS
 62
    3
 10
335.93405808371597
 20
310.99999999998886
 11
534.93405808371551
 21
310.99999999998886
  0
LINE
  8
_0-a_
  6
CONTINUOUS
 62
    3
 10
326.93405808371597
 20
308.49999999998886
 11
538.43405808371551
 21
308.49999999998886
  0
LINE
  8
_0-a_
  6
CONTINUOUS
 62
    3
 10
166.43405808371733
 20
308.80000000000018
 11
429.43405808371506
 21
308.80000000000018
  0
LINE
  8
_0-a_
  6
CONTINUOUS
 62
    3
 10
166.43405808371733
 20
305.80000000000018
 11
429.43405808371506
 21
305.80000000000018
  0
LINE
  8
_0-a_
  6
CONTINUOUS
 62
    3
 10
435.43405808371597
 20
303.79999999998904
 11
435.43405808371597
 21
296.79999999998893
  0
LINE
  8
_0-a_
  6
CONTINUOUS
 62
    3
 10
435.43405808371597
 20
303.79999999998904
 11
435.43405808371597
 21
296.79999999998893
  0
LINE
  8
_0-a_
  6
CONTINUOUS
 62
    3
 10
435.43405808371597
 20
296.79999999998893
 11
433.43405808371597
 21
296.79999999998893
  0
LINE
  8
_0-a_
  6
CONTINUOUS
 62
    3
 10
435.43405808371597
 20
303.79999999998904
 11
435.43405808371597
 21
296.79999999998893
  0
LINE
  8
_0-a_
  6
CONTINUOUS
 62
    3
 10
429.43405808371506
 20
305.79999999998904
 11
429.43405808371506
 21
308.79999999998904
  0
LINE
  8
_0-a_
  6
CONTINUOUS
 62
    3
 10
433.43405808371597
 20
302.79999999998904
 11
433.43405808371597
 21
296.79999999998893
  0
LINE
  8
_0-a_
  6
CONTINUOUS
 62
    3
 10
379.43405808371597
 20
286.49999999998875
 11
332.93405808371597
 21
286.49999999998875
  0
LINE
  8
_0-a_
  6
CONTINUOUS
 62
    3
 10
431.43405808371597
 20
308.49999999998886
 11
429.43405808371506
 21
308.49999999998886
  0
LINE
  8
_0-a_
  6
CONTINUOUS
 62
    3
 10
431.43405808371597
 20
308.49999999998886
 11
435.43405808371597
 21
303.79999999998904
  0
LINE
  8
_0-a_
  6
CONTINUOUS
 62
    3
 10
160.43405808371733
 20
303.80000000000018
 11
160.43405808371733
 21
296.80000000000007
  0
LINE
  8
_0-a_
  6
CONTINUOUS
 62
    3
 10
160.43405808371733
 20
296.80000000000007
 11
162.43405808371733
 21
296.80000000000007
  0
LINE
  8
_0-a_
  6
CONTINUOUS
 62
    3
 10
160.43405808371733
 20
303.80000000000018
 11
160.43405808371733
 21
296.80000000000007
  0
LINE
  8
_0-a_
  6
CONTINUOUS
 62
    3
 10
162.43405808371733
 20
302.80000000000018
 11
162.43405808371733
 21
296.80000000000007
  0
LINE
  8
_0-a_
  6
CONTINUOUS
 62
    3
 10
166.43405808371733
 20
305.80000000000018
 11
166.43405808371733
 21
308.30000000000018
  0
LINE
  8
_0-a_
  6
CONTINUOUS
 62
    3
 10
166.43405808371733
 20
308.30000000000018
 11
166.43405808371733
 21
308.80000000000018
  0
LINE
  8
_0-a_
  6
CONTINUOUS
 62
    3
 10
160.43405808371733
 20
303.80000000000018
 11
160.43405808371733
 21
296.80000000000007
  0
LINE
  8
_0-a_
  6
CONTINUOUS
 62
    3
 10
160.43405808371733
 20
296.80000000000007
 11
162.43405808371733
 21
296.80000000000007
  0
LINE
  8
_0-a_
  6
CONTINUOUS
 62
    3
 10
160.43405808371733
 20
303.80000000000018
 11
160.43405808371733
 21
296.80000000000007
  0
LINE
  8
_0-a_
  6
CONTINUOUS
 62
    3
 10
162.43405808371733
 20
302.80000000000018
 11
162.43405808371733
 21
296.80000000000007
  0
LINE
  8
_0-a_
  6
CONTINUOUS
 62
    3
 10
166.43405808371733
 20
305.80000000000018
 11
166.43405808371733
 21
308.30000000000018
  0
LINE
  8
_0-a_
  6
CONTINUOUS
 62
    3
 10
166.43405808371733
 20
308.30000000000018
 11
166.43405808371733
 21
308.80000000000018
  0
LINE
  8
_0-a_
  6
CONTINUOUS
 62
    3
 10
166.43405808371733
 20
308.49999999998886
 11
164.43405808371733
 21
308.49999999998886
  0
LINE
  8
_0-a_
  6
CONTINUOUS
 62
    3
 10
164.43405808371733
 20
308.49999999998886
 11
160.43405808371733
 21
303.80000000000018
  0
ARC
  8
_0-a_
  6
CONTINUOUS
 62
    3
 10
560.9340580837146
 20
314.49999999998886
 40
1
 50
0
 51
90
  0
LINE
  8
_0-a_
  6
CONTINUOUS
 62
    3
 10
561.9340580837146
 20
314.49999999998886
 11
561.9340580837146
 21
313.99999999998886
  0
LINE
  8
_0-a_
  6
CONTINUOUS
 62
    3
 10
560.93405808371369
 20
313.99999999998886
 11
560.92525651892299
 21
313.99999999998886
  0
LINE
  8
_0-a_
  6
CONTINUOUS
 62
    3
 10
560.9340580837146
 20
315.49999999998886
 11
558.33598187236055
 21
315.49999999998886
  0
LINE
  8
_0-a_
  6
CONTINUOUS
 62
    3
 10
334.63405808371579
 20
314.99999999998886
 11
334.93405808371597
 21
314.99999999998886
  0
LINE
  8
_0-a_
  6
CONTINUOUS
 62
    3
 10
334.93405808371597
 20
314.99999999998886
 11
334.63405808371579
 21
314.99999999998886
  0
LINE
  8
_0-a_
  6
CONTINUOUS
 62
    3
 10
334.63405808371579
 20
314.99999999998886
 11
334.93405808371597
 21
314.99999999998886
  0
LINE
  8
_0-a_
  6
CONTINUOUS
 62
    3
 10
530.9340580837146
 20
286.99999999998829
 11
512.93405808371369
 21
286.99999999998829
  0
LINE
  8
_0-a_
  6
CONTINUOUS
 62
    3
 10
530.9340580837146
 20
285.49999999998829
 11
512.93405808371369
 21
285.49999999998829
  0
LINE
  8
_0-a_
  6
CONTINUOUS
 62
    3
 10
530.9340580837146
 20
286.99999999998829
 11
530.9340580837146
 21
285.49999999998829
  0
LINE
  8
_0-a_
  6
CONTINUOUS
 62
    3
 10
512.93405808371369
 20
286.99999999998829
 11
512.93405808371369
 21
285.49999999998829
  0
LINE
  8
_0-a_
  6
CONTINUOUS
 62
    3
 10
526.4340580837146
 20
286.99999999998829
 11
526.3251452999142
 21
288.24487881498851
  0
LINE
  8
_0-a_
  6
CONTINUOUS
 62
    3
 10
517.54297086741406
 20
288.24487881498851
 11
517.4340580837146
 21
286.99999999998829
  0
ARC
  8
_0-a_
  6
CONTINUOUS
 62
    3
 10
518.52920361861322
 20
288.15859462968831
 40
0.9899999999999997
 50
127.36755803204984
 51
175.0000000012005
  0
ARC
  8
_0-a_
  6
CONTINUOUS
 62
    3
 10
525.33891254881416
 20
288.15859462968831
 40
0.9899999999999997
 50
4.9999999987995034
 51
52.632441967884368
  0
ARC
  8
_0-a_
  6
CONTINUOUS
 62
    3
 10
521.93405808371369
 20
283.69999999998834
 40
6.5999999999999996
 50
52.632441967704736
 51
68.266383543398021
  0
ARC
  8
_0-a_
  6
CONTINUOUS
 62
    3
 10
521.93405808371369
 20
283.69999999998834
 40
6.5999999999999996
 50
111.74840859090317
 51
127.36755803230515
  0
LINE
  8
_0-a_
  6
CONTINUOUS
 62
    3
 10
522.2490580837142
 20
290.25912712958859
 11
522.2490580837142
 21
289.82331223958829
  0
LINE
  8
_0-a_
  6
CONTINUOUS
 62
    3
 10
522.59634676561507
 20
290.25912712958859
 11
522.2490580837142
 21
290.25912712958859
  0
LINE
  8
_0-a_
  6
CONTINUOUS
 62
    3
 10
524.37656135221403
 20
289.82331223958829
 11
522.59634676561507
 21
290.25912712958859
  0
LINE
  8
_0-a_
  6
CONTINUOUS
 62
    3
 10
521.2717694017141
 20
290.25912712958859
 11
519.9718591340137
 21
289.99369130818866
  0
LINE
  8
_0-a_
  6
CONTINUOUS
 62
    3
 10
519.9718591340137
 20
289.99369130818866
 11
519.49155481511514
 21
289.82331223958829
  0
LINE
  8
_0-a_
  6
CONTINUOUS
 62
    3
 10
521.61905808371409
 20
290.25912712958859
 11
521.2717694017141
 21
290.25912712958859
  0
LINE
  8
_0-a_
  6
CONTINUOUS
 62
    3
 10
521.61905808371409
 20
289.82331223958829
 11
521.61905808371409
 21
290.25912712958859
  0
LINE
  8
_0-a_
  6
CONTINUOUS
 62
    3
 10
522.2490580837142
 20
289.82331223958829
 11
521.93405808371369
 21
289.82841741398863
  0
LINE
  8
_0-a_
  6
CONTINUOUS
 62
    3
 10
521.93405808371369
 20
289.82841741398863
 11
521.61905808371409
 21
289.82331223958829
  0
LINE
  8
_0-a_
  6
CONTINUOUS
 62
    3
 10
514.4340580837146
 20
282.99999999998875
 11
514.4340580837146
 21
285.49999999998875
  0
LINE
  8
_0-a_
  6
CONTINUOUS
 62
    3
 10
529.4340580837146
 20
282.99999999998875
 11
529.4340580837146
 21
285.49999999998875
  0
LINE
  8
_0-a_
  6
CONTINUOUS
 62
    3
 10
521.93405808371642
 20
285.19999999998811
 11
521.63405808371624
 21
285.49999999998897
  0
LINE
  8
_0-a_
  6
CONTINUOUS
 62
    3
 10
522.23405808371569
 20
285.49999999998897
 11
521.93405808371642
 21
285.19999999998811
  0
LINE
  8
_0-a_
  6
CONTINUOUS
 62
    3
 10
166.43405808371733
 20
308.80000000000018
 11
429.43405808371506
 21
308.80000000000018
  0
LINE
  8
_0-a_
  6
CONTINUOUS
 62
    3
 10
166.43405808371733
 20
305.80000000000018
 11
429.43405808371506
 21
305.80000000000018
  0
LINE
  8
_0-a_
  6
CONTINUOUS
 62
    3
 10
429.43405808371506
 20
305.79999999998904
 11
429.43405808371506
 21
308.79999999998904
  0
LINE
  8
_0-a_
  6
CONTINUOUS
 62
    3
 10
166.43405808371733
 20
305.80000000000018
 11
166.43405808371733
 21
308.30000000000018
  0
LINE
  8
_0-a_
  6
CONTINUOUS
 62
    3
 10
166.43405808371733
 20
308.80000000000018
 11
166.43405808371733
 21
308.30000000000018
  0
LINE
  8
_0-a_
  6
CONTINUOUS
 62
    3
 10
169.43405808371733
 20
308.79999999999995
 11
172.43405808371733
 21
305.79999999999995
  0
LINE
  8
_0-a_
  6
CONTINUOUS
 62
    3
 10
175.43405808371733
 20
308.79999999999995
 11
178.43405808371733
 21
305.79999999999995
  0
LINE
  8
_0-a_
  6
CONTINUOUS
 62
    3
 10
172.43405808371733
 20
305.79999999999995
 11
175.43405808371733
 21
308.79999999999995
  0
LINE
  8
_0-a_
  6
CONTINUOUS
 62
    3
 10
181.43405808371733
 20
308.79999999999995
 11
184.43405808371733
 21
305.79999999999995
  0
LINE
  8
_0-a_
  6
CONTINUOUS
 62
    3
 10
178.43405808371733
 20
305.79999999999995
 11
181.43405808371733
 21
308.79999999999995
  0
LINE
  8
_0-a_
  6
CONTINUOUS
 62
    3
 10
187.43405808371733
 20
308.79999999999995
 11
190.43405808371733
 21
305.79999999999995
  0
LINE
  8
_0-a_
  6
CONTINUOUS
 62
    3
 10
184.43405808371733
 20
305.79999999999995
 11
187.43405808371733
 21
308.79999999999995
  0
LINE
  8
_0-a_
  6
CONTINUOUS
 62
    3
 10
193.43405808371733
 20
308.79999999999995
 11
196.43405808371733
 21
305.79999999999995
  0
LINE
  8
_0-a_
  6
CONTINUOUS
 62
    3
 10
190.43405808371733
 20
305.79999999999995
 11
193.43405808371733
 21
308.79999999999995
  0
LINE
  8
_0-a_
  6
CONTINUOUS
 62
    3
 10
199.43405808371733
 20
308.79999999999995
 11
202.43405808371733
 21
305.79999999999995
  0
LINE
  8
_0-a_
  6
CONTINUOUS
 62
    3
 10
196.43405808371733
 20
305.79999999999995
 11
199.43405808371733
 21
308.79999999999995
  0
LINE
  8
_0-a_
  6
CONTINUOUS
 62
    3
 10
205.43405808371733
 20
308.79999999999995
 11
208.43405808371733
 21
305.79999999999995
  0
LINE
  8
_0-a_
  6
CONTINUOUS
 62
    3
 10
202.43405808371733
 20
305.79999999999995
 11
205.43405808371733
 21
308.79999999999995
  0
LINE
  8
_0-a_
  6
CONTINUOUS
 62
    3
 10
208.43405808371733
 20
305.79999999999995
 11
211.43405808371733
 21
308.79999999999995
  0
LINE
  8
_0-a_
  6
CONTINUOUS
 62
    3
 10
166.43405808371733
 20
305.79999999999995
 11
169.43405808371733
 21
308.79999999999995
  0
LINE
  8
_0-a_
  6
CONTINUOUS
 62
    3
 10
211.43405808371688
 20
308.79999999999995
 11
214.43405808371688
 21
305.79999999999995
  0
LINE
  8
_0-a_
  6
CONTINUOUS
 62
    3
 10
217.43405808371688
 20
308.79999999999995
 11
220.43405808371688
 21
305.79999999999995
  0
LINE
  8
_0-a_
  6
CONTINUOUS
 62
    3
 10
214.43405808371688
 20
305.79999999999995
 11
217.43405808371688
 21
308.79999999999995
  0
LINE
  8
_0-a_
  6
CONTINUOUS
 62
    3
 10
223.43405808371688
 20
308.79999999999995
 11
226.43405808371688
 21
305.79999999999995
  0
LINE
  8
_0-a_
  6
CONTINUOUS
 62
    3
 10
220.43405808371688
 20
305.79999999999995
 11
223.43405808371688
 21
308.79999999999995
  0
LINE
  8
_0-a_
  6
CONTINUOUS
 62
    3
 10
229.43405808371688
 20
308.79999999999995
 11
232.43405808371688
 21
305.79999999999995
  0
LINE
  8
_0-a_
  6
CONTINUOUS
 62
    3
 10
226.43405808371688
 20
305.79999999999995
 11
229.43405808371688
 21
308.79999999999995
  0
LINE
  8
_0-a_
  6
CONTINUOUS
 62
    3
 10
235.43405808371688
 20
308.79999999999995
 11
238.43405808371688
 21
305.79999999999995
  0
LINE
  8
_0-a_
  6
CONTINUOUS
 62
    3
 10
232.43405808371688
 20
305.79999999999995
 11
235.43405808371688
 21
308.79999999999995
  0
LINE
  8
_0-a_
  6
CONTINUOUS
 62
    3
 10
241.43405808371688
 20
308.79999999999995
 11
244.43405808371688
 21
305.79999999999995
  0
LINE
  8
_0-a_
  6
CONTINUOUS
 62
    3
 10
238.43405808371688
 20
305.79999999999995
 11
241.43405808371688
 21
308.79999999999995
  0
LINE
  8
_0-a_
  6
CONTINUOUS
 62
    3
 10
247.43405808371688
 20
308.79999999999995
 11
250.43405808371688
 21
305.79999999999995
  0
LINE
  8
_0-a_
  6
CONTINUOUS
 62
    3
 10
244.43405808371688
 20
305.79999999999995
 11
247.43405808371688
 21
308.79999999999995
  0
LINE
  8
_0-a_
  6
CONTINUOUS
 62
    3
 10
250.43405808371688
 20
305.79999999999995
 11
253.43405808371688
 21
308.79999999999995
  0
LINE
  8
_0-a_
  6
CONTINUOUS
 62
    3
 10
208.43405808371688
 20
305.79999999999995
 11
211.43405808371688
 21
308.79999999999995
  0
LINE
  8
_0-a_
  6
CONTINUOUS
 62
    3
 10
253.43405808371688
 20
308.79999999999995
 11
256.43405808371688
 21
305.79999999999995
  0
LINE
  8
_0-a_
  6
CONTINUOUS
 62
    3
 10
259.43405808371688
 20
308.79999999999995
 11
262.43405808371688
 21
305.79999999999995
  0
LINE
  8
_0-a_
  6
CONTINUOUS
 62
    3
 10
256.43405808371688
 20
305.79999999999995
 11
259.43405808371688
 21
308.79999999999995
  0
LINE
  8
_0-a_
  6
CONTINUOUS
 62
    3
 10
265.43405808371688
 20
308.79999999999995
 11
268.43405808371688
 21
305.79999999999995
  0
LINE
  8
_0-a_
  6
CONTINUOUS
 62
    3
 10
262.43405808371688
 20
305.79999999999995
 11
265.43405808371688
 21
308.79999999999995
  0
LINE
  8
_0-a_
  6
CONTINUOUS
 62
    3
 10
271.43405808371688
 20
308.79999999999995
 11
274.43405808371688
 21
305.79999999999995
  0
LINE
  8
_0-a_
  6
CONTINUOUS
 62
    3
 10
268.43405808371688
 20
305.79999999999995
 11
271.43405808371688
 21
308.79999999999995
  0
LINE
  8
_0-a_
  6
CONTINUOUS
 62
    3
 10
277.43405808371688
 20
308.79999999999995
 11
280.43405808371688
 21
305.79999999999995
  0
LINE
  8
_0-a_
  6
CONTINUOUS
 62
    3
 10
274.43405808371688
 20
305.79999999999995
 11
277.43405808371688
 21
308.79999999999995
  0
LINE
  8
_0-a_
  6
CONTINUOUS
 62
    3
 10
283.43405808371688
 20
308.79999999999995
 11
286.43405808371688
 21
305.79999999999995
  0
LINE
  8
_0-a_
  6
CONTINUOUS
 62
    3
 10
280.43405808371688
 20
305.79999999999995
 11
283.43405808371688
 21
308.79999999999995
  0
LINE
  8
_0-a_
  6
CONTINUOUS
 62
    3
 10
289.43405808371688
 20
308.79999999999995
 11
292.43405808371688
 21
305.79999999999995
  0
LINE
  8
_0-a_
  6
CONTINUOUS
 62
    3
 10
286.43405808371688
 20
305.79999999999995
 11
289.43405808371688
 21
308.79999999999995
  0
LINE
  8
_0-a_
  6
CONTINUOUS
 62
    3
 10
292.43405808371688
 20
305.79999999999995
 11
295.43405808371688
 21
308.79999999999995
  0
LINE
  8
_0-a_
  6
CONTINUOUS
 62
    3
 10
250.43405808371688
 20
305.79999999999995
 11
253.43405808371688
 21
308.79999999999995
  0
LINE
  8
_0-a_
  6
CONTINUOUS
 62
    3
 10
295.43405808371688
 20
308.79999999999995
 11
298.43405808371688
 21
305.79999999999995
  0
LINE
  8
_0-a_
  6
CONTINUOUS
 62
    3
 10
301.43405808371688
 20
308.79999999999995
 11
304.43405808371688
 21
305.79999999999995
  0
LINE
  8
_0-a_
  6
CONTINUOUS
 62
    3
 10
298.43405808371688
 20
305.79999999999995
 11
301.43405808371688
 21
308.79999999999995
  0
LINE
  8
_0-a_
  6
CONTINUOUS
 62
    3
 10
307.43405808371688
 20
308.79999999999995
 11
310.43405808371688
 21
305.79999999999995
  0
LINE
  8
_0-a_
  6
CONTINUOUS
 62
    3
 10
304.43405808371688
 20
305.79999999999995
 11
307.43405808371688
 21
308.79999999999995
  0
LINE
  8
_0-a_
  6
CONTINUOUS
 62
    3
 10
313.43405808371688
 20
308.79999999999995
 11
316.43405808371688
 21
305.79999999999995
  0
LINE
  8
_0-a_
  6
CONTINUOUS
 62
    3
 10
310.43405808371688
 20
305.79999999999995
 11
313.43405808371688
 21
308.79999999999995
  0
LINE
  8
_0-a_
  6
CONTINUOUS
 62
    3
 10
319.43405808371688
 20
308.79999999999995
 11
322.43405808371688
 21
305.79999999999995
  0
LINE
  8
_0-a_
  6
CONTINUOUS
 62
    3
 10
316.43405808371688
 20
305.79999999999995
 11
319.43405808371688
 21
308.79999999999995
  0
LINE
  8
_0-a_
  6
CONTINUOUS
 62
    3
 10
325.43405808371688
 20
308.79999999999995
 11
328.43405808371688
 21
305.79999999999995
  0
LINE
  8
_0-a_
  6
CONTINUOUS
 62
    3
 10
322.43405808371688
 20
305.79999999999995
 11
325.43405808371688
 21
308.79999999999995
  0
LINE
  8
_0-a_
  6
CONTINUOUS
 62
    3
 10
331.43405808371688
 20
308.79999999999995
 11
334.43405808371688
 21
305.79999999999995
  0
LINE
  8
_0-a_
  6
CONTINUOUS
 62
    3
 10
328.43405808371688
 20
305.79999999999995
 11
331.43405808371688
 21
308.79999999999995
  0
LINE
  8
_0-a_
  6
CONTINUOUS
 62
    3
 10
334.43405808371688
 20
305.79999999999995
 11
337.43405808371688
 21
308.79999999999995
  0
LINE
  8
_0-a_
  6
CONTINUOUS
 62
    3
 10
292.43405808371688
 20
305.79999999999995
 11
295.43405808371688
 21
308.79999999999995
  0
LINE
  8
_0-a_
  6
CONTINUOUS
 62
    3
 10
337.43405808371688
 20
308.79999999999995
 11
340.43405808371688
 21
305.79999999999995
  0
LINE
  8
_0-a_
  6
CONTINUOUS
 62
    3
 10
343.43405808371688
 20
308.79999999999995
 11
346.43405808371688
 21
305.79999999999995
  0
LINE
  8
_0-a_
  6
CONTINUOUS
 62
    3
 10
340.43405808371688
 20
305.79999999999995
 11
343.43405808371688
 21
308.79999999999995
  0
LINE
  8
_0-a_
  6
CONTINUOUS
 62
    3
 10
349.43405808371688
 20
308.79999999999995
 11
352.43405808371688
 21
305.79999999999995
  0
LINE
  8
_0-a_
  6
CONTINUOUS
 62
    3
 10
346.43405808371688
 20
305.79999999999995
 11
349.43405808371688
 21
308.79999999999995
  0
LINE
  8
_0-a_
  6
CONTINUOUS
 62
    3
 10
355.43405808371688
 20
308.79999999999995
 11
358.43405808371688
 21
305.79999999999995
  0
LINE
  8
_0-a_
  6
CONTINUOUS
 62
    3
 10
352.43405808371688
 20
305.79999999999995
 11
355.43405808371688
 21
308.79999999999995
  0
LINE
  8
_0-a_
  6
CONTINUOUS
 62
    3
 10
361.43405808371688
 20
308.79999999999995
 11
364.43405808371688
 21
305.79999999999995
  0
LINE
  8
_0-a_
  6
CONTINUOUS
 62
    3
 10
358.43405808371688
 20
305.79999999999995
 11
361.43405808371688
 21
308.79999999999995
  0
LINE
  8
_0-a_
  6
CONTINUOUS
 62
    3
 10
367.43405808371688
 20
308.79999999999995
 11
370.43405808371688
 21
305.79999999999995
  0
LINE
  8
_0-a_
  6
CONTINUOUS
 62
    3
 10
364.43405808371688
 20
305.79999999999995
 11
367.43405808371688
 21
308.79999999999995
  0
LINE
  8
_0-a_
  6
CONTINUOUS
 62
    3
 10
373.43405808371688
 20
308.79999999999995
 11
376.43405808371688
 21
305.79999999999995
  0
LINE
  8
_0-a_
  6
CONTINUOUS
 62
    3
 10
370.43405808371688
 20
305.79999999999995
 11
373.43405808371688
 21
308.79999999999995
  0
LINE
  8
_0-a_
  6
CONTINUOUS
 62
    3
 10
376.43405808371688
 20
305.79999999999995
 11
379.43405808371688
 21
308.79999999999995
  0
LINE
  8
_0-a_
  6
CONTINUOUS
 62
    3
 10
334.43405808371688
 20
305.79999999999995
 11
337.43405808371688
 21
308.79999999999995
  0
LINE
  8
_0-a_
  6
CONTINUOUS
 62
    3
 10
379.43405808371688
 20
308.79999999999995
 11
382.43405808371688
 21
305.79999999999995
  0
LINE
  8
_0-a_
  6
CONTINUOUS
 62
    3
 10
385.43405808371688
 20
308.79999999999995
 11
388.43405808371688
 21
305.79999999999995
  0
LINE
  8
_0-a_
  6
CONTINUOUS
 62
    3
 10
382.43405808371688
 20
305.79999999999995
 11
385.43405808371688
 21
308.79999999999995
  0
LINE
  8
_0-a_
  6
CONTINUOUS
 62
    3
 10
391.43405808371597
 20
308.79999999999995
 11
394.43405808371597
 21
305.79999999999995
  0
LINE
  8
_0-a_
  6
CONTINUOUS
 62
    3
 10
388.43405808371688
 20
305.79999999999995
 11
391.43405808371597
 21
308.79999999999995
  0
LINE
  8
_0-a_
  6
CONTINUOUS
 62
    3
 10
397.43405808371597
 20
308.79999999999995
 11
400.43405808371597
 21
305.79999999999995
  0
LINE
  8
_0-a_
  6
CONTINUOUS
 62
    3
 10
394.43405808371597
 20
305.79999999999995
 11
397.43405808371597
 21
308.79999999999995
  0
LINE
  8
_0-a_
  6
CONTINUOUS
 62
    3
 10
403.43405808371597
 20
308.79999999999995
 11
406.43405808371597
 21
305.79999999999995
  0
LINE
  8
_0-a_
  6
CONTINUOUS
 62
    3
 10
400.43405808371597
 20
305.79999999999995
 11
403.43405808371597
 21
308.79999999999995
  0
LINE
  8
_0-a_
  6
CONTINUOUS
 62
    3
 10
409.43405808371597
 20
308.79999999999995
 11
412.43405808371597
 21
305.79999999999995
  0
LINE
  8
_0-a_
  6
CONTINUOUS
 62
    3
 10
406.43405808371597
 20
305.79999999999995
 11
409.43405808371597
 21
308.79999999999995
  0
LINE
  8
_0-a_
  6
CONTINUOUS
 62
    3
 10
415.43405808371597
 20
308.79999999999995
 11
418.43405808371597
 21
305.79999999999995
  0
LINE
  8
_0-a_
  6
CONTINUOUS
 62
    3
 10
412.43405808371597
 20
305.79999999999995
 11
415.43405808371597
 21
308.79999999999995
  0
LINE
  8
_0-a_
  6
CONTINUOUS
 62
    3
 10
418.43405808371597
 20
305.79999999999995
 11
421.43405808371597
 21
308.79999999999995
  0
LINE
  8
_0-a_
  6
CONTINUOUS
 62
    3
 10
376.43405808371688
 20
305.79999999999995
 11
379.43405808371688
 21
308.79999999999995
  0
LINE
  8
_0-a_
  6
CONTINUOUS
 62
    3
 10
421.43405808371688
 20
308.80000000000018
 11
424.43405808371688
 21
305.80000000000018
  0
LINE
  8
_0-a_
  6
CONTINUOUS
 62
    3
 10
424.43405808371688
 20
305.80000000000018
 11
427.43405808371688
 21
308.80000000000018
  0
LINE
  8
_0-a_
  6
CONTINUOUS
 62
    3
 10
427.43405808371688
 20
308.80000000000018
 11
429.43405808371506
 21
306.80000000000109
  0
LINE
  8
_0-a_
  6
CONTINUOUS
 62
    3
 10
558.92525651892481
 20
313.99999999998886
 11
554.93405808371551
 21
313.99999999998886
  0
LINE
  8
_0-a_
  6
CONTINUOUS
 62
    3
 10
562.9340580837146
 20
313.99999999998886
 11
562.9252565189239
 21
313.99999999998886
  0
LINE
  8
_0-a_
  6
CONTINUOUS
 62
    3
 10
556.93405808371551
 20
313.99999999998886
 11
559.93405808371551
 21
310.99999999998886
  0
LINE
  8
_0-a_
  6
CONTINUOUS
 62
    3
 10
553.93405808371551
 20
310.99999999998886
 11
556.93405808371551
 21
313.99999999998886
  0
LINE
  8
_0-a_
  6
CONTINUOUS
 62
    3
 10
562.93405808371551
 20
313.99999999998886
 11
565.93405808371551
 21
310.99999999998886
  0
LINE
  8
_0-a_
  6
CONTINUOUS
 62
    3
 10
559.93405808371551
 20
310.99999999998886
 11
562.93405808371551
 21
313.99999999998886
  0
LINE
  8
_0-a_
  6
CONTINUOUS
 62
    3
 10
565.93405808371551
 20
310.99999999998886
 11
568.93405808371551
 21
313.99999999998886
  0
LINE
  8
_0-a_
  6
CONTINUOUS
 62
    3
 10
568.93405808371551
 20
313.99999999998886
 11
571.93405808371551
 21
310.99999999998886
  0
LINE
  8
_0-a_
  6
CONTINUOUS
 62
    3
 10
565.93405808371551
 20
310.99999999998886
 11
568.93405808371551
 21
313.99999999998886
  0
LINE
  8
_0-a_
  6
CONTINUOUS
 62
    3
 10
335.93405808371597
 20
313.99999999998886
 11
335.93405808371597
 21
310.99999999998886
  0
LINE
  8
_0-a_
  6
CONTINUOUS
 62
    3
 10
335.93405808371597
 20
313.99999999998886
 11
534.93405808371551
 21
313.99999999998886
  0
LINE
  8
_0-a_
  6
CONTINUOUS
 62
    3
 10
534.93405808371551
 20
314.49999999998886
 11
534.93405808371551
 21
310.99999999998886
  0
LINE
  8
_0-a_
  6
CONTINUOUS
 62
    3
 10
563.93405808371551
 20
310.99999999998886
 11
583.57827134037268
 21
310.99999999998886
  0
LINE
  8
_0-a_
  6
CONTINUOUS
 62
    3
 10
558.53213429506866
 20
310.99999999998886
 11
583.57827134037268
 21
310.99999999998886
  0
LINE
  8
_0-a_
  6
CONTINUOUS
 62
    3
 10
335.93405808371597
 20
310.99999999998886
 11
534.93405808371551
 21
310.99999999998886
  0
LINE
  8
_0-a_
  6
CONTINUOUS
 62
    3
 10
561.9340580837146
 20
314.49999999998886
 11
561.9340580837146
 21
313.99999999998886
  0
LINE
  8
_0-a_
  6
CONTINUOUS
 62
    3
 10
335.93405808371597
 20
313.99999999998886
 11
335.93405808371597
 21
310.99999999998886
  0
LINE
  8
_0-a_
  6
CONTINUOUS
 62
    3
 10
338.93405808371597
 20
313.99999999998886
 11
341.93405808371597
 21
310.99999999998886
  0
LINE
  8
_0-a_
  6
CONTINUOUS
 62
    3
 10
335.93405808371597
 20
310.99999999998886
 11
338.93405808371597
 21
313.99999999998886
  0
LINE
  8
_0-a_
  6
CONTINUOUS
 62
    3
 10
344.93405808371597
 20
313.99999999998886
 11
347.93405808371597
 21
310.99999999998886
  0
LINE
  8
_0-a_
  6
CONTINUOUS
 62
    3
 10
341.93405808371597
 20
310.99999999998886
 11
344.93405808371597
 21
313.99999999998886
  0
LINE
  8
_0-a_
  6
CONTINUOUS
 62
    3
 10
350.93405808371597
 20
313.99999999998886
 11
353.93405808371597
 21
310.99999999998886
  0
LINE
  8
_0-a_
  6
CONTINUOUS
 62
    3
 10
347.93405808371597
 20
310.99999999998886
 11
350.93405808371597
 21
313.99999999998886
  0
LINE
  8
_0-a_
  6
CONTINUOUS
 62
    3
 10
356.93405808371597
 20
313.99999999998886
 11
359.93405808371597
 21
310.99999999998886
  0
LINE
  8
_0-a_
  6
CONTINUOUS
 62
    3
 10
353.93405808371597
 20
310.99999999998886
 11
356.93405808371597
 21
313.99999999998886
  0
LINE
  8
_0-a_
  6
CONTINUOUS
 62
    3
 10
362.93405808371597
 20
313.99999999998886
 11
365.93405808371597
 21
310.99999999998886
  0
LINE
  8
_0-a_
  6
CONTINUOUS
 62
    3
 10
359.93405808371597
 20
310.99999999998886
 11
362.93405808371597
 21
313.99999999998886
  0
LINE
  8
_0-a_
  6
CONTINUOUS
 62
    3
 10
365.93405808371597
 20
310.99999999998886
 11
368.93405808371597
 21
313.99999999998886
  0
LINE
  8
_0-a_
  6
CONTINUOUS
 62
    3
 10
368.93405808371597
 20
313.99999999998886
 11
371.93405808371597
 21
310.99999999998886
  0
LINE
  8
_0-a_
  6
CONTINUOUS
 62
    3
 10
374.93405808371597
 20
313.99999999998886
 11
377.93405808371597
 21
310.99999999998886
  0
LINE
  8
_0-a_
  6
CONTINUOUS
 62
    3
 10
371.93405808371597
 20
310.99999999998886
 11
374.93405808371597
 21
313.99999999998886
  0
LINE
  8
_0-a_
  6
CONTINUOUS
 62
    3
 10
380.93405808371597
 20
313.99999999998886
 11
383.93405808371597
 21
310.99999999998886
  0
LINE
  8
_0-a_
  6
CONTINUOUS
 62
    3
 10
377.93405808371597
 20
310.99999999998886
 11
380.93405808371597
 21
313.99999999998886
  0
LINE
  8
_0-a_
  6
CONTINUOUS
 62
    3
 10
386.93405808371597
 20
313.99999999998886
 11
389.93405808371506
 21
310.99999999998886
  0
LINE
  8
_0-a_
  6
CONTINUOUS
 62
    3
 10
383.93405808371597
 20
310.99999999998886
 11
386.93405808371597
 21
313.99999999998886
  0
LINE
  8
_0-a_
  6
CONTINUOUS
 62
    3
 10
392.93405808371506
 20
313.99999999998886
 11
395.93405808371506
 21
310.99999999998886
  0
LINE
  8
_0-a_
  6
CONTINUOUS
 62
    3
 10
389.93405808371506
 20
310.99999999998886
 11
392.93405808371506
 21
313.99999999998886
  0
LINE
  8
_0-a_
  6
CONTINUOUS
 62
    3
 10
398.93405808371506
 20
313.99999999998886
 11
401.93405808371506
 21
310.99999999998886
  0
LINE
  8
_0-a_
  6
CONTINUOUS
 62
    3
 10
395.93405808371506
 20
310.99999999998886
 11
398.93405808371506
 21
313.99999999998886
  0
LINE
  8
_0-a_
  6
CONTINUOUS
 62
    3
 10
404.93405808371506
 20
313.99999999998886
 11
407.93405808371506
 21
310.99999999998886
  0
LINE
  8
_0-a_
  6
CONTINUOUS
 62
    3
 10
401.93405808371506
 20
310.99999999998886
 11
404.93405808371506
 21
313.99999999998886
  0
LINE
  8
_0-a_
  6
CONTINUOUS
 62
    3
 10
407.93405808371506
 20
310.99999999998886
 11
410.93405808371506
 21
313.99999999998886
  0
LINE
  8
_0-a_
  6
CONTINUOUS
 62
    3
 10
365.93405808371597
 20
310.99999999998886
 11
368.93405808371597
 21
313.99999999998886
  0
LINE
  8
_0-a_
  6
CONTINUOUS
 62
    3
 10
410.93405808371506
 20
313.99999999998886
 11
413.93405808371506
 21
310.99999999998886
  0
LINE
  8
_0-a_
  6
CONTINUOUS
 62
    3
 10
407.93405808371506
 20
310.99999999998886
 11
410.93405808371506
 21
313.99999999998886
  0
LINE
  8
_0-a_
  6
CONTINUOUS
 62
    3
 10
416.93405808371506
 20
313.99999999998886
 11
419.93405808371506
 21
310.99999999998886
  0
LINE
  8
_0-a_
  6
CONTINUOUS
 62
    3
 10
413.93405808371506
 20
310.99999999998886
 11
416.93405808371506
 21
313.99999999998886
  0
LINE
  8
_0-a_
  6
CONTINUOUS
 62
    3
 10
422.93405808371506
 20
313.99999999998886
 11
425.93405808371506
 21
310.99999999998886
  0
LINE
  8
_0-a_
  6
CONTINUOUS
 62
    3
 10
419.93405808371506
 20
310.99999999998886
 11
422.93405808371506
 21
313.99999999998886
  0
LINE
  8
_0-a_
  6
CONTINUOUS
 62
    3
 10
428.93405808371506
 20
313.99999999998886
 11
431.93405808371506
 21
310.99999999998886
  0
LINE
  8
_0-a_
  6
CONTINUOUS
 62
    3
 10
425.93405808371506
 20
310.99999999998886
 11
428.93405808371506
 21
313.99999999998886
  0
LINE
  8
_0-a_
  6
CONTINUOUS
 62
    3
 10
434.93405808371506
 20
313.99999999998886
 11
437.93405808371506
 21
310.99999999998886
  0
LINE
  8
_0-a_
  6
CONTINUOUS
 62
    3
 10
431.93405808371506
 20
310.99999999998886
 11
434.93405808371506
 21
313.99999999998886
  0
LINE
  8
_0-a_
  6
CONTINUOUS
 62
    3
 10
440.93405808371506
 20
313.99999999998886
 11
443.93405808371506
 21
310.99999999998886
  0
LINE
  8
_0-a_
  6
CONTINUOUS
 62
    3
 10
437.93405808371506
 20
310.99999999998886
 11
440.93405808371506
 21
313.99999999998886
  0
LINE
  8
_0-a_
  6
CONTINUOUS
 62
    3
 10
443.93405808371506
 20
310.99999999998886
 11
446.93405808371506
 21
313.99999999998886
  0
LINE
  8
_0-a_
  6
CONTINUOUS
 62
    3
 10
446.93405808371506
 20
313.99999999998886
 11
449.93405808371506
 21
310.99999999998886
  0
LINE
  8
_0-a_
  6
CONTINUOUS
 62
    3
 10
452.93405808371506
 20
313.99999999998886
 11
455.93405808371506
 21
310.99999999998886
  0
LINE
  8
_0-a_
  6
CONTINUOUS
 62
    3
 10
449.93405808371506
 20
310.99999999998886
 11
452.93405808371506
 21
313.99999999998886
  0
LINE
  8
_0-a_
  6
CONTINUOUS
 62
    3
 10
458.93405808371506
 20
313.99999999998886
 11
461.93405808371506
 21
310.99999999998886
  0
LINE
  8
_0-a_
  6
CONTINUOUS
 62
    3
 10
455.93405808371506
 20
310.99999999998886
 11
458.93405808371506
 21
313.99999999998886
  0
LINE
  8
_0-a_
  6
CONTINUOUS
 62
    3
 10
464.93405808371506
 20
313.99999999998886
 11
467.93405808371506
 21
310.99999999998886
  0
LINE
  8
_0-a_
  6
CONTINUOUS
 62
    3
 10
461.93405808371506
 20
310.99999999998886
 11
464.93405808371506
 21
313.99999999998886
  0
LINE
  8
_0-a_
  6
CONTINUOUS
 62
    3
 10
470.93405808371506
 20
313.99999999998886
 11
473.93405808371506
 21
310.99999999998886
  0
LINE
  8
_0-a_
  6
CONTINUOUS
 62
    3
 10
467.93405808371506
 20
310.99999999998886
 11
470.93405808371506
 21
313.99999999998886
  0
LINE
  8
_0-a_
  6
CONTINUOUS
 62
    3
 10
476.93405808371506
 20
313.99999999998886
 11
479.93405808371506
 21
310.99999999998886
  0
LINE
  8
_0-a_
  6
CONTINUOUS
 62
    3
 10
473.93405808371506
 20
310.99999999998886
 11
476.93405808371506
 21
313.99999999998886
  0
LINE
  8
_0-a_
  6
CONTINUOUS
 62
    3
 10
482.93405808371506
 20
313.99999999998886
 11
485.93405808371506
 21
310.99999999998886
  0
LINE
  8
_0-a_
  6
CONTINUOUS
 62
    3
 10
479.93405808371506
 20
310.99999999998886
 11
482.93405808371506
 21
313.99999999998886
  0
LINE
  8
_0-a_
  6
CONTINUOUS
 62
    3
 10
485.93405808371506
 20
310.99999999998886
 11
488.93405808371506
 21
313.99999999998886
  0
LINE
  8
_0-a_
  6
CONTINUOUS
 62
    3
 10
443.93405808371506
 20
310.99999999998886
 11
446.93405808371506
 21
313.99999999998886
  0
LINE
  8
_0-a_
  6
CONTINUOUS
 62
    3
 10
488.93405808371506
 20
313.99999999998886
 11
491.93405808371506
 21
310.99999999998886
  0
LINE
  8
_0-a_
  6
CONTINUOUS
 62
    3
 10
485.93405808371506
 20
310.99999999998886
 11
488.93405808371506
 21
313.99999999998886
  0
LINE
  8
_0-a_
  6
CONTINUOUS
 62
    3
 10
494.93405808371506
 20
313.99999999998886
 11
497.93405808371506
 21
310.99999999998886
  0
LINE
  8
_0-a_
  6
CONTINUOUS
 62
    3
 10
491.93405808371506
 20
310.99999999998886
 11
494.93405808371506
 21
313.99999999998886
  0
LINE
  8
_0-a_
  6
CONTINUOUS
 62
    3
 10
500.93405808371506
 20
313.99999999998886
 11
503.93405808371506
 21
310.99999999998886
  0
LINE
  8
_0-a_
  6
CONTINUOUS
 62
    3
 10
497.93405808371506
 20
310.99999999998886
 11
500.93405808371506
 21
313.99999999998886
  0
LINE
  8
_0-a_
  6
CONTINUOUS
 62
    3
 10
506.93405808371506
 20
313.99999999998886
 11
509.93405808371506
 21
310.99999999998886
  0
LINE
  8
_0-a_
  6
CONTINUOUS
 62
    3
 10
503.93405808371506
 20
310.99999999998886
 11
506.93405808371506
 21
313.99999999998886
  0
LINE
  8
_0-a_
  6
CONTINUOUS
 62
    3
 10
512.93405808371551
 20
313.99999999998886
 11
515.93405808371551
 21
310.99999999998886
  0
LINE
  8
_0-a_
  6
CONTINUOUS
 62
    3
 10
509.93405808371506
 20
310.99999999998886
 11
512.93405808371551
 21
313.99999999998886
  0
LINE
  8
_0-a_
  6
CONTINUOUS
 62
    3
 10
518.93405808371551
 20
313.99999999998886
 11
521.93405808371551
 21
310.99999999998886
  0
LINE
  8
_0-a_
  6
CONTINUOUS
 62
    3
 10
515.93405808371551
 20
310.99999999998886
 11
518.93405808371551
 21
313.99999999998886
  0
LINE
  8
_0-a_
  6
CONTINUOUS
 62
    3
 10
521.93405808371551
 20
310.99999999998886
 11
524.93405808371551
 21
313.99999999998886
  0
LINE
  8
_0-a_
  6
CONTINUOUS
 62
    3
 10
524.9340580837146
 20
313.99999999998886
 11
527.9340580837146
 21
310.99999999998886
  0
LINE
  8
_0-a_
  6
CONTINUOUS
 62
    3
 10
530.9340580837146
 20
313.99999999998886
 11
533.9340580837146
 21
310.99999999998886
  0
LINE
  8
_0-a_
  6
CONTINUOUS
 62
    3
 10
527.9340580837146
 20
310.99999999998886
 11
530.9340580837146
 21
313.99999999998886
  0
LINE
  8
_0-a_
  6
CONTINUOUS
 62
    3
 10
521.9340580837146
 20
310.99999999998886
 11
524.9340580837146
 21
313.99999999998886
  0
LINE
  8
_0-a_
  6
CONTINUOUS
 62
    3
 10
577.93405808371551
 20
310.99999999998886
 11
580.93405808371551
 21
313.99999999998886
  0
LINE
  8
_0-a_
  6
CONTINUOUS
 62
    3
 10
571.93405808371551
 20
310.99999999998886
 11
574.93405808371551
 21
313.99999999998886
  0
LINE
  8
_0-a_
  6
CONTINUOUS
 62
    3
 10
574.93405808371551
 20
313.99999999998886
 11
577.93405808371551
 21
310.99999999998886
  0
LINE
  8
_0-a_
  6
CONTINUOUS
 62
    3
 10
580.93405808371369
 20
313.99999999998886
 11
580.9252565189239
 21
313.99999999998886
  0
LINE
  8
_0-a_
  6
CONTINUOUS
 62
    3
 10
576.92525651892481
 20
313.99999999998886
 11
572.9340580837146
 21
313.99999999998886
  0
LINE
  8
_0-a_
  6
CONTINUOUS
 62
    3
 10
571.9340580837146
 20
313.99999999998886
 11
583.57827134037268
 21
313.99999999998886
  0
LINE
  8
_0-a_
  6
CONTINUOUS
 62
    3
 10
580.93405808371551
 20
313.99999999998886
 11
583.57827134037268
 21
311.35578674333169
  0
LINE
  8
_0-a_
  6
CONTINUOUS
 62
    3
 10
540.64405808371555
 20
311.19999999998868
 11
543.39153550317076
 21
312.19999999998868
  0
LINE
  8
_0-a_
  6
CONTINUOUS
 62
    3
 10
553.93405808371551
 20
313.99999999998886
 11
553.93405808371551
 21
310.99999999998886
  0
LINE
  8
_0-a_
  6
CONTINUOUS
 62
    3
 10
558.53213429506866
 20
310.99999999998886
 11
553.93405808371551
 21
310.99999999998886
  0
LINE
  8
_0-f_寸法
  6
CONTINUOUS
 62
    4
 10
326.93405808371597
 20
282.99999999998875
 11
326.93405808371597
 21
255.99999999998875
  0
LINE
  8
_0-f_寸法
  6
CONTINUOUS
 62
    4
 10
351.93405808371597
 20
275.99999999998875
 11
351.93405808371597
 21
255.99999999998875
  0
POINT
  8
_0-f_寸法
 62
    4
 10
351.93405808371597
 20
256.99999999998875
  0
POINT
  8
_0-f_寸法
 62
    4
 10
326.93405808371597
 20
256.99999999998875
  0
LINE
  8
_0-f_寸法
  6
CONTINUOUS
 62
    4
 10
351.93405808371597
 20
256.99999999998875
 11
326.93405808371597
 21
256.99999999998875
  0
TEXT
  8
_0-f_寸法
 62
    4
 10
335.83405808371595
 20
256.99999999998875
 40
9
 41
0.8
 50
0
  1
25
  0
CIRCLE
  8
_0-e_付箋
  6
CONTINUOUS
 62
    4
 10
319.44638360546639
 20
274.93096437311567
 40
4.8827102566353844
  0
TEXT
  8
_0-e_付箋
 62
    4
 10
316.44638360546639
 20
271.93096437311567
 40
6
 41
1
 50
0
  1
４
  0
LINE
  8
_0-e_付箋
  6
CONTINUOUS
 62
    4
 10
326.93405808371597
 20
289.39999699998009
 11
321.2092471637751
 21
279.48433362291746
  0
CIRCLE
  8
_0-e_付箋
  6
CONTINUOUS
 62
    4
 10
549.93405808371551
 20
327.24038105675538
 40
4.8827102566353844
  0
LINE
  8
_0-e_付箋
  6
CONTINUOUS
 62
    4
 10
547.4927029553977
 20
323.01182993519024
 11
542.43405808371551
 21
314.24999999998875
  0
TEXT
  8
_0-e_付箋
 62
    4
 10
546.93405808371551
 20
324.24038105675538
 40
6
 41
1
 50
0
  1
９
  0
CIRCLE
  8
_0-e_付箋
  6
CONTINUOUS
 62
    4
 10
490.67173256196463
 20
324.21903262685316
 40
4.8827102566353844
  0
TEXT
  8
_0-e_付箋
 62
    4
 10
487.67173256196463
 20
321.21903262685316
 40
6
 41
1
 50
0
  1
１
  0
LINE
  8
_0-e_付箋
  6
CONTINUOUS
 62
    4
 10
483.18405808371597
 20
309.74999999998875
 11
488.90886900365683
 21
319.66566337705137
  0
CIRCLE
  8
_0-e_付箋
  6
CONTINUOUS
 62
    4
 10
257.72173181196547
 20
318.82903062686501
 40
4.8827102566353844
  0
TEXT
  8
_0-e_付箋
 62
    4
 10
254.72173181196547
 20
315.82903062686501
 40
6
 41
1
 50
0
  1
２
  0
LINE
  8
_0-e_付箋
  6
CONTINUOUS
 62
    4
 10
250.23405733371612
 20
304.35999800000059
 11
255.95886825365699
 21
314.27566137706322
  0
CIRCLE
  8
_0-e_付箋
  6
CONTINUOUS
 62
    4
 10
401.93405808371324
 20
263.26411670143477
 40
4.8827102566353844
  0
LINE
  8
_0-e_付箋
  6
CONTINUOUS
 62
    4
 10
399.49270295539543
 20
267.49266782299981
 11
386.93405808371324
 21
289.24487881496805
  0
TEXT
  8
_0-e_付箋
 62
    4
 10
398.93405808371324
 20
260.26411670143477
 40
6
 41
1
 50
0
  1
11
  0
CIRCLE
  8
_0-e_付箋
  6
CONTINUOUS
 62
    4
 10
541.4340580837146
 20
260.26923788645524
 40
4.8827102566353844
  0
LINE
  8
_0-e_付箋
  6
CONTINUOUS
 62
    4
 10
538.99270295539679
 20
264.49778900802028
 11
526.4340580837146
 21
286.24999999998852
  0
TEXT
  8
_0-e_付箋
 62
    4
 10
538.4340580837146
 20
257.26923788645524
 40
6
 41
1
 50
0
  1
12
  0
CIRCLE
  8
_0-e_付箋
  6
CONTINUOUS
 62
    4
 10
322.45082262669791
 20
196.12032337270682
 40
4.8827102566353844
  0
TEXT
  8
_0-e_付箋
 62
    4
 10
319.45082262669791
 20
193.12032337270682
 40
6
 41
1
 50
0
  1
６
  0
LINE
  8
_0-e_付箋
  6
CONTINUOUS
 62
    4
 10
318.9982250936622
 20
199.57292090574276
 11
311.84422090889973
 21
206.72692509050501
  0
TEXT
  8
_0-f_寸法
 62
    4
 10
669.99999999999989
 20
233.50000000000011
 40
8
 41
0.8662499999999999
 50
0
  1
ユカホルダーキャップ
  0
TEXT
  8
_0-f_寸法
 62
    4
 10
669.99999999999989
 20
253.50000000000011
 40
8
 41
0.8662499999999999
 50
0
  1
ＴＣＧ壁フレーム
  0
TEXT
  8
_0-f_寸法
 62
    4
 10
658.06999999999994
 20
293.50000000000011
 40
8
 41
0.8662499999999999
 50
0
  1
 1
  0
TEXT
  8
_0-f_寸法
 62
    4
 10
658.06999999999994
 20
283.50000000000011
 40
8
 41
0.8662499999999999
 50
0
  1
 2
  0
TEXT
  8
_0-f_寸法
 62
    4
 10
658.06999999999994
 20
273.50000000000011
 40
8
 41
0.8662499999999999
 50
0
  1
 3
  0
TEXT
  8
_0-f_寸法
 62
    4
 10
658.06999999999994
 20
263.50000000000011
 40
8
 41
0.8662499999999999
 50
0
  1
 4
  0
TEXT
  8
_0-f_寸法
 62
    4
 10
658.06999999999994
 20
253.50000000000011
 40
8
 41
0.8662499999999999
 50
0
  1
 5
  0
TEXT
  8
_0-f_寸法
 62
    4
 10
658.06999999999994
 20
243.50000000000011
 40
8
 41
0.8662499999999999
 50
0
  1
 6
  0
TEXT
  8
_0-f_寸法
 62
    4
 10
658.06999999999994
 20
233.50000000000011
 40
8
 41
0.8662499999999999
 50
0
  1
 7
  0
TEXT
  8
_0-f_寸法
 62
    4
 10
658.06999999999994
 20
223.50000000000011
 40
8
 41
0.8662499999999999
 50
0
  1
 8
  0
TEXT
  8
_0-f_寸法
 62
    4
 10
669.99999999999989
 20
273.50000000000011
 40
8
 41
0.8662499999999999
 50
0
  1
ＴＣＧサイドキャップＡ　(t＝1.5)
  0
TEXT
  8
_0-f_寸法
 62
    4
 10
669.99999999999989
 20
223.50000000000011
 40
8
 41
0.8662499999999999
 50
0
  1
ガスケットＧＮ
  0
TEXT
  8
_0-f_寸法
 62
    4
 10
669.99999999999989
 20
243.50000000000011
 40
8
 41
0.8662499999999999
 50
0
  1
止水補助板FS600
  0
TEXT
  8
_0-f_寸法
 62
    4
 10
669.99999999999989
 20
293.50000000000011
 40
8
 41
0.8662499999999999
 50
0
  1
ＴＴＫサイドプレート(Ｄ)　(t＝2.5)
  0
TEXT
  8
_0-f_寸法
 62
    4
 10
669.99999999999989
 20
283.50000000000011
 40
8
 41
0.8662499999999999
 50
0
  1
ＴＴＫセンタープレート(Ｄ)　(t＝3.0)
  0
TEXT
  8
_0-f_寸法
 62
    4
 10
669.99999999999989
 20
263.50000000000011
 40
8
 41
0.8662499999999999
 50
0
  1
ＴＴＫフレーム(Ｄ)
  0
TEXT
  8
_0-f_寸法
 62
    4
 10
669.99999999999989
 20
173.50000000000011
 40
8
 41
0.8662499999999999
 50
0
  1
ブチルテープ(ｔ1.0×w30) (6m／巻)
  0
TEXT
  8
_0-f_寸法
 62
    4
 10
669.99999999999989
 20
183.50000000000011
 40
8
 41
0.8662499999999999
 50
0
  1
ステスワッシャー1.5×18×5.5穴
  0
TEXT
  8
_0-f_寸法
 62
    4
 10
669.99999999999989
 20
203.50000000000011
 40
8
 41
0.8662499999999999
 50
0
  1
アンカープラグ(Φ8×40)
  0
TEXT
  8
_0-f_寸法
 62
    4
 10
669.99999999999989
 20
193.50000000000011
 40
8
 41
0.8662499999999999
 50
0
  1
ステンタッピンねじ(なべ5×50)
  0
TEXT
  8
_0-f_寸法
 62
    4
 10
669.99999999999989
 20
213.50000000000011
 40
8
 41
0.8662499999999999
 50
0
  1
ステンドリリングねじ(皿5x19))
  0
TEXT
  8
_0-f_寸法
 62
    4
 10
658.06999999999994
 20
213.50000000000011
 40
8
 41
0.8662499999999999
 50
0
  1
 9
  0
TEXT
  8
_0-f_寸法
 62
    4
 10
658.06999999999994
 20
203.50000000000011
 40
8
 41
0.8662499999999999
 50
0
  1
10
  0
TEXT
  8
_0-f_寸法
 62
    4
 10
658.06999999999994
 20
193.50000000000011
 40
8
 41
0.8662499999999999
 50
0
  1
11
  0
TEXT
  8
_0-f_寸法
 62
    4
 10
658.06999999999994
 20
183.50000000000011
 40
8
 41
0.8662499999999999
 50
0
  1
12
  0
TEXT
  8
_0-f_寸法
 62
    4
 10
658.06999999999994
 20
173.50000000000011
 40
8
 41
0.8662499999999999
 50
0
  1
◎
  0
TEXT
  8
_0-f_寸法
 62
    4
 10
658.06999999999994
 20
163.50000000000011
 40
8
 41
0.8662499999999999
 50
0
  1
※
  0
TEXT
  8
_0-f_寸法
 62
    4
 10
669.99999999999989
 20
163.50000000000011
 40
8
 41
0.8662499999999999
 50
0
  1
床仕上材厚さ：3.0㎜
  0
TEXT
  8
_1-f_
 62
    4
 10
678.59999999999911
 20
324.91927353994134
 40
6
 41
1
 50
0
  1
床下地仕上げ寸法
  0
LINE
  8
_1-0_
  6
CONTINUOUS
 62
    2
 10
722.59999999999911
 20
356.91927353993901
 11
762.99999999999989
 21
356.91927353993901
  0
LINE
  8
_1-0_
  6
CONTINUOUS
 62
    2
 10
722.59999999999911
 20
355.91927353993901
 11
764.99999999999989
 21
355.91927353993901
  0
LINE
  8
_1-0_
  6
CONTINUOUS
 62
    2
 10
762.99999999999989
 20
363.03927353993907
 11
770.99999999999989
 21
363.03927353993907
  0
LINE
  8
_1-0_
  6
CONTINUOUS
 62
    2
 10
764.99999999999989
 20
356.20531764025156
 11
764.71395589968654
 21
355.91927353993901
  0
LINE
  8
_1-0_
  6
CONTINUOUS
 62
    2
 10
764.99999999999989
 20
356.77100306520089
 11
764.14827047473682
 21
355.91927353993901
  0
LINE
  8
_1-0_
  6
CONTINUOUS
 62
    2
 10
764.99999999999989
 20
357.33668849015004
 11
763.58258504978858
 21
355.91927353993901
  0
LINE
  8
_1-0_
  6
CONTINUOUS
 62
    2
 10
764.99999999999989
 20
357.90237391509936
 11
763.01689962483931
 21
355.91927353993901
  0
LINE
  8
_1-0_
  6
CONTINUOUS
 62
    2
 10
764.99999999999989
 20
358.46805934004851
 11
762.45121419988993
 21
355.91927353993901
  0
LINE
  8
_1-0_
  6
CONTINUOUS
 62
    2
 10
764.99999999999989
 20
359.03374476499789
 11
762.99999999999989
 21
357.03374476499789
  0
LINE
  8
_1-0_
  6
CONTINUOUS
 62
    2
 10
762.88552877494021
 20
356.91927353993901
 11
761.88552877494021
 21
355.91927353993901
  0
LINE
  8
_1-0_
  6
CONTINUOUS
 62
    2
 10
764.99999999999989
 20
359.59943018994704
 11
762.99999999999989
 21
357.59943018994704
  0
LINE
  8
_1-0_
  6
CONTINUOUS
 62
    2
 10
762.31984334999197
 20
356.91927353993901
 11
761.31984334999197
 21
355.91927353993901
  0
LINE
  8
_1-0_
  6
CONTINUOUS
 62
    2
 10
764.99999999999989
 20
360.16511561489637
 11
762.99999999999989
 21
358.16511561489637
  0
LINE
  8
_1-0_
  6
CONTINUOUS
 62
    2
 10
761.7541579250427
 20
356.91927353993901
 11
760.7541579250427
 21
355.91927353993901
  0
LINE
  8
_1-0_
  6
CONTINUOUS
 62
    2
 10
764.99999999999989
 20
360.73080103984569
 11
762.99999999999989
 21
358.73080103984569
  0
LINE
  8
_1-0_
  6
CONTINUOUS
 62
    2
 10
761.18847250009333
 20
356.91927353993901
 11
760.18847250009333
 21
355.91927353993901
  0
LINE
  8
_1-0_
  6
CONTINUOUS
 62
    2
 10
764.99999999999989
 20
361.29648646479484
 11
762.99999999999989
 21
359.29648646479484
  0
LINE
  8
_1-0_
  6
CONTINUOUS
 62
    2
 10
760.62278707514326
 20
356.91927353993901
 11
759.62278707514326
 21
355.91927353993901
  0
LINE
  8
_1-0_
  6
CONTINUOUS
 62
    2
 10
764.99999999999989
 20
361.86217188974399
 11
762.99999999999989
 21
359.86217188974399
  0
LINE
  8
_1-0_
  6
CONTINUOUS
 62
    2
 10
760.05710165019536
 20
356.91927353993901
 11
759.05710165019536
 21
355.91927353993901
  0
LINE
  8
_1-0_
  6
CONTINUOUS
 62
    2
 10
764.99999999999989
 20
362.42785731469314
 11
762.99999999999989
 21
360.42785731469314
  0
LINE
  8
_1-0_
  6
CONTINUOUS
 62
    2
 10
759.4914162252453
 20
356.91927353993901
 11
758.4914162252453
 21
355.91927353993901
  0
LINE
  8
_1-0_
  6
CONTINUOUS
 62
    2
 10
758.92573080029604
 20
356.91927353993901
 11
757.92573080029604
 21
355.91927353993901
  0
LINE
  8
_1-0_
  6
CONTINUOUS
 62
    2
 10
758.36004537534666
 20
356.91927353993901
 11
757.36004537534666
 21
355.91927353993901
  0
LINE
  8
_1-0_
  6
CONTINUOUS
 62
    2
 10
757.79435995039694
 20
356.91927353993901
 11
756.79435995039694
 21
355.91927353993901
  0
LINE
  8
_1-0_
  6
CONTINUOUS
 62
    2
 10
757.2286745254487
 20
356.91927353993901
 11
756.2286745254487
 21
355.91927353993901
  0
LINE
  8
_1-0_
  6
CONTINUOUS
 62
    2
 10
756.66298910049943
 20
356.91927353993901
 11
755.66298910049943
 21
355.91927353993901
  0
LINE
  8
_1-0_
  6
CONTINUOUS
 62
    2
 10
756.09730367555005
 20
356.91927353993901
 11
755.09730367555005
 21
355.91927353993901
  0
LINE
  8
_1-0_
  6
CONTINUOUS
 62
    2
 10
755.53161825060033
 20
356.91927353993901
 11
754.53161825060033
 21
355.91927353993901
  0
LINE
  8
_1-0_
  6
CONTINUOUS
 62
    2
 10
754.96593282565209
 20
356.91927353993901
 11
753.96593282565209
 21
355.91927353993901
  0
LINE
  8
_1-0_
  6
CONTINUOUS
 62
    2
 10
754.40024740070203
 20
356.91927353993901
 11
753.40024740070203
 21
355.91927353993901
  0
LINE
  8
_1-0_
  6
CONTINUOUS
 62
    2
 10
753.83456197575276
 20
356.91927353993901
 11
752.83456197575276
 21
355.91927353993901
  0
LINE
  8
_1-0_
  6
CONTINUOUS
 62
    2
 10
753.26887655080338
 20
356.91927353993901
 11
752.26887655080338
 21
355.91927353993901
  0
LINE
  8
_1-0_
  6
CONTINUOUS
 62
    2
 10
752.70319112585366
 20
356.91927353993901
 11
751.70319112585366
 21
355.91927353993901
  0
LINE
  8
_1-0_
  6
CONTINUOUS
 62
    2
 10
752.13750570090542
 20
356.91927353993901
 11
751.13750570090542
 21
355.91927353993901
  0
LINE
  8
_1-0_
  6
CONTINUOUS
 62
    2
 10
751.57182027595616
 20
356.91927353993901
 11
750.57182027595616
 21
355.91927353993901
  0
LINE
  8
_1-0_
  6
CONTINUOUS
 62
    2
 10
751.00613485100678
 20
356.91927353993901
 11
750.00613485100678
 21
355.91927353993901
  0
LINE
  8
_1-0_
  6
CONTINUOUS
 62
    2
 10
750.44044942605706
 20
356.91927353993901
 11
749.44044942605706
 21
355.91927353993901
  0
LINE
  8
_1-0_
  6
CONTINUOUS
 62
    2
 10
749.87476400110882
 20
356.91927353993901
 11
748.87476400110882
 21
355.91927353993901
  0
LINE
  8
_1-0_
  6
CONTINUOUS
 62
    2
 10
749.30907857615955
 20
356.91927353993901
 11
748.30907857615955
 21
355.91927353993901
  0
LINE
  8
_1-0_
  6
CONTINUOUS
 62
    2
 10
748.74339315121017
 20
356.91927353993901
 11
747.74339315121017
 21
355.91927353993901
  0
LINE
  8
_1-0_
  6
CONTINUOUS
 62
    2
 10
748.17770772626011
 20
356.91927353993901
 11
747.17770772626011
 21
355.91927353993901
  0
LINE
  8
_1-0_
  6
CONTINUOUS
 62
    2
 10
747.61202230131039
 20
356.91927353993901
 11
746.61202230131039
 21
355.91927353993901
  0
LINE
  8
_1-0_
  6
CONTINUOUS
 62
    2
 10
747.04633687636215
 20
356.91927353993901
 11
746.04633687636215
 21
355.91927353993901
  0
LINE
  8
_1-0_
  6
CONTINUOUS
 62
    2
 10
746.48065145141288
 20
356.91927353993901
 11
745.48065145141288
 21
355.91927353993901
  0
LINE
  8
_1-0_
  6
CONTINUOUS
 62
    2
 10
745.9149660264635
 20
356.91927353993901
 11
744.9149660264635
 21
355.91927353993901
  0
LINE
  8
_1-0_
  6
CONTINUOUS
 62
    2
 10
745.34928060151378
 20
356.91927353993901
 11
744.34928060151378
 21
355.91927353993901
  0
LINE
  8
_1-0_
  6
CONTINUOUS
 62
    2
 10
744.78359517656554
 20
356.91927353993901
 11
743.78359517656554
 21
355.91927353993901
  0
LINE
  8
_1-0_
  6
CONTINUOUS
 62
    2
 10
744.21790975161628
 20
356.91927353993901
 11
743.21790975161628
 21
355.91927353993901
  0
LINE
  8
_1-0_
  6
CONTINUOUS
 62
    2
 10
743.6522243266669
 20
356.91927353993901
 11
742.6522243266669
 21
355.91927353993901
  0
LINE
  8
_1-0_
  6
CONTINUOUS
 62
    2
 10
743.08653890171684
 20
356.91927353993901
 11
742.08653890171684
 21
355.91927353993901
  0
LINE
  8
_1-0_
  6
CONTINUOUS
 62
    2
 10
742.52085347676893
 20
356.91927353993901
 11
741.52085347676893
 21
355.91927353993901
  0
LINE
  8
_1-0_
  6
CONTINUOUS
 62
    2
 10
741.95516805181887
 20
356.91927353993901
 11
740.95516805181887
 21
355.91927353993901
  0
LINE
  8
_1-0_
  6
CONTINUOUS
 62
    2
 10
741.38948262686961
 20
356.91927353993901
 11
740.38948262686961
 21
355.91927353993901
  0
LINE
  8
_1-0_
  6
CONTINUOUS
 62
    2
 10
740.82379720192023
 20
356.91927353993901
 11
739.82379720192023
 21
355.91927353993901
  0
LINE
  8
_1-0_
  6
CONTINUOUS
 62
    2
 10
740.25811177697051
 20
356.91927353993901
 11
739.25811177697051
 21
355.91927353993901
  0
LINE
  8
_1-0_
  6
CONTINUOUS
 62
    2
 10
739.69242635202227
 20
356.91927353993901
 11
738.69242635202227
 21
355.91927353993901
  0
LINE
  8
_1-0_
  6
CONTINUOUS
 62
    2
 10
739.126740927073
 20
356.91927353993901
 11
738.126740927073
 21
355.91927353993901
  0
LINE
  8
_1-0_
  6
CONTINUOUS
 62
    2
 10
738.56105550212362
 20
356.91927353993901
 11
737.56105550212362
 21
355.91927353993901
  0
LINE
  8
_1-0_
  6
CONTINUOUS
 62
    2
 10
737.9953700771739
 20
356.91927353993901
 11
736.9953700771739
 21
355.91927353993901
  0
LINE
  8
_1-0_
  6
CONTINUOUS
 62
    2
 10
737.42968465222566
 20
356.91927353993901
 11
736.42968465222566
 21
355.91927353993901
  0
LINE
  8
_1-0_
  6
CONTINUOUS
 62
    2
 10
736.8639992272756
 20
356.91927353993901
 11
735.8639992272756
 21
355.91927353993901
  0
LINE
  8
_1-0_
  6
CONTINUOUS
 62
    2
 10
736.29831380232633
 20
356.91927353993901
 11
735.29831380232633
 21
355.91927353993901
  0
LINE
  8
_1-0_
  6
CONTINUOUS
 62
    2
 10
735.73262837737695
 20
356.91927353993901
 11
734.73262837737695
 21
355.91927353993901
  0
LINE
  8
_1-0_
  6
CONTINUOUS
 62
    2
 10
735.16694295242723
 20
356.91927353993901
 11
734.16694295242723
 21
355.91927353993901
  0
LINE
  8
_1-0_
  6
CONTINUOUS
 62
    2
 10
734.60125752747899
 20
356.91927353993901
 11
733.60125752747899
 21
355.91927353993901
  0
LINE
  8
_1-0_
  6
CONTINUOUS
 62
    2
 10
734.03557210252973
 20
356.91927353993901
 11
733.03557210252973
 21
355.91927353993901
  0
LINE
  8
_1-0_
  6
CONTINUOUS
 62
    2
 10
733.46988667758035
 20
356.91927353993901
 11
732.46988667758035
 21
355.91927353993901
  0
LINE
  8
_1-0_
  6
CONTINUOUS
 62
    2
 10
732.90420125263063
 20
356.91927353993901
 11
731.90420125263063
 21
355.91927353993901
  0
LINE
  8
_1-0_
  6
CONTINUOUS
 62
    2
 10
732.33851582768239
 20
356.91927353993901
 11
731.33851582768239
 21
355.91927353993901
  0
LINE
  8
_1-0_
  6
CONTINUOUS
 62
    2
 10
731.77283040273312
 20
356.91927353993901
 11
730.77283040273312
 21
355.91927353993901
  0
LINE
  8
_1-0_
  6
CONTINUOUS
 62
    2
 10
731.20714497778374
 20
356.91927353993901
 11
730.20714497778374
 21
355.91927353993901
  0
LINE
  8
_1-0_
  6
CONTINUOUS
 62
    2
 10
730.64145955283368
 20
356.91927353993901
 11
729.64145955283368
 21
355.91927353993901
  0
LINE
  8
_1-0_
  6
CONTINUOUS
 62
    2
 10
730.07577412788396
 20
356.91927353993901
 11
729.07577412788396
 21
355.91927353993901
  0
LINE
  8
_1-0_
  6
CONTINUOUS
 62
    2
 10
729.51008870293572
 20
356.91927353993901
 11
728.51008870293572
 21
355.91927353993901
  0
LINE
  8
_1-0_
  6
CONTINUOUS
 62
    2
 10
728.94440327798645
 20
356.91927353993901
 11
727.94440327798645
 21
355.91927353993901
  0
LINE
  8
_1-0_
  6
CONTINUOUS
 62
    2
 10
728.37871785303707
 20
356.91927353993901
 11
727.37871785303707
 21
355.91927353993901
  0
LINE
  8
_1-0_
  6
CONTINUOUS
 62
    2
 10
727.81303242808735
 20
356.91927353993901
 11
726.81303242808735
 21
355.91927353993901
  0
LINE
  8
_1-0_
  6
CONTINUOUS
 62
    2
 10
727.24734700313911
 20
356.91927353993901
 11
726.24734700313911
 21
355.91927353993901
  0
LINE
  8
_1-0_
  6
CONTINUOUS
 62
    2
 10
726.68166157818985
 20
356.91927353993901
 11
725.68166157818985
 21
355.91927353993901
  0
LINE
  8
_1-0_
  6
CONTINUOUS
 62
    2
 10
726.11597615324047
 20
356.91927353993901
 11
725.11597615324047
 21
355.91927353993901
  0
LINE
  8
_1-0_
  6
CONTINUOUS
 62
    2
 10
725.55029072829075
 20
356.91927353993901
 11
724.55029072829075
 21
355.91927353993901
  0
LINE
  8
_1-0_
  6
CONTINUOUS
 62
    2
 10
724.98460530334251
 20
356.91927353993901
 11
723.98460530334251
 21
355.91927353993901
  0
LINE
  8
_1-0_
  6
CONTINUOUS
 62
    2
 10
724.41891987839244
 20
356.91927353993901
 11
723.41891987839244
 21
355.91927353993901
  0
LINE
  8
_1-0_
  6
CONTINUOUS
 62
    2
 10
723.85323445344318
 20
356.91927353993901
 11
722.85323445344318
 21
355.91927353993901
  0
LINE
  8
_1-0_
  6
CONTINUOUS
 62
    2
 10
723.2875490284938
 20
356.91927353993901
 11
722.59999999999911
 21
356.2317245114445
  0
LINE
  8
_1-0_
  6
CONTINUOUS
 62
    2
 10
722.72186360354408
 20
356.91927353993901
 11
722.59999999999911
 21
356.79740993639382
  0
LINE
  8
_1-0_
  6
CONTINUOUS
 62
    2
 10
762.99999999999989
 20
363.03927353993907
 11
762.99999999999989
 21
356.91927353993901
  0
LINE
  8
_1-0_
  6
CONTINUOUS
 62
    2
 10
764.99999999999989
 20
355.91927353993901
 11
764.99999999999989
 21
363.03927353993907
  0
LINE
  8
_1-0_
  6
CONTINUOUS
 62
    2
 10
764.48004537534598
 20
363.03927353993907
 11
762.99999999999989
 21
361.55922816459179
  0
LINE
  8
_1-0_
  6
CONTINUOUS
 62
    2
 10
763.91435995039774
 20
363.03927353993907
 11
762.99999999999989
 21
362.12491358954094
  0
LINE
  8
_1-0_
  6
CONTINUOUS
 62
    2
 10
763.34867452544881
 20
363.03927353993907
 11
762.99999999999989
 21
362.69059901449009
  0
LINE
  8
_1-0_
  6
CONTINUOUS
 62
    2
 10
764.99999999999989
 20
362.99354273964286
 11
762.99999999999989
 21
360.99354273964246
  0
LINE
  8
_1-e_
  6
CONTINUOUS
 62
    4
 10
763.99999999999989
 20
356.91927353993901
 11
791.99999999999989
 21
356.91927353993901
  0
LINE
  8
_1-e_
  6
CONTINUOUS
 62
    4
 10
771.99999999999989
 20
363.03927353993907
 11
791.99999999999989
 21
363.03927353993907
  0
POINT
  8
_1-e_
 62
    4
 10
790.99999999999989
 20
363.03927353993907
  0
POINT
  8
_1-e_
 62
    4
 10
790.99999999999989
 20
356.91927353993901
  0
LINE
  8
_1-e_
  6
CONTINUOUS
 62
    4
 10
790.99999999999989
 20
363.03927353993907
 11
790.99999999999989
 21
356.91927353993901
  0
TEXT
  8
_1-e_
 62
    4
 10
790.99999999999989
 20
353.97927353993902
 40
6
 41
1
 50
90
  1
30.6
  0
LINE
  8
_1-0_
  6
CONTINUOUS
 62
    4
 10
722.59999999999911
 20
357.91927353993901
 11
722.59999999999911
 21
384.03927353993907
  0
LINE
  8
_1-0_
  6
CONTINUOUS
 62
    4
 10
762.99999999999989
 20
364.03927353993907
 11
762.99999999999989
 21
384.03927353993907
  0
POINT
  8
_1-0_
 62
    4
 10
762.99999999999989
 20
383.03927353993907
  0
POINT
  8
_1-0_
 62
    4
 10
722.59999999999911
 20
383.03927353993907
  0
LINE
  8
_1-0_
  6
CONTINUOUS
 62
    4
 10
762.99999999999989
 20
383.03927353993907
 11
722.59999999999911
 21
383.03927353993907
  0
TEXT
  8
_1-0_
 62
    4
 10
737.39999999999952
 20
383.03927353993907
 40
9
 41
0.8
 50
0
  1
202
  0
LINE
  8
_1-0_
  6
CONTINUOUS
 62
    4
 10
682.59999999999911
 20
374.91927353994117
 11
682.59999999999911
 21
384.03927353993907
  0
POINT
  8
_1-0_
 62
    4
 10
722.59999999999911
 20
383.03927353993907
  0
POINT
  8
_1-0_
 62
    4
 10
682.59999999999911
 20
383.03927353993907
  0
LINE
  8
_1-0_
  6
CONTINUOUS
 62
    4
 10
722.59999999999911
 20
383.03927353993907
 11
682.59999999999911
 21
383.03927353993907
  0
TEXT
  8
_1-0_
 62
    4
 10
697.19999999999914
 20
383.03927353993907
 40
9
 41
0.8
 50
0
  1
200
  0
LINE
  8
_0-0_躯体
  6
CONTINUOUS
 62
    2
 10
553.93405808371597
 20
310.99999999998863
 11
593.93405808371597
 21
310.99999999998863
  0
LINE
  8
_0-0_躯体
  6
CONTINUOUS
 62
    2
 10
351.93405808371597
 20
280.39999999998861
 11
553.93405808371597
 21
280.39999999998861
  0
LINE
  8
_0-0_躯体
  6
CONTINUOUS
 62
    2
 10
351.93405808371597
 20
275.39999999998861
 11
563.93405808371597
 21
275.39999999998861
  0
LINE
  8
_0-0_躯体
  6
CONTINUOUS
 62
    2
 10
563.93405808371597
 20
276.83022050155193
 11
562.50383758215264
 21
275.39999999998861
  0
LINE
  8
_0-0_躯体
  6
CONTINUOUS
 62
    2
 10
563.93405808371597
 20
279.65864762629815
 11
559.67541045740643
 21
275.39999999998861
  0
LINE
  8
_0-0_躯体
  6
CONTINUOUS
 62
    2
 10
563.93405808371597
 20
282.48707475104436
 11
556.84698333266022
 21
275.39999999998861
  0
LINE
  8
_0-0_躯体
  6
CONTINUOUS
 62
    2
 10
563.93405808371597
 20
285.31550187579057
 11
554.018556207914
 21
275.39999999998861
  0
LINE
  8
_0-0_躯体
  6
CONTINUOUS
 62
    2
 10
563.93405808371597
 20
288.14392900053679
 11
551.19012908316779
 21
275.39999999998861
  0
LINE
  8
_0-0_躯体
  6
CONTINUOUS
 62
    2
 10
563.93405808371597
 20
290.972356125283
 11
553.93405808371597
 21
280.972356125283
  0
LINE
  8
_0-0_躯体
  6
CONTINUOUS
 62
    2
 10
553.36170195842158
 20
280.39999999998861
 11
548.36170195842158
 21
275.39999999998861
  0
LINE
  8
_0-0_躯体
  6
CONTINUOUS
 62
    2
 10
563.93405808371597
 20
293.80078325002876
 11
553.93405808371597
 21
283.80078325002899
  0
LINE
  8
_0-0_躯体
  6
CONTINUOUS
 62
    2
 10
550.53327483367582
 20
280.39999999998861
 11
545.53327483367582
 21
275.39999999998861
  0
LINE
  8
_0-0_躯体
  6
CONTINUOUS
 62
    2
 10
563.93405808371597
 20
296.62921037477543
 11
553.93405808371597
 21
286.62921037477543
  0
LINE
  8
_0-0_躯体
  6
CONTINUOUS
 62
    2
 10
547.70484770892915
 20
280.39999999998861
 11
542.70484770892915
 21
275.39999999998861
  0
LINE
  8
_0-0_躯体
  6
CONTINUOUS
 62
    2
 10
563.93405808371597
 20
299.45763749952141
 11
553.93405808371597
 21
289.45763749952141
  0
LINE
  8
_0-0_躯体
  6
CONTINUOUS
 62
    2
 10
544.87642058418339
 20
280.39999999998861
 11
539.87642058418339
 21
275.39999999998861
  0
LINE
  8
_0-0_躯体
  6
CONTINUOUS
 62
    2
 10
563.93405808371597
 20
302.28606462426785
 11
553.93405808371597
 21
292.28606462426785
  0
LINE
  8
_0-0_躯体
  6
CONTINUOUS
 62
    2
 10
542.04799345943673
 20
280.39999999998861
 11
537.04799345943673
 21
275.39999999998861
  0
LINE
  8
_0-0_躯体
  6
CONTINUOUS
 62
    2
 10
563.93405808371597
 20
305.11449174901384
 11
553.93405808371597
 21
295.11449174901361
  0
LINE
  8
_0-0_躯体
  6
CONTINUOUS
 62
    2
 10
539.21956633469097
 20
280.39999999998861
 11
534.21956633469097
 21
275.39999999998861
  0
LINE
  8
_0-0_躯体
  6
CONTINUOUS
 62
    2
 10
563.93405808371597
 20
307.94291887375982
 11
553.93405808371597
 21
297.94291887375982
  0
LINE
  8
_0-0_躯体
  6
CONTINUOUS
 62
    2
 10
536.39113920994475
 20
280.39999999998861
 11
531.39113920994475
 21
275.39999999998861
  0
LINE
  8
_0-0_躯体
  6
CONTINUOUS
 62
    2
 10
533.56271208519854
 20
280.39999999998861
 11
528.56271208519854
 21
275.39999999998861
  0
LINE
  8
_0-0_躯体
  6
CONTINUOUS
 62
    2
 10
530.73428496045187
 20
280.39999999998861
 11
525.73428496045187
 21
275.39999999998861
  0
LINE
  8
_0-0_躯体
  6
CONTINUOUS
 62
    2
 10
527.90585783570612
 20
280.39999999998861
 11
522.90585783570612
 21
275.39999999998861
  0
LINE
  8
_0-0_躯体
  6
CONTINUOUS
 62
    2
 10
525.0774307109599
 20
280.39999999998861
 11
520.0774307109599
 21
275.39999999998861
  0
LINE
  8
_0-0_躯体
  6
CONTINUOUS
 62
    2
 10
522.24900358621369
 20
280.39999999998861
 11
517.24900358621369
 21
275.39999999998861
  0
LINE
  8
_0-0_躯体
  6
CONTINUOUS
 62
    2
 10
519.42057646146748
 20
280.39999999998861
 11
514.42057646146748
 21
275.39999999998861
  0
LINE
  8
_0-0_躯体
  6
CONTINUOUS
 62
    2
 10
516.59214933672126
 20
280.39999999998861
 11
511.59214933672126
 21
275.39999999998861
  0
LINE
  8
_0-0_躯体
  6
CONTINUOUS
 62
    2
 10
513.76372221197505
 20
280.39999999998861
 11
508.76372221197505
 21
275.39999999998861
  0
LINE
  8
_0-0_躯体
  6
CONTINUOUS
 62
    2
 10
510.93529508722884
 20
280.39999999998861
 11
505.93529508722884
 21
275.39999999998861
  0
LINE
  8
_0-0_躯体
  6
CONTINUOUS
 62
    2
 10
508.10686796248262
 20
280.39999999998861
 11
503.10686796248262
 21
275.39999999998861
  0
LINE
  8
_0-0_躯体
  6
CONTINUOUS
 62
    2
 10
505.27844083773641
 20
280.39999999998861
 11
500.27844083773641
 21
275.39999999998861
  0
LINE
  8
_0-0_躯体
  6
CONTINUOUS
 62
    2
 10
502.4500137129902
 20
280.39999999998861
 11
497.4500137129902
 21
275.39999999998861
  0
LINE
  8
_0-0_躯体
  6
CONTINUOUS
 62
    2
 10
499.62158658824399
 20
280.39999999998861
 11
494.62158658824399
 21
275.39999999998861
  0
LINE
  8
_0-0_躯体
  6
CONTINUOUS
 62
    2
 10
496.79315946349823
 20
280.39999999998861
 11
491.79315946349823
 21
275.39999999998861
  0
LINE
  8
_0-0_躯体
  6
CONTINUOUS
 62
    2
 10
493.96473233875156
 20
280.39999999998861
 11
488.96473233875201
 21
275.39999999998861
  0
LINE
  8
_0-0_躯体
  6
CONTINUOUS
 62
    2
 10
491.1363052140058
 20
280.39999999998861
 11
486.1363052140058
 21
275.39999999998861
  0
LINE
  8
_0-0_躯体
  6
CONTINUOUS
 62
    2
 10
488.30787808925913
 20
280.39999999998861
 11
483.30787808925959
 21
275.39999999998861
  0
LINE
  8
_0-0_躯体
  6
CONTINUOUS
 62
    2
 10
485.47945096451338
 20
280.39999999998861
 11
480.47945096451338
 21
275.39999999998861
  0
LINE
  8
_0-0_躯体
  6
CONTINUOUS
 62
    2
 10
482.65102383976716
 20
280.39999999998861
 11
477.65102383976716
 21
275.39999999998861
  0
LINE
  8
_0-0_躯体
  6
CONTINUOUS
 62
    2
 10
479.82259671502095
 20
280.39999999998861
 11
474.82259671502095
 21
275.39999999998861
  0
LINE
  8
_0-0_躯体
  6
CONTINUOUS
 62
    2
 10
476.99416959027474
 20
280.39999999998861
 11
471.99416959027474
 21
275.39999999998861
  0
LINE
  8
_0-0_躯体
  6
CONTINUOUS
 62
    2
 10
474.16574246552852
 20
280.39999999998861
 11
469.16574246552852
 21
275.39999999998861
  0
LINE
  8
_0-0_躯体
  6
CONTINUOUS
 62
    2
 10
471.33731534078231
 20
280.39999999998861
 11
466.33731534078231
 21
275.39999999998861
  0
LINE
  8
_0-0_躯体
  6
CONTINUOUS
 62
    2
 10
468.5088882160361
 20
280.39999999998861
 11
463.5088882160361
 21
275.39999999998861
  0
LINE
  8
_0-0_躯体
  6
CONTINUOUS
 62
    2
 10
465.68046109128989
 20
280.39999999998861
 11
460.68046109128989
 21
275.39999999998861
  0
LINE
  8
_0-0_躯体
  6
CONTINUOUS
 62
    2
 10
462.85203396654367
 20
280.39999999998861
 11
457.85203396654367
 21
275.39999999998861
  0
LINE
  8
_0-0_躯体
  6
CONTINUOUS
 62
    2
 10
460.02360684179746
 20
280.39999999998861
 11
455.02360684179746
 21
275.39999999998861
  0
LINE
  8
_0-0_躯体
  6
CONTINUOUS
 62
    2
 10
457.19517971705125
 20
280.39999999998861
 11
452.19517971705125
 21
275.39999999998861
  0
LINE
  8
_0-0_躯体
  6
CONTINUOUS
 62
    2
 10
454.36675259230503
 20
280.39999999998861
 11
449.36675259230503
 21
275.39999999998861
  0
LINE
  8
_0-0_躯体
  6
CONTINUOUS
 62
    2
 10
451.53832546755882
 20
280.39999999998861
 11
446.53832546755882
 21
275.39999999998861
  0
LINE
  8
_0-0_躯体
  6
CONTINUOUS
 62
    2
 10
448.70989834281261
 20
280.39999999998861
 11
443.70989834281261
 21
275.39999999998861
  0
LINE
  8
_0-0_躯体
  6
CONTINUOUS
 62
    2
 10
445.88147121806639
 20
280.39999999998861
 11
440.88147121806639
 21
275.39999999998861
  0
LINE
  8
_0-0_躯体
  6
CONTINUOUS
 62
    2
 10
443.05304409332018
 20
280.39999999998861
 11
438.05304409332018
 21
275.39999999998861
  0
LINE
  8
_0-0_躯体
  6
CONTINUOUS
 62
    2
 10
440.22461696857442
 20
280.39999999998861
 11
435.22461696857442
 21
275.39999999998861
  0
LINE
  8
_0-0_躯体
  6
CONTINUOUS
 62
    2
 10
437.39618984382776
 20
280.39999999998861
 11
432.39618984382776
 21
275.39999999998861
  0
LINE
  8
_0-0_躯体
  6
CONTINUOUS
 62
    2
 10
434.567762719082
 20
280.39999999998861
 11
429.567762719082
 21
275.39999999998861
  0
LINE
  8
_0-0_躯体
  6
CONTINUOUS
 62
    2
 10
431.73933559433533
 20
280.39999999998861
 11
426.73933559433533
 21
275.39999999998861
  0
LINE
  8
_0-0_躯体
  6
CONTINUOUS
 62
    2
 10
428.91090846958957
 20
280.39999999998861
 11
423.91090846958957
 21
275.39999999998861
  0
LINE
  8
_0-0_躯体
  6
CONTINUOUS
 62
    2
 10
426.08248134484336
 20
280.39999999998861
 11
421.08248134484336
 21
275.39999999998861
  0
LINE
  8
_0-0_躯体
  6
CONTINUOUS
 62
    2
 10
423.25405422009715
 20
280.39999999998861
 11
418.25405422009715
 21
275.39999999998861
  0
LINE
  8
_0-0_躯体
  6
CONTINUOUS
 62
    2
 10
420.42562709535048
 20
280.39999999998861
 11
415.42562709535048
 21
275.39999999998861
  0
LINE
  8
_0-0_躯体
  6
CONTINUOUS
 62
    2
 10
417.59719997060472
 20
280.39999999998861
 11
412.59719997060472
 21
275.39999999998861
  0
LINE
  8
_0-0_躯体
  6
CONTINUOUS
 62
    2
 10
414.76877284585851
 20
280.39999999998861
 11
409.76877284585851
 21
275.39999999998861
  0
LINE
  8
_0-0_躯体
  6
CONTINUOUS
 62
    2
 10
411.94034572111229
 20
280.39999999998861
 11
406.94034572111229
 21
275.39999999998861
  0
LINE
  8
_0-0_躯体
  6
CONTINUOUS
 62
    2
 10
409.11191859636608
 20
280.39999999998861
 11
404.11191859636608
 21
275.39999999998861
  0
LINE
  8
_0-0_躯体
  6
CONTINUOUS
 62
    2
 10
406.28349147161987
 20
280.39999999998861
 11
401.28349147161987
 21
275.39999999998861
  0
LINE
  8
_0-0_躯体
  6
CONTINUOUS
 62
    2
 10
403.45506434687366
 20
280.39999999998861
 11
398.45506434687366
 21
275.39999999998861
  0
LINE
  8
_0-0_躯体
  6
CONTINUOUS
 62
    2
 10
400.62663722212744
 20
280.39999999998861
 11
395.62663722212744
 21
275.39999999998861
  0
LINE
  8
_0-0_躯体
  6
CONTINUOUS
 62
    2
 10
397.79821009738123
 20
280.39999999998861
 11
392.79821009738123
 21
275.39999999998861
  0
LINE
  8
_0-0_躯体
  6
CONTINUOUS
 62
    2
 10
394.96978297263502
 20
280.39999999998861
 11
389.96978297263502
 21
275.39999999998861
  0
LINE
  8
_0-0_躯体
  6
CONTINUOUS
 62
    2
 10
392.1413558478888
 20
280.39999999998861
 11
387.1413558478888
 21
275.39999999998861
  0
LINE
  8
_0-0_躯体
  6
CONTINUOUS
 62
    2
 10
389.31292872314259
 20
280.39999999998861
 11
384.31292872314259
 21
275.39999999998861
  0
LINE
  8
_0-0_躯体
  6
CONTINUOUS
 62
    2
 10
386.48450159839638
 20
280.39999999998861
 11
381.48450159839683
 21
275.39999999998861
  0
LINE
  8
_0-0_躯体
  6
CONTINUOUS
 62
    2
 10
383.65607447365016
 20
280.39999999998861
 11
378.65607447365016
 21
275.39999999998861
  0
LINE
  8
_0-0_躯体
  6
CONTINUOUS
 62
    2
 10
380.82764734890441
 20
280.39999999998861
 11
375.82764734890441
 21
275.39999999998861
  0
LINE
  8
_0-0_躯体
  6
CONTINUOUS
 62
    2
 10
377.99922022415774
 20
280.39999999998861
 11
372.99922022415774
 21
275.39999999998861
  0
LINE
  8
_0-0_躯体
  6
CONTINUOUS
 62
    2
 10
375.17079309941198
 20
280.39999999998861
 11
370.17079309941198
 21
275.39999999998861
  0
LINE
  8
_0-0_躯体
  6
CONTINUOUS
 62
    2
 10
372.34236597466577
 20
280.39999999998861
 11
367.34236597466577
 21
275.39999999998861
  0
LINE
  8
_0-0_躯体
  6
CONTINUOUS
 62
    2
 10
369.51393884991955
 20
280.39999999998861
 11
364.51393884991955
 21
275.39999999998861
  0
LINE
  8
_0-0_躯体
  6
CONTINUOUS
 62
    2
 10
366.68551172517334
 20
280.39999999998861
 11
361.68551172517334
 21
275.39999999998861
  0
LINE
  8
_0-0_躯体
  6
CONTINUOUS
 62
    2
 10
363.85708460042713
 20
280.39999999998861
 11
358.85708460042713
 21
275.39999999998861
  0
LINE
  8
_0-0_躯体
  6
CONTINUOUS
 62
    2
 10
361.02865747568092
 20
280.39999999998861
 11
356.02865747568092
 21
275.39999999998861
  0
LINE
  8
_0-0_躯体
  6
CONTINUOUS
 62
    2
 10
358.2002303509347
 20
280.39999999998861
 11
353.2002303509347
 21
275.39999999998861
  0
LINE
  8
_0-0_躯体
  6
CONTINUOUS
 62
    2
 10
355.37180322618849
 20
280.39999999998861
 11
351.93405808371597
 21
276.96225485751609
  0
LINE
  8
_0-0_躯体
  6
CONTINUOUS
 62
    2
 10
352.54337610144228
 20
280.39999999998861
 11
351.93405808371597
 21
279.7906819822623
  0
LINE
  8
_0-0_躯体
  6
CONTINUOUS
 62
    2
 10
553.93405808371597
 20
310.99999999998863
 11
553.93405808371597
 21
280.39999999998861
  0
LINE
  8
_0-0_躯体
  6
CONTINUOUS
 62
    2
 10
563.93405808371597
 20
275.39999999998861
 11
563.93405808371597
 21
310.99999999998863
  0
LINE
  8
_0-0_躯体
  6
CONTINUOUS
 62
    2
 10
561.33428496045178
 20
310.99999999998863
 11
553.93405808371597
 21
303.5997731232527
  0
LINE
  8
_0-0_躯体
  6
CONTINUOUS
 62
    2
 10
558.50585783570602
 20
310.99999999998863
 11
553.93405808371597
 21
306.42820024799869
  0
LINE
  8
_0-0_躯体
  6
CONTINUOUS
 62
    2
 10
555.67743071095708
 20
310.99999999998863
 11
553.93405808371597
 21
309.25662737274467
  0
LINE
  8
_0-0_躯体
  6
CONTINUOUS
 62
    2
 10
563.93405808371597
 20
310.77134599850615
 11
553.93405808371597
 21
300.77134599850626
  0
LINE
  8
_0-a_
  6
CONTINUOUS
 62
    3
 10
177.53405803591147
 20
340.75000017044044
 11
178.53405803591102
 21
339.75000017044135
  0
LINE
  8
_0-a_
  6
CONTINUOUS
 62
    3
 10
177.53405803591147
 20
340.75000017044044
 11
177.53405803591147
 21
349.25000017044226
  0
LINE
  8
_0-a_
  6
CONTINUOUS
 62
    3
 10
177.53405803591147
 20
349.25000017044226
 11
178.53405803591102
 21
350.25000017044135
  0
LINE
  8
_0-a_
  6
CONTINUOUS
 62
    3
 10
177.53405803591147
 20
340.75000017044044
 11
177.03405803591147
 21
340.75000017044044
  0
LINE
  8
_0-a_
  6
CONTINUOUS
 62
    3
 10
177.53405803591147
 20
349.25000017044226
 11
177.03405803591147
 21
349.25000017044226
  0
LINE
  8
_0-a_
  6
CONTINUOUS
 62
    3
 10
177.03405803591147
 20
357.50000017044181
 11
166.03405803591147
 21
357.50000017044181
  0
LINE
  8
_0-a_
  6
CONTINUOUS
 62
    3
 10
177.03405803591147
 20
315.50000017044135
 11
177.03405803591147
 21
357.50000017044181
  0
LINE
  8
_0-a_
  6
CONTINUOUS
 62
    3
 10
164.53405803591147
 20
359.00000017044181
 11
178.53405803591102
 21
359.00000017044181
  0
LINE
  8
_0-a_
  6
CONTINUOUS
 62
    3
 10
178.53405803591102
 20
359.00000017044181
 11
178.53405803591102
 21
314.00000017044181
  0
LINE
  8
_0-a_
  6
CONTINUOUS
 62
    3
 10
164.53405803591147
 20
359.00000017044181
 11
164.53405803591147
 21
349.00000017044181
  0
LINE
  8
_0-a_
  6
CONTINUOUS
 62
    3
 10
166.03405803591147
 20
349.00000017044181
 11
164.53405803591147
 21
349.00000017044181
  0
LINE
  8
_0-a_
  6
CONTINUOUS
 62
    3
 10
166.03405803591147
 20
357.50000017044181
 11
166.03405803591147
 21
349.00000017044181
  0
LINE
  8
_0-a_
  6
CONTINUOUS
 62
    3
 10
168.53405803591102
 20
315.50000017044135
 11
177.03405803591147
 21
315.50000017044135
  0
LINE
  8
_0-a_
  6
CONTINUOUS
 62
    3
 10
168.53405803591102
 20
315.50000017044135
 11
168.53405803591102
 21
314.00000017044181
  0
LINE
  8
_0-a_
  6
CONTINUOUS
 62
    3
 10
178.53405803591102
 20
314.00000017044181
 11
168.53405803591102
 21
314.00000017044181
  0
LINE
  8
_0-a_
  6
CONTINUOUS
 62
    3
 10
175.23405807509187
 20
336.50000071528666
 11
175.2340578574225
 21
339.00000060209777
  0
LINE
  8
_0-a_
  6
CONTINUOUS
 62
    3
 10
175.2340578574225
 20
339.00000060209777
 11
156.33405353884552
 21
338.99999895651149
  0
LINE
  8
_0-a_
  6
CONTINUOUS
 62
    3
 10
177.03405804897136
 20
336.50000071528666
 11
175.23405807509187
 21
336.50000071528666
  0
LINE
  8
_0-a_
  6
CONTINUOUS
 62
    3
 10
175.23405807509187
 20
351.30000034089403
 11
175.23405807509187
 21
355.90000071528675
  0
LINE
  8
_0-a_
  6
CONTINUOUS
 62
    3
 10
172.23405807509232
 20
351.30000034089403
 11
175.23405807509187
 21
351.30000034089403
  0
LINE
  8
_0-a_
  6
CONTINUOUS
 62
    3
 10
177.0340580750925
 20
349.50000034089339
 11
174.0340580750925
 21
349.50000034089339
  0
LINE
  8
_0-a_
  6
CONTINUOUS
 62
    3
 10
173.73405807509141
 20
345.00000054985708
 11
174.0340580750925
 21
344.70000054985735
  0
LINE
  8
_0-a_
  6
CONTINUOUS
 62
    3
 10
174.0340580750925
 20
349.50000034089339
 11
174.0340580750925
 21
345.30000054985726
  0
LINE
  8
_0-a_
  6
CONTINUOUS
 62
    3
 10
174.0340580750925
 20
345.30000054985726
 11
173.73405807509141
 21
345.00000054985708
  0
LINE
  8
_0-a_
  6
CONTINUOUS
 62
    3
 10
175.2340578574225
 20
339.00000060209777
 11
156.33405356496621
 21
338.99999895651104
  0
LINE
  8
_0-a_
  6
CONTINUOUS
 62
    3
 10
172.73405807509187
 20
357.50000071528643
 11
176.03405807509159
 21
357.50000071528643
  0
ARC
  8
_0-a_
  6
CONTINUOUS
 62
    3
 10
172.73405807509187
 20
357.00000071528621
 40
0.5
 50
90
 51
180
  0
LINE
  8
_0-a_
  6
CONTINUOUS
 62
    3
 10
172.23405807509232
 20
355.90000071528675
 11
172.23405807509232
 21
357.00000071528621
  0
LINE
  8
_0-a_
  6
CONTINUOUS
 62
    3
 10
175.23405807509187
 20
355.90000071528675
 11
172.23405807509232
 21
355.90000071528675
  0
ARC
  8
_0-a_
  6
CONTINUOUS
 62
    3
 10
176.03405807509159
 20
356.50000071528598
 40
1
 50
0
 51
90
  0
LINE
  8
_0-a_
  6
CONTINUOUS
 62
    3
 10
177.03405807509159
 20
356.50000071528621
 11
177.0340580750925
 21
349.50000034089339
  0
LINE
  8
_0-a_
  6
CONTINUOUS
 62
    3
 10
177.03405804897136
 20
340.49999999998886
 11
177.03405804897136
 21
336.50000071528666
  0
LINE
  8
_0-a_
  6
CONTINUOUS
 62
    3
 10
174.0340580750925
 20
344.70000054985735
 11
174.0340580750925
 21
340.49999999998886
  0
LINE
  8
_0-a_
  6
CONTINUOUS
 62
    3
 10
172.23405807509232
 20
340.49999999998886
 11
172.23405807509232
 21
351.30000034089403
  0
LINE
  8
_0-a_
  6
CONTINUOUS
 62
    3
 10
154.53405807509159
 20
340.49999999998886
 11
172.23405807509232
 21
340.49999999998886
  0
LINE
  8
_0-a_
  6
CONTINUOUS
 62
    3
 10
174.0340580750925
 20
340.49999999998886
 11
177.03405804897136
 21
340.49999999998886
  0
LINE
  8
_0-a_
  6
CONTINUOUS
 62
    3
 10
170.13405925624227
 20
289.50000030666126
 11
158.33405747432187
 21
289.49999957529019
  0
ARC
  8
_0-a_
  6
CONTINUOUS
 62
    3
 10
158.33405747432187
 20
291.49999957529019
 40
2
 50
180.00000498862744
 51
270
  0
ARC
  8
_0-a_
  6
CONTINUOUS
 62
    3
 10
170.13405925624227
 20
291.50000030666126
 40
2
 50
270
 51
0
  0
LINE
  8
_0-a_
  6
CONTINUOUS
 62
    3
 10
156.33405489710674
 20
313.70000132342966
 11
156.03405622054777
 21
313.99999999998886
  0
LINE
  8
_0-a_
  6
CONTINUOUS
 62
    3
 10
156.03405622054777
 20
313.99999999998886
 11
156.33405626407045
 21
314.30000004351155
  0
LINE
  8
_0-a_
  6
CONTINUOUS
 62
    3
 10
156.33405747432187
 20
291.49999940115424
 11
156.33405560143854
 21
313.70000132342966
  0
LINE
  8
_0-a_
  6
CONTINUOUS
 62
    3
 10
156.33405571554692
 20
314.30000004351155
 11
156.33405356496621
 21
338.99999895651104
  0
LINE
  8
_0-a_
  6
CONTINUOUS
 62
    3
 10
178.53405806630224
 20
340.00000071560066
 11
178.53405806630224
 21
350.00000071560044
  0
LINE
  8
_0-a_
  6
CONTINUOUS
 62
    3
 10
162.53405806630178
 20
345.00000071560066
 11
163.71762611814108
 21
347.05000071560039
  0
LINE
  8
_0-a_
  6
CONTINUOUS
 62
    3
 10
162.53405806630178
 20
345.00000071560066
 11
163.71762611814108
 21
342.95000071560071
  0
LINE
  8
_0-a_
  6
CONTINUOUS
 62
    3
 10
171.74143978564496
 20
343.21000071560047
 11
171.38925564531007
 21
342.60000071560034
  0
LINE
  8
_0-a_
  6
CONTINUOUS
 62
    3
 10
171.38925564531007
 20
342.60000071560034
 11
171.03707150497519
 21
343.21000071560047
  0
LINE
  8
_0-a_
  6
CONTINUOUS
 62
    3
 10
169.73405806630205
 20
346.79000071560063
 11
170.08624220663694
 21
347.40000071560075
  0
LINE
  8
_0-a_
  6
CONTINUOUS
 62
    3
 10
170.08624220663694
 20
347.40000071560075
 11
170.43842634697182
 21
346.79000071560063
  0
LINE
  8
_0-a_
  6
CONTINUOUS
 62
    3
 10
170.43842634697182
 20
346.79000071560063
 11
171.74143978564496
 21
343.21000071560047
  0
LINE
  8
_0-a_
  6
CONTINUOUS
 62
    3
 10
169.73405806630205
 20
346.79000071560063
 11
171.03707150497519
 21
343.21000071560047
  0
LINE
  8
_0-a_
  6
CONTINUOUS
 62
    3
 10
171.38925564531007
 20
342.60000071560034
 11
170.08624220663694
 21
347.40000071560075
  0
LINE
  8
_0-a_
  6
CONTINUOUS
 62
    3
 10
173.24143978564496
 20
343.21000071560047
 11
172.88925564531007
 21
342.60000071560034
  0
LINE
  8
_0-a_
  6
CONTINUOUS
 62
    3
 10
172.88925564531007
 20
342.60000071560034
 11
172.53707150497519
 21
343.21000071560047
  0
LINE
  8
_0-a_
  6
CONTINUOUS
 62
    3
 10
171.23405806630205
 20
346.79000071560063
 11
171.58624220663694
 21
347.40000071560075
  0
LINE
  8
_0-a_
  6
CONTINUOUS
 62
    3
 10
171.58624220663694
 20
347.40000071560075
 11
171.93842634697182
 21
346.79000071560063
  0
LINE
  8
_0-a_
  6
CONTINUOUS
 62
    3
 10
171.93842634697182
 20
346.79000071560063
 11
173.24143978564496
 21
343.21000071560047
  0
LINE
  8
_0-a_
  6
CONTINUOUS
 62
    3
 10
171.23405806630205
 20
346.79000071560063
 11
172.53707150497519
 21
343.21000071560047
  0
LINE
  8
_0-a_
  6
CONTINUOUS
 62
    3
 10
172.88925564531007
 20
342.60000071560034
 11
171.58624220663694
 21
347.40000071560075
  0
LINE
  8
_0-a_
  6
CONTINUOUS
 62
    3
 10
174.74143978564496
 20
343.21000071560047
 11
174.38925564531007
 21
342.60000071560034
  0
LINE
  8
_0-a_
  6
CONTINUOUS
 62
    3
 10
174.38925564531007
 20
342.60000071560034
 11
174.03707150497519
 21
343.21000071560047
  0
LINE
  8
_0-a_
  6
CONTINUOUS
 62
    3
 10
172.73405806630205
 20
346.79000071560063
 11
173.08624220663694
 21
347.40000071560075
  0
LINE
  8
_0-a_
  6
CONTINUOUS
 62
    3
 10
173.08624220663694
 20
347.40000071560075
 11
173.43842634697182
 21
346.79000071560063
  0
LINE
  8
_0-a_
  6
CONTINUOUS
 62
    3
 10
173.43842634697182
 20
346.79000071560063
 11
174.74143978564496
 21
343.21000071560047
  0
LINE
  8
_0-a_
  6
CONTINUOUS
 62
    3
 10
172.73405806630205
 20
346.79000071560063
 11
174.03707150497519
 21
343.21000071560047
  0
LINE
  8
_0-a_
  6
CONTINUOUS
 62
    3
 10
174.38925564531007
 20
342.60000071560034
 11
173.08624220663694
 21
347.40000071560075
  0
LINE
  8
_0-a_
  6
CONTINUOUS
 62
    3
 10
174.23405806630205
 20
346.79000071560063
 11
174.58624220663694
 21
347.40000071560075
  0
LINE
  8
_0-a_
  6
CONTINUOUS
 62
    3
 10
174.58624220663694
 20
347.40000071560075
 11
174.93842634697182
 21
346.79000071560063
  0
LINE
  8
_0-a_
  6
CONTINUOUS
 62
    3
 10
169.23405806630205
 20
347.05000071560039
 11
163.71762611814108
 21
347.05000071560039
  0
LINE
  8
_0-a_
  6
CONTINUOUS
 62
    3
 10
169.23405806630205
 20
342.95000071560071
 11
169.23405806630205
 21
347.05000071560039
  0
LINE
  8
_0-a_
  6
CONTINUOUS
 62
    3
 10
169.23405806630205
 20
342.95000071560071
 11
163.71762611814108
 21
342.95000071560071
  0
LINE
  8
_0-a_
  6
CONTINUOUS
 62
    3
 10
174.93842634697182
 20
346.79000071560063
 11
175.23405806630205
 21
345.9777592422663
  0
LINE
  8
_0-a_
  6
CONTINUOUS
 62
    3
 10
175.23774892597373
 20
345.00000071560066
 11
174.58624220663694
 21
347.40000071560075
  0
LINE
  8
_0-a_
  6
CONTINUOUS
 62
    3
 10
175.23405806630205
 20
346.79000071560063
 11
174.93842634697182
 21
346.79000071560063
  0
LINE
  8
_0-a_
  6
CONTINUOUS
 62
    3
 10
174.23405806630205
 20
346.79000071560063
 11
173.43842634697182
 21
346.79000071560063
  0
LINE
  8
_0-a_
  6
CONTINUOUS
 62
    3
 10
172.73405806630205
 20
346.79000071560063
 11
171.93842634697182
 21
346.79000071560063
  0
LINE
  8
_0-a_
  6
CONTINUOUS
 62
    3
 10
171.23405806630205
 20
346.79000071560063
 11
170.43842634697182
 21
346.79000071560063
  0
LINE
  8
_0-a_
  6
CONTINUOUS
 62
    3
 10
169.73405806630205
 20
346.79000071560063
 11
169.23405806630205
 21
346.79000071560063
  0
LINE
  8
_0-a_
  6
CONTINUOUS
 62
    3
 10
175.23405806630205
 20
343.21000071560047
 11
174.74143978564496
 21
343.21000071560047
  0
LINE
  8
_0-a_
  6
CONTINUOUS
 62
    3
 10
171.03707150497519
 20
343.21000071560047
 11
169.23405806630205
 21
343.21000071560047
  0
LINE
  8
_0-a_
  6
CONTINUOUS
 62
    3
 10
172.53707150497519
 20
343.21000071560047
 11
171.74143978564496
 21
343.21000071560047
  0
LINE
  8
_0-a_
  6
CONTINUOUS
 62
    3
 10
174.03707150497519
 20
343.21000071560047
 11
173.24143978564496
 21
343.21000071560047
  0
LINE
  8
_0-a_
  6
CONTINUOUS
 62
    3
 10
169.23405806630205
 20
343.25000071560044
 11
163.8908311988979
 21
343.25000071560044
  0
LINE
  8
_0-a_
  6
CONTINUOUS
 62
    3
 10
162.88046822781587
 20
345.00000071560066
 11
163.8908311988979
 21
343.25000071560044
  0
LINE
  8
_0-a_
  6
CONTINUOUS
 62
    3
 10
162.88046822781587
 20
345.00000071560066
 11
169.23405806630205
 21
343.87969140272025
  0
LINE
  8
_0-a_
  6
CONTINUOUS
 62
    3
 10
178.53405806630224
 20
350.00000071560044
 11
178.33405806630196
 21
350.00000071560044
  0
LINE
  8
_0-a_
  6
CONTINUOUS
 62
    3
 10
178.33405806630196
 20
340.00000071560066
 11
178.33405806630196
 21
350.00000071560044
  0
LINE
  8
_0-a_
  6
CONTINUOUS
 62
    3
 10
178.53405806630224
 20
340.00000071560066
 11
178.33405806630196
 21
340.00000071560066
  0
LINE
  8
_0-a_
  6
CONTINUOUS
 62
    3
 10
178.33405806630196
 20
350.00000071560044
 11
175.23405806630205
 21
346.9000007156003
  0
LINE
  8
_0-a_
  6
CONTINUOUS
 62
    3
 10
175.23405806630205
 20
343.10000071560103
 11
175.23405806630205
 21
346.9000007156003
  0
LINE
  8
_0-a_
  6
CONTINUOUS
 62
    3
 10
178.33405806630196
 20
340.00000071560066
 11
175.23405806630205
 21
343.10000071560103
  0
LINE
  8
_0-a_
  6
CONTINUOUS
 62
    3
 10
157.83405557180083
 20
305.00000068377926
 11
157.83405557180083
 21
323.00000068378017
  0
LINE
  8
_0-a_
  6
CONTINUOUS
 62
    3
 10
156.33405557180083
 20
305.00000068377926
 11
156.33405557180083
 21
323.00000068378017
  0
LINE
  8
_0-a_
  6
CONTINUOUS
 62
    3
 10
157.83405557180083
 20
305.00000068377926
 11
156.33405557180083
 21
305.00000068377926
  0
LINE
  8
_0-a_
  6
CONTINUOUS
 62
    3
 10
157.83405557180083
 20
323.00000068378017
 11
156.33405557180083
 21
323.00000068378017
  0
LINE
  8
_0-a_
  6
CONTINUOUS
 62
    3
 10
157.83405557180083
 20
309.50000068377926
 11
159.07893438680082
 21
309.6089134675799
  0
LINE
  8
_0-a_
  6
CONTINUOUS
 62
    3
 10
159.07893438680082
 20
318.39108790007981
 11
157.83405557180083
 21
318.50000068377926
  0
ARC
  8
_0-a_
  6
CONTINUOUS
 62
    3
 10
158.9926502015004
 20
317.40485514888064
 40
0.9899999999999997
 50
37.367558032042609
 51
85.000000001200505
  0
ARC
  8
_0-a_
  6
CONTINUOUS
 62
    3
 10
158.9926502015004
 20
310.5951462186797
 40
0.9899999999999997
 50
274.99999999879952
 51
322.63244196795739
  0
ARC
  8
_0-a_
  6
CONTINUOUS
 62
    3
 10
154.53405557180065
 20
314.00000068378017
 40
6.5999999999999996
 50
322.63244196770472
 51
338.26638354339894
  0
ARC
  8
_0-a_
  6
CONTINUOUS
 62
    3
 10
154.53405557180065
 20
314.00000068378017
 40
6.5999999999999996
 50
21.748408590905356
 51
37.367558032307898
  0
LINE
  8
_0-a_
  6
CONTINUOUS
 62
    3
 10
161.09318270140091
 20
313.68500068377989
 11
160.65736781140038
 21
313.68500068377989
  0
LINE
  8
_0-a_
  6
CONTINUOUS
 62
    3
 10
161.09318270140091
 20
313.3377120018788
 11
161.09318270140091
 21
313.68500068377989
  0
LINE
  8
_0-a_
  6
CONTINUOUS
 62
    3
 10
160.65736781140038
 20
311.55749741528007
 11
161.09318270140091
 21
313.3377120018788
  0
LINE
  8
_0-a_
  6
CONTINUOUS
 62
    3
 10
161.09318270140091
 20
314.66228936578
 11
160.82774688000097
 21
315.96219963348017
  0
LINE
  8
_0-a_
  6
CONTINUOUS
 62
    3
 10
160.82774688000097
 20
315.96219963348017
 11
160.65736781140038
 21
316.44250395237873
  0
LINE
  8
_0-a_
  6
CONTINUOUS
 62
    3
 10
161.09318270140091
 20
314.31500068378
 11
161.09318270140091
 21
314.66228936578
  0
LINE
  8
_0-a_
  6
CONTINUOUS
 62
    3
 10
160.65736781140038
 20
314.31500068378
 11
161.09318270140091
 21
314.31500068378
  0
LINE
  8
_0-a_
  6
CONTINUOUS
 62
    3
 10
160.65736781140038
 20
313.68500068377989
 11
160.66247298580072
 21
314.00000068378017
  0
LINE
  8
_0-a_
  6
CONTINUOUS
 62
    3
 10
160.66247298580072
 20
314.00000068378017
 11
160.65736781140038
 21
314.31500068378
  0
LINE
  8
_0-a_
  6
CONTINUOUS
 62
    3
 10
154.53405809278763
 20
286.13165246373717
 11
154.53405807509159
 21
340.49999999998886
  0
LINE
  8
_0-a_
  6
CONTINUOUS
 62
    3
 10
154.53405808371542
 20
286.13165249759516
 11
154.53405808371542
 21
340.49999999998886
  0
LINE
  8
_0-a_
  6
CONTINUOUS
 62
    3
 10
154.53405808371542
 20
340.49999999998886
 11
153.53405808371542
 21
340.49999999998886
  0
LINE
  8
_0-a_
  6
CONTINUOUS
 62
    3
 10
172.13405925624227
 20
291.50000030666126
 11
172.13405925624227
 21
295.00000060209788
  0
LINE
  8
_0-a_
  6
CONTINUOUS
 62
    3
 10
175.13405859411284
 20
296.80000060209807
 11
174.6340585941133
 21
296.80000060209807
  0
LINE
  8
_0-a_
  6
CONTINUOUS
 62
    3
 10
175.13405859411284
 20
299.80000060209773
 11
175.13405859411284
 21
296.80000060209807
  0
LINE
  8
_0-a_
  6
CONTINUOUS
 62
    3
 10
174.6340585941133
 20
296.80000060209807
 11
175.13405734411606
 21
294.80000060209784
  0
LINE
  8
_0-a_
  6
CONTINUOUS
 62
    3
 10
172.13405991837078
 20
296.80000060209807
 11
172.63405991837033
 21
296.80000060209807
  0
LINE
  8
_0-a_
  6
CONTINUOUS
 62
    3
 10
172.13405991837078
 20
299.80000060209773
 11
172.13405991837078
 21
296.80000060209807
  0
LINE
  8
_0-a_
  6
CONTINUOUS
 62
    3
 10
172.63405991837033
 20
296.80000060209807
 11
172.13406116836757
 21
294.80000060209784
  0
ARC
  8
_0-a_
  6
CONTINUOUS
 62
    3
 10
173.63405925624136
 20
299.80000060209773
 40
1.4999993378710599
 50
0
 51
180
  0
LINE
  8
_0-a_
  6
CONTINUOUS
 62
    3
 10
170.63405679138975
 20
299.79999860241264
 11
170.63405679138975
 21
294.8000006024123
  0
LINE
  8
_0-a_
  6
CONTINUOUS
 62
    3
 10
170.63405679138975
 20
294.8000006024123
 11
172.13405679138884
 21
294.8000006024123
  0
LINE
  8
_0-a_
  6
CONTINUOUS
 62
    3
 10
175.13405679138975
 20
294.8000006024123
 11
176.63405679138975
 21
294.8000006024123
  0
LINE
  8
_0-a_
  6
CONTINUOUS
 62
    3
 10
176.63405679138975
 20
294.8000006024123
 11
176.63405679138975
 21
299.79999860241264
  0
ARC
  8
_0-a_
  6
CONTINUOUS
 62
    3
 10
173.6340567913893
 20
299.79999860241264
 40
1.7000010000000001
 50
0
 51
180
  0
ARC
  8
_0-a_
  6
CONTINUOUS
 62
    3
 10
173.6340567913893
 20
299.79999860241264
 40
3
 50
0
 51
180
  0
LINE
  8
_0-a_
  6
CONTINUOUS
 62
    3
 10
175.13405079139
 20
296.79999860241253
 11
174.89020779138934
 21
296.79999860241253
  0
ARC
  8
_0-a_
  6
CONTINUOUS
 62
    3
 10
174.89020779138934
 20
296.60000060241271
 40
0.200001
 50
90
 51
194.0364020000284
  0
LINE
  8
_0-a_
  6
CONTINUOUS
 62
    3
 10
175.13405679138975
 20
294.8000006024123
 11
174.696179791389
 21
296.55149360241273
  0
LINE
  8
_0-a_
  6
CONTINUOUS
 62
    3
 10
172.13405679138884
 20
296.79999860241253
 11
172.37790279138915
 21
296.79999860241253
  0
ARC
  8
_0-a_
  6
CONTINUOUS
 62
    3
 10
172.37790279138915
 20
296.60000060241271
 40
0.200001
 50
345.96380800005915
 51
90
  0
LINE
  8
_0-a_
  6
CONTINUOUS
 62
    3
 10
172.1340597913894
 20
294.8000006024123
 11
172.57193079138995
 21
296.55149360241273
  0
LINE
  8
_0-a_
  6
CONTINUOUS
 62
    3
 10
175.13405079139
 20
296.79999860241253
 11
175.33405179138924
 21
296.79999860241253
  0
LINE
  8
_0-a_
  6
CONTINUOUS
 62
    3
 10
175.33405179138924
 20
296.79999860241253
 11
175.334057791389
 21
299.79999860241264
  0
LINE
  8
_0-a_
  6
CONTINUOUS
 62
    3
 10
172.1340597913894
 20
296.79999860241253
 11
171.9340557913896
 21
296.79999860241253
  0
LINE
  8
_0-a_
  6
CONTINUOUS
 62
    3
 10
171.9340557913896
 20
296.79999860241253
 11
171.9340557913896
 21
299.79999860241264
  0
INSERT
  2
-000-
  8
_0-a_
 10
420.5
 20
297
 41
1
 42
1
 50
0
  0
INSERT
  2
-001-_1_
  8
_0-a_
 10
420.5
 20
297
 41
1
 42
1
 50
0
  0
LINE
  8
_0-a_
  6
CONTINUOUS
 62
    3
 10
174.23405806630205
 20
346.79000071560063
 11
175.23405806630205
 21
344.04252329614724
  0
LINE
  8
_0-a_
  6
DASHED1
 62
    3
 10
156.33405633540485
 20
306.49999999998886
 11
154.53405808371406
 21
306.49999999998886
  0
LINE
  8
_0-a_
  6
DASHED1
 62
    3
 10
156.33405633540485
 20
321.49999999998886
 11
154.53405809250341
 21
321.49999999998886
  0
LINE
  8
_0-a_
  6
CONTINUOUS
 62
    3
 10
175.13405925624181
 20
286.99999999998875
 11
175.13405925624181
 21
294.80000060209784
  0
LINE
  8
_0-a_
  6
CONTINUOUS
 62
    3
 10
175.13405925624181
 20
286.99999999998875
 11
154.53405809250523
 21
286.99999999998875
  0
CIRCLE
  8
_0-e_付箋
  6
CONTINUOUS
 62
    4
 10
189.62443784815616
 20
289.79999960241241
 40
4.8827102566353844
  0
TEXT
  8
_0-e_付箋
 62
    4
 10
186.62443784815616
 20
286.79999960241241
 40
6
 41
1
 50
0
  1
７
  0
LINE
  8
_0-e_付箋
  6
CONTINUOUS
 62
    4
 10
185.39588672659113
 20
292.24135473073
 11
176.63405679138975
 21
297.29999960241241
  0
CIRCLE
  8
_0-e_付箋
  6
CONTINUOUS
 62
    4
 10
189.27619487997265
 20
276.75786467731234
 40
4.8827102566353844
  0
TEXT
  8
_0-e_付箋
 62
    4
 10
186.27619487997265
 20
273.75786467731234
 40
6
 41
1
 50
0
  1
５
  0
LINE
  8
_0-e_付箋
  6
CONTINUOUS
 62
    4
 10
185.82359734693671
 20
280.21046221034828
 11
175.13405925624181
 21
290.90000030104318
  0
CIRCLE
  8
_0-e_付箋
  6
CONTINUOUS
 62
    4
 10
189.13484320042346
 20
322.80112895788022
 40
4.8827102566353844
  0
TEXT
  8
_0-e_付箋
 62
    4
 10
186.13484320042346
 20
319.80112895788022
 40
6
 41
1
 50
0
  1
８
  0
LINE
  8
_0-e_付箋
  6
CONTINUOUS
 62
    4
 10
185.68224566738729
 20
319.34853142484417
 11
178.5282414826255
 21
312.19452724008204
  0
TEXT
  8
_0-e_付箋
 62
    4
 10
186.1406597537092
 20
338.48160188823999
 40
6
 41
1
 50
0
  1
３
  0
LINE
  8
_0-e_付箋
  6
CONTINUOUS
 62
    4
 10
185.68806222067326
 20
338.02900435520405
 11
178.53405803591102
 21
330.87500017044181
  0
CIRCLE
  8
_0-e_付箋
  6
CONTINUOUS
 62
    4
 10
189.1406597537092
 20
341.48160188823999
 40
4.8827102566353844
  0
LINE
  8
_0-1_耐火帯
  6
CONTINUOUS
 62
    4
 10
342.33405808371583
 20
220.89999999998815
 11
340.33405808371583
 21
220.89999999998815
  0
ARC
  8
_0-1_耐火帯
  6
CONTINUOUS
 62
    4
 10
340.33405808371583
 20
221.89999999998815
 40
1
 50
180
 51
270
  0
LINE
  8
_0-1_耐火帯
  6
CONTINUOUS
 62
    4
 10
339.33405808371583
 20
221.89999999998815
 11
339.33405808371583
 21
224.89999999998815
  0
ARC
  8
_0-1_耐火帯
  6
CONTINUOUS
 62
    4
 10
340.33405808371583
 20
224.89999999998815
 40
1
 50
90
 51
180
  0
LINE
  8
_0-1_耐火帯
  6
CONTINUOUS
 62
    4
 10
340.33405808371583
 20
225.89999999998815
 11
342.33405808371583
 21
225.89999999998815
  0
ARC
  8
_0-1_耐火帯
  6
CONTINUOUS
 62
    4
 10
350.43405808371597
 20
225.39999999998815
 40
1
 50
0
 51
90
  0
LINE
  8
_0-1_耐火帯
  6
CONTINUOUS
 62
    4
 10
351.43405808371597
 20
225.39999999998815
 11
351.43405808371597
 21
221.39999999998815
  0
ARC
  8
_0-1_耐火帯
  6
CONTINUOUS
 62
    4
 10
350.43405808371597
 20
221.39999999998815
 40
1
 50
270
 51
0
  0
LINE
  8
_0-1_耐火帯
  6
CONTINUOUS
 62
    4
 10
351.93405808371597
 20
209.17499999998824
 11
348.83405808371583
 21
212.27499999998815
  0
ARC
  8
_0-1_耐火帯
  6
CONTINUOUS
 62
    4
 10
348.93405808371597
 20
237.48908399998834
 40
3
 50
300.80613099999954
 51
0
  0
LINE
  8
_0-1_耐火帯
  6
CONTINUOUS
 62
    4
 10
350.47046208371592
 20
234.91236999998807
 11
348.83405808371583
 21
233.93663799998819
  0
LINE
  8
_0-1_耐火帯
  6
CONTINUOUS
 62
    4
 10
348.83405808371583
 20
233.93663799998819
 11
348.83405808371583
 21
212.27499999998815
  0
ARC
  8
_0-1_耐火帯
  6
CONTINUOUS
 62
    4
 10
348.93405808371597
 20
239.52538022288843
 40
3
 50
0
 51
74.875993000005408
  0
LINE
  8
_0-1_耐火帯
  6
CONTINUOUS
 62
    4
 10
346.09622024591579
 20
243.39999999998815
 11
349.71678608371587
 21
242.42147022288816
  0
LINE
  8
_0-1_耐火帯
  6
CONTINUOUS
 62
    4
 10
351.93405808371597
 20
239.52538022288843
 11
351.93405808371597
 21
237.48908399998834
  0
LINE
  8
_0-1_耐火帯
  6
CONTINUOUS
 62
    4
 10
346.09622024591579
 20
243.39999999998815
 11
343.93405808371597
 21
233.39999999998815
  0
LINE
  8
_0-1_耐火帯
  6
CONTINUOUS
 62
    4
 10
343.93405808371597
 20
233.39999999998815
 11
343.93405808371597
 21
213.39999999998815
  0
LINE
  8
_0-1_耐火帯
  6
CONTINUOUS
 62
    4
 10
342.33405808371583
 20
213.39999999998815
 11
343.93405808371597
 21
213.39999999998815
  0
LINE
  8
_0-1_耐火帯
  6
CONTINUOUS
 62
    4
 10
342.33405808371583
 20
213.39999999998815
 11
339.43405808371597
 21
210.49999999998806
  0
LINE
  8
_0-1_耐火帯
  6
CONTINUOUS
 62
    4
 10
342.33405808371583
 20
213.39999999998815
 11
343.93405808371597
 21
213.39999999998815
  0
LINE
  8
_0-1_耐火帯
  6
CONTINUOUS
 62
    4
 10
343.93405808371597
 20
213.39999999998815
 11
343.93405808371597
 21
233.39999999998815
  0
LINE
  8
_0-1_耐火帯
  6
CONTINUOUS
 62
    4
 10
348.83405808371583
 20
213.39999999998815
 11
350.43405808371597
 21
213.39999999998815
  0
LINE
  8
_0-1_耐火帯
  6
CONTINUOUS
 62
    4
 10
350.43405808371597
 20
233.39999999998815
 11
348.83405808371583
 21
233.39999999998815
  0
LINE
  8
_0-1_耐火帯
  6
CONTINUOUS
 62
    4
 10
350.43405808371597
 20
213.39999999998815
 11
350.43405808371597
 21
233.39999999998815
  0
LINE
  8
_0-1_耐火帯
  6
CONTINUOUS
 62
    4
 10
348.83405808371583
 20
213.39999999998815
 11
348.83405808371583
 21
233.39999999998815
  0
LINE
  8
_0-1_耐火帯
  6
CONTINUOUS
 62
    4
 10
343.93405808371574
 20
213.39999999998815
 11
343.93405808371574
 21
233.39999999998815
  0
LINE
  8
_0-1_耐火帯
  6
CONTINUOUS
 62
    4
 10
342.33405808371583
 20
213.39999999998815
 11
343.93405808371574
 21
213.39999999998815
  0
LINE
  8
_0-1_耐火帯
  6
CONTINUOUS
 62
    4
 10
342.33405808371583
 20
213.39999999998815
 11
342.33405808371583
 21
233.57099599998799
  0
LINE
  8
_0-1_耐火帯
  6
CONTINUOUS
 62
    4
 10
342.33405808371583
 20
213.39999999998815
 11
343.93405808371574
 21
213.39999999998815
  0
LINE
  8
_0-1_耐火帯
  6
CONTINUOUS
 62
    4
 10
343.93405808371574
 20
213.39999999998815
 11
343.93405808371574
 21
233.39999999998815
  0
LINE
  8
_0-1_耐火帯
  6
CONTINUOUS
 62
    4
 10
343.93405808371597
 20
233.39999999998861
 11
343.93405808371597
 21
213.39999999998815
  0
LINE
  8
_0-1_耐火帯
  6
CONTINUOUS
 62
    4
 10
342.3340580837156
 20
213.39999999998815
 11
343.93405808371597
 21
213.39999999998815
  0
LINE
  8
_0-1_耐火帯
  6
CONTINUOUS
 62
    4
 10
342.3340580837156
 20
213.39999999998815
 11
343.93405808371551
 21
213.39999999998815
  0
LINE
  8
_0-1_耐火帯
  6
CONTINUOUS
 62
    4
 10
351.93405808371597
 20
280.39999999998861
 11
343.93405808371597
 21
233.39999999998861
  0
LINE
  8
_0-1_耐火帯
  6
CONTINUOUS
 62
    4
 10
343.93405808371597
 20
233.39999999998861
 11
343.93405808371597
 21
213.39999999998815
  0
LINE
  8
_0-1_耐火帯
  6
CONTINUOUS
 62
    4
 10
342.33405808371606
 20
213.39999999998815
 11
343.93405808371597
 21
213.39999999998815
  0
LINE
  8
_0-1_耐火帯
  6
CONTINUOUS
 62
    4
 10
549.93405808371597
 20
281.99999999998806
 11
549.93405808371597
 21
280.39999999998861
  0
LINE
  8
_0-1_耐火帯
  6
CONTINUOUS
 62
    4
 10
549.93405808371597
 20
280.39999999998861
 11
351.93405808371597
 21
280.39999999998861
  0
LINE
  8
_0-1_耐火帯
  6
DASHED1
 62
    4
 10
399.93405808371597
 20
281.99999999998806
 11
399.93405808371597
 21
280.39999999998861
  0
LINE
  8
_0-1_耐火帯
  6
DASHED1
 62
    4
 10
391.03405808371588
 20
281.99999999998806
 11
389.43405808371597
 21
280.39999999998861
  0
LINE
  8
_0-1_耐火帯
  6
DASHED1
 62
    4
 10
384.43405808371597
 20
280.39999999998861
 11
382.83405808371606
 21
281.99999999998806
  0
LINE
  8
_0-1_耐火帯
  6
DASHED1
 62
    4
 10
373.93405808371597
 20
281.99999999998806
 11
373.93405808371597
 21
280.39999999998861
  0
LINE
  8
_0-1_耐火帯
  6
DASHED1
 62
    4
 10
534.93405808371597
 20
281.99999999998806
 11
534.93405808371597
 21
280.39999999998861
  0
LINE
  8
_0-1_耐火帯
  6
DASHED1
 62
    4
 10
526.03405808371588
 20
281.99999999998806
 11
524.43405808371597
 21
280.39999999998861
  0
LINE
  8
_0-1_耐火帯
  6
DASHED1
 62
    4
 10
519.43405808371597
 20
280.39999999998861
 11
517.83405808371606
 21
281.99999999998806
  0
LINE
  8
_0-1_耐火帯
  6
DASHED1
 62
    4
 10
508.93405808371597
 20
281.99999999998806
 11
508.93405808371597
 21
280.39999999998861
  0
ARC
  8
_0-1_耐火帯
  6
CONTINUOUS
 62
    4
 10
251.93405808371597
 20
186.17499999998824
 40
87.5
 50
180
 51
0
  0
ARC
  8
_0-1_耐火帯
  6
CONTINUOUS
 62
    4
 10
251.93405808371597
 20
186.17499999998824
 40
100
 50
180
 51
0
  0
LINE
  8
_0-1_耐火帯
  6
CONTINUOUS
 62
    4
 10
339.43405808371597
 20
186.28749999998843
 11
339.43405808371597
 21
210.49999999998806
  0
LINE
  8
_0-1_耐火帯
  6
CONTINUOUS
 62
    4
 10
351.93405808371597
 20
186.17499999998824
 11
351.93405808371597
 21
209.17499999998824
  0
LINE
  8
_0-1_耐火帯
  6
CONTINUOUS
 62
    4
 10
350.58338609174177
 20
281.99999999998806
 11
342.33405808371606
 21
233.53519795283762
  0
LINE
  8
_0-1_耐火帯
  6
CONTINUOUS
 62
    4
 10
549.93405808371597
 20
281.99999999998806
 11
350.58338609174177
 21
281.99999999998806
  0
ARC
  8
_0-a_
  6
CONTINUOUS
 62
    3
 10
291.32598835424449
 20
255.36405097085151
 40
49.999999999999993
 50
312.0469510341137
 51
344.99999999999937
  0
ARC
  8
_0-a_
  6
CONTINUOUS
 62
    3
 10
290.4369559698797
 20
255.90984024798752
 40
49.999999999999993
 50
312.38460339327673
 51
344.99999999999881
  0
LINE
  8
_0-a_
  6
CONTINUOUS
 62
    3
 10
339.62227966869784
 20
242.42309871572468
 11
350.22687840674314
 21
281.99999999998875
  0
LINE
  8
_0-a_
  6
CONTINUOUS
 62
    3
 10
401.93405808371506
 20
281.99999999998875
 11
350.22687840674314
 21
281.99999999998875
  0
LINE
  8
_0-f_寸法
  6
CONTINUOUS
 62
    4
 10
178.53405803591102
 20
360.00000017044181
 11
178.53405803591102
 21
386.40000000000032
  0
LINE
  8
_0-f_寸法
  6
CONTINUOUS
 62
    4
 10
151.93405808371551
 20
366.40000000000032
 11
151.93405808371551
 21
386.40000000000032
  0
POINT
  8
_0-f_寸法
 62
    4
 10
151.93405808371551
 20
385.40000000000032
  0
POINT
  8
_0-f_寸法
 62
    4
 10
178.53405803591102
 20
385.40000000000032
  0
LINE
  8
_0-f_寸法
  6
CONTINUOUS
 62
    4
 10
151.93405808371551
 20
385.40000000000032
 11
178.53405803591102
 21
385.40000000000032
  0
TEXT
  8
_0-f_寸法
 62
    4
 10
158.03405805981328
 20
385.40000000000032
 40
9
 41
0.8
 50
0
  1
26.6
  0
LINE
  8
_0-f_寸法
  6
CONTINUOUS
 62
    4
 10
326.93405808371597
 20
311.49999999998886
 11
326.93405808371597
 21
386.40000000000032
  0
POINT
  8
_0-f_寸法
 62
    4
 10
178.53405803591102
 20
385.40000000000032
  0
POINT
  8
_0-f_寸法
 62
    4
 10
326.93405808371597
 20
385.40000000000032
  0
LINE
  8
_0-f_寸法
  6
CONTINUOUS
 62
    4
 10
178.53405803591102
 20
385.40000000000032
 11
326.93405808371597
 21
385.40000000000032
  0
TEXT
  8
_0-f_寸法
 62
    4
 10
243.73405805981349
 20
385.40000000000032
 40
9
 41
0.8
 50
0
  1
148.4
  0
LINE
  8
_0-f_寸法
  6
CONTINUOUS
 62
    4
 10
561.9340580837146
 20
315.49999999998886
 11
561.9340580837146
 21
386.40000000000032
  0
POINT
  8
_0-f_寸法
 62
    4
 10
326.93405808371597
 20
385.40000000000032
  0
POINT
  8
_0-f_寸法
 62
    4
 10
561.9340580837146
 20
385.40000000000032
  0
LINE
  8
_0-f_寸法
  6
CONTINUOUS
 62
    4
 10
326.93405808371597
 20
385.40000000000032
 11
561.9340580837146
 21
385.40000000000032
  0
TEXT
  8
_0-f_寸法
 62
    4
 10
439.03405808371508
 20
385.40000000000032
 40
9
 41
0.8
 50
0
  1
235
  0
LINE
  8
_0-f_寸法
  6
CONTINUOUS
 62
    4
 10
151.93405808371551
 20
386.40000000000032
 11
151.93405808371551
 21
406.40000000000032
  0
LINE
  8
_0-f_寸法
  6
CONTINUOUS
 62
    4
 10
561.9340580837146
 20
386.40000000000032
 11
561.9340580837146
 21
406.40000000000032
  0
POINT
  8
_0-f_寸法
 62
    4
 10
561.9340580837146
 20
405.40000000000032
  0
POINT
  8
_0-f_寸法
 62
    4
 10
151.93405808371551
 20
405.40000000000032
  0
LINE
  8
_0-f_寸法
  6
CONTINUOUS
 62
    4
 10
561.9340580837146
 20
405.40000000000032
 11
151.93405808371551
 21
405.40000000000032
  0
TEXT
  8
_0-f_寸法
 62
    4
 10
351.53405808371508
 20
405.40000000000032
 40
9
 41
0.8
 50
0
  1
410
  0
LINE
  8
_0-f_寸法
  6
CONTINUOUS
 62
    4
 10
179.53405803591102
 20
359.00000017044181
 11
604.57827134037268
 21
359.00000017044181
  0
LINE
  8
_0-f_寸法
  6
CONTINUOUS
 62
    4
 10
584.57827134037268
 20
313.99999999998886
 11
604.57827134037268
 21
313.99999999998886
  0
POINT
  8
_0-f_寸法
 62
    4
 10
603.57827134037268
 20
313.99999999998886
  0
POINT
  8
_0-f_寸法
 62
    4
 10
603.57827134037268
 20
359.00000017044181
  0
LINE
  8
_0-f_寸法
  6
CONTINUOUS
 62
    4
 10
603.57827134037268
 20
313.99999999998886
 11
603.57827134037268
 21
359.00000017044181
  0
TEXT
  8
_0-f_寸法
 62
    4
 10
603.57827134037268
 20
332.90000008521531
 40
9
 41
0.8
 50
90
  1
45
  0
INSERT
  2
-002-_2_
  8
_0-f_寸法
 10
420.5
 20
297
 41
1
 42
1
 50
0
  0
LINE
  8
_f-0_
  6
CONTINUOUS
 62
    6
 10
219.99999999999989
 20
554.00000000000011
 11
219.99999999999989
 21
534.00000000000023
  0
LINE
  8
_f-0_
  6
CONTINUOUS
 62
    6
 10
219.99999999999989
 20
534.00000000000023
 11
19.999999999999886
 21
534.00000000000023
  0
TEXT
  8
_f-0_
 62
    4
 10
46.807999999999879
 20
536.00000000000011
 40
16
 41
1
 50
0
  1
200TCK-A　耐火仕様
  0
LINE
  8
_0-9_小物
  6
CONTINUOUS
 62
    3
 10
110.33404888532402
 20
316.49999999999113
 11
107.83405557180083
 21
313.99999999999113
  0
LINE
  8
_0-9_小物
  6
CONTINUOUS
 62
    3
 10
107.83405557180083
 20
313.99999999999113
 11
110.05217368733099
 21
311.49999999999113
  0
INSERT
  2
-003-_3_
  8
_0-9_小物
 10
420.5
 20
297
 41
1
 42
1
 50
0
  0
LINE
  8
_0-9_小物
  6
CONTINUOUS
 62
    3
 10
110.33404888532402
 20
316.49999999999113
 11
112.99632673444978
 21
316.49999999999113
  0
LINE
  8
_0-9_小物
  6
CONTINUOUS
 62
    3
 10
110.05217368733099
 20
311.49999999999113
 11
112.99632673444955
 21
311.49999999999113
  0
INSERT
  2
-004-_4_
  8
_0-9_小物
 10
420.5
 20
297
 41
1
 42
1
 50
0
  0
LINE
  8
_0-9_小物
  6
CONTINUOUS
 62
    3
 10
384.43405808371415
 20
240.49999331351171
 11
386.93405808371415
 21
237.99999999998875
  0
LINE
  8
_0-9_小物
  6
CONTINUOUS
 62
    3
 10
386.93405808371415
 20
237.99999999998875
 11
389.43405808371415
 21
240.21811811551891
  0
LINE
  8
_0-9_小物
  6
CONTINUOUS
 62
    3
 10
384.43405808371415
 20
240.49999331351171
 11
384.43405808371415
 21
241.4622686507231
  0
LINE
  8
_0-9_小物
  6
CONTINUOUS
 62
    3
 10
389.43405808371415
 20
240.21811811551891
 11
389.43405808371415
 21
241.4622686507231
  0
INSERT
  2
-005-_5_
  8
_0-9_小物
 10
420.5
 20
297
 41
1
 42
1
 50
0
  0
LINE
  8
_0-9_小物
  6
CONTINUOUS
 62
    3
 10
519.43405808371415
 20
239.49999331351125
 11
521.93405808371415
 21
236.99999999998829
  0
LINE
  8
_0-9_小物
  6
CONTINUOUS
 62
    3
 10
521.93405808371415
 20
236.99999999998829
 11
524.43405808371415
 21
239.21811811551845
  0
LINE
  8
_0-9_小物
  6
CONTINUOUS
 62
    3
 10
519.43405808371415
 20
239.49999331351125
 11
519.43405808371415
 21
241.46226865072265
  0
LINE
  8
_0-9_小物
  6
CONTINUOUS
 62
    3
 10
524.43405808371415
 20
239.21811811551845
 11
524.43405808371415
 21
241.46226865072265
  0
CIRCLE
  8
_0-e_付箋
  6
CONTINUOUS
 62
    4
 10
405.60715348190467
 20
220.23684899606144
 40
4.8827102566353844
  0
LINE
  8
_0-e_付箋
  6
CONTINUOUS
 62
    4
 10
392.39466808371424
 20
244.62154499998849
 11
403.84428992359597
 21
224.79021824586323
  0
TEXT
  8
_0-e_付箋
 62
    4
 10
402.60715348190467
 20
217.23684899606144
 40
6
 41
1
 50
0
  1
10
  0
LINE
  8
_0-0_躯体
  6
CONTINUOUS
 62
    2
 10
351.93405808371597
 20
280.39999999998861
 11
351.93405808371597
 21
85.399999999999977
  0
LINE
  8
_0-0_躯体
  6
CONTINUOUS
 62
    2
 10
151.93405808371551
 20
365.40000000000032
 11
151.93405808371551
 21
85.399999999999977
  0
LINE
  8
_0-0_躯体
  6
CENTER1
 62
    2
 10
251.93405808371551
 20
280.39999999998861
 11
251.93405808371551
 21
85.399999999999977
  0
LINE
  8
_0-f_寸法
  6
CONTINUOUS
 62
    4
 10
351.93405808371597
 20
84.399999999999977
 11
351.93405808371597
 21
64.399999999999977
  0
LINE
  8
_0-f_寸法
  6
CONTINUOUS
 62
    4
 10
151.93405808371551
 20
84.399999999999977
 11
151.93405808371551
 21
64.399999999999977
  0
POINT
  8
_0-f_寸法
 62
    4
 10
151.93405808371551
 20
65.399999999999977
  0
POINT
  8
_0-f_寸法
 62
    4
 10
351.93405808371597
 20
65.399999999999977
  0
LINE
  8
_0-f_寸法
  6
CONTINUOUS
 62
    4
 10
151.93405808371551
 20
65.399999999999977
 11
351.93405808371597
 21
65.399999999999977
  0
TEXT
  8
_0-f_寸法
 62
    4
 10
246.53405808371573
 20
65.399999999999977
 40
9
 41
0.8
 50
0
  1
200
  0
LINE
  8
_0-f_寸法
  6
CONTINUOUS
 62
    4
 10
386.93405808371415
 20
236.99999999998875
 11
386.93405808371415
 21
64.399999999999977
  0
POINT
  8
_0-f_寸法
 62
    4
 10
351.93405808371597
 20
65.399999999999977
  0
POINT
  8
_0-f_寸法
 62
    4
 10
386.93405808371415
 20
65.399999999999977
  0
LINE
  8
_0-f_寸法
  6
CONTINUOUS
 62
    4
 10
351.93405808371597
 20
65.399999999999977
 11
386.93405808371415
 21
65.399999999999977
  0
TEXT
  8
_0-f_寸法
 62
    4
 10
365.83405808371504
 20
65.399999999999977
 40
9
 41
0.8
 50
0
  1
35
  0
LINE
  8
_0-f_寸法
  6
CONTINUOUS
 62
    4
 10
521.93405808371415
 20
235.99999999998829
 11
521.93405808371415
 21
64.399999999999977
  0
POINT
  8
_0-f_寸法
 62
    4
 10
386.93405808371415
 20
65.399999999999977
  0
POINT
  8
_0-f_寸法
 62
    4
 10
521.93405808371415
 20
65.399999999999977
  0
LINE
  8
_0-f_寸法
  6
CONTINUOUS
 62
    4
 10
386.93405808371415
 20
65.399999999999977
 11
521.93405808371415
 21
65.399999999999977
  0
TEXT
  8
_0-f_寸法
 62
    4
 10
449.03405808371417
 20
65.399999999999977
 40
9
 41
0.8
 50
0
  1
135
  0
LINE
  8
_0-f_寸法
  6
CONTINUOUS
 62
    4
 10
350.93405808371597
 20
280.39999999998861
 11
86.834055571800832
 21
280.39999999998861
  0
LINE
  8
_0-f_寸法
  6
CONTINUOUS
 62
    4
 10
106.83405557180083
 20
313.99999999999113
 11
86.834055571800832
 21
313.99999999999113
  0
POINT
  8
_0-f_寸法
 62
    4
 10
87.834055571800832
 20
313.99999999999113
  0
POINT
  8
_0-f_寸法
 62
    4
 10
87.834055571800832
 20
280.39999999998861
  0
LINE
  8
_0-f_寸法
  6
CONTINUOUS
 62
    4
 10
87.834055571800832
 20
313.99999999999113
 11
87.834055571800832
 21
280.39999999998861
  0
TEXT
  8
_0-f_寸法
 62
    4
 10
87.834055571800832
 20
289.99999999998994
 40
9
 41
0.8
 50
90
  1
33.6
  0
TEXT
  8
_0-f_寸法
 62
    4
 10
658.06999999999994
 20
153.50000000000011
 40
8
 41
0.8662499999999999
 50
0
  1
※
  0
TEXT
  8
_0-e_付箋
 62
    4
 10
271.12501033884234
 20
77.053391138229358
 40
6
 41
1
 50
0
  1
耐火帯
  0
LINE
  8
_0-e_付箋
  6
CONTINUOUS
 62
    4
 10
271.12501033884234
 20
77.053391138229358
 11
289.12501033884234
 21
77.053391138229358
  0
LINE
  8
_0-e_付箋
  6
CONTINUOUS
 62
    4
 10
264.87501033884234
 20
87.878708685534889
 11
271.12501033884234
 21
77.053391138229358
  0
LINE
  8
_0-a_
  6
CONTINUOUS
 62
    3
 10
338.73324728433306
 20
242.96888799286069
 11
349.45955141876345
 21
282.99999999998875
  0
LINE
  8
_0-1_耐火帯
  6
CONTINUOUS
 62
    4
 10
161.5340580837161
 20
230.89999999998906
 11
163.5340580837161
 21
230.89999999998906
  0
ARC
  8
_0-1_耐火帯
  6
CONTINUOUS
 62
    4
 10
163.5340580837161
 20
231.89999999998906
 40
1
 50
270
 51
0
  0
LINE
  8
_0-1_耐火帯
  6
CONTINUOUS
 62
    4
 10
164.5340580837161
 20
231.89999999998906
 11
164.5340580837161
 21
234.89999999998906
  0
ARC
  8
_0-1_耐火帯
  6
CONTINUOUS
 62
    4
 10
163.5340580837161
 20
234.89999999998906
 40
1
 50
0
 51
90
  0
LINE
  8
_0-1_耐火帯
  6
CONTINUOUS
 62
    4
 10
163.5340580837161
 20
235.89999999998906
 11
161.5340580837161
 21
235.89999999998906
  0
ARC
  8
_0-1_耐火帯
  6
CONTINUOUS
 62
    4
 10
153.43405808371597
 20
235.39999999998906
 40
1
 50
90
 51
180
  0
LINE
  8
_0-1_耐火帯
  6
CONTINUOUS
 62
    4
 10
152.43405808371597
 20
235.39999999998906
 11
152.43405808371597
 21
231.39999999998906
  0
ARC
  8
_0-1_耐火帯
  6
CONTINUOUS
 62
    4
 10
153.43405808371597
 20
231.39999999998906
 40
1
 50
180
 51
270
  0
LINE
  8
_0-1_耐火帯
  6
CONTINUOUS
 62
    4
 10
151.93405808371597
 20
219.17499999998915
 11
155.0340580837161
 21
222.27499999998906
  0
ARC
  8
_0-1_耐火帯
  6
CONTINUOUS
 62
    4
 10
154.93405808371597
 20
247.48908399998879
 40
3
 50
180
 51
239.19386900000043
  0
LINE
  8
_0-1_耐火帯
  6
CONTINUOUS
 62
    4
 10
153.39765408371602
 20
244.91236999998898
 11
155.0340580837161
 21
243.9366379999891
  0
LINE
  8
_0-1_耐火帯
  6
CONTINUOUS
 62
    4
 10
155.0340580837161
 20
243.9366379999891
 11
155.0340580837161
 21
222.27499999998906
  0
ARC
  8
_0-1_耐火帯
  6
CONTINUOUS
 62
    4
 10
154.93405808371597
 20
249.52538022288888
 40
3
 50
105.12400699999459
 51
180
  0
LINE
  8
_0-1_耐火帯
  6
CONTINUOUS
 62
    4
 10
157.77189592151615
 20
253.39999999998906
 11
154.15133008371606
 21
252.42147022288907
  0
LINE
  8
_0-1_耐火帯
  6
CONTINUOUS
 62
    4
 10
151.93405808371597
 20
249.52538022288888
 11
151.93405808371597
 21
247.48908399998879
  0
LINE
  8
_0-1_耐火帯
  6
CONTINUOUS
 62
    4
 10
157.77189592151615
 20
253.39999999998906
 11
159.93405808371597
 21
243.39999999998906
  0
LINE
  8
_0-1_耐火帯
  6
CONTINUOUS
 62
    4
 10
159.93405808371597
 20
243.39999999998906
 11
159.93405808371597
 21
223.39999999998906
  0
LINE
  8
_0-1_耐火帯
  6
CONTINUOUS
 62
    4
 10
161.5340580837161
 20
223.39999999998906
 11
159.93405808371597
 21
223.39999999998906
  0
LINE
  8
_0-1_耐火帯
  6
CONTINUOUS
 62
    4
 10
161.5340580837161
 20
223.39999999998906
 11
164.43405808371597
 21
220.49999999998897
  0
LINE
  8
_0-1_耐火帯
  6
CONTINUOUS
 62
    4
 10
161.5340580837161
 20
243.39999999998906
 11
161.5340580837161
 21
223.39999999998906
  0
LINE
  8
_0-1_耐火帯
  6
CONTINUOUS
 62
    4
 10
159.93405808371597
 20
243.39999999998906
 11
159.93405808371597
 21
223.39999999998906
  0
LINE
  8
_0-1_耐火帯
  6
CONTINUOUS
 62
    4
 10
161.5340580837161
 20
223.39999999998906
 11
159.93405808371597
 21
223.39999999998906
  0
LINE
  8
_0-1_耐火帯
  6
CONTINUOUS
 62
    4
 10
155.0340580837161
 20
223.39999999998906
 11
153.43405808371597
 21
223.39999999998906
  0
LINE
  8
_0-1_耐火帯
  6
CONTINUOUS
 62
    4
 10
153.43405808371597
 20
243.39999999998906
 11
155.0340580837161
 21
243.39999999998906
  0
LINE
  8
_0-1_耐火帯
  6
CONTINUOUS
 62
    4
 10
153.43405808371597
 20
223.39999999998906
 11
153.43405808371597
 21
243.39999999998906
  0
LINE
  8
_0-1_耐火帯
  6
CONTINUOUS
 62
    4
 10
155.0340580837161
 20
223.39999999998906
 11
155.0340580837161
 21
243.39999999998906
  0
LINE
  8
_0-1_耐火帯
  6
CONTINUOUS
 62
    4
 10
161.5340580837161
 20
223.39999999998906
 11
159.9340580837162
 21
223.39999999998906
  0
LINE
  8
_0-1_耐火帯
  6
CONTINUOUS
 62
    4
 10
161.53405808371633
 20
223.39999999998906
 11
159.93405808371597
 21
223.39999999998906
  0
LINE
  8
_0-1_耐火帯
  6
CONTINUOUS
 62
    4
 10
159.93405808371597
 20
243.39999999998952
 11
159.93405808371597
 21
223.39999999998952
  0
LINE
  8
_0-1_耐火帯
  6
CONTINUOUS
 62
    4
 10
161.53405808371588
 20
243.53519795283808
 11
161.53405808371588
 21
223.39999999998952
  0
LINE
  8
_0-1_耐火帯
  6
CONTINUOUS
 62
    4
 10
161.53405808371588
 20
223.39999999998952
 11
159.93405808371597
 21
223.39999999998952
  0
LINE
  8
_0-1_耐火帯
  6
CONTINUOUS
 62
    4
 10
159.93405808371597
 20
223.39999999998906
 11
161.53405808371588
 21
223.39999999998906
  0
LINE
  8
_0-1_耐火帯
  6
CONTINUOUS
 62
    4
 10
159.93405808371597
 20
243.39999999998906
 11
159.93405808371597
 21
223.39999999998906
  0
LINE
  8
_0-1_耐火帯
  6
CONTINUOUS
 62
    4
 10
161.53405808371588
 20
243.39999999998906
 11
161.53405808371588
 21
223.39999999998906
  0
LINE
  8
_0-1_耐火帯
  6
CONTINUOUS
 62
    4
 10
161.53405808371588
 20
243.39999999998906
 11
153.53405808371588
 21
280.39999999998906
  0
LINE
  8
_0-1_耐火帯
  6
CONTINUOUS
 62
    4
 10
151.93405808371597
 20
280.39999999998906
 11
159.93405808371597
 21
243.39999999998906
  0
LINE
  8
_0-1_耐火帯
  6
CONTINUOUS
 62
    4
 10
151.93405808371597
 20
330.39999999998906
 11
151.93405808371597
 21
280.39999999998906
  0
LINE
  8
_0-1_耐火帯
  6
CONTINUOUS
 62
    4
 10
153.53405808371588
 20
330.39999999998906
 11
153.53405808371588
 21
280.39999999998906
  0
LINE
  8
_0-1_耐火帯
  6
CONTINUOUS
 62
    4
 10
151.93405808371597
 20
330.39999999998906
 11
153.53405808371588
 21
330.39999999998906
  0
LINE
  8
_0-1_耐火帯
  6
DASHED1
 62
    4
 10
151.93405808371597
 20
304.39999999998906
 11
153.53405808371588
 21
304.39999999998906
  0
LINE
  8
_0-1_耐火帯
  6
DASHED1
 62
    4
 10
151.93405808371597
 20
319.49999999998897
 11
153.53405808371588
 21
321.09999999998888
  0
LINE
  8
_0-1_耐火帯
  6
DASHED1
 62
    4
 10
151.93405808371597
 20
314.49999999998897
 11
153.53405808371588
 21
312.89999999998906
  0
LINE
  8
_0-1_耐火帯
  6
CONTINUOUS
 62
    4
 10
164.43405808371597
 20
186.17499999998824
 11
164.43405808371597
 21
220.49999999998897
  0
LINE
  8
_0-1_耐火帯
  6
CONTINUOUS
 62
    4
 10
151.93405808371597
 20
186.17499999998824
 11
151.93405808371597
 21
219.17499999998915
  0
LINE
  8
_0-a_
  6
CONTINUOUS
 62
    3
 10
153.53405808371542
 20
280.39999999998861
 11
153.53405808371542
 21
340.49999999998886
  0
ARC
  8
_0-a_
  6
CONTINUOUS
 62
    3
 10
212.54212781318654
 20
255.36405097085151
 40
49.999999999999993
 50
195.00000000000065
 51
227.95304896588627
  0
ARC
  8
_0-a_
  6
CONTINUOUS
 62
    3
 10
213.43116019755132
 20
255.90984024798752
 40
49.999999999999993
 50
195.00000000000119
 51
227.61539660672329
  0
LINE
  8
_0-a_
  6
CONTINUOUS
 62
    3
 10
154.53405809278763
 20
286.13165246373717
 11
154.53405809278763
 21
282.531652463721
  0
LINE
  8
_0-a_
  6
CONTINUOUS
 62
    3
 10
165.13486888309797
 20
242.96888799286069
 11
154.53405809278763
 21
282.531652463721
  0
LINE
  8
_0-a_
  6
CONTINUOUS
 62
    3
 10
153.53405808371542
 20
282.39999999998884
 11
153.53405808371542
 21
285.1225573567009
  0
LINE
  8
_0-a_
  6
CONTINUOUS
 62
    3
 10
164.24583649873318
 20
242.42309871572468
 11
153.53405808371542
 21
282.39999999998884
  0
ARC
  8
_0-a_
  6
CONTINUOUS
 62
    3
 10
251.93405808371551
 20
299.0411917762226
 40
108.81680711642235
 50
227.95304896588624
 51
312.0469510341137
  0
ARC
  8
_0-a_
  6
CONTINUOUS
 62
    3
 10
251.93405808371551
 20
299.0411917762226
 40
107.81521784283628
 50
227.95304896588641
 51
312.04695103411353
  0
TEXT
  8
_0-f_寸法
 62
    4
 10
669.99999999999989
 20
153.50000000000011
 40
8
 41
0.8662499999999999
 50
0
  1
耐火帯：耐火帯TCK-33
  0
LINE
  8
_0-f_寸法
  6
CONTINUOUS
 62
    4
 10
554.93405808371597
 20
280.39999999998861
 11
614.93405808371597
 21
280.39999999998861
  0
LINE
  8
_0-f_寸法
  6
CONTINUOUS
 62
    4
 10
594.93405808371597
 20
310.99999999998863
 11
614.93405808371597
 21
310.99999999998863
  0
POINT
  8
_0-f_寸法
 62
    4
 10
613.93405808371597
 20
310.99999999998863
  0
POINT
  8
_0-f_寸法
 62
    4
 10
613.93405808371597
 20
280.39999999998861
  0
LINE
  8
_0-f_寸法
  6
CONTINUOUS
 62
    4
 10
613.93405808371597
 20
310.99999999998863
 11
613.93405808371597
 21
280.39999999998861
  0
TEXT
  8
_0-f_寸法
 62
    4
 10
613.93405808371597
 20
288.49999999998852
 40
9
 41
0.8
 50
90
  1
30.6
  0
TEXT
  8
_f-0_
 62
    4
 10
806.87199999999984
 20
594.00000000000011
 40
16
 41
1
 50
0
  1
A1版
  0
ENDSEC
  0
EOF
