  0
SECTION
  2
HEADER
  9
$ACADVER
  1
AC1009
  9
$INSBASE
 10
0
 20
0
 30
0
  9
$EXTMIN
 10
0
 20
0
  9
$EXTMAX
 10
841
 20
594
  9
$LIMMIN
 10
0
 20
0
  9
$LIMMAX
 10
841
 20
594
  9
$LTSCALE
 40
1
  0
ENDSEC
  0
SECTION
  2
TABLES
  0
TABLE
  2
LTYPE
 70
     9
  0
LTYPE
  2
CONTINUOUS
 70
    64
  3
実線
 72
    65
 73
     0
 40
0.0
  0
LTYPE
  2
DASHED1
 70
    64
  3
--  --  --  --  --  --  --  --  
 72
    65
 73
     2
 40
2.5
 49
1.25
 49
-1.25
  0
LTYPE
  2
DASHED2
 70
    64
  3
----    ----    ----    ----    
 72
    65
 73
     2
 40
5.0
 49
2.5
 49
-2.5
  0
LTYPE
  2
DASHED3
 70
    64
  3
------  ------  ------  ------  
 72
    65
 73
     2
 40
5.0
 49
3.75
 49
-1.25
  0
LTYPE
  2
CENTER1
 70
    64
  3
----- - ----- - ----- - ----- - 
 72
    65
 73
     4
 40
10.0
 49
6.25
 49
-1.25
 49
1.25
 49
-1.25
  0
LTYPE
  2
CENTER2
 70
    64
  3
----------  --  ----------  --  
 72
    65
 73
     4
 40
20.0
 49
12.5
 49
-2.5
 49
2.5
 49
-2.5
  0
LTYPE
  2
PHANTOM1
 70
    64
  3
--- - - --- - - --- - - --- - - 
 72
    65
 73
     6
 40
10.0
 49
3.25
 49
-1.25
 49
1.25
 49
-1.25
 49
1.25
 49
-1.25
  0
LTYPE
  2
PHANTOM2
 70
    64
  3
--------  -  -  --------  -  -  
 72
    65
 73
     6
 40
20.0
 49
10.0
 49
-2.5
 49
1.25
 49
-2.5
 49
1.25
 49
-2.5
  0
LTYPE
  2
DOT
 70
    64
  3
-   -   -   -   -   -   -   -   
 72
    65
 73
     2
 40
2.5
 49
0.625
 49
-1.875
  0
LTYPE
  2
DUMMY
 70
    64
  3
ダミー
 72
    65
 73
     0
 40
0.0
  0
LTYPE
  2
RAND1
 70
    64
  3
ランダム線1
 72
    65
 73
     4
 40
10.0
 49
1.0
 49
-2.0
 49
3.0
 49
-4.0
  0
LTYPE
  2
RAND2
 70
    64
  3
ランダム線2
 72
    65
 73
     4
 40
14.0
 49
2.0
 49
-3.0
 49
4.0
 49
-5.0
  0
LTYPE
  2
RAND3
 70
    64
  3
ランダム線3
 72
    65
 73
     4
 40
18.0
 49
3.0
 49
-4.0
 49
5.0
 49
-6.0
  0
LTYPE
  2
RAND4
 70
    64
  3
ランダム線4
 72
    65
 73
     4
 40
22.0
 49
4.0
 49
-5.0
 49
6.0
 49
-7.0
  0
LTYPE
  2
RAND5
 70
    64
  3
ランダム線5
 72
    65
 73
     4
 40
26.0
 49
5.0
 49
-6.0
 49
7.0
 49
-8.0
  0
LTYPE
  2
LONG1
 70
    64
  3
----------  --  ----------  --  
 72
    65
 73
     4
 40
40.0
 49
32.5
 49
-2.5
 49
2.5
 49
-2.5
  0
LTYPE
  2
LONG2
 70
    64
  3
--------  -  -  --------  -  -  
 72
    65
 73
     6
 40
40.0
 49
30.0
 49
-2.5
 49
1.25
 49
-2.5
 49
1.25
 49
-2.5
  0
LTYPE
  2
LONG3
 70
    64
  3
+++++++++++++++..+++++++++++++++
 72
    65
 73
     2
 40
40.0
 49
37.5
 49
-2.5
  0
LTYPE
  2
LONG4
 70
    64
  3
+++++++++++++++..+++++++++++++++
 72
    65
 73
     2
 40
80.0
 49
75.0
 49
-5.0
  0
LTYPE
  2
LONG5
 70
    64
  3
----------  --  ----------  --  
 72
    65
 73
     4
 40
60.0
 49
37.5
 49
-7.5
 49
7.5
 49
-7.5
  0
LTYPE
  2
dashed
 70
   64
  3
-------   -------------   ------
 72
   65
 73
    2
 40
7.5
 49
6
 49
-1.5
  0
LTYPE
  2
dashed_spaced
 70
   64
  3
----        --------        ----
 72
   65
 73
    2
 40
12
 49
6
 49
-6
  0
LTYPE
  2
long_dashed_dotted
 70
   64
  3
------------- --- --------------
 72
   65
 73
    4
 40
15.25
 49
12
 49
-1.5
 49
0.25
 49
-1.5
  0
LTYPE
  2
long_dashed_double-dotted
 70
   64
  3
----------- --- --- ------------
 72
   65
 73
    6
 40
17
 49
12
 49
-1.5
 49
0.25
 49
-1.5
 49
0.25
 49
-1.5
  0
LTYPE
  2
long_dashed_triplicate-dotted
 70
   64
  3
--------- --- --- --- ----------
 72
   65
 73
    8
 40
18.75
 49
12
 49
-1.5
 49
0.25
 49
-1.5
 49
0.25
 49
-1.5
 49
0.25
 49
-1.5
  0
LTYPE
  2
dotted
 70
   64
  3
   -       -       -       -    
 72
   65
 73
    2
 40
1.75
 49
0.25
 49
-1.5
  0
LTYPE
  2
chain
 70
   64
  3
-------------- -- --------------
 72
   65
 73
    4
 40
18.5
 49
12
 49
-1.5
 49
3.5
 49
-1.5
  0
LTYPE
  2
chain_double_dash
 70
   64
  3
------------ -- -- -------------
 72
   65
 73
    6
 40
23.5
 49
12
 49
-1.5
 49
3.5
 49
-1.5
 49
3.5
 49
-1.5
  0
LTYPE
  2
dashed_dotted
 70
   64
  3
-----------     -     ----------
 72
   65
 73
    4
 40
9.25
 49
6
 49
-1.5
 49
0.25
 49
-1.5
  0
LTYPE
  2
double-dashed_dotted
 70
   64
  3
------   -----------   -   -----
 72
   65
 73
    6
 40
16.75
 49
6
 49
-1.5
 49
6
 49
-1.5
 49
0.25
 49
-1.5
  0
LTYPE
  2
dashed_double-dotted
 70
   64
  3
---------    -    -    ---------
 72
   65
 73
    6
 40
11
 49
6
 49
-1.5
 49
0.25
 49
-1.5
 49
0.25
 49
-1.5
  0
LTYPE
  2
double-dashed_double-dotted
 70
   64
  3
-----   ---------   -   -   ----
 72
   65
 73
    8
 40
18.5
 49
6
 49
-1.5
 49
6
 49
-1.5
 49
0.25
 49
-1.5
 49
0.25
 49
-1.5
  0
LTYPE
  2
dashed_triplicate-dotted
 70
   64
  3
-------    -    -    -    ------
 72
   65
 73
    8
 40
12.75
 49
6
 49
-1.5
 49
0.25
 49
-1.5
 49
0.25
 49
-1.5
 49
0.25
 49
-1.5
  0
LTYPE
  2
double-dashed_triplicate-dotted
 70
   64
  3
-----  ---------  -  -  -  -----
 72
   65
 73
   10
 40
20.25
 49
6
 49
-1.5
 49
6
 49
-1.5
 49
0.25
 49
-1.5
 49
0.25
 49
-1.5
 49
0.25
 49
-1.5
  0
LTYPE
  2
undefined
 70
   64
  3
--------------------------------
 72
   65
 73
    0
 40
0
  0
ENDTAB
  0
TABLE
  2
STYLE
  5
3
100
AcDbSymbolTable
 70
     1
  0
STYLE
  5
10
100
AcDbSymbolTableRecord
100
AcDbTextStyleTableRecord
  2
STANDARD
 70
     0
 40
0.0
 41
1.0
 50
0.0
 71
     0
 42
0.2
  3
txt
  4
bigfont.shx
  0
STYLE
  5
26
100
AcDbSymbolTableRecord
100
AcDbTextStyleTableRecord
  2
TATEGAKI
 70
    68
 40
0.0
 41
1.0
 50
0.0
 71
     0
 42
1.0
  3
txt
  4
bigfont.shx
  0
ENDTAB
  0
TABLE
  2
LAYER
 70
   11
  0
LAYER
  2
_0-0_躯体
 70
   64
 62
    7
  6
CONTINUOUS
  0
LAYER
  2
_0-1_耐火帯
 70
   64
 62
    7
  6
CONTINUOUS
  0
LAYER
  2
_0-9_小物
 70
   64
 62
    7
  6
CONTINUOUS
  0
LAYER
  2
_0-a_
 70
   64
 62
    7
  6
CONTINUOUS
  0
LAYER
  2
_0-e_付箋
 70
   64
 62
    7
  6
CONTINUOUS
  0
LAYER
  2
_0-f_寸法
 70
   64
 62
    7
  6
CONTINUOUS
  0
LAYER
  2
_1-0_
 70
   64
 62
    7
  6
CONTINUOUS
  0
LAYER
  2
_1-e_
 70
   64
 62
    7
  6
CONTINUOUS
  0
LAYER
  2
_1-f_
 70
   64
 62
    7
  6
CONTINUOUS
  0
LAYER
  2
_f-0_
 70
   64
 62
    7
  6
CONTINUOUS
  0
LAYER
  2
ADD_LINE
 70
   64
 62
    7
  6
CONTINUOUS
  0
ENDTAB
  0
ENDSEC
  0
SECTION
  2
BLOCKS
  0
BLOCK
  2
-000-
 70
   64
 10
0
 20
0
 30
0
  0
LINE
  8
_0-9_小物
  6
CONTINUOUS
 62
    3
 10
-251.43377500000125
 20
-13.404489999988414
 11
-253.37869500000161
 21
-14.507794999988505
  0
LINE
  8
_0-9_小物
  6
CONTINUOUS
 62
    3
 10
-253.37869500000161
 20
-14.507794999988505
 11
-253.2740250000019
 21
-16.505054999988602
  0
LINE
  8
_0-9_小物
  6
CONTINUOUS
 62
    3
 10
-253.2740250000019
 20
-16.505054999988602
 11
-251.27676500000135
 21
-16.400379999988559
  0
LINE
  8
_0-9_小物
  6
CONTINUOUS
 62
    3
 10
-251.53844500000142
 20
-11.407234999988646
 11
-251.43377500000125
 21
-13.404489999988414
  0
LINE
  8
_0-9_小物
  6
CONTINUOUS
 62
    3
 10
-253.64037500000168
 20
-9.5146449999887182
 11
-253.53570500000151
 21
-11.511904999988815
  0
LINE
  8
_0-9_小物
  6
CONTINUOUS
 62
    3
 10
-253.53570500000151
 20
-11.511904999988815
 11
-251.53844500000142
 21
-11.407234999988646
  0
LINE
  8
_0-9_小物
  6
CONTINUOUS
 62
    3
 10
-251.90000000000182
 20
-8.5999999999884267
 11
-253.64037500000168
 21
-9.5146449999887182
  0
LINE
  8
_0-9_小物
  6
CONTINUOUS
 62
    3
 10
-260.36622500000055
 20
-13.404489999988414
 11
-258.4213050000011
 21
-14.507794999988505
  0
LINE
  8
_0-9_小物
  6
CONTINUOUS
 62
    3
 10
-258.4213050000011
 20
-14.507794999988505
 11
-258.52597500000172
 21
-16.505054999988602
  0
LINE
  8
_0-9_小物
  6
CONTINUOUS
 62
    3
 10
-258.52597500000172
 20
-16.505054999988602
 11
-260.52323500000182
 21
-16.400379999988559
  0
LINE
  8
_0-9_小物
  6
CONTINUOUS
 62
    3
 10
-260.2615550000022
 20
-11.407234999988646
 11
-260.36622500000055
 21
-13.404489999988414
  0
LINE
  8
_0-9_小物
  6
CONTINUOUS
 62
    3
 10
-258.15962500000148
 20
-9.5146449999887182
 11
-258.26429500000211
 21
-11.511904999988815
  0
LINE
  8
_0-9_小物
  6
CONTINUOUS
 62
    3
 10
-258.26429500000211
 20
-11.511904999988815
 11
-260.2615550000022
 21
-11.407234999988646
  0
LINE
  8
_0-9_小物
  6
CONTINUOUS
 62
    3
 10
-259.90000000000089
 20
-8.5999999999884267
 11
-258.15962500000148
 21
-9.5146449999887182
  0
LINE
  8
_0-9_小物
  6
CONTINUOUS
 62
    3
 10
-251.27676500000135
 20
-16.400379999988559
 11
-249.58140000000222
 21
-11.742399999989061
  0
LINE
  8
_0-9_小物
  6
CONTINUOUS
 62
    3
 10
-252.3409450000012
 20
-16.400379999988559
 11
-250.52109000000101
 21
-11.400379999988559
  0
LINE
  8
_0-9_小物
  6
CONTINUOUS
 62
    3
 10
-260.52323500000182
 20
-16.400379999988559
 11
-262.2186000000014
 21
-11.742399999989061
  0
LINE
  8
_0-9_小物
  6
CONTINUOUS
 62
    3
 10
-259.45905500000242
 20
-16.400379999988559
 11
-261.27891000000216
 21
-11.400379999988559
  0
LINE
  8
_0-9_小物
  6
CONTINUOUS
 62
    3
 10
-251.90000000000182
 20
-8.5999999999884267
 11
-251.90000000000182
 21
-4.5999999999888814
  0
LINE
  8
_0-9_小物
  6
CONTINUOUS
 62
    3
 10
-259.90000000000089
 20
-8.5999999999884267
 11
-259.90000000000089
 21
-4.5999999999888814
  0
LINE
  8
_0-9_小物
  6
CONTINUOUS
 62
    3
 10
-262.2186000000014
 20
-11.742399999989061
 11
-263.21095500000172
 21
-4.9387799999880144
  0
ARC
  8
_0-9_小物
  6
CONTINUOUS
 62
    3
 10
-262.81514500000173
 20
-4.8810449999881484
 40
0.4
 50
98.130101999958413
 51
188.2984660000358
  0
LINE
  8
_0-9_小物
  6
CONTINUOUS
 62
    3
 10
-262.87171500000238
 20
-4.4850649999883672
 11
-262.67489000000148
 21
-4.4569499999882964
  0
ARC
  8
_0-9_小物
  6
CONTINUOUS
 62
    3
 10
-262.61832000000038
 20
-4.8529299999885325
 40
0.4
 50
8.1301020000240456
 51
98.130102000220958
  0
LINE
  8
_0-9_小物
  6
CONTINUOUS
 62
    3
 10
-262.22234000000151
 20
-4.7963599999887947
 11
-261.27891000000216
 21
-11.400379999988559
  0
LINE
  8
_0-9_小物
  6
CONTINUOUS
 62
    3
 10
-249.58140000000222
 20
-11.742399999989061
 11
-248.5890450000019
 21
-4.9387799999880144
  0
ARC
  8
_0-9_小物
  6
CONTINUOUS
 62
    3
 10
-248.98485500000143
 20
-4.8810449999881484
 40
0.4
 50
351.70153399995553
 51
81.869898000041587
  0
LINE
  8
_0-9_小物
  6
CONTINUOUS
 62
    3
 10
-248.92829000000202
 20
-4.4850649999883672
 11
-249.12511000000168
 21
-4.4569499999882964
  0
ARC
  8
_0-9_小物
  6
CONTINUOUS
 62
    3
 10
-249.18168000000097
 20
-4.8529299999885325
 40
0.4
 50
81.869898000041587
 51
171.86989800000879
  0
LINE
  8
_0-9_小物
  6
CONTINUOUS
 62
    3
 10
-249.57766000000166
 20
-4.7963599999887947
 11
-250.52109000000101
 21
-11.400379999988559
  0
LINE
  8
_0-9_小物
  6
CONTINUOUS
 62
    3
 10
-249.58140000000222
 20
-11.742399999989061
 11
-248.5890450000019
 21
-4.9387799999880144
  0
ARC
  8
_0-9_小物
  6
CONTINUOUS
 62
    3
 10
-248.98485500000143
 20
-4.8810449999881484
 40
0.4
 50
351.70153399995553
 51
81.869898000041587
  0
LINE
  8
_0-9_小物
  6
CONTINUOUS
 62
    3
 10
-248.92829000000202
 20
-4.4850649999883672
 11
-249.12511000000168
 21
-4.4569499999882964
  0
ARC
  8
_0-9_小物
  6
CONTINUOUS
 62
    3
 10
-249.18168000000097
 20
-4.8529299999885325
 40
0.4
 50
81.869898000041587
 51
171.86989800000879
  0
LINE
  8
_0-9_小物
  6
CONTINUOUS
 62
    3
 10
-249.57766000000166
 20
-4.7963599999887947
 11
-250.52109000000101
 21
-11.400379999988559
  0
LINE
  8
_0-9_小物
  6
CONTINUOUS
 62
    3
 10
-251.90000000000182
 20
3.4000000000115733
 11
-251.90000000000182
 21
-4.5999999999888814
  0
LINE
  8
_0-9_小物
  6
CONTINUOUS
 62
    3
 10
-255.40000000000092
 20
-4.5999999999888814
 11
-255.90000000000092
 21
-4.5999999999888814
  0
LINE
  8
_0-9_小物
  6
CONTINUOUS
 62
    3
 10
-259.90000000000089
 20
3.4000000000115733
 11
-259.90000000000089
 21
-4.5999999999888814
  0
LINE
  8
_0-9_小物
  6
CONTINUOUS
 62
    3
 10
-256.4000000000018
 20
-4.5999999999888814
 11
-255.90000000000092
 21
-4.5999999999888814
  0
LINE
  8
_0-9_小物
  6
CONTINUOUS
 62
    3
 10
-250.49172500000114
 20
-31.3798249999885
 11
-250.38705500000233
 21
-33.377084999988597
  0
LINE
  8
_0-9_小物
  6
CONTINUOUS
 62
    3
 10
-250.64873500000195
 20
-28.38393499998881
 11
-252.59365500000186
 21
-29.487234999988573
  0
LINE
  8
_0-9_小物
  6
CONTINUOUS
 62
    3
 10
-252.59365500000186
 20
-29.487234999988573
 11
-252.48898500000078
 21
-31.484494999988669
  0
LINE
  8
_0-9_小物
  6
CONTINUOUS
 62
    3
 10
-252.48898500000078
 20
-31.484494999988669
 11
-250.49172500000114
 21
-31.3798249999885
  0
LINE
  8
_0-9_小物
  6
CONTINUOUS
 62
    3
 10
-250.75340500000166
 20
-26.386674999988259
 11
-250.64873500000195
 21
-28.38393499998881
  0
LINE
  8
_0-9_小物
  6
CONTINUOUS
 62
    3
 10
-250.91041500000156
 20
-23.390789999987987
 11
-252.85533500000238
 21
-24.494089999989114
  0
LINE
  8
_0-9_小物
  6
CONTINUOUS
 62
    3
 10
-252.85533500000238
 20
-24.494089999989114
 11
-252.75066500000176
 21
-26.491349999988302
  0
LINE
  8
_0-9_小物
  6
CONTINUOUS
 62
    3
 10
-252.75066500000176
 20
-26.491349999988302
 11
-250.75340500000166
 21
-26.386674999988259
  0
LINE
  8
_0-9_小物
  6
CONTINUOUS
 62
    3
 10
-251.01508500000173
 20
-21.393529999988345
 11
-250.91041500000156
 21
-23.390789999987987
  0
LINE
  8
_0-9_小物
  6
CONTINUOUS
 62
    3
 10
-251.17209500000118
 20
-18.39763999998911
 11
-253.11701500000109
 21
-19.500939999988418
  0
LINE
  8
_0-9_小物
  6
CONTINUOUS
 62
    3
 10
-253.11701500000109
 20
-19.500939999988418
 11
-253.01234500000228
 21
-21.49819999998806
  0
LINE
  8
_0-9_小物
  6
CONTINUOUS
 62
    3
 10
-253.01234500000228
 20
-21.49819999998806
 11
-251.01508500000173
 21
-21.393529999988345
  0
LINE
  8
_0-9_小物
  6
CONTINUOUS
 62
    3
 10
-251.27676500000135
 20
-16.400379999988559
 11
-251.17209500000118
 21
-18.39763999998911
  0
LINE
  8
_0-9_小物
  6
CONTINUOUS
 62
    3
 10
-261.30827500000157
 20
-31.3798249999885
 11
-261.41294500000129
 21
-33.377084999988597
  0
LINE
  8
_0-9_小物
  6
CONTINUOUS
 62
    3
 10
-261.15126500000167
 20
-28.38393499998881
 11
-259.20634500000131
 21
-29.487234999988573
  0
LINE
  8
_0-9_小物
  6
CONTINUOUS
 62
    3
 10
-259.20634500000131
 20
-29.487234999988573
 11
-259.31101500000239
 21
-31.484494999988669
  0
LINE
  8
_0-9_小物
  6
CONTINUOUS
 62
    3
 10
-259.31101500000239
 20
-31.484494999988669
 11
-261.30827500000157
 21
-31.3798249999885
  0
LINE
  8
_0-9_小物
  6
CONTINUOUS
 62
    3
 10
-261.04659500000105
 20
-26.386674999988259
 11
-261.15126500000167
 21
-28.38393499998881
  0
LINE
  8
_0-9_小物
  6
CONTINUOUS
 62
    3
 10
-260.88958500000206
 20
-23.390789999987987
 11
-258.94466500000169
 21
-24.494089999989114
  0
LINE
  8
_0-9_小物
  6
CONTINUOUS
 62
    3
 10
-258.94466500000169
 20
-24.494089999989114
 11
-259.04933500000095
 21
-26.491349999988302
  0
LINE
  8
_0-9_小物
  6
CONTINUOUS
 62
    3
 10
-259.04933500000095
 20
-26.491349999988302
 11
-261.04659500000105
 21
-26.386674999988259
  0
LINE
  8
_0-9_小物
  6
CONTINUOUS
 62
    3
 10
-260.78491500000234
 20
-21.393529999988345
 11
-260.88958500000206
 21
-23.390789999987987
  0
LINE
  8
_0-9_小物
  6
CONTINUOUS
 62
    3
 10
-260.62790500000244
 20
-18.39763999998911
 11
-258.68298500000162
 21
-19.500939999988418
  0
LINE
  8
_0-9_小物
  6
CONTINUOUS
 62
    3
 10
-258.68298500000162
 20
-19.500939999988418
 11
-258.78765500000134
 21
-21.49819999998806
  0
LINE
  8
_0-9_小物
  6
CONTINUOUS
 62
    3
 10
-258.78765500000134
 20
-21.49819999998806
 11
-260.78491500000234
 21
-21.393529999988345
  0
LINE
  8
_0-9_小物
  6
CONTINUOUS
 62
    3
 10
-260.52323500000182
 20
-16.400379999988559
 11
-260.62790500000244
 21
-18.39763999998911
  0
LINE
  8
_0-9_小物
  6
CONTINUOUS
 62
    3
 10
-253.88225500000172
 20
-33.560259999988716
 11
-250.38705500000233
 21
-33.377084999988597
  0
LINE
  8
_0-9_小物
  6
CONTINUOUS
 62
    3
 10
-250.38705500000233
 20
-33.377084999988597
 11
-252.27964000000193
 21
-35.479014999987953
  0
LINE
  8
_0-9_小物
  6
CONTINUOUS
 62
    3
 10
-252.27964000000193
 20
-35.479014999987953
 11
-253.7775850000011
 21
-35.557519999988813
  0
LINE
  8
_0-9_小物
  6
CONTINUOUS
 62
    3
 10
-253.7775850000011
 20
-35.557519999988813
 11
-255.40000000000092
 21
-4.5999999999888814
  0
LINE
  8
_0-9_小物
  6
CONTINUOUS
 62
    3
 10
-257.9177450000019
 20
-33.560259999988716
 11
-261.41294500000129
 21
-33.377084999988597
  0
LINE
  8
_0-9_小物
  6
CONTINUOUS
 62
    3
 10
-261.41294500000129
 20
-33.377084999988597
 11
-259.52036000000169
 21
-35.479014999987953
  0
LINE
  8
_0-9_小物
  6
CONTINUOUS
 62
    3
 10
-259.52036000000169
 20
-35.479014999987953
 11
-258.02241500000162
 21
-35.557519999988813
  0
LINE
  8
_0-9_小物
  6
CONTINUOUS
 62
    3
 10
-258.02241500000162
 20
-35.557519999988813
 11
-256.4000000000018
 21
-4.5999999999888814
  0
LINE
  8
_0-9_小物
  6
CONTINUOUS
 62
    3
 10
-250.89999999999955
 20
3.4000000000115733
 11
-251.90000000000046
 21
-1.5999999999879719
  0
LINE
  8
_0-9_小物
  6
CONTINUOUS
 62
    3
 10
-255.89999999999955
 20
-1.5999999999879719
 11
-255.89999999999955
 21
3.4000000000115733
  0
LINE
  8
_0-9_小物
  6
CONTINUOUS
 62
    3
 10
-254.90000000000046
 20
3.4000000000115733
 11
-255.89999999999955
 21
-1.5999999999879719
  0
LINE
  8
_0-9_小物
  6
CONTINUOUS
 62
    3
 10
-256.89999999999998
 20
3.4000000000115733
 11
-255.89999999999955
 21
-1.5999999999879719
  0
LINE
  8
_0-9_小物
  6
CONTINUOUS
 62
    3
 10
-260.89999999999907
 20
3.4000000000115733
 11
-259.89999999999952
 21
-1.5999999999879719
  0
LINE
  8
_0-9_小物
  6
CONTINUOUS
 62
    3
 10
-250.89999999999955
 20
3.4000000000115733
 11
-260.89999999999952
 21
3.4000000000115733
  0
ENDBLK
  0
BLOCK
  2
-001-_1_
 70
   64
 10
0
 20
0
 30
0
  0
LINE
  8
_0-9_小物
  6
CONTINUOUS
 62
    3
 10
-30.491724999998439
 20
-31.379824999988728
 11
-30.387055000000089
 21
-33.377084999988597
  0
LINE
  8
_0-9_小物
  6
CONTINUOUS
 62
    3
 10
-30.648734999999704
 20
-28.38393499998881
 11
-32.59365499999916
 21
-29.4872349999888
  0
LINE
  8
_0-9_小物
  6
CONTINUOUS
 62
    3
 10
-32.59365499999916
 20
-29.4872349999888
 11
-32.488984999998991
 21
-31.484494999988669
  0
LINE
  8
_0-9_小物
  6
CONTINUOUS
 62
    3
 10
-32.488984999998991
 20
-31.484494999988669
 11
-30.491724999998439
 21
-31.379824999988728
  0
LINE
  8
_0-9_小物
  6
CONTINUOUS
 62
    3
 10
-30.753404999999418
 20
-26.386674999988486
 11
-30.648734999999704
 21
-28.38393499998881
  0
LINE
  8
_0-9_小物
  6
CONTINUOUS
 62
    3
 10
-30.910414999999318
 20
-23.390789999988442
 11
-32.855335000000139
 21
-24.494089999989342
  0
LINE
  8
_0-9_小物
  6
CONTINUOUS
 62
    3
 10
-32.855335000000139
 20
-24.494089999989342
 11
-32.75066499999906
 21
-26.491349999988529
  0
LINE
  8
_0-9_小物
  6
CONTINUOUS
 62
    3
 10
-32.75066499999906
 20
-26.491349999988529
 11
-30.753404999999418
 21
-26.386674999988486
  0
LINE
  8
_0-9_小物
  6
CONTINUOUS
 62
    3
 10
-31.015084999999942
 20
-21.393529999988345
 11
-30.910414999999318
 21
-23.390789999988442
  0
LINE
  8
_0-9_小物
  6
CONTINUOUS
 62
    3
 10
-31.172094999998933
 20
-18.397639999989337
 11
-33.117014999998389
 21
-19.500939999988418
  0
LINE
  8
_0-9_小物
  6
CONTINUOUS
 62
    3
 10
-33.117014999998389
 20
-19.500939999988418
 11
-33.012345000000039
 21
-21.498199999988515
  0
LINE
  8
_0-9_小物
  6
CONTINUOUS
 62
    3
 10
-33.012345000000039
 20
-21.498199999988515
 11
-31.015084999999942
 21
-21.393529999988345
  0
LINE
  8
_0-9_小物
  6
CONTINUOUS
 62
    3
 10
-31.276764999999557
 20
-16.400379999988559
 11
-31.172094999998933
 21
-18.397639999989337
  0
LINE
  8
_0-9_小物
  6
CONTINUOUS
 62
    3
 10
-31.433774999999457
 20
-13.404489999988414
 11
-33.378694999999368
 21
-14.507794999988732
  0
LINE
  8
_0-9_小物
  6
CONTINUOUS
 62
    3
 10
-33.378694999999368
 20
-14.507794999988732
 11
-33.274024999999654
 21
-16.505054999988602
  0
LINE
  8
_0-9_小物
  6
CONTINUOUS
 62
    3
 10
-33.274024999999654
 20
-16.505054999988602
 11
-31.276764999999557
 21
-16.400379999988559
  0
LINE
  8
_0-9_小物
  6
CONTINUOUS
 62
    3
 10
-31.538444999999172
 20
-11.407234999988873
 11
-31.433774999999457
 21
-13.404489999988414
  0
LINE
  8
_0-9_小物
  6
CONTINUOUS
 62
    3
 10
-33.640374999999892
 20
-9.5146449999889455
 11
-33.535704999999268
 21
-11.511904999988815
  0
LINE
  8
_0-9_小物
  6
CONTINUOUS
 62
    3
 10
-33.535704999999268
 20
-11.511904999988815
 11
-31.538444999999172
 21
-11.407234999988873
  0
LINE
  8
_0-9_小物
  6
CONTINUOUS
 62
    3
 10
-31.899999999999125
 20
-8.5999999999884267
 11
-33.640374999999892
 21
-9.5146449999889455
  0
LINE
  8
_0-9_小物
  6
CONTINUOUS
 62
    3
 10
-41.308274999999355
 20
-31.379824999988728
 11
-41.41294499999907
 21
-33.377084999988597
  0
LINE
  8
_0-9_小物
  6
CONTINUOUS
 62
    3
 10
-41.151264999999455
 20
-28.38393499998881
 11
-39.206344999999544
 21
-29.4872349999888
  0
LINE
  8
_0-9_小物
  6
CONTINUOUS
 62
    3
 10
-39.206344999999544
 20
-29.4872349999888
 11
-39.311014999999713
 21
-31.484494999988669
  0
LINE
  8
_0-9_小物
  6
CONTINUOUS
 62
    3
 10
-39.311014999999713
 20
-31.484494999988669
 11
-41.308274999999355
 21
-31.379824999988728
  0
LINE
  8
_0-9_小物
  6
CONTINUOUS
 62
    3
 10
-41.046594999998376
 20
-26.386674999988486
 11
-41.151264999999455
 21
-28.38393499998881
  0
LINE
  8
_0-9_小物
  6
CONTINUOUS
 62
    3
 10
-40.88958499999984
 20
-23.390789999988442
 11
-38.944664999999929
 21
-24.494089999989342
  0
LINE
  8
_0-9_小物
  6
CONTINUOUS
 62
    3
 10
-38.944664999999929
 20
-24.494089999989342
 11
-39.049334999998734
 21
-26.491349999988529
  0
LINE
  8
_0-9_小物
  6
CONTINUOUS
 62
    3
 10
-39.049334999998734
 20
-26.491349999988529
 11
-41.046594999998376
 21
-26.386674999988486
  0
LINE
  8
_0-9_小物
  6
CONTINUOUS
 62
    3
 10
-40.784915000000126
 20
-21.393529999988345
 11
-40.88958499999984
 21
-23.390789999988442
  0
LINE
  8
_0-9_小物
  6
CONTINUOUS
 62
    3
 10
-40.627905000000226
 20
-18.397639999989337
 11
-38.682984999999405
 21
-19.500939999988418
  0
LINE
  8
_0-9_小物
  6
CONTINUOUS
 62
    3
 10
-38.682984999999405
 20
-19.500939999988418
 11
-38.78765499999912
 21
-21.498199999988515
  0
LINE
  8
_0-9_小物
  6
CONTINUOUS
 62
    3
 10
-38.78765499999912
 20
-21.498199999988515
 11
-40.784915000000126
 21
-21.393529999988345
  0
LINE
  8
_0-9_小物
  6
CONTINUOUS
 62
    3
 10
-40.523234999999147
 20
-16.400379999988559
 11
-40.627905000000226
 21
-18.397639999989337
  0
LINE
  8
_0-9_小物
  6
CONTINUOUS
 62
    3
 10
-40.366224999998792
 20
-13.404489999988414
 11
-38.421304999998426
 21
-14.507794999988732
  0
LINE
  8
_0-9_小物
  6
CONTINUOUS
 62
    3
 10
-38.421304999998426
 20
-14.507794999988732
 11
-38.525974999999505
 21
-16.505054999988602
  0
LINE
  8
_0-9_小物
  6
CONTINUOUS
 62
    3
 10
-38.525974999999505
 20
-16.505054999988602
 11
-40.523234999999147
 21
-16.400379999988559
  0
LINE
  8
_0-9_小物
  6
CONTINUOUS
 62
    3
 10
-40.261554999999532
 20
-11.407234999988873
 11
-40.366224999998792
 21
-13.404489999988414
  0
LINE
  8
_0-9_小物
  6
CONTINUOUS
 62
    3
 10
-38.159624999998812
 20
-9.5146449999889455
 11
-38.26429499999989
 21
-11.511904999988815
  0
LINE
  8
_0-9_小物
  6
CONTINUOUS
 62
    3
 10
-38.26429499999989
 20
-11.511904999988815
 11
-40.261554999999532
 21
-11.407234999988873
  0
LINE
  8
_0-9_小物
  6
CONTINUOUS
 62
    3
 10
-39.89999999999867
 20
-8.5999999999884267
 11
-38.159624999998812
 21
-9.5146449999889455
  0
LINE
  8
_0-9_小物
  6
CONTINUOUS
 62
    3
 10
-31.276764999999557
 20
-16.400379999988559
 11
-29.581399999999974
 21
-11.742399999989061
  0
LINE
  8
_0-9_小物
  6
CONTINUOUS
 62
    3
 10
-32.340944999998953
 20
-16.400379999988559
 11
-30.521089999999219
 21
-11.400379999988786
  0
LINE
  8
_0-9_小物
  6
CONTINUOUS
 62
    3
 10
-40.523234999999147
 20
-16.400379999988559
 11
-42.21859999999873
 21
-11.742399999989061
  0
LINE
  8
_0-9_小物
  6
CONTINUOUS
 62
    3
 10
-39.459054999999751
 20
-16.400379999988559
 11
-41.278909999999485
 21
-11.400379999988786
  0
LINE
  8
_0-9_小物
  6
CONTINUOUS
 62
    3
 10
-33.882254999999475
 20
-33.560259999988943
 11
-30.387055000000089
 21
-33.377084999988597
  0
LINE
  8
_0-9_小物
  6
CONTINUOUS
 62
    3
 10
-30.387055000000089
 20
-33.377084999988597
 11
-32.279639999999688
 21
-35.479014999988408
  0
LINE
  8
_0-9_小物
  6
CONTINUOUS
 62
    3
 10
-32.279639999999688
 20
-35.479014999988408
 11
-33.777584999998396
 21
-35.55751999998904
  0
LINE
  8
_0-9_小物
  6
CONTINUOUS
 62
    3
 10
-33.777584999998396
 20
-35.55751999998904
 11
-35.39999999999867
 21
-4.5999999999891088
  0
LINE
  8
_0-9_小物
  6
CONTINUOUS
 62
    3
 10
-31.899999999999125
 20
-8.5999999999884267
 11
-31.899999999999125
 21
-4.5999999999891088
  0
LINE
  8
_0-9_小物
  6
CONTINUOUS
 62
    3
 10
-37.917744999999684
 20
-33.560259999988943
 11
-41.41294499999907
 21
-33.377084999988597
  0
LINE
  8
_0-9_小物
  6
CONTINUOUS
 62
    3
 10
-41.41294499999907
 20
-33.377084999988597
 11
-39.520359999999471
 21
-35.479014999988408
  0
LINE
  8
_0-9_小物
  6
CONTINUOUS
 62
    3
 10
-39.520359999999471
 20
-35.479014999988408
 11
-38.022414999999398
 21
-35.55751999998904
  0
LINE
  8
_0-9_小物
  6
CONTINUOUS
 62
    3
 10
-38.022414999999398
 20
-35.55751999998904
 11
-36.399999999999125
 21
-4.5999999999891088
  0
LINE
  8
_0-9_小物
  6
CONTINUOUS
 62
    3
 10
-39.89999999999867
 20
-8.5999999999884267
 11
-39.89999999999867
 21
-4.5999999999891088
  0
LINE
  8
_0-9_小物
  6
CONTINUOUS
 62
    3
 10
-42.21859999999873
 20
-11.742399999989061
 11
-43.210954999999046
 21
-4.9387799999880144
  0
ARC
  8
_0-9_小物
  6
CONTINUOUS
 62
    3
 10
-42.815144999999063
 20
-4.8810449999886032
 40
0.4
 50
98.130101999958413
 51
188.29846600001969
  0
LINE
  8
_0-9_小物
  6
CONTINUOUS
 62
    3
 10
-42.871715000000165
 20
-4.4850649999885945
 11
-42.674889999998811
 21
-4.4569499999882964
  0
ARC
  8
_0-9_小物
  6
CONTINUOUS
 62
    3
 10
-42.618319999998619
 20
-4.8529299999885325
 40
0.4
 50
8.1301020000240456
 51
98.130102000220958
  0
LINE
  8
_0-9_小物
  6
CONTINUOUS
 62
    3
 10
-42.222339999998837
 20
-4.7963599999887947
 11
-41.278909999999485
 21
-11.400379999988786
  0
LINE
  8
_0-9_小物
  6
CONTINUOUS
 62
    3
 10
-29.581399999999974
 20
-11.742399999989061
 11
-28.589044999999658
 21
-4.9387799999880144
  0
ARC
  8
_0-9_小物
  6
CONTINUOUS
 62
    3
 10
-28.984854999999641
 20
-4.8810449999886032
 40
0.4
 50
351.70153399996417
 51
81.869898000041587
  0
LINE
  8
_0-9_小物
  6
CONTINUOUS
 62
    3
 10
-28.928289999999777
 20
-4.4850649999885945
 11
-29.125109999999893
 21
-4.4569499999882964
  0
ARC
  8
_0-9_小物
  6
CONTINUOUS
 62
    3
 10
-29.181679999998721
 20
-4.8529299999885325
 40
0.4
 50
81.869898000041587
 51
171.86989800000936
  0
LINE
  8
_0-9_小物
  6
CONTINUOUS
 62
    3
 10
-29.577659999999867
 20
-4.7963599999887947
 11
-30.521089999999219
 21
-11.400379999988786
  0
LINE
  8
_0-9_小物
  6
CONTINUOUS
 62
    3
 10
-29.581399999999974
 20
-11.742399999989061
 11
-28.589044999999658
 21
-4.9387799999880144
  0
ARC
  8
_0-9_小物
  6
CONTINUOUS
 62
    3
 10
-28.984854999999641
 20
-4.8810449999886032
 40
0.4
 50
351.70153399996417
 51
81.869898000041587
  0
LINE
  8
_0-9_小物
  6
CONTINUOUS
 62
    3
 10
-28.928289999999777
 20
-4.4850649999885945
 11
-29.125109999999893
 21
-4.4569499999882964
  0
ARC
  8
_0-9_小物
  6
CONTINUOUS
 62
    3
 10
-29.181679999998721
 20
-4.8529299999885325
 40
0.4
 50
81.869898000041587
 51
171.86989800000936
  0
LINE
  8
_0-9_小物
  6
CONTINUOUS
 62
    3
 10
-29.577659999999867
 20
-4.7963599999887947
 11
-30.521089999999219
 21
-11.400379999988786
  0
LINE
  8
_0-9_小物
  6
CONTINUOUS
 62
    3
 10
-30.89999999999867
 20
3.4000000000115733
 11
-31.899999999999125
 21
-1.5999999999884267
  0
LINE
  8
_0-9_小物
  6
CONTINUOUS
 62
    3
 10
-31.899999999999125
 20
3.4000000000115733
 11
-31.899999999999125
 21
-4.5999999999891088
  0
LINE
  8
_0-9_小物
  6
CONTINUOUS
 62
    3
 10
-35.39999999999867
 20
-4.5999999999891088
 11
-35.899999999998215
 21
-4.5999999999891088
  0
LINE
  8
_0-9_小物
  6
CONTINUOUS
 62
    3
 10
-35.899999999998215
 20
-1.5999999999884267
 11
-35.899999999998215
 21
3.4000000000115733
  0
LINE
  8
_0-9_小物
  6
CONTINUOUS
 62
    3
 10
-34.899999999999125
 20
3.4000000000115733
 11
-35.899999999998215
 21
-1.5999999999884267
  0
LINE
  8
_0-9_小物
  6
CONTINUOUS
 62
    3
 10
-36.899999999999579
 20
3.4000000000115733
 11
-35.899999999998215
 21
-1.5999999999884267
  0
LINE
  8
_0-9_小物
  6
CONTINUOUS
 62
    3
 10
-40.89999999999867
 20
3.4000000000115733
 11
-39.89999999999867
 21
-1.5999999999884267
  0
LINE
  8
_0-9_小物
  6
CONTINUOUS
 62
    3
 10
-39.89999999999867
 20
3.4000000000115733
 11
-39.89999999999867
 21
-4.5999999999891088
  0
LINE
  8
_0-9_小物
  6
CONTINUOUS
 62
    3
 10
-36.399999999999125
 20
-4.5999999999891088
 11
-35.899999999998215
 21
-4.5999999999891088
  0
LINE
  8
_0-9_小物
  6
CONTINUOUS
 62
    3
 10
-30.89999999999867
 20
3.4000000000115733
 11
-40.89999999999867
 21
3.4000000000115733
  0
ENDBLK
  0
BLOCK
  2
-002-_2_
 70
   64
 10
0
 20
0
 30
0
  0
LINE
  8
_0-9_小物
  6
CONTINUOUS
 62
    3
 10
74.508275000000424
 20
-31.379824999988955
 11
74.612944999998774
 21
-33.377084999988824
  0
LINE
  8
_0-9_小物
  6
CONTINUOUS
 62
    3
 10
74.351264999999159
 20
-28.383934999989037
 11
72.406344999999703
 21
-29.487234999989028
  0
LINE
  8
_0-9_小物
  6
CONTINUOUS
 62
    3
 10
72.406344999999703
 20
-29.487234999989028
 11
72.511014999999873
 21
-31.484494999988897
  0
LINE
  8
_0-9_小物
  6
CONTINUOUS
 62
    3
 10
72.511014999999873
 20
-31.484494999988897
 11
74.508275000000424
 21
-31.379824999988955
  0
LINE
  8
_0-9_小物
  6
CONTINUOUS
 62
    3
 10
74.246594999999445
 20
-26.386674999988713
 11
74.351264999999159
 21
-28.383934999989037
  0
LINE
  8
_0-9_小物
  6
CONTINUOUS
 62
    3
 10
74.089584999999545
 20
-23.390789999988669
 11
72.144664999998724
 21
-24.494089999989569
  0
LINE
  8
_0-9_小物
  6
CONTINUOUS
 62
    3
 10
72.144664999998724
 20
-24.494089999989569
 11
72.249334999999803
 21
-26.491349999988756
  0
LINE
  8
_0-9_小物
  6
CONTINUOUS
 62
    3
 10
72.249334999999803
 20
-26.491349999988756
 11
74.246594999999445
 21
-26.386674999988713
  0
LINE
  8
_0-9_小物
  6
CONTINUOUS
 62
    3
 10
73.984914999998921
 20
-21.393529999988573
 11
74.089584999999545
 21
-23.390789999988669
  0
LINE
  8
_0-9_小物
  6
CONTINUOUS
 62
    3
 10
73.82790499999993
 20
-18.397639999989565
 11
71.882985000000474
 21
-19.500939999988645
  0
LINE
  8
_0-9_小物
  6
CONTINUOUS
 62
    3
 10
71.882985000000474
 20
-19.500939999988645
 11
71.987654999998824
 21
-21.498199999988742
  0
LINE
  8
_0-9_小物
  6
CONTINUOUS
 62
    3
 10
71.987654999998824
 20
-21.498199999988742
 11
73.984914999998921
 21
-21.393529999988573
  0
LINE
  8
_0-9_小物
  6
CONTINUOUS
 62
    3
 10
73.723234999999306
 20
-16.400379999988786
 11
73.82790499999993
 21
-18.397639999989565
  0
LINE
  8
_0-9_小物
  6
CONTINUOUS
 62
    3
 10
73.566224999999406
 20
-13.404489999988641
 11
71.621304999999495
 21
-14.50779499998896
  0
LINE
  8
_0-9_小物
  6
CONTINUOUS
 62
    3
 10
71.621304999999495
 20
-14.50779499998896
 11
71.72597499999921
 21
-16.505054999988829
  0
LINE
  8
_0-9_小物
  6
CONTINUOUS
 62
    3
 10
71.72597499999921
 20
-16.505054999988829
 11
73.723234999999306
 21
-16.400379999988786
  0
LINE
  8
_0-9_小物
  6
CONTINUOUS
 62
    3
 10
73.461554999999692
 20
-11.4072349999891
 11
73.566224999999406
 21
-13.404489999988641
  0
LINE
  8
_0-9_小物
  6
CONTINUOUS
 62
    3
 10
71.359624999998971
 20
-9.5146449999891729
 11
71.464294999999595
 21
-11.511904999989042
  0
LINE
  8
_0-9_小物
  6
CONTINUOUS
 62
    3
 10
71.464294999999595
 20
-11.511904999989042
 11
73.461554999999692
 21
-11.4072349999891
  0
LINE
  8
_0-9_小物
  6
CONTINUOUS
 62
    3
 10
73.099999999999739
 20
-8.5999999999886541
 11
71.359624999998971
 21
-9.5146449999891729
  0
LINE
  8
_0-9_小物
  6
CONTINUOUS
 62
    3
 10
63.691724999999508
 20
-31.379824999988955
 11
63.587054999999793
 21
-33.377084999988824
  0
LINE
  8
_0-9_小物
  6
CONTINUOUS
 62
    3
 10
63.848734999999408
 20
-28.383934999989037
 11
65.793654999999319
 21
-29.487234999989028
  0
LINE
  8
_0-9_小物
  6
CONTINUOUS
 62
    3
 10
65.793654999999319
 20
-29.487234999989028
 11
65.68898499999915
 21
-31.484494999988897
  0
LINE
  8
_0-9_小物
  6
CONTINUOUS
 62
    3
 10
65.68898499999915
 20
-31.484494999988897
 11
63.691724999999508
 21
-31.379824999988955
  0
LINE
  8
_0-9_小物
  6
CONTINUOUS
 62
    3
 10
63.953405000000487
 20
-26.386674999988713
 11
63.848734999999408
 21
-28.383934999989037
  0
LINE
  8
_0-9_小物
  6
CONTINUOUS
 62
    3
 10
64.110414999999023
 20
-23.390789999988669
 11
66.055334999998934
 21
-24.494089999989569
  0
LINE
  8
_0-9_小物
  6
CONTINUOUS
 62
    3
 10
66.055334999998934
 20
-24.494089999989569
 11
65.950665000000129
 21
-26.491349999988756
  0
LINE
  8
_0-9_小物
  6
CONTINUOUS
 62
    3
 10
65.950665000000129
 20
-26.491349999988756
 11
63.953405000000487
 21
-26.386674999988713
  0
LINE
  8
_0-9_小物
  6
CONTINUOUS
 62
    3
 10
64.215084999998737
 20
-21.393529999988573
 11
64.110414999999023
 21
-23.390789999988669
  0
LINE
  8
_0-9_小物
  6
CONTINUOUS
 62
    3
 10
64.372094999998637
 20
-18.397639999989565
 11
66.317014999999458
 21
-19.500939999988645
  0
LINE
  8
_0-9_小物
  6
CONTINUOUS
 62
    3
 10
66.317014999999458
 20
-19.500939999988645
 11
66.212344999999743
 21
-21.498199999988742
  0
LINE
  8
_0-9_小物
  6
CONTINUOUS
 62
    3
 10
66.212344999999743
 20
-21.498199999988742
 11
64.215084999998737
 21
-21.393529999988573
  0
LINE
  8
_0-9_小物
  6
CONTINUOUS
 62
    3
 10
64.476764999999716
 20
-16.400379999988786
 11
64.372094999998637
 21
-18.397639999989565
  0
LINE
  8
_0-9_小物
  6
CONTINUOUS
 62
    3
 10
64.633775000000071
 20
-13.404489999988641
 11
66.578695000000437
 21
-14.50779499998896
  0
LINE
  8
_0-9_小物
  6
CONTINUOUS
 62
    3
 10
66.578695000000437
 20
-14.50779499998896
 11
66.474024999999358
 21
-16.505054999988829
  0
LINE
  8
_0-9_小物
  6
CONTINUOUS
 62
    3
 10
66.474024999999358
 20
-16.505054999988829
 11
64.476764999999716
 21
-16.400379999988786
  0
LINE
  8
_0-9_小物
  6
CONTINUOUS
 62
    3
 10
64.738444999999331
 20
-11.4072349999891
 11
64.633775000000071
 21
-13.404489999988641
  0
LINE
  8
_0-9_小物
  6
CONTINUOUS
 62
    3
 10
66.840375000000051
 20
-9.5146449999891729
 11
66.735704999998973
 21
-11.511904999989042
  0
LINE
  8
_0-9_小物
  6
CONTINUOUS
 62
    3
 10
66.735704999998973
 20
-11.511904999989042
 11
64.738444999999331
 21
-11.4072349999891
  0
LINE
  8
_0-9_小物
  6
CONTINUOUS
 62
    3
 10
65.100000000000193
 20
-8.5999999999886541
 11
66.840375000000051
 21
-9.5146449999891729
  0
LINE
  8
_0-9_小物
  6
CONTINUOUS
 62
    3
 10
73.723234999999306
 20
-16.400379999988786
 11
75.418599999999117
 21
-11.742399999989289
  0
LINE
  8
_0-9_小物
  6
CONTINUOUS
 62
    3
 10
72.65905499999991
 20
-16.400379999988786
 11
74.478909999999644
 21
-11.400379999989013
  0
LINE
  8
_0-9_小物
  6
CONTINUOUS
 62
    3
 10
64.476764999999716
 20
-16.400379999988786
 11
62.781400000000133
 21
-11.742399999989289
  0
LINE
  8
_0-9_小物
  6
CONTINUOUS
 62
    3
 10
65.540944999999112
 20
-16.400379999988786
 11
63.721089999999379
 21
-11.400379999989013
  0
LINE
  8
_0-9_小物
  6
CONTINUOUS
 62
    3
 10
71.117744999999388
 20
-33.560259999989171
 11
74.612944999998774
 21
-33.377084999988824
  0
LINE
  8
_0-9_小物
  6
CONTINUOUS
 62
    3
 10
74.612944999998774
 20
-33.377084999988824
 11
72.720359999999175
 21
-35.479014999988635
  0
LINE
  8
_0-9_小物
  6
CONTINUOUS
 62
    3
 10
72.720359999999175
 20
-35.479014999988635
 11
71.222415000000467
 21
-35.557519999989267
  0
LINE
  8
_0-9_小物
  6
CONTINUOUS
 62
    3
 10
71.222415000000467
 20
-35.557519999989267
 11
69.600000000000193
 21
-4.5999999999893362
  0
LINE
  8
_0-9_小物
  6
CONTINUOUS
 62
    3
 10
73.099999999999739
 20
-8.5999999999886541
 11
73.099999999999739
 21
-4.5999999999893362
  0
LINE
  8
_0-9_小物
  6
CONTINUOUS
 62
    3
 10
67.082254999999179
 20
-33.560259999989171
 11
63.587054999999793
 21
-33.377084999988824
  0
LINE
  8
_0-9_小物
  6
CONTINUOUS
 62
    3
 10
63.587054999999793
 20
-33.377084999988824
 11
65.479639999999392
 21
-35.479014999988635
  0
LINE
  8
_0-9_小物
  6
CONTINUOUS
 62
    3
 10
65.479639999999392
 20
-35.479014999988635
 11
66.977584999999465
 21
-35.557519999989267
  0
LINE
  8
_0-9_小物
  6
CONTINUOUS
 62
    3
 10
66.977584999999465
 20
-35.557519999989267
 11
68.599999999999739
 21
-4.5999999999893362
  0
LINE
  8
_0-9_小物
  6
CONTINUOUS
 62
    3
 10
65.100000000000193
 20
-8.5999999999886541
 11
65.100000000000193
 21
-4.5999999999893362
  0
LINE
  8
_0-9_小物
  6
CONTINUOUS
 62
    3
 10
62.781400000000133
 20
-11.742399999989289
 11
61.789044999999817
 21
-4.9387799999882418
  0
ARC
  8
_0-9_小物
  6
CONTINUOUS
 62
    3
 10
62.1848549999998
 20
-4.8810449999888306
 40
0.4
 50
98.130101999958413
 51
188.29846600001969
  0
LINE
  8
_0-9_小物
  6
CONTINUOUS
 62
    3
 10
62.128284999998698
 20
-4.4850649999888219
 11
62.325110000000052
 21
-4.4569499999885238
  0
ARC
  8
_0-9_小物
  6
CONTINUOUS
 62
    3
 10
62.381680000000244
 20
-4.8529299999887598
 40
0.4
 50
8.1301020000240456
 51
98.130102000220958
  0
LINE
  8
_0-9_小物
  6
CONTINUOUS
 62
    3
 10
62.777660000000026
 20
-4.7963599999890221
 11
63.721089999999379
 21
-11.400379999989013
  0
LINE
  8
_0-9_小物
  6
CONTINUOUS
 62
    3
 10
75.418599999999117
 20
-11.742399999989289
 11
76.410954999999433
 21
-4.9387799999882418
  0
ARC
  8
_0-9_小物
  6
CONTINUOUS
 62
    3
 10
76.01514499999945
 20
-4.8810449999888306
 40
0.4
 50
351.70153399996417
 51
81.869898000041587
  0
LINE
  8
_0-9_小物
  6
CONTINUOUS
 62
    3
 10
76.071709999999541
 20
-4.4850649999888219
 11
75.874889999999198
 21
-4.4569499999885238
  0
ARC
  8
_0-9_小物
  6
CONTINUOUS
 62
    3
 10
75.818320000000142
 20
-4.8529299999887598
 40
0.4
 50
81.869898000041587
 51
171.86989800000936
  0
LINE
  8
_0-9_小物
  6
CONTINUOUS
 62
    3
 10
75.422339999999224
 20
-4.7963599999890221
 11
74.478909999999644
 21
-11.400379999989013
  0
LINE
  8
_0-9_小物
  6
CONTINUOUS
 62
    3
 10
75.418599999999117
 20
-11.742399999989289
 11
76.410954999999433
 21
-4.9387799999882418
  0
ARC
  8
_0-9_小物
  6
CONTINUOUS
 62
    3
 10
76.01514499999945
 20
-4.8810449999888306
 40
0.4
 50
351.70153399996417
 51
81.869898000041587
  0
LINE
  8
_0-9_小物
  6
CONTINUOUS
 62
    3
 10
76.071709999999541
 20
-4.4850649999888219
 11
75.874889999999198
 21
-4.4569499999885238
  0
ARC
  8
_0-9_小物
  6
CONTINUOUS
 62
    3
 10
75.818320000000142
 20
-4.8529299999887598
 40
0.4
 50
81.869898000041587
 51
171.86989800000936
  0
LINE
  8
_0-9_小物
  6
CONTINUOUS
 62
    3
 10
75.422339999999224
 20
-4.7963599999890221
 11
74.478909999999644
 21
-11.400379999989013
  0
LINE
  8
_0-9_小物
  6
CONTINUOUS
 62
    3
 10
74.100000000000193
 20
3.4000000000113459
 11
73.099999999999739
 21
-1.5999999999886541
  0
LINE
  8
_0-9_小物
  6
CONTINUOUS
 62
    3
 10
73.099999999999739
 20
3.4000000000113459
 11
73.099999999999739
 21
-4.5999999999893362
  0
LINE
  8
_0-9_小物
  6
CONTINUOUS
 62
    3
 10
69.600000000000193
 20
-4.5999999999893362
 11
69.100000000000648
 21
-4.5999999999893362
  0
LINE
  8
_0-9_小物
  6
CONTINUOUS
 62
    3
 10
69.100000000000648
 20
-1.5999999999886541
 11
69.100000000000648
 21
3.4000000000113459
  0
LINE
  8
_0-9_小物
  6
CONTINUOUS
 62
    3
 10
70.099999999999739
 20
3.4000000000113459
 11
69.100000000000648
 21
-1.5999999999886541
  0
LINE
  8
_0-9_小物
  6
CONTINUOUS
 62
    3
 10
68.099999999999284
 20
3.4000000000113459
 11
69.100000000000648
 21
-1.5999999999886541
  0
LINE
  8
_0-9_小物
  6
CONTINUOUS
 62
    3
 10
64.100000000000193
 20
3.4000000000113459
 11
65.100000000000193
 21
-1.5999999999886541
  0
LINE
  8
_0-9_小物
  6
CONTINUOUS
 62
    3
 10
65.100000000000193
 20
3.4000000000113459
 11
65.100000000000193
 21
-4.5999999999893362
  0
LINE
  8
_0-9_小物
  6
CONTINUOUS
 62
    3
 10
68.599999999999739
 20
-4.5999999999893362
 11
69.100000000000648
 21
-4.5999999999893362
  0
LINE
  8
_0-9_小物
  6
CONTINUOUS
 62
    3
 10
74.100000000000193
 20
3.4000000000113459
 11
64.100000000000193
 21
3.4000000000113459
  0
ENDBLK
  0
ENDSEC
  0
SECTION
  2
ENTITIES
  0
LINE
  8
_f-0_
  6
CONTINUOUS
 62
    6
 10
19.999999999999943
 20
20.000000000000114
 11
821.00000000000011
 21
20.000000000000114
  0
LINE
  8
_f-0_
  6
CONTINUOUS
 62
    6
 10
19.999999999999943
 20
554
 11
19.999999999999943
 21
20.000000000000114
  0
LINE
  8
_f-0_
  6
CONTINUOUS
 62
    6
 10
821.00000000000011
 20
554
 11
19.999999999999943
 21
554
  0
LINE
  8
_f-0_
  6
CONTINUOUS
 62
    6
 10
821.00000000000011
 20
20.000000000000114
 11
821.00000000000011
 21
554
  0
LINE
  8
_1-0_
  6
CONTINUOUS
 62
    2
 10
728.60000000000059
 20
359.69028008719027
 11
765.00000000000057
 21
359.69028008719027
  0
LINE
  8
_1-0_
  6
CONTINUOUS
 62
    2
 10
728.60000000000059
 20
360.69028008719027
 11
763.00000000000023
 21
360.69028008719027
  0
LINE
  8
_1-0_
  6
CONTINUOUS
 62
    2
 10
698.60000000000025
 20
360.69028008719027
 11
698.60000000000025
 21
340.690280087188
  0
LINE
  8
_1-0_
  6
CENTER1
 62
    2
 10
713.60000000000025
 20
360.69028008719016
 11
713.60000000000025
 21
340.690280087188
  0
LINE
  8
_1-0_
  6
CONTINUOUS
 62
    2
 10
728.60000000000059
 20
360.69028008719027
 11
728.60000000000059
 21
340.690280087188
  0
LINE
  8
_1-f_
  6
CONTINUOUS
 62
    4
 10
639.19999999999948
 20
405.49028008718574
 11
639.19999999999948
 21
318.69028008718806
  0
LINE
  8
_1-f_
  6
CONTINUOUS
 62
    4
 10
639.19999999999948
 20
318.69028008718806
 11
801.00000000000023
 21
318.69028008718806
  0
LINE
  8
_1-f_
  6
CONTINUOUS
 62
    4
 10
801.00000000000023
 20
405.49028008718574
 11
801.00000000000023
 21
318.69028008718806
  0
LINE
  8
_1-f_
  6
CONTINUOUS
 62
    4
 10
801.00000000000023
 20
405.49028008718574
 11
639.19999999999948
 21
405.49028008718574
  0
TEXT
  8
_0-f_寸法
 62
    4
 10
670.00000000000011
 20
256.50000000000011
 40
8
 41
0.8662499999999999
 50
0
  1
ＴＴＫフレーム(ＥＫ)
  0
TEXT
  8
_0-f_寸法
 62
    4
 10
670.00000000000011
 20
236.50000000000011
 40
8
 41
0.8662499999999999
 50
0
  1
ユカホルダーキャップ
  0
TEXT
  8
_0-f_寸法
 62
    4
 10
670.00000000000011
 20
226.50000000000011
 40
8
 41
0.8662499999999999
 50
0
  1
ステンドリリングねじ(皿5x19))
  0
TEXT
  8
_0-f_寸法
 62
    4
 10
658.07000000000016
 20
296.50000000000011
 40
8
 41
0.8662499999999999
 50
0
  1
 1
  0
TEXT
  8
_0-f_寸法
 62
    4
 10
658.07000000000016
 20
286.50000000000011
 40
8
 41
0.8662499999999999
 50
0
  1
 2
  0
TEXT
  8
_0-f_寸法
 62
    4
 10
658.07000000000016
 20
276.50000000000011
 40
8
 41
0.8662499999999999
 50
0
  1
 3
  0
TEXT
  8
_0-f_寸法
 62
    4
 10
658.07000000000016
 20
266.50000000000011
 40
8
 41
0.8662499999999999
 50
0
  1
 4
  0
TEXT
  8
_0-f_寸法
 62
    4
 10
658.07000000000016
 20
256.50000000000011
 40
8
 41
0.8662499999999999
 50
0
  1
 5
  0
TEXT
  8
_0-f_寸法
 62
    4
 10
658.07000000000016
 20
246.50000000000011
 40
8
 41
0.8662499999999999
 50
0
  1
 6
  0
TEXT
  8
_0-f_寸法
 62
    4
 10
658.07000000000016
 20
236.50000000000011
 40
8
 41
0.8662499999999999
 50
0
  1
 7
  0
TEXT
  8
_0-f_寸法
 62
    4
 10
658.07000000000016
 20
226.50000000000011
 40
8
 41
0.8662499999999999
 50
0
  1
 8
  0
TEXT
  8
_0-f_寸法
 62
    4
 10
670.00000000000011
 20
246.50000000000011
 40
8
 41
0.8662499999999999
 50
0
  1
止水補助板FS500
  0
TEXT
  8
_0-f_寸法
 62
    4
 10
670.00000000000011
 20
276.50000000000011
 40
8
 41
0.8662499999999999
 50
0
  1
ＴＴＫサイドプレート(ＢＫ)　(t＝2.5)
  0
TEXT
  8
_0-f_寸法
 62
    4
 10
670.00000000000011
 20
296.50000000000011
 40
8
 41
0.8662499999999999
 50
0
  1
ＴＴＫサイドプレート(Ｃ)　(t＝2.5)
  0
TEXT
  8
_0-f_寸法
 62
    4
 10
670.00000000000011
 20
286.50000000000011
 40
8
 41
0.8662499999999999
 50
0
  1
ＴＴＫセンタープレート(Ｃ)　(t＝3.0)
  0
TEXT
  8
_0-f_寸法
 62
    4
 10
670.61750515492633
 20
266.09128396528399
 40
8
 41
0.8662499999999999
 50
0
  1
ＴＴＫフレーム(Ｃ)
  0
TEXT
  8
_0-f_寸法
 62
    4
 10
670.00000000000011
 20
216.50000000000011
 40
8
 41
0.8662499999999999
 50
0
  1
アンカープラグ(Φ8×40)
  0
TEXT
  8
_0-f_寸法
 62
    4
 10
670.00000000000011
 20
206.50000000000011
 40
8
 41
0.8662499999999999
 50
0
  1
ステンタッピンねじ(なべ5×50)
  0
TEXT
  8
_0-f_寸法
 62
    4
 10
670.00000000000011
 20
196.50000000000011
 40
8
 41
0.8662499999999999
 50
0
  1
ステスワッシャー1.5×18×5.5穴
  0
TEXT
  8
_0-f_寸法
 62
    4
 10
670.00000000000011
 20
186.50000000000011
 40
8
 41
0.8662499999999999
 50
0
  1
ブチルテープ(ｔ1.0×w30) (6m／巻)
  0
TEXT
  8
_0-f_寸法
 62
    4
 10
658.07000000000016
 20
216.50000000000011
 40
8
 41
0.8662499999999999
 50
0
  1
 9
  0
TEXT
  8
_0-f_寸法
 62
    4
 10
658.07000000000016
 20
206.50000000000011
 40
8
 41
0.8662499999999999
 50
0
  1
10
  0
TEXT
  8
_0-f_寸法
 62
    4
 10
658.07000000000016
 20
186.50000000000011
 40
8
 41
0.8662499999999999
 50
0
  1
◎
  0
TEXT
  8
_0-f_寸法
 62
    4
 10
658.07000000000016
 20
196.50000000000011
 40
8
 41
0.8662499999999999
 50
0
  1
11
  0
TEXT
  8
_0-f_寸法
 62
    4
 10
658.07000000000016
 20
176.50000000000011
 40
8
 41
0.8662499999999999
 50
0
  1
※
  0
TEXT
  8
_0-f_寸法
 62
    4
 10
670.00000000000011
 20
176.50000000000011
 40
8
 41
0.8662499999999999
 50
0
  1
床仕上材厚さ：3.0㎜
  0
TEXT
  8
_1-f_
 62
    4
 10
689.60000000000025
 20
328.69028008718806
 40
6
 41
1
 50
0
  1
床下地仕上げ寸法
  0
LINE
  8
_1-0_
  6
CONTINUOUS
 62
    2
 10
686.1999999999997
 20
360.69028008719027
 11
698.60000000000025
 21
360.69028008719027
  0
LINE
  8
_1-0_
  6
CONTINUOUS
 62
    2
 10
698.60000000000025
 20
359.69028008719027
 11
684.1999999999997
 21
359.69028008719027
  0
LINE
  8
_1-0_
  6
CONTINUOUS
 62
    2
 10
678.20000000000005
 20
366.81028008718806
 11
686.1999999999997
 21
366.81028008718806
  0
LINE
  8
_1-0_
  6
CONTINUOUS
 62
    2
 10
684.1999999999997
 20
366.81028008718806
 11
684.1999999999997
 21
359.69028008719027
  0
LINE
  8
_1-0_
  6
CONTINUOUS
 62
    2
 10
684.1999999999997
 20
366.81028008718806
 11
684.1999999999997
 21
359.69028008719027
  0
LINE
  8
_1-0_
  6
CONTINUOUS
 62
    2
 10
686.1999999999997
 20
366.81028008718806
 11
686.1999999999997
 21
360.690280087188
  0
LINE
  8
_1-0_
  6
CONTINUOUS
 62
    2
 10
698.60000000000025
 20
360.02373879797483
 11
698.26654128921587
 21
359.69028008719027
  0
LINE
  8
_1-0_
  6
CONTINUOUS
 62
    2
 10
698.60000000000025
 20
360.58942422292404
 11
697.70085586426671
 21
359.69028008719027
  0
LINE
  8
_1-0_
  6
CONTINUOUS
 62
    2
 10
698.13517043931722
 20
360.69028008719027
 11
697.13517043931722
 21
359.69028008719027
  0
LINE
  8
_1-0_
  6
CONTINUOUS
 62
    2
 10
697.56948501436807
 20
360.69028008719027
 11
696.56948501436807
 21
359.69028008719027
  0
LINE
  8
_1-0_
  6
CONTINUOUS
 62
    2
 10
697.00379958941869
 20
360.69028008719027
 11
696.00379958941869
 21
359.69028008719027
  0
LINE
  8
_1-0_
  6
CONTINUOUS
 62
    2
 10
696.43811416446954
 20
360.69028008719027
 11
695.43811416446954
 21
359.69028008719027
  0
LINE
  8
_1-0_
  6
CONTINUOUS
 62
    2
 10
695.87242873952027
 20
360.69028008719027
 11
694.87242873952027
 21
359.69028008719027
  0
LINE
  8
_1-0_
  6
CONTINUOUS
 62
    2
 10
695.30674331457089
 20
360.69028008719027
 11
694.30674331457089
 21
359.69028008719027
  0
LINE
  8
_1-0_
  6
CONTINUOUS
 62
    2
 10
694.74105788962197
 20
360.69028008719027
 11
693.74105788962197
 21
359.69028008719027
  0
LINE
  8
_1-0_
  6
CONTINUOUS
 62
    2
 10
694.17537246467259
 20
360.69028008719027
 11
693.17537246467259
 21
359.69028008719027
  0
LINE
  8
_1-0_
  6
CONTINUOUS
 62
    2
 10
693.60968703972344
 20
360.69028008719027
 11
692.60968703972344
 21
359.69028008719027
  0
LINE
  8
_1-0_
  6
CONTINUOUS
 62
    2
 10
693.04400161477429
 20
360.69028008719027
 11
692.04400161477429
 21
359.69028008719027
  0
LINE
  8
_1-0_
  6
CONTINUOUS
 62
    2
 10
692.47831618982514
 20
360.69028008719027
 11
691.47831618982514
 21
359.69028008719027
  0
LINE
  8
_1-0_
  6
CONTINUOUS
 62
    2
 10
691.91263076487564
 20
360.69028008719027
 11
690.91263076487564
 21
359.69028008719027
  0
LINE
  8
_1-0_
  6
CONTINUOUS
 62
    2
 10
691.34694533992649
 20
360.69028008719027
 11
690.34694533992649
 21
359.69028008719027
  0
LINE
  8
_1-0_
  6
CONTINUOUS
 62
    2
 10
690.78125991497711
 20
360.69028008719027
 11
689.78125991497711
 21
359.69028008719027
  0
LINE
  8
_1-0_
  6
CONTINUOUS
 62
    2
 10
690.21557449002796
 20
360.69028008719027
 11
689.21557449002796
 21
359.69028008719027
  0
LINE
  8
_1-0_
  6
CONTINUOUS
 62
    2
 10
689.6498890650787
 20
360.69028008719027
 11
688.6498890650787
 21
359.69028008719027
  0
LINE
  8
_1-0_
  6
CONTINUOUS
 62
    2
 10
689.08420364012932
 20
360.69028008719027
 11
688.08420364012932
 21
359.69028008719027
  0
LINE
  8
_1-0_
  6
CONTINUOUS
 62
    2
 10
688.51851821518039
 20
360.69028008719027
 11
687.51851821518039
 21
359.69028008719027
  0
LINE
  8
_1-0_
  6
CONTINUOUS
 62
    2
 10
687.95283279023101
 20
360.69028008719027
 11
686.95283279023101
 21
359.69028008719027
  0
LINE
  8
_1-0_
  6
CONTINUOUS
 62
    2
 10
687.38714736528186
 20
360.69028008719027
 11
686.38714736528186
 21
359.69028008719027
  0
LINE
  8
_1-0_
  6
CONTINUOUS
 62
    2
 10
686.82146194033271
 20
360.69028008719027
 11
685.82146194033271
 21
359.69028008719027
  0
LINE
  8
_1-0_
  6
CONTINUOUS
 62
    2
 10
686.25577651538322
 20
360.69028008719027
 11
685.25577651538322
 21
359.69028008719027
  0
LINE
  8
_1-0_
  6
CONTINUOUS
 62
    2
 10
686.1999999999997
 20
361.20018899675597
 11
684.69009109043407
 21
359.69028008719027
  0
LINE
  8
_1-0_
  6
CONTINUOUS
 62
    2
 10
686.1999999999997
 20
361.76587442170535
 11
684.1999999999997
 21
359.76587442170535
  0
LINE
  8
_1-0_
  6
CONTINUOUS
 62
    2
 10
686.1999999999997
 20
362.3315598466545
 11
684.1999999999997
 21
360.3315598466545
  0
LINE
  8
_1-0_
  6
CONTINUOUS
 62
    2
 10
686.1999999999997
 20
362.89724527160371
 11
684.1999999999997
 21
360.89724527160371
  0
LINE
  8
_1-0_
  6
CONTINUOUS
 62
    2
 10
686.1999999999997
 20
363.46293069655297
 11
684.1999999999997
 21
361.46293069655297
  0
LINE
  8
_1-0_
  6
CONTINUOUS
 62
    2
 10
686.1999999999997
 20
364.02861612150218
 11
684.1999999999997
 21
362.02861612150218
  0
LINE
  8
_1-0_
  6
CONTINUOUS
 62
    2
 10
686.1999999999997
 20
364.59430154645156
 11
684.1999999999997
 21
362.59430154645156
  0
LINE
  8
_1-0_
  6
CONTINUOUS
 62
    2
 10
686.1999999999997
 20
365.15998697140071
 11
684.1999999999997
 21
363.15998697140071
  0
LINE
  8
_1-0_
  6
CONTINUOUS
 62
    2
 10
686.1999999999997
 20
365.72567239634992
 11
684.1999999999997
 21
363.72567239634992
  0
LINE
  8
_1-0_
  6
CONTINUOUS
 62
    2
 10
686.1999999999997
 20
366.29135782129919
 11
684.1999999999997
 21
364.29135782129919
  0
LINE
  8
_1-0_
  6
CONTINUOUS
 62
    2
 10
686.15323684093937
 20
366.81028008718806
 11
684.1999999999997
 21
364.8570432462484
  0
LINE
  8
_1-0_
  6
CONTINUOUS
 62
    2
 10
685.58755141599033
 20
366.81028008718806
 11
684.1999999999997
 21
365.42272867119777
  0
LINE
  8
_1-0_
  6
CONTINUOUS
 62
    2
 10
685.02186599104118
 20
366.81028008718806
 11
684.1999999999997
 21
365.98841409614693
  0
LINE
  8
_1-0_
  6
CONTINUOUS
 62
    2
 10
684.45618056609192
 20
366.81028008718806
 11
684.1999999999997
 21
366.55409952109608
  0
LINE
  8
_1-e_
  6
CONTINUOUS
 62
    4
 10
677.20000000000005
 20
366.81028008718806
 11
657.20000000000005
 21
366.81028008718806
  0
LINE
  8
_1-e_
  6
CONTINUOUS
 62
    4
 10
685.1999999999997
 20
360.69028008719027
 11
657.20000000000005
 21
360.69028008719027
  0
POINT
  8
_1-e_
 62
    4
 10
658.20000000000005
 20
360.69028008719027
  0
POINT
  8
_1-e_
 62
    4
 10
658.20000000000005
 20
366.81028008718806
  0
LINE
  8
_1-e_
  6
CONTINUOUS
 62
    4
 10
658.20000000000005
 20
360.69028008719027
 11
658.20000000000005
 21
366.81028008718806
  0
TEXT
  8
_1-e_
 62
    4
 10
658.20000000000005
 20
357.75028008718914
 40
6
 41
1
 50
90
  1
30.6
  0
LINE
  8
_1-0_
  6
CONTINUOUS
 62
    2
 10
763.00000000000023
 20
366.81028008719045
 11
771.00000000000023
 21
366.81028008719045
  0
LINE
  8
_1-0_
  6
CONTINUOUS
 62
    2
 10
765.00000000000057
 20
359.96236596456976
 11
764.72791412262109
 21
359.69028008719027
  0
LINE
  8
_1-0_
  6
CONTINUOUS
 62
    2
 10
765.00000000000057
 20
360.52805138951891
 11
764.16222869767216
 21
359.69028008719027
  0
LINE
  8
_1-0_
  6
CONTINUOUS
 62
    2
 10
765.00000000000057
 20
361.09373681446817
 11
763.59654327272278
 21
359.69028008719027
  0
LINE
  8
_1-0_
  6
CONTINUOUS
 62
    2
 10
765.00000000000057
 20
361.65942223941738
 11
763.03085784777363
 21
359.69028008719027
  0
LINE
  8
_1-0_
  6
CONTINUOUS
 62
    2
 10
765.00000000000057
 20
362.22510766436665
 11
762.46517242282448
 21
359.69028008719027
  0
LINE
  8
_1-0_
  6
CONTINUOUS
 62
    2
 10
765.00000000000057
 20
362.79079308931597
 11
763.00000000000023
 21
360.79079308931568
  0
LINE
  8
_1-0_
  6
CONTINUOUS
 62
    2
 10
762.89948699787476
 20
360.69028008719027
 11
761.89948699787476
 21
359.69028008719027
  0
LINE
  8
_1-0_
  6
CONTINUOUS
 62
    2
 10
765.00000000000057
 20
363.35647851426512
 11
763.00000000000023
 21
361.35647851426495
  0
LINE
  8
_1-0_
  6
CONTINUOUS
 62
    2
 10
762.33380157292584
 20
360.69028008719027
 11
761.33380157292584
 21
359.69028008719027
  0
LINE
  8
_1-0_
  6
CONTINUOUS
 62
    2
 10
765.00000000000057
 20
363.92216393921439
 11
763.00000000000023
 21
361.92216393921427
  0
LINE
  8
_1-0_
  6
CONTINUOUS
 62
    2
 10
761.76811614797612
 20
360.69028008719027
 11
760.76811614797612
 21
359.69028008719027
  0
LINE
  8
_1-0_
  6
CONTINUOUS
 62
    2
 10
765.00000000000057
 20
364.48784936416354
 11
763.00000000000023
 21
362.48784936416342
  0
LINE
  8
_1-0_
  6
CONTINUOUS
 62
    2
 10
761.20243072302719
 20
360.69028008719027
 11
760.20243072302719
 21
359.69028008719027
  0
LINE
  8
_1-0_
  6
CONTINUOUS
 62
    2
 10
765.00000000000057
 20
365.05353478911286
 11
763.00000000000023
 21
363.05353478911269
  0
LINE
  8
_1-0_
  6
CONTINUOUS
 62
    2
 10
760.63674529807781
 20
360.69028008719027
 11
759.63674529807781
 21
359.69028008719027
  0
LINE
  8
_1-0_
  6
CONTINUOUS
 62
    2
 10
765.00000000000057
 20
365.61922021406201
 11
763.00000000000023
 21
363.6192202140619
  0
LINE
  8
_1-0_
  6
CONTINUOUS
 62
    2
 10
760.07105987312889
 20
360.69028008719027
 11
759.07105987312889
 21
359.69028008719027
  0
LINE
  8
_1-0_
  6
CONTINUOUS
 62
    2
 10
765.00000000000057
 20
366.18490563901133
 11
763.00000000000023
 21
364.18490563901116
  0
LINE
  8
_1-0_
  6
CONTINUOUS
 62
    2
 10
759.50537444817951
 20
360.69028008719027
 11
758.50537444817951
 21
359.69028008719027
  0
LINE
  8
_1-0_
  6
CONTINUOUS
 62
    2
 10
758.93968902323036
 20
360.69028008719027
 11
757.93968902323036
 21
359.69028008719027
  0
LINE
  8
_1-0_
  6
CONTINUOUS
 62
    2
 10
758.37400359828121
 20
360.69028008719027
 11
757.37400359828121
 21
359.69028008719027
  0
LINE
  8
_1-0_
  6
CONTINUOUS
 62
    2
 10
757.80831817333228
 20
360.69028008719027
 11
756.80831817333228
 21
359.69028008719027
  0
LINE
  8
_1-0_
  6
CONTINUOUS
 62
    2
 10
757.2426327483829
 20
360.69028008719027
 11
756.2426327483829
 21
359.69028008719027
  0
LINE
  8
_1-0_
  6
CONTINUOUS
 62
    2
 10
756.67694732343284
 20
360.69028008719027
 11
755.67694732343318
 21
359.69028008719027
  0
LINE
  8
_1-0_
  6
CONTINUOUS
 62
    2
 10
756.11126189848426
 20
360.69028008719027
 11
755.11126189848426
 21
359.69028008719027
  0
LINE
  8
_1-0_
  6
CONTINUOUS
 62
    2
 10
755.54557647353488
 20
360.69028008719027
 11
754.54557647353488
 21
359.69028008719027
  0
LINE
  8
_1-0_
  6
CONTINUOUS
 62
    2
 10
754.97989104858561
 20
360.69028008719027
 11
753.97989104858561
 21
359.69028008719027
  0
LINE
  8
_1-0_
  6
CONTINUOUS
 62
    2
 10
754.41420562363624
 20
360.69028008719027
 11
753.41420562363624
 21
359.69028008719027
  0
LINE
  8
_1-0_
  6
CONTINUOUS
 62
    2
 10
753.84852019868708
 20
360.69028008719027
 11
752.84852019868708
 21
359.69028008719027
  0
LINE
  8
_1-0_
  6
CONTINUOUS
 62
    2
 10
753.28283477373793
 20
360.69028008719027
 11
752.28283477373793
 21
359.69028008719027
  0
LINE
  8
_1-0_
  6
CONTINUOUS
 62
    2
 10
752.71714934878901
 20
360.69028008719027
 11
751.71714934878901
 21
359.69028008719027
  0
LINE
  8
_1-0_
  6
CONTINUOUS
 62
    2
 10
752.15146392383963
 20
360.69028008719027
 11
751.15146392383963
 21
359.69028008719027
  0
LINE
  8
_1-0_
  6
CONTINUOUS
 62
    2
 10
751.58577849889048
 20
360.69028008719027
 11
750.58577849889048
 21
359.69028008719027
  0
LINE
  8
_1-0_
  6
CONTINUOUS
 62
    2
 10
751.02009307394098
 20
360.69028008719027
 11
750.02009307394098
 21
359.69028008719027
  0
LINE
  8
_1-0_
  6
CONTINUOUS
 62
    2
 10
750.45440764899161
 20
360.69028008719027
 11
749.45440764899161
 21
359.69028008719027
  0
LINE
  8
_1-0_
  6
CONTINUOUS
 62
    2
 10
749.88872222404234
 20
360.69028008719027
 11
748.88872222404234
 21
359.69028008719027
  0
LINE
  8
_1-0_
  6
CONTINUOUS
 62
    2
 10
749.32303679909296
 20
360.69028008719027
 11
748.32303679909296
 21
359.69028008719027
  0
LINE
  8
_1-0_
  6
CONTINUOUS
 62
    2
 10
748.75735137414381
 20
360.69028008719027
 11
747.75735137414381
 21
359.69028008719027
  0
LINE
  8
_1-0_
  6
CONTINUOUS
 62
    2
 10
748.19166594919466
 20
360.69028008719027
 11
747.19166594919466
 21
359.69028008719027
  0
LINE
  8
_1-0_
  6
CONTINUOUS
 62
    2
 10
747.62598052424573
 20
360.69028008719027
 11
746.62598052424573
 21
359.69028008719027
  0
LINE
  8
_1-0_
  6
CONTINUOUS
 62
    2
 10
747.06029509929635
 20
360.69028008719027
 11
746.06029509929635
 21
359.69028008719027
  0
LINE
  8
_1-0_
  6
CONTINUOUS
 62
    2
 10
746.4946096743472
 20
360.69028008719027
 11
745.4946096743472
 21
359.69028008719027
  0
LINE
  8
_1-0_
  6
CONTINUOUS
 62
    2
 10
745.92892424939805
 20
360.69028008719027
 11
744.92892424939805
 21
359.69028008719027
  0
LINE
  8
_1-0_
  6
CONTINUOUS
 62
    2
 10
745.36323882444913
 20
360.69028008719027
 11
744.36323882444913
 21
359.69028008719027
  0
LINE
  8
_1-0_
  6
CONTINUOUS
 62
    2
 10
744.79755339949941
 20
360.69028008719027
 11
743.79755339949941
 21
359.69028008719027
  0
LINE
  8
_1-0_
  6
CONTINUOUS
 62
    2
 10
744.23186797454969
 20
360.69028008719027
 11
743.23186797454969
 21
359.69028008719027
  0
LINE
  8
_1-0_
  6
CONTINUOUS
 62
    2
 10
743.66618254960076
 20
360.69028008719027
 11
742.66618254960076
 21
359.69028008719027
  0
LINE
  8
_1-0_
  6
CONTINUOUS
 62
    2
 10
743.10049712465138
 20
360.69028008719027
 11
742.10049712465138
 21
359.69028008719027
  0
LINE
  8
_1-0_
  6
CONTINUOUS
 62
    2
 10
742.53481169970246
 20
360.69028008719027
 11
741.53481169970246
 21
359.69028008719027
  0
LINE
  8
_1-0_
  6
CONTINUOUS
 62
    2
 10
741.96912627475308
 20
360.69028008719027
 11
740.96912627475308
 21
359.69028008719027
  0
LINE
  8
_1-0_
  6
CONTINUOUS
 62
    2
 10
741.40344084980393
 20
360.69028008719027
 11
740.40344084980393
 21
359.69028008719027
  0
LINE
  8
_1-0_
  6
CONTINUOUS
 62
    2
 10
740.83775542485478
 20
360.69028008719027
 11
739.83775542485478
 21
359.69028008719027
  0
LINE
  8
_1-0_
  6
CONTINUOUS
 62
    2
 10
740.27206999990585
 20
360.69028008719027
 11
739.27206999990585
 21
359.69028008719027
  0
LINE
  8
_1-0_
  6
CONTINUOUS
 62
    2
 10
739.70638457495613
 20
360.69028008719027
 11
738.70638457495613
 21
359.69028008719027
  0
LINE
  8
_1-0_
  6
CONTINUOUS
 62
    2
 10
739.14069915000675
 20
360.69028008719027
 11
738.14069915000675
 21
359.69028008719027
  0
LINE
  8
_1-0_
  6
CONTINUOUS
 62
    2
 10
738.57501372505783
 20
360.69028008719027
 11
737.57501372505783
 21
359.69028008719027
  0
LINE
  8
_1-0_
  6
CONTINUOUS
 62
    2
 10
738.00932830010845
 20
360.69028008719027
 11
737.00932830010845
 21
359.69028008719027
  0
LINE
  8
_1-0_
  6
CONTINUOUS
 62
    2
 10
737.44364287515918
 20
360.69028008719027
 11
736.44364287515918
 21
359.69028008719027
  0
LINE
  8
_1-0_
  6
CONTINUOUS
 62
    2
 10
736.87795745020981
 20
360.69028008719027
 11
735.87795745020981
 21
359.69028008719027
  0
LINE
  8
_1-0_
  6
CONTINUOUS
 62
    2
 10
736.31227202526065
 20
360.69028008719027
 11
735.31227202526065
 21
359.69028008719027
  0
LINE
  8
_1-0_
  6
CONTINUOUS
 62
    2
 10
735.7465866003115
 20
360.69028008719027
 11
734.7465866003115
 21
359.69028008719027
  0
LINE
  8
_1-0_
  6
CONTINUOUS
 62
    2
 10
735.18090117536258
 20
360.69028008719027
 11
734.18090117536258
 21
359.69028008719027
  0
LINE
  8
_1-0_
  6
CONTINUOUS
 62
    2
 10
734.6152157504132
 20
360.69028008719027
 11
733.6152157504132
 21
359.69028008719027
  0
LINE
  8
_1-0_
  6
CONTINUOUS
 62
    2
 10
734.04953032546405
 20
360.69028008719027
 11
733.04953032546405
 21
359.69028008719027
  0
LINE
  8
_1-0_
  6
CONTINUOUS
 62
    2
 10
733.48384490051455
 20
360.69028008719027
 11
732.48384490051455
 21
359.69028008719027
  0
LINE
  8
_1-0_
  6
CONTINUOUS
 62
    2
 10
732.91815947556518
 20
360.69028008719027
 11
731.91815947556518
 21
359.69028008719027
  0
LINE
  8
_1-0_
  6
CONTINUOUS
 62
    2
 10
732.35247405061591
 20
360.69028008719027
 11
731.35247405061625
 21
359.69028008719027
  0
LINE
  8
_1-0_
  6
CONTINUOUS
 62
    2
 10
731.78678862566653
 20
360.69028008719027
 11
730.78678862566653
 21
359.69028008719027
  0
LINE
  8
_1-0_
  6
CONTINUOUS
 62
    2
 10
731.22110320071738
 20
360.69028008719027
 11
730.22110320071738
 21
359.69028008719027
  0
LINE
  8
_1-0_
  6
CONTINUOUS
 62
    2
 10
730.65541777576823
 20
360.69028008719027
 11
729.65541777576823
 21
359.69028008719027
  0
LINE
  8
_1-0_
  6
CONTINUOUS
 62
    2
 10
730.0897323508193
 20
360.69028008719027
 11
729.0897323508193
 21
359.69028008719027
  0
LINE
  8
_1-0_
  6
CONTINUOUS
 62
    2
 10
729.52404692586992
 20
360.69028008719027
 11
728.60000000000059
 21
359.76623316132083
  0
LINE
  8
_1-0_
  6
CONTINUOUS
 62
    2
 10
728.95836150092077
 20
360.69028008719027
 11
728.60000000000059
 21
360.33191858627009
  0
LINE
  8
_1-0_
  6
CONTINUOUS
 62
    2
 10
765.00000000000057
 20
366.81028008719045
 11
765.00000000000057
 21
359.69028008719027
  0
LINE
  8
_1-0_
  6
CONTINUOUS
 62
    2
 10
763.00000000000023
 20
366.81028008719045
 11
763.00000000000023
 21
360.69028008719027
  0
LINE
  8
_1-0_
  6
CONTINUOUS
 62
    2
 10
764.49400359828201
 20
366.81028008719045
 11
763.00000000000023
 21
365.31627648890964
  0
LINE
  8
_1-0_
  6
CONTINUOUS
 62
    2
 10
763.92831817333195
 20
366.81028008719045
 11
763.00000000000023
 21
365.8819619138589
  0
LINE
  8
_1-0_
  6
CONTINUOUS
 62
    2
 10
763.3626327483795
 20
366.81028008719045
 11
763.00000000000023
 21
366.44764733880805
  0
LINE
  8
_1-0_
  6
CONTINUOUS
 62
    2
 10
765.00000000000057
 20
366.75059106396043
 11
763.00000000000023
 21
364.75059106396048
  0
LINE
  8
_1-e_
  6
CONTINUOUS
 62
    4
 10
764.00000000000023
 20
360.69028008719033
 11
792.00000000000023
 21
360.69028008719033
  0
LINE
  8
_1-e_
  6
CONTINUOUS
 62
    4
 10
772.00000000000023
 20
366.81028008719045
 11
792.00000000000023
 21
366.81028008719045
  0
POINT
  8
_1-e_
 62
    4
 10
791.00000000000023
 20
366.81028008719045
  0
POINT
  8
_1-e_
 62
    4
 10
791.00000000000023
 20
360.69028008719033
  0
LINE
  8
_1-e_
  6
CONTINUOUS
 62
    4
 10
791.00000000000023
 20
366.81028008719045
 11
791.00000000000023
 21
360.69028008719033
  0
TEXT
  8
_1-e_
 62
    4
 10
791.00000000000023
 20
357.75028008719039
 40
6
 41
1
 50
90
  1
30.6
  0
LINE
  8
_1-0_
  6
CONTINUOUS
 62
    4
 10
698.60000000000025
 20
361.69028008719027
 11
698.60000000000025
 21
387.81028008718806
  0
LINE
  8
_1-0_
  6
CONTINUOUS
 62
    4
 10
686.1999999999997
 20
367.81028008718806
 11
686.1999999999997
 21
387.81028008718806
  0
POINT
  8
_1-0_
 62
    4
 10
686.1999999999997
 20
386.81028008718806
  0
POINT
  8
_1-0_
 62
    4
 10
698.60000000000025
 20
386.81028008718806
  0
LINE
  8
_1-0_
  6
CONTINUOUS
 62
    4
 10
686.1999999999997
 20
386.81028008718806
 11
698.60000000000025
 21
386.81028008718806
  0
TEXT
  8
_1-0_
 62
    4
 10
688.79999999999984
 20
386.81028008718806
 40
9
 41
0.8
 50
0
  1
62
  0
LINE
  8
_1-0_
  6
CONTINUOUS
 62
    4
 10
728.60000000000059
 20
361.69028008719027
 11
728.60000000000059
 21
387.81028008718806
  0
POINT
  8
_1-0_
 62
    4
 10
698.60000000000025
 20
386.81028008718806
  0
POINT
  8
_1-0_
 62
    4
 10
728.60000000000059
 20
386.81028008718806
  0
LINE
  8
_1-0_
  6
CONTINUOUS
 62
    4
 10
698.60000000000025
 20
386.81028008718806
 11
728.60000000000059
 21
386.81028008718806
  0
TEXT
  8
_1-0_
 62
    4
 10
708.20000000000061
 20
386.81028008718806
 40
9
 41
0.8
 50
0
  1
150
  0
LINE
  8
_1-0_
  6
CONTINUOUS
 62
    4
 10
763.00000000000023
 20
367.81028008719045
 11
763.00000000000023
 21
387.81028008718806
  0
POINT
  8
_1-0_
 62
    4
 10
728.60000000000059
 20
386.81028008718806
  0
POINT
  8
_1-0_
 62
    4
 10
763.00000000000023
 20
386.81028008718806
  0
LINE
  8
_1-0_
  6
CONTINUOUS
 62
    4
 10
728.60000000000059
 20
386.81028008718806
 11
763.00000000000023
 21
386.81028008718806
  0
TEXT
  8
_1-0_
 62
    4
 10
740.40000000000043
 20
386.81028008718806
 40
9
 41
0.8
 50
0
  1
172
  0
LINE
  8
_0-a_
  6
CONTINUOUS
 62
    3
 10
531.60000000000093
 20
331.00000000001182
 11
551.2442132566581
 21
331.00000000001182
  0
LINE
  8
_0-a_
  6
CONTINUOUS
 62
    3
 10
399.60000000000133
 20
302.0000000000116
 11
399.60000000000133
 21
303.0000000000116
  0
LINE
  8
_0-a_
  6
CONTINUOUS
 62
    3
 10
393.60000000000133
 20
308.0000000000116
 11
375.60000000000042
 21
308.0000000000116
  0
LINE
  8
_0-a_
  6
CONTINUOUS
 62
    3
 10
393.60000000000133
 20
306.5000000000116
 11
375.60000000000042
 21
306.5000000000116
  0
LINE
  8
_0-a_
  6
CONTINUOUS
 62
    3
 10
393.60000000000133
 20
308.0000000000116
 11
393.60000000000133
 21
306.5000000000116
  0
LINE
  8
_0-a_
  6
CONTINUOUS
 62
    3
 10
375.60000000000042
 20
308.0000000000116
 11
375.60000000000042
 21
306.5000000000116
  0
LINE
  8
_0-a_
  6
CONTINUOUS
 62
    3
 10
389.10000000000133
 20
308.0000000000116
 11
388.9910872162007
 21
309.24487881501159
  0
LINE
  8
_0-a_
  6
CONTINUOUS
 62
    3
 10
380.20891278370078
 20
309.24487881501159
 11
380.10000000000133
 21
308.0000000000116
  0
ARC
  8
_0-a_
  6
CONTINUOUS
 62
    3
 10
381.19514553489995
 20
309.15859462971139
 40
0.9899999999999997
 50
127.36755803206628
 51
175.0000000012005
  0
ARC
  8
_0-a_
  6
CONTINUOUS
 62
    3
 10
388.00485446510089
 20
309.15859462971139
 40
0.9899999999999997
 50
4.9999999987995034
 51
52.632441967950172
  0
ARC
  8
_0-a_
  6
CONTINUOUS
 62
    3
 10
384.60000000000042
 20
304.70000000001141
 40
6.5999999999999996
 50
52.632441967704736
 51
68.266383543400039
  0
ARC
  8
_0-a_
  6
CONTINUOUS
 62
    3
 10
384.60000000000042
 20
304.70000000001141
 40
6.5999999999999996
 50
111.74840859090317
 51
127.36755803230515
  0
LINE
  8
_0-a_
  6
CONTINUOUS
 62
    3
 10
384.9150000000007
 20
311.25912712961167
 11
384.9150000000007
 21
310.82331223961137
  0
LINE
  8
_0-a_
  6
CONTINUOUS
 62
    3
 10
385.26228868190179
 20
311.25912712961167
 11
384.9150000000007
 21
311.25912712961167
  0
LINE
  8
_0-a_
  6
CONTINUOUS
 62
    3
 10
387.04250326850052
 20
310.82331223961137
 11
385.26228868190179
 21
311.25912712961167
  0
LINE
  8
_0-a_
  6
CONTINUOUS
 62
    3
 10
383.93771131800059
 20
311.25912712961167
 11
382.63780105030042
 21
310.99369130821174
  0
LINE
  8
_0-a_
  6
CONTINUOUS
 62
    3
 10
382.63780105030042
 20
310.99369130821174
 11
382.15749673140186
 21
310.82331223961137
  0
LINE
  8
_0-a_
  6
CONTINUOUS
 62
    3
 10
384.28500000000059
 20
311.25912712961167
 11
383.93771131800059
 21
311.25912712961167
  0
LINE
  8
_0-a_
  6
CONTINUOUS
 62
    3
 10
384.28500000000059
 20
310.82331223961137
 11
384.28500000000059
 21
311.25912712961167
  0
LINE
  8
_0-a_
  6
CONTINUOUS
 62
    3
 10
384.9150000000007
 20
310.82331223961137
 11
384.60000000000042
 21
310.82841741401171
  0
LINE
  8
_0-a_
  6
CONTINUOUS
 62
    3
 10
384.60000000000042
 20
310.82841741401171
 11
384.28500000000059
 21
310.82331223961137
  0
LINE
  8
_0-a_
  6
CONTINUOUS
 62
    3
 10
377.10000000000156
 20
303.0000000000116
 11
377.10000000000156
 21
306.5000000000116
  0
LINE
  8
_0-a_
  6
CONTINUOUS
 62
    3
 10
392.10000000000133
 20
303.0000000000116
 11
392.10000000000133
 21
306.5000000000116
  0
LINE
  8
_0-a_
  6
CONTINUOUS
 62
    3
 10
384.90000000000151
 20
306.5000000000116
 11
384.6000000000011
 21
306.20000000001187
  0
LINE
  8
_0-a_
  6
CONTINUOUS
 62
    3
 10
384.6000000000011
 20
306.20000000001187
 11
384.30000000000138
 21
306.5000000000116
  0
LINE
  8
_0-a_
  6
CONTINUOUS
 62
    3
 10
424.60000000000133
 20
306.5000000000116
 11
427.10000000000133
 21
305.50000000001182
  0
LINE
  8
_0-a_
  6
CONTINUOUS
 62
    3
 10
404.3000000000016
 20
306.5000000000116
 11
384.90000000000151
 21
306.5000000000116
  0
LINE
  8
_0-a_
  6
CONTINUOUS
 62
    3
 10
487.10000000000042
 20
305.5000000000116
 11
427.10000000000133
 21
305.5000000000116
  0
LINE
  8
_0-a_
  6
CONTINUOUS
 62
    3
 10
214.10000000000045
 20
325.80000000001155
 11
352.10000000000019
 21
325.80000000001155
  0
LINE
  8
_0-a_
  6
CONTINUOUS
 62
    3
 10
214.10000000000045
 20
328.80000000001155
 11
320.60000000000042
 21
328.80000000001155
  0
LINE
  8
_0-a_
  6
CONTINUOUS
 62
    3
 10
210.10000000000045
 20
322.80000000001155
 11
320.60000000000042
 21
322.80000000001155
  0
LINE
  8
_0-a_
  6
CONTINUOUS
 62
    3
 10
498.60000000000042
 20
307.00000000001137
 11
480.59999999999951
 21
307.00000000001137
  0
LINE
  8
_0-a_
  6
CONTINUOUS
 62
    3
 10
498.60000000000042
 20
305.50000000001137
 11
480.59999999999951
 21
305.50000000001137
  0
LINE
  8
_0-a_
  6
CONTINUOUS
 62
    3
 10
498.60000000000042
 20
307.00000000001137
 11
498.60000000000042
 21
305.50000000001137
  0
LINE
  8
_0-a_
  6
CONTINUOUS
 62
    3
 10
480.59999999999951
 20
307.00000000001137
 11
480.59999999999951
 21
305.50000000001137
  0
LINE
  8
_0-a_
  6
CONTINUOUS
 62
    3
 10
494.10000000000042
 20
307.00000000001137
 11
493.99108721620001
 21
308.24487881501159
  0
LINE
  8
_0-a_
  6
CONTINUOUS
 62
    3
 10
485.20891278369987
 20
308.24487881501159
 11
485.10000000000042
 21
307.00000000001137
  0
ARC
  8
_0-a_
  6
CONTINUOUS
 62
    3
 10
486.19514553489904
 20
308.15859462971116
 40
0.9899999999999997
 50
127.36755803204984
 51
175.0000000012005
  0
ARC
  8
_0-a_
  6
CONTINUOUS
 62
    3
 10
493.00485446509998
 20
308.15859462971116
 40
0.9899999999999997
 50
4.9999999987995034
 51
52.632441967950172
  0
ARC
  8
_0-a_
  6
CONTINUOUS
 62
    3
 10
489.59999999999951
 20
303.70000000001141
 40
6.5999999999999996
 50
52.632441967704736
 51
68.266383543398021
  0
ARC
  8
_0-a_
  6
CONTINUOUS
 62
    3
 10
489.59999999999951
 20
303.70000000001141
 40
6.5999999999999996
 50
111.74840859090317
 51
127.36755803230515
  0
LINE
  8
_0-a_
  6
CONTINUOUS
 62
    3
 10
489.91500000000002
 20
310.25912712961167
 11
489.91500000000002
 21
309.82331223961114
  0
LINE
  8
_0-a_
  6
CONTINUOUS
 62
    3
 10
490.26228868190088
 20
310.25912712961167
 11
489.91500000000002
 21
310.25912712961167
  0
LINE
  8
_0-a_
  6
CONTINUOUS
 62
    3
 10
492.04250326849984
 20
309.82331223961114
 11
490.26228868190088
 21
310.25912712961167
  0
LINE
  8
_0-a_
  6
CONTINUOUS
 62
    3
 10
488.93771131799991
 20
310.25912712961167
 11
487.63780105029952
 21
309.99369130821174
  0
LINE
  8
_0-a_
  6
CONTINUOUS
 62
    3
 10
487.63780105029952
 20
309.99369130821174
 11
487.15749673140095
 21
309.82331223961114
  0
LINE
  8
_0-a_
  6
CONTINUOUS
 62
    3
 10
489.28499999999991
 20
310.25912712961167
 11
488.93771131799991
 21
310.25912712961167
  0
LINE
  8
_0-a_
  6
CONTINUOUS
 62
    3
 10
489.28499999999991
 20
309.82331223961114
 11
489.28499999999991
 21
310.25912712961167
  0
LINE
  8
_0-a_
  6
CONTINUOUS
 62
    3
 10
489.91500000000002
 20
309.82331223961114
 11
489.59999999999951
 21
309.82841741401148
  0
LINE
  8
_0-a_
  6
CONTINUOUS
 62
    3
 10
489.59999999999951
 20
309.82841741401148
 11
489.28499999999991
 21
309.82331223961114
  0
LINE
  8
_0-a_
  6
CONTINUOUS
 62
    3
 10
482.10000000000042
 20
303.0000000000116
 11
482.10000000000042
 21
305.5000000000116
  0
LINE
  8
_0-a_
  6
CONTINUOUS
 62
    3
 10
497.10000000000042
 20
303.0000000000116
 11
497.10000000000042
 21
305.5000000000116
  0
LINE
  8
_0-a_
  6
CONTINUOUS
 62
    3
 10
489.60000000000178
 20
305.20000000001119
 11
489.30000000000206
 21
305.50000000001182
  0
LINE
  8
_0-a_
  6
CONTINUOUS
 62
    3
 10
489.90000000000151
 20
305.50000000001182
 11
489.60000000000178
 21
305.20000000001119
  0
ARC
  8
_0-a_
  6
CONTINUOUS
 62
    3
 10
345.60000000000133
 20
304.0000000000116
 40
1
 50
180
 51
270
  0
ARC
  8
_0-a_
  6
CONTINUOUS
 62
    3
 10
350.60000000000156
 20
309.5000000000116
 40
3
 50
180
 51
270
  0
LINE
  8
_0-a_
  6
CONTINUOUS
 62
    3
 10
343.0999985000015
 20
319.79999800002338
 11
343.0999985000015
 21
314.80000000002315
  0
LINE
  8
_0-a_
  6
CONTINUOUS
 62
    3
 10
343.0999985000015
 20
314.80000000002315
 11
344.59999850000105
 21
314.80000000002315
  0
LINE
  8
_0-a_
  6
CONTINUOUS
 62
    3
 10
347.59999850000128
 20
314.80000000002315
 11
349.09999850000128
 21
314.80000000002315
  0
LINE
  8
_0-a_
  6
CONTINUOUS
 62
    3
 10
349.09999850000128
 20
314.80000000002315
 11
349.09999850000128
 21
319.79999800002338
  0
ARC
  8
_0-a_
  6
CONTINUOUS
 62
    3
 10
346.09999850000105
 20
319.79999800002338
 40
1.7000010000000001
 50
0
 51
180
  0
ARC
  8
_0-a_
  6
CONTINUOUS
 62
    3
 10
346.09999850000105
 20
319.79999800002338
 40
3
 50
0
 51
180
  0
LINE
  8
_0-a_
  6
CONTINUOUS
 62
    3
 10
347.59999250000175
 20
316.79999800002315
 11
347.3561495000011
 21
316.79999800002315
  0
ARC
  8
_0-a_
  6
CONTINUOUS
 62
    3
 10
347.3561495000011
 20
316.60000000002333
 40
0.200001
 50
90
 51
194.03640199999484
  0
LINE
  8
_0-a_
  6
CONTINUOUS
 62
    3
 10
347.59999850000128
 20
314.80000000002315
 11
347.16212150000121
 21
316.55149300002336
  0
LINE
  8
_0-a_
  6
CONTINUOUS
 62
    3
 10
344.59999850000105
 20
316.79999800002315
 11
344.8438445000009
 21
316.79999800002315
  0
ARC
  8
_0-a_
  6
CONTINUOUS
 62
    3
 10
344.8438445000009
 20
316.60000000002333
 40
0.200001
 50
345.96380799999201
 51
90
  0
LINE
  8
_0-a_
  6
CONTINUOUS
 62
    3
 10
344.60000150000093
 20
314.80000000002315
 11
345.0378725000017
 21
316.55149300002336
  0
LINE
  8
_0-a_
  6
CONTINUOUS
 62
    3
 10
347.59999250000175
 20
316.79999800002315
 11
347.79999350000077
 21
316.79999800002315
  0
LINE
  8
_0-a_
  6
CONTINUOUS
 62
    3
 10
347.79999350000077
 20
316.79999800002315
 11
347.79999950000121
 21
319.79999800002338
  0
LINE
  8
_0-a_
  6
CONTINUOUS
 62
    3
 10
344.60000150000093
 20
316.79999800002315
 11
344.39999750000112
 21
316.79999800002315
  0
LINE
  8
_0-a_
  6
CONTINUOUS
 62
    3
 10
344.39999750000112
 20
316.79999800002315
 11
344.39999750000112
 21
319.79999800002338
  0
LINE
  8
_0-a_
  6
CONTINUOUS
 62
    3
 10
345.10000000000201
 20
316.80000000002315
 11
344.60000000000156
 21
314.80000000002315
  0
LINE
  8
_0-a_
  6
CONTINUOUS
 62
    3
 10
344.60000000000156
 20
316.80000000002315
 11
345.10000000000201
 21
316.80000000002315
  0
LINE
  8
_0-a_
  6
CONTINUOUS
 62
    3
 10
344.60000000000156
 20
319.80000000002315
 11
344.60000000000156
 21
316.80000000002315
  0
ARC
  8
_0-a_
  6
CONTINUOUS
 62
    3
 10
346.10000000000156
 20
319.80000000002315
 40
1.5
 50
0
 51
180
  0
LINE
  8
_0-a_
  6
CONTINUOUS
 62
    3
 10
347.60000000000201
 20
316.80000000002315
 11
347.60000000000201
 21
319.80000000002315
  0
LINE
  8
_0-a_
  6
CONTINUOUS
 62
    3
 10
347.10000000000156
 20
316.80000000002315
 11
347.60000000000201
 21
316.80000000002315
  0
LINE
  8
_0-a_
  6
CONTINUOUS
 62
    3
 10
347.60000000000201
 20
314.80000000002315
 11
347.10000000000156
 21
316.80000000002315
  0
LINE
  8
_0-a_
  6
CONTINUOUS
 62
    3
 10
347.60000000000201
 20
309.0000000000116
 11
347.60000000000201
 21
314.80000000002315
  0
LINE
  8
_0-a_
  6
CONTINUOUS
 62
    3
 10
384.30000000000138
 20
306.5000000000116
 11
350.60000000000156
 21
306.5000000000116
  0
LINE
  8
_0-a_
  6
CONTINUOUS
 62
    3
 10
345.60000000000133
 20
303.0000000000116
 11
399.60000000000133
 21
303.0000000000116
  0
LINE
  8
_0-a_
  6
CONTINUOUS
 62
    3
 10
428.10000000000019
 20
323.80000000001155
 11
428.10000000000019
 21
316.80000000001155
  0
LINE
  8
_0-a_
  6
CONTINUOUS
 62
    3
 10
428.10000000000019
 20
323.80000000001155
 11
428.10000000000019
 21
316.80000000001155
  0
LINE
  8
_0-a_
  6
CONTINUOUS
 62
    3
 10
428.10000000000019
 20
316.80000000001155
 11
426.10000000000042
 21
316.80000000001155
  0
LINE
  8
_0-a_
  6
CONTINUOUS
 62
    3
 10
428.10000000000019
 20
323.80000000001155
 11
428.10000000000019
 21
316.80000000001155
  0
LINE
  8
_0-a_
  6
CONTINUOUS
 62
    3
 10
422.10000000000019
 20
325.80000000001155
 11
422.10000000000019
 21
328.80000000001155
  0
LINE
  8
_0-a_
  6
CONTINUOUS
 62
    3
 10
426.10000000000042
 20
322.80000000001155
 11
426.10000000000042
 21
316.80000000001155
  0
LINE
  8
_0-a_
  6
CONTINUOUS
 62
    3
 10
422.10000000000019
 20
325.80000000001155
 11
289.10000000000042
 21
325.80000000001155
  0
LINE
  8
_0-a_
  6
CONTINUOUS
 62
    3
 10
426.10000000000042
 20
322.80000000001155
 11
320.60000000000042
 21
322.80000000001155
  0
LINE
  8
_0-a_
  6
CONTINUOUS
 62
    3
 10
344.60000000000156
 20
314.79999399999451
 11
344.60000000000156
 21
304.0000000000116
  0
LINE
  8
_0-a_
  6
CONTINUOUS
 62
    3
 10
344.60000000000156
 20
314.79999399999451
 11
344.60000000000156
 21
304.0000000000116
  0
LINE
  8
_0-a_
  6
CONTINUOUS
 62
    3
 10
424.60000000000133
 20
306.5000000000116
 11
392.10000000000133
 21
306.5000000000116
  0
LINE
  8
_0-a_
  6
CONTINUOUS
 62
    3
 10
428.10000000000019
 20
323.80000000001155
 11
428.10000000000019
 21
316.80000000001155
  0
LINE
  8
_0-a_
  6
CONTINUOUS
 62
    3
 10
428.10000000000019
 20
323.80000000001155
 11
428.10000000000019
 21
316.80000000001155
  0
LINE
  8
_0-a_
  6
CONTINUOUS
 62
    3
 10
428.10000000000019
 20
316.80000000001155
 11
426.10000000000042
 21
316.80000000001155
  0
LINE
  8
_0-a_
  6
CONTINUOUS
 62
    3
 10
428.10000000000019
 20
323.80000000001155
 11
428.10000000000019
 21
316.80000000001155
  0
LINE
  8
_0-a_
  6
CONTINUOUS
 62
    3
 10
422.10000000000019
 20
325.80000000001155
 11
422.10000000000019
 21
328.80000000001155
  0
LINE
  8
_0-a_
  6
CONTINUOUS
 62
    3
 10
426.10000000000042
 20
322.80000000001155
 11
426.10000000000042
 21
316.80000000001155
  0
LINE
  8
_0-a_
  6
CONTINUOUS
 62
    3
 10
424.10000000000042
 20
328.5000000000116
 11
422.10000000000019
 21
328.5000000000116
  0
LINE
  8
_0-a_
  6
CONTINUOUS
 62
    3
 10
424.10000000000042
 20
328.5000000000116
 11
428.10000000000019
 21
323.80000000001155
  0
LINE
  8
_0-a_
  6
CONTINUOUS
 62
    3
 10
422.10000000000019
 20
328.80000000001155
 11
320.60000000000042
 21
328.80000000001155
  0
ARC
  8
_0-a_
  6
CONTINUOUS
 62
    3
 10
352.60000000000133
 20
334.0000000000116
 40
1
 50
0
 51
90
  0
LINE
  8
_0-a_
  6
CONTINUOUS
 62
    3
 10
353.60000000000133
 20
334.0000000000116
 11
353.60000000000133
 21
331.0000000000116
  0
ARC
  8
_0-a_
  6
CONTINUOUS
 62
    3
 10
352.60000000000133
 20
334.0000000000116
 40
1
 50
0
 51
90
  0
LINE
  8
_0-a_
  6
CONTINUOUS
 62
    3
 10
344.60000000000133
 20
328.50000000001182
 11
344.60000000000133
 21
330.50000000001182
  0
LINE
  8
_0-a_
  6
CONTINUOUS
 62
    3
 10
352.30000000000138
 20
335.0000000000116
 11
344.60000000000133
 21
330.50000000001182
  0
LINE
  8
_0-a_
  6
CONTINUOUS
 62
    3
 10
344.60000000000133
 20
328.50000000001182
 11
344.60000000000133
 21
330.50000000001182
  0
ARC
  8
_0-a_
  6
CONTINUOUS
 62
    3
 10
352.60000000000133
 20
334.0000000000116
 40
1
 50
0
 51
90
  0
LINE
  8
_0-a_
  6
CONTINUOUS
 62
    3
 10
344.60000000000133
 20
328.50000000001182
 11
344.60000000000133
 21
330.50000000001182
  0
LINE
  8
_0-a_
  6
CONTINUOUS
 62
    3
 10
353.60000000000133
 20
334.0000000000116
 11
353.60000000000133
 21
331.0000000000116
  0
LINE
  8
_0-a_
  6
CONTINUOUS
 62
    3
 10
353.60000000000133
 20
334.0000000000116
 11
353.60000000000133
 21
331.0000000000116
  0
LINE
  8
_0-a_
  6
CONTINUOUS
 62
    3
 10
344.60000000000133
 20
328.50000000001182
 11
344.60000000000133
 21
330.50000000001182
  0
ARC
  8
_0-a_
  6
CONTINUOUS
 62
    3
 10
352.60000000000133
 20
334.0000000000116
 40
1
 50
0
 51
90
  0
LINE
  8
_0-a_
  6
CONTINUOUS
 62
    3
 10
352.30000000000138
 20
335.0000000000116
 11
352.60000000000133
 21
335.0000000000116
  0
LINE
  8
_0-a_
  6
CONTINUOUS
 62
    3
 10
352.60000000000133
 20
335.0000000000116
 11
352.30000000000138
 21
335.0000000000116
  0
LINE
  8
_0-a_
  6
CONTINUOUS
 62
    3
 10
352.30000000000138
 20
335.0000000000116
 11
352.60000000000133
 21
335.0000000000116
  0
LINE
  8
_0-a_
  6
CONTINUOUS
 62
    3
 10
219.6000000000009
 20
328.50000000000023
 11
219.6000000000009
 21
330.50000000000023
  0
ARC
  8
_0-a_
  6
CONTINUOUS
 62
    3
 10
513.10000000000139
 20
307.5000000000116
 40
2
 50
270
 51
0
  0
LINE
  8
_0-a_
  6
CONTINUOUS
 62
    3
 10
502.60000000000133
 20
334.5000000000116
 11
502.60000000000133
 21
331.00000000001182
  0
LINE
  8
_0-a_
  6
CONTINUOUS
 62
    3
 10
514.10000000000139
 20
327.00000000001182
 11
510.40000000000106
 21
327.00000000001182
  0
LINE
  8
_0-a_
  6
CONTINUOUS
 62
    3
 10
509.80000000000069
 20
327.00000000001182
 11
506.10000000000088
 21
327.00000000001182
  0
LINE
  8
_0-a_
  6
CONTINUOUS
 62
    3
 10
504.60000000000088
 20
324.50000000001182
 11
514.10000000000139
 21
324.50000000001182
  0
LINE
  8
_0-a_
  6
CONTINUOUS
 62
    3
 10
502.60000000000133
 20
328.50000000001182
 11
502.60000000000133
 21
326.50000000001182
  0
ARC
  8
_0-a_
  6
CONTINUOUS
 62
    3
 10
504.60000000000088
 20
326.50000000001182
 40
2
 50
180
 51
270
  0
ARC
  8
_0-a_
  6
CONTINUOUS
 62
    3
 10
514.10000000000139
 20
323.50000000001182
 40
1
 50
0
 51
90
  0
ARC
  8
_0-a_
  6
CONTINUOUS
 62
    3
 10
504.60000000000088
 20
326.50000000001182
 40
2
 50
180
 51
270
  0
LINE
  8
_0-a_
  6
CONTINUOUS
 62
    3
 10
506.10000000000088
 20
328.50000000001182
 11
502.60000000000133
 21
328.50000000001182
  0
LINE
  8
_0-a_
  6
CONTINUOUS
 62
    3
 10
517.60000000000093
 20
324.00000000001182
 11
517.60000000000093
 21
327.83157694661259
  0
LINE
  8
_0-a_
  6
CONTINUOUS
 62
    3
 10
517.60000000000139
 20
324.00000000001182
 11
517.60000000000139
 21
328.50000000001182
  0
LINE
  8
_0-a_
  6
CONTINUOUS
 62
    3
 10
520.10000000000139
 20
323.50000000001182
 11
518.10000000000093
 21
323.50000000001182
  0
ARC
  8
_0-a_
  6
CONTINUOUS
 62
    3
 10
518.60000000000093
 20
321.00000000001182
 40
1
 50
90
 51
180
  0
LINE
  8
_0-a_
  6
CONTINUOUS
 62
    3
 10
518.60000000000093
 20
322.00000000001182
 11
521.10000000000093
 21
322.00000000001182
  0
ARC
  8
_0-a_
  6
CONTINUOUS
 62
    3
 10
521.10000000000093
 20
322.50000000001182
 40
0.5
 50
270
 51
0
  0
ARC
  8
_0-a_
  6
CONTINUOUS
 62
    3
 10
520.85000000000093
 20
330.25000000001182
 40
0.75
 50
0
 51
180
  0
ARC
  8
_0-a_
  6
CONTINUOUS
 62
    3
 10
518.10000000000093
 20
324.00000000001182
 40
0.5
 50
180
 51
270
  0
LINE
  8
_0-a_
  6
CONTINUOUS
 62
    3
 10
520.10000000000139
 20
330.25000000001182
 11
520.10000000000139
 21
323.50000000001182
  0
LINE
  8
_0-a_
  6
CONTINUOUS
 62
    3
 10
517.60000000000139
 20
324.02598353497388
 11
517.60000000000139
 21
326.00000000002296
  0
LINE
  8
_0-a_
  6
CONTINUOUS
 62
    3
 10
514.10000000000139
 20
332.50000000001182
 11
506.10000000000088
 21
332.50000000001182
  0
LINE
  8
_0-a_
  6
CONTINUOUS
 62
    3
 10
506.10000000000088
 20
327.00000000001182
 11
506.10000000000088
 21
332.50000000001182
  0
LINE
  8
_0-a_
  6
CONTINUOUS
 62
    3
 10
512.85000000000093
 20
332.5000000000116
 11
507.35000000000133
 21
332.5000000000116
  0
LINE
  8
_0-a_
  6
CONTINUOUS
 62
    3
 10
515.10000000000093
 20
335.30000000001178
 11
512.00000000000102
 21
332.20000000001187
  0
LINE
  8
_0-a_
  6
CONTINUOUS
 62
    3
 10
505.10000000000133
 20
335.30000000001178
 11
508.20000000000169
 21
332.20000000001187
  0
LINE
  8
_0-a_
  6
CONTINUOUS
 62
    3
 10
515.10000000000093
 20
335.5000000000116
 11
515.10000000000093
 21
335.30000000001178
  0
LINE
  8
_0-a_
  6
CONTINUOUS
 62
    3
 10
515.10000000000093
 20
335.30000000001178
 11
505.10000000000133
 21
335.30000000001178
  0
LINE
  8
_0-a_
  6
CONTINUOUS
 62
    3
 10
505.10000000000133
 20
335.5000000000116
 11
505.10000000000133
 21
335.30000000001178
  0
LINE
  8
_0-a_
  6
CONTINUOUS
 62
    3
 10
512.85000000000093
 20
333.00000000001182
 11
512.85000000000093
 21
332.5000000000116
  0
LINE
  8
_0-a_
  6
CONTINUOUS
 62
    3
 10
507.35000000000133
 20
333.00000000001182
 11
507.35000000000133
 21
332.5000000000116
  0
LINE
  8
_0-a_
  6
CONTINUOUS
 62
    3
 10
507.35000000000133
 20
333.00000000001182
 11
512.85000000000093
 21
333.00000000001182
  0
LINE
  8
_0-a_
  6
CONTINUOUS
 62
    3
 10
510.40000000000106
 20
335.5000000000116
 11
510.10000000000088
 21
335.20000000001141
  0
LINE
  8
_0-a_
  6
CONTINUOUS
 62
    3
 10
510.10000000000088
 20
335.20000000001141
 11
509.80000000000115
 21
335.5000000000116
  0
LINE
  8
_0-a_
  6
CONTINUOUS
 62
    3
 10
515.10000000000093
 20
335.5000000000116
 11
505.10000000000133
 21
335.5000000000116
  0
LINE
  8
_0-a_
  6
CONTINUOUS
 62
    3
 10
521.60000000000139
 20
322.50000000001182
 11
521.60000000000139
 21
330.25000000001182
  0
ARC
  8
_0-a_
  6
CONTINUOUS
 62
    3
 10
503.60000000000133
 20
334.5000000000116
 40
1
 50
90
 51
180
  0
LINE
  8
_0-a_
  6
CONTINUOUS
 62
    3
 10
503.60000000000133
 20
335.5000000000116
 11
519.60000000000048
 21
335.5000000000116
  0
LINE
  8
_0-a_
  6
CONTINUOUS
 62
    3
 10
526.19807621135453
 20
331.0000000000116
 11
551.2442132566581
 21
331.0000000000116
  0
LINE
  8
_0-a_
  6
CONTINUOUS
 62
    3
 10
521.60000000000139
 20
322.50000000001182
 11
521.60000000000139
 21
330.25000000001182
  0
LINE
  8
_0-a_
  6
CONTINUOUS
 62
    3
 10
519.60000000001276
 20
335.5000000000116
 11
528.10000000000048
 21
335.5000000000116
  0
LINE
  8
_0-a_
  6
CONTINUOUS
 62
    3
 10
514.10000000000139
 20
328.50000000001182
 11
514.10000000000139
 21
327.00000000001182
  0
ARC
  8
_0-a_
  6
CONTINUOUS
 62
    3
 10
519.10000000000048
 20
325.50000000001182
 40
0.5
 50
270
 51
0
  0
LINE
  8
_0-a_
  6
CONTINUOUS
 62
    3
 10
518.10000000000139
 20
325.00000000001182
 11
519.10000000000048
 21
325.00000000001182
  0
ARC
  8
_0-a_
  6
CONTINUOUS
 62
    3
 10
518.10000000000139
 20
325.50000000001182
 40
0.5
 50
180
 51
270
  0
LINE
  8
_0-a_
  6
CONTINUOUS
 62
    3
 10
514.10000000000139
 20
332.50000000001182
 11
514.10000000000139
 21
328.50000000001182
  0
LINE
  8
_0-a_
  6
CONTINUOUS
 62
    3
 10
517.60000000000093
 20
328.50000000001182
 11
517.60000000000093
 21
325.00000000001182
  0
LINE
  8
_0-a_
  6
CONTINUOUS
 62
    3
 10
514.10000000000139
 20
328.50000000001182
 11
517.60000000000093
 21
328.50000000001182
  0
LINE
  8
_0-a_
  6
CONTINUOUS
 62
    3
 10
517.60000000000139
 20
303.0000000000116
 11
517.60000000000139
 21
321.00000000001182
  0
LINE
  8
_0-a_
  6
CONTINUOUS
 62
    3
 10
517.60000000000139
 20
303.0000000000116
 11
517.60000000000139
 21
321.00000000001182
  0
LINE
  8
_0-a_
  6
CONTINUOUS
 62
    3
 10
515.10000000000139
 20
323.50000000001182
 11
515.10000000000139
 21
307.5000000000116
  0
LINE
  8
_0-a_
  6
CONTINUOUS
 62
    3
 10
515.10000000000048
 20
323.50000000001182
 11
515.10000000000048
 21
307.5000000000116
  0
LINE
  8
_0-a_
  6
CONTINUOUS
 62
    3
 10
510.40000000000106
 20
327.00000000001182
 11
510.10000000000133
 21
326.7000000000121
  0
LINE
  8
_0-a_
  6
CONTINUOUS
 62
    3
 10
510.10000000000133
 20
326.7000000000121
 11
509.80000000000069
 21
327.00000000001182
  0
LINE
  8
_0-a_
  6
CONTINUOUS
 62
    3
 10
511.85000000000133
 20
323.20000000001164
 11
511.85000000000133
 21
317.85677313260726
  0
LINE
  8
_0-a_
  6
CONTINUOUS
 62
    3
 10
511.89000000000129
 20
328.00301343868455
 11
511.89000000000129
 21
327.20738171935432
  0
LINE
  8
_0-a_
  6
CONTINUOUS
 62
    3
 10
511.89000000000129
 20
326.50301343868455
 11
511.89000000000129
 21
325.70738171935432
  0
LINE
  8
_0-a_
  6
CONTINUOUS
 62
    3
 10
511.89000000000129
 20
325.00301343868455
 11
511.89000000000129
 21
323.20000000001164
  0
LINE
  8
_0-a_
  6
CONTINUOUS
 62
    3
 10
511.89000000000129
 20
329.20000000001164
 11
511.89000000000129
 21
328.70738171935432
  0
LINE
  8
_0-a_
  6
CONTINUOUS
 62
    3
 10
508.31000000000137
 20
323.70000000001164
 11
508.31000000000137
 21
323.20000000001164
  0
LINE
  8
_0-a_
  6
CONTINUOUS
 62
    3
 10
508.31000000000137
 20
325.20000000001164
 11
508.31000000000137
 21
324.40436828068141
  0
LINE
  8
_0-a_
  6
CONTINUOUS
 62
    3
 10
508.31000000000137
 20
326.70000000001164
 11
508.31000000000137
 21
325.90436828068141
  0
LINE
  8
_0-a_
  6
CONTINUOUS
 62
    3
 10
508.31000000000137
 20
328.20000000001164
 11
508.31000000000137
 21
327.40436828068141
  0
LINE
  8
_0-a_
  6
CONTINUOUS
 62
    3
 10
508.31000000000137
 20
329.20000000001164
 11
508.31000000000137
 21
328.90436828068141
  0
LINE
  8
_0-a_
  6
CONTINUOUS
 62
    3
 10
510.10000000000133
 20
329.20369085968309
 11
507.70000000000124
 21
328.55218414034653
  0
LINE
  8
_0-a_
  6
CONTINUOUS
 62
    3
 10
508.31000000000137
 20
328.20000000001164
 11
510.10000000000133
 21
328.85150671934821
  0
LINE
  8
_0-a_
  6
CONTINUOUS
 62
    3
 10
508.31000000000137
 20
328.90436828068141
 11
509.12224147333569
 21
329.20000000001164
  0
LINE
  8
_0-a_
  6
CONTINUOUS
 62
    3
 10
512.15000000000111
 20
323.20000000001164
 11
512.15000000000111
 21
317.68356805185022
  0
LINE
  8
_0-a_
  6
CONTINUOUS
 62
    3
 10
512.15000000000111
 20
323.20000000001164
 11
508.0500000000016
 21
323.20000000001164
  0
LINE
  8
_0-a_
  6
CONTINUOUS
 62
    3
 10
508.0500000000016
 20
323.20000000001164
 11
508.0500000000016
 21
317.68356805185022
  0
LINE
  8
_0-a_
  6
CONTINUOUS
 62
    3
 10
507.70000000000124
 20
328.55218414034653
 11
508.31000000000137
 21
328.90436828068141
  0
LINE
  8
_0-a_
  6
CONTINUOUS
 62
    3
 10
508.31000000000137
 20
328.20000000001164
 11
507.70000000000124
 21
328.55218414034653
  0
LINE
  8
_0-a_
  6
CONTINUOUS
 62
    3
 10
512.50000000000148
 20
328.35519757901943
 11
507.70000000000124
 21
327.05218414034653
  0
LINE
  8
_0-a_
  6
CONTINUOUS
 62
    3
 10
508.31000000000137
 20
326.70000000001164
 11
511.89000000000129
 21
328.00301343868455
  0
LINE
  8
_0-a_
  6
CONTINUOUS
 62
    3
 10
508.31000000000137
 20
327.40436828068141
 11
511.89000000000129
 21
328.70738171935432
  0
LINE
  8
_0-a_
  6
CONTINUOUS
 62
    3
 10
507.70000000000124
 20
327.05218414034653
 11
508.31000000000137
 21
327.40436828068141
  0
LINE
  8
_0-a_
  6
CONTINUOUS
 62
    3
 10
508.31000000000137
 20
326.70000000001164
 11
507.70000000000124
 21
327.05218414034653
  0
LINE
  8
_0-a_
  6
CONTINUOUS
 62
    3
 10
512.50000000000148
 20
328.35519757901943
 11
511.89000000000129
 21
328.00301343868455
  0
LINE
  8
_0-a_
  6
CONTINUOUS
 62
    3
 10
511.89000000000129
 20
328.70738171935432
 11
512.50000000000148
 21
328.35519757901943
  0
LINE
  8
_0-a_
  6
CONTINUOUS
 62
    3
 10
512.50000000000148
 20
326.85519757901943
 11
507.70000000000124
 21
325.55218414034653
  0
LINE
  8
_0-a_
  6
CONTINUOUS
 62
    3
 10
508.31000000000137
 20
325.20000000001164
 11
511.89000000000129
 21
326.50301343868455
  0
LINE
  8
_0-a_
  6
CONTINUOUS
 62
    3
 10
508.31000000000137
 20
325.90436828068141
 11
511.89000000000129
 21
327.20738171935432
  0
LINE
  8
_0-a_
  6
CONTINUOUS
 62
    3
 10
507.70000000000124
 20
325.55218414034653
 11
508.31000000000137
 21
325.90436828068141
  0
LINE
  8
_0-a_
  6
CONTINUOUS
 62
    3
 10
508.31000000000137
 20
325.20000000001164
 11
507.70000000000124
 21
325.55218414034653
  0
LINE
  8
_0-a_
  6
CONTINUOUS
 62
    3
 10
512.50000000000148
 20
326.85519757901943
 11
511.89000000000129
 21
326.50301343868455
  0
LINE
  8
_0-a_
  6
CONTINUOUS
 62
    3
 10
511.89000000000129
 20
327.20738171935432
 11
512.50000000000148
 21
326.85519757901943
  0
LINE
  8
_0-a_
  6
CONTINUOUS
 62
    3
 10
512.50000000000148
 20
325.35519757901943
 11
507.70000000000124
 21
324.05218414034653
  0
LINE
  8
_0-a_
  6
CONTINUOUS
 62
    3
 10
508.31000000000137
 20
323.70000000001164
 11
511.89000000000129
 21
325.00301343868455
  0
LINE
  8
_0-a_
  6
CONTINUOUS
 62
    3
 10
508.31000000000137
 20
324.40436828068141
 11
511.89000000000129
 21
325.70738171935432
  0
LINE
  8
_0-a_
  6
CONTINUOUS
 62
    3
 10
507.70000000000124
 20
324.05218414034653
 11
508.31000000000137
 21
324.40436828068141
  0
LINE
  8
_0-a_
  6
CONTINUOUS
 62
    3
 10
508.31000000000137
 20
323.70000000001164
 11
507.70000000000124
 21
324.05218414034653
  0
LINE
  8
_0-a_
  6
CONTINUOUS
 62
    3
 10
512.50000000000148
 20
325.35519757901943
 11
511.89000000000129
 21
325.00301343868455
  0
LINE
  8
_0-a_
  6
CONTINUOUS
 62
    3
 10
511.89000000000129
 20
325.70738171935432
 11
512.50000000000148
 21
325.35519757901943
  0
LINE
  8
_0-a_
  6
CONTINUOUS
 62
    3
 10
510.10000000000133
 20
316.84641016152545
 11
508.97969068712115
 21
323.20000000001164
  0
LINE
  8
_0-a_
  6
CONTINUOUS
 62
    3
 10
510.10000000000133
 20
316.84641016152545
 11
508.35000000000133
 21
317.85677313260726
  0
LINE
  8
_0-a_
  6
CONTINUOUS
 62
    3
 10
508.35000000000133
 20
323.20000000001164
 11
508.35000000000133
 21
317.85677313260726
  0
LINE
  8
_0-a_
  6
CONTINUOUS
 62
    3
 10
511.89000000000129
 20
323.70000000001164
 11
511.89000000000129
 21
323.20000000001164
  0
LINE
  8
_0-a_
  6
CONTINUOUS
 62
    3
 10
508.0500000000016
 20
323.20000000001164
 11
508.0500000000016
 21
317.68356805185022
  0
LINE
  8
_0-a_
  6
CONTINUOUS
 62
    3
 10
508.0500000000016
 20
323.20000000001164
 11
512.15000000000111
 21
323.20000000001164
  0
LINE
  8
_0-a_
  6
CONTINUOUS
 62
    3
 10
512.15000000000111
 20
323.20000000001164
 11
512.15000000000111
 21
317.68356805185022
  0
LINE
  8
_0-a_
  6
CONTINUOUS
 62
    3
 10
510.10000000000133
 20
316.5000000000116
 11
508.0500000000016
 21
317.68356805185022
  0
LINE
  8
_0-a_
  6
CONTINUOUS
 62
    3
 10
510.10000000000133
 20
316.5000000000116
 11
512.15000000000111
 21
317.68356805185022
  0
LINE
  8
_0-a_
  6
CONTINUOUS
 62
    3
 10
512.00000000000102
 20
332.20000000001164
 11
508.20000000000169
 21
332.20000000001164
  0
LINE
  8
_0-a_
  6
CONTINUOUS
 62
    3
 10
511.89000000000129
 20
331.00301343868455
 11
511.89000000000129
 21
330.20738171935432
  0
LINE
  8
_0-a_
  6
CONTINUOUS
 62
    3
 10
511.89000000000129
 20
329.50301343868455
 11
511.89000000000129
 21
328.70738171935432
  0
LINE
  8
_0-a_
  6
CONTINUOUS
 62
    3
 10
511.89000000000129
 20
332.20000000001164
 11
511.89000000000129
 21
331.70738171935432
  0
LINE
  8
_0-a_
  6
CONTINUOUS
 62
    3
 10
508.31000000000137
 20
329.70000000001164
 11
508.31000000000137
 21
328.90436828068141
  0
LINE
  8
_0-a_
  6
CONTINUOUS
 62
    3
 10
508.31000000000137
 20
331.20000000001164
 11
508.31000000000137
 21
330.40436828068141
  0
LINE
  8
_0-a_
  6
CONTINUOUS
 62
    3
 10
508.31000000000137
 20
332.20000000001164
 11
508.31000000000137
 21
331.90436828068141
  0
LINE
  8
_0-a_
  6
CONTINUOUS
 62
    3
 10
510.10000000000133
 20
332.20369085968309
 11
507.70000000000124
 21
331.55218414034653
  0
LINE
  8
_0-a_
  6
CONTINUOUS
 62
    3
 10
508.31000000000137
 20
331.90436828068141
 11
509.12224147333569
 21
332.20000000001164
  0
LINE
  8
_0-a_
  6
CONTINUOUS
 62
    3
 10
507.70000000000124
 20
331.55218414034653
 11
508.31000000000137
 21
331.90436828068141
  0
LINE
  8
_0-a_
  6
CONTINUOUS
 62
    3
 10
508.31000000000137
 20
331.20000000001164
 11
507.70000000000124
 21
331.55218414034653
  0
LINE
  8
_0-a_
  6
CONTINUOUS
 62
    3
 10
512.50000000000148
 20
331.35519757901943
 11
507.70000000000124
 21
330.05218414034653
  0
LINE
  8
_0-a_
  6
CONTINUOUS
 62
    3
 10
508.31000000000137
 20
329.70000000001164
 11
511.89000000000129
 21
331.00301343868455
  0
LINE
  8
_0-a_
  6
CONTINUOUS
 62
    3
 10
508.31000000000137
 20
330.40436828068141
 11
511.89000000000129
 21
331.70738171935432
  0
LINE
  8
_0-a_
  6
CONTINUOUS
 62
    3
 10
507.70000000000124
 20
330.05218414034653
 11
508.31000000000137
 21
330.40436828068141
  0
LINE
  8
_0-a_
  6
CONTINUOUS
 62
    3
 10
508.31000000000137
 20
329.70000000001164
 11
507.70000000000124
 21
330.05218414034653
  0
LINE
  8
_0-a_
  6
CONTINUOUS
 62
    3
 10
512.50000000000148
 20
331.35519757901943
 11
511.89000000000129
 21
331.00301343868455
  0
LINE
  8
_0-a_
  6
CONTINUOUS
 62
    3
 10
511.89000000000129
 20
331.70738171935432
 11
512.50000000000148
 21
331.35519757901943
  0
LINE
  8
_0-a_
  6
CONTINUOUS
 62
    3
 10
512.50000000000148
 20
329.85519757901943
 11
507.70000000000124
 21
328.55218414034653
  0
LINE
  8
_0-a_
  6
CONTINUOUS
 62
    3
 10
508.31000000000137
 20
328.20000000001164
 11
511.89000000000129
 21
329.50301343868455
  0
LINE
  8
_0-a_
  6
CONTINUOUS
 62
    3
 10
508.31000000000137
 20
328.90436828068141
 11
511.89000000000129
 21
330.20738171935432
  0
LINE
  8
_0-a_
  6
CONTINUOUS
 62
    3
 10
507.70000000000124
 20
328.55218414034653
 11
508.31000000000137
 21
328.90436828068141
  0
LINE
  8
_0-a_
  6
CONTINUOUS
 62
    3
 10
508.31000000000137
 20
328.20000000001164
 11
507.70000000000124
 21
328.55218414034653
  0
LINE
  8
_0-a_
  6
CONTINUOUS
 62
    3
 10
512.50000000000148
 20
329.85519757901943
 11
511.89000000000129
 21
329.50301343868455
  0
LINE
  8
_0-a_
  6
CONTINUOUS
 62
    3
 10
511.89000000000129
 20
330.20738171935432
 11
512.50000000000148
 21
329.85519757901943
  0
LINE
  8
_0-a_
  6
CONTINUOUS
 62
    3
 10
512.50000000000148
 20
328.35519757901943
 11
511.89000000000129
 21
328.00301343868455
  0
LINE
  8
_0-a_
  6
CONTINUOUS
 62
    3
 10
511.89000000000129
 20
328.70738171935432
 11
512.50000000000148
 21
328.35519757901943
  0
ARC
  8
_0-a_
  6
CONTINUOUS
 62
    3
 10
528.60000000000048
 20
334.5000000000116
 40
1
 50
0
 51
90
  0
LINE
  8
_0-a_
  6
CONTINUOUS
 62
    3
 10
528.59999999999957
 20
334.0000000000116
 11
528.59119843520932
 21
334.0000000000116
  0
LINE
  8
_0-a_
  6
CONTINUOUS
 62
    3
 10
528.60000000000048
 20
335.5000000000116
 11
526.00192378864597
 21
335.5000000000116
  0
LINE
  8
_0-a_
  6
CONTINUOUS
 62
    3
 10
353.60000000000133
 20
334.0000000000116
 11
502.60000000000133
 21
334.0000000000116
  0
LINE
  8
_0-a_
  6
CONTINUOUS
 62
    3
 10
353.60000000000133
 20
331.0000000000116
 11
502.60000000000133
 21
331.0000000000116
  0
LINE
  8
_0-a_
  6
CONTINUOUS
 62
    3
 10
344.60000000000133
 20
328.50000000001182
 11
506.10000000000088
 21
328.50000000001182
  0
LINE
  8
_0-a_
  6
CONTINUOUS
 62
    3
 10
513.10000000000139
 20
305.5000000000116
 11
487.40000000000151
 21
305.5000000000116
  0
LINE
  8
_0-a_
  6
CONTINUOUS
 62
    3
 10
198.60000000000045
 20
303.0000000000116
 11
149.60000000000048
 21
303.0000000000116
  0
LINE
  8
_0-a_
  6
CONTINUOUS
 62
    3
 10
208.10000000000045
 20
323.80000000001155
 11
208.10000000000045
 21
316.80000000001155
  0
LINE
  8
_0-a_
  6
CONTINUOUS
 62
    3
 10
208.10000000000045
 20
316.80000000001155
 11
210.10000000000045
 21
316.80000000001155
  0
LINE
  8
_0-a_
  6
CONTINUOUS
 62
    3
 10
208.10000000000045
 20
323.80000000001155
 11
208.10000000000045
 21
316.80000000001155
  0
LINE
  8
_0-a_
  6
CONTINUOUS
 62
    3
 10
210.10000000000045
 20
322.80000000001155
 11
210.10000000000045
 21
316.80000000001155
  0
ARC
  8
_0-a_
  6
CONTINUOUS
 62
    3
 10
220.20000000000081
 20
304.0000000000116
 40
1
 50
270
 51
0
  0
ARC
  8
_0-a_
  6
CONTINUOUS
 62
    3
 10
215.20000000000081
 20
308.5000000000116
 40
3
 50
270
 51
0
  0
LINE
  8
_0-a_
  6
CONTINUOUS
 62
    3
 10
220.70000000000127
 20
316.80000000001178
 11
221.20000000000081
 21
314.80000000001178
  0
LINE
  8
_0-a_
  6
CONTINUOUS
 62
    3
 10
221.20000000000081
 20
316.80000000001178
 11
220.70000000000127
 21
316.80000000001178
  0
LINE
  8
_0-a_
  6
CONTINUOUS
 62
    3
 10
221.20000000000081
 20
319.80000000001178
 11
221.20000000000081
 21
316.80000000001178
  0
ARC
  8
_0-a_
  6
CONTINUOUS
 62
    3
 10
219.70000000000081
 20
319.80000000001178
 40
1.5
 50
0
 51
180
  0
LINE
  8
_0-a_
  6
CONTINUOUS
 62
    3
 10
218.20000000000127
 20
316.80000000001178
 11
218.20000000000127
 21
319.80000000001178
  0
LINE
  8
_0-a_
  6
CONTINUOUS
 62
    3
 10
218.70000000000081
 20
316.80000000001178
 11
218.20000000000127
 21
316.80000000001178
  0
LINE
  8
_0-a_
  6
CONTINUOUS
 62
    3
 10
218.20000000000127
 20
314.80000000001178
 11
218.70000000000081
 21
316.80000000001178
  0
LINE
  8
_0-a_
  6
CONTINUOUS
 62
    3
 10
222.70000000000036
 20
319.79999800001224
 11
222.70000000000036
 21
314.80000000001178
  0
LINE
  8
_0-a_
  6
CONTINUOUS
 62
    3
 10
222.70000000000036
 20
314.80000000001178
 11
221.20000000000127
 21
314.80000000001178
  0
LINE
  8
_0-a_
  6
CONTINUOUS
 62
    3
 10
218.20000000000081
 20
314.80000000001178
 11
216.70000000000081
 21
314.80000000001178
  0
LINE
  8
_0-a_
  6
CONTINUOUS
 62
    3
 10
216.70000000000081
 20
314.80000000001178
 11
216.70000000000081
 21
319.79999800001224
  0
ARC
  8
_0-a_
  6
CONTINUOUS
 62
    3
 10
219.70000000000081
 20
319.79999800001224
 40
1.7000010000000001
 50
0
 51
180
  0
ARC
  8
_0-a_
  6
CONTINUOUS
 62
    3
 10
219.70000000000081
 20
319.79999800001224
 40
3
 50
0
 51
180
  0
LINE
  8
_0-a_
  6
CONTINUOUS
 62
    3
 10
218.20000600000012
 20
316.79999800001178
 11
218.44384900000077
 21
316.79999800001178
  0
ARC
  8
_0-a_
  6
CONTINUOUS
 62
    3
 10
218.44384900000077
 20
316.60000000001196
 40
0.200001
 50
345.9635980000387
 51
90
  0
LINE
  8
_0-a_
  6
CONTINUOUS
 62
    3
 10
218.20000000000081
 20
314.80000000001178
 11
218.63787700000111
 21
316.55149300001199
  0
LINE
  8
_0-a_
  6
CONTINUOUS
 62
    3
 10
221.20000000000127
 20
316.79999800001178
 11
220.95615400000096
 21
316.79999800001178
  0
ARC
  8
_0-a_
  6
CONTINUOUS
 62
    3
 10
220.95615400000096
 20
316.60000000001196
 40
0.200001
 50
90
 51
194.03619200000799
  0
LINE
  8
_0-a_
  6
CONTINUOUS
 62
    3
 10
221.19999700000116
 20
314.80000000001178
 11
220.76212600000017
 21
316.55149300001199
  0
LINE
  8
_0-a_
  6
CONTINUOUS
 62
    3
 10
218.20000600000012
 20
316.79999800001178
 11
218.00000500000132
 21
316.79999800001178
  0
LINE
  8
_0-a_
  6
CONTINUOUS
 62
    3
 10
218.00000500000132
 20
316.79999800001178
 11
217.99999900000111
 21
319.79999800001224
  0
LINE
  8
_0-a_
  6
CONTINUOUS
 62
    3
 10
221.19999700000116
 20
316.79999800001178
 11
221.40000100000097
 21
316.79999800001178
  0
LINE
  8
_0-a_
  6
CONTINUOUS
 62
    3
 10
221.40000100000097
 20
316.79999800001178
 11
221.40000100000097
 21
319.79999800001224
  0
LINE
  8
_0-a_
  6
CONTINUOUS
 62
    3
 10
221.20000000000081
 20
314.79998799995155
 11
221.20000000000081
 21
304.0000000000116
  0
LINE
  8
_0-a_
  6
CONTINUOUS
 62
    3
 10
218.20000000000127
 20
308.5000000000116
 11
218.20000000000127
 21
314.80000000001382
  0
LINE
  8
_0-a_
  6
CONTINUOUS
 62
    3
 10
220.20000000000081
 20
303.0000000000116
 11
176.95968946047523
 21
303.0000000000116
  0
LINE
  8
_0-a_
  6
CONTINUOUS
 62
    3
 10
202.40000000000063
 20
326.0000000000116
 11
202.40000000000063
 21
305.5000000000116
  0
LINE
  8
_0-a_
  6
CONTINUOUS
 62
    3
 10
202.40000000000063
 20
326.0000000000116
 11
202.40000000000063
 21
305.5000000000116
  0
ARC
  8
_0-a_
  6
CONTINUOUS
 62
    3
 10
201.40000000000018
 20
326.0000000000116
 40
1
 50
0
 51
180
  0
LINE
  8
_0-a_
  6
CONTINUOUS
 62
    3
 10
200.40000000000018
 20
326.0000000000116
 11
200.40000000000018
 21
305.5000000000116
  0
LINE
  8
_0-a_
  6
CONTINUOUS
 62
    3
 10
202.40000000000063
 20
305.5000000000116
 11
215.20000000000081
 21
305.5000000000116
  0
LINE
  8
_0-a_
  6
CONTINUOUS
 62
    3
 10
164.90000000000018
 20
305.5000000000116
 11
200.40000000000018
 21
305.5000000000116
  0
LINE
  8
_0-a_
  6
CONTINUOUS
 62
    3
 10
164.59999999999954
 20
305.20000000001141
 11
164.90000000000018
 21
305.5000000000116
  0
LINE
  8
_0-a_
  6
CONTINUOUS
 62
    3
 10
164.30000000000075
 20
305.5000000000116
 11
164.59999999999954
 21
305.20000000001141
  0
LINE
  8
_0-a_
  6
CONTINUOUS
 62
    3
 10
173.60000000000136
 20
307.0000000000116
 11
155.60000000000048
 21
307.0000000000116
  0
LINE
  8
_0-a_
  6
CONTINUOUS
 62
    3
 10
173.60000000000136
 20
305.5000000000116
 11
155.60000000000048
 21
305.5000000000116
  0
LINE
  8
_0-a_
  6
CONTINUOUS
 62
    3
 10
173.60000000000136
 20
307.0000000000116
 11
173.60000000000136
 21
305.5000000000116
  0
LINE
  8
_0-a_
  6
CONTINUOUS
 62
    3
 10
155.60000000000048
 20
307.0000000000116
 11
155.60000000000048
 21
305.5000000000116
  0
LINE
  8
_0-a_
  6
CONTINUOUS
 62
    3
 10
169.1000000000009
 20
307.0000000000116
 11
168.99108721620095
 21
308.24487881501182
  0
LINE
  8
_0-a_
  6
CONTINUOUS
 62
    3
 10
160.20891278370084
 20
308.24487881501182
 11
160.10000000000139
 21
307.0000000000116
  0
ARC
  8
_0-a_
  6
CONTINUOUS
 62
    3
 10
161.19514553490001
 20
308.15859462971139
 40
0.9899999999999997
 50
127.36755803208274
 51
175.0000000012005
  0
ARC
  8
_0-a_
  6
CONTINUOUS
 62
    3
 10
168.00485446510092
 20
308.15859462971139
 40
0.9899999999999997
 50
4.9999999987996473
 51
52.632441967950172
  0
ARC
  8
_0-a_
  6
CONTINUOUS
 62
    3
 10
164.60000000000045
 20
303.70000000001164
 40
6.5999999999999996
 50
52.632441967704736
 51
68.266383543402242
  0
ARC
  8
_0-a_
  6
CONTINUOUS
 62
    3
 10
164.60000000000045
 20
303.70000000001164
 40
6.5999999999999996
 50
111.74840859090294
 51
127.36755803230494
  0
LINE
  8
_0-a_
  6
CONTINUOUS
 62
    3
 10
164.91500000000096
 20
310.2591271296119
 11
164.91500000000096
 21
309.82331223961137
  0
LINE
  8
_0-a_
  6
CONTINUOUS
 62
    3
 10
165.26228868190182
 20
310.2591271296119
 11
164.91500000000096
 21
310.2591271296119
  0
LINE
  8
_0-a_
  6
CONTINUOUS
 62
    3
 10
167.04250326850078
 20
309.82331223961137
 11
165.26228868190182
 21
310.2591271296119
  0
LINE
  8
_0-a_
  6
CONTINUOUS
 62
    3
 10
163.93771131800088
 20
310.2591271296119
 11
162.63780105030048
 21
309.99369130821196
  0
LINE
  8
_0-a_
  6
CONTINUOUS
 62
    3
 10
162.63780105030048
 20
309.99369130821196
 11
162.15749673140192
 21
309.82331223961137
  0
LINE
  8
_0-a_
  6
CONTINUOUS
 62
    3
 10
164.28500000000088
 20
310.2591271296119
 11
163.93771131800088
 21
310.2591271296119
  0
LINE
  8
_0-a_
  6
CONTINUOUS
 62
    3
 10
164.28500000000088
 20
309.82331223961137
 11
164.28500000000088
 21
310.2591271296119
  0
LINE
  8
_0-a_
  6
CONTINUOUS
 62
    3
 10
164.91500000000096
 20
309.82331223961137
 11
164.60000000000045
 21
309.82841741401171
  0
LINE
  8
_0-a_
  6
CONTINUOUS
 62
    3
 10
164.60000000000045
 20
309.82841741401171
 11
164.28500000000088
 21
309.82331223961137
  0
LINE
  8
_0-a_
  6
CONTINUOUS
 62
    3
 10
169.60000000000045
 20
302.0000000000116
 11
159.60000000000048
 21
302.0000000000116
  0
LINE
  8
_0-a_
  6
CONTINUOUS
 62
    3
 10
145.60000000000002
 20
305.5000000000116
 11
159.30000000000075
 21
305.5000000000116
  0
LINE
  8
_0-a_
  6
CONTINUOUS
 62
    3
 10
210.10000000000045
 20
322.80000000001155
 11
238.57711058003005
 21
322.80000000001155
  0
LINE
  8
_0-a_
  6
CONTINUOUS
 62
    3
 10
127.10000000000178
 20
331.00000000000023
 11
107.45578674334416
 21
331.00000000000023
  0
LINE
  8
_0-a_
  6
CONTINUOUS
 62
    3
 10
219.6000000000009
 20
328.50000000000023
 11
156.10000000000002
 21
328.50000000000023
  0
LINE
  8
_0-a_
  6
CONTINUOUS
 62
    3
 10
214.10000000000045
 20
325.80000000001155
 11
214.10000000000045
 21
328.30000000001155
  0
LINE
  8
_0-a_
  6
CONTINUOUS
 62
    3
 10
212.10000000000045
 20
328.50000000000023
 11
208.10000000000045
 21
323.80000000001155
  0
LINE
  8
_0-a_
  6
CONTINUOUS
 62
    3
 10
210.6000000000009
 20
334.00000000000023
 11
210.6000000000009
 21
331.00000000000023
  0
LINE
  8
_0-a_
  6
CONTINUOUS
 62
    3
 10
219.6000000000009
 20
328.50000000000023
 11
219.6000000000009
 21
330.50000000000023
  0
ARC
  8
_0-a_
  6
CONTINUOUS
 62
    3
 10
211.6000000000009
 20
334.00000000000023
 40
1
 50
90
 51
180
  0
LINE
  8
_0-a_
  6
CONTINUOUS
 62
    3
 10
219.6000000000009
 20
328.50000000000023
 11
219.6000000000009
 21
330.50000000000023
  0
LINE
  8
_0-a_
  6
CONTINUOUS
 62
    3
 10
211.90000000000063
 20
335.00000000000023
 11
219.6000000000009
 21
330.50000000000023
  0
LINE
  8
_0-a_
  6
CONTINUOUS
 62
    3
 10
219.6000000000009
 20
328.50000000000023
 11
219.6000000000009
 21
330.50000000000023
  0
ARC
  8
_0-a_
  6
CONTINUOUS
 62
    3
 10
211.6000000000009
 20
334.00000000000023
 40
1
 50
90
 51
180
  0
LINE
  8
_0-a_
  6
CONTINUOUS
 62
    3
 10
210.6000000000009
 20
334.00000000000023
 11
210.6000000000009
 21
331.00000000000023
  0
LINE
  8
_0-a_
  6
CONTINUOUS
 62
    3
 10
211.6000000000009
 20
335.00000000000023
 11
211.90000000000063
 21
335.00000000000023
  0
ARC
  8
_0-a_
  6
CONTINUOUS
 62
    3
 10
211.6000000000009
 20
334.00000000000023
 40
1
 50
90
 51
180
  0
LINE
  8
_0-a_
  6
CONTINUOUS
 62
    3
 10
211.90000000000063
 20
335.00000000000023
 11
211.6000000000009
 21
335.00000000000023
  0
LINE
  8
_0-a_
  6
CONTINUOUS
 62
    3
 10
214.10000000000045
 20
328.80000000001155
 11
214.10000000000045
 21
328.30000000001155
  0
LINE
  8
_0-a_
  6
CONTINUOUS
 62
    3
 10
144.0999999999982
 20
324.00000000000023
 11
144.0999999999982
 21
307.50000000000023
  0
ARC
  8
_0-a_
  6
CONTINUOUS
 62
    3
 10
146.0999999999982
 20
307.5
 40
2
 50
180
 51
270
  0
LINE
  8
_0-a_
  6
CONTINUOUS
 62
    3
 10
156.5999999999982
 20
334.5
 11
156.5999999999982
 21
331.00000000000023
  0
LINE
  8
_0-a_
  6
CONTINUOUS
 62
    3
 10
145.0999999999982
 20
327.00000000000023
 11
148.79999999999848
 21
327.00000000000023
  0
LINE
  8
_0-a_
  6
CONTINUOUS
 62
    3
 10
149.39999999999884
 20
327.00000000000023
 11
153.09999999999866
 21
327.00000000000023
  0
LINE
  8
_0-a_
  6
CONTINUOUS
 62
    3
 10
154.59999999999866
 20
324.50000000000023
 11
145.0999999999982
 21
324.50000000000023
  0
LINE
  8
_0-a_
  6
CONTINUOUS
 62
    3
 10
156.5999999999982
 20
328.50000000000023
 11
156.5999999999982
 21
326.50000000000023
  0
ARC
  8
_0-a_
  6
CONTINUOUS
 62
    3
 10
154.59999999999866
 20
326.50000000000023
 40
2
 50
270
 51
0
  0
ARC
  8
_0-a_
  6
CONTINUOUS
 62
    3
 10
145.0999999999982
 20
323.50000000000023
 40
1
 50
90
 51
180
  0
ARC
  8
_0-a_
  6
CONTINUOUS
 62
    3
 10
154.59999999999866
 20
326.50000000000023
 40
2
 50
270
 51
0
  0
LINE
  8
_0-a_
  6
CONTINUOUS
 62
    3
 10
153.09999999999866
 20
328.50000000000023
 11
156.5999999999982
 21
328.50000000000023
  0
LINE
  8
_0-a_
  6
CONTINUOUS
 62
    3
 10
141.59999999999866
 20
324.00000000000023
 11
141.59999999999866
 21
327.83157694660099
  0
LINE
  8
_0-a_
  6
CONTINUOUS
 62
    3
 10
141.5999999999982
 20
324.00000000000023
 11
141.5999999999982
 21
328.50000000000023
  0
LINE
  8
_0-a_
  6
CONTINUOUS
 62
    3
 10
139.0999999999982
 20
323.50000000000023
 11
141.09999999999866
 21
323.50000000000023
  0
ARC
  8
_0-a_
  6
CONTINUOUS
 62
    3
 10
140.59999999999866
 20
321.00000000000023
 40
1
 50
0
 51
90
  0
ARC
  8
_0-a_
  6
CONTINUOUS
 62
    3
 10
138.34999999999866
 20
330.25000000000023
 40
0.75
 50
0
 51
180
  0
ARC
  8
_0-a_
  6
CONTINUOUS
 62
    3
 10
141.09999999999866
 20
324.00000000000023
 40
0.5
 50
270
 51
0
  0
LINE
  8
_0-a_
  6
CONTINUOUS
 62
    3
 10
139.0999999999982
 20
330.25000000000023
 11
139.0999999999982
 21
323.50000000000023
  0
LINE
  8
_0-a_
  6
CONTINUOUS
 62
    3
 10
141.5999999999982
 20
324.02598353496228
 11
141.5999999999982
 21
326.00000000001137
  0
LINE
  8
_0-a_
  6
CONTINUOUS
 62
    3
 10
145.0999999999982
 20
332.50000000000023
 11
153.09999999999866
 21
332.50000000000023
  0
LINE
  8
_0-a_
  6
CONTINUOUS
 62
    3
 10
153.09999999999866
 20
327.00000000000023
 11
153.09999999999866
 21
332.50000000000023
  0
LINE
  8
_0-a_
  6
CONTINUOUS
 62
    3
 10
146.34999999999866
 20
332.5
 11
151.8499999999982
 21
332.5
  0
LINE
  8
_0-a_
  6
CONTINUOUS
 62
    3
 10
144.09999999999866
 20
335.30000000000018
 11
147.19999999999902
 21
332.20000000000027
  0
LINE
  8
_0-a_
  6
CONTINUOUS
 62
    3
 10
154.0999999999982
 20
335.30000000000018
 11
150.99999999999829
 21
332.20000000000027
  0
LINE
  8
_0-a_
  6
CONTINUOUS
 62
    3
 10
144.09999999999866
 20
335.5
 11
144.09999999999866
 21
335.30000000000018
  0
LINE
  8
_0-a_
  6
CONTINUOUS
 62
    3
 10
144.09999999999866
 20
335.30000000000018
 11
154.0999999999982
 21
335.30000000000018
  0
LINE
  8
_0-a_
  6
CONTINUOUS
 62
    3
 10
154.0999999999982
 20
335.5
 11
154.0999999999982
 21
335.30000000000018
  0
LINE
  8
_0-a_
  6
CONTINUOUS
 62
    3
 10
146.34999999999866
 20
333.00000000000023
 11
146.34999999999866
 21
332.5
  0
LINE
  8
_0-a_
  6
CONTINUOUS
 62
    3
 10
151.8499999999982
 20
333.00000000000023
 11
151.8499999999982
 21
332.5
  0
LINE
  8
_0-a_
  6
CONTINUOUS
 62
    3
 10
151.8499999999982
 20
333.00000000000023
 11
146.34999999999866
 21
333.00000000000023
  0
LINE
  8
_0-a_
  6
CONTINUOUS
 62
    3
 10
148.79999999999848
 20
335.5
 11
149.09999999999866
 21
335.19999999999982
  0
LINE
  8
_0-a_
  6
CONTINUOUS
 62
    3
 10
149.09999999999866
 20
335.19999999999982
 11
149.39999999999839
 21
335.5
  0
LINE
  8
_0-a_
  6
CONTINUOUS
 62
    3
 10
144.09999999999866
 20
335.5
 11
154.0999999999982
 21
335.5
  0
ARC
  8
_0-a_
  6
CONTINUOUS
 62
    3
 10
155.5999999999982
 20
334.5
 40
1
 50
0
 51
90
  0
LINE
  8
_0-a_
  6
CONTINUOUS
 62
    3
 10
134.60880156478981
 20
334
 11
138.59999999999957
 21
334
  0
LINE
  8
_0-a_
  6
CONTINUOUS
 62
    3
 10
155.5999999999982
 20
335.5
 11
139.59999999999911
 21
335.5
  0
LINE
  8
_0-a_
  6
CONTINUOUS
 62
    3
 10
139.59999999998684
 20
335.5
 11
131.09999999999911
 21
335.5
  0
LINE
  8
_0-a_
  6
CONTINUOUS
 62
    3
 10
145.0999999999982
 20
328.50000000000023
 11
145.0999999999982
 21
327.00000000000023
  0
ARC
  8
_0-a_
  6
CONTINUOUS
 62
    3
 10
140.09999999999957
 20
325.50000000000023
 40
0.5
 50
180
 51
270
  0
LINE
  8
_0-a_
  6
CONTINUOUS
 62
    3
 10
141.09999999999866
 20
325.00000000000023
 11
140.09999999999957
 21
325.00000000000023
  0
ARC
  8
_0-a_
  6
CONTINUOUS
 62
    3
 10
141.09999999999866
 20
325.50000000000023
 40
0.5
 50
270
 51
0
  0
LINE
  8
_0-a_
  6
CONTINUOUS
 62
    3
 10
139.59999999999911
 20
325.50000000000023
 11
139.59999999999911
 21
334
  0
LINE
  8
_0-a_
  6
CONTINUOUS
 62
    3
 10
145.0999999999982
 20
332.50000000000023
 11
145.0999999999982
 21
328.50000000000023
  0
LINE
  8
_0-a_
  6
CONTINUOUS
 62
    3
 10
141.59999999999866
 20
328.50000000000023
 11
141.59999999999866
 21
325.00000000000023
  0
LINE
  8
_0-a_
  6
CONTINUOUS
 62
    3
 10
145.0999999999982
 20
328.50000000000023
 11
141.59999999999866
 21
328.50000000000023
  0
LINE
  8
_0-a_
  6
CONTINUOUS
 62
    3
 10
141.5999999999982
 20
303
 11
141.5999999999982
 21
321.00000000000023
  0
LINE
  8
_0-a_
  6
CONTINUOUS
 62
    3
 10
141.5999999999982
 20
303
 11
141.5999999999982
 21
321.00000000000023
  0
LINE
  8
_0-a_
  6
CONTINUOUS
 62
    3
 10
144.0999999999982
 20
323.50000000000023
 11
144.0999999999982
 21
307.5
  0
LINE
  8
_0-a_
  6
CONTINUOUS
 62
    3
 10
144.09999999999911
 20
323.50000000000023
 11
144.09999999999911
 21
307.5
  0
LINE
  8
_0-a_
  6
CONTINUOUS
 62
    3
 10
148.79999999999848
 20
327.00000000000023
 11
149.0999999999982
 21
326.7000000000005
  0
LINE
  8
_0-a_
  6
CONTINUOUS
 62
    3
 10
149.0999999999982
 20
326.7000000000005
 11
149.39999999999884
 21
327.00000000000023
  0
LINE
  8
_0-a_
  6
CONTINUOUS
 62
    3
 10
147.3499999999982
 20
323.20000000000005
 11
147.3499999999982
 21
317.85677313259566
  0
LINE
  8
_0-a_
  6
CONTINUOUS
 62
    3
 10
147.30999999999824
 20
328.00301343867295
 11
147.30999999999824
 21
327.20738171934272
  0
LINE
  8
_0-a_
  6
CONTINUOUS
 62
    3
 10
147.30999999999824
 20
326.50301343867295
 11
147.30999999999824
 21
325.70738171934272
  0
LINE
  8
_0-a_
  6
CONTINUOUS
 62
    3
 10
147.30999999999824
 20
325.00301343867295
 11
147.30999999999824
 21
323.20000000000005
  0
LINE
  8
_0-a_
  6
CONTINUOUS
 62
    3
 10
147.30999999999824
 20
329.20000000000005
 11
147.30999999999824
 21
328.70738171934272
  0
LINE
  8
_0-a_
  6
CONTINUOUS
 62
    3
 10
150.88999999999862
 20
323.70000000000005
 11
150.88999999999862
 21
323.20000000000005
  0
LINE
  8
_0-a_
  6
CONTINUOUS
 62
    3
 10
150.88999999999862
 20
325.20000000000005
 11
150.88999999999862
 21
324.40436828066981
  0
LINE
  8
_0-a_
  6
CONTINUOUS
 62
    3
 10
150.88999999999862
 20
326.70000000000005
 11
150.88999999999862
 21
325.90436828066981
  0
LINE
  8
_0-a_
  6
CONTINUOUS
 62
    3
 10
150.88999999999862
 20
328.20000000000005
 11
150.88999999999862
 21
327.40436828066981
  0
LINE
  8
_0-a_
  6
CONTINUOUS
 62
    3
 10
150.88999999999862
 20
329.20000000000005
 11
150.88999999999862
 21
328.90436828066981
  0
LINE
  8
_0-a_
  6
CONTINUOUS
 62
    3
 10
149.0999999999982
 20
329.2036908596715
 11
151.49999999999875
 21
328.55218414033493
  0
LINE
  8
_0-a_
  6
CONTINUOUS
 62
    3
 10
150.88999999999862
 20
328.20000000000005
 11
149.0999999999982
 21
328.85150671933661
  0
LINE
  8
_0-a_
  6
CONTINUOUS
 62
    3
 10
150.88999999999862
 20
328.90436828066981
 11
150.07775852666384
 21
329.20000000000005
  0
LINE
  8
_0-a_
  6
CONTINUOUS
 62
    3
 10
147.04999999999848
 20
323.20000000000005
 11
147.04999999999848
 21
317.68356805183862
  0
LINE
  8
_0-a_
  6
CONTINUOUS
 62
    3
 10
147.04999999999848
 20
323.20000000000005
 11
151.14999999999839
 21
323.20000000000005
  0
LINE
  8
_0-a_
  6
CONTINUOUS
 62
    3
 10
151.14999999999839
 20
323.20000000000005
 11
151.14999999999839
 21
317.68356805183862
  0
LINE
  8
_0-a_
  6
CONTINUOUS
 62
    3
 10
151.49999999999875
 20
328.55218414033493
 11
150.88999999999862
 21
328.90436828066981
  0
LINE
  8
_0-a_
  6
CONTINUOUS
 62
    3
 10
150.88999999999862
 20
328.20000000000005
 11
151.49999999999875
 21
328.55218414033493
  0
LINE
  8
_0-a_
  6
CONTINUOUS
 62
    3
 10
146.69999999999811
 20
328.35519757900784
 11
151.49999999999875
 21
327.05218414033493
  0
LINE
  8
_0-a_
  6
CONTINUOUS
 62
    3
 10
150.88999999999862
 20
326.70000000000005
 11
147.30999999999824
 21
328.00301343867295
  0
LINE
  8
_0-a_
  6
CONTINUOUS
 62
    3
 10
150.88999999999862
 20
327.40436828066981
 11
147.30999999999824
 21
328.70738171934272
  0
LINE
  8
_0-a_
  6
CONTINUOUS
 62
    3
 10
151.49999999999875
 20
327.05218414033493
 11
150.88999999999862
 21
327.40436828066981
  0
LINE
  8
_0-a_
  6
CONTINUOUS
 62
    3
 10
150.88999999999862
 20
326.70000000000005
 11
151.49999999999875
 21
327.05218414033493
  0
LINE
  8
_0-a_
  6
CONTINUOUS
 62
    3
 10
146.69999999999811
 20
328.35519757900784
 11
147.30999999999824
 21
328.00301343867295
  0
LINE
  8
_0-a_
  6
CONTINUOUS
 62
    3
 10
147.30999999999824
 20
328.70738171934272
 11
146.69999999999811
 21
328.35519757900784
  0
LINE
  8
_0-a_
  6
CONTINUOUS
 62
    3
 10
146.69999999999811
 20
326.85519757900784
 11
151.49999999999875
 21
325.55218414033493
  0
LINE
  8
_0-a_
  6
CONTINUOUS
 62
    3
 10
150.88999999999862
 20
325.20000000000005
 11
147.30999999999824
 21
326.50301343867295
  0
LINE
  8
_0-a_
  6
CONTINUOUS
 62
    3
 10
150.88999999999862
 20
325.90436828066981
 11
147.30999999999824
 21
327.20738171934272
  0
LINE
  8
_0-a_
  6
CONTINUOUS
 62
    3
 10
151.49999999999875
 20
325.55218414033493
 11
150.88999999999862
 21
325.90436828066981
  0
LINE
  8
_0-a_
  6
CONTINUOUS
 62
    3
 10
150.88999999999862
 20
325.20000000000005
 11
151.49999999999875
 21
325.55218414033493
  0
LINE
  8
_0-a_
  6
CONTINUOUS
 62
    3
 10
146.69999999999811
 20
326.85519757900784
 11
147.30999999999824
 21
326.50301343867295
  0
LINE
  8
_0-a_
  6
CONTINUOUS
 62
    3
 10
147.30999999999824
 20
327.20738171934272
 11
146.69999999999811
 21
326.85519757900784
  0
LINE
  8
_0-a_
  6
CONTINUOUS
 62
    3
 10
146.69999999999811
 20
325.35519757900784
 11
151.49999999999875
 21
324.05218414033493
  0
LINE
  8
_0-a_
  6
CONTINUOUS
 62
    3
 10
150.88999999999862
 20
323.70000000000005
 11
147.30999999999824
 21
325.00301343867295
  0
LINE
  8
_0-a_
  6
CONTINUOUS
 62
    3
 10
150.88999999999862
 20
324.40436828066981
 11
147.30999999999824
 21
325.70738171934272
  0
LINE
  8
_0-a_
  6
CONTINUOUS
 62
    3
 10
151.49999999999875
 20
324.05218414033493
 11
150.88999999999862
 21
324.40436828066981
  0
LINE
  8
_0-a_
  6
CONTINUOUS
 62
    3
 10
150.88999999999862
 20
323.70000000000005
 11
151.49999999999875
 21
324.05218414033493
  0
LINE
  8
_0-a_
  6
CONTINUOUS
 62
    3
 10
146.69999999999811
 20
325.35519757900784
 11
147.30999999999824
 21
325.00301343867295
  0
LINE
  8
_0-a_
  6
CONTINUOUS
 62
    3
 10
147.30999999999824
 20
325.70738171934272
 11
146.69999999999811
 21
325.35519757900784
  0
LINE
  8
_0-a_
  6
CONTINUOUS
 62
    3
 10
149.0999999999982
 20
316.84641016151386
 11
150.22030931287884
 21
323.20000000000005
  0
LINE
  8
_0-a_
  6
CONTINUOUS
 62
    3
 10
149.0999999999982
 20
316.84641016151386
 11
150.84999999999866
 21
317.85677313259566
  0
LINE
  8
_0-a_
  6
CONTINUOUS
 62
    3
 10
150.84999999999866
 20
323.20000000000005
 11
150.84999999999866
 21
317.85677313259566
  0
LINE
  8
_0-a_
  6
CONTINUOUS
 62
    3
 10
147.30999999999824
 20
323.70000000000005
 11
147.30999999999824
 21
323.20000000000005
  0
LINE
  8
_0-a_
  6
CONTINUOUS
 62
    3
 10
151.14999999999839
 20
323.20000000000005
 11
151.14999999999839
 21
317.68356805183862
  0
LINE
  8
_0-a_
  6
CONTINUOUS
 62
    3
 10
151.14999999999839
 20
323.20000000000005
 11
147.04999999999848
 21
323.20000000000005
  0
LINE
  8
_0-a_
  6
CONTINUOUS
 62
    3
 10
147.04999999999848
 20
323.20000000000005
 11
147.04999999999848
 21
317.68356805183862
  0
LINE
  8
_0-a_
  6
CONTINUOUS
 62
    3
 10
149.0999999999982
 20
316.5
 11
151.14999999999839
 21
317.68356805183862
  0
LINE
  8
_0-a_
  6
CONTINUOUS
 62
    3
 10
149.0999999999982
 20
316.5
 11
147.04999999999848
 21
317.68356805183862
  0
LINE
  8
_0-a_
  6
CONTINUOUS
 62
    3
 10
147.19999999999857
 20
332.20000000000005
 11
150.99999999999784
 21
332.20000000000005
  0
LINE
  8
_0-a_
  6
CONTINUOUS
 62
    3
 10
147.30999999999824
 20
331.00301343867295
 11
147.30999999999824
 21
330.20738171934272
  0
LINE
  8
_0-a_
  6
CONTINUOUS
 62
    3
 10
147.30999999999824
 20
329.50301343867295
 11
147.30999999999824
 21
328.70738171934272
  0
LINE
  8
_0-a_
  6
CONTINUOUS
 62
    3
 10
147.30999999999824
 20
332.20000000000005
 11
147.30999999999824
 21
331.70738171934272
  0
LINE
  8
_0-a_
  6
CONTINUOUS
 62
    3
 10
150.88999999999862
 20
329.70000000000005
 11
150.88999999999862
 21
328.90436828066981
  0
LINE
  8
_0-a_
  6
CONTINUOUS
 62
    3
 10
150.88999999999862
 20
331.20000000000005
 11
150.88999999999862
 21
330.40436828066981
  0
LINE
  8
_0-a_
  6
CONTINUOUS
 62
    3
 10
150.88999999999862
 20
332.20000000000005
 11
150.88999999999862
 21
331.90436828066981
  0
LINE
  8
_0-a_
  6
CONTINUOUS
 62
    3
 10
149.0999999999982
 20
332.2036908596715
 11
151.49999999999875
 21
331.55218414033493
  0
LINE
  8
_0-a_
  6
CONTINUOUS
 62
    3
 10
150.88999999999862
 20
331.20000000000005
 11
149.0999999999982
 21
331.85150671933661
  0
LINE
  8
_0-a_
  6
CONTINUOUS
 62
    3
 10
150.88999999999862
 20
331.90436828066981
 11
150.07775852666384
 21
332.20000000000005
  0
LINE
  8
_0-a_
  6
CONTINUOUS
 62
    3
 10
151.49999999999875
 20
331.55218414033493
 11
150.88999999999862
 21
331.90436828066981
  0
LINE
  8
_0-a_
  6
CONTINUOUS
 62
    3
 10
150.88999999999862
 20
331.20000000000005
 11
151.49999999999875
 21
331.55218414033493
  0
LINE
  8
_0-a_
  6
CONTINUOUS
 62
    3
 10
146.69999999999811
 20
331.35519757900784
 11
151.49999999999875
 21
330.05218414033493
  0
LINE
  8
_0-a_
  6
CONTINUOUS
 62
    3
 10
150.88999999999862
 20
329.70000000000005
 11
147.30999999999824
 21
331.00301343867295
  0
LINE
  8
_0-a_
  6
CONTINUOUS
 62
    3
 10
150.88999999999862
 20
330.40436828066981
 11
147.30999999999824
 21
331.70738171934272
  0
LINE
  8
_0-a_
  6
CONTINUOUS
 62
    3
 10
151.49999999999875
 20
330.05218414033493
 11
150.88999999999862
 21
330.40436828066981
  0
LINE
  8
_0-a_
  6
CONTINUOUS
 62
    3
 10
150.88999999999862
 20
329.70000000000005
 11
151.49999999999875
 21
330.05218414033493
  0
LINE
  8
_0-a_
  6
CONTINUOUS
 62
    3
 10
146.69999999999811
 20
331.35519757900784
 11
147.30999999999824
 21
331.00301343867295
  0
LINE
  8
_0-a_
  6
CONTINUOUS
 62
    3
 10
147.30999999999824
 20
331.70738171934272
 11
146.69999999999811
 21
331.35519757900784
  0
LINE
  8
_0-a_
  6
CONTINUOUS
 62
    3
 10
146.69999999999811
 20
329.85519757900784
 11
151.49999999999875
 21
328.55218414033493
  0
LINE
  8
_0-a_
  6
CONTINUOUS
 62
    3
 10
150.88999999999862
 20
328.20000000000005
 11
147.30999999999824
 21
329.50301343867295
  0
LINE
  8
_0-a_
  6
CONTINUOUS
 62
    3
 10
150.88999999999862
 20
328.90436828066981
 11
147.30999999999824
 21
330.20738171934272
  0
LINE
  8
_0-a_
  6
CONTINUOUS
 62
    3
 10
151.49999999999875
 20
328.55218414033493
 11
150.88999999999862
 21
328.90436828066981
  0
LINE
  8
_0-a_
  6
CONTINUOUS
 62
    3
 10
150.88999999999862
 20
328.20000000000005
 11
151.49999999999875
 21
328.55218414033493
  0
LINE
  8
_0-a_
  6
CONTINUOUS
 62
    3
 10
146.69999999999811
 20
329.85519757900784
 11
147.30999999999824
 21
329.50301343867295
  0
LINE
  8
_0-a_
  6
CONTINUOUS
 62
    3
 10
147.30999999999824
 20
330.20738171934272
 11
146.69999999999811
 21
329.85519757900784
  0
LINE
  8
_0-a_
  6
CONTINUOUS
 62
    3
 10
146.69999999999811
 20
328.35519757900784
 11
147.30999999999824
 21
328.00301343867295
  0
LINE
  8
_0-a_
  6
CONTINUOUS
 62
    3
 10
147.30999999999824
 20
328.70738171934272
 11
146.69999999999811
 21
328.35519757900784
  0
ARC
  8
_0-a_
  6
CONTINUOUS
 62
    3
 10
130.59999999999911
 20
334.5
 40
1
 50
90
 51
180
  0
LINE
  8
_0-a_
  6
CONTINUOUS
 62
    3
 10
129.59999999999911
 20
334.5
 11
129.59999999999911
 21
334
  0
LINE
  8
_0-a_
  6
CONTINUOUS
 62
    3
 10
130.60000000000002
 20
334
 11
130.60880156479072
 21
334
  0
LINE
  8
_0-a_
  6
CONTINUOUS
 62
    3
 10
130.59999999999911
 20
335.5
 11
132.69807621135362
 21
335.5
  0
ARC
  8
_0-a_
  6
CONTINUOUS
 62
    3
 10
138.09999999999866
 20
322.50000000000023
 40
0.5
 50
180
 51
270
  0
LINE
  8
_0-a_
  6
CONTINUOUS
 62
    3
 10
140.59999999999866
 20
322.00000000000023
 11
138.09999999999866
 21
322.00000000000023
  0
LINE
  8
_0-a_
  6
CONTINUOUS
 62
    3
 10
141.59999999999684
 20
302.0000000000116
 11
141.59999999999684
 21
321.00000000000023
  0
LINE
  8
_0-a_
  6
CONTINUOUS
 62
    3
 10
210.6000000000009
 20
334.00000000000023
 11
156.5999999999982
 21
334.00000000000023
  0
LINE
  8
_0-a_
  6
CONTINUOUS
 62
    3
 10
139.59999999999911
 20
334
 11
107.45578674334416
 21
334
  0
LINE
  8
_0-a_
  6
CONTINUOUS
 62
    3
 10
210.6000000000009
 20
331.00000000000023
 11
156.5999999999982
 21
331.00000000000023
  0
LINE
  8
_0-a_
  6
CONTINUOUS
 62
    3
 10
157.60000000000139
 20
331
 11
156.5999999999982
 21
331
  0
LINE
  8
_0-a_
  6
CONTINUOUS
 62
    3
 10
200.36732698797923
 20
303.0000000000116
 11
141.5999999999982
 21
303.0000000000116
  0
LINE
  8
_0-a_
  6
CONTINUOUS
 62
    3
 10
127.10000000000178
 20
331
 11
107.45578674334416
 21
331
  0
LINE
  8
_0-a_
  6
CONTINUOUS
 62
    3
 10
210.60000000000045
 20
334
 11
210.60000000000045
 21
331
  0
LINE
  8
_0-a_
  6
CONTINUOUS
 62
    3
 10
210.60000000000045
 20
334
 11
210.60000000000045
 21
331
  0
LINE
  8
_0-a_
  6
CONTINUOUS
 62
    3
 10
130.60000000000002
 20
334
 11
130.60880156479072
 21
334
  0
LINE
  8
_0-a_
  6
CONTINUOUS
 62
    3
 10
162.5999999999982
 20
334
 11
165.59999999999818
 21
331
  0
LINE
  8
_0-a_
  6
CONTINUOUS
 62
    3
 10
159.5999999999982
 20
331
 11
162.5999999999982
 21
334
  0
LINE
  8
_0-a_
  6
CONTINUOUS
 62
    3
 10
168.59999999999818
 20
334
 11
171.59999999999818
 21
331
  0
LINE
  8
_0-a_
  6
CONTINUOUS
 62
    3
 10
165.59999999999818
 20
331
 11
168.59999999999818
 21
334
  0
LINE
  8
_0-a_
  6
CONTINUOUS
 62
    3
 10
174.59999999999818
 20
334
 11
177.59999999999818
 21
331
  0
LINE
  8
_0-a_
  6
CONTINUOUS
 62
    3
 10
171.59999999999818
 20
331
 11
174.59999999999818
 21
334
  0
LINE
  8
_0-a_
  6
CONTINUOUS
 62
    3
 10
180.59999999999818
 20
334
 11
183.59999999999818
 21
331
  0
LINE
  8
_0-a_
  6
CONTINUOUS
 62
    3
 10
177.59999999999818
 20
331
 11
180.59999999999818
 21
334
  0
LINE
  8
_0-a_
  6
CONTINUOUS
 62
    3
 10
186.59999999999818
 20
334
 11
189.59999999999818
 21
331
  0
LINE
  8
_0-a_
  6
CONTINUOUS
 62
    3
 10
183.59999999999818
 20
331
 11
186.59999999999818
 21
334
  0
LINE
  8
_0-a_
  6
CONTINUOUS
 62
    3
 10
192.59999999999818
 20
334
 11
195.59999999999818
 21
331
  0
LINE
  8
_0-a_
  6
CONTINUOUS
 62
    3
 10
189.59999999999818
 20
331
 11
192.59999999999818
 21
334
  0
LINE
  8
_0-a_
  6
CONTINUOUS
 62
    3
 10
198.59999999999818
 20
334
 11
201.59999999999818
 21
331
  0
LINE
  8
_0-a_
  6
CONTINUOUS
 62
    3
 10
195.59999999999818
 20
331
 11
198.59999999999818
 21
334
  0
LINE
  8
_0-a_
  6
CONTINUOUS
 62
    3
 10
204.59999999999818
 20
334
 11
207.59999999999818
 21
331
  0
LINE
  8
_0-a_
  6
CONTINUOUS
 62
    3
 10
201.59999999999818
 20
331
 11
204.59999999999818
 21
334
  0
LINE
  8
_0-a_
  6
CONTINUOUS
 62
    3
 10
207.59999999999818
 20
331
 11
210.59999999999818
 21
334
  0
LINE
  8
_0-a_
  6
CONTINUOUS
 62
    3
 10
137.59999999999729
 20
331
 11
107.45578674334416
 21
331
  0
LINE
  8
_0-a_
  6
CONTINUOUS
 62
    3
 10
110.59999999999724
 20
334
 11
113.59999999999724
 21
331
  0
LINE
  8
_0-a_
  6
CONTINUOUS
 62
    3
 10
107.59999999999724
 20
331
 11
110.59999999999724
 21
334
  0
LINE
  8
_0-a_
  6
CONTINUOUS
 62
    3
 10
116.59999999999724
 20
334
 11
119.59999999999724
 21
331
  0
LINE
  8
_0-a_
  6
CONTINUOUS
 62
    3
 10
113.59999999999724
 20
331
 11
116.59999999999724
 21
334
  0
LINE
  8
_0-a_
  6
CONTINUOUS
 62
    3
 10
122.59999999999724
 20
334
 11
125.59999999999724
 21
331
  0
LINE
  8
_0-a_
  6
CONTINUOUS
 62
    3
 10
119.59999999999724
 20
331
 11
122.59999999999724
 21
334
  0
LINE
  8
_0-a_
  6
CONTINUOUS
 62
    3
 10
128.59999999999729
 20
334
 11
131.59999999999729
 21
331
  0
LINE
  8
_0-a_
  6
CONTINUOUS
 62
    3
 10
125.59999999999724
 20
331
 11
128.59999999999729
 21
334
  0
LINE
  8
_0-a_
  6
CONTINUOUS
 62
    3
 10
134.59999999999729
 20
334
 11
137.59999999999729
 21
331
  0
LINE
  8
_0-a_
  6
CONTINUOUS
 62
    3
 10
131.59999999999729
 20
331
 11
134.59999999999729
 21
334
  0
LINE
  8
_0-a_
  6
CONTINUOUS
 62
    3
 10
156.5999999999982
 20
334
 11
159.5999999999982
 21
331
  0
LINE
  8
_0-a_
  6
CONTINUOUS
 62
    3
 10
133.00192378864551
 20
331
 11
137.5999999999982
 21
331
  0
LINE
  8
_0-a_
  6
CONTINUOUS
 62
    3
 10
137.5999999999982
 20
331
 11
107.45578674334416
 21
331
  0
LINE
  8
_0-a_
  6
CONTINUOUS
 62
    3
 10
217.10000000000045
 20
328.80000000001155
 11
220.10000000000045
 21
325.80000000001155
  0
LINE
  8
_0-a_
  6
CONTINUOUS
 62
    3
 10
214.10000000000045
 20
325.80000000001155
 11
217.10000000000045
 21
328.80000000001155
  0
LINE
  8
_0-a_
  6
CONTINUOUS
 62
    3
 10
223.10000000000045
 20
328.80000000001155
 11
226.10000000000045
 21
325.80000000001155
  0
LINE
  8
_0-a_
  6
CONTINUOUS
 62
    3
 10
220.10000000000045
 20
325.80000000001155
 11
223.10000000000045
 21
328.80000000001155
  0
LINE
  8
_0-a_
  6
CONTINUOUS
 62
    3
 10
229.10000000000045
 20
328.80000000001155
 11
232.10000000000045
 21
325.80000000001155
  0
LINE
  8
_0-a_
  6
CONTINUOUS
 62
    3
 10
226.10000000000045
 20
325.80000000001155
 11
229.10000000000045
 21
328.80000000001155
  0
LINE
  8
_0-a_
  6
CONTINUOUS
 62
    3
 10
235.10000000000045
 20
328.80000000001155
 11
238.10000000000045
 21
325.80000000001155
  0
LINE
  8
_0-a_
  6
CONTINUOUS
 62
    3
 10
232.10000000000045
 20
325.80000000001155
 11
235.10000000000045
 21
328.80000000001155
  0
LINE
  8
_0-a_
  6
CONTINUOUS
 62
    3
 10
241.10000000000045
 20
328.80000000001155
 11
244.10000000000045
 21
325.80000000001155
  0
LINE
  8
_0-a_
  6
CONTINUOUS
 62
    3
 10
238.10000000000045
 20
325.80000000001155
 11
241.10000000000045
 21
328.80000000001155
  0
LINE
  8
_0-a_
  6
CONTINUOUS
 62
    3
 10
247.10000000000045
 20
328.80000000001155
 11
250.10000000000045
 21
325.80000000001155
  0
LINE
  8
_0-a_
  6
CONTINUOUS
 62
    3
 10
244.10000000000045
 20
325.80000000001155
 11
247.10000000000045
 21
328.80000000001155
  0
LINE
  8
_0-a_
  6
CONTINUOUS
 62
    3
 10
253.10000000000045
 20
328.80000000001155
 11
256.10000000000042
 21
325.80000000001155
  0
LINE
  8
_0-a_
  6
CONTINUOUS
 62
    3
 10
250.10000000000045
 20
325.80000000001155
 11
253.10000000000045
 21
328.80000000001155
  0
LINE
  8
_0-a_
  6
CONTINUOUS
 62
    3
 10
259.10000000000042
 20
328.80000000001155
 11
262.10000000000042
 21
325.80000000001155
  0
LINE
  8
_0-a_
  6
CONTINUOUS
 62
    3
 10
256.10000000000042
 20
325.80000000001155
 11
259.10000000000042
 21
328.80000000001155
  0
LINE
  8
_0-a_
  6
CONTINUOUS
 62
    3
 10
265.10000000000042
 20
328.80000000001155
 11
268.10000000000042
 21
325.80000000001155
  0
LINE
  8
_0-a_
  6
CONTINUOUS
 62
    3
 10
262.10000000000042
 20
325.80000000001155
 11
265.10000000000042
 21
328.80000000001155
  0
LINE
  8
_0-a_
  6
CONTINUOUS
 62
    3
 10
271.10000000000042
 20
328.80000000001155
 11
274.10000000000042
 21
325.80000000001155
  0
LINE
  8
_0-a_
  6
CONTINUOUS
 62
    3
 10
268.10000000000042
 20
325.80000000001155
 11
271.10000000000042
 21
328.80000000001155
  0
LINE
  8
_0-a_
  6
CONTINUOUS
 62
    3
 10
277.10000000000042
 20
328.80000000001155
 11
280.10000000000042
 21
325.80000000001155
  0
LINE
  8
_0-a_
  6
CONTINUOUS
 62
    3
 10
274.10000000000042
 20
325.80000000001155
 11
277.10000000000042
 21
328.80000000001155
  0
LINE
  8
_0-a_
  6
CONTINUOUS
 62
    3
 10
283.10000000000042
 20
328.80000000001155
 11
286.10000000000042
 21
325.80000000001155
  0
LINE
  8
_0-a_
  6
CONTINUOUS
 62
    3
 10
280.10000000000042
 20
325.80000000001155
 11
283.10000000000042
 21
328.80000000001155
  0
LINE
  8
_0-a_
  6
CONTINUOUS
 62
    3
 10
289.10000000000042
 20
328.80000000001155
 11
292.10000000000042
 21
325.80000000001155
  0
LINE
  8
_0-a_
  6
CONTINUOUS
 62
    3
 10
286.10000000000042
 20
325.80000000001155
 11
289.10000000000042
 21
328.80000000001155
  0
LINE
  8
_0-a_
  6
CONTINUOUS
 62
    3
 10
295.10000000000042
 20
328.80000000001155
 11
298.10000000000042
 21
325.80000000001155
  0
LINE
  8
_0-a_
  6
CONTINUOUS
 62
    3
 10
292.10000000000042
 20
325.80000000001155
 11
295.10000000000042
 21
328.80000000001155
  0
LINE
  8
_0-a_
  6
CONTINUOUS
 62
    3
 10
301.10000000000042
 20
328.80000000001155
 11
304.10000000000042
 21
325.80000000001155
  0
LINE
  8
_0-a_
  6
CONTINUOUS
 62
    3
 10
298.10000000000042
 20
325.80000000001155
 11
301.10000000000042
 21
328.80000000001155
  0
LINE
  8
_0-a_
  6
CONTINUOUS
 62
    3
 10
307.10000000000042
 20
328.80000000001155
 11
310.10000000000042
 21
325.80000000001155
  0
LINE
  8
_0-a_
  6
CONTINUOUS
 62
    3
 10
304.10000000000042
 20
325.80000000001155
 11
307.10000000000042
 21
328.80000000001155
  0
LINE
  8
_0-a_
  6
CONTINUOUS
 62
    3
 10
313.10000000000042
 20
328.80000000001155
 11
316.10000000000042
 21
325.80000000001155
  0
LINE
  8
_0-a_
  6
CONTINUOUS
 62
    3
 10
310.10000000000042
 20
325.80000000001155
 11
313.10000000000042
 21
328.80000000001155
  0
LINE
  8
_0-a_
  6
CONTINUOUS
 62
    3
 10
319.10000000000042
 20
328.80000000001155
 11
322.10000000000042
 21
325.80000000001155
  0
LINE
  8
_0-a_
  6
CONTINUOUS
 62
    3
 10
316.10000000000042
 20
325.80000000001155
 11
319.10000000000042
 21
328.80000000001155
  0
LINE
  8
_0-a_
  6
CONTINUOUS
 62
    3
 10
325.10000000000042
 20
328.80000000001155
 11
328.10000000000042
 21
325.80000000001155
  0
LINE
  8
_0-a_
  6
CONTINUOUS
 62
    3
 10
322.10000000000042
 20
325.80000000001155
 11
325.10000000000042
 21
328.80000000001155
  0
LINE
  8
_0-a_
  6
CONTINUOUS
 62
    3
 10
331.10000000000042
 20
328.80000000001155
 11
334.10000000000042
 21
325.80000000001155
  0
LINE
  8
_0-a_
  6
CONTINUOUS
 62
    3
 10
328.10000000000042
 20
325.80000000001155
 11
331.10000000000042
 21
328.80000000001155
  0
LINE
  8
_0-a_
  6
CONTINUOUS
 62
    3
 10
337.10000000000042
 20
328.80000000001155
 11
340.10000000000042
 21
325.80000000001155
  0
LINE
  8
_0-a_
  6
CONTINUOUS
 62
    3
 10
334.10000000000042
 20
325.80000000001155
 11
337.10000000000042
 21
328.80000000001155
  0
LINE
  8
_0-a_
  6
CONTINUOUS
 62
    3
 10
343.10000000000042
 20
328.80000000001155
 11
346.10000000000042
 21
325.80000000001155
  0
LINE
  8
_0-a_
  6
CONTINUOUS
 62
    3
 10
340.10000000000042
 20
325.80000000001155
 11
343.10000000000042
 21
328.80000000001155
  0
LINE
  8
_0-a_
  6
CONTINUOUS
 62
    3
 10
349.10000000000042
 20
328.80000000001155
 11
352.10000000000042
 21
325.80000000001155
  0
LINE
  8
_0-a_
  6
CONTINUOUS
 62
    3
 10
346.10000000000042
 20
325.80000000001155
 11
349.10000000000042
 21
328.80000000001155
  0
LINE
  8
_0-a_
  6
CONTINUOUS
 62
    3
 10
355.10000000000042
 20
328.80000000001155
 11
358.10000000000042
 21
325.80000000001155
  0
LINE
  8
_0-a_
  6
CONTINUOUS
 62
    3
 10
352.10000000000042
 20
325.80000000001155
 11
355.10000000000042
 21
328.80000000001155
  0
LINE
  8
_0-a_
  6
CONTINUOUS
 62
    3
 10
361.10000000000042
 20
328.80000000001155
 11
364.10000000000042
 21
325.80000000001155
  0
LINE
  8
_0-a_
  6
CONTINUOUS
 62
    3
 10
358.10000000000042
 20
325.80000000001155
 11
361.10000000000042
 21
328.80000000001155
  0
LINE
  8
_0-a_
  6
CONTINUOUS
 62
    3
 10
367.10000000000042
 20
328.80000000001155
 11
370.10000000000042
 21
325.80000000001155
  0
LINE
  8
_0-a_
  6
CONTINUOUS
 62
    3
 10
364.10000000000042
 20
325.80000000001155
 11
367.10000000000042
 21
328.80000000001155
  0
LINE
  8
_0-a_
  6
CONTINUOUS
 62
    3
 10
373.10000000000042
 20
328.80000000001155
 11
376.10000000000042
 21
325.80000000001155
  0
LINE
  8
_0-a_
  6
CONTINUOUS
 62
    3
 10
370.10000000000042
 20
325.80000000001155
 11
373.10000000000042
 21
328.80000000001155
  0
LINE
  8
_0-a_
  6
CONTINUOUS
 62
    3
 10
379.10000000000042
 20
328.80000000001155
 11
382.10000000000042
 21
325.80000000001155
  0
LINE
  8
_0-a_
  6
CONTINUOUS
 62
    3
 10
376.10000000000042
 20
325.80000000001155
 11
379.10000000000042
 21
328.80000000001155
  0
LINE
  8
_0-a_
  6
CONTINUOUS
 62
    3
 10
385.10000000000042
 20
328.80000000001155
 11
388.10000000000042
 21
325.80000000001155
  0
LINE
  8
_0-a_
  6
CONTINUOUS
 62
    3
 10
382.10000000000042
 20
325.80000000001155
 11
385.10000000000042
 21
328.80000000001155
  0
LINE
  8
_0-a_
  6
CONTINUOUS
 62
    3
 10
391.10000000000042
 20
328.80000000001155
 11
394.10000000000042
 21
325.80000000001155
  0
LINE
  8
_0-a_
  6
CONTINUOUS
 62
    3
 10
388.10000000000042
 20
325.80000000001155
 11
391.10000000000042
 21
328.80000000001155
  0
LINE
  8
_0-a_
  6
CONTINUOUS
 62
    3
 10
397.10000000000042
 20
328.80000000001155
 11
400.10000000000042
 21
325.80000000001155
  0
LINE
  8
_0-a_
  6
CONTINUOUS
 62
    3
 10
394.10000000000042
 20
325.80000000001155
 11
397.10000000000042
 21
328.80000000001155
  0
LINE
  8
_0-a_
  6
CONTINUOUS
 62
    3
 10
403.10000000000042
 20
328.80000000001155
 11
406.10000000000042
 21
325.80000000001155
  0
LINE
  8
_0-a_
  6
CONTINUOUS
 62
    3
 10
400.10000000000042
 20
325.80000000001155
 11
403.10000000000042
 21
328.80000000001155
  0
LINE
  8
_0-a_
  6
CONTINUOUS
 62
    3
 10
409.10000000000042
 20
328.80000000001155
 11
412.10000000000042
 21
325.80000000001155
  0
LINE
  8
_0-a_
  6
CONTINUOUS
 62
    3
 10
406.10000000000042
 20
325.80000000001155
 11
409.10000000000042
 21
328.80000000001155
  0
LINE
  8
_0-a_
  6
CONTINUOUS
 62
    3
 10
415.10000000000042
 20
328.80000000001155
 11
418.10000000000042
 21
325.80000000001155
  0
LINE
  8
_0-a_
  6
CONTINUOUS
 62
    3
 10
412.10000000000042
 20
325.80000000001155
 11
415.10000000000042
 21
328.80000000001155
  0
LINE
  8
_0-a_
  6
CONTINUOUS
 62
    3
 10
418.10000000000042
 20
325.80000000001155
 11
421.10000000000042
 21
328.80000000001155
  0
LINE
  8
_0-a_
  6
CONTINUOUS
 62
    3
 10
421.10000000000042
 20
328.80000000001155
 11
422.10000000000019
 21
327.80000000001178
  0
LINE
  8
_0-a_
  6
CONTINUOUS
 62
    3
 10
356.60000000000133
 20
334.0000000000116
 11
359.60000000000133
 21
331.0000000000116
  0
LINE
  8
_0-a_
  6
CONTINUOUS
 62
    3
 10
353.60000000000133
 20
331.0000000000116
 11
356.60000000000133
 21
334.0000000000116
  0
LINE
  8
_0-a_
  6
CONTINUOUS
 62
    3
 10
362.60000000000133
 20
334.0000000000116
 11
365.60000000000133
 21
331.0000000000116
  0
LINE
  8
_0-a_
  6
CONTINUOUS
 62
    3
 10
359.60000000000133
 20
331.0000000000116
 11
362.60000000000133
 21
334.0000000000116
  0
LINE
  8
_0-a_
  6
CONTINUOUS
 62
    3
 10
368.60000000000133
 20
334.0000000000116
 11
371.60000000000133
 21
331.0000000000116
  0
LINE
  8
_0-a_
  6
CONTINUOUS
 62
    3
 10
365.60000000000133
 20
331.0000000000116
 11
368.60000000000133
 21
334.0000000000116
  0
LINE
  8
_0-a_
  6
CONTINUOUS
 62
    3
 10
374.60000000000133
 20
334.0000000000116
 11
377.60000000000133
 21
331.0000000000116
  0
LINE
  8
_0-a_
  6
CONTINUOUS
 62
    3
 10
371.60000000000133
 20
331.0000000000116
 11
374.60000000000133
 21
334.0000000000116
  0
LINE
  8
_0-a_
  6
CONTINUOUS
 62
    3
 10
380.60000000000133
 20
334.0000000000116
 11
383.60000000000133
 21
331.0000000000116
  0
LINE
  8
_0-a_
  6
CONTINUOUS
 62
    3
 10
377.60000000000133
 20
331.0000000000116
 11
380.60000000000133
 21
334.0000000000116
  0
LINE
  8
_0-a_
  6
CONTINUOUS
 62
    3
 10
386.60000000000133
 20
334.0000000000116
 11
389.60000000000133
 21
331.0000000000116
  0
LINE
  8
_0-a_
  6
CONTINUOUS
 62
    3
 10
383.60000000000133
 20
331.0000000000116
 11
386.60000000000133
 21
334.0000000000116
  0
LINE
  8
_0-a_
  6
CONTINUOUS
 62
    3
 10
392.60000000000133
 20
334.0000000000116
 11
395.60000000000133
 21
331.0000000000116
  0
LINE
  8
_0-a_
  6
CONTINUOUS
 62
    3
 10
389.60000000000133
 20
331.0000000000116
 11
392.60000000000133
 21
334.0000000000116
  0
LINE
  8
_0-a_
  6
CONTINUOUS
 62
    3
 10
398.60000000000133
 20
334.0000000000116
 11
401.60000000000133
 21
331.0000000000116
  0
LINE
  8
_0-a_
  6
CONTINUOUS
 62
    3
 10
395.60000000000133
 20
331.0000000000116
 11
398.60000000000133
 21
334.0000000000116
  0
LINE
  8
_0-a_
  6
CONTINUOUS
 62
    3
 10
404.60000000000133
 20
334.0000000000116
 11
407.60000000000133
 21
331.0000000000116
  0
LINE
  8
_0-a_
  6
CONTINUOUS
 62
    3
 10
401.60000000000133
 20
331.0000000000116
 11
404.60000000000133
 21
334.0000000000116
  0
LINE
  8
_0-a_
  6
CONTINUOUS
 62
    3
 10
410.60000000000133
 20
334.0000000000116
 11
413.60000000000133
 21
331.0000000000116
  0
LINE
  8
_0-a_
  6
CONTINUOUS
 62
    3
 10
407.60000000000133
 20
331.0000000000116
 11
410.60000000000133
 21
334.0000000000116
  0
LINE
  8
_0-a_
  6
CONTINUOUS
 62
    3
 10
416.60000000000133
 20
334.0000000000116
 11
419.60000000000133
 21
331.0000000000116
  0
LINE
  8
_0-a_
  6
CONTINUOUS
 62
    3
 10
413.60000000000133
 20
331.0000000000116
 11
416.60000000000133
 21
334.0000000000116
  0
LINE
  8
_0-a_
  6
CONTINUOUS
 62
    3
 10
422.60000000000133
 20
334.0000000000116
 11
425.60000000000133
 21
331.0000000000116
  0
LINE
  8
_0-a_
  6
CONTINUOUS
 62
    3
 10
419.60000000000133
 20
331.0000000000116
 11
422.60000000000133
 21
334.0000000000116
  0
LINE
  8
_0-a_
  6
CONTINUOUS
 62
    3
 10
428.60000000000133
 20
334.0000000000116
 11
431.60000000000133
 21
331.0000000000116
  0
LINE
  8
_0-a_
  6
CONTINUOUS
 62
    3
 10
425.60000000000133
 20
331.0000000000116
 11
428.60000000000133
 21
334.0000000000116
  0
LINE
  8
_0-a_
  6
CONTINUOUS
 62
    3
 10
434.60000000000133
 20
334.0000000000116
 11
437.60000000000133
 21
331.0000000000116
  0
LINE
  8
_0-a_
  6
CONTINUOUS
 62
    3
 10
431.60000000000133
 20
331.0000000000116
 11
434.60000000000133
 21
334.0000000000116
  0
LINE
  8
_0-a_
  6
CONTINUOUS
 62
    3
 10
440.60000000000133
 20
334.0000000000116
 11
443.60000000000133
 21
331.0000000000116
  0
LINE
  8
_0-a_
  6
CONTINUOUS
 62
    3
 10
437.60000000000133
 20
331.0000000000116
 11
440.60000000000133
 21
334.0000000000116
  0
LINE
  8
_0-a_
  6
CONTINUOUS
 62
    3
 10
446.60000000000133
 20
334.0000000000116
 11
449.60000000000133
 21
331.0000000000116
  0
LINE
  8
_0-a_
  6
CONTINUOUS
 62
    3
 10
443.60000000000133
 20
331.0000000000116
 11
446.60000000000133
 21
334.0000000000116
  0
LINE
  8
_0-a_
  6
CONTINUOUS
 62
    3
 10
452.60000000000133
 20
334.0000000000116
 11
455.60000000000133
 21
331.0000000000116
  0
LINE
  8
_0-a_
  6
CONTINUOUS
 62
    3
 10
449.60000000000133
 20
331.0000000000116
 11
452.60000000000133
 21
334.0000000000116
  0
LINE
  8
_0-a_
  6
CONTINUOUS
 62
    3
 10
458.60000000000133
 20
334.0000000000116
 11
461.60000000000133
 21
331.0000000000116
  0
LINE
  8
_0-a_
  6
CONTINUOUS
 62
    3
 10
455.60000000000133
 20
331.0000000000116
 11
458.60000000000133
 21
334.0000000000116
  0
LINE
  8
_0-a_
  6
CONTINUOUS
 62
    3
 10
464.60000000000133
 20
334.0000000000116
 11
467.60000000000133
 21
331.0000000000116
  0
LINE
  8
_0-a_
  6
CONTINUOUS
 62
    3
 10
461.60000000000133
 20
331.0000000000116
 11
464.60000000000133
 21
334.0000000000116
  0
LINE
  8
_0-a_
  6
CONTINUOUS
 62
    3
 10
470.60000000000133
 20
334.0000000000116
 11
473.60000000000133
 21
331.0000000000116
  0
LINE
  8
_0-a_
  6
CONTINUOUS
 62
    3
 10
467.60000000000133
 20
331.0000000000116
 11
470.60000000000133
 21
334.0000000000116
  0
LINE
  8
_0-a_
  6
CONTINUOUS
 62
    3
 10
476.60000000000133
 20
334.0000000000116
 11
479.60000000000133
 21
331.0000000000116
  0
LINE
  8
_0-a_
  6
CONTINUOUS
 62
    3
 10
473.60000000000133
 20
331.0000000000116
 11
476.60000000000133
 21
334.0000000000116
  0
LINE
  8
_0-a_
  6
CONTINUOUS
 62
    3
 10
482.60000000000133
 20
334.0000000000116
 11
485.60000000000133
 21
331.0000000000116
  0
LINE
  8
_0-a_
  6
CONTINUOUS
 62
    3
 10
479.60000000000133
 20
331.0000000000116
 11
482.60000000000133
 21
334.0000000000116
  0
LINE
  8
_0-a_
  6
CONTINUOUS
 62
    3
 10
488.60000000000133
 20
334.0000000000116
 11
491.60000000000133
 21
331.0000000000116
  0
LINE
  8
_0-a_
  6
CONTINUOUS
 62
    3
 10
485.60000000000133
 20
331.0000000000116
 11
488.60000000000133
 21
334.0000000000116
  0
LINE
  8
_0-a_
  6
CONTINUOUS
 62
    3
 10
494.60000000000133
 20
334.0000000000116
 11
497.60000000000133
 21
331.0000000000116
  0
LINE
  8
_0-a_
  6
CONTINUOUS
 62
    3
 10
491.60000000000133
 20
331.0000000000116
 11
494.60000000000133
 21
334.0000000000116
  0
LINE
  8
_0-a_
  6
CONTINUOUS
 62
    3
 10
494.60000000000133
 20
334.0000000000116
 11
497.60000000000133
 21
331.0000000000116
  0
LINE
  8
_0-a_
  6
CONTINUOUS
 62
    3
 10
497.60000000000133
 20
331.0000000000116
 11
500.60000000000133
 21
334.0000000000116
  0
LINE
  8
_0-a_
  6
CONTINUOUS
 62
    3
 10
500.60000000000133
 20
334.0000000000116
 11
502.60000000000133
 21
332.00000000001182
  0
LINE
  8
_0-a_
  6
CONTINUOUS
 62
    3
 10
548.60000000000139
 20
334.0000000000116
 11
551.60000000000139
 21
331.0000000000116
  0
LINE
  8
_0-a_
  6
CONTINUOUS
 62
    3
 10
545.60000000000139
 20
331.0000000000116
 11
548.60000000000139
 21
334.0000000000116
  0
LINE
  8
_0-a_
  6
CONTINUOUS
 62
    3
 10
542.60000000000139
 20
334.0000000000116
 11
545.60000000000139
 21
331.0000000000116
  0
LINE
  8
_0-a_
  6
CONTINUOUS
 62
    3
 10
539.60000000000139
 20
331.0000000000116
 11
542.60000000000139
 21
334.0000000000116
  0
LINE
  8
_0-a_
  6
CONTINUOUS
 62
    3
 10
536.60000000000139
 20
334.0000000000116
 11
539.60000000000139
 21
331.0000000000116
  0
LINE
  8
_0-a_
  6
CONTINUOUS
 62
    3
 10
533.60000000000139
 20
331.0000000000116
 11
536.60000000000139
 21
334.0000000000116
  0
LINE
  8
_0-a_
  6
CONTINUOUS
 62
    3
 10
530.60000000000139
 20
334.0000000000116
 11
533.60000000000139
 21
331.0000000000116
  0
LINE
  8
_0-a_
  6
CONTINUOUS
 62
    3
 10
527.60000000000139
 20
331.0000000000116
 11
530.60000000000139
 21
334.0000000000116
  0
LINE
  8
_0-a_
  6
CONTINUOUS
 62
    3
 10
524.60000000000139
 20
334.0000000000116
 11
527.60000000000139
 21
331.0000000000116
  0
LINE
  8
_0-a_
  6
CONTINUOUS
 62
    3
 10
521.60000000000139
 20
331.0000000000116
 11
524.60000000000139
 21
334.0000000000116
  0
LINE
  8
_0-a_
  6
CONTINUOUS
 62
    3
 10
508.31000000000137
 20
331.20000000001164
 11
511.05747741945567
 21
332.20000000001164
  0
LINE
  8
_0-a_
  6
DASHED1
 62
    3
 10
157.10000000000048
 20
303.0000000000116
 11
157.10000000000048
 21
305.5000000000116
  0
LINE
  8
_0-a_
  6
DASHED1
 62
    3
 10
172.10000000000045
 20
303.0000000000116
 11
172.10000000000045
 21
305.5000000000116
  0
LINE
  8
_0-a_
  6
CONTINUOUS
 62
    3
 10
133.00192378864551
 20
331
 11
137.5999999999982
 21
331
  0
LINE
  8
_0-a_
  6
CONTINUOUS
 62
    3
 10
137.5999999999982
 20
331
 11
137.5999999999982
 21
334
  0
LINE
  8
_0-a_
  6
CONTINUOUS
 62
    3
 10
526.19807621135453
 20
331.0000000000116
 11
521.60000000000139
 21
331.0000000000116
  0
LINE
  8
_0-a_
  6
CONTINUOUS
 62
    3
 10
519.60000000000048
 20
325.50000000001182
 11
519.60000000000048
 21
334.0000000000116
  0
LINE
  8
_0-a_
  6
CONTINUOUS
 62
    3
 10
521.60000000000139
 20
334.0000000000116
 11
551.2442132566581
 21
334.0000000000116
  0
LINE
  8
_0-a_
  6
CONTINUOUS
 62
    3
 10
521.60000000000139
 20
334.0000000000116
 11
521.60000000000139
 21
331.0000000000116
  0
LINE
  8
_0-a_
  6
CONTINUOUS
 62
    3
 10
529.60000000000048
 20
334.0000000000116
 11
519.60000000000048
 21
334.0000000000116
  0
LINE
  8
_0-a_
  6
CONTINUOUS
 62
    3
 10
529.60000000000048
 20
334.5000000000116
 11
529.60000000000048
 21
334.0000000000116
  0
LINE
  8
_0-f_寸法
  6
CONTINUOUS
 62
    4
 10
219.6000000000009
 20
335.5
 11
219.6000000000009
 21
375.5
  0
LINE
  8
_0-f_寸法
  6
CONTINUOUS
 62
    4
 10
129.59999999999911
 20
335.5
 11
129.59999999999911
 21
375.5
  0
POINT
  8
_0-f_寸法
 62
    4
 10
129.59999999999911
 20
374.5
  0
POINT
  8
_0-f_寸法
 62
    4
 10
219.6000000000009
 20
374.5
  0
LINE
  8
_0-f_寸法
  6
CONTINUOUS
 62
    4
 10
129.59999999999911
 20
374.5
 11
219.6000000000009
 21
374.5
  0
TEXT
  8
_0-f_寸法
 62
    4
 10
171
 20
374.5
 40
9
 41
0.8
 50
0
  1
90
  0
LINE
  8
_0-f_寸法
  6
CONTINUOUS
 62
    4
 10
344.60000000000133
 20
335.5
 11
344.60000000000133
 21
375.5
  0
POINT
  8
_0-f_寸法
 62
    4
 10
219.6000000000009
 20
374.5
  0
POINT
  8
_0-f_寸法
 62
    4
 10
344.60000000000133
 20
374.5
  0
LINE
  8
_0-f_寸法
  6
CONTINUOUS
 62
    4
 10
219.6000000000009
 20
374.5
 11
344.60000000000133
 21
374.5
  0
TEXT
  8
_0-f_寸法
 62
    4
 10
276.7000000000009
 20
374.5
 40
9
 41
0.8
 50
0
  1
125
  0
LINE
  8
_0-f_寸法
  6
CONTINUOUS
 62
    4
 10
529.60000000000048
 20
335.5
 11
529.60000000000048
 21
375.5
  0
POINT
  8
_0-f_寸法
 62
    4
 10
344.60000000000133
 20
374.5
  0
POINT
  8
_0-f_寸法
 62
    4
 10
529.60000000000048
 20
374.5
  0
LINE
  8
_0-f_寸法
  6
CONTINUOUS
 62
    4
 10
344.60000000000133
 20
374.5
 11
529.60000000000048
 21
374.5
  0
TEXT
  8
_0-f_寸法
 62
    4
 10
431.7000000000009
 20
374.5
 40
9
 41
0.8
 50
0
  1
185
  0
LINE
  8
_0-f_寸法
  6
CONTINUOUS
 62
    4
 10
529.60000000000048
 20
375.5
 11
529.60000000000048
 21
395.5
  0
LINE
  8
_0-f_寸法
  6
CONTINUOUS
 62
    4
 10
129.59999999999911
 20
375.5
 11
129.59999999999911
 21
395.5
  0
POINT
  8
_0-f_寸法
 62
    4
 10
129.59999999999911
 20
394.5
  0
POINT
  8
_0-f_寸法
 62
    4
 10
529.60000000000048
 20
394.5
  0
LINE
  8
_0-f_寸法
  6
CONTINUOUS
 62
    4
 10
129.59999999999911
 20
394.5
 11
529.60000000000048
 21
394.5
  0
TEXT
  8
_0-f_寸法
 62
    4
 10
324.19999999999953
 20
394.5
 40
9
 41
0.8
 50
0
  1
400
  0
LINE
  8
_0-f_寸法
  6
CONTINUOUS
 62
    4
 10
344.60000000000133
 20
303.0000000000116
 11
344.60000000000133
 21
276.0000000000116
  0
LINE
  8
_0-f_寸法
  6
CONTINUOUS
 62
    4
 10
349.60000000000156
 20
296.0000000000116
 11
349.60000000000156
 21
276.0000000000116
  0
POINT
  8
_0-f_寸法
 62
    4
 10
349.60000000000156
 20
277.0000000000116
  0
POINT
  8
_0-f_寸法
 62
    4
 10
344.60000000000133
 20
277.0000000000116
  0
LINE
  8
_0-f_寸法
  6
CONTINUOUS
 62
    4
 10
349.60000000000156
 20
277.0000000000116
 11
344.60000000000133
 21
277.0000000000116
  0
TEXT
  8
_0-f_寸法
 62
    4
 10
345.30000000000132
 20
277.0000000000116
 40
9
 41
0.8
 50
0
  1
5
  0
CIRCLE
  8
_0-e_付箋
  6
CONTINUOUS
 62
    4
 10
337.11232552175221
 20
294.93096437313864
 40
4.8827102566353844
  0
TEXT
  8
_0-e_付箋
 62
    4
 10
334.11232552175221
 20
291.93096437313864
 40
6
 41
1
 50
0
  1
４
  0
LINE
  8
_0-e_付箋
  6
CONTINUOUS
 62
    4
 10
344.60000000000156
 20
309.39999700000305
 11
338.87518908006047
 21
299.48433362294043
  0
CIRCLE
  8
_0-e_付箋
  6
CONTINUOUS
 62
    4
 10
235.69038105676654
 20
309.79999900001189
 40
4.8827102566353844
  0
TEXT
  8
_0-e_付箋
 62
    4
 10
232.69038105676654
 20
306.79999900001189
 40
6
 41
1
 50
0
  1
７
  0
LINE
  8
_0-e_付箋
  6
CONTINUOUS
 62
    4
 10
231.46182993520151
 20
312.2413541283297
 11
222.70000000000036
 21
317.29999900001189
  0
CIRCLE
  8
_0-e_付箋
  6
CONTINUOUS
 62
    4
 10
231.806601717799
 20
296.09339528219846
 40
4.8827102566353844
  0
TEXT
  8
_0-e_付箋
 62
    4
 10
228.806601717799
 20
293.09339528219846
 40
6
 41
1
 50
0
  1
５
  0
LINE
  8
_0-e_付箋
  6
CONTINUOUS
 62
    4
 10
228.35400418476283
 20
299.54599281523451
 11
221.20000000000081
 21
306.69999699999664
  0
CIRCLE
  8
_0-e_付箋
  6
CONTINUOUS
 62
    4
 10
517.60000000000093
 20
347.24038105677823
 40
4.8827102566353844
  0
TEXT
  8
_0-e_付箋
 62
    4
 10
514.60000000000093
 20
344.24038105677823
 40
6
 41
1
 50
0
  1
８
  0
LINE
  8
_0-e_付箋
  6
CONTINUOUS
 62
    4
 10
515.15864487168358
 20
343.0118299352132
 11
510.10000000000088
 21
334.25000000001171
  0
CIRCLE
  8
_0-e_付箋
  6
CONTINUOUS
 62
    4
 10
191.83767447824866
 20
344.21903262686465
 40
4.8827102566353844
  0
TEXT
  8
_0-e_付箋
 62
    4
 10
188.83767447824866
 20
341.21903262686465
 40
6
 41
1
 50
0
  1
３
  0
LINE
  8
_0-e_付箋
  6
CONTINUOUS
 62
    4
 10
184.34999999999954
 20
329.75000000000023
 11
190.0748109199404
 21
339.66566337706286
  0
CIRCLE
  8
_0-e_付箋
  6
CONTINUOUS
 62
    4
 10
290.38767372825038
 20
338.82903062688229
 40
4.8827102566353844
  0
TEXT
  8
_0-e_付箋
 62
    4
 10
287.38767372825038
 20
335.82903062688229
 40
6
 41
1
 50
0
  1
２
  0
LINE
  8
_0-e_付箋
  6
CONTINUOUS
 62
    4
 10
282.8999992500008
 20
324.35999800001787
 11
288.62481016994167
 21
334.2756613770805
  0
CIRCLE
  8
_0-e_付箋
  6
CONTINUOUS
 62
    4
 10
470.83767447824999
 20
344.21903262687601
 40
4.8827102566353844
  0
TEXT
  8
_0-e_付箋
 62
    4
 10
467.83767447824999
 20
341.21903262687601
 40
6
 41
1
 50
0
  1
１
  0
LINE
  8
_0-e_付箋
  6
CONTINUOUS
 62
    4
 10
463.35000000000088
 20
329.7500000000116
 11
469.07481091994174
 21
339.66566337707422
  0
CIRCLE
  8
_0-e_付箋
  6
CONTINUOUS
 62
    4
 10
399.59999999999837
 20
283.26411670145785
 40
4.8827102566353844
  0
TEXT
  8
_0-e_付箋
 62
    4
 10
396.59999999999837
 20
280.26411670145785
 40
6
 41
1
 50
0
  1
10
  0
LINE
  8
_0-e_付箋
  6
CONTINUOUS
 62
    4
 10
397.15864487168079
 20
287.49266782302288
 11
384.59999999999837
 21
309.2448788149909
  0
CIRCLE
  8
_0-e_付箋
  6
CONTINUOUS
 62
    4
 10
509.09999999999951
 20
280.26923788647832
 40
4.8827102566353844
  0
TEXT
  8
_0-e_付箋
 62
    4
 10
506.09999999999951
 20
277.26923788647832
 40
6
 41
1
 50
0
  1
11
  0
LINE
  8
_0-e_付箋
  6
CONTINUOUS
 62
    4
 10
506.6586448716817
 20
284.49778900804336
 11
494.09999999999951
 21
306.25000000001137
  0
CIRCLE
  8
_0-e_付箋
  6
CONTINUOUS
 62
    4
 10
328.60895566014511
 20
214.22477370918966
 40
4.8827102566353844
  0
TEXT
  8
_0-e_付箋
 62
    4
 10
325.60895566014511
 20
211.22477370918966
 40
6
 41
1
 50
0
  1
６
  0
LINE
  8
_0-e_付箋
  6
CONTINUOUS
 62
    4
 10
325.1563581271094
 20
217.6773712422256
 11
318.00235394234693
 21
224.83137542698785
  0
LINE
  8
_0-0_躯体
  6
CONTINUOUS
 62
    2
 10
349.60000000000178
 20
295.40000000001163
 11
531.60000000000184
 21
295.40000000001163
  0
LINE
  8
_0-0_躯体
  6
CONTINUOUS
 62
    2
 10
349.60000000000156
 20
300.40000000001163
 11
521.60000000000139
 21
300.40000000001163
  0
LINE
  8
_0-0_躯体
  6
CONTINUOUS
 62
    2
 10
137.59999999999957
 20
300.40000000001163
 11
199.6000000000025
 21
300.40000000001163
  0
LINE
  8
_0-0_躯体
  6
CONTINUOUS
 62
    2
 10
127.59999999999997
 20
329.40000000000003
 11
127.59999999999997
 21
295.40000000001163
  0
LINE
  8
_0-0_躯体
  6
CONTINUOUS
 62
    2
 10
199.6000000000025
 20
295.40000000001163
 11
127.59999999999997
 21
295.40000000001163
  0
LINE
  8
_0-0_躯体
  6
CONTINUOUS
 62
    2
 10
97.599999999999966
 20
330.99999999999966
 11
137.59999999999957
 21
330.99999999999966
  0
LINE
  8
_0-0_躯体
  6
CONTINUOUS
 62
    2
 10
137.59999999999957
 20
331
 11
137.59999999999957
 21
300.40000000000026
  0
LINE
  8
_0-0_躯体
  6
CONTINUOUS
 62
    2
 10
127.59999999999997
 20
330.99999999999966
 11
127.59999999999997
 21
295.40000000001163
  0
LINE
  8
_0-0_躯体
  6
CONTINUOUS
 62
    2
 10
199.6000000000025
 20
297.06729355393435
 11
197.93270644607978
 21
295.40000000001163
  0
LINE
  8
_0-0_躯体
  6
CONTINUOUS
 62
    2
 10
199.6000000000025
 20
299.89572067868056
 11
195.10427932133356
 21
295.40000000001163
  0
LINE
  8
_0-0_躯体
  6
CONTINUOUS
 62
    2
 10
197.27585219658735
 20
300.40000000001163
 11
192.27585219658735
 21
295.40000000001163
  0
LINE
  8
_0-0_躯体
  6
CONTINUOUS
 62
    2
 10
194.44742507184114
 20
300.40000000001163
 11
189.44742507184114
 21
295.40000000001163
  0
LINE
  8
_0-0_躯体
  6
CONTINUOUS
 62
    2
 10
191.61899794709515
 20
300.40000000001163
 11
186.61899794709515
 21
295.40000000001163
  0
LINE
  8
_0-0_躯体
  6
CONTINUOUS
 62
    2
 10
188.79057082234894
 20
300.40000000001163
 11
183.79057082234894
 21
295.40000000001163
  0
LINE
  8
_0-0_躯体
  6
CONTINUOUS
 62
    2
 10
185.96214369760273
 20
300.40000000001163
 11
180.96214369760273
 21
295.40000000001163
  0
LINE
  8
_0-0_躯体
  6
CONTINUOUS
 62
    2
 10
183.13371657285651
 20
300.40000000001163
 11
178.13371657285651
 21
295.40000000001163
  0
LINE
  8
_0-0_躯体
  6
CONTINUOUS
 62
    2
 10
180.3052894481103
 20
300.40000000001163
 11
175.3052894481103
 21
295.40000000001163
  0
LINE
  8
_0-0_躯体
  6
CONTINUOUS
 62
    2
 10
177.47686232336409
 20
300.40000000001163
 11
172.47686232336409
 21
295.40000000001163
  0
LINE
  8
_0-0_躯体
  6
CONTINUOUS
 62
    2
 10
174.64843519861788
 20
300.40000000001163
 11
169.64843519861788
 21
295.40000000001163
  0
LINE
  8
_0-0_躯体
  6
CONTINUOUS
 62
    2
 10
171.82000807387166
 20
300.40000000001163
 11
166.82000807387166
 21
295.40000000001163
  0
LINE
  8
_0-0_躯体
  6
CONTINUOUS
 62
    2
 10
168.99158094912545
 20
300.40000000001163
 11
163.99158094912548
 21
295.40000000001163
  0
LINE
  8
_0-0_躯体
  6
CONTINUOUS
 62
    2
 10
166.16315382437924
 20
300.40000000001163
 11
161.16315382437926
 21
295.40000000001163
  0
LINE
  8
_0-0_躯体
  6
CONTINUOUS
 62
    2
 10
163.33472669963305
 20
300.40000000001163
 11
158.33472669963305
 21
295.40000000001163
  0
LINE
  8
_0-0_躯体
  6
CONTINUOUS
 62
    2
 10
160.50629957488684
 20
300.40000000001163
 11
155.50629957488684
 21
295.40000000001163
  0
LINE
  8
_0-0_躯体
  6
CONTINUOUS
 62
    2
 10
157.67787245014063
 20
300.40000000001163
 11
152.67787245014063
 21
295.40000000001163
  0
LINE
  8
_0-0_躯体
  6
CONTINUOUS
 62
    2
 10
154.84944532539441
 20
300.40000000001163
 11
149.84944532539441
 21
295.40000000001163
  0
LINE
  8
_0-0_躯体
  6
CONTINUOUS
 62
    2
 10
152.0210182006482
 20
300.40000000001163
 11
147.0210182006482
 21
295.40000000001163
  0
LINE
  8
_0-0_躯体
  6
CONTINUOUS
 62
    2
 10
149.19259107590199
 20
300.40000000001163
 11
144.19259107590199
 21
295.40000000001163
  0
LINE
  8
_0-0_躯体
  6
CONTINUOUS
 62
    2
 10
146.36416395115577
 20
300.40000000001163
 11
141.36416395115577
 21
295.40000000001163
  0
LINE
  8
_0-0_躯体
  6
CONTINUOUS
 62
    2
 10
143.53573682640956
 20
300.40000000001163
 11
138.53573682640956
 21
295.40000000001163
  0
LINE
  8
_0-0_躯体
  6
CONTINUOUS
 62
    2
 10
140.70730970166335
 20
300.40000000001163
 11
135.70730970166335
 21
295.40000000001163
  0
LINE
  8
_0-0_躯体
  6
CONTINUOUS
 62
    2
 10
137.87888257691759
 20
300.40000000001163
 11
132.87888257691759
 21
295.40000000001163
  0
LINE
  8
_0-0_躯体
  6
CONTINUOUS
 62
    2
 10
137.59999999999957
 20
302.94954454784005
 11
130.05045545217138
 21
295.40000000001163
  0
LINE
  8
_0-0_躯体
  6
CONTINUOUS
 62
    2
 10
137.59999999999957
 20
305.77797167258626
 11
127.59999999999997
 21
295.77797167258649
  0
LINE
  8
_0-0_躯体
  6
CONTINUOUS
 62
    2
 10
137.59999999999957
 20
308.60639879733247
 11
127.59999999999997
 21
298.60639879733259
  0
LINE
  8
_0-0_躯体
  6
CONTINUOUS
 62
    2
 10
137.59999999999957
 20
311.43482592207869
 11
127.59999999999997
 21
301.4348259220788
  0
LINE
  8
_0-0_躯体
  6
CONTINUOUS
 62
    2
 10
137.59999999999957
 20
314.2632530468249
 11
127.59999999999997
 21
304.26325304682501
  0
LINE
  8
_0-0_躯体
  6
CONTINUOUS
 62
    2
 10
137.59999999999957
 20
317.09168017157111
 11
127.59999999999997
 21
307.09168017157111
  0
LINE
  8
_0-0_躯体
  6
CONTINUOUS
 62
    2
 10
137.59999999999957
 20
319.92010729631733
 11
127.59999999999997
 21
309.92010729631733
  0
LINE
  8
_0-0_躯体
  6
CONTINUOUS
 62
    2
 10
137.59999999999957
 20
322.74853442106354
 11
127.59999999999997
 21
312.74853442106354
  0
LINE
  8
_0-0_躯体
  6
CONTINUOUS
 62
    2
 10
137.59999999999957
 20
325.57696154580975
 11
127.59999999999997
 21
315.57696154580975
  0
LINE
  8
_0-0_躯体
  6
CONTINUOUS
 62
    2
 10
137.59999999999957
 20
328.40538867055574
 11
127.59999999999997
 21
318.40538867055596
  0
LINE
  8
_0-0_躯体
  6
CONTINUOUS
 62
    2
 10
137.36618420469733
 20
330.99999999999966
 11
127.59999999999997
 21
321.23381579530218
  0
LINE
  8
_0-0_躯体
  6
CONTINUOUS
 62
    2
 10
134.53775707995112
 20
330.99999999999966
 11
127.59999999999997
 21
324.06224292004839
  0
LINE
  8
_0-0_躯体
  6
CONTINUOUS
 62
    2
 10
131.70932995520491
 20
330.99999999999966
 11
127.59999999999997
 21
326.89067004479449
  0
LINE
  8
_0-0_躯体
  6
CONTINUOUS
 62
    2
 10
128.88090283045938
 20
331
 11
127.59999999999997
 21
329.71909716954059
  0
LINE
  8
_0-a_
  6
CONTINUOUS
 62
    3
 10
141.5999999999982
 20
303
 11
141.5999999999982
 21
302.0000000000116
  0
LINE
  8
_0-a_
  6
CONTINUOUS
 62
    3
 10
199.60000000000045
 20
302.0000000000116
 11
141.5999999999982
 21
302.0000000000116
  0
LINE
  8
_0-0_躯体
  6
CONTINUOUS
 62
    2
 10
531.60000000000184
 20
296.7604293869087
 11
530.23957061310523
 21
295.40000000001163
  0
LINE
  8
_0-0_躯体
  6
CONTINUOUS
 62
    2
 10
531.60000000000184
 20
299.58885651165491
 11
527.41114348835902
 21
295.40000000001163
  0
LINE
  8
_0-0_躯体
  6
CONTINUOUS
 62
    2
 10
531.60000000000184
 20
302.41728363640112
 11
524.5827163636128
 21
295.40000000001163
  0
LINE
  8
_0-0_躯体
  6
CONTINUOUS
 62
    2
 10
531.60000000000184
 20
305.24571076114722
 11
521.75428923886659
 21
295.40000000001163
  0
LINE
  8
_0-0_躯体
  6
CONTINUOUS
 62
    2
 10
531.60000000000184
 20
308.07413788589344
 11
518.92586211412038
 21
295.40000000001163
  0
LINE
  8
_0-0_躯体
  6
CONTINUOUS
 62
    2
 10
531.60000000000184
 20
310.90256501063953
 11
521.60000000000139
 21
300.90256501063885
  0
LINE
  8
_0-0_躯体
  6
CONTINUOUS
 62
    2
 10
521.09743498937416
 20
300.40000000001163
 11
516.09743498937416
 21
295.40000000001163
  0
LINE
  8
_0-0_躯体
  6
CONTINUOUS
 62
    2
 10
531.60000000000184
 20
313.73099213538575
 11
521.60000000000139
 21
303.73099213538518
  0
LINE
  8
_0-0_躯体
  6
CONTINUOUS
 62
    2
 10
518.2690078646275
 20
300.40000000001163
 11
513.26900786462795
 21
295.40000000001163
  0
LINE
  8
_0-0_躯体
  6
CONTINUOUS
 62
    2
 10
531.60000000000184
 20
316.55941926013196
 11
521.60000000000139
 21
306.55941926013128
  0
LINE
  8
_0-0_躯体
  6
CONTINUOUS
 62
    2
 10
515.44058073988128
 20
300.40000000001163
 11
510.44058073988168
 21
295.40000000001163
  0
LINE
  8
_0-0_躯体
  6
CONTINUOUS
 62
    2
 10
531.60000000000184
 20
319.38784638487817
 11
521.60000000000139
 21
309.38784638487749
  0
LINE
  8
_0-0_躯体
  6
CONTINUOUS
 62
    2
 10
512.61215361513507
 20
300.40000000001163
 11
507.61215361513547
 21
295.40000000001163
  0
LINE
  8
_0-0_躯体
  6
CONTINUOUS
 62
    2
 10
531.60000000000184
 20
322.21627350962439
 11
521.60000000000139
 21
312.2162735096237
  0
LINE
  8
_0-0_躯体
  6
CONTINUOUS
 62
    2
 10
509.78372649038926
 20
300.40000000001163
 11
504.78372649038926
 21
295.40000000001163
  0
LINE
  8
_0-0_躯体
  6
CONTINUOUS
 62
    2
 10
531.60000000000184
 20
325.0447006343706
 11
521.60000000000139
 21
315.04470063436992
  0
LINE
  8
_0-0_躯体
  6
CONTINUOUS
 62
    2
 10
506.95529936564304
 20
300.40000000001163
 11
501.95529936564304
 21
295.40000000001163
  0
LINE
  8
_0-0_躯体
  6
CONTINUOUS
 62
    2
 10
531.60000000000184
 20
327.87312775911681
 11
521.60000000000139
 21
317.87312775911613
  0
LINE
  8
_0-0_躯体
  6
CONTINUOUS
 62
    2
 10
504.12687224089683
 20
300.40000000001163
 11
499.12687224089683
 21
295.40000000001163
  0
LINE
  8
_0-0_躯体
  6
CONTINUOUS
 62
    2
 10
501.29844511615062
 20
300.40000000001163
 11
496.29844511615062
 21
295.40000000001163
  0
LINE
  8
_0-0_躯体
  6
CONTINUOUS
 62
    2
 10
498.4700179914044
 20
300.40000000001163
 11
493.4700179914044
 21
295.40000000001163
  0
LINE
  8
_0-0_躯体
  6
CONTINUOUS
 62
    2
 10
495.64159086665819
 20
300.40000000001163
 11
490.64159086665819
 21
295.40000000001163
  0
LINE
  8
_0-0_躯体
  6
CONTINUOUS
 62
    2
 10
492.81316374191198
 20
300.40000000001163
 11
487.81316374191198
 21
295.40000000001163
  0
LINE
  8
_0-0_躯体
  6
CONTINUOUS
 62
    2
 10
489.98473661716577
 20
300.40000000001163
 11
484.98473661716577
 21
295.40000000001163
  0
LINE
  8
_0-0_躯体
  6
CONTINUOUS
 62
    2
 10
487.15630949241955
 20
300.40000000001163
 11
482.15630949241955
 21
295.40000000001163
  0
LINE
  8
_0-0_躯体
  6
CONTINUOUS
 62
    2
 10
484.32788236767334
 20
300.40000000001163
 11
479.32788236767334
 21
295.40000000001163
  0
LINE
  8
_0-0_躯体
  6
CONTINUOUS
 62
    2
 10
481.49945524292713
 20
300.40000000001163
 11
476.49945524292713
 21
295.40000000001163
  0
LINE
  8
_0-0_躯体
  6
CONTINUOUS
 62
    2
 10
478.67102811818091
 20
300.40000000001163
 11
473.67102811818091
 21
295.40000000001163
  0
LINE
  8
_0-0_躯体
  6
CONTINUOUS
 62
    2
 10
475.8426009934347
 20
300.40000000001163
 11
470.8426009934347
 21
295.40000000001163
  0
LINE
  8
_0-0_躯体
  6
CONTINUOUS
 62
    2
 10
473.01417386868849
 20
300.40000000001163
 11
468.01417386868894
 21
295.40000000001163
  0
LINE
  8
_0-0_躯体
  6
CONTINUOUS
 62
    2
 10
470.18574674394227
 20
300.40000000001163
 11
465.18574674394227
 21
295.40000000001163
  0
LINE
  8
_0-0_躯体
  6
CONTINUOUS
 62
    2
 10
467.35731961919606
 20
300.40000000001163
 11
462.35731961919652
 21
295.40000000001163
  0
LINE
  8
_0-0_躯体
  6
CONTINUOUS
 62
    2
 10
464.52889249444985
 20
300.40000000001163
 11
459.5288924944503
 21
295.40000000001163
  0
LINE
  8
_0-0_躯体
  6
CONTINUOUS
 62
    2
 10
461.70046536970409
 20
300.40000000001163
 11
456.70046536970409
 21
295.40000000001163
  0
LINE
  8
_0-0_躯体
  6
CONTINUOUS
 62
    2
 10
458.87203824495788
 20
300.40000000001163
 11
453.87203824495788
 21
295.40000000001163
  0
LINE
  8
_0-0_躯体
  6
CONTINUOUS
 62
    2
 10
456.04361112021166
 20
300.40000000001163
 11
451.04361112021166
 21
295.40000000001163
  0
LINE
  8
_0-0_躯体
  6
CONTINUOUS
 62
    2
 10
453.21518399546545
 20
300.40000000001163
 11
448.21518399546545
 21
295.40000000001163
  0
LINE
  8
_0-0_躯体
  6
CONTINUOUS
 62
    2
 10
450.38675687071924
 20
300.40000000001163
 11
445.38675687071924
 21
295.40000000001163
  0
LINE
  8
_0-0_躯体
  6
CONTINUOUS
 62
    2
 10
447.55832974597303
 20
300.40000000001163
 11
442.5583297459728
 21
295.40000000001163
  0
LINE
  8
_0-0_躯体
  6
CONTINUOUS
 62
    2
 10
444.72990262122681
 20
300.40000000001163
 11
439.72990262122681
 21
295.40000000001163
  0
LINE
  8
_0-0_躯体
  6
CONTINUOUS
 62
    2
 10
441.90147549648037
 20
300.40000000001163
 11
436.90147549648037
 21
295.40000000001163
  0
LINE
  8
_0-0_躯体
  6
CONTINUOUS
 62
    2
 10
439.07304837173416
 20
300.40000000001163
 11
434.07304837173439
 21
295.40000000001163
  0
LINE
  8
_0-0_躯体
  6
CONTINUOUS
 62
    2
 10
436.24462124698795
 20
300.40000000001163
 11
431.24462124698817
 21
295.40000000001163
  0
LINE
  8
_0-0_躯体
  6
CONTINUOUS
 62
    2
 10
433.41619412224196
 20
300.40000000001163
 11
428.41619412224196
 21
295.40000000001163
  0
LINE
  8
_0-0_躯体
  6
CONTINUOUS
 62
    2
 10
430.58776699749575
 20
300.40000000001163
 11
425.58776699749575
 21
295.40000000001163
  0
LINE
  8
_0-0_躯体
  6
CONTINUOUS
 62
    2
 10
427.75933987274954
 20
300.40000000001163
 11
422.75933987274954
 21
295.40000000001163
  0
LINE
  8
_0-0_躯体
  6
CONTINUOUS
 62
    2
 10
424.93091274800332
 20
300.40000000001163
 11
419.93091274800332
 21
295.40000000001163
  0
LINE
  8
_0-0_躯体
  6
CONTINUOUS
 62
    2
 10
422.10248562325711
 20
300.40000000001163
 11
417.10248562325711
 21
295.40000000001163
  0
LINE
  8
_0-0_躯体
  6
CONTINUOUS
 62
    2
 10
419.2740584985109
 20
300.40000000001163
 11
414.2740584985109
 21
295.40000000001163
  0
LINE
  8
_0-0_躯体
  6
CONTINUOUS
 62
    2
 10
416.44563137376468
 20
300.40000000001163
 11
411.44563137376468
 21
295.40000000001163
  0
LINE
  8
_0-0_躯体
  6
CONTINUOUS
 62
    2
 10
413.61720424901847
 20
300.40000000001163
 11
408.6172042490187
 21
295.40000000001163
  0
LINE
  8
_0-0_躯体
  6
CONTINUOUS
 62
    2
 10
410.78877712427203
 20
300.40000000001163
 11
405.78877712427226
 21
295.40000000001163
  0
LINE
  8
_0-0_躯体
  6
CONTINUOUS
 62
    2
 10
407.96034999952627
 20
300.40000000001163
 11
402.96034999952627
 21
295.40000000001163
  0
LINE
  8
_0-0_躯体
  6
CONTINUOUS
 62
    2
 10
405.13192287477983
 20
300.40000000001163
 11
400.13192287477983
 21
295.40000000001163
  0
LINE
  8
_0-0_躯体
  6
CONTINUOUS
 62
    2
 10
402.30349575003385
 20
300.40000000001163
 11
397.30349575003385
 21
295.40000000001163
  0
LINE
  8
_0-0_躯体
  6
CONTINUOUS
 62
    2
 10
399.47506862528763
 20
300.40000000001163
 11
394.47506862528763
 21
295.40000000001163
  0
LINE
  8
_0-0_躯体
  6
CONTINUOUS
 62
    2
 10
396.64664150054142
 20
300.40000000001163
 11
391.64664150054142
 21
295.40000000001163
  0
LINE
  8
_0-0_躯体
  6
CONTINUOUS
 62
    2
 10
393.81821437579521
 20
300.40000000001163
 11
388.81821437579521
 21
295.40000000001163
  0
LINE
  8
_0-0_躯体
  6
CONTINUOUS
 62
    2
 10
390.98978725104899
 20
300.40000000001163
 11
385.98978725104922
 21
295.40000000001163
  0
LINE
  8
_0-0_躯体
  6
CONTINUOUS
 62
    2
 10
388.16136012630278
 20
300.40000000001163
 11
383.16136012630278
 21
295.40000000001163
  0
LINE
  8
_0-0_躯体
  6
CONTINUOUS
 62
    2
 10
385.33293300155657
 20
300.40000000001163
 11
380.3329330015568
 21
295.40000000001163
  0
LINE
  8
_0-0_躯体
  6
CONTINUOUS
 62
    2
 10
382.50450587681036
 20
300.40000000001163
 11
377.50450587681036
 21
295.40000000001163
  0
LINE
  8
_0-0_躯体
  6
CONTINUOUS
 62
    2
 10
379.67607875206414
 20
300.40000000001163
 11
374.67607875206437
 21
295.40000000001163
  0
LINE
  8
_0-0_躯体
  6
CONTINUOUS
 62
    2
 10
376.84765162731793
 20
300.40000000001163
 11
371.84765162731816
 21
295.40000000001163
  0
LINE
  8
_0-0_躯体
  6
CONTINUOUS
 62
    2
 10
374.01922450257172
 20
300.40000000001163
 11
369.01922450257194
 21
295.40000000001163
  0
LINE
  8
_0-0_躯体
  6
CONTINUOUS
 62
    2
 10
371.1907973778255
 20
300.40000000001163
 11
366.19079737782573
 21
295.40000000001163
  0
LINE
  8
_0-0_躯体
  6
CONTINUOUS
 62
    2
 10
368.36237025307929
 20
300.40000000001163
 11
363.36237025307952
 21
295.40000000001163
  0
LINE
  8
_0-0_躯体
  6
CONTINUOUS
 62
    2
 10
365.53394312833308
 20
300.40000000001163
 11
360.53394312833331
 21
295.40000000001163
  0
LINE
  8
_0-0_躯体
  6
CONTINUOUS
 62
    2
 10
362.70551600358687
 20
300.40000000001163
 11
357.70551600358709
 21
295.40000000001163
  0
LINE
  8
_0-0_躯体
  6
CONTINUOUS
 62
    2
 10
359.87708887884088
 20
300.40000000001163
 11
354.87708887884088
 21
295.40000000001163
  0
LINE
  8
_0-0_躯体
  6
CONTINUOUS
 62
    2
 10
357.04866175409444
 20
300.40000000001163
 11
352.04866175409467
 21
295.40000000001163
  0
LINE
  8
_0-0_躯体
  6
CONTINUOUS
 62
    2
 10
354.22023462934845
 20
300.40000000001163
 11
349.60000000000156
 21
295.77976537066473
  0
LINE
  8
_0-0_躯体
  6
CONTINUOUS
 62
    2
 10
351.39180750460224
 20
300.40000000001163
 11
349.60000000000156
 21
298.60819249541095
  0
LINE
  8
_0-0_躯体
  6
CONTINUOUS
 62
    2
 10
521.60000000000139
 20
331.00000000001171
 11
561.60000000000093
 21
331.00000000001171
  0
LINE
  8
_0-0_躯体
  6
CONTINUOUS
 62
    2
 10
531.60000000000184
 20
331.00000000001171
 11
531.60000000000184
 21
295.40000000001163
  0
LINE
  8
_0-0_躯体
  6
CONTINUOUS
 62
    2
 10
521.60000000000139
 20
331.00000000001171
 11
521.60000000000139
 21
300.40000000001163
  0
LINE
  8
_0-0_躯体
  6
CONTINUOUS
 62
    2
 10
529.07001799140482
 20
331.00000000001171
 11
521.60000000000139
 21
323.52998200860833
  0
LINE
  8
_0-0_躯体
  6
CONTINUOUS
 62
    2
 10
526.24159086665793
 20
331.00000000001171
 11
521.60000000000139
 21
326.35840913335477
  0
LINE
  8
_0-0_躯体
  6
CONTINUOUS
 62
    2
 10
523.4131637419124
 20
331.00000000001171
 11
521.60000000000139
 21
329.18683625810075
  0
LINE
  8
_0-0_躯体
  6
CONTINUOUS
 62
    2
 10
531.60000000000184
 20
330.70155488386297
 11
521.60000000000139
 21
320.70155488386234
  0
LINE
  8
_0-1_耐火帯
  6
CONTINUOUS
 62
    4
 10
209.20000000000172
 20
240.90000000001106
 11
211.20000000000172
 21
240.90000000001106
  0
ARC
  8
_0-1_耐火帯
  6
CONTINUOUS
 62
    4
 10
211.20000000000172
 20
241.90000000001106
 40
1
 50
270
 51
0
  0
LINE
  8
_0-1_耐火帯
  6
CONTINUOUS
 62
    4
 10
212.20000000000172
 20
241.90000000001106
 11
212.20000000000172
 21
244.90000000001106
  0
ARC
  8
_0-1_耐火帯
  6
CONTINUOUS
 62
    4
 10
211.20000000000172
 20
244.90000000001106
 40
1
 50
0
 51
90
  0
LINE
  8
_0-1_耐火帯
  6
CONTINUOUS
 62
    4
 10
211.20000000000172
 20
245.90000000001106
 11
209.20000000000172
 21
245.90000000001106
  0
ARC
  8
_0-1_耐火帯
  6
CONTINUOUS
 62
    4
 10
201.10000000000181
 20
245.40000000001106
 40
1
 50
90
 51
180
  0
LINE
  8
_0-1_耐火帯
  6
CONTINUOUS
 62
    4
 10
200.10000000000181
 20
245.40000000001106
 11
200.10000000000181
 21
241.40000000001106
  0
ARC
  8
_0-1_耐火帯
  6
CONTINUOUS
 62
    4
 10
201.10000000000181
 20
241.40000000001106
 40
1
 50
180
 51
270
  0
LINE
  8
_0-1_耐火帯
  6
CONTINUOUS
 62
    4
 10
199.60000000000181
 20
229.17500000001115
 11
202.70000000000172
 21
232.27500000001106
  0
ARC
  8
_0-1_耐火帯
  6
CONTINUOUS
 62
    4
 10
202.60000000000181
 20
257.48908400001125
 40
3
 50
180
 51
239.19386900000043
  0
LINE
  8
_0-1_耐火帯
  6
CONTINUOUS
 62
    4
 10
201.06359600000187
 20
254.91237000001121
 11
202.70000000000172
 21
253.93663800001133
  0
LINE
  8
_0-1_耐火帯
  6
CONTINUOUS
 62
    4
 10
202.70000000000172
 20
253.93663800001133
 11
202.70000000000172
 21
232.27500000001106
  0
ARC
  8
_0-1_耐火帯
  6
CONTINUOUS
 62
    4
 10
202.60000000000181
 20
259.52538022291134
 40
3
 50
105.12400700000369
 51
180
  0
LINE
  8
_0-1_耐火帯
  6
CONTINUOUS
 62
    4
 10
205.43783783780154
 20
263.40000000001129
 11
201.81727200000168
 21
262.4214702229113
  0
LINE
  8
_0-1_耐火帯
  6
CONTINUOUS
 62
    4
 10
199.60000000000181
 20
259.52538022291134
 11
199.60000000000181
 21
257.48908400001125
  0
LINE
  8
_0-1_耐火帯
  6
CONTINUOUS
 62
    4
 10
205.43783783780154
 20
263.40000000001129
 11
207.60000000000181
 21
253.40000000001129
  0
LINE
  8
_0-1_耐火帯
  6
CONTINUOUS
 62
    4
 10
207.60000000000181
 20
253.40000000001129
 11
207.60000000000181
 21
233.40000000001106
  0
LINE
  8
_0-1_耐火帯
  6
CONTINUOUS
 62
    4
 10
209.20000000000172
 20
233.40000000001106
 11
207.60000000000181
 21
233.40000000001106
  0
LINE
  8
_0-1_耐火帯
  6
CONTINUOUS
 62
    4
 10
209.20000000000172
 20
233.40000000001106
 11
212.10000000000181
 21
230.50000000001097
  0
LINE
  8
_0-1_耐火帯
  6
CONTINUOUS
 62
    4
 10
209.20000000000172
 20
253.40000000001129
 11
209.20000000000172
 21
233.40000000001106
  0
LINE
  8
_0-1_耐火帯
  6
CONTINUOUS
 62
    4
 10
207.60000000000181
 20
253.40000000001129
 11
207.60000000000181
 21
233.40000000001106
  0
LINE
  8
_0-1_耐火帯
  6
CONTINUOUS
 62
    4
 10
209.20000000000172
 20
233.40000000001106
 11
207.60000000000181
 21
233.40000000001106
  0
LINE
  8
_0-1_耐火帯
  6
CONTINUOUS
 62
    4
 10
202.70000000000172
 20
233.40000000001106
 11
201.10000000000181
 21
233.40000000001106
  0
LINE
  8
_0-1_耐火帯
  6
CONTINUOUS
 62
    4
 10
201.10000000000181
 20
253.40000000001129
 11
202.70000000000172
 21
253.40000000001129
  0
LINE
  8
_0-1_耐火帯
  6
CONTINUOUS
 62
    4
 10
201.10000000000181
 20
233.40000000001106
 11
201.10000000000181
 21
253.40000000001129
  0
LINE
  8
_0-1_耐火帯
  6
CONTINUOUS
 62
    4
 10
202.70000000000172
 20
233.40000000001106
 11
202.70000000000172
 21
253.40000000001129
  0
LINE
  8
_0-1_耐火帯
  6
CONTINUOUS
 62
    4
 10
209.20000000000172
 20
233.40000000001106
 11
207.60000000000181
 21
233.40000000001106
  0
LINE
  8
_0-1_耐火帯
  6
CONTINUOUS
 62
    4
 10
199.60000000000159
 20
300.40000000001163
 11
207.60000000000159
 21
253.40000000001152
  0
LINE
  8
_0-1_耐火帯
  6
CONTINUOUS
 62
    4
 10
209.20000000000172
 20
233.40000000001152
 11
207.60000000000159
 21
233.40000000001152
  0
LINE
  8
_0-1_耐火帯
  6
CONTINUOUS
 62
    4
 10
199.60000000000159
 20
300.40000000001163
 11
201.20000000000172
 21
291.00000000001177
  0
LINE
  8
_0-1_耐火帯
  6
CONTINUOUS
 62
    4
 10
200.95067199197555
 20
302.00000000001199
 11
209.20000000000149
 21
253.53519795286053
  0
LINE
  8
_0-1_耐火帯
  6
CONTINUOUS
 62
    4
 10
199.60000000000136
 20
300.40000000001174
 11
207.60000000000136
 21
253.40000000001197
  0
LINE
  8
_0-1_耐火帯
  6
CONTINUOUS
 62
    4
 10
207.60000000000136
 20
253.40000000001197
 11
207.60000000000136
 21
233.40000000001152
  0
LINE
  8
_0-1_耐火帯
  6
CONTINUOUS
 62
    4
 10
209.20000000000149
 20
253.53519795286053
 11
209.20000000000149
 21
233.40000000001152
  0
LINE
  8
_0-1_耐火帯
  6
CONTINUOUS
 62
    4
 10
209.20000000000149
 20
233.40000000001152
 11
207.60000000000136
 21
233.40000000001152
  0
LINE
  8
_0-1_耐火帯
  6
CONTINUOUS
 62
    4
 10
141.60000000000139
 20
300.40000000001174
 11
199.60000000000136
 21
300.40000000001174
  0
LINE
  8
_0-1_耐火帯
  6
CONTINUOUS
 62
    4
 10
141.60000000000139
 20
302.00000000001177
 11
141.60000000000139
 21
300.40000000001174
  0
LINE
  8
_0-1_耐火帯
  6
CONTINUOUS
 62
    4
 10
340.00000000000142
 20
240.90000000001129
 11
338.00000000000142
 21
240.90000000001129
  0
ARC
  8
_0-1_耐火帯
  6
CONTINUOUS
 62
    4
 10
338.00000000000142
 20
241.90000000001129
 40
1
 50
180
 51
270
  0
LINE
  8
_0-1_耐火帯
  6
CONTINUOUS
 62
    4
 10
337.00000000000142
 20
241.90000000001129
 11
337.00000000000142
 21
244.90000000001129
  0
ARC
  8
_0-1_耐火帯
  6
CONTINUOUS
 62
    4
 10
338.00000000000142
 20
244.90000000001129
 40
1
 50
90
 51
180
  0
LINE
  8
_0-1_耐火帯
  6
CONTINUOUS
 62
    4
 10
338.00000000000142
 20
245.90000000001129
 11
340.00000000000142
 21
245.90000000001129
  0
ARC
  8
_0-1_耐火帯
  6
CONTINUOUS
 62
    4
 10
348.10000000000133
 20
245.40000000001129
 40
1
 50
0
 51
90
  0
LINE
  8
_0-1_耐火帯
  6
CONTINUOUS
 62
    4
 10
349.10000000000133
 20
245.40000000001129
 11
349.10000000000133
 21
241.40000000001129
  0
ARC
  8
_0-1_耐火帯
  6
CONTINUOUS
 62
    4
 10
348.10000000000133
 20
241.40000000001129
 40
1
 50
270
 51
0
  0
LINE
  8
_0-1_耐火帯
  6
CONTINUOUS
 62
    4
 10
349.60000000000133
 20
229.17500000001138
 11
346.50000000000142
 21
232.27500000001129
  0
ARC
  8
_0-1_耐火帯
  6
CONTINUOUS
 62
    4
 10
346.60000000000133
 20
257.48908400001125
 40
3
 50
300.80613099999954
 51
0
  0
LINE
  8
_0-1_耐火帯
  6
CONTINUOUS
 62
    4
 10
348.13640400000128
 20
254.91237000001121
 11
346.50000000000142
 21
253.93663800001133
  0
LINE
  8
_0-1_耐火帯
  6
CONTINUOUS
 62
    4
 10
346.50000000000142
 20
253.93663800001133
 11
346.50000000000142
 21
232.27500000001129
  0
ARC
  8
_0-1_耐火帯
  6
CONTINUOUS
 62
    4
 10
346.60000000000133
 20
259.52538022291134
 40
3
 50
0
 51
74.875992999996313
  0
LINE
  8
_0-1_耐火帯
  6
CONTINUOUS
 62
    4
 10
343.76216216220161
 20
263.40000000001129
 11
347.38272800000146
 21
262.4214702229113
  0
LINE
  8
_0-1_耐火帯
  6
CONTINUOUS
 62
    4
 10
349.60000000000133
 20
259.52538022291134
 11
349.60000000000133
 21
257.48908400001125
  0
LINE
  8
_0-1_耐火帯
  6
CONTINUOUS
 62
    4
 10
343.76216216220161
 20
263.40000000001129
 11
341.60000000000133
 21
253.40000000001129
  0
LINE
  8
_0-1_耐火帯
  6
CONTINUOUS
 62
    4
 10
341.60000000000133
 20
253.40000000001129
 11
341.60000000000133
 21
233.40000000001129
  0
LINE
  8
_0-1_耐火帯
  6
CONTINUOUS
 62
    4
 10
340.00000000000142
 20
233.40000000001129
 11
341.60000000000133
 21
233.40000000001129
  0
LINE
  8
_0-1_耐火帯
  6
CONTINUOUS
 62
    4
 10
340.00000000000142
 20
233.40000000001129
 11
337.10000000000133
 21
230.5000000000112
  0
LINE
  8
_0-1_耐火帯
  6
CONTINUOUS
 62
    4
 10
340.00000000000142
 20
233.40000000001129
 11
340.00000000000142
 21
253.57099600001135
  0
LINE
  8
_0-1_耐火帯
  6
CONTINUOUS
 62
    4
 10
340.00000000000142
 20
233.40000000001129
 11
341.60000000000133
 21
233.40000000001129
  0
LINE
  8
_0-1_耐火帯
  6
CONTINUOUS
 62
    4
 10
341.60000000000133
 20
233.40000000001129
 11
341.60000000000133
 21
253.40000000001129
  0
LINE
  8
_0-1_耐火帯
  6
CONTINUOUS
 62
    4
 10
346.50000000000142
 20
233.40000000001129
 11
348.10000000000133
 21
233.40000000001129
  0
LINE
  8
_0-1_耐火帯
  6
CONTINUOUS
 62
    4
 10
348.10000000000133
 20
253.40000000001129
 11
346.50000000000142
 21
253.40000000001129
  0
LINE
  8
_0-1_耐火帯
  6
CONTINUOUS
 62
    4
 10
348.10000000000133
 20
233.40000000001129
 11
348.10000000000133
 21
253.40000000001129
  0
LINE
  8
_0-1_耐火帯
  6
CONTINUOUS
 62
    4
 10
346.50000000000142
 20
233.40000000001129
 11
346.50000000000142
 21
253.40000000001129
  0
LINE
  8
_0-1_耐火帯
  6
CONTINUOUS
 62
    4
 10
340.00000000000142
 20
233.40000000001129
 11
340.00000000000142
 21
253.57099600001135
  0
LINE
  8
_0-1_耐火帯
  6
CONTINUOUS
 62
    4
 10
341.60000000000133
 20
233.40000000001129
 11
341.60000000000133
 21
253.40000000001129
  0
LINE
  8
_0-1_耐火帯
  6
CONTINUOUS
 62
    4
 10
340.00000000000142
 20
233.40000000001129
 11
341.60000000000133
 21
233.40000000001129
  0
LINE
  8
_0-1_耐火帯
  6
CONTINUOUS
 62
    4
 10
340.00000000000142
 20
233.40000000001129
 11
340.00000000000142
 21
253.57099600001112
  0
LINE
  8
_0-1_耐火帯
  6
CONTINUOUS
 62
    4
 10
340.00000000000142
 20
233.40000000001129
 11
341.60000000000133
 21
233.40000000001129
  0
LINE
  8
_0-1_耐火帯
  6
CONTINUOUS
 62
    4
 10
341.60000000000133
 20
233.40000000001129
 11
341.60000000000133
 21
253.40000000001129
  0
LINE
  8
_0-1_耐火帯
  6
CONTINUOUS
 62
    4
 10
341.60000000000156
 20
253.40000000001152
 11
341.60000000000156
 21
233.40000000001106
  0
LINE
  8
_0-1_耐火帯
  6
CONTINUOUS
 62
    4
 10
340.00000000000142
 20
253.53519795286007
 11
340.00000000000142
 21
233.40000000001106
  0
LINE
  8
_0-1_耐火帯
  6
CONTINUOUS
 62
    4
 10
340.00000000000142
 20
233.40000000001106
 11
341.60000000000156
 21
233.40000000001106
  0
LINE
  8
_0-1_耐火帯
  6
CONTINUOUS
 62
    4
 10
340.00000000000119
 20
233.40000000001106
 11
341.6000000000011
 21
233.40000000001106
  0
LINE
  8
_0-1_耐火帯
  6
CONTINUOUS
 62
    4
 10
449.60000000000156
 20
302.0000000000112
 11
348.24932800802713
 21
302.0000000000112
  0
LINE
  8
_0-1_耐火帯
  6
CONTINUOUS
 62
    4
 10
449.60000000000156
 20
302.0000000000112
 11
348.24932800802713
 21
302.0000000000112
  0
LINE
  8
_0-1_耐火帯
  6
CONTINUOUS
 62
    4
 10
348.24932800802759
 20
302.00000000001143
 11
340.00000000000142
 21
253.53519795286053
  0
LINE
  8
_0-1_耐火帯
  6
CONTINUOUS
 62
    4
 10
349.60000000000156
 20
300.40000000001163
 11
341.60000000000156
 21
253.40000000001152
  0
LINE
  8
_0-1_耐火帯
  6
CONTINUOUS
 62
    4
 10
341.60000000000156
 20
253.40000000001152
 11
341.60000000000156
 21
233.40000000001106
  0
LINE
  8
_0-1_耐火帯
  6
CONTINUOUS
 62
    4
 10
340.00000000000142
 20
253.53519795286053
 11
340.00000000000142
 21
233.40000000001106
  0
LINE
  8
_0-1_耐火帯
  6
CONTINUOUS
 62
    4
 10
340.00000000000142
 20
233.40000000001106
 11
341.60000000000156
 21
233.40000000001106
  0
LINE
  8
_0-1_耐火帯
  6
CONTINUOUS
 62
    4
 10
517.60000000000139
 20
302.0000000000112
 11
517.60000000000139
 21
300.40000000001152
  0
LINE
  8
_0-1_耐火帯
  6
CONTINUOUS
 62
    4
 10
517.60000000000161
 20
302.0000000000112
 11
348.37502600000136
 21
302.0000000000112
  0
LINE
  8
_0-1_耐火帯
  6
CONTINUOUS
 62
    4
 10
517.60000000000161
 20
300.40000000001163
 11
349.60000000000156
 21
300.40000000001163
  0
LINE
  8
_0-1_耐火帯
  6
DASHED1
 62
    4
 10
160.50000000000125
 20
302.00000000001177
 11
162.10000000000139
 21
300.40000000001174
  0
LINE
  8
_0-1_耐火帯
  6
DASHED1
 62
    4
 10
167.10000000000136
 20
300.40000000001174
 11
168.70000000000127
 21
302.00000000001177
  0
LINE
  8
_0-1_耐火帯
  6
DASHED1
 62
    4
 10
177.60000000000136
 20
302.00000000001177
 11
177.60000000000136
 21
300.40000000001174
  0
LINE
  8
_0-1_耐火帯
  6
DASHED1
 62
    4
 10
160.50000000000125
 20
302.00000000001177
 11
162.10000000000139
 21
300.40000000001174
  0
LINE
  8
_0-1_耐火帯
  6
DASHED1
 62
    4
 10
167.10000000000136
 20
300.40000000001174
 11
168.70000000000149
 21
302.00000000001177
  0
LINE
  8
_0-1_耐火帯
  6
DASHED1
 62
    4
 10
177.60000000000136
 20
302.00000000001177
 11
177.60000000000136
 21
300.40000000001174
  0
LINE
  8
_0-1_耐火帯
  6
DASHED1
 62
    4
 10
151.60000000000161
 20
302.00000000001177
 11
151.60000000000161
 21
300.40000000001174
  0
LINE
  8
_0-1_耐火帯
  6
DASHED1
 62
    4
 10
388.70000000000147
 20
302.0000000000112
 11
387.10000000000178
 21
300.40000000001163
  0
LINE
  8
_0-1_耐火帯
  6
DASHED1
 62
    4
 10
382.10000000000178
 20
300.40000000001163
 11
380.50000000000142
 21
302.0000000000112
  0
LINE
  8
_0-1_耐火帯
  6
DASHED1
 62
    4
 10
397.60000000000156
 20
302.0000000000112
 11
397.60000000000156
 21
300.40000000001163
  0
LINE
  8
_0-1_耐火帯
  6
DASHED1
 62
    4
 10
371.60000000000156
 20
302.0000000000112
 11
371.60000000000156
 21
300.40000000001163
  0
LINE
  8
_0-1_耐火帯
  6
DASHED1
 62
    4
 10
493.70000000000124
 20
302.0000000000112
 11
492.10000000000156
 21
300.40000000001163
  0
LINE
  8
_0-1_耐火帯
  6
DASHED1
 62
    4
 10
502.60000000000156
 20
302.0000000000112
 11
502.60000000000156
 21
300.40000000001163
  0
LINE
  8
_0-1_耐火帯
  6
DASHED1
 62
    4
 10
476.60000000000156
 20
302.0000000000112
 11
476.60000000000156
 21
300.40000000001163
  0
LINE
  8
_0-1_耐火帯
  6
DASHED1
 62
    4
 10
487.10000000000156
 20
300.40000000001163
 11
485.50000000000142
 21
302.0000000000112
  0
LINE
  8
_0-1_耐火帯
  6
CONTINUOUS
 62
    4
 10
199.60000000000181
 20
192.1750000000111
 11
199.60000000000181
 21
229.17500000001115
  0
LINE
  8
_0-1_耐火帯
  6
CONTINUOUS
 62
    4
 10
212.10000000000181
 20
192.1750000000111
 11
212.10000000000181
 21
230.50000000001097
  0
LINE
  8
_0-1_耐火帯
  6
CONTINUOUS
 62
    4
 10
337.10000000000133
 20
192.1750000000111
 11
337.10000000000133
 21
230.5000000000112
  0
ARC
  8
_0-1_耐火帯
  6
CONTINUOUS
 62
    4
 10
274.60000000000156
 20
192.1750000000111
 40
62.499999999999886
 50
180
 51
0
  0
LINE
  8
_0-1_耐火帯
  6
CONTINUOUS
 62
    4
 10
349.60000000000133
 20
192.1750000000111
 11
349.60000000000133
 21
229.17500000001138
  0
ARC
  8
_0-1_耐火帯
  6
CONTINUOUS
 62
    4
 10
274.60000000000156
 20
192.1750000000111
 40
74.999999999999886
 50
180
 51
0
  0
LINE
  8
_0-1_耐火帯
  6
CONTINUOUS
 62
    4
 10
141.60000000000139
 20
302.00000000001177
 11
200.95067199197555
 21
302.00000000001177
  0
LINE
  8
_0-1_耐火帯
  6
CONTINUOUS
 62
    4
 10
200.95067199197555
 20
302.00000000001177
 11
209.20000000000172
 21
253.53519795286007
  0
LINE
  8
_0-f_寸法
  6
CONTINUOUS
 62
    4
 10
221.20000000000081
 20
303.0000000000116
 11
221.20000000000081
 21
276.0000000000116
  0
LINE
  8
_0-f_寸法
  6
CONTINUOUS
 62
    4
 10
199.60000000000045
 20
296.0000000000116
 11
199.60000000000045
 21
276.0000000000116
  0
POINT
  8
_0-f_寸法
 62
    4
 10
199.60000000000045
 20
277.0000000000116
  0
POINT
  8
_0-f_寸法
 62
    4
 10
221.20000000000081
 20
277.0000000000116
  0
LINE
  8
_0-f_寸法
  6
CONTINUOUS
 62
    4
 10
199.60000000000045
 20
277.0000000000116
 11
221.20000000000081
 21
277.0000000000116
  0
TEXT
  8
_0-f_寸法
 62
    4
 10
203.20000000000064
 20
277.0000000000116
 40
9
 41
0.8
 50
0
  1
21.6
  0
LINE
  8
_f-0_
  6
CONTINUOUS
 62
    6
 10
220.00000000000009
 20
554.00000000000011
 11
220.00000000000009
 21
534.00000000000023
  0
LINE
  8
_f-0_
  6
CONTINUOUS
 62
    6
 10
220.00000000000009
 20
534.00000000000023
 11
19.999999999999943
 21
534.00000000000023
  0
TEXT
  8
_f-0_
 62
    4
 10
47.399999999999977
 20
536.00000000000011
 40
16
 41
1
 50
0
  1
150TTK-A　耐火仕様
  0
INSERT
  2
-000-
  8
_0-9_小物
 10
420.5
 20
297
 41
1
 42
1
 50
0
  0
LINE
  8
_0-9_小物
  6
CONTINUOUS
 62
    3
 10
162.09999999999911
 20
259.49999331353456
 11
164.59999999999908
 21
257.0000000000116
  0
LINE
  8
_0-9_小物
  6
CONTINUOUS
 62
    3
 10
164.59999999999908
 20
257.0000000000116
 11
167.09999999999908
 21
259.21811811554176
  0
LINE
  8
_0-9_小物
  6
CONTINUOUS
 62
    3
 10
162.09999999999911
 20
259.49999331353456
 11
162.09999999999911
 21
261.46226865074618
  0
LINE
  8
_0-9_小物
  6
CONTINUOUS
 62
    3
 10
167.09999999999908
 20
259.21811811554176
 11
167.09999999999908
 21
261.46226865074624
  0
INSERT
  2
-001-_1_
  8
_0-9_小物
 10
420.5
 20
297
 41
1
 42
1
 50
0
  0
LINE
  8
_0-9_小物
  6
CONTINUOUS
 62
    3
 10
382.10000000000042
 20
260.49999331353456
 11
384.60000000000042
 21
258.0000000000116
  0
LINE
  8
_0-9_小物
  6
CONTINUOUS
 62
    3
 10
384.60000000000042
 20
258.0000000000116
 11
387.10000000000042
 21
260.21811811554176
  0
LINE
  8
_0-9_小物
  6
CONTINUOUS
 62
    3
 10
382.10000000000042
 20
260.49999331353456
 11
382.10000000000042
 21
261.46226865074595
  0
LINE
  8
_0-9_小物
  6
CONTINUOUS
 62
    3
 10
387.10000000000042
 20
260.21811811554176
 11
387.10000000000042
 21
261.4622686507459
  0
INSERT
  2
-002-_2_
  8
_0-9_小物
 10
420.5
 20
297
 41
1
 42
1
 50
0
  0
LINE
  8
_0-9_小物
  6
CONTINUOUS
 62
    3
 10
487.09999999999883
 20
259.49999331353433
 11
489.59999999999883
 21
257.00000000001137
  0
LINE
  8
_0-9_小物
  6
CONTINUOUS
 62
    3
 10
489.59999999999883
 20
257.00000000001137
 11
492.09999999999883
 21
259.21811811554153
  0
LINE
  8
_0-9_小物
  6
CONTINUOUS
 62
    3
 10
487.09999999999883
 20
259.49999331353433
 11
487.09999999999883
 21
261.46226865074578
  0
LINE
  8
_0-9_小物
  6
CONTINUOUS
 62
    3
 10
492.09999999999883
 20
259.21811811554153
 11
492.09999999999883
 21
261.46226865074567
  0
CIRCLE
  8
_0-e_付箋
  6
CONTINUOUS
 62
    4
 10
403.27309539819117
 20
240.23684899608423
 40
4.8827102566353844
  0
TEXT
  8
_0-e_付箋
 62
    4
 10
400.27309539819117
 20
237.23684899608423
 40
6
 41
1
 50
0
  1
９
  0
LINE
  8
_0-e_付箋
  6
CONTINUOUS
 62
    4
 10
390.06061000000074
 20
264.62154500001134
 11
401.51023183988269
 21
244.79021824588602
  0
LINE
  8
_0-0_躯体
  6
CONTINUOUS
 62
    2
 10
199.60000000000045
 20
300.40000000001163
 11
199.60000000000045
 21
115.40000000000009
  0
LINE
  8
_0-0_躯体
  6
CENTER1
 62
    2
 10
274.60000000000042
 20
300.40000000001118
 11
274.60000000000042
 21
115.40000000000009
  0
LINE
  8
_0-0_躯体
  6
CONTINUOUS
 62
    2
 10
349.60000000000156
 20
300.40000000001163
 11
349.60000000000156
 21
115.40000000000009
  0
LINE
  8
_0-f_寸法
  6
CONTINUOUS
 62
    4
 10
164.59999999999908
 20
256.0000000000116
 11
164.59999999999908
 21
94.400000000000091
  0
LINE
  8
_0-f_寸法
  6
CONTINUOUS
 62
    4
 10
199.60000000000045
 20
114.40000000000009
 11
199.60000000000045
 21
94.400000000000091
  0
POINT
  8
_0-f_寸法
 62
    4
 10
199.60000000000045
 20
95.400000000000091
  0
POINT
  8
_0-f_寸法
 62
    4
 10
164.59999999999908
 20
95.400000000000091
  0
LINE
  8
_0-f_寸法
  6
CONTINUOUS
 62
    4
 10
199.60000000000045
 20
95.400000000000091
 11
164.59999999999908
 21
95.400000000000091
  0
TEXT
  8
_0-f_寸法
 62
    4
 10
178.49999999999977
 20
95.400000000000091
 40
9
 41
0.8
 50
0
  1
35
  0
LINE
  8
_0-f_寸法
  6
CONTINUOUS
 62
    4
 10
349.60000000000156
 20
114.40000000000009
 11
349.60000000000156
 21
94.400000000000091
  0
LINE
  8
_0-f_寸法
  6
CONTINUOUS
 62
    4
 10
199.60000000000045
 20
114.40000000000009
 11
199.60000000000045
 21
94.400000000000091
  0
POINT
  8
_0-f_寸法
 62
    4
 10
199.60000000000045
 20
95.400000000000091
  0
POINT
  8
_0-f_寸法
 62
    4
 10
349.60000000000156
 20
95.400000000000091
  0
LINE
  8
_0-f_寸法
  6
CONTINUOUS
 62
    4
 10
199.60000000000045
 20
95.400000000000091
 11
349.60000000000156
 21
95.400000000000091
  0
TEXT
  8
_0-f_寸法
 62
    4
 10
269.2000000000009
 20
95.400000000000091
 40
9
 41
0.8
 50
0
  1
150
  0
LINE
  8
_0-f_寸法
  6
CONTINUOUS
 62
    4
 10
384.60000000000042
 20
257.0000000000116
 11
384.60000000000042
 21
94.400000000000091
  0
POINT
  8
_0-f_寸法
 62
    4
 10
349.60000000000156
 20
95.400000000000091
  0
POINT
  8
_0-f_寸法
 62
    4
 10
384.60000000000042
 20
95.400000000000091
  0
LINE
  8
_0-f_寸法
  6
CONTINUOUS
 62
    4
 10
349.60000000000156
 20
95.400000000000091
 11
384.60000000000042
 21
95.400000000000091
  0
TEXT
  8
_0-f_寸法
 62
    4
 10
363.50000000000085
 20
95.400000000000091
 40
9
 41
0.8
 50
0
  1
35
  0
LINE
  8
_0-f_寸法
  6
CONTINUOUS
 62
    4
 10
489.59999999999883
 20
256.00000000001137
 11
489.59999999999883
 21
94.400000000000091
  0
POINT
  8
_0-f_寸法
 62
    4
 10
384.60000000000042
 20
95.400000000000091
  0
POINT
  8
_0-f_寸法
 62
    4
 10
489.59999999999883
 20
95.400000000000091
  0
LINE
  8
_0-f_寸法
  6
CONTINUOUS
 62
    4
 10
384.60000000000042
 20
95.400000000000091
 11
489.59999999999883
 21
95.400000000000091
  0
TEXT
  8
_0-f_寸法
 62
    4
 10
431.69999999999953
 20
95.400000000000091
 40
9
 41
0.8
 50
0
  1
105
  0
TEXT
  8
_0-f_寸法
 62
    4
 10
658.07000000000016
 20
166.50000000000011
 40
8
 41
0.8662499999999999
 50
0
  1
※
  0
TEXT
  8
_0-e_付箋
 62
    4
 10
293.79095225512657
 20
108.05339113825232
 40
6
 41
1
 50
0
  1
耐火帯
  0
LINE
  8
_0-e_付箋
  6
CONTINUOUS
 62
    4
 10
293.79095225512634
 20
108.05339113825232
 11
311.79095225512657
 21
108.05339113825232
  0
LINE
  8
_0-e_付箋
  6
CONTINUOUS
 62
    4
 10
287.54095225512634
 20
118.8787086855578
 11
293.79095225512634
 21
108.05339113825232
  0
LINE
  8
_0-a_
  6
CONTINUOUS
 62
    3
 10
200.95067199197692
 20
302.0000000000116
 11
149.60000000000048
 21
302.0000000000116
  0
LINE
  8
_0-a_
  6
CONTINUOUS
 62
    3
 10
214.40782513849089
 20
251.77722073198942
 11
200.95067199197692
 21
302.0000000000116
  0
LINE
  8
_0-a_
  6
CONTINUOUS
 62
    3
 10
201.7179989799566
 20
303.0000000000116
 11
149.60000000000048
 21
303.0000000000116
  0
LINE
  8
_0-a_
  6
CONTINUOUS
 62
    3
 10
215.37375096478044
 20
252.03603977709207
 11
201.7179989799566
 21
303.0000000000116
  0
LINE
  8
_0-a_
  6
CONTINUOUS
 62
    3
 10
348.24932800802736
 20
302.0000000000116
 11
334.79217486151452
 21
251.77722073199129
  0
LINE
  8
_0-a_
  6
CONTINUOUS
 62
    3
 10
348.24932800802736
 20
302.0000000000116
 11
399.60000000000133
 21
302.0000000000116
  0
LINE
  8
_0-a_
  6
CONTINUOUS
 62
    3
 10
347.48200102004745
 20
303.0000000000116
 11
333.82624903522452
 21
252.03603977709383
  0
LINE
  8
_0-a_
  6
CONTINUOUS
 62
    3
 10
347.48200102004745
 20
303.0000000000116
 11
517.60000000000139
 21
303.0000000000116
  0
ARC
  8
_0-a_
  6
CONTINUOUS
 62
    3
 10
262.70411645294422
 20
264.71817298711591
 40
50
 50
195.00000000000051
 51
254.63714056937854
  0
ARC
  8
_0-a_
  6
CONTINUOUS
 62
    3
 10
262.70411645294422
 20
264.71817298711591
 40
49.000000000000007
 50
195.00000000000051
 51
254.63714056937866
  0
ARC
  8
_0-a_
  6
CONTINUOUS
 62
    3
 10
286.49588354705662
 20
264.71817298711591
 40
50
 50
285.36285943062148
 51
344.99999999999949
  0
ARC
  8
_0-a_
  6
CONTINUOUS
 62
    3
 10
286.49588354705662
 20
264.71817298711591
 40
49.000000000000007
 50
285.36285943062137
 51
344.99999999999949
  0
ARC
  8
_0-a_
  6
CONTINUOUS
 62
    3
 10
274.60000000000042
 20
308.01551157814959
 40
94.901799233791721
 50
254.63714056937854
 51
285.36285943062148
  0
ARC
  8
_0-a_
  6
CONTINUOUS
 62
    3
 10
274.60000000000042
 20
308.01551157814959
 40
93.901799233791706
 50
254.6371405693786
 51
285.36285943062137
  0
TEXT
  8
_0-f_寸法
 62
    4
 10
670.00000000000011
 20
166.50000000000011
 40
8
 41
0.8662499999999999
 50
0
  1
耐火帯：耐火帯TTK-23
  0
LINE
  8
_0-f_寸法
  6
CONTINUOUS
 62
    4
 10
522.60000000000139
 20
300.40000000001163
 11
582.60000000000093
 21
300.40000000001163
  0
LINE
  8
_0-f_寸法
  6
CONTINUOUS
 62
    4
 10
562.60000000000093
 20
331.00000000001171
 11
582.60000000000093
 21
331.00000000001171
  0
POINT
  8
_0-f_寸法
 62
    4
 10
581.60000000000093
 20
331.00000000001171
  0
POINT
  8
_0-f_寸法
 62
    4
 10
581.60000000000093
 20
300.40000000001163
  0
LINE
  8
_0-f_寸法
  6
CONTINUOUS
 62
    4
 10
581.60000000000093
 20
331.00000000001171
 11
581.60000000000093
 21
300.40000000001163
  0
TEXT
  8
_0-f_寸法
 62
    4
 10
581.60000000000093
 20
308.5000000000116
 40
9
 41
0.8
 50
90
  1
30.6
  0
TEXT
  8
_f-0_
 62
    4
 10
806.87200000000007
 20
594
 40
16
 41
1
 50
0
  1
A1版
  0
ENDSEC
  0
EOF
