  0
SECTION
  2
HEADER
  9
$ACADVER
  1
AC1009
  9
$INSBASE
 10
0
 20
0
 30
0
  9
$EXTMIN
 10
0
 20
0
  9
$EXTMAX
 10
841
 20
594
  9
$LIMMIN
 10
0
 20
0
  9
$LIMMAX
 10
841
 20
594
  9
$LTSCALE
 40
1
  0
ENDSEC
  0
SECTION
  2
TABLES
  0
TABLE
  2
LTYPE
 70
     9
  0
LTYPE
  2
CONTINUOUS
 70
    64
  3
実線
 72
    65
 73
     0
 40
0.0
  0
LTYPE
  2
DASHED1
 70
    64
  3
--  --  --  --  --  --  --  --  
 72
    65
 73
     2
 40
2.5
 49
1.25
 49
-1.25
  0
LTYPE
  2
DASHED2
 70
    64
  3
----    ----    ----    ----    
 72
    65
 73
     2
 40
5.0
 49
2.5
 49
-2.5
  0
LTYPE
  2
DASHED3
 70
    64
  3
------  ------  ------  ------  
 72
    65
 73
     2
 40
5.0
 49
3.75
 49
-1.25
  0
LTYPE
  2
CENTER1
 70
    64
  3
----- - ----- - ----- - ----- - 
 72
    65
 73
     4
 40
10.0
 49
6.25
 49
-1.25
 49
1.25
 49
-1.25
  0
LTYPE
  2
CENTER2
 70
    64
  3
----------  --  ----------  --  
 72
    65
 73
     4
 40
20.0
 49
12.5
 49
-2.5
 49
2.5
 49
-2.5
  0
LTYPE
  2
PHANTOM1
 70
    64
  3
--- - - --- - - --- - - --- - - 
 72
    65
 73
     6
 40
10.0
 49
3.25
 49
-1.25
 49
1.25
 49
-1.25
 49
1.25
 49
-1.25
  0
LTYPE
  2
PHANTOM2
 70
    64
  3
--------  -  -  --------  -  -  
 72
    65
 73
     6
 40
20.0
 49
10.0
 49
-2.5
 49
1.25
 49
-2.5
 49
1.25
 49
-2.5
  0
LTYPE
  2
DOT
 70
    64
  3
-   -   -   -   -   -   -   -   
 72
    65
 73
     2
 40
2.5
 49
0.625
 49
-1.875
  0
LTYPE
  2
DUMMY
 70
    64
  3
ダミー
 72
    65
 73
     0
 40
0.0
  0
LTYPE
  2
RAND1
 70
    64
  3
ランダム線1
 72
    65
 73
     4
 40
10.0
 49
1.0
 49
-2.0
 49
3.0
 49
-4.0
  0
LTYPE
  2
RAND2
 70
    64
  3
ランダム線2
 72
    65
 73
     4
 40
14.0
 49
2.0
 49
-3.0
 49
4.0
 49
-5.0
  0
LTYPE
  2
RAND3
 70
    64
  3
ランダム線3
 72
    65
 73
     4
 40
18.0
 49
3.0
 49
-4.0
 49
5.0
 49
-6.0
  0
LTYPE
  2
RAND4
 70
    64
  3
ランダム線4
 72
    65
 73
     4
 40
22.0
 49
4.0
 49
-5.0
 49
6.0
 49
-7.0
  0
LTYPE
  2
RAND5
 70
    64
  3
ランダム線5
 72
    65
 73
     4
 40
26.0
 49
5.0
 49
-6.0
 49
7.0
 49
-8.0
  0
LTYPE
  2
LONG1
 70
    64
  3
----------  --  ----------  --  
 72
    65
 73
     4
 40
40.0
 49
32.5
 49
-2.5
 49
2.5
 49
-2.5
  0
LTYPE
  2
LONG2
 70
    64
  3
--------  -  -  --------  -  -  
 72
    65
 73
     6
 40
40.0
 49
30.0
 49
-2.5
 49
1.25
 49
-2.5
 49
1.25
 49
-2.5
  0
LTYPE
  2
LONG3
 70
    64
  3
+++++++++++++++..+++++++++++++++
 72
    65
 73
     2
 40
40.0
 49
37.5
 49
-2.5
  0
LTYPE
  2
LONG4
 70
    64
  3
+++++++++++++++..+++++++++++++++
 72
    65
 73
     2
 40
80.0
 49
75.0
 49
-5.0
  0
LTYPE
  2
LONG5
 70
    64
  3
----------  --  ----------  --  
 72
    65
 73
     4
 40
60.0
 49
37.5
 49
-7.5
 49
7.5
 49
-7.5
  0
LTYPE
  2
dashed
 70
   64
  3
-------   -------------   ------
 72
   65
 73
    2
 40
7.5
 49
6
 49
-1.5
  0
LTYPE
  2
dashed_spaced
 70
   64
  3
----        --------        ----
 72
   65
 73
    2
 40
12
 49
6
 49
-6
  0
LTYPE
  2
long_dashed_dotted
 70
   64
  3
------------- --- --------------
 72
   65
 73
    4
 40
15.25
 49
12
 49
-1.5
 49
0.25
 49
-1.5
  0
LTYPE
  2
long_dashed_double-dotted
 70
   64
  3
----------- --- --- ------------
 72
   65
 73
    6
 40
17
 49
12
 49
-1.5
 49
0.25
 49
-1.5
 49
0.25
 49
-1.5
  0
LTYPE
  2
long_dashed_triplicate-dotted
 70
   64
  3
--------- --- --- --- ----------
 72
   65
 73
    8
 40
18.75
 49
12
 49
-1.5
 49
0.25
 49
-1.5
 49
0.25
 49
-1.5
 49
0.25
 49
-1.5
  0
LTYPE
  2
dotted
 70
   64
  3
   -       -       -       -    
 72
   65
 73
    2
 40
1.75
 49
0.25
 49
-1.5
  0
LTYPE
  2
chain
 70
   64
  3
-------------- -- --------------
 72
   65
 73
    4
 40
18.5
 49
12
 49
-1.5
 49
3.5
 49
-1.5
  0
LTYPE
  2
chain_double_dash
 70
   64
  3
------------ -- -- -------------
 72
   65
 73
    6
 40
23.5
 49
12
 49
-1.5
 49
3.5
 49
-1.5
 49
3.5
 49
-1.5
  0
LTYPE
  2
dashed_dotted
 70
   64
  3
-----------     -     ----------
 72
   65
 73
    4
 40
9.25
 49
6
 49
-1.5
 49
0.25
 49
-1.5
  0
LTYPE
  2
double-dashed_dotted
 70
   64
  3
------   -----------   -   -----
 72
   65
 73
    6
 40
16.75
 49
6
 49
-1.5
 49
6
 49
-1.5
 49
0.25
 49
-1.5
  0
LTYPE
  2
dashed_double-dotted
 70
   64
  3
---------    -    -    ---------
 72
   65
 73
    6
 40
11
 49
6
 49
-1.5
 49
0.25
 49
-1.5
 49
0.25
 49
-1.5
  0
LTYPE
  2
double-dashed_double-dotted
 70
   64
  3
-----   ---------   -   -   ----
 72
   65
 73
    8
 40
18.5
 49
6
 49
-1.5
 49
6
 49
-1.5
 49
0.25
 49
-1.5
 49
0.25
 49
-1.5
  0
LTYPE
  2
dashed_triplicate-dotted
 70
   64
  3
-------    -    -    -    ------
 72
   65
 73
    8
 40
12.75
 49
6
 49
-1.5
 49
0.25
 49
-1.5
 49
0.25
 49
-1.5
 49
0.25
 49
-1.5
  0
LTYPE
  2
double-dashed_triplicate-dotted
 70
   64
  3
-----  ---------  -  -  -  -----
 72
   65
 73
   10
 40
20.25
 49
6
 49
-1.5
 49
6
 49
-1.5
 49
0.25
 49
-1.5
 49
0.25
 49
-1.5
 49
0.25
 49
-1.5
  0
LTYPE
  2
undefined
 70
   64
  3
--------------------------------
 72
   65
 73
    0
 40
0
  0
ENDTAB
  0
TABLE
  2
STYLE
  5
3
100
AcDbSymbolTable
 70
     1
  0
STYLE
  5
10
100
AcDbSymbolTableRecord
100
AcDbTextStyleTableRecord
  2
STANDARD
 70
     0
 40
0.0
 41
1.0
 50
0.0
 71
     0
 42
0.2
  3
txt
  4
bigfont.shx
  0
STYLE
  5
26
100
AcDbSymbolTableRecord
100
AcDbTextStyleTableRecord
  2
TATEGAKI
 70
    68
 40
0.0
 41
1.0
 50
0.0
 71
     0
 42
1.0
  3
txt
  4
bigfont.shx
  0
ENDTAB
  0
TABLE
  2
LAYER
 70
   11
  0
LAYER
  2
_0-0_躯体
 70
   64
 62
    7
  6
CONTINUOUS
  0
LAYER
  2
_0-1_耐火帯
 70
   64
 62
    7
  6
CONTINUOUS
  0
LAYER
  2
_0-9_小物
 70
   64
 62
    7
  6
CONTINUOUS
  0
LAYER
  2
_0-a_
 70
   64
 62
    7
  6
CONTINUOUS
  0
LAYER
  2
_0-e_付箋
 70
   64
 62
    7
  6
CONTINUOUS
  0
LAYER
  2
_0-f_寸法
 70
   64
 62
    7
  6
CONTINUOUS
  0
LAYER
  2
_1-0_
 70
   64
 62
    7
  6
CONTINUOUS
  0
LAYER
  2
_1-e_
 70
   64
 62
    7
  6
CONTINUOUS
  0
LAYER
  2
_1-f_
 70
   64
 62
    7
  6
CONTINUOUS
  0
LAYER
  2
_f-0_
 70
   64
 62
    7
  6
CONTINUOUS
  0
LAYER
  2
ADD_LINE
 70
   64
 62
    7
  6
CONTINUOUS
  0
ENDTAB
  0
ENDSEC
  0
SECTION
  2
BLOCKS
  0
BLOCK
  2
-000-
 70
   64
 10
0
 20
0
 30
0
  0
ARC
  8
_0-a_
  6
CONTINUOUS
 62
    3
 10
-208.00000004780352
 20
52.000000170441695
 40
0.2999999999999999
 50
180
 51
270
  0
ARC
  8
_0-a_
  6
CONTINUOUS
 62
    3
 10
-210.30000004780371
 20
60.000000170441467
 40
0.5
 50
0
 51
90
  0
LINE
  8
_0-a_
  6
CONTINUOUS
 62
    3
 10
-206.30000004780371
 20
51.70000017044174
 11
-208.00000004780352
 21
51.70000017044174
  0
LINE
  8
_0-a_
  6
CONTINUOUS
 62
    3
 10
-211.30000004780371
 20
62.000000170441695
 11
-220.26575233062934
 21
61.215598485712803
  0
ARC
  8
_0-a_
  6
CONTINUOUS
 62
    3
 10
-220.17859658788169
 20
60.21940378762099
 40
1
 50
94.999999999999758
 51
333.46653128700132
  0
ARC
  8
_0-a_
  6
CONTINUOUS
 62
    3
 10
-218.38924945331749
 20
59.325962781159319
 40
1
 50
91.423665625010599
 51
153.46653128700785
  0
LINE
  8
_0-a_
  6
CONTINUOUS
 62
    3
 10
-211.39893714733947
 20
60.500000170441695
 11
-218.41409454915268
 21
60.325654094121887
  0
LINE
  8
_0-a_
  6
CONTINUOUS
 62
    3
 10
-210.30000004780371
 20
60.500000170441695
 11
-211.39893714733947
 21
60.500000170441695
  0
LINE
  8
_0-a_
  6
CONTINUOUS
 62
    3
 10
-209.80000004780371
 20
52.000000170441695
 11
-209.80000004780371
 21
60.000000170441467
  0
ARC
  8
_0-a_
  6
CONTINUOUS
 62
    3
 10
-208.00000004780352
 20
52.000000170441695
 40
1.8
 50
180
 51
270
  0
LINE
  8
_0-a_
  6
CONTINUOUS
 62
    3
 10
-208.30000004780371
 20
52.000000170441695
 11
-208.30000004780371
 21
61.000000170441695
  0
LINE
  8
_0-a_
  6
CONTINUOUS
 62
    3
 10
-211.30000004780371
 20
62.000000170441695
 11
-209.30000004780371
 21
62.000000170441695
  0
ARC
  8
_0-a_
  6
CONTINUOUS
 62
    3
 10
-209.30000004780371
 20
61.000000170441695
 40
1
 50
0
 51
90
  0
LINE
  8
_0-a_
  6
CONTINUOUS
 62
    3
 10
-206.30000004780371
 20
50.20000017044174
 11
-208.00000004780352
 21
50.20000017044174
  0
LINE
  8
_0-a_
  6
CONTINUOUS
 62
    3
 10
-206.45198387545545
 20
53.089449993119274
 11
-206.78358495396836
 21
55.466431424415873
  0
ARC
  8
_0-a_
  6
CONTINUOUS
 62
    3
 10
-205.12157156328342
 20
58.9728815355287
 40
0.4999999999999986
 50
297.94179900623186
 51
117.94179900623186
  0
LINE
  8
_0-a_
  6
CONTINUOUS
 62
    3
 10
-206.68099481397988
 20
58.711731913303879
 11
-205.35585877502038
 21
59.414593548514972
  0
LINE
  8
_0-a_
  6
CONTINUOUS
 62
    3
 10
-206.78358495396836
 20
55.466431424415873
 11
-206.81231695363525
 21
57.48179106284158
  0
LINE
  8
_0-a_
  6
CONTINUOUS
 62
    3
 10
-206.81231695363525
 20
57.48179106284158
 11
-206.68099481397988
 21
58.711731913303879
  0
LINE
  8
_0-a_
  6
CONTINUOUS
 62
    3
 10
-205.35881017505611
 20
58.281068852412886
 11
-204.88728435154647
 21
58.5311695225422
  0
ARC
  8
_0-a_
  6
CONTINUOUS
 62
    3
 10
-206.30000004780371
 20
52.000000170441695
 40
1.8
 50
270
 51
7.9417990062324293
  0
LINE
  8
_0-a_
  6
CONTINUOUS
 62
    3
 10
-204.51726397433097
 20
52.248700979326145
 11
-205.35881017505611
 21
58.281068852412886
  0
ARC
  8
_0-a_
  6
CONTINUOUS
 62
    3
 10
-206.30000004780371
 20
52.000000170441695
 40
0.2999999999999999
 50
270
 51
7.9417990062400463
  0
LINE
  8
_0-a_
  6
CONTINUOUS
 62
    3
 10
-206.00287736889143
 20
52.041450305255808
 11
-206.15486119654318
 21
53.130900127933387
  0
LINE
  8
_0-a_
  6
CONTINUOUS
 62
    3
 10
-206.15486119654318
 20
53.130900127933387
 11
-206.45198387545545
 21
53.089449993119274
  0
ENDBLK
  0
BLOCK
  2
-001-_1_
 70
   64
 10
0
 20
0
 30
0
  0
ARC
  8
_0-a_
  6
CONTINUOUS
 62
    3
 10
-204.30000004780416
 20
17.300000170441763
 40
0.2999999999999999
 50
180
 51
270
  0
LINE
  8
_0-a_
  6
CONTINUOUS
 62
    3
 10
-204.60000004780434
 20
19.000000170441695
 11
-204.60000004780434
 21
17.300000170441763
  0
LINE
  8
_0-a_
  6
CONTINUOUS
 62
    3
 10
-204.30000004780416
 20
15.500000170441695
 11
-196.30000004780416
 21
15.500000170441695
  0
ARC
  8
_0-a_
  6
CONTINUOUS
 62
    3
 10
-204.30000004780416
 20
17.300000170441763
 40
1.8
 50
180
 51
270
  0
LINE
  8
_0-a_
  6
CONTINUOUS
 62
    3
 10
-204.30000004780416
 20
17.000000170441695
 11
-195.30000004780416
 21
17.000000170441695
  0
ARC
  8
_0-a_
  6
CONTINUOUS
 62
    3
 10
-195.30000004780416
 20
16.000000170441695
 40
1
 50
0
 51
90
  0
LINE
  8
_0-a_
  6
CONTINUOUS
 62
    3
 10
-206.10000004780434
 20
19.000000170441695
 11
-206.10000004780434
 21
17.300000170441763
  0
LINE
  8
_0-a_
  6
CONTINUOUS
 62
    3
 10
-203.21055022512658
 20
18.848016342790061
 11
-200.83356879382976
 21
18.516415264277157
  0
ARC
  8
_0-a_
  6
CONTINUOUS
 62
    3
 10
-197.32711868271738
 20
20.178428654961749
 40
0.4999999999999986
 50
332.05820099378559
 51
152.05820099374034
  0
LINE
  8
_0-a_
  6
CONTINUOUS
 62
    3
 10
-197.58826830494175
 20
18.619005404265636
 11
-196.88540666973088
 21
19.944141443224794
  0
LINE
  8
_0-a_
  6
CONTINUOUS
 62
    3
 10
-200.83356879382976
 20
18.516415264277157
 11
-198.81820915540405
 21
18.487683264609927
  0
LINE
  8
_0-a_
  6
CONTINUOUS
 62
    3
 10
-198.81820915540405
 20
18.487683264609927
 11
-197.58826830494175
 21
18.619005404265636
  0
LINE
  8
_0-a_
  6
CONTINUOUS
 62
    3
 10
-198.01893136583297
 20
19.941190043189181
 11
-197.76883069570343
 21
20.412715866698818
  0
ARC
  8
_0-a_
  6
CONTINUOUS
 62
    3
 10
-204.30000004780416
 20
19.000000170441695
 40
1.8
 50
82.058200993760252
 51
180
  0
LINE
  8
_0-a_
  6
CONTINUOUS
 62
    3
 10
-204.05129923891948
 20
20.782736243914201
 11
-198.01893136583297
 21
19.941190043189181
  0
ARC
  8
_0-a_
  6
CONTINUOUS
 62
    3
 10
-204.30000004780416
 20
19.000000170441695
 40
0.2999999999999999
 50
82.058200993760749
 51
180
  0
LINE
  8
_0-a_
  6
CONTINUOUS
 62
    3
 10
-204.25854991299005
 20
19.297122849353741
 11
-203.16910009031247
 21
19.145139021702107
  0
LINE
  8
_0-a_
  6
CONTINUOUS
 62
    3
 10
-203.16910009031247
 20
19.145139021702107
 11
-203.21055022512658
 21
18.848016342790061
  0
LINE
  8
_0-a_
  6
CONTINUOUS
 62
    3
 10
-196.27996794317826
 20
12.769099800587469
 11
-204.61498428262851
 21
9.3738821903167491
  0
ARC
  8
_0-a_
  6
CONTINUOUS
 62
    3
 10
-204.9922306837698
 20
10.299995116922219
 40
1
 50
53.696691075039965
 51
292.16322236205013
  0
ARC
  8
_0-a_
  6
CONTINUOUS
 62
    3
 10
-203.80811124079358
 20
11.911783299273338
 40
1
 50
233.69669107503995
 51
295.73955673704
  0
LINE
  8
_0-a_
  6
CONTINUOUS
 62
    3
 10
-197.05278361715366
 20
14.058496746342371
 11
-203.37383016026391
 21
11.011005888869477
  0
LINE
  8
_0-a_
  6
CONTINUOUS
 62
    3
 10
-196.07504873316569
 20
14.560191120807644
 11
-197.05278361715366
 21
14.058496746342371
  0
ARC
  8
_0-a_
  6
CONTINUOUS
 62
    3
 10
-196.30000004780416
 20
15.000000170441695
 40
0.5
 50
297.08860670016236
 51
90
  0
LINE
  8
_0-a_
  6
CONTINUOUS
 62
    3
 10
-194.30657564536116
 20
14.391583064229508
 11
-194.30505755681864
 21
15.997471415934456
  0
LINE
  8
_0-a_
  6
CONTINUOUS
 62
    3
 10
-196.27996794317826
 20
12.769099800587469
 11
-194.85004827386322
 21
13.502818793108872
  0
ARC
  8
_0-a_
  6
CONTINUOUS
 62
    3
 10
-195.30657519854051
 20
14.392528390137272
 40
1
 50
297.16322236205622
 51
359.94583680715368
  0
ENDBLK
  0
BLOCK
  2
-002-_2_
 70
   64
 10
0
 20
0
 30
0
  0
LINE
  8
_0-f_寸法
  6
CONTINUOUS
 62
    4
 10
-197.69999882747337
 20
-11.000000000011255
 11
-197.69999882747337
 21
-35.999999999707939
  0
LINE
  8
_0-f_寸法
  6
CONTINUOUS
 62
    4
 10
-220.89999999999785
 20
-15.999999999707939
 11
-220.89999999999785
 21
-35.999999999707939
  0
LINE
  8
_0-f_寸法
  6
CONTINUOUS
 62
    4
 10
-220.89999999999785
 20
-34.999999999707939
 11
-197.69999882747337
 21
-34.999999999707939
  0
POINT
  8
_0-f_寸法
 62
    4
 10
-220.89999999999785
 20
-34.999999999707939
  0
POINT
  8
_0-f_寸法
 62
    4
 10
-197.69999882747337
 20
-34.999999999707939
  0
TEXT
  8
_0-f_寸法
 62
    4
 10
-216.49999941373559
 20
-34.999999999707939
 40
9
 41
0.8
 50
0
  1
23.2
  0
ENDBLK
  0
BLOCK
  2
-003-_3_
 70
   64
 10
0
 20
0
 30
0
  0
ARC
  8
_0-9_小物
  6
CONTINUOUS
 62
    3
 10
-229.18104499999984
 20
23.91514499998982
 40
0.4
 50
8.1301019999584128
 51
98.298466000035802
  0
LINE
  8
_0-9_小物
  6
CONTINUOUS
 62
    3
 10
-228.78506500000006
 20
23.971714999990922
 11
-228.75694999999953
 21
23.774889999989568
  0
ARC
  8
_0-9_小物
  6
CONTINUOUS
 62
    3
 10
-229.15292999999977
 20
23.718319999988921
 40
0.4
 50
278.13010200002401
 51
8.1301020002215409
  0
ARC
  8
_0-9_小物
  6
CONTINUOUS
 62
    3
 10
-229.18104499999984
 20
10.084854999989943
 40
0.4
 50
261.70153399996417
 51
351.86989800004159
  0
LINE
  8
_0-9_小物
  6
CONTINUOUS
 62
    3
 10
-228.78506500000006
 20
10.028289999990079
 11
-228.75694999999953
 21
10.225109999990195
  0
ARC
  8
_0-9_小物
  6
CONTINUOUS
 62
    3
 10
-229.15292999999977
 20
10.281679999989024
 40
0.4
 50
351.86989800004159
 51
81.869898000041587
  0
ARC
  8
_0-9_小物
  6
CONTINUOUS
 62
    3
 10
-229.18104499999984
 20
10.084854999989943
 40
0.4
 50
261.70153399996417
 51
351.86989800004159
  0
LINE
  8
_0-9_小物
  6
CONTINUOUS
 62
    3
 10
-228.78506500000006
 20
10.028289999990079
 11
-228.75694999999953
 21
10.225109999990195
  0
ARC
  8
_0-9_小物
  6
CONTINUOUS
 62
    3
 10
-229.15292999999977
 20
10.281679999989024
 40
0.4
 50
351.86989800004159
 51
81.869898000041587
  0
LINE
  8
_0-9_小物
  6
CONTINUOUS
 62
    3
 10
-220.89999999999966
 20
20.999999999988972
 11
-228.90000000000057
 21
20.999999999988972
  0
LINE
  8
_0-9_小物
  6
CONTINUOUS
 62
    3
 10
-242.6976400000008
 20
12.272094999989235
 11
-243.80093999999966
 21
14.217014999989146
  0
LINE
  8
_0-9_小物
  6
CONTINUOUS
 62
    3
 10
-240.7003799999998
 20
12.376764999989859
 11
-242.6976400000008
 21
12.272094999989235
  0
LINE
  8
_0-9_小物
  6
CONTINUOUS
 62
    3
 10
-237.70448999999965
 20
12.53377499998976
 11
-238.8077950000002
 21
14.478694999989671
  0
LINE
  8
_0-9_小物
  6
CONTINUOUS
 62
    3
 10
-238.8077950000002
 20
14.478694999989671
 11
-240.80505499999984
 21
14.374024999989956
  0
LINE
  8
_0-9_小物
  6
CONTINUOUS
 62
    3
 10
-240.80505499999984
 20
14.374024999989956
 11
-240.7003799999998
 21
12.376764999989859
  0
LINE
  8
_0-9_小物
  6
CONTINUOUS
 62
    3
 10
-235.70723500000034
 20
12.638444999989474
 11
-237.70448999999965
 21
12.53377499998976
  0
LINE
  8
_0-9_小物
  6
CONTINUOUS
 62
    3
 10
-233.81464500000041
 20
14.740374999990195
 11
-235.81190500000005
 21
14.635704999989571
  0
LINE
  8
_0-9_小物
  6
CONTINUOUS
 62
    3
 10
-235.81190500000005
 20
14.635704999989571
 11
-235.70723500000034
 21
12.638444999989474
  0
LINE
  8
_0-9_小物
  6
CONTINUOUS
 62
    3
 10
-232.89999999999966
 20
12.999999999989882
 11
-233.81464500000041
 21
14.740374999990195
  0
LINE
  8
_0-9_小物
  6
CONTINUOUS
 62
    3
 10
-242.6976400000008
 20
21.727904999990528
 11
-243.80093999999966
 21
19.782984999989708
  0
LINE
  8
_0-9_小物
  6
CONTINUOUS
 62
    3
 10
-240.7003799999998
 20
21.623234999989904
 11
-242.6976400000008
 21
21.727904999990528
  0
LINE
  8
_0-9_小物
  6
CONTINUOUS
 62
    3
 10
-237.70448999999965
 20
21.466224999989095
 11
-238.8077950000002
 21
19.521304999989184
  0
LINE
  8
_0-9_小物
  6
CONTINUOUS
 62
    3
 10
-238.8077950000002
 20
19.521304999989184
 11
-240.80505499999984
 21
19.625974999989808
  0
LINE
  8
_0-9_小物
  6
CONTINUOUS
 62
    3
 10
-240.80505499999984
 20
19.625974999989808
 11
-240.7003799999998
 21
21.623234999989904
  0
LINE
  8
_0-9_小物
  6
CONTINUOUS
 62
    3
 10
-235.70723500000034
 20
21.36155499999029
 11
-237.70448999999965
 21
21.466224999989095
  0
LINE
  8
_0-9_小物
  6
CONTINUOUS
 62
    3
 10
-233.81464500000041
 20
19.259624999989569
 11
-235.81190500000005
 21
19.364294999990193
  0
LINE
  8
_0-9_小物
  6
CONTINUOUS
 62
    3
 10
-235.81190500000005
 20
19.364294999990193
 11
-235.70723500000034
 21
21.36155499999029
  0
LINE
  8
_0-9_小物
  6
CONTINUOUS
 62
    3
 10
-232.89999999999966
 20
20.999999999988972
 11
-233.81464500000041
 21
19.259624999989569
  0
LINE
  8
_0-9_小物
  6
CONTINUOUS
 62
    3
 10
-240.7003799999998
 20
12.376764999989859
 11
-236.0424000000003
 21
10.681399999990276
  0
LINE
  8
_0-9_小物
  6
CONTINUOUS
 62
    3
 10
-240.7003799999998
 20
13.440944999989256
 11
-235.70038000000025
 21
11.621089999989522
  0
LINE
  8
_0-9_小物
  6
CONTINUOUS
 62
    3
 10
-240.7003799999998
 20
21.623234999989904
 11
-236.0424000000003
 21
23.318599999989488
  0
LINE
  8
_0-9_小物
  6
CONTINUOUS
 62
    3
 10
-240.7003799999998
 20
20.559054999990508
 11
-235.70038000000025
 21
22.378909999990242
  0
LINE
  8
_0-9_小物
  6
CONTINUOUS
 62
    3
 10
-232.89999999999966
 20
12.999999999989882
 11
-228.90000000000057
 21
12.999999999989882
  0
LINE
  8
_0-9_小物
  6
CONTINUOUS
 62
    3
 10
-232.89999999999966
 20
20.999999999988972
 11
-228.90000000000057
 21
20.999999999988972
  0
LINE
  8
_0-9_小物
  6
CONTINUOUS
 62
    3
 10
-236.0424000000003
 20
23.318599999989488
 11
-229.23877999999925
 21
24.310954999989804
  0
LINE
  8
_0-9_小物
  6
CONTINUOUS
 62
    3
 10
-229.09636000000003
 20
23.322339999989595
 11
-235.70038000000025
 21
22.378909999990242
  0
LINE
  8
_0-9_小物
  6
CONTINUOUS
 62
    3
 10
-236.0424000000003
 20
10.681399999990276
 11
-229.23877999999925
 21
9.6890449999899602
  0
LINE
  8
_0-9_小物
  6
CONTINUOUS
 62
    3
 10
-229.09636000000003
 20
10.677659999990169
 11
-235.70038000000025
 21
11.621089999989522
  0
LINE
  8
_0-9_小物
  6
CONTINUOUS
 62
    3
 10
-236.0424000000003
 20
10.681399999990276
 11
-229.23877999999925
 21
9.6890449999899602
  0
LINE
  8
_0-9_小物
  6
CONTINUOUS
 62
    3
 10
-229.09636000000003
 20
10.677659999990169
 11
-235.70038000000025
 21
11.621089999989522
  0
LINE
  8
_0-9_小物
  6
CONTINUOUS
 62
    3
 10
-255.67982500000019
 20
11.591724999989196
 11
-257.67708499999981
 21
11.487054999990391
  0
LINE
  8
_0-9_小物
  6
CONTINUOUS
 62
    3
 10
-252.68393500000005
 20
11.748734999990006
 11
-253.78723500000027
 21
13.693654999989917
  0
LINE
  8
_0-9_小物
  6
CONTINUOUS
 62
    3
 10
-253.78723500000027
 20
13.693654999989917
 11
-255.78449499999991
 21
13.588984999989293
  0
LINE
  8
_0-9_小物
  6
CONTINUOUS
 62
    3
 10
-255.78449499999991
 20
13.588984999989293
 11
-255.67982500000019
 21
11.591724999989196
  0
LINE
  8
_0-9_小物
  6
CONTINUOUS
 62
    3
 10
-250.68667499999995
 20
11.853404999989721
 11
-252.68393500000005
 21
11.748734999990006
  0
LINE
  8
_0-9_小物
  6
CONTINUOUS
 62
    3
 10
-247.69078999999968
 20
12.010414999989621
 11
-248.79409000000081
 21
13.955334999990441
  0
LINE
  8
_0-9_小物
  6
CONTINUOUS
 62
    3
 10
-248.79409000000081
 20
13.955334999990441
 11
-250.79134999999999
 21
13.850664999989817
  0
LINE
  8
_0-9_小物
  6
CONTINUOUS
 62
    3
 10
-250.79134999999999
 20
13.850664999989817
 11
-250.68667499999995
 21
11.853404999989721
  0
LINE
  8
_0-9_小物
  6
CONTINUOUS
 62
    3
 10
-245.69352999999958
 20
12.115084999990245
 11
-247.69078999999968
 21
12.010414999989621
  0
LINE
  8
_0-9_小物
  6
CONTINUOUS
 62
    3
 10
-243.80093999999966
 20
14.217014999989146
 11
-245.79819999999975
 21
14.112344999990341
  0
LINE
  8
_0-9_小物
  6
CONTINUOUS
 62
    3
 10
-245.79819999999975
 20
14.112344999990341
 11
-245.69352999999958
 21
12.115084999990245
  0
LINE
  8
_0-9_小物
  6
CONTINUOUS
 62
    3
 10
-255.67982500000019
 20
22.408274999989658
 11
-257.67708499999981
 21
22.512944999989372
  0
LINE
  8
_0-9_小物
  6
CONTINUOUS
 62
    3
 10
-252.68393500000005
 20
22.251264999989758
 11
-253.78723500000027
 21
20.306344999989847
  0
LINE
  8
_0-9_小物
  6
CONTINUOUS
 62
    3
 10
-253.78723500000027
 20
20.306344999989847
 11
-255.78449499999991
 21
20.411014999990471
  0
LINE
  8
_0-9_小物
  6
CONTINUOUS
 62
    3
 10
-255.78449499999991
 20
20.411014999990471
 11
-255.67982500000019
 21
22.408274999989658
  0
LINE
  8
_0-9_小物
  6
CONTINUOUS
 62
    3
 10
-250.68667499999995
 20
22.146594999989134
 11
-252.68393500000005
 21
22.251264999989758
  0
LINE
  8
_0-9_小物
  6
CONTINUOUS
 62
    3
 10
-247.69078999999968
 20
21.989584999990143
 11
-248.79409000000081
 21
20.044664999990232
  0
LINE
  8
_0-9_小物
  6
CONTINUOUS
 62
    3
 10
-248.79409000000081
 20
20.044664999990232
 11
-250.79134999999999
 21
20.149334999989037
  0
LINE
  8
_0-9_小物
  6
CONTINUOUS
 62
    3
 10
-250.79134999999999
 20
20.149334999989037
 11
-250.68667499999995
 21
22.146594999989134
  0
LINE
  8
_0-9_小物
  6
CONTINUOUS
 62
    3
 10
-245.69352999999958
 20
21.884914999990428
 11
-247.69078999999968
 21
21.989584999990143
  0
LINE
  8
_0-9_小物
  6
CONTINUOUS
 62
    3
 10
-243.80093999999966
 20
19.782984999989708
 11
-245.79819999999975
 21
19.887654999989422
  0
LINE
  8
_0-9_小物
  6
CONTINUOUS
 62
    3
 10
-245.79819999999975
 20
19.887654999989422
 11
-245.69352999999958
 21
21.884914999990428
  0
LINE
  8
_0-9_小物
  6
CONTINUOUS
 62
    3
 10
-257.86026000000038
 20
14.982254999989777
 11
-257.67708499999981
 21
11.487054999990391
  0
LINE
  8
_0-9_小物
  6
CONTINUOUS
 62
    3
 10
-257.67708499999981
 20
11.487054999990391
 11
-259.77901499999962
 21
13.37963999998999
  0
LINE
  8
_0-9_小物
  6
CONTINUOUS
 62
    3
 10
-259.77901499999962
 20
13.37963999998999
 11
-259.85752000000048
 21
14.877584999989153
  0
LINE
  8
_0-9_小物
  6
CONTINUOUS
 62
    3
 10
-259.85752000000048
 20
14.877584999989153
 11
-228.90000000000057
 21
16.499999999988972
  0
LINE
  8
_0-9_小物
  6
CONTINUOUS
 62
    3
 10
-257.86026000000038
 20
19.017744999989986
 11
-257.67708499999981
 21
22.512944999989372
  0
LINE
  8
_0-9_小物
  6
CONTINUOUS
 62
    3
 10
-257.67708499999981
 20
22.512944999989372
 11
-259.77901499999962
 21
20.620359999989773
  0
LINE
  8
_0-9_小物
  6
CONTINUOUS
 62
    3
 10
-259.77901499999962
 20
20.620359999989773
 11
-259.85752000000048
 21
19.122414999989701
  0
LINE
  8
_0-9_小物
  6
CONTINUOUS
 62
    3
 10
-259.85752000000048
 20
19.122414999989701
 11
-228.90000000000057
 21
17.499999999989882
  0
LINE
  8
_0-9_小物
  6
CONTINUOUS
 62
    3
 10
-220.89999999999966
 20
11.999999999988972
 11
-225.89999999999966
 21
12.999999999989882
  0
LINE
  8
_0-9_小物
  6
CONTINUOUS
 62
    3
 10
-220.89999999999966
 20
15.999999999989882
 11
-225.89999999999966
 21
16.999999999988972
  0
LINE
  8
_0-9_小物
  6
CONTINUOUS
 62
    3
 10
-220.89999999999966
 20
12.999999999989882
 11
-228.90000000000057
 21
12.999999999989882
  0
LINE
  8
_0-9_小物
  6
CONTINUOUS
 62
    3
 10
-220.89999999999966
 20
17.999999999989882
 11
-225.89999999999966
 21
16.999999999988972
  0
LINE
  8
_0-9_小物
  6
CONTINUOUS
 62
    3
 10
-220.89999999999966
 20
21.999999999988972
 11
-225.89999999999966
 21
20.999999999988972
  0
LINE
  8
_0-9_小物
  6
CONTINUOUS
 62
    3
 10
-225.89999999999966
 20
16.999999999988972
 11
-220.89999999999785
 21
16.999999999988972
  0
LINE
  8
_0-9_小物
  6
CONTINUOUS
 62
    3
 10
-228.90000000000057
 20
17.499999999989882
 11
-228.90000000000057
 21
16.499999999988972
  0
LINE
  8
_0-9_小物
  6
CONTINUOUS
 62
    3
 10
-220.89999999999966
 20
21.999999999988972
 11
-220.89999999999966
 21
11.999999999988972
  0
ENDBLK
  0
BLOCK
  2
-004-_4_
 70
   64
 10
0
 20
0
 30
0
  0
LINE
  8
_0-9_小物
  6
CONTINUOUS
 62
    3
 10
-30.491724999999462
 20
-51.379825000011579
 11
-30.387055000001112
 21
-53.377085000011448
  0
LINE
  8
_0-9_小物
  6
CONTINUOUS
 62
    3
 10
-30.648735000000727
 20
-48.383935000011661
 11
-32.593655000000183
 21
-49.487235000011651
  0
LINE
  8
_0-9_小物
  6
CONTINUOUS
 62
    3
 10
-32.593655000000183
 20
-49.487235000011651
 11
-32.488985000000014
 21
-51.48449500001152
  0
LINE
  8
_0-9_小物
  6
CONTINUOUS
 62
    3
 10
-32.488985000000014
 20
-51.48449500001152
 11
-30.491724999999462
 21
-51.379825000011579
  0
LINE
  8
_0-9_小物
  6
CONTINUOUS
 62
    3
 10
-30.753405000000441
 20
-46.386675000011337
 11
-30.648735000000727
 21
-48.383935000011661
  0
LINE
  8
_0-9_小物
  6
CONTINUOUS
 62
    3
 10
-30.910415000000341
 20
-43.390790000011293
 11
-32.855335000001162
 21
-44.494090000012193
  0
LINE
  8
_0-9_小物
  6
CONTINUOUS
 62
    3
 10
-32.855335000001162
 20
-44.494090000012193
 11
-32.750665000000083
 21
-46.49135000001138
  0
LINE
  8
_0-9_小物
  6
CONTINUOUS
 62
    3
 10
-32.750665000000083
 20
-46.49135000001138
 11
-30.753405000000441
 21
-46.386675000011337
  0
LINE
  8
_0-9_小物
  6
CONTINUOUS
 62
    3
 10
-31.015085000000965
 20
-41.393530000011197
 11
-30.910415000000341
 21
-43.390790000011293
  0
LINE
  8
_0-9_小物
  6
CONTINUOUS
 62
    3
 10
-31.172094999999956
 20
-38.397640000012188
 11
-33.117014999999412
 21
-39.500940000011269
  0
LINE
  8
_0-9_小物
  6
CONTINUOUS
 62
    3
 10
-33.117014999999412
 20
-39.500940000011269
 11
-33.012345000001062
 21
-41.498200000011366
  0
LINE
  8
_0-9_小物
  6
CONTINUOUS
 62
    3
 10
-33.012345000001062
 20
-41.498200000011366
 11
-31.015085000000965
 21
-41.393530000011197
  0
LINE
  8
_0-9_小物
  6
CONTINUOUS
 62
    3
 10
-31.27676500000058
 20
-36.40038000001141
 11
-31.172094999999956
 21
-38.397640000012188
  0
LINE
  8
_0-9_小物
  6
CONTINUOUS
 62
    3
 10
-31.43377500000048
 20
-33.404490000011265
 11
-33.378695000000391
 21
-34.507795000011583
  0
LINE
  8
_0-9_小物
  6
CONTINUOUS
 62
    3
 10
-33.378695000000391
 20
-34.507795000011583
 11
-33.274025000000677
 21
-36.505055000011453
  0
LINE
  8
_0-9_小物
  6
CONTINUOUS
 62
    3
 10
-33.274025000000677
 20
-36.505055000011453
 11
-31.27676500000058
 21
-36.40038000001141
  0
LINE
  8
_0-9_小物
  6
CONTINUOUS
 62
    3
 10
-31.538445000000195
 20
-31.407235000011724
 11
-31.43377500000048
 21
-33.404490000011265
  0
LINE
  8
_0-9_小物
  6
CONTINUOUS
 62
    3
 10
-33.640375000000915
 20
-29.514645000011797
 11
-33.535705000000291
 21
-31.511905000011666
  0
LINE
  8
_0-9_小物
  6
CONTINUOUS
 62
    3
 10
-33.535705000000291
 20
-31.511905000011666
 11
-31.538445000000195
 21
-31.407235000011724
  0
LINE
  8
_0-9_小物
  6
CONTINUOUS
 62
    3
 10
-31.900000000000148
 20
-28.600000000011278
 11
-33.640375000000915
 21
-29.514645000011797
  0
LINE
  8
_0-9_小物
  6
CONTINUOUS
 62
    3
 10
-41.308275000000378
 20
-51.379825000011579
 11
-41.412945000000093
 21
-53.377085000011448
  0
LINE
  8
_0-9_小物
  6
CONTINUOUS
 62
    3
 10
-41.151265000000478
 20
-48.383935000011661
 11
-39.206345000000567
 21
-49.487235000011651
  0
LINE
  8
_0-9_小物
  6
CONTINUOUS
 62
    3
 10
-39.206345000000567
 20
-49.487235000011651
 11
-39.311015000000737
 21
-51.48449500001152
  0
LINE
  8
_0-9_小物
  6
CONTINUOUS
 62
    3
 10
-39.311015000000737
 20
-51.48449500001152
 11
-41.308275000000378
 21
-51.379825000011579
  0
LINE
  8
_0-9_小物
  6
CONTINUOUS
 62
    3
 10
-41.0465949999994
 20
-46.386675000011337
 11
-41.151265000000478
 21
-48.383935000011661
  0
LINE
  8
_0-9_小物
  6
CONTINUOUS
 62
    3
 10
-40.889585000000864
 20
-43.390790000011293
 11
-38.944665000000953
 21
-44.494090000012193
  0
LINE
  8
_0-9_小物
  6
CONTINUOUS
 62
    3
 10
-38.944665000000953
 20
-44.494090000012193
 11
-39.049334999999758
 21
-46.49135000001138
  0
LINE
  8
_0-9_小物
  6
CONTINUOUS
 62
    3
 10
-39.049334999999758
 20
-46.49135000001138
 11
-41.0465949999994
 21
-46.386675000011337
  0
LINE
  8
_0-9_小物
  6
CONTINUOUS
 62
    3
 10
-40.784915000001149
 20
-41.393530000011197
 11
-40.889585000000864
 21
-43.390790000011293
  0
LINE
  8
_0-9_小物
  6
CONTINUOUS
 62
    3
 10
-40.627905000001249
 20
-38.397640000012188
 11
-38.682985000000428
 21
-39.500940000011269
  0
LINE
  8
_0-9_小物
  6
CONTINUOUS
 62
    3
 10
-38.682985000000428
 20
-39.500940000011269
 11
-38.787655000000143
 21
-41.498200000011366
  0
LINE
  8
_0-9_小物
  6
CONTINUOUS
 62
    3
 10
-38.787655000000143
 20
-41.498200000011366
 11
-40.784915000001149
 21
-41.393530000011197
  0
LINE
  8
_0-9_小物
  6
CONTINUOUS
 62
    3
 10
-40.52323500000017
 20
-36.40038000001141
 11
-40.627905000001249
 21
-38.397640000012188
  0
LINE
  8
_0-9_小物
  6
CONTINUOUS
 62
    3
 10
-40.366224999999815
 20
-33.404490000011265
 11
-38.42130499999945
 21
-34.507795000011583
  0
LINE
  8
_0-9_小物
  6
CONTINUOUS
 62
    3
 10
-38.42130499999945
 20
-34.507795000011583
 11
-38.525975000000528
 21
-36.505055000011453
  0
LINE
  8
_0-9_小物
  6
CONTINUOUS
 62
    3
 10
-38.525975000000528
 20
-36.505055000011453
 11
-40.52323500000017
 21
-36.40038000001141
  0
LINE
  8
_0-9_小物
  6
CONTINUOUS
 62
    3
 10
-40.261555000000556
 20
-31.407235000011724
 11
-40.366224999999815
 21
-33.404490000011265
  0
LINE
  8
_0-9_小物
  6
CONTINUOUS
 62
    3
 10
-38.159624999999835
 20
-29.514645000011797
 11
-38.264295000000914
 21
-31.511905000011666
  0
LINE
  8
_0-9_小物
  6
CONTINUOUS
 62
    3
 10
-38.264295000000914
 20
-31.511905000011666
 11
-40.261555000000556
 21
-31.407235000011724
  0
LINE
  8
_0-9_小物
  6
CONTINUOUS
 62
    3
 10
-39.899999999999693
 20
-28.600000000011278
 11
-38.159624999999835
 21
-29.514645000011797
  0
LINE
  8
_0-9_小物
  6
CONTINUOUS
 62
    3
 10
-31.27676500000058
 20
-36.40038000001141
 11
-29.581400000000997
 21
-31.742400000011912
  0
LINE
  8
_0-9_小物
  6
CONTINUOUS
 62
    3
 10
-32.340944999999977
 20
-36.40038000001141
 11
-30.521090000000243
 21
-31.400380000011637
  0
LINE
  8
_0-9_小物
  6
CONTINUOUS
 62
    3
 10
-40.52323500000017
 20
-36.40038000001141
 11
-42.218599999999753
 21
-31.742400000011912
  0
LINE
  8
_0-9_小物
  6
CONTINUOUS
 62
    3
 10
-39.459055000000774
 20
-36.40038000001141
 11
-41.278910000000508
 21
-31.400380000011637
  0
LINE
  8
_0-9_小物
  6
CONTINUOUS
 62
    3
 10
-33.882255000000498
 20
-53.560260000011795
 11
-30.387055000001112
 21
-53.377085000011448
  0
LINE
  8
_0-9_小物
  6
CONTINUOUS
 62
    3
 10
-30.387055000001112
 20
-53.377085000011448
 11
-32.279640000000711
 21
-55.479015000011259
  0
LINE
  8
_0-9_小物
  6
CONTINUOUS
 62
    3
 10
-32.279640000000711
 20
-55.479015000011259
 11
-33.777584999999419
 21
-55.557520000011891
  0
LINE
  8
_0-9_小物
  6
CONTINUOUS
 62
    3
 10
-33.777584999999419
 20
-55.557520000011891
 11
-35.399999999999693
 21
-24.60000000001196
  0
LINE
  8
_0-9_小物
  6
CONTINUOUS
 62
    3
 10
-31.900000000000148
 20
-28.600000000011278
 11
-31.900000000000148
 21
-24.60000000001196
  0
LINE
  8
_0-9_小物
  6
CONTINUOUS
 62
    3
 10
-37.917745000000707
 20
-53.560260000011795
 11
-41.412945000000093
 21
-53.377085000011448
  0
LINE
  8
_0-9_小物
  6
CONTINUOUS
 62
    3
 10
-41.412945000000093
 20
-53.377085000011448
 11
-39.520360000000494
 21
-55.479015000011259
  0
LINE
  8
_0-9_小物
  6
CONTINUOUS
 62
    3
 10
-39.520360000000494
 20
-55.479015000011259
 11
-38.022415000000422
 21
-55.557520000011891
  0
LINE
  8
_0-9_小物
  6
CONTINUOUS
 62
    3
 10
-38.022415000000422
 20
-55.557520000011891
 11
-36.400000000000148
 21
-24.60000000001196
  0
LINE
  8
_0-9_小物
  6
CONTINUOUS
 62
    3
 10
-39.899999999999693
 20
-28.600000000011278
 11
-39.899999999999693
 21
-24.60000000001196
  0
LINE
  8
_0-9_小物
  6
CONTINUOUS
 62
    3
 10
-42.218599999999753
 20
-31.742400000011912
 11
-43.21095500000007
 21
-24.938780000010865
  0
ARC
  8
_0-9_小物
  6
CONTINUOUS
 62
    3
 10
-42.815145000000086
 20
-24.881045000011454
 40
0.4
 50
98.130101999958413
 51
188.29846600001969
  0
LINE
  8
_0-9_小物
  6
CONTINUOUS
 62
    3
 10
-42.871715000001188
 20
-24.485065000011446
 11
-42.674889999999834
 21
-24.456950000011147
  0
ARC
  8
_0-9_小物
  6
CONTINUOUS
 62
    3
 10
-42.618319999999642
 20
-24.852930000011384
 40
0.4
 50
8.1301020000240456
 51
98.130102000220958
  0
LINE
  8
_0-9_小物
  6
CONTINUOUS
 62
    3
 10
-42.222339999999861
 20
-24.796360000011646
 11
-41.278910000000508
 21
-31.400380000011637
  0
LINE
  8
_0-9_小物
  6
CONTINUOUS
 62
    3
 10
-29.581400000000997
 20
-31.742400000011912
 11
-28.589045000000681
 21
-24.938780000010865
  0
ARC
  8
_0-9_小物
  6
CONTINUOUS
 62
    3
 10
-28.984855000000664
 20
-24.881045000011454
 40
0.4
 50
351.70153399996417
 51
81.869898000041587
  0
LINE
  8
_0-9_小物
  6
CONTINUOUS
 62
    3
 10
-28.9282900000008
 20
-24.485065000011446
 11
-29.125110000000916
 21
-24.456950000011147
  0
ARC
  8
_0-9_小物
  6
CONTINUOUS
 62
    3
 10
-29.181679999999744
 20
-24.852930000011384
 40
0.4
 50
81.869898000041587
 51
171.86989800000936
  0
LINE
  8
_0-9_小物
  6
CONTINUOUS
 62
    3
 10
-29.57766000000089
 20
-24.796360000011646
 11
-30.521090000000243
 21
-31.400380000011637
  0
LINE
  8
_0-9_小物
  6
CONTINUOUS
 62
    3
 10
-29.581400000000997
 20
-31.742400000011912
 11
-28.589045000000681
 21
-24.938780000010865
  0
ARC
  8
_0-9_小物
  6
CONTINUOUS
 62
    3
 10
-28.984855000000664
 20
-24.881045000011454
 40
0.4
 50
351.70153399996417
 51
81.869898000041587
  0
LINE
  8
_0-9_小物
  6
CONTINUOUS
 62
    3
 10
-28.9282900000008
 20
-24.485065000011446
 11
-29.125110000000916
 21
-24.456950000011147
  0
ARC
  8
_0-9_小物
  6
CONTINUOUS
 62
    3
 10
-29.181679999999744
 20
-24.852930000011384
 40
0.4
 50
81.869898000041587
 51
171.86989800000936
  0
LINE
  8
_0-9_小物
  6
CONTINUOUS
 62
    3
 10
-29.57766000000089
 20
-24.796360000011646
 11
-30.521090000000243
 21
-31.400380000011637
  0
LINE
  8
_0-9_小物
  6
CONTINUOUS
 62
    3
 10
-30.899999999999693
 20
-16.600000000011278
 11
-31.900000000000148
 21
-21.600000000011278
  0
LINE
  8
_0-9_小物
  6
CONTINUOUS
 62
    3
 10
-31.900000000000148
 20
-16.600000000011278
 11
-31.900000000000148
 21
-24.60000000001196
  0
LINE
  8
_0-9_小物
  6
CONTINUOUS
 62
    3
 10
-35.399999999999693
 20
-24.60000000001196
 11
-35.899999999999238
 21
-24.60000000001196
  0
LINE
  8
_0-9_小物
  6
CONTINUOUS
 62
    3
 10
-35.899999999999238
 20
-21.600000000011278
 11
-35.899999999999238
 21
-16.600000000011278
  0
LINE
  8
_0-9_小物
  6
CONTINUOUS
 62
    3
 10
-34.900000000000148
 20
-16.600000000011278
 11
-35.899999999999238
 21
-21.600000000011278
  0
LINE
  8
_0-9_小物
  6
CONTINUOUS
 62
    3
 10
-36.900000000000603
 20
-16.600000000011278
 11
-35.899999999999238
 21
-21.600000000011278
  0
LINE
  8
_0-9_小物
  6
CONTINUOUS
 62
    3
 10
-40.899999999999693
 20
-16.600000000011278
 11
-39.899999999999693
 21
-21.600000000011278
  0
LINE
  8
_0-9_小物
  6
CONTINUOUS
 62
    3
 10
-39.899999999999693
 20
-16.600000000011278
 11
-39.899999999999693
 21
-24.60000000001196
  0
LINE
  8
_0-9_小物
  6
CONTINUOUS
 62
    3
 10
-36.400000000000148
 20
-24.60000000001196
 11
-35.899999999999238
 21
-24.60000000001196
  0
LINE
  8
_0-9_小物
  6
CONTINUOUS
 62
    3
 10
-30.899999999999693
 20
-16.600000000011278
 11
-40.899999999999693
 21
-16.600000000011278
  0
ENDBLK
  0
BLOCK
  2
-005-_5_
 70
   64
 10
0
 20
0
 30
0
  0
LINE
  8
_0-9_小物
  6
CONTINUOUS
 62
    3
 10
74.508274999999401
 20
-51.379825000011806
 11
74.612944999997751
 21
-53.377085000011675
  0
LINE
  8
_0-9_小物
  6
CONTINUOUS
 62
    3
 10
74.351264999998136
 20
-48.383935000011888
 11
72.40634499999868
 21
-49.487235000011879
  0
LINE
  8
_0-9_小物
  6
CONTINUOUS
 62
    3
 10
72.40634499999868
 20
-49.487235000011879
 11
72.511014999998849
 21
-51.484495000011748
  0
LINE
  8
_0-9_小物
  6
CONTINUOUS
 62
    3
 10
72.511014999998849
 20
-51.484495000011748
 11
74.508274999999401
 21
-51.379825000011806
  0
LINE
  8
_0-9_小物
  6
CONTINUOUS
 62
    3
 10
74.246594999998422
 20
-46.386675000011564
 11
74.351264999998136
 21
-48.383935000011888
  0
LINE
  8
_0-9_小物
  6
CONTINUOUS
 62
    3
 10
74.089584999998522
 20
-43.390790000011521
 11
72.144664999997701
 21
-44.49409000001242
  0
LINE
  8
_0-9_小物
  6
CONTINUOUS
 62
    3
 10
72.144664999997701
 20
-44.49409000001242
 11
72.24933499999878
 21
-46.491350000011607
  0
LINE
  8
_0-9_小物
  6
CONTINUOUS
 62
    3
 10
72.24933499999878
 20
-46.491350000011607
 11
74.246594999998422
 21
-46.386675000011564
  0
LINE
  8
_0-9_小物
  6
CONTINUOUS
 62
    3
 10
73.984914999997898
 20
-41.393530000011424
 11
74.089584999998522
 21
-43.390790000011521
  0
LINE
  8
_0-9_小物
  6
CONTINUOUS
 62
    3
 10
73.827904999998907
 20
-38.397640000012416
 11
71.882984999999451
 21
-39.500940000011497
  0
LINE
  8
_0-9_小物
  6
CONTINUOUS
 62
    3
 10
71.882984999999451
 20
-39.500940000011497
 11
71.987654999997801
 21
-41.498200000011593
  0
LINE
  8
_0-9_小物
  6
CONTINUOUS
 62
    3
 10
71.987654999997801
 20
-41.498200000011593
 11
73.984914999997898
 21
-41.393530000011424
  0
LINE
  8
_0-9_小物
  6
CONTINUOUS
 62
    3
 10
73.723234999998283
 20
-36.400380000011637
 11
73.827904999998907
 21
-38.397640000012416
  0
LINE
  8
_0-9_小物
  6
CONTINUOUS
 62
    3
 10
73.566224999998383
 20
-33.404490000011492
 11
71.621304999998472
 21
-34.507795000011811
  0
LINE
  8
_0-9_小物
  6
CONTINUOUS
 62
    3
 10
71.621304999998472
 20
-34.507795000011811
 11
71.725974999998186
 21
-36.50505500001168
  0
LINE
  8
_0-9_小物
  6
CONTINUOUS
 62
    3
 10
71.725974999998186
 20
-36.50505500001168
 11
73.723234999998283
 21
-36.400380000011637
  0
LINE
  8
_0-9_小物
  6
CONTINUOUS
 62
    3
 10
73.461554999998668
 20
-31.407235000011951
 11
73.566224999998383
 21
-33.404490000011492
  0
LINE
  8
_0-9_小物
  6
CONTINUOUS
 62
    3
 10
71.359624999997948
 20
-29.514645000012024
 11
71.464294999998572
 21
-31.511905000011893
  0
LINE
  8
_0-9_小物
  6
CONTINUOUS
 62
    3
 10
71.464294999998572
 20
-31.511905000011893
 11
73.461554999998668
 21
-31.407235000011951
  0
LINE
  8
_0-9_小物
  6
CONTINUOUS
 62
    3
 10
73.099999999998715
 20
-28.600000000011505
 11
71.359624999997948
 21
-29.514645000012024
  0
LINE
  8
_0-9_小物
  6
CONTINUOUS
 62
    3
 10
63.691724999998485
 20
-51.379825000011806
 11
63.58705499999877
 21
-53.377085000011675
  0
LINE
  8
_0-9_小物
  6
CONTINUOUS
 62
    3
 10
63.848734999998385
 20
-48.383935000011888
 11
65.793654999998296
 21
-49.487235000011879
  0
LINE
  8
_0-9_小物
  6
CONTINUOUS
 62
    3
 10
65.793654999998296
 20
-49.487235000011879
 11
65.688984999998127
 21
-51.484495000011748
  0
LINE
  8
_0-9_小物
  6
CONTINUOUS
 62
    3
 10
65.688984999998127
 20
-51.484495000011748
 11
63.691724999998485
 21
-51.379825000011806
  0
LINE
  8
_0-9_小物
  6
CONTINUOUS
 62
    3
 10
63.953404999999464
 20
-46.386675000011564
 11
63.848734999998385
 21
-48.383935000011888
  0
LINE
  8
_0-9_小物
  6
CONTINUOUS
 62
    3
 10
64.110414999998
 20
-43.390790000011521
 11
66.05533499999791
 21
-44.49409000001242
  0
LINE
  8
_0-9_小物
  6
CONTINUOUS
 62
    3
 10
66.05533499999791
 20
-44.49409000001242
 11
65.950664999999105
 21
-46.491350000011607
  0
LINE
  8
_0-9_小物
  6
CONTINUOUS
 62
    3
 10
65.950664999999105
 20
-46.491350000011607
 11
63.953404999999464
 21
-46.386675000011564
  0
LINE
  8
_0-9_小物
  6
CONTINUOUS
 62
    3
 10
64.215084999997714
 20
-41.393530000011424
 11
64.110414999998
 21
-43.390790000011521
  0
LINE
  8
_0-9_小物
  6
CONTINUOUS
 62
    3
 10
64.372094999997614
 20
-38.397640000012416
 11
66.317014999998435
 21
-39.500940000011497
  0
LINE
  8
_0-9_小物
  6
CONTINUOUS
 62
    3
 10
66.317014999998435
 20
-39.500940000011497
 11
66.21234499999872
 21
-41.498200000011593
  0
LINE
  8
_0-9_小物
  6
CONTINUOUS
 62
    3
 10
66.21234499999872
 20
-41.498200000011593
 11
64.215084999997714
 21
-41.393530000011424
  0
LINE
  8
_0-9_小物
  6
CONTINUOUS
 62
    3
 10
64.476764999998693
 20
-36.400380000011637
 11
64.372094999997614
 21
-38.397640000012416
  0
LINE
  8
_0-9_小物
  6
CONTINUOUS
 62
    3
 10
64.633774999999048
 20
-33.404490000011492
 11
66.578694999999414
 21
-34.507795000011811
  0
LINE
  8
_0-9_小物
  6
CONTINUOUS
 62
    3
 10
66.578694999999414
 20
-34.507795000011811
 11
66.474024999998335
 21
-36.50505500001168
  0
LINE
  8
_0-9_小物
  6
CONTINUOUS
 62
    3
 10
66.474024999998335
 20
-36.50505500001168
 11
64.476764999998693
 21
-36.400380000011637
  0
LINE
  8
_0-9_小物
  6
CONTINUOUS
 62
    3
 10
64.738444999998308
 20
-31.407235000011951
 11
64.633774999999048
 21
-33.404490000011492
  0
LINE
  8
_0-9_小物
  6
CONTINUOUS
 62
    3
 10
66.840374999999028
 20
-29.514645000012024
 11
66.735704999997949
 21
-31.511905000011893
  0
LINE
  8
_0-9_小物
  6
CONTINUOUS
 62
    3
 10
66.735704999997949
 20
-31.511905000011893
 11
64.738444999998308
 21
-31.407235000011951
  0
LINE
  8
_0-9_小物
  6
CONTINUOUS
 62
    3
 10
65.09999999999917
 20
-28.600000000011505
 11
66.840374999999028
 21
-29.514645000012024
  0
LINE
  8
_0-9_小物
  6
CONTINUOUS
 62
    3
 10
73.723234999998283
 20
-36.400380000011637
 11
75.418599999998094
 21
-31.74240000001214
  0
LINE
  8
_0-9_小物
  6
CONTINUOUS
 62
    3
 10
72.659054999998887
 20
-36.400380000011637
 11
74.478909999998621
 21
-31.400380000011864
  0
LINE
  8
_0-9_小物
  6
CONTINUOUS
 62
    3
 10
64.476764999998693
 20
-36.400380000011637
 11
62.78139999999911
 21
-31.74240000001214
  0
LINE
  8
_0-9_小物
  6
CONTINUOUS
 62
    3
 10
65.540944999998089
 20
-36.400380000011637
 11
63.721089999998355
 21
-31.400380000011864
  0
LINE
  8
_0-9_小物
  6
CONTINUOUS
 62
    3
 10
71.117744999998365
 20
-53.560260000012022
 11
74.612944999997751
 21
-53.377085000011675
  0
LINE
  8
_0-9_小物
  6
CONTINUOUS
 62
    3
 10
74.612944999997751
 20
-53.377085000011675
 11
72.720359999998152
 21
-55.479015000011486
  0
LINE
  8
_0-9_小物
  6
CONTINUOUS
 62
    3
 10
72.720359999998152
 20
-55.479015000011486
 11
71.222414999999444
 21
-55.557520000012119
  0
LINE
  8
_0-9_小物
  6
CONTINUOUS
 62
    3
 10
71.222414999999444
 20
-55.557520000012119
 11
69.59999999999917
 21
-24.600000000012187
  0
LINE
  8
_0-9_小物
  6
CONTINUOUS
 62
    3
 10
73.099999999998715
 20
-28.600000000011505
 11
73.099999999998715
 21
-24.600000000012187
  0
LINE
  8
_0-9_小物
  6
CONTINUOUS
 62
    3
 10
67.082254999998156
 20
-53.560260000012022
 11
63.58705499999877
 21
-53.377085000011675
  0
LINE
  8
_0-9_小物
  6
CONTINUOUS
 62
    3
 10
63.58705499999877
 20
-53.377085000011675
 11
65.479639999998369
 21
-55.479015000011486
  0
LINE
  8
_0-9_小物
  6
CONTINUOUS
 62
    3
 10
65.479639999998369
 20
-55.479015000011486
 11
66.977584999998442
 21
-55.557520000012119
  0
LINE
  8
_0-9_小物
  6
CONTINUOUS
 62
    3
 10
66.977584999998442
 20
-55.557520000012119
 11
68.599999999998715
 21
-24.600000000012187
  0
LINE
  8
_0-9_小物
  6
CONTINUOUS
 62
    3
 10
65.09999999999917
 20
-28.600000000011505
 11
65.09999999999917
 21
-24.600000000012187
  0
LINE
  8
_0-9_小物
  6
CONTINUOUS
 62
    3
 10
62.78139999999911
 20
-31.74240000001214
 11
61.789044999998794
 21
-24.938780000011093
  0
ARC
  8
_0-9_小物
  6
CONTINUOUS
 62
    3
 10
62.184854999998777
 20
-24.881045000011682
 40
0.4
 50
98.130101999958413
 51
188.29846600001969
  0
LINE
  8
_0-9_小物
  6
CONTINUOUS
 62
    3
 10
62.128284999997675
 20
-24.485065000011673
 11
62.325109999999029
 21
-24.456950000011375
  0
ARC
  8
_0-9_小物
  6
CONTINUOUS
 62
    3
 10
62.381679999999221
 20
-24.852930000011611
 40
0.4
 50
8.1301020000240456
 51
98.130102000220958
  0
LINE
  8
_0-9_小物
  6
CONTINUOUS
 62
    3
 10
62.777659999999003
 20
-24.796360000011873
 11
63.721089999998355
 21
-31.400380000011864
  0
LINE
  8
_0-9_小物
  6
CONTINUOUS
 62
    3
 10
75.418599999998094
 20
-31.74240000001214
 11
76.41095499999841
 21
-24.938780000011093
  0
ARC
  8
_0-9_小物
  6
CONTINUOUS
 62
    3
 10
76.015144999998427
 20
-24.881045000011682
 40
0.4
 50
351.70153399996417
 51
81.869898000041587
  0
LINE
  8
_0-9_小物
  6
CONTINUOUS
 62
    3
 10
76.071709999998518
 20
-24.485065000011673
 11
75.874889999998175
 21
-24.456950000011375
  0
ARC
  8
_0-9_小物
  6
CONTINUOUS
 62
    3
 10
75.818319999999119
 20
-24.852930000011611
 40
0.4
 50
81.869898000041587
 51
171.86989800000936
  0
LINE
  8
_0-9_小物
  6
CONTINUOUS
 62
    3
 10
75.422339999998201
 20
-24.796360000011873
 11
74.478909999998621
 21
-31.400380000011864
  0
LINE
  8
_0-9_小物
  6
CONTINUOUS
 62
    3
 10
75.418599999998094
 20
-31.74240000001214
 11
76.41095499999841
 21
-24.938780000011093
  0
ARC
  8
_0-9_小物
  6
CONTINUOUS
 62
    3
 10
76.015144999998427
 20
-24.881045000011682
 40
0.4
 50
351.70153399996417
 51
81.869898000041587
  0
LINE
  8
_0-9_小物
  6
CONTINUOUS
 62
    3
 10
76.071709999998518
 20
-24.485065000011673
 11
75.874889999998175
 21
-24.456950000011375
  0
ARC
  8
_0-9_小物
  6
CONTINUOUS
 62
    3
 10
75.818319999999119
 20
-24.852930000011611
 40
0.4
 50
81.869898000041587
 51
171.86989800000936
  0
LINE
  8
_0-9_小物
  6
CONTINUOUS
 62
    3
 10
75.422339999998201
 20
-24.796360000011873
 11
74.478909999998621
 21
-31.400380000011864
  0
LINE
  8
_0-9_小物
  6
CONTINUOUS
 62
    3
 10
74.09999999999917
 20
-16.600000000011505
 11
73.099999999998715
 21
-21.600000000011505
  0
LINE
  8
_0-9_小物
  6
CONTINUOUS
 62
    3
 10
73.099999999998715
 20
-16.600000000011505
 11
73.099999999998715
 21
-24.600000000012187
  0
LINE
  8
_0-9_小物
  6
CONTINUOUS
 62
    3
 10
69.59999999999917
 20
-24.600000000012187
 11
69.099999999999625
 21
-24.600000000012187
  0
LINE
  8
_0-9_小物
  6
CONTINUOUS
 62
    3
 10
69.099999999999625
 20
-21.600000000011505
 11
69.099999999999625
 21
-16.600000000011505
  0
LINE
  8
_0-9_小物
  6
CONTINUOUS
 62
    3
 10
70.099999999998715
 20
-16.600000000011505
 11
69.099999999999625
 21
-21.600000000011505
  0
LINE
  8
_0-9_小物
  6
CONTINUOUS
 62
    3
 10
68.099999999998261
 20
-16.600000000011505
 11
69.099999999999625
 21
-21.600000000011505
  0
LINE
  8
_0-9_小物
  6
CONTINUOUS
 62
    3
 10
64.09999999999917
 20
-16.600000000011505
 11
65.09999999999917
 21
-21.600000000011505
  0
LINE
  8
_0-9_小物
  6
CONTINUOUS
 62
    3
 10
65.09999999999917
 20
-16.600000000011505
 11
65.09999999999917
 21
-24.600000000012187
  0
LINE
  8
_0-9_小物
  6
CONTINUOUS
 62
    3
 10
68.599999999998715
 20
-24.600000000012187
 11
69.099999999999625
 21
-24.600000000012187
  0
LINE
  8
_0-9_小物
  6
CONTINUOUS
 62
    3
 10
74.09999999999917
 20
-16.600000000011505
 11
64.09999999999917
 21
-16.600000000011505
  0
ENDBLK
  0
ENDSEC
  0
SECTION
  2
ENTITIES
  0
LINE
  8
_f-0_
  6
CONTINUOUS
 62
    6
 10
19.999999999999943
 20
20.000000000000114
 11
821
 21
20.000000000000114
  0
LINE
  8
_f-0_
  6
CONTINUOUS
 62
    6
 10
19.999999999999943
 20
554.00000000000023
 11
19.999999999999943
 21
20.000000000000114
  0
LINE
  8
_f-0_
  6
CONTINUOUS
 62
    6
 10
821
 20
554.00000000000023
 11
19.999999999999943
 21
554.00000000000023
  0
LINE
  8
_f-0_
  6
CONTINUOUS
 62
    6
 10
821
 20
20.000000000000114
 11
821
 21
554.00000000000023
  0
LINE
  8
_1-0_
  6
CONTINUOUS
 62
    2
 10
728.60000000000036
 20
356.91927353993935
 11
728.60000000000036
 21
336.91927353994151
  0
LINE
  8
_1-0_
  6
CONTINUOUS
 62
    2
 10
698.60000000000036
 20
373.91927353994163
 11
698.60000000000036
 21
336.91927353994151
  0
LINE
  8
_1-0_
  6
CENTER1
 62
    2
 10
713.60000000000002
 20
356.91927353994151
 11
713.60000000000002
 21
336.91927353994151
  0
LINE
  8
_1-f_
  6
CONTINUOUS
 62
    4
 10
639.19999999999936
 20
401.71927353993937
 11
639.19999999999936
 21
314.91927353994174
  0
LINE
  8
_1-f_
  6
CONTINUOUS
 62
    4
 10
639.19999999999936
 20
314.91927353994174
 11
801
 21
314.91927353994174
  0
LINE
  8
_1-f_
  6
CONTINUOUS
 62
    4
 10
801
 20
401.71927353993937
 11
801
 21
314.91927353994174
  0
LINE
  8
_1-f_
  6
CONTINUOUS
 62
    4
 10
801
 20
401.71927353993937
 11
639.19999999999936
 21
401.71927353993937
  0
LINE
  8
_0-a_
  6
CONTINUOUS
 62
    3
 10
519.60000000001196
 20
315.49999999998897
 11
528.09999999999945
 21
315.49999999998897
  0
LINE
  8
_0-a_
  6
CONTINUOUS
 62
    3
 10
214.09999999999943
 20
305.79999999998893
 11
352.0999999999994
 21
305.79999999998893
  0
LINE
  8
_0-a_
  6
CONTINUOUS
 62
    3
 10
208.09999999999943
 20
303.79999999998893
 11
208.09999999999943
 21
296.79999999998893
  0
LINE
  8
_0-a_
  6
CONTINUOUS
 62
    3
 10
208.09999999999943
 20
296.79999999998893
 11
210.09999999999943
 21
296.79999999998893
  0
LINE
  8
_0-a_
  6
CONTINUOUS
 62
    3
 10
214.09999999999943
 20
305.79999999998893
 11
214.09999999999943
 21
308.79999999998893
  0
LINE
  8
_0-a_
  6
CONTINUOUS
 62
    3
 10
210.09999999999943
 20
302.79999999998893
 11
210.09999999999943
 21
296.79999999998893
  0
LINE
  8
_0-a_
  6
CONTINUOUS
 62
    3
 10
214.09999999999943
 20
308.79999999998893
 11
320.5999999999994
 21
308.79999999998893
  0
LINE
  8
_0-a_
  6
CONTINUOUS
 62
    3
 10
210.09999999999943
 20
302.79999999998893
 11
320.5999999999994
 21
302.79999999998893
  0
LINE
  8
_0-a_
  6
CONTINUOUS
 62
    3
 10
208.09999999999943
 20
303.79999999998893
 11
208.09999999999943
 21
300.79999999998893
  0
LINE
  8
_0-a_
  6
CONTINUOUS
 62
    3
 10
422.0999999999994
 20
308.79999999998893
 11
320.5999999999994
 21
308.79999999998893
  0
LINE
  8
_0-a_
  6
CONTINUOUS
 62
    3
 10
422.0999999999994
 20
305.79999999998893
 11
289.0999999999994
 21
305.79999999998893
  0
LINE
  8
_0-a_
  6
CONTINUOUS
 62
    3
 10
426.0999999999994
 20
302.79999999998893
 11
320.5999999999994
 21
302.79999999998893
  0
LINE
  8
_0-a_
  6
CONTINUOUS
 62
    3
 10
399.60000000000031
 20
281.99999999998875
 11
399.60000000000031
 21
282.99999999998875
  0
LINE
  8
_0-a_
  6
CONTINUOUS
 62
    3
 10
393.60000000000031
 20
287.99999999998875
 11
375.5999999999994
 21
287.99999999998875
  0
LINE
  8
_0-a_
  6
CONTINUOUS
 62
    3
 10
393.60000000000031
 20
286.49999999998875
 11
375.5999999999994
 21
286.49999999998875
  0
LINE
  8
_0-a_
  6
CONTINUOUS
 62
    3
 10
393.60000000000031
 20
287.99999999998875
 11
393.60000000000031
 21
286.49999999998875
  0
LINE
  8
_0-a_
  6
CONTINUOUS
 62
    3
 10
375.5999999999994
 20
287.99999999998875
 11
375.5999999999994
 21
286.49999999998875
  0
LINE
  8
_0-a_
  6
CONTINUOUS
 62
    3
 10
389.10000000000031
 20
287.99999999998875
 11
388.99108721619967
 21
289.24487881498874
  0
LINE
  8
_0-a_
  6
CONTINUOUS
 62
    3
 10
380.20891278369976
 20
289.24487881498874
 11
380.10000000000031
 21
287.99999999998875
  0
ARC
  8
_0-a_
  6
CONTINUOUS
 62
    3
 10
381.19514553489893
 20
289.15859462968831
 40
0.9899999999999997
 50
127.36755803204723
 51
175.0000000012005
  0
ARC
  8
_0-a_
  6
CONTINUOUS
 62
    3
 10
388.00485446509987
 20
289.15859462968831
 40
0.9899999999999997
 50
4.9999999987995034
 51
52.632441967952779
  0
ARC
  8
_0-a_
  6
CONTINUOUS
 62
    3
 10
384.5999999999994
 20
284.69999999998856
 40
6.5999999999999996
 50
52.632441967704736
 51
68.266383543398021
  0
ARC
  8
_0-a_
  6
CONTINUOUS
 62
    3
 10
384.5999999999994
 20
284.69999999998856
 40
6.5999999999999996
 50
111.74840859090317
 51
127.36755803230297
  0
LINE
  8
_0-a_
  6
CONTINUOUS
 62
    3
 10
384.91499999999968
 20
291.25912712958882
 11
384.91499999999968
 21
290.82331223958829
  0
LINE
  8
_0-a_
  6
CONTINUOUS
 62
    3
 10
385.26228868190077
 20
291.25912712958882
 11
384.91499999999968
 21
291.25912712958882
  0
LINE
  8
_0-a_
  6
CONTINUOUS
 62
    3
 10
387.0425032684995
 20
290.82331223958829
 11
385.26228868190077
 21
291.25912712958882
  0
LINE
  8
_0-a_
  6
CONTINUOUS
 62
    3
 10
383.93771131799957
 20
291.25912712958882
 11
382.6378010502994
 21
290.99369130818889
  0
LINE
  8
_0-a_
  6
CONTINUOUS
 62
    3
 10
382.6378010502994
 20
290.99369130818889
 11
382.15749673140084
 21
290.82331223958829
  0
LINE
  8
_0-a_
  6
CONTINUOUS
 62
    3
 10
384.28499999999957
 20
291.25912712958882
 11
383.93771131799957
 21
291.25912712958882
  0
LINE
  8
_0-a_
  6
CONTINUOUS
 62
    3
 10
384.28499999999957
 20
290.82331223958829
 11
384.28499999999957
 21
291.25912712958882
  0
LINE
  8
_0-a_
  6
CONTINUOUS
 62
    3
 10
384.91499999999968
 20
290.82331223958829
 11
384.5999999999994
 21
290.82841741398863
  0
LINE
  8
_0-a_
  6
CONTINUOUS
 62
    3
 10
384.5999999999994
 20
290.82841741398863
 11
384.28499999999957
 21
290.82331223958829
  0
LINE
  8
_0-a_
  6
CONTINUOUS
 62
    3
 10
377.10000000000053
 20
282.99999999998875
 11
377.10000000000053
 21
286.49999999998875
  0
LINE
  8
_0-a_
  6
CONTINUOUS
 62
    3
 10
392.10000000000031
 20
282.99999999998875
 11
392.10000000000031
 21
286.49999999998875
  0
LINE
  8
_0-a_
  6
CONTINUOUS
 62
    3
 10
384.90000000000049
 20
286.49999999998875
 11
384.60000000000008
 21
286.19999999998902
  0
LINE
  8
_0-a_
  6
CONTINUOUS
 62
    3
 10
384.60000000000008
 20
286.19999999998902
 11
384.30000000000035
 21
286.49999999998875
  0
LINE
  8
_0-a_
  6
CONTINUOUS
 62
    3
 10
404.30000000000058
 20
286.49999999998875
 11
384.90000000000049
 21
286.49999999998875
  0
ARC
  8
_0-a_
  6
CONTINUOUS
 62
    3
 10
345.60000000000031
 20
283.99999999998875
 40
1
 50
180
 51
270
  0
LINE
  8
_0-a_
  6
CONTINUOUS
 62
    3
 10
344.60000000000031
 20
295.3000000000003
 11
344.60000000000031
 21
283.99999999998875
  0
ARC
  8
_0-a_
  6
CONTINUOUS
 62
    3
 10
350.60000000000031
 20
289.49999999998875
 40
3
 50
180
 51
270
  0
LINE
  8
_0-a_
  6
CONTINUOUS
 62
    3
 10
343.09999850000071
 20
299.79999800000076
 11
343.09999850000071
 21
294.8000000000003
  0
LINE
  8
_0-a_
  6
CONTINUOUS
 62
    3
 10
343.09999850000071
 20
294.8000000000003
 11
344.5999984999998
 21
294.8000000000003
  0
LINE
  8
_0-a_
  6
CONTINUOUS
 62
    3
 10
347.59999850000025
 20
294.8000000000003
 11
349.09999850000025
 21
294.8000000000003
  0
LINE
  8
_0-a_
  6
CONTINUOUS
 62
    3
 10
349.09999850000025
 20
294.8000000000003
 11
349.09999850000025
 21
299.79999800000076
  0
ARC
  8
_0-a_
  6
CONTINUOUS
 62
    3
 10
346.0999984999998
 20
299.79999800000076
 40
1.7000010000000001
 50
0
 51
180
  0
ARC
  8
_0-a_
  6
CONTINUOUS
 62
    3
 10
346.0999984999998
 20
299.79999800000076
 40
3
 50
0
 51
180
  0
LINE
  8
_0-a_
  6
CONTINUOUS
 62
    3
 10
347.5999925000005
 20
296.79999800000053
 11
347.35614949999984
 21
296.79999800000053
  0
ARC
  8
_0-a_
  6
CONTINUOUS
 62
    3
 10
347.35614949999984
 20
296.60000000000048
 40
0.200001
 50
90
 51
194.03640199995928
  0
LINE
  8
_0-a_
  6
CONTINUOUS
 62
    3
 10
347.59999850000025
 20
294.8000000000003
 11
347.16212149999996
 21
296.55149300000051
  0
LINE
  8
_0-a_
  6
CONTINUOUS
 62
    3
 10
344.5999984999998
 20
296.79999800000053
 11
344.84384449999988
 21
296.79999800000053
  0
ARC
  8
_0-a_
  6
CONTINUOUS
 62
    3
 10
344.84384449999988
 20
296.60000000000048
 40
0.200001
 50
345.96380800005915
 51
90
  0
LINE
  8
_0-a_
  6
CONTINUOUS
 62
    3
 10
344.60000149999991
 20
294.8000000000003
 11
345.0378725000009
 21
296.55149300000051
  0
LINE
  8
_0-a_
  6
CONTINUOUS
 62
    3
 10
347.5999925000005
 20
296.79999800000053
 11
347.79999349999974
 21
296.79999800000053
  0
LINE
  8
_0-a_
  6
CONTINUOUS
 62
    3
 10
347.79999349999974
 20
296.79999800000053
 11
347.79999949999996
 21
299.79999800000076
  0
LINE
  8
_0-a_
  6
CONTINUOUS
 62
    3
 10
344.60000149999991
 20
296.79999800000053
 11
344.3999975000001
 21
296.79999800000053
  0
LINE
  8
_0-a_
  6
CONTINUOUS
 62
    3
 10
344.3999975000001
 20
296.79999800000053
 11
344.3999975000001
 21
299.79999800000076
  0
LINE
  8
_0-a_
  6
CONTINUOUS
 62
    3
 10
345.10000000000099
 20
296.8000000000003
 11
344.60000000000031
 21
294.8000000000003
  0
LINE
  8
_0-a_
  6
CONTINUOUS
 62
    3
 10
344.60000000000031
 20
296.8000000000003
 11
345.10000000000099
 21
296.8000000000003
  0
LINE
  8
_0-a_
  6
CONTINUOUS
 62
    3
 10
344.60000000000031
 20
299.80000000000052
 11
344.60000000000031
 21
296.8000000000003
  0
ARC
  8
_0-a_
  6
CONTINUOUS
 62
    3
 10
346.10000000000031
 20
299.80000000000052
 40
1.5
 50
0
 51
180
  0
LINE
  8
_0-a_
  6
CONTINUOUS
 62
    3
 10
347.60000000000076
 20
296.8000000000003
 11
347.60000000000076
 21
299.80000000000052
  0
LINE
  8
_0-a_
  6
CONTINUOUS
 62
    3
 10
347.10000000000053
 20
296.8000000000003
 11
347.60000000000076
 21
296.8000000000003
  0
LINE
  8
_0-a_
  6
CONTINUOUS
 62
    3
 10
347.60000000000076
 20
294.8000000000003
 11
347.10000000000053
 21
296.8000000000003
  0
LINE
  8
_0-a_
  6
CONTINUOUS
 62
    3
 10
347.60000000000076
 20
288.99999999998875
 11
347.60000000000076
 21
294.8000000000003
  0
LINE
  8
_0-a_
  6
CONTINUOUS
 62
    3
 10
344.60000000000031
 20
295.3000000000003
 11
344.60000000000031
 21
283.99999999998875
  0
LINE
  8
_0-a_
  6
CONTINUOUS
 62
    3
 10
384.30000000000035
 20
286.49999999998875
 11
350.60000000000031
 21
286.49999999998875
  0
LINE
  8
_0-a_
  6
CONTINUOUS
 62
    3
 10
345.60000000000031
 20
282.99999999998875
 11
399.60000000000031
 21
282.99999999998875
  0
LINE
  8
_0-a_
  6
CONTINUOUS
 62
    3
 10
424.60000000000053
 20
286.49999999998875
 11
393.60000000000031
 21
286.49999999998875
  0
LINE
  8
_0-a_
  6
CONTINUOUS
 62
    3
 10
208.09999999999943
 20
303.79999999998893
 11
208.09999999999943
 21
296.79999999998893
  0
LINE
  8
_0-a_
  6
CONTINUOUS
 62
    3
 10
208.09999999999943
 20
296.79999999998893
 11
210.09999999999943
 21
296.79999999998893
  0
LINE
  8
_0-a_
  6
CONTINUOUS
 62
    3
 10
208.09999999999943
 20
303.79999999998893
 11
208.09999999999943
 21
296.79999999998893
  0
LINE
  8
_0-a_
  6
CONTINUOUS
 62
    3
 10
214.09999999999943
 20
305.79999999998893
 11
214.09999999999943
 21
308.79999999998893
  0
LINE
  8
_0-a_
  6
CONTINUOUS
 62
    3
 10
210.09999999999943
 20
302.79999999998893
 11
210.09999999999943
 21
296.79999999998893
  0
LINE
  8
_0-a_
  6
CONTINUOUS
 62
    3
 10
208.09999999999943
 20
303.79999999998893
 11
208.09999999999943
 21
296.79999999998893
  0
LINE
  8
_0-a_
  6
CONTINUOUS
 62
    3
 10
208.09999999999943
 20
296.79999999998893
 11
210.09999999999943
 21
296.79999999998893
  0
LINE
  8
_0-a_
  6
CONTINUOUS
 62
    3
 10
208.09999999999943
 20
303.79999999998893
 11
208.09999999999943
 21
296.79999999998893
  0
LINE
  8
_0-a_
  6
CONTINUOUS
 62
    3
 10
210.09999999999943
 20
302.79999999998893
 11
210.09999999999943
 21
296.79999999998893
  0
LINE
  8
_0-a_
  6
CONTINUOUS
 62
    3
 10
214.09999999999943
 20
305.79999999998893
 11
214.09999999999943
 21
308.29999999998893
  0
LINE
  8
_0-a_
  6
CONTINUOUS
 62
    3
 10
214.09999999999943
 20
308.29999999998893
 11
214.09999999999943
 21
308.79999999998893
  0
LINE
  8
_0-a_
  6
CONTINUOUS
 62
    3
 10
214.09999999999943
 20
308.4999999999776
 11
212.09999999999943
 21
308.4999999999776
  0
LINE
  8
_0-a_
  6
CONTINUOUS
 62
    3
 10
212.09999999999943
 20
308.4999999999776
 11
208.09999999999943
 21
303.79999999998893
  0
ARC
  8
_0-a_
  6
CONTINUOUS
 62
    3
 10
352.60000000000031
 20
313.99999999998897
 40
1
 50
0
 51
90
  0
LINE
  8
_0-a_
  6
CONTINUOUS
 62
    3
 10
353.60000000000031
 20
313.99999999998897
 11
353.60000000000031
 21
310.99999999998897
  0
ARC
  8
_0-a_
  6
CONTINUOUS
 62
    3
 10
352.60000000000031
 20
313.99999999998897
 40
1
 50
0
 51
90
  0
LINE
  8
_0-a_
  6
CONTINUOUS
 62
    3
 10
344.60000000000031
 20
308.49999999998897
 11
344.60000000000031
 21
310.49999999998897
  0
LINE
  8
_0-a_
  6
CONTINUOUS
 62
    3
 10
352.30000000000035
 20
314.99999999998897
 11
344.60000000000031
 21
310.49999999998897
  0
LINE
  8
_0-a_
  6
CONTINUOUS
 62
    3
 10
344.60000000000031
 20
308.49999999998897
 11
344.60000000000031
 21
310.49999999998897
  0
ARC
  8
_0-a_
  6
CONTINUOUS
 62
    3
 10
352.60000000000031
 20
313.99999999998897
 40
1
 50
0
 51
90
  0
LINE
  8
_0-a_
  6
CONTINUOUS
 62
    3
 10
344.60000000000031
 20
308.49999999998897
 11
344.60000000000031
 21
310.49999999998897
  0
LINE
  8
_0-a_
  6
CONTINUOUS
 62
    3
 10
353.60000000000031
 20
313.99999999998897
 11
353.60000000000031
 21
310.99999999998897
  0
LINE
  8
_0-a_
  6
CONTINUOUS
 62
    3
 10
353.60000000000031
 20
313.99999999998897
 11
353.60000000000031
 21
310.99999999998897
  0
LINE
  8
_0-a_
  6
CONTINUOUS
 62
    3
 10
344.60000000000031
 20
308.49999999998897
 11
344.60000000000031
 21
310.49999999998897
  0
ARC
  8
_0-a_
  6
CONTINUOUS
 62
    3
 10
352.60000000000031
 20
313.99999999998897
 40
1
 50
0
 51
90
  0
LINE
  8
_0-a_
  6
CONTINUOUS
 62
    3
 10
352.30000000000035
 20
314.99999999998897
 11
352.60000000000031
 21
314.99999999998897
  0
LINE
  8
_0-a_
  6
CONTINUOUS
 62
    3
 10
352.60000000000031
 20
314.99999999998897
 11
352.30000000000035
 21
314.99999999998897
  0
LINE
  8
_0-a_
  6
CONTINUOUS
 62
    3
 10
352.30000000000035
 20
314.99999999998897
 11
352.60000000000031
 21
314.99999999998897
  0
LINE
  8
_0-a_
  6
CONTINUOUS
 62
    3
 10
424.60000000000053
 20
286.49999999998875
 11
427.10000000000031
 21
285.4999999999892
  0
LINE
  8
_0-a_
  6
CONTINUOUS
 62
    3
 10
487.0999999999994
 20
285.49999999998875
 11
427.10000000000031
 21
285.49999999998875
  0
LINE
  8
_0-a_
  6
CONTINUOUS
 62
    3
 10
498.59999999999962
 20
286.99999999998875
 11
480.59999999999849
 21
286.99999999998875
  0
LINE
  8
_0-a_
  6
CONTINUOUS
 62
    3
 10
498.59999999999962
 20
285.49999999998875
 11
480.59999999999849
 21
285.49999999998875
  0
LINE
  8
_0-a_
  6
CONTINUOUS
 62
    3
 10
498.59999999999962
 20
286.99999999998875
 11
498.59999999999962
 21
285.49999999998875
  0
LINE
  8
_0-a_
  6
CONTINUOUS
 62
    3
 10
480.59999999999849
 20
286.99999999998875
 11
480.59999999999849
 21
285.49999999998875
  0
LINE
  8
_0-a_
  6
CONTINUOUS
 62
    3
 10
494.09999999999962
 20
286.99999999998875
 11
493.99108721619899
 21
288.24487881498874
  0
LINE
  8
_0-a_
  6
CONTINUOUS
 62
    3
 10
485.20891278369885
 20
288.24487881498874
 11
485.09999999999962
 21
286.99999999998875
  0
ARC
  8
_0-a_
  6
CONTINUOUS
 62
    3
 10
486.19514553489802
 20
288.15859462968831
 40
0.9899999999999997
 50
127.36755803204723
 51
175.0000000012005
  0
ARC
  8
_0-a_
  6
CONTINUOUS
 62
    3
 10
493.00485446509896
 20
288.15859462968831
 40
0.9899999999999997
 50
4.9999999987995034
 51
52.632441967952779
  0
ARC
  8
_0-a_
  6
CONTINUOUS
 62
    3
 10
489.59999999999849
 20
283.69999999998856
 40
6.5999999999999996
 50
52.632441967704736
 51
68.266383543398021
  0
ARC
  8
_0-a_
  6
CONTINUOUS
 62
    3
 10
489.59999999999849
 20
283.69999999998856
 40
6.5999999999999996
 50
111.74840859090317
 51
127.36755803230515
  0
LINE
  8
_0-a_
  6
CONTINUOUS
 62
    3
 10
489.914999999999
 20
290.25912712958882
 11
489.914999999999
 21
289.82331223958829
  0
LINE
  8
_0-a_
  6
CONTINUOUS
 62
    3
 10
490.26228868190009
 20
290.25912712958882
 11
489.914999999999
 21
290.25912712958882
  0
LINE
  8
_0-a_
  6
CONTINUOUS
 62
    3
 10
492.04250326849882
 20
289.82331223958829
 11
490.26228868190009
 21
290.25912712958882
  0
LINE
  8
_0-a_
  6
CONTINUOUS
 62
    3
 10
488.93771131799889
 20
290.25912712958882
 11
487.63780105029872
 21
289.99369130818889
  0
LINE
  8
_0-a_
  6
CONTINUOUS
 62
    3
 10
487.63780105029872
 20
289.99369130818889
 11
487.15749673140016
 21
289.82331223958829
  0
LINE
  8
_0-a_
  6
CONTINUOUS
 62
    3
 10
489.28499999999889
 20
290.25912712958882
 11
488.93771131799889
 21
290.25912712958882
  0
LINE
  8
_0-a_
  6
CONTINUOUS
 62
    3
 10
489.28499999999889
 20
289.82331223958829
 11
489.28499999999889
 21
290.25912712958882
  0
LINE
  8
_0-a_
  6
CONTINUOUS
 62
    3
 10
489.914999999999
 20
289.82331223958829
 11
489.59999999999849
 21
289.82841741398863
  0
LINE
  8
_0-a_
  6
CONTINUOUS
 62
    3
 10
489.59999999999849
 20
289.82841741398863
 11
489.28499999999889
 21
289.82331223958829
  0
LINE
  8
_0-a_
  6
CONTINUOUS
 62
    3
 10
482.09999999999962
 20
282.99999999998875
 11
482.09999999999962
 21
285.49999999998875
  0
LINE
  8
_0-a_
  6
CONTINUOUS
 62
    3
 10
497.09999999999962
 20
282.99999999998875
 11
497.09999999999962
 21
285.49999999998875
  0
LINE
  8
_0-a_
  6
CONTINUOUS
 62
    3
 10
489.60000000000099
 20
285.19999999998856
 11
489.30000000000126
 21
285.4999999999892
  0
LINE
  8
_0-a_
  6
CONTINUOUS
 62
    3
 10
489.90000000000072
 20
285.4999999999892
 11
489.60000000000099
 21
285.19999999998856
  0
LINE
  8
_0-a_
  6
CONTINUOUS
 62
    3
 10
428.0999999999994
 20
303.79999999998893
 11
428.0999999999994
 21
296.79999999998893
  0
LINE
  8
_0-a_
  6
CONTINUOUS
 62
    3
 10
428.0999999999994
 20
303.79999999998893
 11
428.0999999999994
 21
296.79999999998893
  0
LINE
  8
_0-a_
  6
CONTINUOUS
 62
    3
 10
428.0999999999994
 20
296.79999999998893
 11
426.0999999999994
 21
296.79999999998893
  0
LINE
  8
_0-a_
  6
CONTINUOUS
 62
    3
 10
428.0999999999994
 20
303.79999999998893
 11
428.0999999999994
 21
296.79999999998893
  0
LINE
  8
_0-a_
  6
CONTINUOUS
 62
    3
 10
422.0999999999994
 20
305.79999999998893
 11
422.0999999999994
 21
308.79999999998893
  0
LINE
  8
_0-a_
  6
CONTINUOUS
 62
    3
 10
426.0999999999994
 20
302.79999999998893
 11
426.0999999999994
 21
296.79999999998893
  0
LINE
  8
_0-a_
  6
CONTINUOUS
 62
    3
 10
428.0999999999994
 20
303.79999999998893
 11
428.0999999999994
 21
296.79999999998893
  0
LINE
  8
_0-a_
  6
CONTINUOUS
 62
    3
 10
428.0999999999994
 20
303.79999999998893
 11
428.0999999999994
 21
296.79999999998893
  0
LINE
  8
_0-a_
  6
CONTINUOUS
 62
    3
 10
428.0999999999994
 20
296.79999999998893
 11
426.0999999999994
 21
296.79999999998893
  0
LINE
  8
_0-a_
  6
CONTINUOUS
 62
    3
 10
428.0999999999994
 20
303.79999999998893
 11
428.0999999999994
 21
296.79999999998893
  0
LINE
  8
_0-a_
  6
CONTINUOUS
 62
    3
 10
422.0999999999994
 20
305.79999999998893
 11
422.0999999999994
 21
308.79999999998893
  0
LINE
  8
_0-a_
  6
CONTINUOUS
 62
    3
 10
426.0999999999994
 20
302.79999999998893
 11
426.0999999999994
 21
296.79999999998893
  0
LINE
  8
_0-a_
  6
CONTINUOUS
 62
    3
 10
424.0999999999994
 20
308.49999999998897
 11
422.0999999999994
 21
308.49999999998897
  0
LINE
  8
_0-a_
  6
CONTINUOUS
 62
    3
 10
424.0999999999994
 20
308.49999999998897
 11
428.0999999999994
 21
303.79999999998893
  0
ARC
  8
_0-a_
  6
CONTINUOUS
 62
    3
 10
513.10000000000059
 20
287.49999999998875
 40
2
 50
270
 51
0
  0
LINE
  8
_0-a_
  6
CONTINUOUS
 62
    3
 10
517.60000000000059
 20
282.99999999998875
 11
517.60000000000059
 21
281.99999999998875
  0
LINE
  8
_0-a_
  6
CONTINUOUS
 62
    3
 10
502.60000000000031
 20
314.49999999998897
 11
502.60000000000031
 21
310.9999999999892
  0
LINE
  8
_0-a_
  6
CONTINUOUS
 62
    3
 10
519.59999999999945
 20
313.99999999998897
 11
551.2442132566573
 21
313.99999999998897
  0
LINE
  8
_0-a_
  6
CONTINUOUS
 62
    3
 10
514.10000000000036
 20
306.99999999998897
 11
510.40000000000003
 21
306.99999999998897
  0
LINE
  8
_0-a_
  6
CONTINUOUS
 62
    3
 10
509.79999999999967
 20
306.99999999998897
 11
506.09999999999985
 21
306.99999999998897
  0
LINE
  8
_0-a_
  6
CONTINUOUS
 62
    3
 10
504.59999999999985
 20
304.4999999999892
 11
514.10000000000036
 21
304.4999999999892
  0
LINE
  8
_0-a_
  6
CONTINUOUS
 62
    3
 10
502.60000000000031
 20
308.49999999998897
 11
502.60000000000031
 21
306.4999999999892
  0
ARC
  8
_0-a_
  6
CONTINUOUS
 62
    3
 10
504.59999999999985
 20
306.4999999999892
 40
2
 50
180
 51
270
  0
ARC
  8
_0-a_
  6
CONTINUOUS
 62
    3
 10
514.10000000000036
 20
303.4999999999892
 40
1
 50
0
 51
90
  0
ARC
  8
_0-a_
  6
CONTINUOUS
 62
    3
 10
504.59999999999985
 20
306.4999999999892
 40
2
 50
180
 51
270
  0
LINE
  8
_0-a_
  6
CONTINUOUS
 62
    3
 10
506.09999999999985
 20
308.49999999998897
 11
502.60000000000031
 21
308.49999999998897
  0
LINE
  8
_0-a_
  6
CONTINUOUS
 62
    3
 10
517.60000000000014
 20
303.99999999998897
 11
517.60000000000014
 21
307.83157694658996
  0
LINE
  8
_0-a_
  6
CONTINUOUS
 62
    3
 10
517.60000000000059
 20
303.99999999998897
 11
517.60000000000059
 21
308.49999999998897
  0
LINE
  8
_0-a_
  6
CONTINUOUS
 62
    3
 10
520.10000000000036
 20
303.4999999999892
 11
518.10000000000014
 21
303.4999999999892
  0
ARC
  8
_0-a_
  6
CONTINUOUS
 62
    3
 10
518.59999999999991
 20
300.99999999998897
 40
1
 50
90
 51
180
  0
LINE
  8
_0-a_
  6
CONTINUOUS
 62
    3
 10
518.59999999999991
 20
301.9999999999892
 11
521.10000000000014
 21
301.9999999999892
  0
ARC
  8
_0-a_
  6
CONTINUOUS
 62
    3
 10
521.10000000000014
 20
302.49999999998897
 40
0.5
 50
270
 51
0
  0
ARC
  8
_0-a_
  6
CONTINUOUS
 62
    3
 10
520.84999999999991
 20
310.2499999999892
 40
0.75
 50
0
 51
180
  0
ARC
  8
_0-a_
  6
CONTINUOUS
 62
    3
 10
518.10000000000014
 20
303.99999999998897
 40
0.5
 50
180
 51
270
  0
LINE
  8
_0-a_
  6
CONTINUOUS
 62
    3
 10
520.10000000000036
 20
310.2499999999892
 11
520.10000000000036
 21
303.4999999999892
  0
LINE
  8
_0-a_
  6
CONTINUOUS
 62
    3
 10
517.60000000000059
 20
304.02598353495125
 11
517.60000000000059
 21
306.00000000000034
  0
LINE
  8
_0-a_
  6
CONTINUOUS
 62
    3
 10
514.10000000000036
 20
312.4999999999892
 11
506.09999999999985
 21
312.4999999999892
  0
LINE
  8
_0-a_
  6
CONTINUOUS
 62
    3
 10
506.09999999999985
 20
306.99999999998897
 11
506.09999999999985
 21
312.4999999999892
  0
LINE
  8
_0-a_
  6
CONTINUOUS
 62
    3
 10
512.85000000000014
 20
312.49999999998897
 11
507.35000000000031
 21
312.49999999998897
  0
LINE
  8
_0-a_
  6
CONTINUOUS
 62
    3
 10
515.10000000000014
 20
315.29999999998893
 11
511.99999999999972
 21
312.19999999998902
  0
LINE
  8
_0-a_
  6
CONTINUOUS
 62
    3
 10
505.10000000000031
 20
315.29999999998893
 11
508.20000000000044
 21
312.19999999998902
  0
LINE
  8
_0-a_
  6
CONTINUOUS
 62
    3
 10
515.10000000000014
 20
315.49999999998897
 11
515.10000000000014
 21
315.29999999998893
  0
LINE
  8
_0-a_
  6
CONTINUOUS
 62
    3
 10
515.10000000000014
 20
315.29999999998893
 11
505.10000000000031
 21
315.29999999998893
  0
LINE
  8
_0-a_
  6
CONTINUOUS
 62
    3
 10
505.10000000000031
 20
315.49999999998897
 11
505.10000000000031
 21
315.29999999998893
  0
LINE
  8
_0-a_
  6
CONTINUOUS
 62
    3
 10
512.85000000000014
 20
312.99999999998897
 11
512.85000000000014
 21
312.49999999998897
  0
LINE
  8
_0-a_
  6
CONTINUOUS
 62
    3
 10
507.35000000000031
 20
312.99999999998897
 11
507.35000000000031
 21
312.49999999998897
  0
LINE
  8
_0-a_
  6
CONTINUOUS
 62
    3
 10
507.35000000000031
 20
312.99999999998897
 11
512.85000000000014
 21
312.99999999998897
  0
LINE
  8
_0-a_
  6
CONTINUOUS
 62
    3
 10
510.40000000000003
 20
315.49999999998897
 11
510.09999999999985
 21
315.19999999998879
  0
LINE
  8
_0-a_
  6
CONTINUOUS
 62
    3
 10
510.09999999999985
 20
315.19999999998879
 11
509.80000000000013
 21
315.49999999998897
  0
LINE
  8
_0-a_
  6
CONTINUOUS
 62
    3
 10
515.10000000000014
 20
315.49999999998897
 11
505.10000000000031
 21
315.49999999998897
  0
LINE
  8
_0-a_
  6
CONTINUOUS
 62
    3
 10
521.60000000000036
 20
302.49999999998897
 11
521.60000000000036
 21
310.2499999999892
  0
LINE
  8
_0-a_
  6
CONTINUOUS
 62
    3
 10
521.60000000000036
 20
310.2499999999892
 11
521.60000000000036
 21
310.99999999998897
  0
ARC
  8
_0-a_
  6
CONTINUOUS
 62
    3
 10
503.60000000000053
 20
314.49999999998897
 40
1
 50
90
 51
180
  0
LINE
  8
_0-a_
  6
CONTINUOUS
 62
    3
 10
503.60000000000053
 20
315.49999999998897
 11
519.59999999999945
 21
315.49999999998897
  0
LINE
  8
_0-a_
  6
CONTINUOUS
 62
    3
 10
521.60000000000036
 20
302.49999999998897
 11
521.60000000000036
 21
310.2499999999892
  0
LINE
  8
_0-a_
  6
CONTINUOUS
 62
    3
 10
521.60000000000036
 20
310.24999999998897
 11
521.60000000000036
 21
310.99999999998875
  0
LINE
  8
_0-a_
  6
CONTINUOUS
 62
    3
 10
521.60000000000036
 20
310.2499999999892
 11
521.60000000000036
 21
310.99999999998897
  0
LINE
  8
_0-a_
  6
CONTINUOUS
 62
    3
 10
514.10000000000036
 20
308.49999999998897
 11
514.10000000000036
 21
306.99999999998897
  0
ARC
  8
_0-a_
  6
CONTINUOUS
 62
    3
 10
519.09999999999945
 20
305.4999999999892
 40
0.5
 50
270
 51
0
  0
LINE
  8
_0-a_
  6
CONTINUOUS
 62
    3
 10
518.10000000000036
 20
304.9999999999892
 11
519.09999999999945
 21
304.9999999999892
  0
ARC
  8
_0-a_
  6
CONTINUOUS
 62
    3
 10
518.10000000000036
 20
305.4999999999892
 40
0.5
 50
180
 51
270
  0
LINE
  8
_0-a_
  6
CONTINUOUS
 62
    3
 10
519.59999999999945
 20
305.4999999999892
 11
519.59999999999945
 21
313.99999999998897
  0
LINE
  8
_0-a_
  6
CONTINUOUS
 62
    3
 10
514.10000000000036
 20
312.4999999999892
 11
514.10000000000036
 21
308.49999999998897
  0
LINE
  8
_0-a_
  6
CONTINUOUS
 62
    3
 10
517.59999999999991
 20
308.49999999998897
 11
517.59999999999991
 21
304.9999999999892
  0
LINE
  8
_0-a_
  6
CONTINUOUS
 62
    3
 10
514.10000000000036
 20
308.49999999998897
 11
517.59999999999991
 21
308.49999999998897
  0
LINE
  8
_0-a_
  6
CONTINUOUS
 62
    3
 10
515.10000000000059
 20
303.4999999999892
 11
515.10000000000059
 21
287.49999999998875
  0
LINE
  8
_0-a_
  6
CONTINUOUS
 62
    3
 10
515.09999999999945
 20
303.4999999999892
 11
515.09999999999945
 21
287.49999999998875
  0
LINE
  8
_0-a_
  6
CONTINUOUS
 62
    3
 10
510.40000000000003
 20
306.99999999998897
 11
510.10000000000031
 21
306.69999999998925
  0
LINE
  8
_0-a_
  6
CONTINUOUS
 62
    3
 10
510.10000000000031
 20
306.69999999998925
 11
509.79999999999967
 21
306.99999999998897
  0
LINE
  8
_0-a_
  6
CONTINUOUS
 62
    3
 10
511.85000000000053
 20
303.19999999998902
 11
511.85000000000053
 21
297.85677313258464
  0
LINE
  8
_0-a_
  6
CONTINUOUS
 62
    3
 10
511.8900000000005
 20
308.00301343866192
 11
511.8900000000005
 21
307.20738171933169
  0
LINE
  8
_0-a_
  6
CONTINUOUS
 62
    3
 10
511.8900000000005
 20
306.50301343866192
 11
511.8900000000005
 21
305.70738171933169
  0
LINE
  8
_0-a_
  6
CONTINUOUS
 62
    3
 10
511.8900000000005
 20
305.00301343866192
 11
511.8900000000005
 21
303.19999999998902
  0
LINE
  8
_0-a_
  6
CONTINUOUS
 62
    3
 10
511.8900000000005
 20
309.19999999998902
 11
511.8900000000005
 21
308.70738171933169
  0
LINE
  8
_0-a_
  6
CONTINUOUS
 62
    3
 10
508.31000000000012
 20
303.69999999998902
 11
508.31000000000012
 21
303.19999999998902
  0
LINE
  8
_0-a_
  6
CONTINUOUS
 62
    3
 10
508.31000000000012
 20
305.19999999998902
 11
508.31000000000012
 21
304.40436828065879
  0
LINE
  8
_0-a_
  6
CONTINUOUS
 62
    3
 10
508.31000000000012
 20
306.69999999998902
 11
508.31000000000012
 21
305.90436828065879
  0
LINE
  8
_0-a_
  6
CONTINUOUS
 62
    3
 10
508.31000000000012
 20
308.19999999998902
 11
508.31000000000012
 21
307.40436828065879
  0
LINE
  8
_0-a_
  6
CONTINUOUS
 62
    3
 10
508.31000000000012
 20
309.19999999998902
 11
508.31000000000012
 21
308.90436828065879
  0
LINE
  8
_0-a_
  6
CONTINUOUS
 62
    3
 10
510.10000000000031
 20
309.20369085966047
 11
507.69999999999999
 21
308.5521841403239
  0
LINE
  8
_0-a_
  6
CONTINUOUS
 62
    3
 10
508.31000000000012
 20
308.19999999998902
 11
510.10000000000031
 21
308.85150671932558
  0
LINE
  8
_0-a_
  6
CONTINUOUS
 62
    3
 10
508.31000000000012
 20
308.90436828065879
 11
509.12224147333467
 21
309.19999999998902
  0
LINE
  8
_0-a_
  6
CONTINUOUS
 62
    3
 10
512.15000000000032
 20
303.19999999998902
 11
512.15000000000032
 21
297.68356805182759
  0
LINE
  8
_0-a_
  6
CONTINUOUS
 62
    3
 10
512.15000000000032
 20
303.19999999998902
 11
508.05000000000035
 21
303.19999999998902
  0
LINE
  8
_0-a_
  6
CONTINUOUS
 62
    3
 10
508.05000000000035
 20
303.19999999998902
 11
508.05000000000035
 21
297.68356805182759
  0
LINE
  8
_0-a_
  6
CONTINUOUS
 62
    3
 10
507.69999999999999
 20
308.5521841403239
 11
508.31000000000012
 21
308.90436828065879
  0
LINE
  8
_0-a_
  6
CONTINUOUS
 62
    3
 10
508.31000000000012
 20
308.19999999998902
 11
507.69999999999999
 21
308.5521841403239
  0
LINE
  8
_0-a_
  6
CONTINUOUS
 62
    3
 10
512.50000000000068
 20
308.35519757899681
 11
507.69999999999999
 21
307.0521841403239
  0
LINE
  8
_0-a_
  6
CONTINUOUS
 62
    3
 10
508.31000000000012
 20
306.69999999998902
 11
511.8900000000005
 21
308.00301343866192
  0
LINE
  8
_0-a_
  6
CONTINUOUS
 62
    3
 10
508.31000000000012
 20
307.40436828065879
 11
511.8900000000005
 21
308.70738171933169
  0
LINE
  8
_0-a_
  6
CONTINUOUS
 62
    3
 10
507.69999999999999
 20
307.0521841403239
 11
508.31000000000012
 21
307.40436828065879
  0
LINE
  8
_0-a_
  6
CONTINUOUS
 62
    3
 10
508.31000000000012
 20
306.69999999998902
 11
507.69999999999999
 21
307.0521841403239
  0
LINE
  8
_0-a_
  6
CONTINUOUS
 62
    3
 10
512.50000000000068
 20
308.35519757899681
 11
511.8900000000005
 21
308.00301343866192
  0
LINE
  8
_0-a_
  6
CONTINUOUS
 62
    3
 10
511.8900000000005
 20
308.70738171933169
 11
512.50000000000068
 21
308.35519757899681
  0
LINE
  8
_0-a_
  6
CONTINUOUS
 62
    3
 10
512.50000000000068
 20
306.85519757899681
 11
507.69999999999999
 21
305.5521841403239
  0
LINE
  8
_0-a_
  6
CONTINUOUS
 62
    3
 10
508.31000000000012
 20
305.19999999998902
 11
511.8900000000005
 21
306.50301343866192
  0
LINE
  8
_0-a_
  6
CONTINUOUS
 62
    3
 10
508.31000000000012
 20
305.90436828065879
 11
511.8900000000005
 21
307.20738171933169
  0
LINE
  8
_0-a_
  6
CONTINUOUS
 62
    3
 10
507.69999999999999
 20
305.5521841403239
 11
508.31000000000012
 21
305.90436828065879
  0
LINE
  8
_0-a_
  6
CONTINUOUS
 62
    3
 10
508.31000000000012
 20
305.19999999998902
 11
507.69999999999999
 21
305.5521841403239
  0
LINE
  8
_0-a_
  6
CONTINUOUS
 62
    3
 10
512.50000000000068
 20
306.85519757899681
 11
511.8900000000005
 21
306.50301343866192
  0
LINE
  8
_0-a_
  6
CONTINUOUS
 62
    3
 10
511.8900000000005
 20
307.20738171933169
 11
512.50000000000068
 21
306.85519757899681
  0
LINE
  8
_0-a_
  6
CONTINUOUS
 62
    3
 10
512.50000000000068
 20
305.35519757899681
 11
507.69999999999999
 21
304.0521841403239
  0
LINE
  8
_0-a_
  6
CONTINUOUS
 62
    3
 10
508.31000000000012
 20
303.69999999998902
 11
511.8900000000005
 21
305.00301343866192
  0
LINE
  8
_0-a_
  6
CONTINUOUS
 62
    3
 10
508.31000000000012
 20
304.40436828065879
 11
511.8900000000005
 21
305.70738171933169
  0
LINE
  8
_0-a_
  6
CONTINUOUS
 62
    3
 10
507.69999999999999
 20
304.0521841403239
 11
508.31000000000012
 21
304.40436828065879
  0
LINE
  8
_0-a_
  6
CONTINUOUS
 62
    3
 10
508.31000000000012
 20
303.69999999998902
 11
507.69999999999999
 21
304.0521841403239
  0
LINE
  8
_0-a_
  6
CONTINUOUS
 62
    3
 10
512.50000000000068
 20
305.35519757899681
 11
511.8900000000005
 21
305.00301343866192
  0
LINE
  8
_0-a_
  6
CONTINUOUS
 62
    3
 10
511.8900000000005
 20
305.70738171933169
 11
512.50000000000068
 21
305.35519757899681
  0
LINE
  8
_0-a_
  6
CONTINUOUS
 62
    3
 10
510.10000000000031
 20
296.84641016150283
 11
508.9796906871199
 21
303.19999999998902
  0
LINE
  8
_0-a_
  6
CONTINUOUS
 62
    3
 10
510.10000000000031
 20
296.84641016150283
 11
508.35000000000008
 21
297.85677313258464
  0
LINE
  8
_0-a_
  6
CONTINUOUS
 62
    3
 10
508.35000000000008
 20
303.19999999998902
 11
508.35000000000008
 21
297.85677313258464
  0
LINE
  8
_0-a_
  6
CONTINUOUS
 62
    3
 10
511.89000000000027
 20
303.69999999998902
 11
511.89000000000027
 21
303.19999999998902
  0
LINE
  8
_0-a_
  6
CONTINUOUS
 62
    3
 10
508.05000000000035
 20
303.19999999998902
 11
508.05000000000035
 21
297.68356805182759
  0
LINE
  8
_0-a_
  6
CONTINUOUS
 62
    3
 10
508.05000000000035
 20
303.19999999998902
 11
512.15000000000009
 21
303.19999999998902
  0
LINE
  8
_0-a_
  6
CONTINUOUS
 62
    3
 10
512.15000000000009
 20
303.19999999998902
 11
512.15000000000009
 21
297.68356805182759
  0
LINE
  8
_0-a_
  6
CONTINUOUS
 62
    3
 10
510.10000000000031
 20
296.49999999998875
 11
508.05000000000035
 21
297.68356805182759
  0
LINE
  8
_0-a_
  6
CONTINUOUS
 62
    3
 10
510.10000000000031
 20
296.49999999998875
 11
512.15000000000009
 21
297.68356805182759
  0
LINE
  8
_0-a_
  6
CONTINUOUS
 62
    3
 10
511.99999999999994
 20
312.19999999998902
 11
508.20000000000067
 21
312.19999999998902
  0
LINE
  8
_0-a_
  6
CONTINUOUS
 62
    3
 10
511.8900000000005
 20
311.00301343866192
 11
511.8900000000005
 21
310.20738171933169
  0
LINE
  8
_0-a_
  6
CONTINUOUS
 62
    3
 10
511.8900000000005
 20
309.50301343866192
 11
511.8900000000005
 21
308.70738171933169
  0
LINE
  8
_0-a_
  6
CONTINUOUS
 62
    3
 10
511.8900000000005
 20
312.19999999998902
 11
511.8900000000005
 21
311.70738171933169
  0
LINE
  8
_0-a_
  6
CONTINUOUS
 62
    3
 10
508.31000000000012
 20
309.69999999998902
 11
508.31000000000012
 21
308.90436828065879
  0
LINE
  8
_0-a_
  6
CONTINUOUS
 62
    3
 10
508.31000000000012
 20
311.19999999998902
 11
508.31000000000012
 21
310.40436828065879
  0
LINE
  8
_0-a_
  6
CONTINUOUS
 62
    3
 10
508.31000000000012
 20
312.19999999998902
 11
508.31000000000012
 21
311.90436828065879
  0
LINE
  8
_0-a_
  6
CONTINUOUS
 62
    3
 10
510.10000000000031
 20
312.20369085966047
 11
507.69999999999999
 21
311.5521841403239
  0
LINE
  8
_0-a_
  6
CONTINUOUS
 62
    3
 10
508.31000000000012
 20
311.90436828065879
 11
509.12224147333467
 21
312.19999999998902
  0
LINE
  8
_0-a_
  6
CONTINUOUS
 62
    3
 10
507.69999999999999
 20
311.5521841403239
 11
508.31000000000012
 21
311.90436828065879
  0
LINE
  8
_0-a_
  6
CONTINUOUS
 62
    3
 10
508.31000000000012
 20
311.19999999998902
 11
507.69999999999999
 21
311.5521841403239
  0
LINE
  8
_0-a_
  6
CONTINUOUS
 62
    3
 10
512.50000000000068
 20
311.35519757899681
 11
507.69999999999999
 21
310.0521841403239
  0
LINE
  8
_0-a_
  6
CONTINUOUS
 62
    3
 10
508.31000000000012
 20
309.69999999998902
 11
511.8900000000005
 21
311.00301343866192
  0
LINE
  8
_0-a_
  6
CONTINUOUS
 62
    3
 10
508.31000000000012
 20
310.40436828065879
 11
511.8900000000005
 21
311.70738171933169
  0
LINE
  8
_0-a_
  6
CONTINUOUS
 62
    3
 10
507.69999999999999
 20
310.0521841403239
 11
508.31000000000012
 21
310.40436828065879
  0
LINE
  8
_0-a_
  6
CONTINUOUS
 62
    3
 10
508.31000000000012
 20
309.69999999998902
 11
507.69999999999999
 21
310.0521841403239
  0
LINE
  8
_0-a_
  6
CONTINUOUS
 62
    3
 10
512.50000000000068
 20
311.35519757899681
 11
511.8900000000005
 21
311.00301343866192
  0
LINE
  8
_0-a_
  6
CONTINUOUS
 62
    3
 10
511.8900000000005
 20
311.70738171933169
 11
512.50000000000068
 21
311.35519757899681
  0
LINE
  8
_0-a_
  6
CONTINUOUS
 62
    3
 10
512.50000000000068
 20
309.85519757899681
 11
507.69999999999999
 21
308.5521841403239
  0
LINE
  8
_0-a_
  6
CONTINUOUS
 62
    3
 10
508.31000000000012
 20
308.19999999998902
 11
511.8900000000005
 21
309.50301343866192
  0
LINE
  8
_0-a_
  6
CONTINUOUS
 62
    3
 10
508.31000000000012
 20
308.90436828065879
 11
511.8900000000005
 21
310.20738171933169
  0
LINE
  8
_0-a_
  6
CONTINUOUS
 62
    3
 10
507.69999999999999
 20
308.5521841403239
 11
508.31000000000012
 21
308.90436828065879
  0
LINE
  8
_0-a_
  6
CONTINUOUS
 62
    3
 10
508.31000000000012
 20
308.19999999998902
 11
507.69999999999999
 21
308.5521841403239
  0
LINE
  8
_0-a_
  6
CONTINUOUS
 62
    3
 10
512.50000000000068
 20
309.85519757899681
 11
511.8900000000005
 21
309.50301343866192
  0
LINE
  8
_0-a_
  6
CONTINUOUS
 62
    3
 10
511.8900000000005
 20
310.20738171933169
 11
512.50000000000068
 21
309.85519757899681
  0
LINE
  8
_0-a_
  6
CONTINUOUS
 62
    3
 10
512.50000000000068
 20
308.35519757899681
 11
511.8900000000005
 21
308.00301343866192
  0
LINE
  8
_0-a_
  6
CONTINUOUS
 62
    3
 10
511.8900000000005
 20
308.70738171933169
 11
512.50000000000068
 21
308.35519757899681
  0
ARC
  8
_0-a_
  6
CONTINUOUS
 62
    3
 10
528.59999999999945
 20
314.49999999998897
 40
1
 50
0
 51
90
  0
LINE
  8
_0-a_
  6
CONTINUOUS
 62
    3
 10
529.59999999999945
 20
314.49999999998897
 11
529.59999999999945
 21
313.99999999998897
  0
LINE
  8
_0-a_
  6
CONTINUOUS
 62
    3
 10
528.59999999999945
 20
315.49999999998897
 11
526.00192378864517
 21
315.49999999998897
  0
LINE
  8
_0-a_
  6
CONTINUOUS
 62
    3
 10
513.10000000000059
 20
285.49999999998875
 11
487.40000000000049
 21
285.49999999998875
  0
LINE
  8
_0-a_
  6
CONTINUOUS
 62
    3
 10
517.60000000000059
 20
282.99999999998875
 11
517.60000000000059
 21
285.6580831380021
  0
LINE
  8
_0-a_
  6
CONTINUOUS
 62
    3
 10
517.60000000000059
 20
285.6580831380021
 11
517.60000000000059
 21
300.99999999998897
  0
LINE
  8
_0-a_
  6
CONTINUOUS
 62
    3
 10
353.60000000000031
 20
313.99999999998897
 11
502.60000000000031
 21
313.99999999998897
  0
LINE
  8
_0-a_
  6
CONTINUOUS
 62
    3
 10
353.60000000000031
 20
310.99999999998897
 11
502.60000000000031
 21
310.99999999998897
  0
LINE
  8
_0-a_
  6
CONTINUOUS
 62
    3
 10
344.60000000000031
 20
308.49999999998897
 11
506.09999999999985
 21
308.49999999998897
  0
LINE
  8
_0-a_
  6
CONTINUOUS
 62
    3
 10
214.09999999999943
 20
305.79999999998893
 11
352.0999999999994
 21
305.79999999998893
  0
LINE
  8
_0-a_
  6
CONTINUOUS
 62
    3
 10
214.09999999999943
 20
308.79999999998893
 11
320.5999999999994
 21
308.79999999998893
  0
LINE
  8
_0-a_
  6
CONTINUOUS
 62
    3
 10
422.0999999999994
 20
305.79999999998893
 11
422.0999999999994
 21
308.79999999998893
  0
LINE
  8
_0-a_
  6
CONTINUOUS
 62
    3
 10
422.0999999999994
 20
305.79999999998893
 11
289.0999999999994
 21
305.79999999998893
  0
LINE
  8
_0-a_
  6
CONTINUOUS
 62
    3
 10
422.0999999999994
 20
305.79999999998893
 11
422.0999999999994
 21
308.79999999998893
  0
LINE
  8
_0-a_
  6
CONTINUOUS
 62
    3
 10
422.0999999999994
 20
308.79999999998893
 11
320.5999999999994
 21
308.79999999998893
  0
LINE
  8
_0-a_
  6
CONTINUOUS
 62
    3
 10
214.09999999999943
 20
305.79999999998893
 11
214.09999999999943
 21
308.29999999998893
  0
LINE
  8
_0-a_
  6
CONTINUOUS
 62
    3
 10
214.09999999999943
 20
308.79999999998893
 11
214.09999999999943
 21
308.29999999998893
  0
LINE
  8
_0-a_
  6
CONTINUOUS
 62
    3
 10
217.09999999999943
 20
308.79999999998893
 11
220.09999999999943
 21
305.79999999998893
  0
LINE
  8
_0-a_
  6
CONTINUOUS
 62
    3
 10
214.09999999999943
 20
305.79999999998893
 11
217.09999999999943
 21
308.79999999998893
  0
LINE
  8
_0-a_
  6
CONTINUOUS
 62
    3
 10
223.09999999999943
 20
308.79999999998893
 11
226.09999999999943
 21
305.79999999998893
  0
LINE
  8
_0-a_
  6
CONTINUOUS
 62
    3
 10
220.09999999999943
 20
305.79999999998893
 11
223.09999999999943
 21
308.79999999998893
  0
LINE
  8
_0-a_
  6
CONTINUOUS
 62
    3
 10
229.09999999999943
 20
308.79999999998893
 11
232.09999999999943
 21
305.79999999998893
  0
LINE
  8
_0-a_
  6
CONTINUOUS
 62
    3
 10
226.09999999999943
 20
305.79999999998893
 11
229.09999999999943
 21
308.79999999998893
  0
LINE
  8
_0-a_
  6
CONTINUOUS
 62
    3
 10
235.09999999999943
 20
308.79999999998893
 11
238.09999999999943
 21
305.79999999998893
  0
LINE
  8
_0-a_
  6
CONTINUOUS
 62
    3
 10
232.09999999999943
 20
305.79999999998893
 11
235.09999999999943
 21
308.79999999998893
  0
LINE
  8
_0-a_
  6
CONTINUOUS
 62
    3
 10
241.09999999999943
 20
308.79999999998893
 11
244.09999999999943
 21
305.79999999998893
  0
LINE
  8
_0-a_
  6
CONTINUOUS
 62
    3
 10
238.09999999999943
 20
305.79999999998893
 11
241.09999999999943
 21
308.79999999998893
  0
LINE
  8
_0-a_
  6
CONTINUOUS
 62
    3
 10
247.09999999999943
 20
308.79999999998893
 11
250.09999999999943
 21
305.79999999998893
  0
LINE
  8
_0-a_
  6
CONTINUOUS
 62
    3
 10
244.09999999999943
 20
305.79999999998893
 11
247.09999999999943
 21
308.79999999998893
  0
LINE
  8
_0-a_
  6
CONTINUOUS
 62
    3
 10
253.09999999999943
 20
308.79999999998893
 11
256.0999999999994
 21
305.79999999998893
  0
LINE
  8
_0-a_
  6
CONTINUOUS
 62
    3
 10
250.09999999999943
 20
305.79999999998893
 11
253.09999999999943
 21
308.79999999998893
  0
LINE
  8
_0-a_
  6
CONTINUOUS
 62
    3
 10
259.0999999999994
 20
308.79999999998893
 11
262.0999999999994
 21
305.79999999998893
  0
LINE
  8
_0-a_
  6
CONTINUOUS
 62
    3
 10
256.0999999999994
 20
305.79999999998893
 11
259.0999999999994
 21
308.79999999998893
  0
LINE
  8
_0-a_
  6
CONTINUOUS
 62
    3
 10
265.0999999999994
 20
308.79999999998893
 11
268.0999999999994
 21
305.79999999998893
  0
LINE
  8
_0-a_
  6
CONTINUOUS
 62
    3
 10
262.0999999999994
 20
305.79999999998893
 11
265.0999999999994
 21
308.79999999998893
  0
LINE
  8
_0-a_
  6
CONTINUOUS
 62
    3
 10
271.0999999999994
 20
308.79999999998893
 11
274.0999999999994
 21
305.79999999998893
  0
LINE
  8
_0-a_
  6
CONTINUOUS
 62
    3
 10
268.0999999999994
 20
305.79999999998893
 11
271.0999999999994
 21
308.79999999998893
  0
LINE
  8
_0-a_
  6
CONTINUOUS
 62
    3
 10
277.0999999999994
 20
308.79999999998893
 11
280.0999999999994
 21
305.79999999998893
  0
LINE
  8
_0-a_
  6
CONTINUOUS
 62
    3
 10
274.0999999999994
 20
305.79999999998893
 11
277.0999999999994
 21
308.79999999998893
  0
LINE
  8
_0-a_
  6
CONTINUOUS
 62
    3
 10
283.0999999999994
 20
308.79999999998893
 11
286.0999999999994
 21
305.79999999998893
  0
LINE
  8
_0-a_
  6
CONTINUOUS
 62
    3
 10
280.0999999999994
 20
305.79999999998893
 11
283.0999999999994
 21
308.79999999998893
  0
LINE
  8
_0-a_
  6
CONTINUOUS
 62
    3
 10
289.0999999999994
 20
308.79999999998893
 11
292.0999999999994
 21
305.79999999998893
  0
LINE
  8
_0-a_
  6
CONTINUOUS
 62
    3
 10
286.0999999999994
 20
305.79999999998893
 11
289.0999999999994
 21
308.79999999998893
  0
LINE
  8
_0-a_
  6
CONTINUOUS
 62
    3
 10
295.0999999999994
 20
308.79999999998893
 11
298.0999999999994
 21
305.79999999998893
  0
LINE
  8
_0-a_
  6
CONTINUOUS
 62
    3
 10
292.0999999999994
 20
305.79999999998893
 11
295.0999999999994
 21
308.79999999998893
  0
LINE
  8
_0-a_
  6
CONTINUOUS
 62
    3
 10
301.0999999999994
 20
308.79999999998893
 11
304.0999999999994
 21
305.79999999998893
  0
LINE
  8
_0-a_
  6
CONTINUOUS
 62
    3
 10
298.0999999999994
 20
305.79999999998893
 11
301.0999999999994
 21
308.79999999998893
  0
LINE
  8
_0-a_
  6
CONTINUOUS
 62
    3
 10
307.0999999999994
 20
308.79999999998893
 11
310.0999999999994
 21
305.79999999998893
  0
LINE
  8
_0-a_
  6
CONTINUOUS
 62
    3
 10
304.0999999999994
 20
305.79999999998893
 11
307.0999999999994
 21
308.79999999998893
  0
LINE
  8
_0-a_
  6
CONTINUOUS
 62
    3
 10
313.0999999999994
 20
308.79999999998893
 11
316.0999999999994
 21
305.79999999998893
  0
LINE
  8
_0-a_
  6
CONTINUOUS
 62
    3
 10
310.0999999999994
 20
305.79999999998893
 11
313.0999999999994
 21
308.79999999998893
  0
LINE
  8
_0-a_
  6
CONTINUOUS
 62
    3
 10
319.0999999999994
 20
308.79999999998893
 11
322.0999999999994
 21
305.79999999998893
  0
LINE
  8
_0-a_
  6
CONTINUOUS
 62
    3
 10
316.0999999999994
 20
305.79999999998893
 11
319.0999999999994
 21
308.79999999998893
  0
LINE
  8
_0-a_
  6
CONTINUOUS
 62
    3
 10
325.0999999999994
 20
308.79999999998893
 11
328.0999999999994
 21
305.79999999998893
  0
LINE
  8
_0-a_
  6
CONTINUOUS
 62
    3
 10
322.0999999999994
 20
305.79999999998893
 11
325.0999999999994
 21
308.79999999998893
  0
LINE
  8
_0-a_
  6
CONTINUOUS
 62
    3
 10
331.0999999999994
 20
308.79999999998893
 11
334.0999999999994
 21
305.79999999998893
  0
LINE
  8
_0-a_
  6
CONTINUOUS
 62
    3
 10
328.0999999999994
 20
305.79999999998893
 11
331.0999999999994
 21
308.79999999998893
  0
LINE
  8
_0-a_
  6
CONTINUOUS
 62
    3
 10
337.0999999999994
 20
308.79999999998893
 11
340.0999999999994
 21
305.79999999998893
  0
LINE
  8
_0-a_
  6
CONTINUOUS
 62
    3
 10
334.0999999999994
 20
305.79999999998893
 11
337.0999999999994
 21
308.79999999998893
  0
LINE
  8
_0-a_
  6
CONTINUOUS
 62
    3
 10
343.0999999999994
 20
308.79999999998893
 11
346.0999999999994
 21
305.79999999998893
  0
LINE
  8
_0-a_
  6
CONTINUOUS
 62
    3
 10
340.0999999999994
 20
305.79999999998893
 11
343.0999999999994
 21
308.79999999998893
  0
LINE
  8
_0-a_
  6
CONTINUOUS
 62
    3
 10
349.0999999999994
 20
308.79999999998893
 11
352.0999999999994
 21
305.79999999998893
  0
LINE
  8
_0-a_
  6
CONTINUOUS
 62
    3
 10
346.0999999999994
 20
305.79999999998893
 11
349.0999999999994
 21
308.79999999998893
  0
LINE
  8
_0-a_
  6
CONTINUOUS
 62
    3
 10
355.0999999999994
 20
308.79999999998893
 11
358.0999999999994
 21
305.79999999998893
  0
LINE
  8
_0-a_
  6
CONTINUOUS
 62
    3
 10
352.0999999999994
 20
305.79999999998893
 11
355.0999999999994
 21
308.79999999998893
  0
LINE
  8
_0-a_
  6
CONTINUOUS
 62
    3
 10
361.0999999999994
 20
308.79999999998893
 11
364.0999999999994
 21
305.79999999998893
  0
LINE
  8
_0-a_
  6
CONTINUOUS
 62
    3
 10
358.0999999999994
 20
305.79999999998893
 11
361.0999999999994
 21
308.79999999998893
  0
LINE
  8
_0-a_
  6
CONTINUOUS
 62
    3
 10
367.0999999999994
 20
308.79999999998893
 11
370.0999999999994
 21
305.79999999998893
  0
LINE
  8
_0-a_
  6
CONTINUOUS
 62
    3
 10
364.0999999999994
 20
305.79999999998893
 11
367.0999999999994
 21
308.79999999998893
  0
LINE
  8
_0-a_
  6
CONTINUOUS
 62
    3
 10
373.0999999999994
 20
308.79999999998893
 11
376.0999999999994
 21
305.79999999998893
  0
LINE
  8
_0-a_
  6
CONTINUOUS
 62
    3
 10
370.0999999999994
 20
305.79999999998893
 11
373.0999999999994
 21
308.79999999998893
  0
LINE
  8
_0-a_
  6
CONTINUOUS
 62
    3
 10
379.0999999999994
 20
308.79999999998893
 11
382.0999999999994
 21
305.79999999998893
  0
LINE
  8
_0-a_
  6
CONTINUOUS
 62
    3
 10
376.0999999999994
 20
305.79999999998893
 11
379.0999999999994
 21
308.79999999998893
  0
LINE
  8
_0-a_
  6
CONTINUOUS
 62
    3
 10
385.0999999999994
 20
308.79999999998893
 11
388.0999999999994
 21
305.79999999998893
  0
LINE
  8
_0-a_
  6
CONTINUOUS
 62
    3
 10
382.0999999999994
 20
305.79999999998893
 11
385.0999999999994
 21
308.79999999998893
  0
LINE
  8
_0-a_
  6
CONTINUOUS
 62
    3
 10
391.0999999999994
 20
308.79999999998893
 11
394.0999999999994
 21
305.79999999998893
  0
LINE
  8
_0-a_
  6
CONTINUOUS
 62
    3
 10
388.0999999999994
 20
305.79999999998893
 11
391.0999999999994
 21
308.79999999998893
  0
LINE
  8
_0-a_
  6
CONTINUOUS
 62
    3
 10
397.0999999999994
 20
308.79999999998893
 11
400.0999999999994
 21
305.79999999998893
  0
LINE
  8
_0-a_
  6
CONTINUOUS
 62
    3
 10
394.0999999999994
 20
305.79999999998893
 11
397.0999999999994
 21
308.79999999998893
  0
LINE
  8
_0-a_
  6
CONTINUOUS
 62
    3
 10
403.0999999999994
 20
308.79999999998893
 11
406.0999999999994
 21
305.79999999998893
  0
LINE
  8
_0-a_
  6
CONTINUOUS
 62
    3
 10
400.0999999999994
 20
305.79999999998893
 11
403.0999999999994
 21
308.79999999998893
  0
LINE
  8
_0-a_
  6
CONTINUOUS
 62
    3
 10
409.0999999999994
 20
308.79999999998893
 11
412.0999999999994
 21
305.79999999998893
  0
LINE
  8
_0-a_
  6
CONTINUOUS
 62
    3
 10
406.0999999999994
 20
305.79999999998893
 11
409.0999999999994
 21
308.79999999998893
  0
LINE
  8
_0-a_
  6
CONTINUOUS
 62
    3
 10
415.0999999999994
 20
308.79999999998893
 11
418.0999999999994
 21
305.79999999998893
  0
LINE
  8
_0-a_
  6
CONTINUOUS
 62
    3
 10
412.0999999999994
 20
305.79999999998893
 11
415.0999999999994
 21
308.79999999998893
  0
LINE
  8
_0-a_
  6
CONTINUOUS
 62
    3
 10
418.0999999999994
 20
305.79999999998893
 11
421.0999999999994
 21
308.79999999998893
  0
LINE
  8
_0-a_
  6
CONTINUOUS
 62
    3
 10
421.0999999999994
 20
308.79999999998893
 11
422.0999999999994
 21
307.79999999998915
  0
LINE
  8
_0-a_
  6
CONTINUOUS
 62
    3
 10
502.60000000000031
 20
314.49999999998897
 11
502.60000000000031
 21
310.9999999999892
  0
LINE
  8
_0-a_
  6
CONTINUOUS
 62
    3
 10
356.60000000000031
 20
313.99999999998897
 11
359.60000000000031
 21
310.99999999998897
  0
LINE
  8
_0-a_
  6
CONTINUOUS
 62
    3
 10
362.60000000000031
 20
313.99999999998897
 11
365.60000000000031
 21
310.99999999998897
  0
LINE
  8
_0-a_
  6
CONTINUOUS
 62
    3
 10
359.60000000000031
 20
310.99999999998897
 11
362.60000000000031
 21
313.99999999998897
  0
LINE
  8
_0-a_
  6
CONTINUOUS
 62
    3
 10
368.60000000000053
 20
313.99999999998897
 11
371.60000000000053
 21
310.99999999998897
  0
LINE
  8
_0-a_
  6
CONTINUOUS
 62
    3
 10
365.60000000000031
 20
310.99999999998897
 11
368.60000000000053
 21
313.99999999998897
  0
LINE
  8
_0-a_
  6
CONTINUOUS
 62
    3
 10
374.60000000000053
 20
313.99999999998897
 11
377.60000000000053
 21
310.99999999998897
  0
LINE
  8
_0-a_
  6
CONTINUOUS
 62
    3
 10
371.60000000000053
 20
310.99999999998897
 11
374.60000000000053
 21
313.99999999998897
  0
LINE
  8
_0-a_
  6
CONTINUOUS
 62
    3
 10
380.60000000000053
 20
313.99999999998897
 11
383.60000000000053
 21
310.99999999998897
  0
LINE
  8
_0-a_
  6
CONTINUOUS
 62
    3
 10
377.60000000000053
 20
310.99999999998897
 11
380.60000000000053
 21
313.99999999998897
  0
LINE
  8
_0-a_
  6
CONTINUOUS
 62
    3
 10
386.60000000000053
 20
313.99999999998897
 11
389.60000000000053
 21
310.99999999998897
  0
LINE
  8
_0-a_
  6
CONTINUOUS
 62
    3
 10
383.60000000000053
 20
310.99999999998897
 11
386.60000000000053
 21
313.99999999998897
  0
LINE
  8
_0-a_
  6
CONTINUOUS
 62
    3
 10
392.60000000000053
 20
313.99999999998897
 11
395.60000000000053
 21
310.99999999998897
  0
LINE
  8
_0-a_
  6
CONTINUOUS
 62
    3
 10
389.60000000000053
 20
310.99999999998897
 11
392.60000000000053
 21
313.99999999998897
  0
LINE
  8
_0-a_
  6
CONTINUOUS
 62
    3
 10
398.60000000000053
 20
313.99999999998897
 11
401.60000000000053
 21
310.99999999998897
  0
LINE
  8
_0-a_
  6
CONTINUOUS
 62
    3
 10
395.60000000000053
 20
310.99999999998897
 11
398.60000000000053
 21
313.99999999998897
  0
LINE
  8
_0-a_
  6
CONTINUOUS
 62
    3
 10
404.60000000000053
 20
313.99999999998897
 11
407.60000000000053
 21
310.99999999998897
  0
LINE
  8
_0-a_
  6
CONTINUOUS
 62
    3
 10
401.60000000000053
 20
310.99999999998897
 11
404.60000000000053
 21
313.99999999998897
  0
LINE
  8
_0-a_
  6
CONTINUOUS
 62
    3
 10
410.60000000000053
 20
313.99999999998897
 11
413.60000000000053
 21
310.99999999998897
  0
LINE
  8
_0-a_
  6
CONTINUOUS
 62
    3
 10
407.60000000000053
 20
310.99999999998897
 11
410.60000000000053
 21
313.99999999998897
  0
LINE
  8
_0-a_
  6
CONTINUOUS
 62
    3
 10
416.60000000000053
 20
313.99999999998897
 11
419.60000000000053
 21
310.99999999998897
  0
LINE
  8
_0-a_
  6
CONTINUOUS
 62
    3
 10
413.60000000000053
 20
310.99999999998897
 11
416.60000000000053
 21
313.99999999998897
  0
LINE
  8
_0-a_
  6
CONTINUOUS
 62
    3
 10
422.60000000000053
 20
313.99999999998897
 11
425.60000000000053
 21
310.99999999998897
  0
LINE
  8
_0-a_
  6
CONTINUOUS
 62
    3
 10
419.60000000000053
 20
310.99999999998897
 11
422.60000000000053
 21
313.99999999998897
  0
LINE
  8
_0-a_
  6
CONTINUOUS
 62
    3
 10
428.60000000000053
 20
313.99999999998897
 11
431.60000000000053
 21
310.99999999998897
  0
LINE
  8
_0-a_
  6
CONTINUOUS
 62
    3
 10
425.60000000000053
 20
310.99999999998897
 11
428.60000000000053
 21
313.99999999998897
  0
LINE
  8
_0-a_
  6
CONTINUOUS
 62
    3
 10
434.60000000000053
 20
313.99999999998897
 11
437.60000000000053
 21
310.99999999998897
  0
LINE
  8
_0-a_
  6
CONTINUOUS
 62
    3
 10
431.60000000000053
 20
310.99999999998897
 11
434.60000000000053
 21
313.99999999998897
  0
LINE
  8
_0-a_
  6
CONTINUOUS
 62
    3
 10
440.60000000000053
 20
313.99999999998897
 11
443.60000000000053
 21
310.99999999998897
  0
LINE
  8
_0-a_
  6
CONTINUOUS
 62
    3
 10
437.60000000000053
 20
310.99999999998897
 11
440.60000000000053
 21
313.99999999998897
  0
LINE
  8
_0-a_
  6
CONTINUOUS
 62
    3
 10
446.60000000000053
 20
313.99999999998897
 11
449.60000000000053
 21
310.99999999998897
  0
LINE
  8
_0-a_
  6
CONTINUOUS
 62
    3
 10
443.60000000000053
 20
310.99999999998897
 11
446.60000000000053
 21
313.99999999998897
  0
LINE
  8
_0-a_
  6
CONTINUOUS
 62
    3
 10
452.60000000000053
 20
313.99999999998897
 11
455.60000000000053
 21
310.99999999998897
  0
LINE
  8
_0-a_
  6
CONTINUOUS
 62
    3
 10
449.60000000000053
 20
310.99999999998897
 11
452.60000000000053
 21
313.99999999998897
  0
LINE
  8
_0-a_
  6
CONTINUOUS
 62
    3
 10
458.60000000000053
 20
313.99999999998897
 11
461.60000000000053
 21
310.99999999998897
  0
LINE
  8
_0-a_
  6
CONTINUOUS
 62
    3
 10
455.60000000000053
 20
310.99999999998897
 11
458.60000000000053
 21
313.99999999998897
  0
LINE
  8
_0-a_
  6
CONTINUOUS
 62
    3
 10
464.60000000000053
 20
313.99999999998897
 11
467.60000000000053
 21
310.99999999998897
  0
LINE
  8
_0-a_
  6
CONTINUOUS
 62
    3
 10
461.60000000000053
 20
310.99999999998897
 11
464.60000000000053
 21
313.99999999998897
  0
LINE
  8
_0-a_
  6
CONTINUOUS
 62
    3
 10
470.60000000000053
 20
313.99999999998897
 11
473.60000000000053
 21
310.99999999998897
  0
LINE
  8
_0-a_
  6
CONTINUOUS
 62
    3
 10
467.60000000000053
 20
310.99999999998897
 11
470.60000000000053
 21
313.99999999998897
  0
LINE
  8
_0-a_
  6
CONTINUOUS
 62
    3
 10
476.60000000000053
 20
313.99999999998897
 11
479.60000000000053
 21
310.99999999998897
  0
LINE
  8
_0-a_
  6
CONTINUOUS
 62
    3
 10
473.60000000000053
 20
310.99999999998897
 11
476.60000000000053
 21
313.99999999998897
  0
LINE
  8
_0-a_
  6
CONTINUOUS
 62
    3
 10
482.60000000000053
 20
313.99999999998897
 11
485.60000000000053
 21
310.99999999998897
  0
LINE
  8
_0-a_
  6
CONTINUOUS
 62
    3
 10
479.60000000000053
 20
310.99999999998897
 11
482.60000000000053
 21
313.99999999998897
  0
LINE
  8
_0-a_
  6
CONTINUOUS
 62
    3
 10
488.60000000000053
 20
313.99999999998897
 11
491.60000000000053
 21
310.99999999998897
  0
LINE
  8
_0-a_
  6
CONTINUOUS
 62
    3
 10
485.60000000000053
 20
310.99999999998897
 11
488.60000000000053
 21
313.99999999998897
  0
LINE
  8
_0-a_
  6
CONTINUOUS
 62
    3
 10
494.60000000000053
 20
313.99999999998897
 11
497.60000000000053
 21
310.99999999998897
  0
LINE
  8
_0-a_
  6
CONTINUOUS
 62
    3
 10
491.60000000000053
 20
310.99999999998897
 11
494.60000000000053
 21
313.99999999998897
  0
LINE
  8
_0-a_
  6
CONTINUOUS
 62
    3
 10
494.60000000000053
 20
313.99999999998897
 11
497.60000000000053
 21
310.99999999998897
  0
LINE
  8
_0-a_
  6
CONTINUOUS
 62
    3
 10
497.60000000000053
 20
310.99999999998897
 11
500.60000000000053
 21
313.99999999998897
  0
LINE
  8
_0-a_
  6
CONTINUOUS
 62
    3
 10
500.60000000000053
 20
313.99999999998897
 11
502.60000000000031
 21
311.99999999998897
  0
LINE
  8
_0-a_
  6
CONTINUOUS
 62
    3
 10
353.60000000000031
 20
310.99999999998897
 11
356.60000000000031
 21
313.99999999998897
  0
LINE
  8
_0-a_
  6
CONTINUOUS
 62
    3
 10
526.59119843521012
 20
313.99999999998875
 11
522.60000000000036
 21
313.99999999998875
  0
LINE
  8
_0-a_
  6
CONTINUOUS
 62
    3
 10
530.59999999999945
 20
313.99999999998875
 11
530.59119843520921
 21
313.99999999998875
  0
LINE
  8
_0-a_
  6
CONTINUOUS
 62
    3
 10
526.19807621135328
 20
310.99999999998897
 11
551.2442132566573
 21
310.99999999998897
  0
LINE
  8
_0-a_
  6
CONTINUOUS
 62
    3
 10
528.59999999999832
 20
313.99999999998897
 11
528.59119843520807
 21
313.99999999998897
  0
LINE
  8
_0-a_
  6
CONTINUOUS
 62
    3
 10
548.60000000000036
 20
313.99999999998897
 11
551.60000000000036
 21
310.99999999998897
  0
LINE
  8
_0-a_
  6
CONTINUOUS
 62
    3
 10
545.60000000000036
 20
310.99999999998897
 11
548.60000000000036
 21
313.99999999998897
  0
LINE
  8
_0-a_
  6
CONTINUOUS
 62
    3
 10
542.60000000000036
 20
313.99999999998897
 11
545.60000000000036
 21
310.99999999998897
  0
LINE
  8
_0-a_
  6
CONTINUOUS
 62
    3
 10
539.60000000000036
 20
310.99999999998897
 11
542.60000000000036
 21
313.99999999998897
  0
LINE
  8
_0-a_
  6
CONTINUOUS
 62
    3
 10
536.60000000000036
 20
313.99999999998897
 11
539.60000000000036
 21
310.99999999998897
  0
LINE
  8
_0-a_
  6
CONTINUOUS
 62
    3
 10
533.60000000000036
 20
310.99999999998897
 11
536.60000000000036
 21
313.99999999998897
  0
LINE
  8
_0-a_
  6
CONTINUOUS
 62
    3
 10
530.60000000000036
 20
313.99999999998897
 11
533.60000000000036
 21
310.99999999998897
  0
LINE
  8
_0-a_
  6
CONTINUOUS
 62
    3
 10
527.60000000000036
 20
310.99999999998897
 11
530.60000000000036
 21
313.99999999998897
  0
LINE
  8
_0-a_
  6
CONTINUOUS
 62
    3
 10
524.60000000000036
 20
313.99999999998897
 11
527.60000000000036
 21
310.99999999998897
  0
LINE
  8
_0-a_
  6
CONTINUOUS
 62
    3
 10
521.60000000000036
 20
310.99999999998897
 11
524.60000000000036
 21
313.99999999998897
  0
LINE
  8
_0-a_
  6
CONTINUOUS
 62
    3
 10
531.59999999999991
 20
310.9999999999892
 11
551.60000000000036
 21
310.9999999999892
  0
LINE
  8
_0-a_
  6
CONTINUOUS
 62
    3
 10
528.19807621135442
 20
310.99999999998875
 11
551.60000000000059
 21
310.99999999998875
  0
LINE
  8
_0-a_
  6
CONTINUOUS
 62
    3
 10
521.60000000000036
 20
310.9999999999892
 11
551.2442132566573
 21
310.9999999999892
  0
LINE
  8
_0-a_
  6
CONTINUOUS
 62
    3
 10
508.31000000000012
 20
311.19999999998902
 11
511.05747741945487
 21
312.19999999998902
  0
LINE
  8
_0-a_
  6
CONTINUOUS
 62
    3
 10
350.60000000000031
 20
282.99999999998875
 11
517.60000000000059
 21
282.99999999998875
  0
LINE
  8
_0-a_
  6
CONTINUOUS
 62
    3
 10
517.60000000000059
 20
282.99999999998875
 11
517.60000000000059
 21
300.99999999998897
  0
LINE
  8
_0-a_
  6
CONTINUOUS
 62
    3
 10
521.60000000000036
 20
310.9999999999892
 11
521.60000000000036
 21
313.99999999998897
  0
LINE
  8
_0-f_寸法
  6
CONTINUOUS
 62
    4
 10
344.60000000000031
 20
282.99999999998875
 11
344.60000000000031
 21
255.99999999998875
  0
LINE
  8
_0-f_寸法
  6
CONTINUOUS
 62
    4
 10
349.60000000000076
 20
275.99999999998875
 11
349.60000000000076
 21
255.99999999998875
  0
POINT
  8
_0-f_寸法
 62
    4
 10
349.60000000000076
 20
256.99999999998875
  0
POINT
  8
_0-f_寸法
 62
    4
 10
344.60000000000031
 20
256.99999999998875
  0
LINE
  8
_0-f_寸法
  6
CONTINUOUS
 62
    4
 10
349.60000000000076
 20
256.99999999998875
 11
344.60000000000031
 21
256.99999999998875
  0
TEXT
  8
_0-f_寸法
 62
    4
 10
345.30000000000052
 20
256.99999999998875
 40
9
 41
0.8
 50
0
  1
5
  0
CIRCLE
  8
_0-e_付箋
  6
CONTINUOUS
 62
    4
 10
337.11232552175073
 20
275.1809673731301
 40
4.8827102566353844
  0
TEXT
  8
_0-e_付箋
 62
    4
 10
334.11232552175073
 20
272.1809673731301
 40
6
 41
1
 50
0
  1
４
  0
LINE
  8
_0-e_付箋
  6
CONTINUOUS
 62
    4
 10
344.60000000000031
 20
289.64999999999475
 11
338.87518908005944
 21
279.73433662293212
  0
CIRCLE
  8
_0-e_付箋
  6
CONTINUOUS
 62
    4
 10
517.60000000000036
 20
327.2403810567555
 40
4.8827102566353844
  0
LINE
  8
_0-e_付箋
  6
CONTINUOUS
 62
    4
 10
515.15864487168255
 20
323.01182993519046
 11
510.10000000000031
 21
314.24999999998886
  0
TEXT
  8
_0-e_付箋
 62
    4
 10
514.60000000000036
 20
324.2403810567555
 40
6
 41
1
 50
0
  1
９
  0
CIRCLE
  8
_0-e_付箋
  6
CONTINUOUS
 62
    4
 10
290.38767372824935
 20
318.82903062685955
 40
4.8827102566353844
  0
TEXT
  8
_0-e_付箋
 62
    4
 10
287.38767372824935
 20
315.82903062685955
 40
6
 41
1
 50
0
  1
２
  0
LINE
  8
_0-e_付箋
  6
CONTINUOUS
 62
    4
 10
282.89999924999978
 20
304.35999799999513
 11
288.62481016994064
 21
314.27566137705776
  0
CIRCLE
  8
_0-e_付箋
  6
CONTINUOUS
 62
    4
 10
470.83767447824897
 20
324.21903262685328
 40
4.8827102566353844
  0
TEXT
  8
_0-e_付箋
 62
    4
 10
467.83767447824897
 20
321.21903262685328
 40
6
 41
1
 50
0
  1
１
  0
LINE
  8
_0-e_付箋
  6
CONTINUOUS
 62
    4
 10
463.34999999999985
 20
309.74999999998886
 11
469.07481091994072
 21
319.66566337705149
  0
CIRCLE
  8
_0-e_付箋
  6
CONTINUOUS
 62
    4
 10
399.59999999999803
 20
263.264116701435
 40
4.8827102566353844
  0
LINE
  8
_0-e_付箋
  6
CONTINUOUS
 62
    4
 10
397.15864487168022
 20
267.49266782300003
 11
384.59999999999803
 21
289.24487881496827
  0
TEXT
  8
_0-e_付箋
 62
    4
 10
396.59999999999803
 20
260.264116701435
 40
6
 41
1
 50
0
  1
11
  0
CIRCLE
  8
_0-e_付箋
  6
CONTINUOUS
 62
    4
 10
509.09999999999849
 20
260.26923788645547
 40
4.8827102566353844
  0
LINE
  8
_0-e_付箋
  6
CONTINUOUS
 62
    4
 10
506.65864487168068
 20
264.4977890080205
 11
494.09999999999849
 21
286.24999999998875
  0
TEXT
  8
_0-e_付箋
 62
    4
 10
506.09999999999849
 20
257.26923788645547
 40
6
 41
1
 50
0
  1
12
  0
TEXT
  8
_0-f_寸法
 62
    4
 10
670
 20
213.50000000000011
 40
8
 41
0.8662499999999999
 50
0
  1
ステンドリリングねじ(皿5x19))
  0
TEXT
  8
_0-f_寸法
 62
    4
 10
670
 20
233.50000000000011
 40
8
 41
0.8662499999999999
 50
0
  1
ユカホルダーキャップ
  0
TEXT
  8
_0-f_寸法
 62
    4
 10
670
 20
253.50000000000011
 40
8
 41
0.8662499999999999
 50
0
  1
ＴＣＧ壁フレーム
  0
TEXT
  8
_0-f_寸法
 62
    4
 10
658.07000000000005
 20
293.50000000000011
 40
8
 41
0.8662499999999999
 50
0
  1
 1
  0
TEXT
  8
_0-f_寸法
 62
    4
 10
658.07000000000005
 20
283.50000000000011
 40
8
 41
0.8662499999999999
 50
0
  1
 2
  0
TEXT
  8
_0-f_寸法
 62
    4
 10
658.07000000000005
 20
273.50000000000011
 40
8
 41
0.8662499999999999
 50
0
  1
 3
  0
TEXT
  8
_0-f_寸法
 62
    4
 10
658.07000000000005
 20
263.50000000000011
 40
8
 41
0.8662499999999999
 50
0
  1
 4
  0
TEXT
  8
_0-f_寸法
 62
    4
 10
658.07000000000005
 20
253.50000000000011
 40
8
 41
0.8662499999999999
 50
0
  1
 5
  0
TEXT
  8
_0-f_寸法
 62
    4
 10
658.07000000000005
 20
243.50000000000011
 40
8
 41
0.8662499999999999
 50
0
  1
 6
  0
TEXT
  8
_0-f_寸法
 62
    4
 10
658.07000000000005
 20
233.50000000000011
 40
8
 41
0.8662499999999999
 50
0
  1
 7
  0
TEXT
  8
_0-f_寸法
 62
    4
 10
658.07000000000005
 20
223.50000000000011
 40
8
 41
0.8662499999999999
 50
0
  1
 8
  0
TEXT
  8
_0-f_寸法
 62
    4
 10
658.07000000000005
 20
213.50000000000011
 40
8
 41
0.8662499999999999
 50
0
  1
 9
  0
TEXT
  8
_0-f_寸法
 62
    4
 10
670
 20
273.50000000000011
 40
8
 41
0.8662499999999999
 50
0
  1
ＴＣＧサイドキャップＡ　(t＝1.5)
  0
TEXT
  8
_0-f_寸法
 62
    4
 10
670
 20
243.50000000000011
 40
8
 41
0.8662499999999999
 50
0
  1
止水補助板FS500
  0
TEXT
  8
_0-f_寸法
 62
    4
 10
670
 20
293.50000000000011
 40
8
 41
0.8662499999999999
 50
0
  1
ＴＴＫサイドプレート(Ｃ)　(t＝2.5)
  0
TEXT
  8
_0-f_寸法
 62
    4
 10
670
 20
283.50000000000011
 40
8
 41
0.8662499999999999
 50
0
  1
ＴＴＫセンタープレート(Ｃ)　(t＝3.0)
  0
TEXT
  8
_0-f_寸法
 62
    4
 10
670
 20
263.50000000000011
 40
8
 41
0.8662499999999999
 50
0
  1
ＴＴＫフレーム(Ｃ)
  0
TEXT
  8
_0-f_寸法
 62
    4
 10
670
 20
223.50000000000011
 40
8
 41
0.8662499999999999
 50
0
  1
ガスケットＧＮ
  0
TEXT
  8
_0-f_寸法
 62
    4
 10
670
 20
173.50000000000011
 40
8
 41
0.8662499999999999
 50
0
  1
ブチルテープ(ｔ1.0×w30) (6m／巻)
  0
TEXT
  8
_0-f_寸法
 62
    4
 10
670
 20
183.50000000000011
 40
8
 41
0.8662499999999999
 50
0
  1
ステスワッシャー1.5×18×5.5穴
  0
TEXT
  8
_0-f_寸法
 62
    4
 10
670
 20
203.50000000000011
 40
8
 41
0.8662499999999999
 50
0
  1
アンカープラグ(Φ8×40)
  0
TEXT
  8
_0-f_寸法
 62
    4
 10
670
 20
193.50000000000011
 40
8
 41
0.8662499999999999
 50
0
  1
ステンタッピンねじ(なべ5×50)
  0
TEXT
  8
_0-f_寸法
 62
    4
 10
658.07000000000005
 20
203.50000000000011
 40
8
 41
0.8662499999999999
 50
0
  1
10
  0
TEXT
  8
_0-f_寸法
 62
    4
 10
658.07000000000005
 20
193.50000000000011
 40
8
 41
0.8662499999999999
 50
0
  1
11
  0
TEXT
  8
_0-f_寸法
 62
    4
 10
658.07000000000005
 20
183.50000000000011
 40
8
 41
0.8662499999999999
 50
0
  1
12
  0
TEXT
  8
_0-f_寸法
 62
    4
 10
658.07000000000005
 20
173.50000000000011
 40
8
 41
0.8662499999999999
 50
0
  1
◎
  0
TEXT
  8
_0-f_寸法
 62
    4
 10
658.07000000000005
 20
163.50000000000011
 40
8
 41
0.8662499999999999
 50
0
  1
※
  0
TEXT
  8
_0-f_寸法
 62
    4
 10
670
 20
163.50000000000011
 40
8
 41
0.8662499999999999
 50
0
  1
床仕上材厚さ：3.0㎜
  0
TEXT
  8
_1-f_
 62
    4
 10
689.60000000000002
 20
324.91927353994174
 40
6
 41
1
 50
0
  1
床下地仕上げ寸法
  0
LINE
  8
_1-0_
  6
CONTINUOUS
 62
    2
 10
728.60000000000036
 20
355.91927353993935
 11
765.00000000000045
 21
355.91927353993935
  0
LINE
  8
_1-0_
  6
CONTINUOUS
 62
    2
 10
728.60000000000036
 20
356.91927353993935
 11
763
 21
356.91927353993935
  0
LINE
  8
_1-0_
  6
CONTINUOUS
 62
    2
 10
763
 20
363.03927353993942
 11
771
 21
363.03927353993942
  0
LINE
  8
_1-0_
  6
CONTINUOUS
 62
    2
 10
765.00000000000045
 20
356.19135941731884
 11
764.72791412262086
 21
355.91927353993935
  0
LINE
  8
_1-0_
  6
CONTINUOUS
 62
    2
 10
765.00000000000045
 20
356.75704484226799
 11
764.16222869767194
 21
355.91927353993935
  0
LINE
  8
_1-0_
  6
CONTINUOUS
 62
    2
 10
765.00000000000045
 20
357.32273026721714
 11
763.59654327272256
 21
355.91927353993935
  0
LINE
  8
_1-0_
  6
CONTINUOUS
 62
    2
 10
765.00000000000045
 20
357.88841569216652
 11
763.0308578477734
 21
355.91927353993935
  0
LINE
  8
_1-0_
  6
CONTINUOUS
 62
    2
 10
765.00000000000045
 20
358.45410111711567
 11
762.46517242282425
 21
355.91927353993935
  0
LINE
  8
_1-0_
  6
CONTINUOUS
 62
    2
 10
765.00000000000045
 20
359.01978654206499
 11
763
 21
357.01978654206482
  0
LINE
  8
_1-0_
  6
CONTINUOUS
 62
    2
 10
762.89948699787465
 20
356.91927353993935
 11
761.89948699787465
 21
355.91927353993935
  0
LINE
  8
_1-0_
  6
CONTINUOUS
 62
    2
 10
765.00000000000045
 20
359.58547196701414
 11
763
 21
357.58547196701397
  0
LINE
  8
_1-0_
  6
CONTINUOUS
 62
    2
 10
762.33380157292561
 20
356.91927353993935
 11
761.33380157292561
 21
355.91927353993935
  0
LINE
  8
_1-0_
  6
CONTINUOUS
 62
    2
 10
765.00000000000045
 20
360.15115739196347
 11
763
 21
358.1511573919633
  0
LINE
  8
_1-0_
  6
CONTINUOUS
 62
    2
 10
761.76811614797589
 20
356.91927353993935
 11
760.76811614797589
 21
355.91927353993935
  0
LINE
  8
_1-0_
  6
CONTINUOUS
 62
    2
 10
765.00000000000045
 20
360.71684281691262
 11
763
 21
358.71684281691245
  0
LINE
  8
_1-0_
  6
CONTINUOUS
 62
    2
 10
761.20243072302696
 20
356.91927353993935
 11
760.20243072302696
 21
355.91927353993935
  0
LINE
  8
_1-0_
  6
CONTINUOUS
 62
    2
 10
765.00000000000045
 20
361.28252824186194
 11
763
 21
359.28252824186177
  0
LINE
  8
_1-0_
  6
CONTINUOUS
 62
    2
 10
760.63674529807759
 20
356.91927353993935
 11
759.63674529807759
 21
355.91927353993935
  0
LINE
  8
_1-0_
  6
CONTINUOUS
 62
    2
 10
765.00000000000045
 20
361.84821366681109
 11
763
 21
359.84821366681092
  0
LINE
  8
_1-0_
  6
CONTINUOUS
 62
    2
 10
760.07105987312866
 20
356.91927353993935
 11
759.07105987312866
 21
355.91927353993935
  0
LINE
  8
_1-0_
  6
CONTINUOUS
 62
    2
 10
765.00000000000045
 20
362.41389909176041
 11
763
 21
360.41389909176024
  0
LINE
  8
_1-0_
  6
CONTINUOUS
 62
    2
 10
759.50537444817928
 20
356.91927353993935
 11
758.50537444817928
 21
355.91927353993935
  0
LINE
  8
_1-0_
  6
CONTINUOUS
 62
    2
 10
758.93968902323013
 20
356.91927353993935
 11
757.93968902323013
 21
355.91927353993935
  0
LINE
  8
_1-0_
  6
CONTINUOUS
 62
    2
 10
758.37400359828098
 20
356.91927353993935
 11
757.37400359828098
 21
355.91927353993935
  0
LINE
  8
_1-0_
  6
CONTINUOUS
 62
    2
 10
757.80831817333205
 20
356.91927353993935
 11
756.80831817333205
 21
355.91927353993935
  0
LINE
  8
_1-0_
  6
CONTINUOUS
 62
    2
 10
757.24263274838268
 20
356.91927353993935
 11
756.24263274838268
 21
355.91927353993935
  0
LINE
  8
_1-0_
  6
CONTINUOUS
 62
    2
 10
756.67694732343261
 20
356.91927353993935
 11
755.67694732343307
 21
355.91927353993935
  0
LINE
  8
_1-0_
  6
CONTINUOUS
 62
    2
 10
756.11126189848403
 20
356.91927353993935
 11
755.11126189848403
 21
355.91927353993935
  0
LINE
  8
_1-0_
  6
CONTINUOUS
 62
    2
 10
755.54557647353477
 20
356.91927353993935
 11
754.54557647353477
 21
355.91927353993935
  0
LINE
  8
_1-0_
  6
CONTINUOUS
 62
    2
 10
754.97989104858539
 20
356.91927353993935
 11
753.97989104858539
 21
355.91927353993935
  0
LINE
  8
_1-0_
  6
CONTINUOUS
 62
    2
 10
754.41420562363601
 20
356.91927353993935
 11
753.41420562363601
 21
355.91927353993935
  0
LINE
  8
_1-0_
  6
CONTINUOUS
 62
    2
 10
753.84852019868686
 20
356.91927353993935
 11
752.84852019868686
 21
355.91927353993935
  0
LINE
  8
_1-0_
  6
CONTINUOUS
 62
    2
 10
753.2828347737377
 20
356.91927353993935
 11
752.2828347737377
 21
355.91927353993935
  0
LINE
  8
_1-0_
  6
CONTINUOUS
 62
    2
 10
752.71714934878878
 20
356.91927353993935
 11
751.71714934878878
 21
355.91927353993935
  0
LINE
  8
_1-0_
  6
CONTINUOUS
 62
    2
 10
752.1514639238394
 20
356.91927353993935
 11
751.1514639238394
 21
355.91927353993935
  0
LINE
  8
_1-0_
  6
CONTINUOUS
 62
    2
 10
751.58577849889025
 20
356.91927353993935
 11
750.58577849889025
 21
355.91927353993935
  0
LINE
  8
_1-0_
  6
CONTINUOUS
 62
    2
 10
751.02009307394076
 20
356.91927353993935
 11
750.02009307394076
 21
355.91927353993935
  0
LINE
  8
_1-0_
  6
CONTINUOUS
 62
    2
 10
750.45440764899149
 20
356.91927353993935
 11
749.45440764899149
 21
355.91927353993935
  0
LINE
  8
_1-0_
  6
CONTINUOUS
 62
    2
 10
749.88872222404211
 20
356.91927353993935
 11
748.88872222404211
 21
355.91927353993935
  0
LINE
  8
_1-0_
  6
CONTINUOUS
 62
    2
 10
749.32303679909273
 20
356.91927353993935
 11
748.32303679909273
 21
355.91927353993935
  0
LINE
  8
_1-0_
  6
CONTINUOUS
 62
    2
 10
748.75735137414358
 20
356.91927353993935
 11
747.75735137414358
 21
355.91927353993935
  0
LINE
  8
_1-0_
  6
CONTINUOUS
 62
    2
 10
748.19166594919443
 20
356.91927353993935
 11
747.19166594919443
 21
355.91927353993935
  0
LINE
  8
_1-0_
  6
CONTINUOUS
 62
    2
 10
747.62598052424551
 20
356.91927353993935
 11
746.62598052424551
 21
355.91927353993935
  0
LINE
  8
_1-0_
  6
CONTINUOUS
 62
    2
 10
747.06029509929613
 20
356.91927353993935
 11
746.06029509929613
 21
355.91927353993935
  0
LINE
  8
_1-0_
  6
CONTINUOUS
 62
    2
 10
746.49460967434698
 20
356.91927353993935
 11
745.49460967434698
 21
355.91927353993935
  0
LINE
  8
_1-0_
  6
CONTINUOUS
 62
    2
 10
745.92892424939782
 20
356.91927353993935
 11
744.92892424939782
 21
355.91927353993935
  0
LINE
  8
_1-0_
  6
CONTINUOUS
 62
    2
 10
745.3632388244489
 20
356.91927353993935
 11
744.3632388244489
 21
355.91927353993935
  0
LINE
  8
_1-0_
  6
CONTINUOUS
 62
    2
 10
744.79755339949918
 20
356.91927353993935
 11
743.79755339949918
 21
355.91927353993935
  0
LINE
  8
_1-0_
  6
CONTINUOUS
 62
    2
 10
744.23186797454946
 20
356.91927353993935
 11
743.23186797454946
 21
355.91927353993935
  0
LINE
  8
_1-0_
  6
CONTINUOUS
 62
    2
 10
743.66618254960053
 20
356.91927353993935
 11
742.66618254960053
 21
355.91927353993935
  0
LINE
  8
_1-0_
  6
CONTINUOUS
 62
    2
 10
743.10049712465116
 20
356.91927353993935
 11
742.10049712465116
 21
355.91927353993935
  0
LINE
  8
_1-0_
  6
CONTINUOUS
 62
    2
 10
742.53481169970223
 20
356.91927353993935
 11
741.53481169970223
 21
355.91927353993935
  0
LINE
  8
_1-0_
  6
CONTINUOUS
 62
    2
 10
741.96912627475285
 20
356.91927353993935
 11
740.96912627475285
 21
355.91927353993935
  0
LINE
  8
_1-0_
  6
CONTINUOUS
 62
    2
 10
741.4034408498037
 20
356.91927353993935
 11
740.4034408498037
 21
355.91927353993935
  0
LINE
  8
_1-0_
  6
CONTINUOUS
 62
    2
 10
740.83775542485455
 20
356.91927353993935
 11
739.83775542485455
 21
355.91927353993935
  0
LINE
  8
_1-0_
  6
CONTINUOUS
 62
    2
 10
740.27206999990563
 20
356.91927353993935
 11
739.27206999990563
 21
355.91927353993935
  0
LINE
  8
_1-0_
  6
CONTINUOUS
 62
    2
 10
739.70638457495591
 20
356.91927353993935
 11
738.70638457495591
 21
355.91927353993935
  0
LINE
  8
_1-0_
  6
CONTINUOUS
 62
    2
 10
739.14069915000664
 20
356.91927353993935
 11
738.14069915000664
 21
355.91927353993935
  0
LINE
  8
_1-0_
  6
CONTINUOUS
 62
    2
 10
738.5750137250576
 20
356.91927353993935
 11
737.5750137250576
 21
355.91927353993935
  0
LINE
  8
_1-0_
  6
CONTINUOUS
 62
    2
 10
738.00932830010834
 20
356.91927353993935
 11
737.00932830010834
 21
355.91927353993935
  0
LINE
  8
_1-0_
  6
CONTINUOUS
 62
    2
 10
737.44364287515896
 20
356.91927353993935
 11
736.44364287515896
 21
355.91927353993935
  0
LINE
  8
_1-0_
  6
CONTINUOUS
 62
    2
 10
736.87795745020958
 20
356.91927353993935
 11
735.87795745020958
 21
355.91927353993935
  0
LINE
  8
_1-0_
  6
CONTINUOUS
 62
    2
 10
736.31227202526043
 20
356.91927353993935
 11
735.31227202526043
 21
355.91927353993935
  0
LINE
  8
_1-0_
  6
CONTINUOUS
 62
    2
 10
735.74658660031128
 20
356.91927353993935
 11
734.74658660031128
 21
355.91927353993935
  0
LINE
  8
_1-0_
  6
CONTINUOUS
 62
    2
 10
735.18090117536235
 20
356.91927353993935
 11
734.18090117536235
 21
355.91927353993935
  0
LINE
  8
_1-0_
  6
CONTINUOUS
 62
    2
 10
734.61521575041297
 20
356.91927353993935
 11
733.61521575041297
 21
355.91927353993935
  0
LINE
  8
_1-0_
  6
CONTINUOUS
 62
    2
 10
734.04953032546382
 20
356.91927353993935
 11
733.04953032546382
 21
355.91927353993935
  0
LINE
  8
_1-0_
  6
CONTINUOUS
 62
    2
 10
733.48384490051433
 20
356.91927353993935
 11
732.48384490051433
 21
355.91927353993935
  0
LINE
  8
_1-0_
  6
CONTINUOUS
 62
    2
 10
732.91815947556506
 20
356.91927353993935
 11
731.91815947556506
 21
355.91927353993935
  0
LINE
  8
_1-0_
  6
CONTINUOUS
 62
    2
 10
732.35247405061568
 20
356.91927353993935
 11
731.35247405061602
 21
355.91927353993935
  0
LINE
  8
_1-0_
  6
CONTINUOUS
 62
    2
 10
731.7867886256663
 20
356.91927353993935
 11
730.7867886256663
 21
355.91927353993935
  0
LINE
  8
_1-0_
  6
CONTINUOUS
 62
    2
 10
731.22110320071715
 20
356.91927353993935
 11
730.22110320071715
 21
355.91927353993935
  0
LINE
  8
_1-0_
  6
CONTINUOUS
 62
    2
 10
730.655417775768
 20
356.91927353993935
 11
729.655417775768
 21
355.91927353993935
  0
LINE
  8
_1-0_
  6
CONTINUOUS
 62
    2
 10
730.08973235081908
 20
356.91927353993935
 11
729.08973235081908
 21
355.91927353993935
  0
LINE
  8
_1-0_
  6
CONTINUOUS
 62
    2
 10
729.5240469258697
 20
356.91927353993935
 11
728.60000000000036
 21
355.99522661406985
  0
LINE
  8
_1-0_
  6
CONTINUOUS
 62
    2
 10
728.95836150092055
 20
356.91927353993935
 11
728.60000000000036
 21
356.56091203901917
  0
LINE
  8
_1-0_
  6
CONTINUOUS
 62
    2
 10
765.00000000000045
 20
363.03927353993942
 11
765.00000000000045
 21
355.91927353993935
  0
LINE
  8
_1-0_
  6
CONTINUOUS
 62
    2
 10
763
 20
363.03927353993942
 11
763
 21
356.91927353993935
  0
LINE
  8
_1-0_
  6
CONTINUOUS
 62
    2
 10
764.49400359828178
 20
363.03927353993942
 11
763
 21
361.54526994165872
  0
LINE
  8
_1-0_
  6
CONTINUOUS
 62
    2
 10
763.92831817333172
 20
363.03927353993942
 11
763
 21
362.11095536660787
  0
LINE
  8
_1-0_
  6
CONTINUOUS
 62
    2
 10
763.36263274837938
 20
363.03927353993942
 11
763
 21
362.67664079155702
  0
LINE
  8
_1-0_
  6
CONTINUOUS
 62
    2
 10
765.00000000000045
 20
362.97958451670939
 11
763
 21
360.97958451670956
  0
LINE
  8
_1-e_
  6
CONTINUOUS
 62
    4
 10
764
 20
356.91927353993935
 11
792
 21
356.91927353993935
  0
LINE
  8
_1-e_
  6
CONTINUOUS
 62
    4
 10
772
 20
363.03927353993942
 11
792
 21
363.03927353993942
  0
POINT
  8
_1-e_
 62
    4
 10
791
 20
363.03927353993942
  0
POINT
  8
_1-e_
 62
    4
 10
791
 20
356.91927353993935
  0
LINE
  8
_1-e_
  6
CONTINUOUS
 62
    4
 10
791
 20
363.03927353993942
 11
791
 21
356.91927353993935
  0
TEXT
  8
_1-e_
 62
    4
 10
791
 20
353.97927353993941
 40
6
 41
1
 50
90
  1
30.6
  0
LINE
  8
_1-0_
  6
CONTINUOUS
 62
    4
 10
728.60000000000036
 20
357.91927353993935
 11
728.60000000000036
 21
384.03927353993942
  0
LINE
  8
_1-0_
  6
CONTINUOUS
 62
    4
 10
763
 20
364.03927353993942
 11
763
 21
384.03927353993942
  0
POINT
  8
_1-0_
 62
    4
 10
763
 20
383.03927353993942
  0
POINT
  8
_1-0_
 62
    4
 10
728.60000000000036
 20
383.03927353993942
  0
LINE
  8
_1-0_
  6
CONTINUOUS
 62
    4
 10
763
 20
383.03927353993942
 11
728.60000000000036
 21
383.03927353993942
  0
TEXT
  8
_1-0_
 62
    4
 10
740.4000000000002
 20
383.03927353993942
 40
9
 41
0.8
 50
0
  1
172
  0
LINE
  8
_1-0_
  6
CONTINUOUS
 62
    4
 10
698.60000000000036
 20
374.91927353994163
 11
698.60000000000036
 21
384.03927353993942
  0
POINT
  8
_1-0_
 62
    4
 10
728.60000000000036
 20
383.03927353993942
  0
POINT
  8
_1-0_
 62
    4
 10
698.60000000000036
 20
383.03927353993942
  0
LINE
  8
_1-0_
  6
CONTINUOUS
 62
    4
 10
728.60000000000036
 20
383.03927353993942
 11
698.60000000000036
 21
383.03927353993942
  0
TEXT
  8
_1-0_
 62
    4
 10
708.20000000000039
 20
383.03927353993942
 40
9
 41
0.8
 50
0
  1
150
  0
LINE
  8
_0-0_躯体
  6
CONTINUOUS
 62
    2
 10
349.60000000000099
 20
275.39999999998861
 11
531.60000000000105
 21
275.39999999998861
  0
LINE
  8
_0-0_躯体
  6
CONTINUOUS
 62
    2
 10
349.60000000000076
 20
280.39999999998861
 11
521.60000000000059
 21
280.39999999998861
  0
LINE
  8
_0-0_躯体
  6
CONTINUOUS
 62
    2
 10
531.60000000000105
 20
276.76042938688568
 11
530.23957061310443
 21
275.39999999998861
  0
LINE
  8
_0-0_躯体
  6
CONTINUOUS
 62
    2
 10
531.60000000000105
 20
279.58885651163189
 11
527.41114348835822
 21
275.39999999998861
  0
LINE
  8
_0-0_躯体
  6
CONTINUOUS
 62
    2
 10
531.60000000000105
 20
282.4172836363781
 11
524.58271636361201
 21
275.39999999998861
  0
LINE
  8
_0-0_躯体
  6
CONTINUOUS
 62
    2
 10
531.60000000000105
 20
285.24571076112409
 11
521.75428923886579
 21
275.39999999998861
  0
LINE
  8
_0-0_躯体
  6
CONTINUOUS
 62
    2
 10
531.60000000000105
 20
288.0741378858703
 11
518.92586211411958
 21
275.39999999998861
  0
LINE
  8
_0-0_躯体
  6
CONTINUOUS
 62
    2
 10
531.60000000000105
 20
290.90256501061651
 11
521.60000000000059
 21
280.90256501061583
  0
LINE
  8
_0-0_躯体
  6
CONTINUOUS
 62
    2
 10
521.09743498937337
 20
280.39999999998861
 11
516.09743498937337
 21
275.39999999998861
  0
LINE
  8
_0-0_躯体
  6
CONTINUOUS
 62
    2
 10
531.60000000000105
 20
293.73099213536273
 11
521.60000000000059
 21
283.73099213536227
  0
LINE
  8
_0-0_躯体
  6
CONTINUOUS
 62
    2
 10
518.2690078646267
 20
280.39999999998861
 11
513.26900786462716
 21
275.39999999998861
  0
LINE
  8
_0-0_躯体
  6
CONTINUOUS
 62
    2
 10
531.60000000000105
 20
296.55941926010894
 11
521.60000000000059
 21
286.55941926010826
  0
LINE
  8
_0-0_躯体
  6
CONTINUOUS
 62
    2
 10
515.44058073988049
 20
280.39999999998861
 11
510.44058073988089
 21
275.39999999998861
  0
LINE
  8
_0-0_躯体
  6
CONTINUOUS
 62
    2
 10
531.60000000000105
 20
299.38784638485527
 11
521.60000000000059
 21
289.38784638485447
  0
LINE
  8
_0-0_躯体
  6
CONTINUOUS
 62
    2
 10
512.61215361513428
 20
280.39999999998861
 11
507.61215361513467
 21
275.39999999998861
  0
LINE
  8
_0-0_躯体
  6
CONTINUOUS
 62
    2
 10
531.60000000000105
 20
302.21627350960148
 11
521.60000000000059
 21
292.21627350960068
  0
LINE
  8
_0-0_躯体
  6
CONTINUOUS
 62
    2
 10
509.78372649038846
 20
280.39999999998861
 11
504.78372649038846
 21
275.39999999998861
  0
LINE
  8
_0-0_躯体
  6
CONTINUOUS
 62
    2
 10
531.60000000000105
 20
305.04470063434769
 11
521.60000000000059
 21
295.0447006343469
  0
LINE
  8
_0-0_躯体
  6
CONTINUOUS
 62
    2
 10
506.95529936564225
 20
280.39999999998861
 11
501.95529936564225
 21
275.39999999998861
  0
LINE
  8
_0-0_躯体
  6
CONTINUOUS
 62
    2
 10
531.60000000000105
 20
307.8731277590939
 11
521.60000000000059
 21
297.87312775909322
  0
LINE
  8
_0-0_躯体
  6
CONTINUOUS
 62
    2
 10
504.12687224089603
 20
280.39999999998861
 11
499.12687224089603
 21
275.39999999998861
  0
LINE
  8
_0-0_躯体
  6
CONTINUOUS
 62
    2
 10
501.29844511614982
 20
280.39999999998861
 11
496.29844511614982
 21
275.39999999998861
  0
LINE
  8
_0-0_躯体
  6
CONTINUOUS
 62
    2
 10
498.47001799140361
 20
280.39999999998861
 11
493.47001799140361
 21
275.39999999998861
  0
LINE
  8
_0-0_躯体
  6
CONTINUOUS
 62
    2
 10
495.6415908666574
 20
280.39999999998861
 11
490.6415908666574
 21
275.39999999998861
  0
LINE
  8
_0-0_躯体
  6
CONTINUOUS
 62
    2
 10
492.81316374191118
 20
280.39999999998861
 11
487.81316374191118
 21
275.39999999998861
  0
LINE
  8
_0-0_躯体
  6
CONTINUOUS
 62
    2
 10
489.98473661716497
 20
280.39999999998861
 11
484.98473661716497
 21
275.39999999998861
  0
LINE
  8
_0-0_躯体
  6
CONTINUOUS
 62
    2
 10
487.15630949241876
 20
280.39999999998861
 11
482.15630949241876
 21
275.39999999998861
  0
LINE
  8
_0-0_躯体
  6
CONTINUOUS
 62
    2
 10
484.32788236767254
 20
280.39999999998861
 11
479.32788236767254
 21
275.39999999998861
  0
LINE
  8
_0-0_躯体
  6
CONTINUOUS
 62
    2
 10
481.49945524292633
 20
280.39999999998861
 11
476.49945524292633
 21
275.39999999998861
  0
LINE
  8
_0-0_躯体
  6
CONTINUOUS
 62
    2
 10
478.67102811818012
 20
280.39999999998861
 11
473.67102811818012
 21
275.39999999998861
  0
LINE
  8
_0-0_躯体
  6
CONTINUOUS
 62
    2
 10
475.8426009934339
 20
280.39999999998861
 11
470.8426009934339
 21
275.39999999998861
  0
LINE
  8
_0-0_躯体
  6
CONTINUOUS
 62
    2
 10
473.01417386868769
 20
280.39999999998861
 11
468.01417386868815
 21
275.39999999998861
  0
LINE
  8
_0-0_躯体
  6
CONTINUOUS
 62
    2
 10
470.18574674394148
 20
280.39999999998861
 11
465.18574674394148
 21
275.39999999998861
  0
LINE
  8
_0-0_躯体
  6
CONTINUOUS
 62
    2
 10
467.35731961919527
 20
280.39999999998861
 11
462.35731961919572
 21
275.39999999998861
  0
LINE
  8
_0-0_躯体
  6
CONTINUOUS
 62
    2
 10
464.52889249444905
 20
280.39999999998861
 11
459.52889249444951
 21
275.39999999998861
  0
LINE
  8
_0-0_躯体
  6
CONTINUOUS
 62
    2
 10
461.70046536970329
 20
280.39999999998861
 11
456.70046536970329
 21
275.39999999998861
  0
LINE
  8
_0-0_躯体
  6
CONTINUOUS
 62
    2
 10
458.87203824495708
 20
280.39999999998861
 11
453.87203824495708
 21
275.39999999998861
  0
LINE
  8
_0-0_躯体
  6
CONTINUOUS
 62
    2
 10
456.04361112021087
 20
280.39999999998861
 11
451.04361112021087
 21
275.39999999998861
  0
LINE
  8
_0-0_躯体
  6
CONTINUOUS
 62
    2
 10
453.21518399546466
 20
280.39999999998861
 11
448.21518399546466
 21
275.39999999998861
  0
LINE
  8
_0-0_躯体
  6
CONTINUOUS
 62
    2
 10
450.38675687071844
 20
280.39999999998861
 11
445.38675687071844
 21
275.39999999998861
  0
LINE
  8
_0-0_躯体
  6
CONTINUOUS
 62
    2
 10
447.55832974597223
 20
280.39999999998861
 11
442.558329745972
 21
275.39999999998861
  0
LINE
  8
_0-0_躯体
  6
CONTINUOUS
 62
    2
 10
444.72990262122602
 20
280.39999999998861
 11
439.72990262122602
 21
275.39999999998861
  0
LINE
  8
_0-0_躯体
  6
CONTINUOUS
 62
    2
 10
441.90147549647958
 20
280.39999999998861
 11
436.90147549647958
 21
275.39999999998861
  0
LINE
  8
_0-0_躯体
  6
CONTINUOUS
 62
    2
 10
439.07304837173336
 20
280.39999999998861
 11
434.07304837173359
 21
275.39999999998861
  0
LINE
  8
_0-0_躯体
  6
CONTINUOUS
 62
    2
 10
436.24462124698715
 20
280.39999999998861
 11
431.24462124698738
 21
275.39999999998861
  0
LINE
  8
_0-0_躯体
  6
CONTINUOUS
 62
    2
 10
433.41619412224117
 20
280.39999999998861
 11
428.41619412224117
 21
275.39999999998861
  0
LINE
  8
_0-0_躯体
  6
CONTINUOUS
 62
    2
 10
430.58776699749495
 20
280.39999999998861
 11
425.58776699749495
 21
275.39999999998861
  0
LINE
  8
_0-0_躯体
  6
CONTINUOUS
 62
    2
 10
427.75933987274874
 20
280.39999999998861
 11
422.75933987274874
 21
275.39999999998861
  0
LINE
  8
_0-0_躯体
  6
CONTINUOUS
 62
    2
 10
424.93091274800253
 20
280.39999999998861
 11
419.93091274800253
 21
275.39999999998861
  0
LINE
  8
_0-0_躯体
  6
CONTINUOUS
 62
    2
 10
422.10248562325631
 20
280.39999999998861
 11
417.10248562325631
 21
275.39999999998861
  0
LINE
  8
_0-0_躯体
  6
CONTINUOUS
 62
    2
 10
419.2740584985101
 20
280.39999999998861
 11
414.2740584985101
 21
275.39999999998861
  0
LINE
  8
_0-0_躯体
  6
CONTINUOUS
 62
    2
 10
416.44563137376389
 20
280.39999999998861
 11
411.44563137376389
 21
275.39999999998861
  0
LINE
  8
_0-0_躯体
  6
CONTINUOUS
 62
    2
 10
413.61720424901768
 20
280.39999999998861
 11
408.6172042490179
 21
275.39999999998861
  0
LINE
  8
_0-0_躯体
  6
CONTINUOUS
 62
    2
 10
410.78877712427123
 20
280.39999999998861
 11
405.78877712427146
 21
275.39999999998861
  0
LINE
  8
_0-0_躯体
  6
CONTINUOUS
 62
    2
 10
407.96034999952548
 20
280.39999999998861
 11
402.96034999952548
 21
275.39999999998861
  0
LINE
  8
_0-0_躯体
  6
CONTINUOUS
 62
    2
 10
405.13192287477904
 20
280.39999999998861
 11
400.13192287477904
 21
275.39999999998861
  0
LINE
  8
_0-0_躯体
  6
CONTINUOUS
 62
    2
 10
402.30349575003305
 20
280.39999999998861
 11
397.30349575003305
 21
275.39999999998861
  0
LINE
  8
_0-0_躯体
  6
CONTINUOUS
 62
    2
 10
399.47506862528684
 20
280.39999999998861
 11
394.47506862528684
 21
275.39999999998861
  0
LINE
  8
_0-0_躯体
  6
CONTINUOUS
 62
    2
 10
396.64664150054062
 20
280.39999999998861
 11
391.64664150054062
 21
275.39999999998861
  0
LINE
  8
_0-0_躯体
  6
CONTINUOUS
 62
    2
 10
393.81821437579441
 20
280.39999999998861
 11
388.81821437579441
 21
275.39999999998861
  0
LINE
  8
_0-0_躯体
  6
CONTINUOUS
 62
    2
 10
390.9897872510482
 20
280.39999999998861
 11
385.98978725104843
 21
275.39999999998861
  0
LINE
  8
_0-0_躯体
  6
CONTINUOUS
 62
    2
 10
388.16136012630199
 20
280.39999999998861
 11
383.16136012630199
 21
275.39999999998861
  0
LINE
  8
_0-0_躯体
  6
CONTINUOUS
 62
    2
 10
385.33293300155577
 20
280.39999999998861
 11
380.332933001556
 21
275.39999999998861
  0
LINE
  8
_0-0_躯体
  6
CONTINUOUS
 62
    2
 10
382.50450587680956
 20
280.39999999998861
 11
377.50450587680956
 21
275.39999999998861
  0
LINE
  8
_0-0_躯体
  6
CONTINUOUS
 62
    2
 10
379.67607875206335
 20
280.39999999998861
 11
374.67607875206357
 21
275.39999999998861
  0
LINE
  8
_0-0_躯体
  6
CONTINUOUS
 62
    2
 10
376.84765162731713
 20
280.39999999998861
 11
371.84765162731736
 21
275.39999999998861
  0
LINE
  8
_0-0_躯体
  6
CONTINUOUS
 62
    2
 10
374.01922450257092
 20
280.39999999998861
 11
369.01922450257115
 21
275.39999999998861
  0
LINE
  8
_0-0_躯体
  6
CONTINUOUS
 62
    2
 10
371.19079737782471
 20
280.39999999998861
 11
366.19079737782494
 21
275.39999999998861
  0
LINE
  8
_0-0_躯体
  6
CONTINUOUS
 62
    2
 10
368.3623702530785
 20
280.39999999998861
 11
363.36237025307872
 21
275.39999999998861
  0
LINE
  8
_0-0_躯体
  6
CONTINUOUS
 62
    2
 10
365.53394312833228
 20
280.39999999998861
 11
360.53394312833251
 21
275.39999999998861
  0
LINE
  8
_0-0_躯体
  6
CONTINUOUS
 62
    2
 10
362.70551600358607
 20
280.39999999998861
 11
357.7055160035863
 21
275.39999999998861
  0
LINE
  8
_0-0_躯体
  6
CONTINUOUS
 62
    2
 10
359.87708887884008
 20
280.39999999998861
 11
354.87708887884008
 21
275.39999999998861
  0
LINE
  8
_0-0_躯体
  6
CONTINUOUS
 62
    2
 10
357.04866175409364
 20
280.39999999998861
 11
352.04866175409387
 21
275.39999999998861
  0
LINE
  8
_0-0_躯体
  6
CONTINUOUS
 62
    2
 10
354.22023462934766
 20
280.39999999998861
 11
349.60000000000076
 21
275.77976537064171
  0
LINE
  8
_0-0_躯体
  6
CONTINUOUS
 62
    2
 10
351.39180750460145
 20
280.39999999998861
 11
349.60000000000076
 21
278.60819249538793
  0
LINE
  8
_0-0_躯体
  6
CONTINUOUS
 62
    2
 10
521.60000000000059
 20
310.99999999998886
 11
561.60000000000014
 21
310.99999999998886
  0
LINE
  8
_0-0_躯体
  6
CONTINUOUS
 62
    2
 10
531.60000000000105
 20
310.99999999998886
 11
531.60000000000105
 21
275.39999999998861
  0
LINE
  8
_0-0_躯体
  6
CONTINUOUS
 62
    2
 10
521.60000000000059
 20
310.99999999998886
 11
521.60000000000059
 21
280.39999999998861
  0
LINE
  8
_0-0_躯体
  6
CONTINUOUS
 62
    2
 10
529.07001799140403
 20
310.99999999998886
 11
521.60000000000059
 21
303.52998200858542
  0
LINE
  8
_0-0_躯体
  6
CONTINUOUS
 62
    2
 10
526.24159086665713
 20
310.99999999998886
 11
521.60000000000059
 21
306.35840913333186
  0
LINE
  8
_0-0_躯体
  6
CONTINUOUS
 62
    2
 10
523.4131637419116
 20
310.99999999998886
 11
521.60000000000059
 21
309.18683625807785
  0
LINE
  8
_0-0_躯体
  6
CONTINUOUS
 62
    2
 10
531.60000000000105
 20
310.70155488384012
 11
521.60000000000059
 21
300.70155488383944
  0
LINE
  8
_0-a_
  6
CONTINUOUS
 62
    3
 10
202.2000000000007
 20
340.49999999998897
 11
201.2000000000007
 21
340.49999999998897
  0
LINE
  8
_0-a_
  6
CONTINUOUS
 62
    3
 10
219.59999770767442
 20
296.79999860241253
 11
219.59999770767442
 21
299.79999860241276
  0
LINE
  8
_0-a_
  6
CONTINUOUS
 62
    3
 10
219.80000170767423
 20
296.79999860241253
 11
219.59999770767442
 21
296.79999860241253
  0
LINE
  8
_0-a_
  6
CONTINUOUS
 62
    3
 10
222.99999370767407
 20
296.79999860241253
 11
222.99999970767428
 21
299.79999860241276
  0
LINE
  8
_0-a_
  6
CONTINUOUS
 62
    3
 10
222.79999270767527
 20
296.79999860241253
 11
222.99999370767407
 21
296.79999860241253
  0
LINE
  8
_0-a_
  6
CONTINUOUS
 62
    3
 10
219.80000170767423
 20
294.8000006024123
 11
220.23787270767477
 21
296.55149360241296
  0
ARC
  8
_0-a_
  6
CONTINUOUS
 62
    3
 10
220.04384470767442
 20
296.60000060241293
 40
0.200001
 50
345.96380799992488
 51
90
  0
LINE
  8
_0-a_
  6
CONTINUOUS
 62
    3
 10
219.79999870767412
 20
296.79999860241253
 11
220.04384470767442
 21
296.79999860241253
  0
LINE
  8
_0-a_
  6
CONTINUOUS
 62
    3
 10
222.79999870767458
 20
294.8000006024123
 11
222.36212170767428
 21
296.55149360241296
  0
ARC
  8
_0-a_
  6
CONTINUOUS
 62
    3
 10
222.55614970767462
 20
296.60000060241293
 40
0.200001
 50
90
 51
194.0364020000284
  0
LINE
  8
_0-a_
  6
CONTINUOUS
 62
    3
 10
222.79999270767527
 20
296.79999860241253
 11
222.55614970767462
 21
296.79999860241253
  0
ARC
  8
_0-a_
  6
CONTINUOUS
 62
    3
 10
221.29999870767458
 20
299.79999860241276
 40
3
 50
0
 51
180
  0
ARC
  8
_0-a_
  6
CONTINUOUS
 62
    3
 10
221.29999870767458
 20
299.79999860241276
 40
1.7000010000000001
 50
0
 51
180
  0
LINE
  8
_0-a_
  6
CONTINUOUS
 62
    3
 10
224.29999870767458
 20
294.8000006024123
 11
224.29999870767458
 21
299.79999860241276
  0
LINE
  8
_0-a_
  6
CONTINUOUS
 62
    3
 10
222.79999870767458
 20
294.8000006024123
 11
224.29999870767458
 21
294.8000006024123
  0
LINE
  8
_0-a_
  6
CONTINUOUS
 62
    3
 10
218.29999870767458
 20
294.8000006024123
 11
219.79999870767412
 21
294.8000006024123
  0
LINE
  8
_0-a_
  6
CONTINUOUS
 62
    3
 10
218.29999870767458
 20
299.79999860241276
 11
218.29999870767458
 21
294.8000006024123
  0
LINE
  8
_0-a_
  6
CONTINUOUS
 62
    3
 10
208.328414902086
 20
314.00000068378029
 11
208.32330972768565
 21
314.31500068378011
  0
LINE
  8
_0-a_
  6
CONTINUOUS
 62
    3
 10
208.32330972768565
 20
313.68500068378
 11
208.328414902086
 21
314.00000068378029
  0
LINE
  8
_0-a_
  6
CONTINUOUS
 62
    3
 10
208.32330972768565
 20
314.31500068378011
 11
208.75912461768573
 21
314.31500068378011
  0
LINE
  8
_0-a_
  6
CONTINUOUS
 62
    3
 10
208.75912461768573
 20
314.31500068378011
 11
208.75912461768573
 21
314.66228936578011
  0
LINE
  8
_0-a_
  6
CONTINUOUS
 62
    3
 10
208.4936887962858
 20
315.96219963348028
 11
208.32330972768565
 21
316.44250395237884
  0
LINE
  8
_0-a_
  6
CONTINUOUS
 62
    3
 10
208.75912461768573
 20
314.66228936578011
 11
208.4936887962858
 21
315.96219963348028
  0
LINE
  8
_0-a_
  6
CONTINUOUS
 62
    3
 10
208.32330972768565
 20
311.55749741528018
 11
208.75912461768573
 21
313.33771200187891
  0
LINE
  8
_0-a_
  6
CONTINUOUS
 62
    3
 10
208.75912461768573
 20
313.33771200187891
 11
208.75912461768573
 21
313.68500068378
  0
LINE
  8
_0-a_
  6
CONTINUOUS
 62
    3
 10
208.75912461768573
 20
313.68500068378
 11
208.32330972768565
 21
313.68500068378
  0
ARC
  8
_0-a_
  6
CONTINUOUS
 62
    3
 10
202.19999748808547
 20
314.00000068378029
 40
6.5999999999999996
 50
21.748408590904258
 51
37.367558032305283
  0
ARC
  8
_0-a_
  6
CONTINUOUS
 62
    3
 10
202.19999748808547
 20
314.00000068378029
 40
6.5999999999999996
 50
322.63244196770472
 51
338.26638354339906
  0
ARC
  8
_0-a_
  6
CONTINUOUS
 62
    3
 10
206.65859211778567
 20
310.59514621867982
 40
0.9899999999999997
 50
274.99999999879952
 51
322.63244196795739
  0
ARC
  8
_0-a_
  6
CONTINUOUS
 62
    3
 10
206.65859211778567
 20
317.40485514888076
 40
0.9899999999999997
 50
37.367558032042609
 51
85.000000001200505
  0
LINE
  8
_0-a_
  6
CONTINUOUS
 62
    3
 10
206.74487630308565
 20
318.39108790007992
 11
205.49999748808565
 21
318.50000068377938
  0
LINE
  8
_0-a_
  6
CONTINUOUS
 62
    3
 10
205.49999748808565
 20
309.50000068377938
 11
206.74487630308565
 21
309.60891346758001
  0
LINE
  8
_0-a_
  6
CONTINUOUS
 62
    3
 10
205.49999748808565
 20
323.00000068378029
 11
203.99999748808565
 21
323.00000068378029
  0
LINE
  8
_0-a_
  6
CONTINUOUS
 62
    3
 10
205.49999748808565
 20
305.00000068377938
 11
203.99999748808565
 21
305.00000068377938
  0
LINE
  8
_0-a_
  6
CONTINUOUS
 62
    3
 10
203.99999748808565
 20
305.00000068377938
 11
203.99999748808565
 21
323.00000068378029
  0
LINE
  8
_0-a_
  6
CONTINUOUS
 62
    3
 10
205.49999748808565
 20
305.00000068377938
 11
205.49999748808565
 21
323.00000068378029
  0
LINE
  8
_0-a_
  6
CONTINUOUS
 62
    3
 10
225.99999998258679
 20
340.00000071560078
 11
222.89999998258688
 21
343.10000071560091
  0
LINE
  8
_0-a_
  6
CONTINUOUS
 62
    3
 10
222.89999998258688
 20
343.10000071560091
 11
222.89999998258688
 21
346.90000071560019
  0
LINE
  8
_0-a_
  6
CONTINUOUS
 62
    3
 10
225.99999998258679
 20
350.00000071560055
 11
222.89999998258688
 21
346.90000071560019
  0
LINE
  8
_0-a_
  6
CONTINUOUS
 62
    3
 10
226.19999998258751
 20
340.00000071560078
 11
225.99999998258679
 21
340.00000071560078
  0
LINE
  8
_0-a_
  6
CONTINUOUS
 62
    3
 10
225.99999998258679
 20
340.00000071560078
 11
225.99999998258679
 21
350.00000071560055
  0
LINE
  8
_0-a_
  6
CONTINUOUS
 62
    3
 10
226.19999998258751
 20
350.00000071560055
 11
225.99999998258679
 21
350.00000071560055
  0
LINE
  8
_0-a_
  6
CONTINUOUS
 62
    3
 10
210.54641014410069
 20
345.00000071560055
 11
216.89999998258688
 21
343.87969140272037
  0
LINE
  8
_0-a_
  6
CONTINUOUS
 62
    3
 10
210.54641014410069
 20
345.00000071560055
 11
211.55677311518272
 21
343.25000071560055
  0
LINE
  8
_0-a_
  6
CONTINUOUS
 62
    3
 10
216.89999998258688
 20
343.25000071560055
 11
211.55677311518272
 21
343.25000071560055
  0
LINE
  8
_0-a_
  6
CONTINUOUS
 62
    3
 10
221.70301342126047
 20
343.21000071560059
 11
220.90738170192978
 21
343.21000071560059
  0
LINE
  8
_0-a_
  6
CONTINUOUS
 62
    3
 10
220.20301342126047
 20
343.21000071560059
 11
219.40738170192978
 21
343.21000071560059
  0
LINE
  8
_0-a_
  6
CONTINUOUS
 62
    3
 10
218.70301342126047
 20
343.21000071560059
 11
216.89999998258688
 21
343.21000071560059
  0
LINE
  8
_0-a_
  6
CONTINUOUS
 62
    3
 10
222.89999998258688
 20
343.21000071560059
 11
222.40738170192978
 21
343.21000071560059
  0
LINE
  8
_0-a_
  6
CONTINUOUS
 62
    3
 10
217.39999998258733
 20
346.79000071560074
 11
216.89999998258688
 21
346.79000071560074
  0
LINE
  8
_0-a_
  6
CONTINUOUS
 62
    3
 10
218.89999998258733
 20
346.79000071560074
 11
218.10436826325665
 21
346.79000071560074
  0
LINE
  8
_0-a_
  6
CONTINUOUS
 62
    3
 10
220.39999998258733
 20
346.79000071560074
 11
219.60436826325665
 21
346.79000071560074
  0
LINE
  8
_0-a_
  6
CONTINUOUS
 62
    3
 10
221.89999998258733
 20
346.79000071560074
 11
221.10436826325665
 21
346.79000071560074
  0
LINE
  8
_0-a_
  6
CONTINUOUS
 62
    3
 10
222.89999998258688
 20
346.79000071560074
 11
222.60436826325665
 21
346.79000071560074
  0
LINE
  8
_0-a_
  6
CONTINUOUS
 62
    3
 10
222.90369084225901
 20
345.00000071560055
 11
222.25218412292222
 21
347.40000071560087
  0
LINE
  8
_0-a_
  6
CONTINUOUS
 62
    3
 10
222.60436826325665
 20
346.79000071560074
 11
222.89999998258688
 21
345.97775924226619
  0
LINE
  8
_0-a_
  6
CONTINUOUS
 62
    3
 10
216.89999998258688
 20
342.95000071560082
 11
211.38356803442591
 21
342.95000071560082
  0
LINE
  8
_0-a_
  6
CONTINUOUS
 62
    3
 10
216.89999998258688
 20
342.95000071560082
 11
216.89999998258688
 21
347.0500007156005
  0
LINE
  8
_0-a_
  6
CONTINUOUS
 62
    3
 10
216.89999998258688
 20
347.0500007156005
 11
211.38356803442591
 21
347.0500007156005
  0
LINE
  8
_0-a_
  6
CONTINUOUS
 62
    3
 10
222.25218412292222
 20
347.40000071560087
 11
222.60436826325665
 21
346.79000071560074
  0
LINE
  8
_0-a_
  6
CONTINUOUS
 62
    3
 10
221.89999998258733
 20
346.79000071560074
 11
222.25218412292222
 21
347.40000071560087
  0
LINE
  8
_0-a_
  6
CONTINUOUS
 62
    3
 10
222.05519756159535
 20
342.60000071560046
 11
220.75218412292222
 21
347.40000071560087
  0
LINE
  8
_0-a_
  6
CONTINUOUS
 62
    3
 10
220.39999998258733
 20
346.79000071560074
 11
221.70301342126047
 21
343.21000071560059
  0
LINE
  8
_0-a_
  6
CONTINUOUS
 62
    3
 10
221.10436826325665
 20
346.79000071560074
 11
222.40738170192978
 21
343.21000071560059
  0
LINE
  8
_0-a_
  6
CONTINUOUS
 62
    3
 10
220.75218412292222
 20
347.40000071560087
 11
221.10436826325665
 21
346.79000071560074
  0
LINE
  8
_0-a_
  6
CONTINUOUS
 62
    3
 10
220.39999998258733
 20
346.79000071560074
 11
220.75218412292222
 21
347.40000071560087
  0
LINE
  8
_0-a_
  6
CONTINUOUS
 62
    3
 10
222.05519756159535
 20
342.60000071560046
 11
221.70301342126047
 21
343.21000071560059
  0
LINE
  8
_0-a_
  6
CONTINUOUS
 62
    3
 10
222.40738170192978
 20
343.21000071560059
 11
222.05519756159535
 21
342.60000071560046
  0
LINE
  8
_0-a_
  6
CONTINUOUS
 62
    3
 10
220.55519756159535
 20
342.60000071560046
 11
219.25218412292222
 21
347.40000071560087
  0
LINE
  8
_0-a_
  6
CONTINUOUS
 62
    3
 10
218.89999998258733
 20
346.79000071560074
 11
220.20301342126047
 21
343.21000071560059
  0
LINE
  8
_0-a_
  6
CONTINUOUS
 62
    3
 10
219.60436826325665
 20
346.79000071560074
 11
220.90738170192978
 21
343.21000071560059
  0
LINE
  8
_0-a_
  6
CONTINUOUS
 62
    3
 10
219.25218412292222
 20
347.40000071560087
 11
219.60436826325665
 21
346.79000071560074
  0
LINE
  8
_0-a_
  6
CONTINUOUS
 62
    3
 10
218.89999998258733
 20
346.79000071560074
 11
219.25218412292222
 21
347.40000071560087
  0
LINE
  8
_0-a_
  6
CONTINUOUS
 62
    3
 10
220.55519756159535
 20
342.60000071560046
 11
220.20301342126047
 21
343.21000071560059
  0
LINE
  8
_0-a_
  6
CONTINUOUS
 62
    3
 10
220.90738170192978
 20
343.21000071560059
 11
220.55519756159535
 21
342.60000071560046
  0
LINE
  8
_0-a_
  6
CONTINUOUS
 62
    3
 10
219.05519756159535
 20
342.60000071560046
 11
217.75218412292222
 21
347.40000071560087
  0
LINE
  8
_0-a_
  6
CONTINUOUS
 62
    3
 10
217.39999998258733
 20
346.79000071560074
 11
218.70301342126047
 21
343.21000071560059
  0
LINE
  8
_0-a_
  6
CONTINUOUS
 62
    3
 10
218.10436826325665
 20
346.79000071560074
 11
219.40738170192978
 21
343.21000071560059
  0
LINE
  8
_0-a_
  6
CONTINUOUS
 62
    3
 10
217.75218412292222
 20
347.40000071560087
 11
218.10436826325665
 21
346.79000071560074
  0
LINE
  8
_0-a_
  6
CONTINUOUS
 62
    3
 10
217.39999998258733
 20
346.79000071560074
 11
217.75218412292222
 21
347.40000071560087
  0
LINE
  8
_0-a_
  6
CONTINUOUS
 62
    3
 10
219.05519756159535
 20
342.60000071560046
 11
218.70301342126047
 21
343.21000071560059
  0
LINE
  8
_0-a_
  6
CONTINUOUS
 62
    3
 10
219.40738170192978
 20
343.21000071560059
 11
219.05519756159535
 21
342.60000071560046
  0
LINE
  8
_0-a_
  6
CONTINUOUS
 62
    3
 10
210.19999998258706
 20
345.00000071560055
 11
211.38356803442591
 21
342.95000071560082
  0
LINE
  8
_0-a_
  6
CONTINUOUS
 62
    3
 10
210.19999998258706
 20
345.00000071560055
 11
211.38356803442591
 21
347.0500007156005
  0
LINE
  8
_0-a_
  6
CONTINUOUS
 62
    3
 10
226.19999998258751
 20
340.00000071560078
 11
226.19999998258751
 21
350.00000071560055
  0
LINE
  8
_0-a_
  6
CONTINUOUS
 62
    3
 10
203.99999763183175
 20
314.30000004351166
 11
203.99999548125103
 21
338.99999895651115
  0
LINE
  8
_0-a_
  6
CONTINUOUS
 62
    3
 10
203.99999939060669
 20
291.49999940115424
 11
203.99999751772381
 21
313.70000132342977
  0
LINE
  8
_0-a_
  6
CONTINUOUS
 62
    3
 10
203.69999813683259
 20
313.99999999998875
 11
203.99999818035528
 21
314.30000004351166
  0
LINE
  8
_0-a_
  6
CONTINUOUS
 62
    3
 10
203.99999681339156
 20
313.70000132342955
 11
203.69999813683259
 21
313.99999999998875
  0
LINE
  8
_0-a_
  6
CONTINUOUS
 62
    3
 10
202.20000000879006
 20
286.99999999998875
 11
222.80000117252663
 21
286.99999999998875
  0
LINE
  8
_0-a_
  6
CONTINUOUS
 62
    3
 10
222.80000117252663
 20
286.99999999998875
 11
222.80000117252663
 21
294.80000060209807
  0
LINE
  8
_0-a_
  6
CONTINUOUS
 62
    3
 10
219.80000117252709
 20
291.50000030666126
 11
219.80000117252709
 21
294.80000060209807
  0
ARC
  8
_0-a_
  6
CONTINUOUS
 62
    3
 10
217.80000117252709
 20
291.50000030666126
 40
2
 50
270
 51
0
  0
ARC
  8
_0-a_
  6
CONTINUOUS
 62
    3
 10
205.99999939060669
 20
291.49999957529019
 40
2
 50
180.00000498862744
 51
270
  0
LINE
  8
_0-a_
  6
CONTINUOUS
 62
    3
 10
217.80000117252709
 20
289.50000030666126
 11
205.99999939060669
 21
289.49999957529019
  0
LINE
  8
_0-a_
  6
CONTINUOUS
 62
    3
 10
221.69999999137733
 20
340.49999999998897
 11
224.69999996525664
 21
340.49999999998897
  0
LINE
  8
_0-a_
  6
CONTINUOUS
 62
    3
 10
202.19999999137687
 20
340.49999999998897
 11
219.8999999913776
 21
340.49999999998897
  0
LINE
  8
_0-a_
  6
CONTINUOUS
 62
    3
 10
219.8999999913776
 20
340.49999999998897
 11
219.8999999913776
 21
351.30000034089392
  0
LINE
  8
_0-a_
  6
CONTINUOUS
 62
    3
 10
221.69999999137733
 20
344.70000054985746
 11
221.69999999137733
 21
340.49999999998897
  0
LINE
  8
_0-a_
  6
CONTINUOUS
 62
    3
 10
224.69999996525664
 20
340.49999999998897
 11
224.69999996525664
 21
336.50000071528677
  0
LINE
  8
_0-a_
  6
CONTINUOUS
 62
    3
 10
224.69999999137687
 20
356.50000071528632
 11
224.69999999137778
 21
349.50000034089351
  0
ARC
  8
_0-a_
  6
CONTINUOUS
 62
    3
 10
223.69999999137687
 20
356.50000071528609
 40
1
 50
0
 51
90
  0
LINE
  8
_0-a_
  6
CONTINUOUS
 62
    3
 10
222.89999999137714
 20
355.90000071528686
 11
219.8999999913776
 21
355.90000071528686
  0
LINE
  8
_0-a_
  6
CONTINUOUS
 62
    3
 10
219.8999999913776
 20
355.90000071528686
 11
219.8999999913776
 21
357.00000071528609
  0
ARC
  8
_0-a_
  6
CONTINUOUS
 62
    3
 10
220.39999999137714
 20
357.00000071528609
 40
0.5
 50
90
 51
180
  0
LINE
  8
_0-a_
  6
CONTINUOUS
 62
    3
 10
220.39999999137714
 20
357.50000071528632
 11
223.69999999137687
 21
357.50000071528632
  0
LINE
  8
_0-a_
  6
CONTINUOUS
 62
    3
 10
222.89999977370778
 20
339.00000060209788
 11
203.99999548125103
 21
338.99999895651115
  0
LINE
  8
_0-a_
  6
CONTINUOUS
 62
    3
 10
221.69999999137733
 20
345.30000054985715
 11
221.39999999137669
 21
345.00000054985719
  0
LINE
  8
_0-a_
  6
CONTINUOUS
 62
    3
 10
221.69999999137733
 20
349.50000034089351
 11
221.69999999137733
 21
345.30000054985715
  0
LINE
  8
_0-a_
  6
CONTINUOUS
 62
    3
 10
221.39999999137669
 20
345.00000054985719
 11
221.69999999137733
 21
344.70000054985746
  0
LINE
  8
_0-a_
  6
CONTINUOUS
 62
    3
 10
224.69999999137778
 20
349.50000034089351
 11
221.69999999137733
 21
349.50000034089351
  0
LINE
  8
_0-a_
  6
CONTINUOUS
 62
    3
 10
219.8999999913776
 20
351.30000034089392
 11
222.89999999137714
 21
351.30000034089392
  0
LINE
  8
_0-a_
  6
CONTINUOUS
 62
    3
 10
222.89999999137714
 20
351.30000034089392
 11
222.89999999137714
 21
355.90000071528686
  0
LINE
  8
_0-a_
  6
CONTINUOUS
 62
    3
 10
224.69999996525664
 20
336.50000071528677
 11
222.89999999137714
 21
336.50000071528677
  0
LINE
  8
_0-a_
  6
CONTINUOUS
 62
    3
 10
222.89999977370778
 20
339.00000060209788
 11
203.9999954551308
 21
338.9999989565116
  0
LINE
  8
_0-a_
  6
CONTINUOUS
 62
    3
 10
222.89999999137714
 20
336.50000071528677
 11
222.89999977370778
 21
339.00000060209788
  0
ARC
  8
_0-a_
  6
CONTINUOUS
 62
    3
 10
221.30000117252618
 20
299.80000060209761
 40
1.4999993378710599
 50
0
 51
180
  0
LINE
  8
_0-a_
  6
CONTINUOUS
 62
    3
 10
220.30000183465515
 20
296.80000060209807
 11
219.80000308465239
 21
294.80000060209807
  0
LINE
  8
_0-a_
  6
CONTINUOUS
 62
    3
 10
219.8000018346556
 20
299.80000060209761
 11
219.8000018346556
 21
296.80000060209807
  0
LINE
  8
_0-a_
  6
CONTINUOUS
 62
    3
 10
219.8000018346556
 20
296.80000060209807
 11
220.30000183465515
 21
296.80000060209807
  0
LINE
  8
_0-a_
  6
CONTINUOUS
 62
    3
 10
222.30000051039858
 20
296.80000060209807
 11
222.79999926040088
 21
294.80000060209807
  0
LINE
  8
_0-a_
  6
CONTINUOUS
 62
    3
 10
222.80000051039767
 20
299.80000060209761
 11
222.80000051039767
 21
296.80000060209807
  0
LINE
  8
_0-a_
  6
CONTINUOUS
 62
    3
 10
222.80000051039767
 20
296.80000060209807
 11
222.30000051039858
 21
296.80000060209807
  0
LINE
  8
_0-a_
  6
CONTINUOUS
 62
    3
 10
226.19999995219584
 20
314.00000017044169
 11
216.19999995219584
 21
314.00000017044169
  0
LINE
  8
_0-a_
  6
CONTINUOUS
 62
    3
 10
216.19999995219584
 20
315.50000017044124
 11
216.19999995219584
 21
314.00000017044169
  0
LINE
  8
_0-a_
  6
CONTINUOUS
 62
    3
 10
216.19999995219584
 20
315.50000017044124
 11
224.69999995219675
 21
315.50000017044124
  0
LINE
  8
_0-a_
  6
CONTINUOUS
 62
    3
 10
213.69999995219629
 20
357.50000017044169
 11
213.69999995219629
 21
349.00000017044169
  0
LINE
  8
_0-a_
  6
CONTINUOUS
 62
    3
 10
213.69999995219629
 20
349.00000017044169
 11
212.19999995219629
 21
349.00000017044169
  0
LINE
  8
_0-a_
  6
CONTINUOUS
 62
    3
 10
212.19999995219629
 20
359.00000017044169
 11
212.19999995219629
 21
349.00000017044169
  0
LINE
  8
_0-a_
  6
CONTINUOUS
 62
    3
 10
226.19999995219584
 20
359.00000017044169
 11
226.19999995219584
 21
314.00000017044169
  0
LINE
  8
_0-a_
  6
CONTINUOUS
 62
    3
 10
212.19999995219629
 20
359.00000017044169
 11
226.19999995219584
 21
359.00000017044169
  0
LINE
  8
_0-a_
  6
CONTINUOUS
 62
    3
 10
224.69999995219675
 20
315.50000017044124
 11
224.69999995219675
 21
357.50000017044169
  0
LINE
  8
_0-a_
  6
CONTINUOUS
 62
    3
 10
224.69999995219675
 20
357.50000017044169
 11
213.69999995219629
 21
357.50000017044169
  0
LINE
  8
_0-a_
  6
CONTINUOUS
 62
    3
 10
225.19999995219675
 20
349.25000017044215
 11
224.69999995219675
 21
349.25000017044215
  0
LINE
  8
_0-a_
  6
CONTINUOUS
 62
    3
 10
225.19999995219675
 20
340.75000017044056
 11
224.69999995219675
 21
340.75000017044056
  0
LINE
  8
_0-a_
  6
CONTINUOUS
 62
    3
 10
225.19999995219675
 20
349.25000017044215
 11
226.19999995219584
 21
350.25000017044147
  0
LINE
  8
_0-a_
  6
CONTINUOUS
 62
    3
 10
225.19999995219675
 20
340.75000017044056
 11
225.19999995219675
 21
349.25000017044215
  0
LINE
  8
_0-a_
  6
CONTINUOUS
 62
    3
 10
225.19999995219675
 20
340.75000017044056
 11
226.19999995219584
 21
339.75000017044124
  0
LINE
  8
_0-a_
  6
CONTINUOUS
 62
    3
 10
202.2000000000007
 20
286.13165249760698
 11
202.2000000000007
 21
340.49999999998897
  0
INSERT
  2
-000-
  8
_0-a_
 10
420.5
 20
297
 41
1
 42
1
 50
0
  0
INSERT
  2
-001-_1_
  8
_0-a_
 10
420.5
 20
297
 41
1
 42
1
 50
0
  0
LINE
  8
_0-a_
  6
DASHED1
 62
    3
 10
203.99999825168922
 20
306.49999999998852
 11
202.19999999999843
 21
306.49999999998852
  0
LINE
  8
_0-a_
  6
DASHED1
 62
    3
 10
203.99999825168922
 20
321.49999999998852
 11
202.20000000878824
 21
321.49999999998852
  0
LINE
  8
_0-a_
  6
CONTINUOUS
 62
    3
 10
221.89999998258733
 20
346.79000071560074
 11
222.89999998258688
 21
344.04252329614633
  0
CIRCLE
  8
_0-e_付箋
  6
CONTINUOUS
 62
    4
 10
237.29037976444121
 20
289.79999960241241
 40
4.8827102566353844
  0
TEXT
  8
_0-e_付箋
 62
    4
 10
234.29037976444121
 20
286.79999960241241
 40
6
 41
1
 50
0
  1
７
  0
LINE
  8
_0-e_付箋
  6
CONTINUOUS
 62
    4
 10
233.06182864287618
 20
292.24135473073022
 11
224.29999870767458
 21
297.29999960241241
  0
CIRCLE
  8
_0-e_付箋
  6
CONTINUOUS
 62
    4
 10
236.9421367962577
 20
276.75786467731234
 40
4.8827102566353844
  0
TEXT
  8
_0-e_付箋
 62
    4
 10
233.9421367962577
 20
273.75786467731234
 40
6
 41
1
 50
0
  1
５
  0
LINE
  8
_0-e_付箋
  6
CONTINUOUS
 62
    4
 10
233.48953926322153
 20
280.21046221034828
 11
222.80000117252663
 21
290.90000030104318
  0
CIRCLE
  8
_0-e_付箋
  6
CONTINUOUS
 62
    4
 10
236.80078511670806
 20
322.80112895788011
 40
4.8827102566353844
  0
TEXT
  8
_0-e_付箋
 62
    4
 10
233.80078511670806
 20
319.80112895788011
 40
6
 41
1
 50
0
  1
８
  0
LINE
  8
_0-e_付箋
  6
CONTINUOUS
 62
    4
 10
233.34818758367234
 20
319.34853142484417
 11
226.19418339890987
 21
312.19452724008192
  0
TEXT
  8
_0-e_付箋
 62
    4
 10
233.80660166999402
 20
338.48160188823988
 40
6
 41
1
 50
0
  1
３
  0
LINE
  8
_0-e_付箋
  6
CONTINUOUS
 62
    4
 10
233.35400413695831
 20
338.02900435520394
 11
226.19999995219584
 21
330.87500017044169
  0
CIRCLE
  8
_0-e_付箋
  6
CONTINUOUS
 62
    4
 10
236.80660166999402
 20
341.48160188823988
 40
4.8827102566353844
  0
LINE
  8
_0-1_耐火帯
  6
CONTINUOUS
 62
    4
 10
226.19999995219584
 20
360.00000017044169
 11
226.19999995219584
 21
386.40000000000043
  0
LINE
  8
_0-1_耐火帯
  6
CONTINUOUS
 62
    4
 10
199.60000000000079
 20
366.40000000000043
 11
199.60000000000079
 21
386.40000000000043
  0
POINT
  8
_0-1_耐火帯
 62
    4
 10
199.60000000000079
 20
385.40000000000043
  0
POINT
  8
_0-1_耐火帯
 62
    4
 10
226.19999995219584
 20
385.40000000000043
  0
LINE
  8
_0-1_耐火帯
  6
CONTINUOUS
 62
    4
 10
199.60000000000079
 20
385.40000000000043
 11
226.19999995219584
 21
385.40000000000043
  0
TEXT
  8
_0-1_耐火帯
 62
    4
 10
205.69999997609833
 20
385.40000000000043
 40
9
 41
0.8
 50
0
  1
26.6
  0
LINE
  8
_0-1_耐火帯
  6
CONTINUOUS
 62
    4
 10
344.60000000000031
 20
311.49999999998897
 11
344.60000000000031
 21
386.40000000000043
  0
POINT
  8
_0-1_耐火帯
 62
    4
 10
226.19999995219584
 20
385.40000000000043
  0
POINT
  8
_0-1_耐火帯
 62
    4
 10
344.60000000000031
 20
385.40000000000043
  0
LINE
  8
_0-1_耐火帯
  6
CONTINUOUS
 62
    4
 10
226.19999995219584
 20
385.40000000000043
 11
344.60000000000031
 21
385.40000000000043
  0
TEXT
  8
_0-1_耐火帯
 62
    4
 10
276.39999997609806
 20
385.40000000000043
 40
9
 41
0.8
 50
0
  1
118.4
  0
LINE
  8
_0-1_耐火帯
  6
CONTINUOUS
 62
    4
 10
529.59999999999945
 20
315.49999999998897
 11
529.59999999999945
 21
386.40000000000043
  0
POINT
  8
_0-1_耐火帯
 62
    4
 10
344.60000000000031
 20
385.40000000000043
  0
POINT
  8
_0-1_耐火帯
 62
    4
 10
529.59999999999945
 20
385.40000000000043
  0
LINE
  8
_0-1_耐火帯
  6
CONTINUOUS
 62
    4
 10
344.60000000000031
 20
385.40000000000043
 11
529.59999999999945
 21
385.40000000000043
  0
TEXT
  8
_0-1_耐火帯
 62
    4
 10
431.69999999999987
 20
385.40000000000043
 40
9
 41
0.8
 50
0
  1
185
  0
LINE
  8
_0-1_耐火帯
  6
CONTINUOUS
 62
    4
 10
529.59999999999945
 20
386.40000000000043
 11
529.59999999999945
 21
406.40000000000032
  0
LINE
  8
_0-1_耐火帯
  6
CONTINUOUS
 62
    4
 10
199.60000000000079
 20
386.40000000000043
 11
199.60000000000079
 21
406.40000000000043
  0
POINT
  8
_0-1_耐火帯
 62
    4
 10
199.60000000000079
 20
405.40000000000043
  0
POINT
  8
_0-1_耐火帯
 62
    4
 10
529.59999999999945
 20
405.40000000000032
  0
LINE
  8
_0-1_耐火帯
  6
CONTINUOUS
 62
    4
 10
199.60000000000079
 20
405.40000000000043
 11
529.59999999999945
 21
405.40000000000032
  0
TEXT
  8
_0-1_耐火帯
 62
    4
 10
359.2000000000001
 20
405.40000000000043
 40
9
 41
0.8
 50
0
  1
330
  0
LINE
  8
_0-1_耐火帯
  6
CONTINUOUS
 62
    4
 10
340.00000000000063
 20
220.89999999998815
 11
338.00000000000063
 21
220.89999999998815
  0
ARC
  8
_0-1_耐火帯
  6
CONTINUOUS
 62
    4
 10
338.00000000000063
 20
221.89999999998815
 40
1
 50
180
 51
270
  0
LINE
  8
_0-1_耐火帯
  6
CONTINUOUS
 62
    4
 10
337.00000000000063
 20
221.89999999998815
 11
337.00000000000063
 21
224.89999999998815
  0
ARC
  8
_0-1_耐火帯
  6
CONTINUOUS
 62
    4
 10
338.00000000000063
 20
224.89999999998815
 40
1
 50
90
 51
180
  0
LINE
  8
_0-1_耐火帯
  6
CONTINUOUS
 62
    4
 10
338.00000000000063
 20
225.89999999998815
 11
340.00000000000063
 21
225.89999999998815
  0
ARC
  8
_0-1_耐火帯
  6
CONTINUOUS
 62
    4
 10
348.10000000000076
 20
225.39999999998815
 40
1
 50
0
 51
90
  0
LINE
  8
_0-1_耐火帯
  6
CONTINUOUS
 62
    4
 10
349.10000000000076
 20
225.39999999998815
 11
349.10000000000076
 21
221.39999999998815
  0
ARC
  8
_0-1_耐火帯
  6
CONTINUOUS
 62
    4
 10
348.10000000000076
 20
221.39999999998815
 40
1
 50
270
 51
0
  0
LINE
  8
_0-1_耐火帯
  6
CONTINUOUS
 62
    4
 10
349.60000000000076
 20
209.17499999998824
 11
346.50000000000063
 21
212.27499999998815
  0
ARC
  8
_0-1_耐火帯
  6
CONTINUOUS
 62
    4
 10
346.60000000000076
 20
237.48908399998834
 40
3
 50
300.80613099999954
 51
0
  0
LINE
  8
_0-1_耐火帯
  6
CONTINUOUS
 62
    4
 10
348.13640400000071
 20
234.91236999998807
 11
346.50000000000063
 21
233.93663799998819
  0
LINE
  8
_0-1_耐火帯
  6
CONTINUOUS
 62
    4
 10
346.50000000000063
 20
233.93663799998819
 11
346.50000000000063
 21
212.27499999998815
  0
ARC
  8
_0-1_耐火帯
  6
CONTINUOUS
 62
    4
 10
346.60000000000076
 20
239.52538022288843
 40
3
 50
0
 51
74.875993000005408
  0
LINE
  8
_0-1_耐火帯
  6
CONTINUOUS
 62
    4
 10
343.76216216220058
 20
243.39999999998815
 11
347.38272800000067
 21
242.42147022288816
  0
LINE
  8
_0-1_耐火帯
  6
CONTINUOUS
 62
    4
 10
349.60000000000076
 20
239.52538022288843
 11
349.60000000000076
 21
237.48908399998834
  0
LINE
  8
_0-1_耐火帯
  6
CONTINUOUS
 62
    4
 10
343.76216216220058
 20
243.39999999998815
 11
341.60000000000076
 21
233.39999999998815
  0
LINE
  8
_0-1_耐火帯
  6
CONTINUOUS
 62
    4
 10
341.60000000000076
 20
233.39999999998815
 11
341.60000000000076
 21
213.39999999998815
  0
LINE
  8
_0-1_耐火帯
  6
CONTINUOUS
 62
    4
 10
340.00000000000063
 20
213.39999999998815
 11
341.60000000000076
 21
213.39999999998815
  0
LINE
  8
_0-1_耐火帯
  6
CONTINUOUS
 62
    4
 10
340.00000000000063
 20
213.39999999998815
 11
337.10000000000076
 21
210.49999999998806
  0
LINE
  8
_0-1_耐火帯
  6
CONTINUOUS
 62
    4
 10
340.00000000000063
 20
213.39999999998815
 11
340.00000000000063
 21
233.57099599998844
  0
LINE
  8
_0-1_耐火帯
  6
CONTINUOUS
 62
    4
 10
340.00000000000063
 20
213.39999999998815
 11
341.60000000000076
 21
213.39999999998815
  0
LINE
  8
_0-1_耐火帯
  6
CONTINUOUS
 62
    4
 10
341.60000000000076
 20
213.39999999998815
 11
341.60000000000076
 21
233.39999999998815
  0
LINE
  8
_0-1_耐火帯
  6
CONTINUOUS
 62
    4
 10
346.50000000000063
 20
213.39999999998815
 11
348.10000000000076
 21
213.39999999998815
  0
LINE
  8
_0-1_耐火帯
  6
CONTINUOUS
 62
    4
 10
348.10000000000076
 20
233.39999999998815
 11
346.50000000000063
 21
233.39999999998815
  0
LINE
  8
_0-1_耐火帯
  6
CONTINUOUS
 62
    4
 10
348.10000000000076
 20
213.39999999998815
 11
348.10000000000076
 21
233.39999999998815
  0
LINE
  8
_0-1_耐火帯
  6
CONTINUOUS
 62
    4
 10
346.50000000000063
 20
213.39999999998815
 11
346.50000000000063
 21
233.39999999998815
  0
LINE
  8
_0-1_耐火帯
  6
CONTINUOUS
 62
    4
 10
340.00000000000063
 20
213.39999999998815
 11
340.00000000000063
 21
233.57099599998844
  0
LINE
  8
_0-1_耐火帯
  6
CONTINUOUS
 62
    4
 10
341.60000000000053
 20
213.39999999998815
 11
341.60000000000053
 21
233.39999999998815
  0
LINE
  8
_0-1_耐火帯
  6
CONTINUOUS
 62
    4
 10
340.00000000000063
 20
213.39999999998815
 11
341.60000000000053
 21
213.39999999998815
  0
LINE
  8
_0-1_耐火帯
  6
CONTINUOUS
 62
    4
 10
340.00000000000063
 20
213.39999999998815
 11
340.00000000000063
 21
233.57099599998799
  0
LINE
  8
_0-1_耐火帯
  6
CONTINUOUS
 62
    4
 10
340.00000000000063
 20
213.39999999998815
 11
341.60000000000053
 21
213.39999999998815
  0
LINE
  8
_0-1_耐火帯
  6
CONTINUOUS
 62
    4
 10
341.60000000000053
 20
213.39999999998815
 11
341.60000000000053
 21
233.39999999998815
  0
LINE
  8
_0-1_耐火帯
  6
CONTINUOUS
 62
    4
 10
341.60000000000076
 20
233.39999999998861
 11
341.60000000000076
 21
213.39999999998815
  0
LINE
  8
_0-1_耐火帯
  6
CONTINUOUS
 62
    4
 10
340.0000000000004
 20
233.53519795283717
 11
340.0000000000004
 21
213.39999999998815
  0
LINE
  8
_0-1_耐火帯
  6
CONTINUOUS
 62
    4
 10
340.0000000000004
 20
213.39999999998815
 11
341.60000000000076
 21
213.39999999998815
  0
LINE
  8
_0-1_耐火帯
  6
CONTINUOUS
 62
    4
 10
340.0000000000004
 20
213.39999999998815
 11
341.60000000000031
 21
213.39999999998815
  0
LINE
  8
_0-1_耐火帯
  6
CONTINUOUS
 62
    4
 10
449.60000000000076
 20
281.99999999998806
 11
348.24932800802634
 21
281.99999999998806
  0
LINE
  8
_0-1_耐火帯
  6
CONTINUOUS
 62
    4
 10
449.60000000000076
 20
281.99999999998806
 11
348.24932800802634
 21
281.99999999998806
  0
LINE
  8
_0-1_耐火帯
  6
CONTINUOUS
 62
    4
 10
348.24932800802657
 20
281.99999999998852
 11
340.00000000000085
 21
233.53519795283762
  0
LINE
  8
_0-1_耐火帯
  6
CONTINUOUS
 62
    4
 10
349.60000000000076
 20
280.39999999998861
 11
341.60000000000076
 21
233.39999999998861
  0
LINE
  8
_0-1_耐火帯
  6
CONTINUOUS
 62
    4
 10
341.60000000000076
 20
233.39999999998861
 11
341.60000000000076
 21
213.39999999998815
  0
LINE
  8
_0-1_耐火帯
  6
CONTINUOUS
 62
    4
 10
340.00000000000085
 20
233.53519795283762
 11
340.00000000000085
 21
213.39999999998815
  0
LINE
  8
_0-1_耐火帯
  6
CONTINUOUS
 62
    4
 10
340.00000000000085
 20
213.39999999998815
 11
341.60000000000076
 21
213.39999999998815
  0
LINE
  8
_0-1_耐火帯
  6
CONTINUOUS
 62
    4
 10
517.60000000000082
 20
281.99999999998806
 11
517.60000000000082
 21
280.39999999998861
  0
LINE
  8
_0-1_耐火帯
  6
CONTINUOUS
 62
    4
 10
517.60000000000082
 20
281.99999999998806
 11
348.37502600000056
 21
281.99999999998806
  0
LINE
  8
_0-1_耐火帯
  6
CONTINUOUS
 62
    4
 10
517.60000000000082
 20
280.39999999998861
 11
349.60000000000076
 21
280.39999999998861
  0
LINE
  8
_0-1_耐火帯
  6
DASHED1
 62
    4
 10
388.70000000000067
 20
281.99999999998806
 11
387.10000000000076
 21
280.39999999998861
  0
LINE
  8
_0-1_耐火帯
  6
DASHED1
 62
    4
 10
382.10000000000076
 20
280.39999999998861
 11
380.50000000000085
 21
281.99999999998806
  0
LINE
  8
_0-1_耐火帯
  6
DASHED1
 62
    4
 10
397.60000000000076
 20
281.99999999998806
 11
397.60000000000076
 21
280.39999999998861
  0
LINE
  8
_0-1_耐火帯
  6
DASHED1
 62
    4
 10
371.60000000000076
 20
281.99999999998806
 11
371.60000000000076
 21
280.39999999998861
  0
LINE
  8
_0-1_耐火帯
  6
DASHED1
 62
    4
 10
493.70000000000067
 20
281.99999999998806
 11
492.10000000000076
 21
280.39999999998861
  0
LINE
  8
_0-1_耐火帯
  6
DASHED1
 62
    4
 10
502.60000000000076
 20
281.99999999998806
 11
502.60000000000076
 21
280.39999999998861
  0
LINE
  8
_0-1_耐火帯
  6
DASHED1
 62
    4
 10
476.60000000000076
 20
281.99999999998806
 11
476.60000000000076
 21
280.39999999998861
  0
LINE
  8
_0-1_耐火帯
  6
DASHED1
 62
    4
 10
487.10000000000076
 20
280.39999999998861
 11
485.50000000000085
 21
281.99999999998806
  0
ARC
  8
_0-1_耐火帯
  6
CONTINUOUS
 62
    4
 10
274.60000000000076
 20
171.94999999998788
 40
62.499999999999886
 50
180
 51
0
  0
ARC
  8
_0-1_耐火帯
  6
CONTINUOUS
 62
    4
 10
274.60000000000076
 20
171.94999999998788
 40
74.999999999999886
 50
180
 51
0
  0
LINE
  8
_0-1_耐火帯
  6
CONTINUOUS
 62
    4
 10
337.10000000000076
 20
171.94999999998788
 11
337.10000000000076
 21
210.49999999998806
  0
LINE
  8
_0-1_耐火帯
  6
CONTINUOUS
 62
    4
 10
349.60000000000076
 20
171.94999999998788
 11
349.60000000000076
 21
209.17499999998824
  0
LINE
  8
_0-a_
  6
CONTINUOUS
 62
    3
 10
347.89282032302748
 20
281.99999999998875
 11
399.60000000000031
 21
281.99999999998875
  0
CIRCLE
  8
_0-e_付箋
  6
CONTINUOUS
 62
    4
 10
327.68474464227091
 20
195.14898472706375
 40
4.8827102566353844
  0
TEXT
  8
_0-e_付箋
 62
    4
 10
324.68474464227091
 20
192.14898472706375
 40
6
 41
1
 50
0
  1
６
  0
LINE
  8
_0-e_付箋
  6
CONTINUOUS
 62
    4
 10
324.2321471092352
 20
198.60158226009992
 11
317.07814292447273
 21
205.75558644486193
  0
LINE
  8
_0-f_寸法
  6
CONTINUOUS
 62
    4
 10
227.19999995219584
 20
359.00000017044169
 11
572.2442132566573
 21
359.00000017044169
  0
LINE
  8
_0-f_寸法
  6
CONTINUOUS
 62
    4
 10
552.2442132566573
 20
313.99999999998897
 11
572.2442132566573
 21
313.99999999998897
  0
POINT
  8
_0-f_寸法
 62
    4
 10
571.2442132566573
 20
313.99999999998897
  0
POINT
  8
_0-f_寸法
 62
    4
 10
571.2442132566573
 20
359.00000017044169
  0
LINE
  8
_0-f_寸法
  6
CONTINUOUS
 62
    4
 10
571.2442132566573
 20
313.99999999998897
 11
571.2442132566573
 21
359.00000017044169
  0
TEXT
  8
_0-f_寸法
 62
    4
 10
571.2442132566573
 20
332.90000008521531
 40
9
 41
0.8
 50
90
  1
45
  0
LINE
  8
_0-f_寸法
  6
CONTINUOUS
 62
    4
 10
226.19999995219584
 20
360.00000017044169
 11
226.19999995219584
 21
386.40000000000043
  0
LINE
  8
_0-f_寸法
  6
CONTINUOUS
 62
    4
 10
199.60000000000079
 20
366.40000000000043
 11
199.60000000000079
 21
386.40000000000043
  0
POINT
  8
_0-f_寸法
 62
    4
 10
199.60000000000079
 20
385.40000000000043
  0
POINT
  8
_0-f_寸法
 62
    4
 10
226.19999995219584
 20
385.40000000000043
  0
LINE
  8
_0-f_寸法
  6
CONTINUOUS
 62
    4
 10
199.60000000000079
 20
385.40000000000043
 11
226.19999995219584
 21
385.40000000000043
  0
TEXT
  8
_0-f_寸法
 62
    4
 10
205.69999997609833
 20
385.40000000000043
 40
9
 41
0.8
 50
0
  1
26.6
  0
LINE
  8
_0-f_寸法
  6
CONTINUOUS
 62
    4
 10
344.60000000000031
 20
311.49999999998897
 11
344.60000000000031
 21
386.40000000000043
  0
POINT
  8
_0-f_寸法
 62
    4
 10
226.19999995219584
 20
385.40000000000043
  0
POINT
  8
_0-f_寸法
 62
    4
 10
344.60000000000031
 20
385.40000000000043
  0
LINE
  8
_0-f_寸法
  6
CONTINUOUS
 62
    4
 10
226.19999995219584
 20
385.40000000000043
 11
344.60000000000031
 21
385.40000000000043
  0
TEXT
  8
_0-f_寸法
 62
    4
 10
276.39999997609806
 20
385.40000000000043
 40
9
 41
0.8
 50
0
  1
118.4
  0
LINE
  8
_0-f_寸法
  6
CONTINUOUS
 62
    4
 10
529.59999999999945
 20
315.49999999998897
 11
529.59999999999945
 21
386.40000000000043
  0
POINT
  8
_0-f_寸法
 62
    4
 10
344.60000000000031
 20
385.40000000000043
  0
POINT
  8
_0-f_寸法
 62
    4
 10
529.59999999999945
 20
385.40000000000043
  0
LINE
  8
_0-f_寸法
  6
CONTINUOUS
 62
    4
 10
344.60000000000031
 20
385.40000000000043
 11
529.59999999999945
 21
385.40000000000043
  0
TEXT
  8
_0-f_寸法
 62
    4
 10
431.69999999999987
 20
385.40000000000043
 40
9
 41
0.8
 50
0
  1
185
  0
LINE
  8
_0-f_寸法
  6
CONTINUOUS
 62
    4
 10
529.59999999999945
 20
386.40000000000043
 11
529.59999999999945
 21
406.40000000000032
  0
LINE
  8
_0-f_寸法
  6
CONTINUOUS
 62
    4
 10
199.60000000000079
 20
386.40000000000043
 11
199.60000000000079
 21
406.40000000000043
  0
POINT
  8
_0-f_寸法
 62
    4
 10
199.60000000000079
 20
405.40000000000043
  0
POINT
  8
_0-f_寸法
 62
    4
 10
529.59999999999945
 20
405.40000000000032
  0
LINE
  8
_0-f_寸法
  6
CONTINUOUS
 62
    4
 10
199.60000000000079
 20
405.40000000000043
 11
529.59999999999945
 21
405.40000000000032
  0
TEXT
  8
_0-f_寸法
 62
    4
 10
359.2000000000001
 20
405.40000000000043
 40
9
 41
0.8
 50
0
  1
330
  0
INSERT
  2
-002-_2_
  8
_0-f_寸法
 10
420.5
 20
297
 41
1
 42
1
 50
0
  0
LINE
  8
_f-0_
  6
CONTINUOUS
 62
    6
 10
219.99999999999997
 20
554.00000000000023
 11
219.99999999999997
 21
534.00000000000034
  0
LINE
  8
_f-0_
  6
CONTINUOUS
 62
    6
 10
219.99999999999997
 20
534.00000000000034
 11
19.999999999999943
 21
534.00000000000034
  0
TEXT
  8
_f-0_
 62
    4
 10
46.807999999999993
 20
536.00000000000023
 40
16
 41
1
 50
0
  1
150TCK-A　耐火仕様
  0
LINE
  8
_0-9_小物
  6
CONTINUOUS
 62
    3
 10
157.99999080160887
 20
316.49999999999125
 11
155.49999748808568
 21
313.99999999999125
  0
LINE
  8
_0-9_小物
  6
CONTINUOUS
 62
    3
 10
155.49999748808568
 20
313.99999999999125
 11
157.71811560361584
 21
311.49999999999125
  0
INSERT
  2
-003-_3_
  8
_0-9_小物
 10
420.5
 20
297
 41
1
 42
1
 50
0
  0
LINE
  8
_0-9_小物
  6
CONTINUOUS
 62
    3
 10
157.99999080160887
 20
316.49999999999125
 11
160.66226865073463
 21
316.49999999999125
  0
LINE
  8
_0-9_小物
  6
CONTINUOUS
 62
    3
 10
157.71811560361584
 20
311.49999999999125
 11
160.6622686507344
 21
311.49999999999125
  0
INSERT
  2
-004-_4_
  8
_0-9_小物
 10
420.5
 20
297
 41
1
 42
1
 50
0
  0
LINE
  8
_0-9_小物
  6
CONTINUOUS
 62
    3
 10
382.0999999999994
 20
240.49999331351171
 11
384.5999999999994
 21
237.99999999998875
  0
LINE
  8
_0-9_小物
  6
CONTINUOUS
 62
    3
 10
384.5999999999994
 20
237.99999999998875
 11
387.0999999999994
 21
240.21811811551891
  0
LINE
  8
_0-9_小物
  6
CONTINUOUS
 62
    3
 10
382.0999999999994
 20
240.49999331351171
 11
382.0999999999994
 21
241.4622686507231
  0
LINE
  8
_0-9_小物
  6
CONTINUOUS
 62
    3
 10
387.0999999999994
 20
240.21811811551891
 11
387.0999999999994
 21
241.4622686507231
  0
INSERT
  2
-005-_5_
  8
_0-9_小物
 10
420.5
 20
297
 41
1
 42
1
 50
0
  0
LINE
  8
_0-9_小物
  6
CONTINUOUS
 62
    3
 10
487.09999999999781
 20
239.49999331351148
 11
489.59999999999781
 21
236.99999999998852
  0
LINE
  8
_0-9_小物
  6
CONTINUOUS
 62
    3
 10
489.59999999999781
 20
236.99999999998852
 11
492.09999999999781
 21
239.21811811551868
  0
LINE
  8
_0-9_小物
  6
CONTINUOUS
 62
    3
 10
487.09999999999781
 20
239.49999331351148
 11
487.09999999999781
 21
241.46226865072288
  0
LINE
  8
_0-9_小物
  6
CONTINUOUS
 62
    3
 10
492.09999999999781
 20
239.21811811551868
 11
492.09999999999781
 21
241.46226865072288
  0
CIRCLE
  8
_0-e_付箋
  6
CONTINUOUS
 62
    4
 10
403.27309539818992
 20
220.23684899606167
 40
4.8827102566353844
  0
LINE
  8
_0-e_付箋
  6
CONTINUOUS
 62
    4
 10
390.06060999999971
 20
244.62154499998849
 11
401.51023183988167
 21
224.79021824586323
  0
TEXT
  8
_0-e_付箋
 62
    4
 10
400.27309539818992
 20
217.23684899606167
 40
6
 41
1
 50
0
  1
10
  0
LINE
  8
_0-0_躯体
  6
CONTINUOUS
 62
    2
 10
349.60000000000076
 20
280.39999999998861
 11
349.60000000000076
 21
95.400000000000205
  0
LINE
  8
_0-0_躯体
  6
CONTINUOUS
 62
    2
 10
199.60000000000079
 20
365.40000000000043
 11
199.60000000000079
 21
95.400000000000205
  0
LINE
  8
_0-0_躯体
  6
CENTER1
 62
    2
 10
274.60000000000031
 20
280.4000000000002
 11
274.60000000000031
 21
95.400000000000205
  0
LINE
  8
_0-f_寸法
  6
CONTINUOUS
 62
    4
 10
349.60000000000076
 20
94.400000000000205
 11
349.60000000000076
 21
74.400000000000205
  0
LINE
  8
_0-f_寸法
  6
CONTINUOUS
 62
    4
 10
199.60000000000079
 20
94.400000000000205
 11
199.60000000000079
 21
74.400000000000205
  0
POINT
  8
_0-f_寸法
 62
    4
 10
199.60000000000079
 20
75.400000000000205
  0
POINT
  8
_0-f_寸法
 62
    4
 10
349.60000000000076
 20
75.400000000000205
  0
LINE
  8
_0-f_寸法
  6
CONTINUOUS
 62
    4
 10
199.60000000000079
 20
75.400000000000205
 11
349.60000000000076
 21
75.400000000000205
  0
TEXT
  8
_0-f_寸法
 62
    4
 10
269.20000000000078
 20
75.400000000000205
 40
9
 41
0.8
 50
0
  1
150
  0
LINE
  8
_0-f_寸法
  6
CONTINUOUS
 62
    4
 10
384.5999999999994
 20
236.99999999998875
 11
384.5999999999994
 21
74.400000000000205
  0
POINT
  8
_0-f_寸法
 62
    4
 10
349.60000000000076
 20
75.400000000000205
  0
POINT
  8
_0-f_寸法
 62
    4
 10
384.5999999999994
 20
75.400000000000205
  0
LINE
  8
_0-f_寸法
  6
CONTINUOUS
 62
    4
 10
349.60000000000076
 20
75.400000000000205
 11
384.5999999999994
 21
75.400000000000205
  0
TEXT
  8
_0-f_寸法
 62
    4
 10
363.50000000000006
 20
75.400000000000205
 40
9
 41
0.8
 50
0
  1
35
  0
LINE
  8
_0-f_寸法
  6
CONTINUOUS
 62
    4
 10
489.59999999999781
 20
235.99999999998852
 11
489.59999999999781
 21
74.400000000000205
  0
POINT
  8
_0-f_寸法
 62
    4
 10
384.5999999999994
 20
75.400000000000205
  0
POINT
  8
_0-f_寸法
 62
    4
 10
489.59999999999781
 20
75.400000000000205
  0
LINE
  8
_0-f_寸法
  6
CONTINUOUS
 62
    4
 10
384.5999999999994
 20
75.400000000000205
 11
489.59999999999781
 21
75.400000000000205
  0
TEXT
  8
_0-f_寸法
 62
    4
 10
431.69999999999851
 20
75.400000000000205
 40
9
 41
0.8
 50
0
  1
105
  0
LINE
  8
_0-f_寸法
  6
CONTINUOUS
 62
    4
 10
348.60000000000076
 20
280.39999999998861
 11
134.49999748808568
 21
280.39999999998861
  0
LINE
  8
_0-f_寸法
  6
CONTINUOUS
 62
    4
 10
154.49999748808568
 20
313.99999999999125
 11
134.49999748808568
 21
313.99999999999125
  0
POINT
  8
_0-f_寸法
 62
    4
 10
135.49999748808568
 20
313.99999999999125
  0
POINT
  8
_0-f_寸法
 62
    4
 10
135.49999748808568
 20
280.39999999998861
  0
LINE
  8
_0-f_寸法
  6
CONTINUOUS
 62
    4
 10
135.49999748808568
 20
313.99999999999125
 11
135.49999748808568
 21
280.39999999998861
  0
TEXT
  8
_0-f_寸法
 62
    4
 10
135.49999748808568
 20
289.99999999998994
 40
9
 41
0.8
 50
90
  1
33.6
  0
TEXT
  8
_0-f_寸法
 62
    4
 10
658.07000000000005
 20
153.50000000000011
 40
8
 41
0.8662499999999999
 50
0
  1
※
  0
TEXT
  8
_0-e_付箋
 62
    4
 10
293.79095225512691
 20
87.828391138229222
 40
6
 41
1
 50
0
  1
耐火帯
  0
LINE
  8
_0-e_付箋
  6
CONTINUOUS
 62
    4
 10
293.79095225512668
 20
87.828391138229222
 11
311.79095225512691
 21
87.828391138229222
  0
LINE
  8
_0-e_付箋
  6
CONTINUOUS
 62
    4
 10
287.54095225512668
 20
98.653708685534752
 11
293.79095225512668
 21
87.828391138229222
  0
LINE
  8
_0-1_耐火帯
  6
CONTINUOUS
 62
    4
 10
209.20000000000093
 20
230.89999999998884
 11
211.20000000000093
 21
230.89999999998884
  0
ARC
  8
_0-1_耐火帯
  6
CONTINUOUS
 62
    4
 10
211.20000000000093
 20
231.89999999998884
 40
1
 50
270
 51
0
  0
LINE
  8
_0-1_耐火帯
  6
CONTINUOUS
 62
    4
 10
212.20000000000093
 20
231.89999999998884
 11
212.20000000000093
 21
234.89999999998884
  0
ARC
  8
_0-1_耐火帯
  6
CONTINUOUS
 62
    4
 10
211.20000000000093
 20
234.89999999998884
 40
1
 50
0
 51
90
  0
LINE
  8
_0-1_耐火帯
  6
CONTINUOUS
 62
    4
 10
211.20000000000093
 20
235.89999999998884
 11
209.20000000000093
 21
235.89999999998884
  0
ARC
  8
_0-1_耐火帯
  6
CONTINUOUS
 62
    4
 10
201.10000000000079
 20
235.39999999998884
 40
1
 50
90
 51
180
  0
LINE
  8
_0-1_耐火帯
  6
CONTINUOUS
 62
    4
 10
200.10000000000079
 20
235.39999999998884
 11
200.10000000000079
 21
231.39999999998884
  0
ARC
  8
_0-1_耐火帯
  6
CONTINUOUS
 62
    4
 10
201.10000000000079
 20
231.39999999998884
 40
1
 50
180
 51
270
  0
LINE
  8
_0-1_耐火帯
  6
CONTINUOUS
 62
    4
 10
199.60000000000079
 20
219.17499999998893
 11
202.70000000000093
 21
222.27499999998884
  0
ARC
  8
_0-1_耐火帯
  6
CONTINUOUS
 62
    4
 10
202.60000000000079
 20
247.48908399998857
 40
3
 50
180
 51
239.19386899999998
  0
LINE
  8
_0-1_耐火帯
  6
CONTINUOUS
 62
    4
 10
201.06359600000084
 20
244.91236999998875
 11
202.70000000000093
 21
243.93663799998887
  0
LINE
  8
_0-1_耐火帯
  6
CONTINUOUS
 62
    4
 10
202.70000000000093
 20
243.93663799998887
 11
202.70000000000093
 21
222.27499999998884
  0
ARC
  8
_0-1_耐火帯
  6
CONTINUOUS
 62
    4
 10
202.60000000000079
 20
249.52538022288866
 40
3
 50
105.12400699999459
 51
180
  0
LINE
  8
_0-1_耐火帯
  6
CONTINUOUS
 62
    4
 10
205.43783783780097
 20
253.39999999998884
 11
201.81727200000088
 21
252.42147022288884
  0
LINE
  8
_0-1_耐火帯
  6
CONTINUOUS
 62
    4
 10
199.60000000000079
 20
249.52538022288866
 11
199.60000000000079
 21
247.48908399998857
  0
LINE
  8
_0-1_耐火帯
  6
CONTINUOUS
 62
    4
 10
205.43783783780097
 20
253.39999999998884
 11
207.60000000000079
 21
243.39999999998884
  0
LINE
  8
_0-1_耐火帯
  6
CONTINUOUS
 62
    4
 10
207.60000000000079
 20
243.39999999998884
 11
207.60000000000079
 21
223.39999999998884
  0
LINE
  8
_0-1_耐火帯
  6
CONTINUOUS
 62
    4
 10
209.20000000000093
 20
223.39999999998884
 11
207.60000000000079
 21
223.39999999998884
  0
LINE
  8
_0-1_耐火帯
  6
CONTINUOUS
 62
    4
 10
209.20000000000093
 20
223.39999999998884
 11
212.10000000000079
 21
220.49999999998875
  0
LINE
  8
_0-1_耐火帯
  6
CONTINUOUS
 62
    4
 10
209.20000000000093
 20
243.39999999998884
 11
209.20000000000093
 21
223.39999999998884
  0
LINE
  8
_0-1_耐火帯
  6
CONTINUOUS
 62
    4
 10
207.60000000000079
 20
243.39999999998884
 11
207.60000000000079
 21
223.39999999998884
  0
LINE
  8
_0-1_耐火帯
  6
CONTINUOUS
 62
    4
 10
209.20000000000093
 20
223.39999999998884
 11
207.60000000000079
 21
223.39999999998884
  0
LINE
  8
_0-1_耐火帯
  6
CONTINUOUS
 62
    4
 10
202.70000000000093
 20
223.39999999998884
 11
201.10000000000079
 21
223.39999999998884
  0
LINE
  8
_0-1_耐火帯
  6
CONTINUOUS
 62
    4
 10
201.10000000000079
 20
243.39999999998884
 11
202.70000000000093
 21
243.39999999998884
  0
LINE
  8
_0-1_耐火帯
  6
CONTINUOUS
 62
    4
 10
201.10000000000079
 20
223.39999999998884
 11
201.10000000000079
 21
243.39999999998884
  0
LINE
  8
_0-1_耐火帯
  6
CONTINUOUS
 62
    4
 10
202.70000000000093
 20
223.39999999998884
 11
202.70000000000093
 21
243.39999999998884
  0
LINE
  8
_0-1_耐火帯
  6
CONTINUOUS
 62
    4
 10
209.20000000000093
 20
223.39999999998884
 11
207.60000000000102
 21
223.39999999998884
  0
LINE
  8
_0-1_耐火帯
  6
CONTINUOUS
 62
    4
 10
209.20000000000115
 20
223.39999999998884
 11
207.60000000000079
 21
223.39999999998884
  0
LINE
  8
_0-1_耐火帯
  6
CONTINUOUS
 62
    4
 10
207.60000000000079
 20
243.39999999998929
 11
207.60000000000079
 21
223.39999999998929
  0
LINE
  8
_0-1_耐火帯
  6
CONTINUOUS
 62
    4
 10
209.2000000000007
 20
243.53519795283785
 11
209.2000000000007
 21
223.39999999998929
  0
LINE
  8
_0-1_耐火帯
  6
CONTINUOUS
 62
    4
 10
209.2000000000007
 20
223.39999999998929
 11
207.60000000000079
 21
223.39999999998929
  0
LINE
  8
_0-1_耐火帯
  6
CONTINUOUS
 62
    4
 10
207.60000000000079
 20
223.39999999998884
 11
209.2000000000007
 21
223.39999999998884
  0
LINE
  8
_0-1_耐火帯
  6
CONTINUOUS
 62
    4
 10
207.60000000000079
 20
243.39999999998884
 11
207.60000000000079
 21
223.39999999998884
  0
LINE
  8
_0-1_耐火帯
  6
CONTINUOUS
 62
    4
 10
209.2000000000007
 20
243.39999999998884
 11
209.2000000000007
 21
223.39999999998884
  0
LINE
  8
_0-1_耐火帯
  6
CONTINUOUS
 62
    4
 10
209.2000000000007
 20
243.39999999998884
 11
201.2000000000007
 21
280.39999999998884
  0
LINE
  8
_0-1_耐火帯
  6
CONTINUOUS
 62
    4
 10
199.60000000000079
 20
280.39999999998884
 11
207.60000000000079
 21
243.39999999998884
  0
LINE
  8
_0-1_耐火帯
  6
CONTINUOUS
 62
    4
 10
199.60000000000079
 20
330.39999999998895
 11
199.60000000000079
 21
280.39999999998884
  0
LINE
  8
_0-1_耐火帯
  6
CONTINUOUS
 62
    4
 10
201.2000000000007
 20
330.39999999998895
 11
201.2000000000007
 21
280.39999999998884
  0
LINE
  8
_0-1_耐火帯
  6
CONTINUOUS
 62
    4
 10
199.60000000000079
 20
330.39999999998895
 11
201.2000000000007
 21
330.39999999998895
  0
LINE
  8
_0-1_耐火帯
  6
DASHED1
 62
    4
 10
199.60000000000079
 20
304.39999999998895
 11
201.2000000000007
 21
304.39999999998895
  0
LINE
  8
_0-1_耐火帯
  6
DASHED1
 62
    4
 10
199.60000000000079
 20
319.49999999998886
 11
201.2000000000007
 21
321.09999999998877
  0
LINE
  8
_0-1_耐火帯
  6
DASHED1
 62
    4
 10
199.60000000000079
 20
314.49999999998886
 11
201.2000000000007
 21
312.89999999998895
  0
LINE
  8
_0-1_耐火帯
  6
CONTINUOUS
 62
    4
 10
212.10000000000079
 20
171.94999999998788
 11
212.10000000000079
 21
220.49999999998875
  0
LINE
  8
_0-1_耐火帯
  6
CONTINUOUS
 62
    4
 10
199.60000000000079
 20
171.94999999998788
 11
199.60000000000079
 21
219.17499999998893
  0
ARC
  8
_0-a_
  6
CONTINUOUS
 62
    3
 10
286.60306322402988
 20
245.11817298708308
 40
50
 50
285.36285943062092
 51
344.9999999999996
  0
ARC
  8
_0-a_
  6
CONTINUOUS
 62
    3
 10
286.60306322402988
 20
245.11817298708308
 40
49.000000000000007
 50
285.36285943062086
 51
344.99999999999949
  0
LINE
  8
_0-a_
  6
CONTINUOUS
 62
    3
 10
347.48200102004711
 20
282.99999999998852
 11
333.93342871219323
 21
232.43603977705914
  0
LINE
  8
_0-a_
  6
CONTINUOUS
 62
    3
 10
348.24932800802657
 20
281.99999999998852
 11
334.89935453848278
 21
232.17722073195648
  0
ARC
  8
_0-a_
  6
CONTINUOUS
 62
    3
 10
262.59693677597073
 20
245.11817298708308
 40
50
 50
195.0000000000004
 51
254.63714056937903
  0
ARC
  8
_0-a_
  6
CONTINUOUS
 62
    3
 10
262.59693677597073
 20
245.11817298708308
 40
49.000000000000007
 50
195.00000000000051
 51
254.6371405693792
  0
LINE
  8
_0-a_
  6
CONTINUOUS
 62
    3
 10
201.2000000000007
 20
281.06949520628325
 11
201.2000000000007
 21
340.49999999998897
  0
LINE
  8
_0-a_
  6
CONTINUOUS
 62
    3
 10
201.2000000000007
 20
281.06949520628325
 11
214.30064546151786
 21
232.17722073195648
  0
LINE
  8
_0-a_
  6
CONTINUOUS
 62
    3
 10
202.200000009376
 20
281.20114766888378
 11
202.19999999137687
 21
336.49999999998897
  0
LINE
  8
_0-a_
  6
CONTINUOUS
 62
    3
 10
202.200000009376
 20
281.20114766888378
 11
215.26657128780741
 21
232.43603977705914
  0
ARC
  8
_0-a_
  6
CONTINUOUS
 62
    3
 10
274.60000000000031
 20
288.80561246853426
 40
95.306356013317895
 50
254.63714056937906
 51
285.36285943062097
  0
ARC
  8
_0-a_
  6
CONTINUOUS
 62
    3
 10
274.60000000000031
 20
288.80561246853426
 40
94.306356013317938
 50
254.63714056937897
 51
285.36285943062092
  0
TEXT
  8
_0-f_寸法
 62
    4
 10
670
 20
153.50000000000011
 40
8
 41
0.8662499999999999
 50
0
  1
耐火帯：耐火帯TCK-23
  0
LINE
  8
_0-f_寸法
  6
CONTINUOUS
 62
    4
 10
522.60000000000059
 20
280.39999999998861
 11
582.60000000000014
 21
280.39999999998861
  0
LINE
  8
_0-f_寸法
  6
CONTINUOUS
 62
    4
 10
562.60000000000014
 20
310.99999999998886
 11
582.60000000000014
 21
310.99999999998886
  0
POINT
  8
_0-f_寸法
 62
    4
 10
581.60000000000014
 20
310.99999999998886
  0
POINT
  8
_0-f_寸法
 62
    4
 10
581.60000000000014
 20
280.39999999998861
  0
LINE
  8
_0-f_寸法
  6
CONTINUOUS
 62
    4
 10
581.60000000000014
 20
310.99999999998886
 11
581.60000000000014
 21
280.39999999998861
  0
TEXT
  8
_0-f_寸法
 62
    4
 10
581.60000000000014
 20
288.49999999998875
 40
9
 41
0.8
 50
90
  1
30.6
  0
TEXT
  8
_f-0_
 62
    4
 10
806.87199999999996
 20
594.00000000000023
 40
16
 41
1
 50
0
  1
A1版
  0
ENDSEC
  0
EOF
