  0
SECTION
  2
HEADER
  9
$ACADVER
  1
AC1009
  9
$INSBASE
 10
0
 20
0
 30
0
  9
$EXTMIN
 10
0
 20
0
  9
$EXTMAX
 10
841
 20
594
  9
$LIMMIN
 10
0
 20
0
  9
$LIMMAX
 10
841
 20
594
  9
$LTSCALE
 40
1
  0
ENDSEC
  0
SECTION
  2
TABLES
  0
TABLE
  2
LTYPE
 70
     9
  0
LTYPE
  2
CONTINUOUS
 70
    64
  3
実線
 72
    65
 73
     0
 40
0.0
  0
LTYPE
  2
DASHED1
 70
    64
  3
--  --  --  --  --  --  --  --  
 72
    65
 73
     2
 40
2.5
 49
1.25
 49
-1.25
  0
LTYPE
  2
DASHED2
 70
    64
  3
----    ----    ----    ----    
 72
    65
 73
     2
 40
5.0
 49
2.5
 49
-2.5
  0
LTYPE
  2
DASHED3
 70
    64
  3
------  ------  ------  ------  
 72
    65
 73
     2
 40
5.0
 49
3.75
 49
-1.25
  0
LTYPE
  2
CENTER1
 70
    64
  3
----- - ----- - ----- - ----- - 
 72
    65
 73
     4
 40
10.0
 49
6.25
 49
-1.25
 49
1.25
 49
-1.25
  0
LTYPE
  2
CENTER2
 70
    64
  3
----------  --  ----------  --  
 72
    65
 73
     4
 40
20.0
 49
12.5
 49
-2.5
 49
2.5
 49
-2.5
  0
LTYPE
  2
PHANTOM1
 70
    64
  3
--- - - --- - - --- - - --- - - 
 72
    65
 73
     6
 40
10.0
 49
3.25
 49
-1.25
 49
1.25
 49
-1.25
 49
1.25
 49
-1.25
  0
LTYPE
  2
PHANTOM2
 70
    64
  3
--------  -  -  --------  -  -  
 72
    65
 73
     6
 40
20.0
 49
10.0
 49
-2.5
 49
1.25
 49
-2.5
 49
1.25
 49
-2.5
  0
LTYPE
  2
DOT
 70
    64
  3
-   -   -   -   -   -   -   -   
 72
    65
 73
     2
 40
2.5
 49
0.625
 49
-1.875
  0
LTYPE
  2
DUMMY
 70
    64
  3
ダミー
 72
    65
 73
     0
 40
0.0
  0
LTYPE
  2
RAND1
 70
    64
  3
ランダム線1
 72
    65
 73
     4
 40
10.0
 49
1.0
 49
-2.0
 49
3.0
 49
-4.0
  0
LTYPE
  2
RAND2
 70
    64
  3
ランダム線2
 72
    65
 73
     4
 40
14.0
 49
2.0
 49
-3.0
 49
4.0
 49
-5.0
  0
LTYPE
  2
RAND3
 70
    64
  3
ランダム線3
 72
    65
 73
     4
 40
18.0
 49
3.0
 49
-4.0
 49
5.0
 49
-6.0
  0
LTYPE
  2
RAND4
 70
    64
  3
ランダム線4
 72
    65
 73
     4
 40
22.0
 49
4.0
 49
-5.0
 49
6.0
 49
-7.0
  0
LTYPE
  2
RAND5
 70
    64
  3
ランダム線5
 72
    65
 73
     4
 40
26.0
 49
5.0
 49
-6.0
 49
7.0
 49
-8.0
  0
LTYPE
  2
LONG1
 70
    64
  3
----------  --  ----------  --  
 72
    65
 73
     4
 40
40.0
 49
32.5
 49
-2.5
 49
2.5
 49
-2.5
  0
LTYPE
  2
LONG2
 70
    64
  3
--------  -  -  --------  -  -  
 72
    65
 73
     6
 40
40.0
 49
30.0
 49
-2.5
 49
1.25
 49
-2.5
 49
1.25
 49
-2.5
  0
LTYPE
  2
LONG3
 70
    64
  3
+++++++++++++++..+++++++++++++++
 72
    65
 73
     2
 40
40.0
 49
37.5
 49
-2.5
  0
LTYPE
  2
LONG4
 70
    64
  3
+++++++++++++++..+++++++++++++++
 72
    65
 73
     2
 40
80.0
 49
75.0
 49
-5.0
  0
LTYPE
  2
LONG5
 70
    64
  3
----------  --  ----------  --  
 72
    65
 73
     4
 40
60.0
 49
37.5
 49
-7.5
 49
7.5
 49
-7.5
  0
LTYPE
  2
dashed
 70
   64
  3
-------   -------------   ------
 72
   65
 73
    2
 40
7.5
 49
6
 49
-1.5
  0
LTYPE
  2
dashed_spaced
 70
   64
  3
----        --------        ----
 72
   65
 73
    2
 40
12
 49
6
 49
-6
  0
LTYPE
  2
long_dashed_dotted
 70
   64
  3
------------- --- --------------
 72
   65
 73
    4
 40
15.25
 49
12
 49
-1.5
 49
0.25
 49
-1.5
  0
LTYPE
  2
long_dashed_double-dotted
 70
   64
  3
----------- --- --- ------------
 72
   65
 73
    6
 40
17
 49
12
 49
-1.5
 49
0.25
 49
-1.5
 49
0.25
 49
-1.5
  0
LTYPE
  2
long_dashed_triplicate-dotted
 70
   64
  3
--------- --- --- --- ----------
 72
   65
 73
    8
 40
18.75
 49
12
 49
-1.5
 49
0.25
 49
-1.5
 49
0.25
 49
-1.5
 49
0.25
 49
-1.5
  0
LTYPE
  2
dotted
 70
   64
  3
   -       -       -       -    
 72
   65
 73
    2
 40
1.75
 49
0.25
 49
-1.5
  0
LTYPE
  2
chain
 70
   64
  3
-------------- -- --------------
 72
   65
 73
    4
 40
18.5
 49
12
 49
-1.5
 49
3.5
 49
-1.5
  0
LTYPE
  2
chain_double_dash
 70
   64
  3
------------ -- -- -------------
 72
   65
 73
    6
 40
23.5
 49
12
 49
-1.5
 49
3.5
 49
-1.5
 49
3.5
 49
-1.5
  0
LTYPE
  2
dashed_dotted
 70
   64
  3
-----------     -     ----------
 72
   65
 73
    4
 40
9.25
 49
6
 49
-1.5
 49
0.25
 49
-1.5
  0
LTYPE
  2
double-dashed_dotted
 70
   64
  3
------   -----------   -   -----
 72
   65
 73
    6
 40
16.75
 49
6
 49
-1.5
 49
6
 49
-1.5
 49
0.25
 49
-1.5
  0
LTYPE
  2
dashed_double-dotted
 70
   64
  3
---------    -    -    ---------
 72
   65
 73
    6
 40
11
 49
6
 49
-1.5
 49
0.25
 49
-1.5
 49
0.25
 49
-1.5
  0
LTYPE
  2
double-dashed_double-dotted
 70
   64
  3
-----   ---------   -   -   ----
 72
   65
 73
    8
 40
18.5
 49
6
 49
-1.5
 49
6
 49
-1.5
 49
0.25
 49
-1.5
 49
0.25
 49
-1.5
  0
LTYPE
  2
dashed_triplicate-dotted
 70
   64
  3
-------    -    -    -    ------
 72
   65
 73
    8
 40
12.75
 49
6
 49
-1.5
 49
0.25
 49
-1.5
 49
0.25
 49
-1.5
 49
0.25
 49
-1.5
  0
LTYPE
  2
double-dashed_triplicate-dotted
 70
   64
  3
-----  ---------  -  -  -  -----
 72
   65
 73
   10
 40
20.25
 49
6
 49
-1.5
 49
6
 49
-1.5
 49
0.25
 49
-1.5
 49
0.25
 49
-1.5
 49
0.25
 49
-1.5
  0
LTYPE
  2
undefined
 70
   64
  3
--------------------------------
 72
   65
 73
    0
 40
0
  0
ENDTAB
  0
TABLE
  2
STYLE
  5
3
100
AcDbSymbolTable
 70
     1
  0
STYLE
  5
10
100
AcDbSymbolTableRecord
100
AcDbTextStyleTableRecord
  2
STANDARD
 70
     0
 40
0.0
 41
1.0
 50
0.0
 71
     0
 42
0.2
  3
txt
  4
bigfont.shx
  0
STYLE
  5
26
100
AcDbSymbolTableRecord
100
AcDbTextStyleTableRecord
  2
TATEGAKI
 70
    68
 40
0.0
 41
1.0
 50
0.0
 71
     0
 42
1.0
  3
txt
  4
bigfont.shx
  0
ENDTAB
  0
TABLE
  2
LAYER
 70
   10
  0
LAYER
  2
_0-0_躯体
 70
   64
 62
    7
  6
CONTINUOUS
  0
LAYER
  2
_0-9_小物
 70
   64
 62
    7
  6
CONTINUOUS
  0
LAYER
  2
_0-a_
 70
   64
 62
    7
  6
CONTINUOUS
  0
LAYER
  2
_0-d_可動幅
 70
   64
 62
    7
  6
CONTINUOUS
  0
LAYER
  2
_0-e_付箋
 70
   64
 62
    7
  6
CONTINUOUS
  0
LAYER
  2
_0-f_寸法
 70
   64
 62
    7
  6
CONTINUOUS
  0
LAYER
  2
_1-0_
 70
   64
 62
    7
  6
CONTINUOUS
  0
LAYER
  2
_1-f_
 70
   64
 62
    7
  6
CONTINUOUS
  0
LAYER
  2
_f-0_
 70
   64
 62
    7
  6
CONTINUOUS
  0
LAYER
  2
ADD_LINE
 70
   64
 62
    7
  6
CONTINUOUS
  0
ENDTAB
  0
ENDSEC
  0
SECTION
  2
BLOCKS
  0
BLOCK
  2
-000-HATCHING
 70
   64
 10
0
 20
0
 30
0
  0
LINE
  8
_1-0_
  6
CONTINUOUS
 62
    2
 10
298.10000000000014
 20
196.523738797975
 11
297.76654128921564
 21
196.19028008719044
  0
LINE
  8
_1-0_
  6
CONTINUOUS
 62
    2
 10
298.10000000000014
 20
197.08942422292421
 11
297.20085586426649
 21
196.19028008719044
  0
LINE
  8
_1-0_
  6
CONTINUOUS
 62
    2
 10
297.63517043931711
 20
197.19028008719044
 11
296.63517043931711
 21
196.19028008719044
  0
LINE
  8
_1-0_
  6
CONTINUOUS
 62
    2
 10
297.06948501436796
 20
197.19028008719044
 11
296.06948501436796
 21
196.19028008719044
  0
LINE
  8
_1-0_
  6
CONTINUOUS
 62
    2
 10
296.50379958941858
 20
197.19028008719044
 11
295.50379958941858
 21
196.19028008719044
  0
LINE
  8
_1-0_
  6
CONTINUOUS
 62
    2
 10
295.93811416446943
 20
197.19028008719044
 11
294.93811416446943
 21
196.19028008719044
  0
LINE
  8
_1-0_
  6
CONTINUOUS
 62
    2
 10
295.37242873952016
 20
197.19028008719044
 11
294.37242873952016
 21
196.19028008719044
  0
LINE
  8
_1-0_
  6
CONTINUOUS
 62
    2
 10
294.80674331457078
 20
197.19028008719044
 11
293.80674331457078
 21
196.19028008719044
  0
LINE
  8
_1-0_
  6
CONTINUOUS
 62
    2
 10
294.24105788962186
 20
197.19028008719044
 11
293.24105788962186
 21
196.19028008719044
  0
LINE
  8
_1-0_
  6
CONTINUOUS
 62
    2
 10
293.67537246467248
 20
197.19028008719044
 11
292.67537246467248
 21
196.19028008719044
  0
LINE
  8
_1-0_
  6
CONTINUOUS
 62
    2
 10
293.10968703972321
 20
197.19028008719044
 11
292.10968703972321
 21
196.19028008719044
  0
LINE
  8
_1-0_
  6
CONTINUOUS
 62
    2
 10
292.54400161477406
 20
197.19028008719044
 11
291.54400161477406
 21
196.19028008719044
  0
LINE
  8
_1-0_
  6
CONTINUOUS
 62
    2
 10
291.97831618982491
 20
197.19028008719044
 11
290.97831618982491
 21
196.19028008719044
  0
LINE
  8
_1-0_
  6
CONTINUOUS
 62
    2
 10
291.41263076487553
 20
197.19028008719044
 11
290.41263076487553
 21
196.19028008719044
  0
LINE
  8
_1-0_
  6
CONTINUOUS
 62
    2
 10
290.84694533992638
 20
197.19028008719044
 11
289.84694533992638
 21
196.19028008719044
  0
LINE
  8
_1-0_
  6
CONTINUOUS
 62
    2
 10
290.281259914977
 20
197.19028008719044
 11
289.281259914977
 21
196.19028008719044
  0
LINE
  8
_1-0_
  6
CONTINUOUS
 62
    2
 10
289.71557449002785
 20
197.19028008719044
 11
288.71557449002785
 21
196.19028008719044
  0
LINE
  8
_1-0_
  6
CONTINUOUS
 62
    2
 10
289.14988906507858
 20
197.19028008719044
 11
288.14988906507858
 21
196.19028008719044
  0
LINE
  8
_1-0_
  6
CONTINUOUS
 62
    2
 10
288.5842036401292
 20
197.19028008719044
 11
287.5842036401292
 21
196.19028008719044
  0
LINE
  8
_1-0_
  6
CONTINUOUS
 62
    2
 10
288.01851821518028
 20
197.19028008719044
 11
287.01851821518028
 21
196.19028008719044
  0
LINE
  8
_1-0_
  6
CONTINUOUS
 62
    2
 10
287.4528327902309
 20
197.19028008719044
 11
286.4528327902309
 21
196.19028008719044
  0
LINE
  8
_1-0_
  6
CONTINUOUS
 62
    2
 10
286.88714736528163
 20
197.19028008719044
 11
285.88714736528163
 21
196.19028008719044
  0
LINE
  8
_1-0_
  6
CONTINUOUS
 62
    2
 10
286.32146194033248
 20
197.19028008719044
 11
285.32146194033248
 21
196.19028008719044
  0
LINE
  8
_1-0_
  6
CONTINUOUS
 62
    2
 10
285.7557765153831
 20
197.19028008719044
 11
284.7557765153831
 21
196.19028008719044
  0
LINE
  8
_1-0_
  6
CONTINUOUS
 62
    2
 10
285.69999999999959
 20
197.7001889967562
 11
284.19009109043395
 21
196.19028008719044
  0
LINE
  8
_1-0_
  6
CONTINUOUS
 62
    2
 10
285.69999999999959
 20
198.26587442170552
 11
283.69999999999959
 21
196.26587442170552
  0
LINE
  8
_1-0_
  6
CONTINUOUS
 62
    2
 10
285.69999999999959
 20
198.83155984665467
 11
283.69999999999959
 21
196.83155984665467
  0
LINE
  8
_1-0_
  6
CONTINUOUS
 62
    2
 10
285.69999999999959
 20
199.39724527160388
 11
283.69999999999959
 21
197.39724527160388
  0
LINE
  8
_1-0_
  6
CONTINUOUS
 62
    2
 10
285.69999999999959
 20
199.96293069655314
 11
283.69999999999959
 21
197.96293069655314
  0
LINE
  8
_1-0_
  6
CONTINUOUS
 62
    2
 10
285.69999999999959
 20
200.52861612150241
 11
283.69999999999959
 21
198.52861612150241
  0
LINE
  8
_1-0_
  6
CONTINUOUS
 62
    2
 10
285.69999999999959
 20
201.09430154645173
 11
283.69999999999959
 21
199.09430154645173
  0
LINE
  8
_1-0_
  6
CONTINUOUS
 62
    2
 10
285.69999999999959
 20
201.65998697140088
 11
283.69999999999959
 21
199.65998697140088
  0
LINE
  8
_1-0_
  6
CONTINUOUS
 62
    2
 10
285.69999999999959
 20
202.22567239635009
 11
283.69999999999959
 21
200.22567239635009
  0
LINE
  8
_1-0_
  6
CONTINUOUS
 62
    2
 10
285.69999999999959
 20
202.79135782129936
 11
283.69999999999959
 21
200.79135782129936
  0
LINE
  8
_1-0_
  6
CONTINUOUS
 62
    2
 10
285.33323684093921
 20
202.99028008718818
 11
283.69999999999959
 21
201.35704324624862
  0
LINE
  8
_1-0_
  6
CONTINUOUS
 62
    2
 10
284.76755141599006
 20
202.99028008718818
 11
283.69999999999959
 21
201.92272867119794
  0
LINE
  8
_1-0_
  6
CONTINUOUS
 62
    2
 10
284.2018659910409
 20
202.99028008718818
 11
283.69999999999959
 21
202.4884140961471
  0
ENDBLK
  0
BLOCK
  2
-001-HATCHING_1_
 70
   64
 10
0
 20
0
 30
0
  0
LINE
  8
_1-0_
  6
CONTINUOUS
 62
    2
 10
344.50000000000034
 20
196.53753395213755
 11
344.15274613505096
 21
196.19028008718817
  0
LINE
  8
_1-0_
  6
CONTINUOUS
 62
    2
 10
344.50000000000034
 20
197.10321937708682
 11
343.58706071010158
 21
196.19028008718817
  0
LINE
  8
_1-0_
  6
CONTINUOUS
 62
    2
 10
344.50000000000034
 20
197.66890480203614
 11
343.02137528515232
 21
196.19028008718817
  0
LINE
  8
_1-0_
  6
CONTINUOUS
 62
    2
 10
344.50000000000034
 20
198.23459022698529
 11
342.45568986020317
 21
196.19028008718817
  0
LINE
  8
_1-0_
  6
CONTINUOUS
 62
    2
 10
344.50000000000034
 20
198.8002756519345
 11
341.89000443525401
 21
196.19028008718817
  0
LINE
  8
_1-0_
  6
CONTINUOUS
 62
    2
 10
344.50000000000034
 20
199.36596107688376
 11
342.5
 21
197.36596107688359
  0
LINE
  8
_1-0_
  6
CONTINUOUS
 62
    2
 10
342.32431901030463
 20
197.19028008718817
 11
341.32431901030463
 21
196.19028008718817
  0
LINE
  8
_1-0_
  6
CONTINUOUS
 62
    2
 10
344.50000000000034
 20
199.93164650183303
 11
342.5
 21
197.9316465018328
  0
LINE
  8
_1-0_
  6
CONTINUOUS
 62
    2
 10
341.75863358535548
 20
197.19028008718817
 11
340.75863358535548
 21
196.19028008718817
  0
LINE
  8
_1-0_
  6
CONTINUOUS
 62
    2
 10
344.50000000000034
 20
200.49733192678235
 11
342.5
 21
198.49733192678207
  0
LINE
  8
_1-0_
  6
CONTINUOUS
 62
    2
 10
341.1929481604061
 20
197.19028008718817
 11
340.1929481604061
 21
196.19028008718817
  0
LINE
  8
_1-0_
  6
CONTINUOUS
 62
    2
 10
344.50000000000034
 20
201.0630173517315
 11
342.5
 21
199.06301735173133
  0
LINE
  8
_1-0_
  6
CONTINUOUS
 62
    2
 10
340.62726273545695
 20
197.19028008718817
 11
339.62726273545695
 21
196.19028008718817
  0
LINE
  8
_1-0_
  6
CONTINUOUS
 62
    2
 10
344.50000000000034
 20
201.62870277668071
 11
342.5
 21
199.62870277668065
  0
LINE
  8
_1-0_
  6
CONTINUOUS
 62
    2
 10
340.06157731050769
 20
197.19028008718817
 11
339.06157731050769
 21
196.19028008718817
  0
LINE
  8
_1-0_
  6
CONTINUOUS
 62
    2
 10
344.50000000000034
 20
202.19438820162986
 11
342.5
 21
200.19438820162981
  0
LINE
  8
_1-0_
  6
CONTINUOUS
 62
    2
 10
339.49589188555831
 20
197.19028008718817
 11
338.49589188555865
 21
196.19028008718817
  0
LINE
  8
_1-0_
  6
CONTINUOUS
 62
    2
 10
344.50000000000034
 20
202.76007362657924
 11
342.5
 21
200.76007362657901
  0
LINE
  8
_1-0_
  6
CONTINUOUS
 62
    2
 10
338.93020646060938
 20
197.19028008718817
 11
337.93020646060938
 21
196.19028008718817
  0
LINE
  8
_1-0_
  6
CONTINUOUS
 62
    2
 10
344.16452103566007
 20
202.99028008718818
 11
342.5
 21
201.32575905152828
  0
LINE
  8
_1-0_
  6
CONTINUOUS
 62
    2
 10
338.36452103566
 20
197.19028008718817
 11
337.36452103566
 21
196.19028008718817
  0
LINE
  8
_1-0_
  6
CONTINUOUS
 62
    2
 10
343.59883561071069
 20
202.99028008718818
 11
342.5
 21
201.89144447647755
  0
LINE
  8
_1-0_
  6
CONTINUOUS
 62
    2
 10
337.79883561071074
 20
197.19028008718817
 11
336.79883561071074
 21
196.19028008718817
  0
LINE
  8
_1-0_
  6
CONTINUOUS
 62
    2
 10
343.03315018576154
 20
202.99028008718818
 11
342.5
 21
202.45712990142687
  0
LINE
  8
_1-0_
  6
CONTINUOUS
 62
    2
 10
337.23315018576159
 20
197.19028008718817
 11
336.23315018576159
 21
196.19028008718817
  0
LINE
  8
_1-0_
  6
CONTINUOUS
 62
    2
 10
336.66746476081221
 20
197.19028008718817
 11
335.66746476081244
 21
196.19028008718817
  0
LINE
  8
_1-0_
  6
CONTINUOUS
 62
    2
 10
336.10177933586306
 20
197.19028008718817
 11
335.10177933586306
 21
196.19028008718817
  0
LINE
  8
_1-0_
  6
CONTINUOUS
 62
    2
 10
335.53609391091391
 20
197.19028008718817
 11
334.53609391091391
 21
196.19028008718817
  0
LINE
  8
_1-0_
  6
CONTINUOUS
 62
    2
 10
334.97040848596453
 20
197.19028008718817
 11
333.97040848596453
 21
196.19028008718817
  0
LINE
  8
_1-0_
  6
CONTINUOUS
 62
    2
 10
334.40472306101537
 20
197.19028008718817
 11
333.40472306101537
 21
196.19028008718817
  0
LINE
  8
_1-0_
  6
CONTINUOUS
 62
    2
 10
333.83903763606611
 20
197.19028008718817
 11
332.83903763606611
 21
196.19028008718817
  0
LINE
  8
_1-0_
  6
CONTINUOUS
 62
    2
 10
333.27335221111673
 20
197.19028008718817
 11
332.27335221111673
 21
196.19028008718817
  0
LINE
  8
_1-0_
  6
CONTINUOUS
 62
    2
 10
332.70766678616781
 20
197.19028008718817
 11
331.70766678616781
 21
196.19028008718817
  0
LINE
  8
_1-0_
  6
CONTINUOUS
 62
    2
 10
332.14198136121843
 20
197.19028008718817
 11
331.14198136121843
 21
196.19028008718817
  0
LINE
  8
_1-0_
  6
CONTINUOUS
 62
    2
 10
331.57629593626916
 20
197.19028008718817
 11
330.57629593626916
 21
196.19028008718817
  0
LINE
  8
_1-0_
  6
CONTINUOUS
 62
    2
 10
331.01061051132001
 20
197.19028008718817
 11
330.01061051132001
 21
196.19028008718817
  0
LINE
  8
_1-0_
  6
CONTINUOUS
 62
    2
 10
330.44492508637063
 20
197.19028008718817
 11
329.44492508637063
 21
196.19028008718817
  0
LINE
  8
_1-0_
  6
CONTINUOUS
 62
    2
 10
329.87923966142148
 20
197.19028008718817
 11
328.87923966142148
 21
196.19028008718817
  0
LINE
  8
_1-0_
  6
CONTINUOUS
 62
    2
 10
329.3135542364721
 20
197.19028008718817
 11
328.3135542364721
 21
196.19028008718817
  0
LINE
  8
_1-0_
  6
CONTINUOUS
 62
    2
 10
328.74786881152284
 20
197.19028008718817
 11
327.74786881152284
 21
196.19028008718817
  0
LINE
  8
_1-0_
  6
CONTINUOUS
 62
    2
 10
328.1821833865738
 20
197.19028008718817
 11
327.1821833865738
 21
196.19028008718817
  0
LINE
  8
_1-0_
  6
CONTINUOUS
 62
    2
 10
327.61649796162453
 20
197.19028008718817
 11
326.61649796162453
 21
196.19028008718817
  0
LINE
  8
_1-0_
  6
CONTINUOUS
 62
    2
 10
327.05081253667515
 20
197.19028008718817
 11
326.05081253667515
 21
196.19028008718817
  0
LINE
  8
_1-0_
  6
CONTINUOUS
 62
    2
 10
326.48512711172589
 20
197.19028008718817
 11
325.48512711172589
 21
196.19028008718817
  0
LINE
  8
_1-0_
  6
CONTINUOUS
 62
    2
 10
325.91944168677674
 20
197.19028008718817
 11
324.91944168677685
 21
196.19028008718817
  0
LINE
  8
_1-0_
  6
CONTINUOUS
 62
    2
 10
325.35375626182758
 20
197.19028008718817
 11
324.35375626182758
 21
196.19028008718817
  0
LINE
  8
_1-0_
  6
CONTINUOUS
 62
    2
 10
324.78807083687843
 20
197.19028008718817
 11
323.78807083687843
 21
196.19028008718817
  0
LINE
  8
_1-0_
  6
CONTINUOUS
 62
    2
 10
324.22238541192905
 20
197.19028008718817
 11
323.22238541192905
 21
196.19028008718817
  0
LINE
  8
_1-0_
  6
CONTINUOUS
 62
    2
 10
323.6566999869799
 20
197.19028008718817
 11
322.6566999869799
 21
196.19028008718817
  0
LINE
  8
_1-0_
  6
CONTINUOUS
 62
    2
 10
323.09101456203052
 20
197.19028008718817
 11
322.09101456203052
 21
196.19028008718817
  0
LINE
  8
_1-0_
  6
CONTINUOUS
 62
    2
 10
322.52532913708126
 20
197.19028008718817
 11
321.52532913708126
 21
196.19028008718817
  0
LINE
  8
_1-0_
  6
CONTINUOUS
 62
    2
 10
321.95964371213222
 20
197.19028008718817
 11
320.95964371213222
 21
196.19028008718817
  0
LINE
  8
_1-0_
  6
CONTINUOUS
 62
    2
 10
321.39395828718295
 20
197.19028008718817
 11
320.39395828718295
 21
196.19028008718817
  0
LINE
  8
_1-0_
  6
CONTINUOUS
 62
    2
 10
320.82827286223358
 20
197.19028008718817
 11
319.82827286223358
 21
196.19028008718817
  0
LINE
  8
_1-0_
  6
CONTINUOUS
 62
    2
 10
320.26258743728431
 20
197.19028008718817
 11
319.26258743728431
 21
196.19028008718817
  0
LINE
  8
_1-0_
  6
CONTINUOUS
 62
    2
 10
319.69690201233516
 20
197.19028008718817
 11
318.69690201233516
 21
196.19028008718817
  0
LINE
  8
_1-0_
  6
CONTINUOUS
 62
    2
 10
319.13121658738601
 20
197.19028008718817
 11
318.13121658738601
 21
196.19028008718817
  0
LINE
  8
_1-0_
  6
CONTINUOUS
 62
    2
 10
318.56553116243663
 20
197.19028008718817
 11
318.10000000000014
 21
196.72474892475168
  0
ENDBLK
  0
BLOCK
  2
-002-HATCHING_2_
 70
   64
 10
0
 20
0
 30
0
  0
LINE
  8
_1-0_
  6
CONTINUOUS
 62
    2
 10
344.50000000000034
 20
-74.317203968341744
 11
344.23647750828127
 21
-74.580726460060845
  0
LINE
  8
_1-0_
  6
CONTINUOUS
 62
    2
 10
344.50000000000034
 20
-73.751518543392535
 11
343.67079208333189
 21
-74.580726460060845
  0
LINE
  8
_1-0_
  6
CONTINUOUS
 62
    2
 10
344.50000000000034
 20
-73.185833118443298
 11
343.10510665838262
 21
-74.580726460060845
  0
LINE
  8
_1-0_
  6
CONTINUOUS
 62
    2
 10
344.50000000000034
 20
-72.620147693494062
 11
342.53942123343359
 21
-74.580726460060845
  0
LINE
  8
_1-0_
  6
CONTINUOUS
 62
    2
 10
344.50000000000034
 20
-72.05446226854491
 11
341.97373580848432
 21
-74.580726460060845
  0
LINE
  8
_1-0_
  6
CONTINUOUS
 62
    2
 10
344.50000000000034
 20
-71.488776843595673
 11
342.50000000000011
 21
-73.488776843595758
  0
LINE
  8
_1-0_
  6
CONTINUOUS
 62
    2
 10
342.40805038353494
 20
-73.580726460060845
 11
341.40805038353494
 21
-74.580726460060845
  0
LINE
  8
_1-0_
  6
CONTINUOUS
 62
    2
 10
344.50000000000034
 20
-70.923091418646379
 11
342.50000000000011
 21
-72.923091418646521
  0
LINE
  8
_1-0_
  6
CONTINUOUS
 62
    2
 10
341.84236495858568
 20
-73.580726460060845
 11
340.84236495858568
 21
-74.580726460060845
  0
LINE
  8
_1-0_
  6
CONTINUOUS
 62
    2
 10
344.50000000000034
 20
-70.357405993697171
 11
342.50000000000011
 21
-72.357405993697228
  0
LINE
  8
_1-0_
  6
CONTINUOUS
 62
    2
 10
341.27667953363652
 20
-73.580726460060845
 11
340.27667953363664
 21
-74.580726460060845
  0
LINE
  8
_1-0_
  6
CONTINUOUS
 62
    2
 10
344.50000000000034
 20
-69.791720568747934
 11
342.50000000000011
 21
-71.791720568748019
  0
LINE
  8
_1-0_
  6
CONTINUOUS
 62
    2
 10
340.71099410868737
 20
-73.580726460060845
 11
339.71099410868737
 21
-74.580726460060845
  0
LINE
  8
_1-0_
  6
CONTINUOUS
 62
    2
 10
344.50000000000034
 20
-69.226035143798697
 11
342.50000000000011
 21
-71.226035143798782
  0
LINE
  8
_1-0_
  6
CONTINUOUS
 62
    2
 10
340.14530868373799
 20
-73.580726460060845
 11
339.14530868373822
 21
-74.580726460060845
  0
LINE
  8
_1-0_
  6
CONTINUOUS
 62
    2
 10
344.50000000000034
 20
-68.66034971884946
 11
342.50000000000011
 21
-70.660349718849545
  0
LINE
  8
_1-0_
  6
CONTINUOUS
 62
    2
 10
339.57962325878862
 20
-73.580726460060845
 11
338.57962325878884
 21
-74.580726460060845
  0
LINE
  8
_1-0_
  6
CONTINUOUS
 62
    2
 10
344.50000000000034
 20
-68.094664293900166
 11
342.50000000000011
 21
-70.094664293900308
  0
LINE
  8
_1-0_
  6
CONTINUOUS
 62
    2
 10
339.01393783383946
 20
-73.580726460060845
 11
338.01393783383946
 21
-74.580726460060845
  0
LINE
  8
_1-0_
  6
CONTINUOUS
 62
    2
 10
344.24825240889038
 20
-67.780726460060833
 11
342.50000000000011
 21
-69.528978868951015
  0
LINE
  8
_1-0_
  6
CONTINUOUS
 62
    2
 10
338.44825240889031
 20
-73.580726460060845
 11
337.44825240889031
 21
-74.580726460060845
  0
LINE
  8
_1-0_
  6
CONTINUOUS
 62
    2
 10
343.682566983941
 20
-67.780726460060833
 11
342.50000000000011
 21
-68.963293444001806
  0
LINE
  8
_1-0_
  6
CONTINUOUS
 62
    2
 10
337.88256698394105
 20
-73.580726460060845
 11
336.88256698394105
 21
-74.580726460060845
  0
LINE
  8
_1-0_
  6
CONTINUOUS
 62
    2
 10
343.11688155899185
 20
-67.780726460060833
 11
342.50000000000011
 21
-68.397608019052569
  0
LINE
  8
_1-0_
  6
CONTINUOUS
 62
    2
 10
337.31688155899201
 20
-73.580726460060845
 11
336.31688155899201
 21
-74.580726460060845
  0
LINE
  8
_1-0_
  6
CONTINUOUS
 62
    2
 10
342.5511961340427
 20
-67.780726460060833
 11
342.50000000000011
 21
-67.831922594103332
  0
LINE
  8
_1-0_
  6
CONTINUOUS
 62
    2
 10
336.75119613404274
 20
-73.580726460060845
 11
335.75119613404274
 21
-74.580726460060845
  0
LINE
  8
_1-0_
  6
CONTINUOUS
 62
    2
 10
336.18551070909336
 20
-73.580726460060845
 11
335.18551070909336
 21
-74.580726460060845
  0
LINE
  8
_1-0_
  6
CONTINUOUS
 62
    2
 10
335.6198252841441
 20
-73.580726460060845
 11
334.6198252841441
 21
-74.580726460060845
  0
LINE
  8
_1-0_
  6
CONTINUOUS
 62
    2
 10
335.05413985919495
 20
-73.580726460060845
 11
334.05413985919495
 21
-74.580726460060845
  0
LINE
  8
_1-0_
  6
CONTINUOUS
 62
    2
 10
334.4884544342458
 20
-73.580726460060845
 11
333.4884544342458
 21
-74.580726460060845
  0
LINE
  8
_1-0_
  6
CONTINUOUS
 62
    2
 10
333.92276900929642
 20
-73.580726460060845
 11
332.92276900929642
 21
-74.580726460060845
  0
LINE
  8
_1-0_
  6
CONTINUOUS
 62
    2
 10
333.35708358434704
 20
-73.580726460060845
 11
332.35708358434704
 21
-74.580726460060845
  0
LINE
  8
_1-0_
  6
CONTINUOUS
 62
    2
 10
332.79139815939789
 20
-73.580726460060845
 11
331.79139815939789
 21
-74.580726460060845
  0
LINE
  8
_1-0_
  6
CONTINUOUS
 62
    2
 10
332.22571273444873
 20
-73.580726460060845
 11
331.22571273444873
 21
-74.580726460060845
  0
LINE
  8
_1-0_
  6
CONTINUOUS
 62
    2
 10
331.66002730949947
 20
-73.580726460060845
 11
330.66002730949947
 21
-74.580726460060845
  0
LINE
  8
_1-0_
  6
CONTINUOUS
 62
    2
 10
331.09434188455009
 20
-73.580726460060845
 11
330.09434188455009
 21
-74.580726460060845
  0
LINE
  8
_1-0_
  6
CONTINUOUS
 62
    2
 10
330.52865645960094
 20
-73.580726460060845
 11
329.52865645960094
 21
-74.580726460060845
  0
LINE
  8
_1-0_
  6
CONTINUOUS
 62
    2
 10
329.96297103465179
 20
-73.580726460060845
 11
328.96297103465179
 21
-74.580726460060845
  0
LINE
  8
_1-0_
  6
CONTINUOUS
 62
    2
 10
329.39728560970252
 20
-73.580726460060845
 11
328.39728560970252
 21
-74.580726460060845
  0
LINE
  8
_1-0_
  6
CONTINUOUS
 62
    2
 10
328.83160018475337
 20
-73.580726460060845
 11
327.83160018475337
 21
-74.580726460060845
  0
LINE
  8
_1-0_
  6
CONTINUOUS
 62
    2
 10
328.26591475980399
 20
-73.580726460060845
 11
327.26591475980399
 21
-74.580726460060845
  0
LINE
  8
_1-0_
  6
CONTINUOUS
 62
    2
 10
327.70022933485461
 20
-73.580726460060845
 11
326.70022933485484
 21
-74.580726460060845
  0
LINE
  8
_1-0_
  6
CONTINUOUS
 62
    2
 10
327.13454390990546
 20
-73.580726460060845
 11
326.13454390990546
 21
-74.580726460060845
  0
LINE
  8
_1-0_
  6
CONTINUOUS
 62
    2
 10
326.56885848495619
 20
-73.580726460060845
 11
325.56885848495619
 21
-74.580726460060845
  0
LINE
  8
_1-0_
  6
CONTINUOUS
 62
    2
 10
326.00317306000716
 20
-73.580726460060845
 11
325.00317306000716
 21
-74.580726460060845
  0
LINE
  8
_1-0_
  6
CONTINUOUS
 62
    2
 10
325.43748763505789
 20
-73.580726460060845
 11
324.43748763505789
 21
-74.580726460060845
  0
LINE
  8
_1-0_
  6
CONTINUOUS
 62
    2
 10
324.87180221010851
 20
-73.580726460060845
 11
323.87180221010851
 21
-74.580726460060845
  0
LINE
  8
_1-0_
  6
CONTINUOUS
 62
    2
 10
324.30611678515925
 20
-73.580726460060845
 11
323.30611678515936
 21
-74.580726460060845
  0
LINE
  8
_1-0_
  6
CONTINUOUS
 62
    2
 10
323.74043136021021
 20
-73.580726460060845
 11
322.74043136021021
 21
-74.580726460060845
  0
LINE
  8
_1-0_
  6
CONTINUOUS
 62
    2
 10
323.17474593526094
 20
-73.580726460060845
 11
322.17474593526094
 21
-74.580726460060845
  0
LINE
  8
_1-0_
  6
CONTINUOUS
 62
    2
 10
322.60906051031179
 20
-73.580726460060845
 11
321.60906051031179
 21
-74.580726460060845
  0
LINE
  8
_1-0_
  6
CONTINUOUS
 62
    2
 10
322.04337508536241
 20
-73.580726460060845
 11
321.04337508536241
 21
-74.580726460060845
  0
LINE
  8
_1-0_
  6
CONTINUOUS
 62
    2
 10
321.47768966041303
 20
-73.580726460060845
 11
320.47768966041303
 21
-74.580726460060845
  0
LINE
  8
_1-0_
  6
CONTINUOUS
 62
    2
 10
320.91200423546388
 20
-73.580726460060845
 11
319.91200423546388
 21
-74.580726460060845
  0
LINE
  8
_1-0_
  6
CONTINUOUS
 62
    2
 10
320.34631881051462
 20
-73.580726460060845
 11
319.34631881051462
 21
-74.580726460060845
  0
LINE
  8
_1-0_
  6
CONTINUOUS
 62
    2
 10
319.78063338556558
 20
-73.580726460060845
 11
318.78063338556558
 21
-74.580726460060845
  0
LINE
  8
_1-0_
  6
CONTINUOUS
 62
    2
 10
319.21494796061631
 20
-73.580726460060845
 11
318.21494796061631
 21
-74.580726460060845
  0
LINE
  8
_1-0_
  6
CONTINUOUS
 62
    2
 10
318.64926253566694
 20
-73.580726460060845
 11
318.09999999999957
 21
-74.129988995728297
  0
ENDBLK
  0
BLOCK
  2
-003-HATCHING_3_
 70
   64
 10
0
 20
0
 30
0
  0
LINE
  8
_0-0_躯体
  6
CONTINUOUS
 62
    2
 10
71.100000000001216
 20
-152.18238754141601
 11
69.782387541405967
 21
-153.50000000001114
  0
LINE
  8
_0-0_躯体
  6
CONTINUOUS
 62
    2
 10
71.100000000001216
 20
-149.35396041666985
 11
66.953960416659754
 21
-153.50000000001114
  0
LINE
  8
_0-0_躯体
  6
CONTINUOUS
 62
    2
 10
71.100000000001216
 20
-146.52553329192364
 11
64.125533291913541
 21
-153.50000000001114
  0
LINE
  8
_0-0_躯体
  6
CONTINUOUS
 62
    2
 10
71.100000000001216
 20
-143.69710616717742
 11
61.297106167167328
 21
-153.50000000001114
  0
LINE
  8
_0-0_躯体
  6
CONTINUOUS
 62
    2
 10
71.100000000001216
 20
-140.86867904243127
 11
58.468679042421115
 21
-153.50000000001114
  0
LINE
  8
_0-0_躯体
  6
CONTINUOUS
 62
    2
 10
71.100000000001216
 20
-138.04025191768505
 11
61.100000000000762
 21
-148.04025191768551
  0
LINE
  8
_0-0_躯体
  6
CONTINUOUS
 62
    2
 10
60.640251917674902
 20
-148.50000000001125
 11
55.64025191767513
 21
-153.50000000001114
  0
LINE
  8
_0-0_躯体
  6
CONTINUOUS
 62
    2
 10
71.100000000001216
 20
-135.21182479293884
 11
61.100000000000762
 21
-145.2118247929393
  0
LINE
  8
_0-0_躯体
  6
CONTINUOUS
 62
    2
 10
57.811824792928689
 20
-148.50000000001125
 11
52.811824792928917
 21
-153.50000000001114
  0
LINE
  8
_0-0_躯体
  6
CONTINUOUS
 62
    2
 10
71.100000000001216
 20
-132.38339766819274
 11
61.100000000000762
 21
-142.3833976681932
  0
LINE
  8
_0-0_躯体
  6
CONTINUOUS
 62
    2
 10
54.983397668182704
 20
-148.50000000001125
 11
49.983397668182931
 21
-153.50000000001114
  0
LINE
  8
_0-0_躯体
  6
CONTINUOUS
 62
    2
 10
71.100000000001216
 20
-129.55497054344653
 11
61.100000000000762
 21
-139.55497054344698
  0
LINE
  8
_0-0_躯体
  6
CONTINUOUS
 62
    2
 10
52.154970543436491
 20
-148.50000000001125
 11
47.154970543436718
 21
-153.50000000001114
  0
LINE
  8
_0-0_躯体
  6
CONTINUOUS
 62
    2
 10
71.100000000001216
 20
-126.72654341870032
 11
61.100000000000762
 21
-136.72654341870077
  0
LINE
  8
_0-0_躯体
  6
CONTINUOUS
 62
    2
 10
49.326543418690278
 20
-148.50000000001125
 11
44.326543418690505
 21
-153.50000000001114
  0
LINE
  8
_0-0_躯体
  6
CONTINUOUS
 62
    2
 10
71.100000000001216
 20
-123.8981162939541
 11
61.100000000000762
 21
-133.89811629395456
  0
LINE
  8
_0-0_躯体
  6
CONTINUOUS
 62
    2
 10
46.498116293944065
 20
-148.50000000001125
 11
41.498116293944292
 21
-153.50000000001114
  0
LINE
  8
_0-0_躯体
  6
CONTINUOUS
 62
    2
 10
71.100000000001216
 20
-121.06968916920795
 11
61.100000000000762
 21
-131.0696891692084
  0
LINE
  8
_0-0_躯体
  6
CONTINUOUS
 62
    2
 10
43.669689169197852
 20
-148.50000000001125
 11
38.66968916919808
 21
-153.50000000001114
  0
LINE
  8
_0-0_躯体
  6
CONTINUOUS
 62
    2
 10
69.841262044451639
 20
-119.50000000001125
 11
61.100000000000762
 21
-128.24126204446219
  0
LINE
  8
_0-0_躯体
  6
CONTINUOUS
 62
    2
 10
40.841262044451639
 20
-148.50000000001125
 11
35.841262044451867
 21
-153.50000000001114
  0
LINE
  8
_0-0_躯体
  6
CONTINUOUS
 62
    2
 10
67.012834919705426
 20
-119.50000000001125
 11
61.100000000000762
 21
-125.41283491971598
  0
LINE
  8
_0-0_躯体
  6
CONTINUOUS
 62
    2
 10
38.012834919705426
 20
-148.50000000001125
 11
33.012834919705654
 21
-153.50000000001114
  0
LINE
  8
_0-0_躯体
  6
CONTINUOUS
 62
    2
 10
64.184407794959441
 20
-119.50000000001125
 11
61.100000000000762
 21
-122.58440779496988
  0
LINE
  8
_0-0_躯体
  6
CONTINUOUS
 62
    2
 10
35.184407794959441
 20
-148.50000000001125
 11
30.184407794959441
 21
-153.50000000001114
  0
LINE
  8
_0-0_躯体
  6
CONTINUOUS
 62
    2
 10
61.355980670213228
 20
-119.50000000001125
 11
61.100000000000762
 21
-119.75598067022366
  0
LINE
  8
_0-0_躯体
  6
CONTINUOUS
 62
    2
 10
32.355980670213228
 20
-148.50000000001125
 11
27.355980670213228
 21
-153.50000000001114
  0
LINE
  8
_0-0_躯体
  6
CONTINUOUS
 62
    2
 10
29.527553545467015
 20
-148.50000000001125
 11
24.527553545467015
 21
-153.50000000001114
  0
LINE
  8
_0-0_躯体
  6
CONTINUOUS
 62
    2
 10
26.699126420720802
 20
-148.50000000001125
 11
21.699126420720802
 21
-153.50000000001114
  0
LINE
  8
_0-0_躯体
  6
CONTINUOUS
 62
    2
 10
23.870699295974589
 20
-148.50000000001125
 11
18.870699295974589
 21
-153.50000000001114
  0
LINE
  8
_0-0_躯体
  6
CONTINUOUS
 62
    2
 10
21.042272171228376
 20
-148.50000000001125
 11
16.042272171228376
 21
-153.50000000001114
  0
LINE
  8
_0-0_躯体
  6
CONTINUOUS
 62
    2
 10
18.213845046482163
 20
-148.50000000001125
 11
13.213845046482163
 21
-153.50000000001114
  0
LINE
  8
_0-0_躯体
  6
CONTINUOUS
 62
    2
 10
15.38541792173595
 20
-148.50000000001125
 11
10.38541792173595
 21
-153.50000000001114
  0
LINE
  8
_0-0_躯体
  6
CONTINUOUS
 62
    2
 10
12.556990796989737
 20
-148.50000000001125
 11
7.5569907969897372
 21
-153.50000000001114
  0
LINE
  8
_0-0_躯体
  6
CONTINUOUS
 62
    2
 10
9.7285636722435243
 20
-148.50000000001125
 11
4.7285636722435243
 21
-153.50000000001114
  0
LINE
  8
_0-0_躯体
  6
CONTINUOUS
 62
    2
 10
6.9001365474973113
 20
-148.50000000001125
 11
1.9001365474975387
 21
-153.50000000001114
  0
LINE
  8
_0-0_躯体
  6
CONTINUOUS
 62
    2
 10
4.0717094227510984
 20
-148.50000000001125
 11
-0.9282905772486742
 21
-153.50000000001114
  0
LINE
  8
_0-0_躯体
  6
CONTINUOUS
 62
    2
 10
1.2432822980048854
 20
-148.50000000001125
 11
-3.7567177019948872
 21
-153.50000000001114
  0
LINE
  8
_0-0_躯体
  6
CONTINUOUS
 62
    2
 10
-1.5851448267411001
 20
-148.50000000001125
 11
-6.5851448267411001
 21
-153.50000000001114
  0
LINE
  8
_0-0_躯体
  6
CONTINUOUS
 62
    2
 10
-4.4135719514873131
 20
-148.50000000001125
 11
-9.4135719514873131
 21
-153.50000000001114
  0
LINE
  8
_0-0_躯体
  6
CONTINUOUS
 62
    2
 10
-7.241999076233526
 20
-148.50000000001125
 11
-12.241999076233526
 21
-153.50000000001114
  0
LINE
  8
_0-0_躯体
  6
CONTINUOUS
 62
    2
 10
-10.070426200979739
 20
-148.50000000001125
 11
-15.070426200979739
 21
-153.50000000001114
  0
LINE
  8
_0-0_躯体
  6
CONTINUOUS
 62
    2
 10
-12.898853325725952
 20
-148.50000000001125
 11
-17.898853325725725
 21
-153.50000000001114
  0
LINE
  8
_0-0_躯体
  6
CONTINUOUS
 62
    2
 10
-15.727280450472165
 20
-148.50000000001125
 11
-20.727280450471937
 21
-153.50000000001114
  0
LINE
  8
_0-0_躯体
  6
CONTINUOUS
 62
    2
 10
-18.555707575218378
 20
-148.50000000001125
 11
-23.55570757521815
 21
-153.50000000001114
  0
LINE
  8
_0-0_躯体
  6
CONTINUOUS
 62
    2
 10
-21.384134699964591
 20
-148.50000000001125
 11
-26.384134699964363
 21
-153.50000000001114
  0
LINE
  8
_0-0_躯体
  6
CONTINUOUS
 62
    2
 10
-24.212561824710804
 20
-148.50000000001125
 11
-29.212561824710576
 21
-153.5000000000112
  0
LINE
  8
_0-0_躯体
  6
CONTINUOUS
 62
    2
 10
-27.040988949456789
 20
-148.50000000001125
 11
-32.040988949456789
 21
-153.50000000001114
  0
LINE
  8
_0-0_躯体
  6
CONTINUOUS
 62
    2
 10
-29.869416074203002
 20
-148.50000000001125
 11
-34.869416074203002
 21
-153.50000000001114
  0
LINE
  8
_0-0_躯体
  6
CONTINUOUS
 62
    2
 10
-32.697843198949215
 20
-148.50000000001125
 11
-37.697843198949215
 21
-153.50000000001114
  0
LINE
  8
_0-0_躯体
  6
CONTINUOUS
 62
    2
 10
-35.526270323695428
 20
-148.50000000001125
 11
-40.526270323695428
 21
-153.5000000000112
  0
LINE
  8
_0-0_躯体
  6
CONTINUOUS
 62
    2
 10
-38.354697448441641
 20
-148.50000000001125
 11
-43.354697448441641
 21
-153.50000000001114
  0
LINE
  8
_0-0_躯体
  6
CONTINUOUS
 62
    2
 10
-41.183124573187854
 20
-148.50000000001125
 11
-46.183124573187854
 21
-153.5000000000112
  0
LINE
  8
_0-0_躯体
  6
CONTINUOUS
 62
    2
 10
-44.011551697934067
 20
-148.50000000001125
 11
-49.011551697934067
 21
-153.50000000001114
  0
LINE
  8
_0-0_躯体
  6
CONTINUOUS
 62
    2
 10
-46.83997882268028
 20
-148.50000000001125
 11
-51.83997882268028
 21
-153.50000000001114
  0
LINE
  8
_0-0_躯体
  6
CONTINUOUS
 62
    2
 10
-49.668405947426493
 20
-148.50000000001125
 11
-54.668405947426265
 21
-153.50000000001114
  0
LINE
  8
_0-0_躯体
  6
CONTINUOUS
 62
    2
 10
-52.496833072172706
 20
-148.50000000001125
 11
-57.496833072172478
 21
-153.50000000001114
  0
LINE
  8
_0-0_躯体
  6
CONTINUOUS
 62
    2
 10
-55.325260196918919
 20
-148.50000000001125
 11
-60.325260196918691
 21
-153.50000000001114
  0
LINE
  8
_0-0_躯体
  6
CONTINUOUS
 62
    2
 10
-58.153687321665132
 20
-148.50000000001125
 11
-60.900000000002194
 21
-151.24631267834849
  0
ENDBLK
  0
BLOCK
  2
-004-
 70
   64
 10
0
 20
0
 30
0
  0
ARC
  8
_0-a_
  6
CONTINUOUS
 62
    3
 10
-149.60000004780778
 20
-81.499999829861736
 40
0.2999999999999999
 50
180
 51
270
  0
ARC
  8
_0-a_
  6
CONTINUOUS
 62
    3
 10
-151.90000004780774
 20
-73.499999829861963
 40
0.5
 50
0
 51
90
  0
LINE
  8
_0-a_
  6
CONTINUOUS
 62
    3
 10
-147.90000004780774
 20
-81.79999982986169
 11
-149.60000004780778
 21
-81.79999982986169
  0
LINE
  8
_0-a_
  6
CONTINUOUS
 62
    3
 10
-152.90000004780774
 20
-71.499999829861736
 11
-161.86575233063337
 21
-72.284401514590627
  0
ARC
  8
_0-a_
  6
CONTINUOUS
 62
    3
 10
-161.77859658788594
 20
-73.28059621268244
 40
1
 50
94.999999999999758
 51
333.4665312869962
  0
ARC
  8
_0-a_
  6
CONTINUOUS
 62
    3
 10
-159.98924945332175
 20
-74.174037219144111
 40
1
 50
91.423665625010599
 51
153.46653128700495
  0
LINE
  8
_0-a_
  6
CONTINUOUS
 62
    3
 10
-152.99893714734372
 20
-72.999999829861736
 11
-160.01409454915671
 21
-73.174345906181543
  0
LINE
  8
_0-a_
  6
CONTINUOUS
 62
    3
 10
-151.90000004780774
 20
-72.999999829861736
 11
-152.99893714734372
 21
-72.999999829861736
  0
LINE
  8
_0-a_
  6
CONTINUOUS
 62
    3
 10
-151.40000004780774
 20
-81.499999829861736
 11
-151.40000004780774
 21
-73.499999829861963
  0
ARC
  8
_0-a_
  6
CONTINUOUS
 62
    3
 10
-149.60000004780778
 20
-81.499999829861736
 40
1.8
 50
180
 51
270
  0
LINE
  8
_0-a_
  6
CONTINUOUS
 62
    3
 10
-149.90000004780774
 20
-81.499999829861736
 11
-149.90000004780774
 21
-72.499999829861736
  0
LINE
  8
_0-a_
  6
CONTINUOUS
 62
    3
 10
-152.90000004780774
 20
-71.499999829861736
 11
-150.90000004780774
 21
-71.499999829861736
  0
ARC
  8
_0-a_
  6
CONTINUOUS
 62
    3
 10
-150.90000004780774
 20
-72.499999829861736
 40
1
 50
0
 51
90
  0
LINE
  8
_0-a_
  6
CONTINUOUS
 62
    3
 10
-147.90000004780774
 20
-83.29999982986169
 11
-149.60000004780778
 21
-83.29999982986169
  0
LINE
  8
_0-a_
  6
CONTINUOUS
 62
    3
 10
-148.05198387545948
 20
-80.410550007184156
 11
-148.38358495397239
 21
-78.033568575887557
  0
ARC
  8
_0-a_
  6
CONTINUOUS
 62
    3
 10
-146.72157156328768
 20
-74.52711846477473
 40
0.4999999999999986
 50
297.94179900625966
 51
117.94179900622902
  0
LINE
  8
_0-a_
  6
CONTINUOUS
 62
    3
 10
-148.28099481398391
 20
-74.788268086999551
 11
-146.95585877502464
 21
-74.085406451788458
  0
LINE
  8
_0-a_
  6
CONTINUOUS
 62
    3
 10
-148.38358495397239
 20
-78.033568575887557
 11
-148.4123169536395
 21
-76.01820893746185
  0
LINE
  8
_0-a_
  6
CONTINUOUS
 62
    3
 10
-148.4123169536395
 20
-76.01820893746185
 11
-148.28099481398391
 21
-74.788268086999551
  0
LINE
  8
_0-a_
  6
CONTINUOUS
 62
    3
 10
-146.95881017506036
 20
-75.218931147890544
 11
-146.4872843515505
 21
-74.96883047776123
  0
ARC
  8
_0-a_
  6
CONTINUOUS
 62
    3
 10
-147.90000004780774
 20
-81.499999829861736
 40
1.8
 50
270
 51
7.9417990062325998
  0
LINE
  8
_0-a_
  6
CONTINUOUS
 62
    3
 10
-146.11726397433523
 20
-81.251299020977285
 11
-146.95881017506036
 21
-75.218931147890544
  0
ARC
  8
_0-a_
  6
CONTINUOUS
 62
    3
 10
-147.90000004780774
 20
-81.499999829861736
 40
0.2999999999999999
 50
270
 51
7.9417990062392505
  0
LINE
  8
_0-a_
  6
CONTINUOUS
 62
    3
 10
-147.60287736889569
 20
-81.458549695047623
 11
-147.75486119654721
 21
-80.369099872370043
  0
LINE
  8
_0-a_
  6
CONTINUOUS
 62
    3
 10
-147.75486119654721
 20
-80.369099872370043
 11
-148.05198387545948
 21
-80.410550007184156
  0
ENDBLK
  0
BLOCK
  2
-005-_1_
 70
   64
 10
0
 20
0
 30
0
  0
ARC
  8
_0-a_
  6
CONTINUOUS
 62
    3
 10
-145.90000004780842
 20
-116.19999982986178
 40
0.2999999999999999
 50
180
 51
270
  0
LINE
  8
_0-a_
  6
CONTINUOUS
 62
    3
 10
-146.20000004780837
 20
-114.49999982986185
 11
-146.20000004780837
 21
-116.19999982986178
  0
LINE
  8
_0-a_
  6
CONTINUOUS
 62
    3
 10
-145.90000004780842
 20
-117.99999982986185
 11
-137.90000004780842
 21
-117.99999982986185
  0
ARC
  8
_0-a_
  6
CONTINUOUS
 62
    3
 10
-145.90000004780842
 20
-116.19999982986178
 40
1.8
 50
180
 51
270
  0
LINE
  8
_0-a_
  6
CONTINUOUS
 62
    3
 10
-145.90000004780842
 20
-116.49999982986185
 11
-136.90000004780842
 21
-116.49999982986185
  0
ARC
  8
_0-a_
  6
CONTINUOUS
 62
    3
 10
-136.90000004780842
 20
-117.49999982986185
 40
1
 50
0
 51
90
  0
LINE
  8
_0-a_
  6
CONTINUOUS
 62
    3
 10
-147.70000004780837
 20
-114.49999982986185
 11
-147.70000004780837
 21
-116.19999982986178
  0
LINE
  8
_0-a_
  6
CONTINUOUS
 62
    3
 10
-144.81055022513061
 20
-114.65198365751348
 11
-142.43356879383401
 21
-114.98358473602639
  0
ARC
  8
_0-a_
  6
CONTINUOUS
 62
    3
 10
-138.92711868272141
 20
-113.32157134534179
 40
0.4999999999999986
 50
332.05820099378559
 51
152.05820099378275
  0
LINE
  8
_0-a_
  6
CONTINUOUS
 62
    3
 10
-139.18826830494601
 20
-114.88099459603791
 11
-138.48540666973491
 21
-113.55585855707875
  0
LINE
  8
_0-a_
  6
CONTINUOUS
 62
    3
 10
-142.43356879383401
 20
-114.98358473602639
 11
-140.41820915540831
 21
-115.01231673569362
  0
LINE
  8
_0-a_
  6
CONTINUOUS
 62
    3
 10
-140.41820915540831
 20
-115.01231673569362
 11
-139.18826830494601
 21
-114.88099459603791
  0
LINE
  8
_0-a_
  6
CONTINUOUS
 62
    3
 10
-139.618931365837
 20
-113.55880995711436
 11
-139.36883069570769
 21
-113.08728413360473
  0
ARC
  8
_0-a_
  6
CONTINUOUS
 62
    3
 10
-145.90000004780842
 20
-114.49999982986185
 40
1.8
 50
82.058200993760124
 51
180
  0
LINE
  8
_0-a_
  6
CONTINUOUS
 62
    3
 10
-145.65129923892374
 20
-112.71726375638934
 11
-139.618931365837
 21
-113.55880995711436
  0
ARC
  8
_0-a_
  6
CONTINUOUS
 62
    3
 10
-145.90000004780842
 20
-114.49999982986185
 40
0.2999999999999999
 50
82.058200993759996
 51
180
  0
LINE
  8
_0-a_
  6
CONTINUOUS
 62
    3
 10
-145.85854991299431
 20
-114.2028771509498
 11
-144.7691000903165
 21
-114.35486097860144
  0
LINE
  8
_0-a_
  6
CONTINUOUS
 62
    3
 10
-144.7691000903165
 20
-114.35486097860144
 11
-144.81055022513061
 21
-114.65198365751348
  0
LINE
  8
_0-a_
  6
CONTINUOUS
 62
    3
 10
-137.87996794318252
 20
-120.73090019971607
 11
-146.21498428263277
 21
-124.12611780998679
  0
ARC
  8
_0-a_
  6
CONTINUOUS
 62
    3
 10
-146.59223068377406
 20
-123.20000488338133
 40
1
 50
53.696691075057558
 51
292.16322236205013
  0
ARC
  8
_0-a_
  6
CONTINUOUS
 62
    3
 10
-145.40811124079806
 20
-121.58821670103021
 40
1
 50
233.69669107505757
 51
295.73955673703853
  0
LINE
  8
_0-a_
  6
CONTINUOUS
 62
    3
 10
-138.6527836171577
 20
-119.44150325396117
 11
-144.97383016026794
 21
-122.48899411143407
  0
LINE
  8
_0-a_
  6
CONTINUOUS
 62
    3
 10
-137.67504873317017
 20
-118.9398088794959
 11
-138.6527836171577
 21
-119.44150325396117
  0
ARC
  8
_0-a_
  6
CONTINUOUS
 62
    3
 10
-137.90000004780842
 20
-118.49999982986185
 40
0.5
 50
297.08860670013473
 51
90
  0
LINE
  8
_0-a_
  6
CONTINUOUS
 62
    3
 10
-135.90657564536519
 20
-119.10841693607404
 11
-135.90505755682312
 21
-117.50252858436909
  0
LINE
  8
_0-a_
  6
CONTINUOUS
 62
    3
 10
-137.87996794318252
 20
-120.73090019971607
 11
-136.45004827386725
 21
-119.99718120719467
  0
ARC
  8
_0-a_
  6
CONTINUOUS
 62
    3
 10
-136.90657519854477
 20
-119.10747161016627
 40
1
 50
297.16322236204098
 51
359.94583680715368
  0
ENDBLK
  0
BLOCK
  2
-006-HATCHING_4_
 70
   64
 10
0
 20
0
 30
0
  0
LINE
  8
_0-0_躯体
  6
CONTINUOUS
 62
    2
 10
-160.89999999999924
 20
115.16729355393431
 11
-162.56729355392196
 21
113.5000000000116
  0
LINE
  8
_0-0_躯体
  6
CONTINUOUS
 62
    2
 10
-160.89999999999924
 20
117.99572067868053
 11
-165.3957206786682
 21
113.5000000000116
  0
LINE
  8
_0-0_躯体
  6
CONTINUOUS
 62
    2
 10
-163.22414780341438
 20
118.5000000000116
 11
-168.22414780341441
 21
113.5000000000116
  0
LINE
  8
_0-0_躯体
  6
CONTINUOUS
 62
    2
 10
-166.05257492816062
 20
118.5000000000116
 11
-171.05257492816062
 21
113.5000000000116
  0
LINE
  8
_0-0_躯体
  6
CONTINUOUS
 62
    2
 10
-168.88100205290661
 20
118.5000000000116
 11
-173.88100205290661
 21
113.5000000000116
  0
LINE
  8
_0-0_躯体
  6
CONTINUOUS
 62
    2
 10
-171.70942917765282
 20
118.5000000000116
 11
-176.70942917765282
 21
113.5000000000116
  0
LINE
  8
_0-0_躯体
  6
CONTINUOUS
 62
    2
 10
-174.53785630239904
 20
118.5000000000116
 11
-179.53785630239904
 21
113.5000000000116
  0
LINE
  8
_0-0_躯体
  6
CONTINUOUS
 62
    2
 10
-177.36628342714525
 20
118.5000000000116
 11
-182.36628342714525
 21
113.5000000000116
  0
LINE
  8
_0-0_躯体
  6
CONTINUOUS
 62
    2
 10
-180.19471055189146
 20
118.5000000000116
 11
-185.19471055189146
 21
113.5000000000116
  0
LINE
  8
_0-0_躯体
  6
CONTINUOUS
 62
    2
 10
-183.02313767663767
 20
118.5000000000116
 11
-188.02313767663767
 21
113.5000000000116
  0
LINE
  8
_0-0_躯体
  6
CONTINUOUS
 62
    2
 10
-185.85156480138389
 20
118.5000000000116
 11
-190.85156480138389
 21
113.5000000000116
  0
LINE
  8
_0-0_躯体
  6
CONTINUOUS
 62
    2
 10
-188.6799919261301
 20
118.5000000000116
 11
-193.6799919261301
 21
113.5000000000116
  0
LINE
  8
_0-0_躯体
  6
CONTINUOUS
 62
    2
 10
-191.50841905087609
 20
118.5000000000116
 11
-196.50841905087609
 21
113.5000000000116
  0
LINE
  8
_0-0_躯体
  6
CONTINUOUS
 62
    2
 10
-194.3368461756223
 20
118.5000000000116
 11
-199.3368461756223
 21
113.5000000000116
  0
LINE
  8
_0-0_躯体
  6
CONTINUOUS
 62
    2
 10
-197.16527330036851
 20
118.5000000000116
 11
-202.16527330036851
 21
113.5000000000116
  0
LINE
  8
_0-0_躯体
  6
CONTINUOUS
 62
    2
 10
-199.99370042511472
 20
118.5000000000116
 11
-204.99370042511472
 21
113.5000000000116
  0
LINE
  8
_0-0_躯体
  6
CONTINUOUS
 62
    2
 10
-202.82212754986094
 20
118.5000000000116
 11
-207.82212754986094
 21
113.5000000000116
  0
LINE
  8
_0-0_躯体
  6
CONTINUOUS
 62
    2
 10
-205.65055467460715
 20
118.5000000000116
 11
-210.65055467460715
 21
113.5000000000116
  0
LINE
  8
_0-0_躯体
  6
CONTINUOUS
 62
    2
 10
-208.47898179935336
 20
118.5000000000116
 11
-213.47898179935336
 21
113.5000000000116
  0
LINE
  8
_0-0_躯体
  6
CONTINUOUS
 62
    2
 10
-211.30740892409958
 20
118.5000000000116
 11
-216.30740892409958
 21
113.5000000000116
  0
LINE
  8
_0-0_躯体
  6
CONTINUOUS
 62
    2
 10
-214.13583604884579
 20
118.5000000000116
 11
-219.13583604884579
 21
113.5000000000116
  0
LINE
  8
_0-0_躯体
  6
CONTINUOUS
 62
    2
 10
-216.964263173592
 20
118.5000000000116
 11
-221.964263173592
 21
113.5000000000116
  0
LINE
  8
_0-0_躯体
  6
CONTINUOUS
 62
    2
 10
-219.79269029833821
 20
118.5000000000116
 11
-224.79269029833821
 21
113.5000000000116
  0
LINE
  8
_0-0_躯体
  6
CONTINUOUS
 62
    2
 10
-222.6211174230842
 20
118.5000000000116
 11
-227.6211174230842
 21
113.5000000000116
  0
LINE
  8
_0-0_躯体
  6
CONTINUOUS
 62
    2
 10
-222.900000000002
 20
121.04954454784001
 11
-230.44954454783041
 21
113.5000000000116
  0
LINE
  8
_0-0_躯体
  6
CONTINUOUS
 62
    2
 10
-222.900000000002
 20
123.87797167258623
 11
-232.90000000000177
 21
113.87797167258645
  0
LINE
  8
_0-0_躯体
  6
CONTINUOUS
 62
    2
 10
-222.900000000002
 20
126.70639879733244
 11
-232.90000000000177
 21
116.70639879733255
  0
LINE
  8
_0-0_躯体
  6
CONTINUOUS
 62
    2
 10
-222.900000000002
 20
129.53482592207865
 11
-232.90000000000177
 21
119.53482592207877
  0
LINE
  8
_0-0_躯体
  6
CONTINUOUS
 62
    2
 10
-222.900000000002
 20
132.36325304682487
 11
-232.90000000000177
 21
122.36325304682498
  0
LINE
  8
_0-0_躯体
  6
CONTINUOUS
 62
    2
 10
-222.900000000002
 20
135.19168017157108
 11
-232.90000000000177
 21
125.19168017157108
  0
LINE
  8
_0-0_躯体
  6
CONTINUOUS
 62
    2
 10
-222.900000000002
 20
138.02010729631729
 11
-232.90000000000177
 21
128.02010729631729
  0
LINE
  8
_0-0_躯体
  6
CONTINUOUS
 62
    2
 10
-222.900000000002
 20
140.8485344210635
 11
-232.90000000000177
 21
130.8485344210635
  0
LINE
  8
_0-0_躯体
  6
CONTINUOUS
 62
    2
 10
-222.900000000002
 20
143.67696154580972
 11
-232.90000000000177
 21
133.67696154580972
  0
LINE
  8
_0-0_躯体
  6
CONTINUOUS
 62
    2
 10
-222.900000000002
 20
146.5053886705557
 11
-232.90000000000177
 21
136.50538867055593
  0
LINE
  8
_0-0_躯体
  6
CONTINUOUS
 62
    2
 10
-224.73381579530391
 20
147.5
 11
-232.90000000000177
 21
139.33381579530214
  0
LINE
  8
_0-0_躯体
  6
CONTINUOUS
 62
    2
 10
-227.56224292005012
 20
147.5
 11
-232.90000000000177
 21
142.16224292004836
  0
LINE
  8
_0-0_躯体
  6
CONTINUOUS
 62
    2
 10
-230.39067004479634
 20
147.5
 11
-232.90000000000177
 21
144.99067004479446
  0
ENDBLK
  0
BLOCK
  2
-007-HATCHING_5_
 70
   64
 10
0
 20
0
 30
0
  0
LINE
  8
_0-0_躯体
  6
CONTINUOUS
 62
    2
 10
71.100000000001216
 20
115.2362693247469
 11
69.363730675254317
 21
113.50000000000023
  0
LINE
  8
_0-0_躯体
  6
CONTINUOUS
 62
    2
 10
71.100000000001216
 20
118.06469644949311
 11
66.535303550508104
 21
113.50000000000023
  0
LINE
  8
_0-0_躯体
  6
CONTINUOUS
 62
    2
 10
71.100000000001216
 20
120.89312357423933
 11
63.706876425761891
 21
113.50000000000023
  0
LINE
  8
_0-0_躯体
  6
CONTINUOUS
 62
    2
 10
71.100000000001216
 20
123.72155069898554
 11
60.878449301015678
 21
113.50000000000023
  0
LINE
  8
_0-0_躯体
  6
CONTINUOUS
 62
    2
 10
71.100000000001216
 20
126.54997782373175
 11
58.050022176269465
 21
113.50000000000023
  0
LINE
  8
_0-0_躯体
  6
CONTINUOUS
 62
    2
 10
71.100000000001216
 20
129.37840494847796
 11
61.100000000000534
 21
119.37840494847728
  0
LINE
  8
_0-0_躯体
  6
CONTINUOUS
 62
    2
 10
60.221595051523252
 20
118.5
 11
55.221595051523252
 21
113.50000000000023
  0
LINE
  8
_0-0_躯体
  6
CONTINUOUS
 62
    2
 10
71.100000000001216
 20
132.20683207322418
 11
61.100000000000534
 21
122.2068320732235
  0
LINE
  8
_0-0_躯体
  6
CONTINUOUS
 62
    2
 10
57.393167926777039
 20
118.5
 11
52.393167926777267
 21
113.50000000000023
  0
LINE
  8
_0-0_躯体
  6
CONTINUOUS
 62
    2
 10
71.100000000001216
 20
135.03525919797039
 11
61.100000000000534
 21
125.03525919796971
  0
LINE
  8
_0-0_躯体
  6
CONTINUOUS
 62
    2
 10
54.564740802030826
 20
118.5
 11
49.564740802031054
 21
113.50000000000023
  0
LINE
  8
_0-0_躯体
  6
CONTINUOUS
 62
    2
 10
71.100000000001216
 20
137.8636863227166
 11
61.100000000000534
 21
127.86368632271592
  0
LINE
  8
_0-0_躯体
  6
CONTINUOUS
 62
    2
 10
51.736313677284613
 20
118.5
 11
46.736313677284841
 21
113.50000000000023
  0
LINE
  8
_0-0_躯体
  6
CONTINUOUS
 62
    2
 10
71.100000000001216
 20
140.69211344746259
 11
61.100000000000534
 21
130.69211344746202
  0
LINE
  8
_0-0_躯体
  6
CONTINUOUS
 62
    2
 10
48.907886552538628
 20
118.5
 11
43.907886552538628
 21
113.50000000000023
  0
LINE
  8
_0-0_躯体
  6
CONTINUOUS
 62
    2
 10
71.100000000001216
 20
143.5205405722088
 11
61.100000000000534
 21
133.52054057220812
  0
LINE
  8
_0-0_躯体
  6
CONTINUOUS
 62
    2
 10
46.079459427792415
 20
118.5
 11
41.079459427792642
 21
113.50000000000023
  0
LINE
  8
_0-0_躯体
  6
CONTINUOUS
 62
    2
 10
71.100000000001216
 20
146.34896769695501
 11
61.100000000000534
 21
136.34896769695433
  0
LINE
  8
_0-0_躯体
  6
CONTINUOUS
 62
    2
 10
43.251032303046202
 20
118.5
 11
38.251032303046429
 21
113.50000000000023
  0
LINE
  8
_0-0_躯体
  6
CONTINUOUS
 62
    2
 10
69.422605178299762
 20
147.49999999999977
 11
61.100000000000534
 21
139.17739482170055
  0
LINE
  8
_0-0_躯体
  6
CONTINUOUS
 62
    2
 10
40.422605178299989
 20
118.5
 11
35.422605178300216
 21
113.50000000000023
  0
LINE
  8
_0-0_躯体
  6
CONTINUOUS
 62
    2
 10
66.594178053553549
 20
147.49999999999977
 11
61.100000000000534
 21
142.00582194644676
  0
LINE
  8
_0-0_躯体
  6
CONTINUOUS
 62
    2
 10
37.594178053553776
 20
118.5
 11
32.594178053554003
 21
113.50000000000023
  0
LINE
  8
_0-0_躯体
  6
CONTINUOUS
 62
    2
 10
63.765750928807336
 20
147.49999999999977
 11
61.100000000000534
 21
144.83424907119297
  0
LINE
  8
_0-0_躯体
  6
CONTINUOUS
 62
    2
 10
34.765750928807563
 20
118.5
 11
29.76575092880779
 21
113.50000000000023
  0
LINE
  8
_0-0_躯体
  6
CONTINUOUS
 62
    2
 10
31.93732380406135
 20
118.5
 11
26.937323804061577
 21
113.50000000000023
  0
LINE
  8
_0-0_躯体
  6
CONTINUOUS
 62
    2
 10
29.108896679315365
 20
118.5
 11
24.108896679315365
 21
113.50000000000023
  0
LINE
  8
_0-0_躯体
  6
CONTINUOUS
 62
    2
 10
26.280469554569152
 20
118.5
 11
21.280469554569152
 21
113.50000000000023
  0
LINE
  8
_0-0_躯体
  6
CONTINUOUS
 62
    2
 10
23.452042429822939
 20
118.5
 11
18.452042429822939
 21
113.50000000000023
  0
LINE
  8
_0-0_躯体
  6
CONTINUOUS
 62
    2
 10
20.623615305076726
 20
118.5
 11
15.623615305076726
 21
113.50000000000023
  0
LINE
  8
_0-0_躯体
  6
CONTINUOUS
 62
    2
 10
17.795188180330513
 20
118.5
 11
12.795188180330513
 21
113.50000000000023
  0
LINE
  8
_0-0_躯体
  6
CONTINUOUS
 62
    2
 10
14.9667610555843
 20
118.5
 11
9.9667610555842998
 21
113.50000000000023
  0
LINE
  8
_0-0_躯体
  6
CONTINUOUS
 62
    2
 10
12.138333930838087
 20
118.5
 11
7.1383339308380869
 21
113.50000000000023
  0
LINE
  8
_0-0_躯体
  6
CONTINUOUS
 62
    2
 10
9.3099068060918739
 20
118.5
 11
4.3099068060918739
 21
113.50000000000023
  0
LINE
  8
_0-0_躯体
  6
CONTINUOUS
 62
    2
 10
6.481479681345661
 20
118.5
 11
1.481479681345661
 21
113.50000000000023
  0
LINE
  8
_0-0_躯体
  6
CONTINUOUS
 62
    2
 10
3.6530525565994481
 20
118.5
 11
-1.3469474434005519
 21
113.50000000000023
  0
LINE
  8
_0-0_躯体
  6
CONTINUOUS
 62
    2
 10
0.8246254318532351
 20
118.5
 11
-4.1753745681465375
 21
113.50000000000023
  0
LINE
  8
_0-0_躯体
  6
CONTINUOUS
 62
    2
 10
-2.0038016928929778
 20
118.5
 11
-7.0038016928927505
 21
113.50000000000023
  0
LINE
  8
_0-0_躯体
  6
CONTINUOUS
 62
    2
 10
-4.8322288176391908
 20
118.5
 11
-9.8322288176389634
 21
113.50000000000023
  0
LINE
  8
_0-0_躯体
  6
CONTINUOUS
 62
    2
 10
-7.6606559423854037
 20
118.5
 11
-12.660655942385176
 21
113.50000000000023
  0
LINE
  8
_0-0_躯体
  6
CONTINUOUS
 62
    2
 10
-10.489083067131389
 20
118.5
 11
-15.489083067131389
 21
113.50000000000023
  0
LINE
  8
_0-0_躯体
  6
CONTINUOUS
 62
    2
 10
-13.317510191877602
 20
118.5
 11
-18.317510191877602
 21
113.50000000000023
  0
LINE
  8
_0-0_躯体
  6
CONTINUOUS
 62
    2
 10
-16.145937316623815
 20
118.5
 11
-21.145937316623815
 21
113.50000000000023
  0
LINE
  8
_0-0_躯体
  6
CONTINUOUS
 62
    2
 10
-18.974364441370028
 20
118.5
 11
-23.974364441370028
 21
113.50000000000023
  0
LINE
  8
_0-0_躯体
  6
CONTINUOUS
 62
    2
 10
-21.802791566116241
 20
118.5
 11
-26.802791566116241
 21
113.50000000000023
  0
LINE
  8
_0-0_躯体
  6
CONTINUOUS
 62
    2
 10
-24.631218690862454
 20
118.5
 11
-29.631218690862227
 21
113.50000000000023
  0
LINE
  8
_0-0_躯体
  6
CONTINUOUS
 62
    2
 10
-27.459645815608667
 20
118.5
 11
-32.45964581560844
 21
113.50000000000023
  0
LINE
  8
_0-0_躯体
  6
CONTINUOUS
 62
    2
 10
-30.28807294035488
 20
118.5
 11
-35.288072940354652
 21
113.50000000000023
  0
LINE
  8
_0-0_躯体
  6
CONTINUOUS
 62
    2
 10
-33.116500065101093
 20
118.5
 11
-38.116500065100865
 21
113.50000000000023
  0
LINE
  8
_0-0_躯体
  6
CONTINUOUS
 62
    2
 10
-35.944927189847306
 20
118.5
 11
-40.944927189847078
 21
113.50000000000023
  0
LINE
  8
_0-0_躯体
  6
CONTINUOUS
 62
    2
 10
-38.773354314593291
 20
118.5
 11
-43.773354314593291
 21
113.50000000000023
  0
LINE
  8
_0-0_躯体
  6
CONTINUOUS
 62
    2
 10
-41.601781439339504
 20
118.5
 11
-46.601781439339504
 21
113.50000000000023
  0
LINE
  8
_0-0_躯体
  6
CONTINUOUS
 62
    2
 10
-44.430208564085717
 20
118.5
 11
-49.430208564085717
 21
113.50000000000023
  0
LINE
  8
_0-0_躯体
  6
CONTINUOUS
 62
    2
 10
-47.25863568883193
 20
118.5
 11
-52.25863568883193
 21
113.50000000000023
  0
LINE
  8
_0-0_躯体
  6
CONTINUOUS
 62
    2
 10
-50.087062813578143
 20
118.5
 11
-55.087062813578143
 21
113.50000000000023
  0
LINE
  8
_0-0_躯体
  6
CONTINUOUS
 62
    2
 10
-52.915489938324356
 20
118.5
 11
-57.915489938324129
 21
113.50000000000023
  0
LINE
  8
_0-0_躯体
  6
CONTINUOUS
 62
    2
 10
-55.743917063070569
 20
118.5
 11
-60.743917063070342
 21
113.50000000000023
  0
LINE
  8
_0-0_躯体
  6
CONTINUOUS
 62
    2
 10
-58.572344187816782
 20
118.5
 11
-60.899999999999238
 21
116.17234418781754
  0
ENDBLK
  0
BLOCK
  2
-008-_2_
 70
   64
 10
0
 20
0
 30
0
  0
LINE
  8
_0-d_可動幅
  6
CONTINUOUS
 62
    4
 10
-352.45315655728024
 20
40.961547747840086
 11
-353.30168469472011
 21
40.471702880640123
  0
LINE
  8
_0-d_可動幅
  6
CONTINUOUS
 62
    4
 10
-351.00376990464025
 20
37.838891930080081
 11
-352.45315655728024
 21
40.961547747840086
  0
LINE
  8
_0-d_可動幅
  6
CONTINUOUS
 62
    4
 10
-356.41295453200024
 20
38.675605034720093
 11
-351.00376990464025
 21
37.838891930080081
  0
LINE
  8
_0-d_可動幅
  6
CONTINUOUS
 62
    4
 10
-355.56442639456014
 20
39.165449901760098
 11
-356.41295453200024
 21
38.675605034720093
  0
LINE
  8
_0-d_可動幅
  6
CONTINUOUS
 62
    4
 10
-362.91833691888002
 20
43.410772083200072
 11
-355.56442639456014
 21
39.165449901760098
  0
LINE
  8
_0-d_可動幅
  6
CONTINUOUS
 62
    4
 10
-370.27224744320011
 20
39.165449901760098
 11
-362.91833691888002
 21
43.410772083200072
  0
LINE
  8
_0-d_可動幅
  6
CONTINUOUS
 62
    4
 10
-369.42371930576024
 20
38.675605034720093
 11
-370.27224744320011
 21
39.165449901760098
  0
LINE
  8
_0-d_可動幅
  6
CONTINUOUS
 62
    4
 10
-374.83290393296016
 20
37.838891930080081
 11
-369.42371930576024
 21
38.675605034720093
  0
LINE
  8
_0-d_可動幅
  6
CONTINUOUS
 62
    4
 10
-373.38351728048025
 20
40.961547747840086
 11
-374.83290393296016
 21
37.838891930080081
  0
LINE
  8
_0-d_可動幅
  6
CONTINUOUS
 62
    4
 10
-372.53498914304015
 20
40.471702880640123
 11
-373.38351728048025
 21
40.961547747840086
  0
LINE
  8
_0-d_可動幅
  6
CONTINUOUS
 62
    4
 10
-365.18107861872028
 20
44.717025062240111
 11
-372.53498914304015
 21
40.471702880640123
  0
LINE
  8
_0-d_可動幅
  6
CONTINUOUS
 62
    4
 10
-372.53498914304015
 20
48.962347243680142
 11
-365.18107861872028
 21
44.717025062240111
  0
LINE
  8
_0-d_可動幅
  6
CONTINUOUS
 62
    4
 10
-373.38351728048025
 20
48.47250237664008
 11
-372.53498914304015
 21
48.962347243680142
  0
LINE
  8
_0-d_可動幅
  6
CONTINUOUS
 62
    4
 10
-374.83290393296016
 20
51.595158194240128
 11
-373.38351728048025
 21
48.47250237664008
  0
LINE
  8
_0-d_可動幅
  6
CONTINUOUS
 62
    4
 10
-369.42371930576024
 20
50.75844508976013
 11
-374.83290393296016
 21
51.595158194240128
  0
LINE
  8
_0-d_可動幅
  6
CONTINUOUS
 62
    4
 10
-370.27224744320011
 20
50.26860022256011
 11
-369.42371930576024
 21
50.75844508976013
  0
LINE
  8
_0-d_可動幅
  6
CONTINUOUS
 62
    4
 10
-362.91833691888002
 20
46.023278041120136
 11
-370.27224744320011
 21
50.26860022256011
  0
LINE
  8
_0-d_可動幅
  6
CONTINUOUS
 62
    4
 10
-355.56442639456014
 20
50.26860022256011
 11
-362.91833691888002
 21
46.023278041120136
  0
LINE
  8
_0-d_可動幅
  6
CONTINUOUS
 62
    4
 10
-356.41295453200024
 20
50.75844508976013
 11
-355.56442639456014
 21
50.26860022256011
  0
LINE
  8
_0-d_可動幅
  6
CONTINUOUS
 62
    4
 10
-351.00376990464025
 20
51.595158194240128
 11
-356.41295453200024
 21
50.75844508976013
  0
LINE
  8
_0-d_可動幅
  6
CONTINUOUS
 62
    4
 10
-352.45315655728024
 20
48.47250237664008
 11
-351.00376990464025
 21
51.595158194240128
  0
LINE
  8
_0-d_可動幅
  6
CONTINUOUS
 62
    4
 10
-353.30168469472011
 20
48.962347243680142
 11
-352.45315655728024
 21
48.47250237664008
  0
LINE
  8
_0-d_可動幅
  6
CONTINUOUS
 62
    4
 10
-360.65559521904021
 20
44.717025062240111
 11
-353.30168469472011
 21
48.962347243680142
  0
LINE
  8
_0-d_可動幅
  6
CONTINUOUS
 62
    4
 10
-353.30168469472011
 20
40.471702880640123
 11
-360.65559521904021
 21
44.717025062240111
  0
LINE
  8
_0-d_可動幅
  6
CONTINUOUS
 62
    4
 10
-374.83290393296016
 20
37.838891930080081
 11
-374.83290393296016
 21
36.859042955840096
  0
LINE
  8
_0-d_可動幅
  6
CONTINUOUS
 62
    4
 10
-369.42371930576024
 20
38.675605034720093
 11
-369.42371930576024
 21
37.695756060480107
  0
LINE
  8
_0-d_可動幅
  6
CONTINUOUS
 62
    4
 10
-374.83290393296016
 20
36.859042955840096
 11
-369.42371930576024
 21
37.695756060480107
  0
LINE
  8
_0-d_可動幅
  6
CONTINUOUS
 62
    4
 10
-356.41295453200024
 20
38.675605034720093
 11
-356.41295453200024
 21
37.695756060480107
  0
LINE
  8
_0-d_可動幅
  6
CONTINUOUS
 62
    4
 10
-351.00376990464025
 20
37.838891930080081
 11
-351.00376990464025
 21
36.859042955840096
  0
LINE
  8
_0-d_可動幅
  6
CONTINUOUS
 62
    4
 10
-356.41295453200024
 20
37.695756060480107
 11
-351.00376990464025
 21
36.859042955840096
  0
LINE
  8
_0-d_可動幅
  6
CONTINUOUS
 62
    4
 10
-362.91833691888002
 20
43.410772083200072
 11
-362.91833691888002
 21
42.430923108960087
  0
LINE
  8
_0-d_可動幅
  6
CONTINUOUS
 62
    4
 10
-369.42371930576024
 20
38.675445794560119
 11
-362.91833691888002
 21
42.430923108960087
  0
LINE
  8
_0-d_可動幅
  6
CONTINUOUS
 62
    4
 10
-362.91833691888002
 20
42.430923108960087
 11
-356.41295453200024
 21
38.675445794560119
  0
LINE
  8
_0-d_可動幅
  6
CONTINUOUS
 62
    4
 10
-372.53498914304015
 20
48.962347243680142
 11
-372.53498914304015
 21
47.9824982694401
  0
LINE
  8
_0-d_可動幅
  6
CONTINUOUS
 62
    4
 10
-372.53498914304015
 20
47.9824982694401
 11
-366.02974467696032
 21
44.22710057504014
  0
LINE
  8
_0-d_可動幅
  6
CONTINUOUS
 62
    4
 10
-353.30168469472011
 20
48.962347243680142
 11
-353.30168469472011
 21
47.9824982694401
  0
LINE
  8
_0-d_可動幅
  6
CONTINUOUS
 62
    4
 10
-359.80692916080039
 20
44.22710057504014
 11
-353.30168469472011
 21
47.9824982694401
  0
LINE
  8
_0-d_可動幅
  6
CONTINUOUS
 62
    4
 10
-352.45315655728024
 20
48.47250237664008
 11
-352.45315655728024
 21
47.492653402240137
  0
LINE
  8
_0-d_可動幅
  6
CONTINUOUS
 62
    4
 10
-353.30168469472011
 20
47.9824982694401
 11
-352.45315655728024
 21
47.492653402240137
  0
LINE
  8
_0-d_可動幅
  6
CONTINUOUS
 62
    4
 10
-351.00376990464025
 20
51.595158194240128
 11
-351.00376990464025
 21
50.615309220000142
  0
LINE
  8
_0-d_可動幅
  6
CONTINUOUS
 62
    4
 10
-352.45315655728024
 20
47.492653402240137
 11
-351.00376990464025
 21
50.615309220000142
  0
LINE
  8
_0-d_可動幅
  6
CONTINUOUS
 62
    4
 10
-373.38351728048025
 20
48.47250237664008
 11
-373.38351728048025
 21
47.492653402240137
  0
LINE
  8
_0-d_可動幅
  6
CONTINUOUS
 62
    4
 10
-373.38351728048025
 20
47.492653402240137
 11
-372.53498914304015
 21
47.9824982694401
  0
LINE
  8
_0-d_可動幅
  6
CONTINUOUS
 62
    4
 10
-374.83290393296016
 20
51.595158194240128
 11
-374.83290393296016
 21
50.615309220000142
  0
LINE
  8
_0-d_可動幅
  6
CONTINUOUS
 62
    4
 10
-374.83290393296016
 20
50.615309220000142
 11
-373.38351728048025
 21
47.492653402240137
  0
LINE
  8
_0-d_可動幅
  6
CONTINUOUS
 62
    4
 10
-356.41295453200024
 20
50.75844508976013
 11
-356.41295453200024
 21
49.778755355520104
  0
LINE
  8
_0-d_可動幅
  6
CONTINUOUS
 62
    4
 10
-369.42371930576024
 20
50.75844508976013
 11
-369.42371930576024
 21
49.778755355520104
  0
ENDBLK
  0
BLOCK
  2
-009-_3_
 70
   64
 10
0
 20
0
 30
0
  0
LINE
  8
_0-9_小物
  6
CONTINUOUS
 62
    3
 10
-20.491724999999462
 20
83.720174999999642
 11
-20.387055000000885
 21
81.722914999999773
  0
LINE
  8
_0-9_小物
  6
CONTINUOUS
 62
    3
 10
-20.648735000000499
 20
86.716064999999617
 11
-22.593655000000183
 21
85.61276499999957
  0
LINE
  8
_0-9_小物
  6
CONTINUOUS
 62
    3
 10
-22.593655000000183
 20
85.61276499999957
 11
-22.488985000000014
 21
83.6155049999997
  0
LINE
  8
_0-9_小物
  6
CONTINUOUS
 62
    3
 10
-22.488985000000014
 20
83.6155049999997
 11
-20.491724999999462
 21
83.720174999999642
  0
LINE
  8
_0-9_小物
  6
CONTINUOUS
 62
    3
 10
-20.753405000000214
 20
88.713324999999941
 11
-20.648735000000499
 21
86.716064999999617
  0
LINE
  8
_0-9_小物
  6
CONTINUOUS
 62
    3
 10
-20.910415000000114
 20
91.709209999999985
 11
-22.855335000000935
 21
90.605909999999085
  0
LINE
  8
_0-9_小物
  6
CONTINUOUS
 62
    3
 10
-22.855335000000935
 20
90.605909999999085
 11
-22.750665000000083
 21
88.608649999999898
  0
LINE
  8
_0-9_小物
  6
CONTINUOUS
 62
    3
 10
-22.750665000000083
 20
88.608649999999898
 11
-20.753405000000214
 21
88.713324999999941
  0
LINE
  8
_0-9_小物
  6
CONTINUOUS
 62
    3
 10
-21.015085000000965
 20
93.706470000000081
 11
-20.910415000000114
 21
91.709209999999985
  0
LINE
  8
_0-9_小物
  6
CONTINUOUS
 62
    3
 10
-21.172094999999729
 20
96.702359999999089
 11
-23.117014999999412
 21
95.599060000000009
  0
LINE
  8
_0-9_小物
  6
CONTINUOUS
 62
    3
 10
-23.117014999999412
 20
95.599060000000009
 11
-23.012345000000835
 21
93.601799999999912
  0
LINE
  8
_0-9_小物
  6
CONTINUOUS
 62
    3
 10
-23.012345000000835
 20
93.601799999999912
 11
-21.015085000000965
 21
93.706470000000081
  0
LINE
  8
_0-9_小物
  6
CONTINUOUS
 62
    3
 10
-21.27676500000058
 20
98.699619999999868
 11
-21.172094999999729
 21
96.702359999999089
  0
LINE
  8
_0-9_小物
  6
CONTINUOUS
 62
    3
 10
-21.43377500000048
 20
101.69551000000001
 11
-23.378695000000164
 21
100.59220499999969
  0
LINE
  8
_0-9_小物
  6
CONTINUOUS
 62
    3
 10
-23.378695000000164
 20
100.59220499999969
 11
-23.274025000000449
 21
98.594944999999825
  0
LINE
  8
_0-9_小物
  6
CONTINUOUS
 62
    3
 10
-23.274025000000449
 20
98.594944999999825
 11
-21.27676500000058
 21
98.699619999999868
  0
LINE
  8
_0-9_小物
  6
CONTINUOUS
 62
    3
 10
-21.538445000000195
 20
103.69276499999955
 11
-21.43377500000048
 21
101.69551000000001
  0
LINE
  8
_0-9_小物
  6
CONTINUOUS
 62
    3
 10
-23.640375000000915
 20
105.58535499999948
 11
-23.535705000000064
 21
103.58809499999961
  0
LINE
  8
_0-9_小物
  6
CONTINUOUS
 62
    3
 10
-23.535705000000064
 20
103.58809499999961
 11
-21.538445000000195
 21
103.69276499999955
  0
LINE
  8
_0-9_小物
  6
CONTINUOUS
 62
    3
 10
-21.900000000000148
 20
106.5
 11
-23.640375000000915
 21
105.58535499999948
  0
LINE
  8
_0-9_小物
  6
CONTINUOUS
 62
    3
 10
-31.308275000000151
 20
83.720174999999642
 11
-31.412944999999866
 21
81.722914999999773
  0
LINE
  8
_0-9_小物
  6
CONTINUOUS
 62
    3
 10
-31.151265000000251
 20
86.716064999999617
 11
-29.206345000000567
 21
85.61276499999957
  0
LINE
  8
_0-9_小物
  6
CONTINUOUS
 62
    3
 10
-29.206345000000567
 20
85.61276499999957
 11
-29.311015000000737
 21
83.6155049999997
  0
LINE
  8
_0-9_小物
  6
CONTINUOUS
 62
    3
 10
-29.311015000000737
 20
83.6155049999997
 11
-31.308275000000151
 21
83.720174999999642
  0
LINE
  8
_0-9_小物
  6
CONTINUOUS
 62
    3
 10
-31.0465949999994
 20
88.713324999999941
 11
-31.151265000000251
 21
86.716064999999617
  0
LINE
  8
_0-9_小物
  6
CONTINUOUS
 62
    3
 10
-30.889585000000636
 20
91.709209999999985
 11
-28.944665000000953
 21
90.605909999999085
  0
LINE
  8
_0-9_小物
  6
CONTINUOUS
 62
    3
 10
-28.944665000000953
 20
90.605909999999085
 11
-29.04933499999953
 21
88.608649999999898
  0
LINE
  8
_0-9_小物
  6
CONTINUOUS
 62
    3
 10
-29.04933499999953
 20
88.608649999999898
 11
-31.0465949999994
 21
88.713324999999941
  0
LINE
  8
_0-9_小物
  6
CONTINUOUS
 62
    3
 10
-30.784915000000922
 20
93.706470000000081
 11
-30.889585000000636
 21
91.709209999999985
  0
LINE
  8
_0-9_小物
  6
CONTINUOUS
 62
    3
 10
-30.627905000001022
 20
96.702359999999089
 11
-28.682985000000201
 21
95.599060000000009
  0
LINE
  8
_0-9_小物
  6
CONTINUOUS
 62
    3
 10
-28.682985000000201
 20
95.599060000000009
 11
-28.787654999999916
 21
93.601799999999912
  0
LINE
  8
_0-9_小物
  6
CONTINUOUS
 62
    3
 10
-28.787654999999916
 20
93.601799999999912
 11
-30.784915000000922
 21
93.706470000000081
  0
LINE
  8
_0-9_小物
  6
CONTINUOUS
 62
    3
 10
-30.52323500000017
 20
98.699619999999868
 11
-30.627905000001022
 21
96.702359999999089
  0
LINE
  8
_0-9_小物
  6
CONTINUOUS
 62
    3
 10
-30.366224999999815
 20
101.69551000000001
 11
-28.42130499999945
 21
100.59220499999969
  0
LINE
  8
_0-9_小物
  6
CONTINUOUS
 62
    3
 10
-28.42130499999945
 20
100.59220499999969
 11
-28.525975000000301
 21
98.594944999999825
  0
LINE
  8
_0-9_小物
  6
CONTINUOUS
 62
    3
 10
-28.525975000000301
 20
98.594944999999825
 11
-30.52323500000017
 21
98.699619999999868
  0
LINE
  8
_0-9_小物
  6
CONTINUOUS
 62
    3
 10
-30.261555000000556
 20
103.69276499999955
 11
-30.366224999999815
 21
101.69551000000001
  0
LINE
  8
_0-9_小物
  6
CONTINUOUS
 62
    3
 10
-28.159624999999835
 20
105.58535499999948
 11
-28.264295000000686
 21
103.58809499999961
  0
LINE
  8
_0-9_小物
  6
CONTINUOUS
 62
    3
 10
-28.264295000000686
 20
103.58809499999961
 11
-30.261555000000556
 21
103.69276499999955
  0
LINE
  8
_0-9_小物
  6
CONTINUOUS
 62
    3
 10
-29.899999999999466
 20
106.5
 11
-28.159624999999835
 21
105.58535499999948
  0
LINE
  8
_0-9_小物
  6
CONTINUOUS
 62
    3
 10
-21.27676500000058
 20
98.699619999999868
 11
-19.581400000000997
 21
103.35759999999937
  0
LINE
  8
_0-9_小物
  6
CONTINUOUS
 62
    3
 10
-22.340944999999977
 20
98.699619999999868
 11
-20.521090000000243
 21
103.69961999999964
  0
LINE
  8
_0-9_小物
  6
CONTINUOUS
 62
    3
 10
-30.52323500000017
 20
98.699619999999868
 11
-32.218599999999753
 21
103.35759999999937
  0
LINE
  8
_0-9_小物
  6
CONTINUOUS
 62
    3
 10
-29.459055000000774
 20
98.699619999999868
 11
-31.278910000000508
 21
103.69961999999964
  0
LINE
  8
_0-9_小物
  6
CONTINUOUS
 62
    3
 10
-23.882255000000271
 20
81.539739999999426
 11
-20.387055000000885
 21
81.722914999999773
  0
LINE
  8
_0-9_小物
  6
CONTINUOUS
 62
    3
 10
-20.387055000000885
 20
81.722914999999773
 11
-22.279640000000484
 21
79.620984999999962
  0
LINE
  8
_0-9_小物
  6
CONTINUOUS
 62
    3
 10
-22.279640000000484
 20
79.620984999999962
 11
-23.777584999999419
 21
79.54247999999933
  0
LINE
  8
_0-9_小物
  6
CONTINUOUS
 62
    3
 10
-23.777584999999419
 20
79.54247999999933
 11
-25.399999999999466
 21
110.49999999999932
  0
LINE
  8
_0-9_小物
  6
CONTINUOUS
 62
    3
 10
-21.900000000000148
 20
106.5
 11
-21.900000000000148
 21
110.49999999999932
  0
LINE
  8
_0-9_小物
  6
CONTINUOUS
 62
    3
 10
-27.91774500000048
 20
81.539739999999426
 11
-31.412944999999866
 21
81.722914999999773
  0
LINE
  8
_0-9_小物
  6
CONTINUOUS
 62
    3
 10
-31.412944999999866
 20
81.722914999999773
 11
-29.520360000000267
 21
79.620984999999962
  0
LINE
  8
_0-9_小物
  6
CONTINUOUS
 62
    3
 10
-29.520360000000267
 20
79.620984999999962
 11
-28.022415000000194
 21
79.54247999999933
  0
LINE
  8
_0-9_小物
  6
CONTINUOUS
 62
    3
 10
-28.022415000000194
 20
79.54247999999933
 11
-26.400000000000148
 21
110.49999999999932
  0
LINE
  8
_0-9_小物
  6
CONTINUOUS
 62
    3
 10
-29.899999999999466
 20
106.5
 11
-29.899999999999466
 21
110.49999999999932
  0
LINE
  8
_0-9_小物
  6
CONTINUOUS
 62
    3
 10
-32.218599999999753
 20
103.35759999999937
 11
-33.21095500000007
 21
110.16122000000041
  0
ARC
  8
_0-9_小物
  6
CONTINUOUS
 62
    3
 10
-32.815145000000086
 20
110.21895499999982
 40
0.4
 50
98.130101999958413
 51
188.29846600001969
  0
LINE
  8
_0-9_小物
  6
CONTINUOUS
 62
    3
 10
-32.871715000000961
 20
110.61493499999983
 11
-32.674889999999834
 21
110.64305000000013
  0
ARC
  8
_0-9_小物
  6
CONTINUOUS
 62
    3
 10
-32.618319999999642
 20
110.24706999999989
 40
0.4
 50
8.1301020000240456
 51
98.130102000220958
  0
LINE
  8
_0-9_小物
  6
CONTINUOUS
 62
    3
 10
-32.222339999999861
 20
110.30363999999963
 11
-31.278910000000508
 21
103.69961999999964
  0
LINE
  8
_0-9_小物
  6
CONTINUOUS
 62
    3
 10
-19.581400000000997
 20
103.35759999999937
 11
-18.589045000000681
 21
110.16122000000041
  0
ARC
  8
_0-9_小物
  6
CONTINUOUS
 62
    3
 10
-18.984855000000664
 20
110.21895499999982
 40
0.4
 50
351.70153399996417
 51
81.869898000041587
  0
LINE
  8
_0-9_小物
  6
CONTINUOUS
 62
    3
 10
-18.928290000000572
 20
110.61493499999983
 11
-19.125110000000916
 21
110.64305000000013
  0
ARC
  8
_0-9_小物
  6
CONTINUOUS
 62
    3
 10
-19.181679999999744
 20
110.24706999999989
 40
0.4
 50
81.869898000041587
 51
171.86989800000936
  0
LINE
  8
_0-9_小物
  6
CONTINUOUS
 62
    3
 10
-19.57766000000089
 20
110.30363999999963
 11
-20.521090000000243
 21
103.69961999999964
  0
LINE
  8
_0-9_小物
  6
CONTINUOUS
 62
    3
 10
-19.581400000000997
 20
103.35759999999937
 11
-18.589045000000681
 21
110.16122000000041
  0
ARC
  8
_0-9_小物
  6
CONTINUOUS
 62
    3
 10
-18.984855000000664
 20
110.21895499999982
 40
0.4
 50
351.70153399996417
 51
81.869898000041587
  0
LINE
  8
_0-9_小物
  6
CONTINUOUS
 62
    3
 10
-18.928290000000572
 20
110.61493499999983
 11
-19.125110000000916
 21
110.64305000000013
  0
ARC
  8
_0-9_小物
  6
CONTINUOUS
 62
    3
 10
-19.181679999999744
 20
110.24706999999989
 40
0.4
 50
81.869898000041587
 51
171.86989800000936
  0
LINE
  8
_0-9_小物
  6
CONTINUOUS
 62
    3
 10
-19.57766000000089
 20
110.30363999999963
 11
-20.521090000000243
 21
103.69961999999964
  0
LINE
  8
_0-9_小物
  6
CONTINUOUS
 62
    3
 10
-20.899999999999466
 20
118.5
 11
-21.900000000000148
 21
113.5
  0
LINE
  8
_0-9_小物
  6
CONTINUOUS
 62
    3
 10
-21.900000000000148
 20
118.5
 11
-21.900000000000148
 21
110.49999999999932
  0
LINE
  8
_0-9_小物
  6
CONTINUOUS
 62
    3
 10
-25.399999999999466
 20
110.49999999999932
 11
-25.899999999999238
 21
110.49999999999932
  0
LINE
  8
_0-9_小物
  6
CONTINUOUS
 62
    3
 10
-25.899999999999238
 20
113.5
 11
-25.899999999999238
 21
118.5
  0
LINE
  8
_0-9_小物
  6
CONTINUOUS
 62
    3
 10
-24.900000000000148
 20
118.5
 11
-25.899999999999238
 21
113.5
  0
LINE
  8
_0-9_小物
  6
CONTINUOUS
 62
    3
 10
-26.900000000000603
 20
118.5
 11
-25.899999999999238
 21
113.5
  0
LINE
  8
_0-9_小物
  6
CONTINUOUS
 62
    3
 10
-30.899999999999693
 20
118.5
 11
-29.899999999999466
 21
113.5
  0
LINE
  8
_0-9_小物
  6
CONTINUOUS
 62
    3
 10
-29.899999999999466
 20
118.5
 11
-29.899999999999466
 21
110.49999999999932
  0
LINE
  8
_0-9_小物
  6
CONTINUOUS
 62
    3
 10
-26.400000000000148
 20
110.49999999999932
 11
-25.899999999999238
 21
110.49999999999932
  0
LINE
  8
_0-9_小物
  6
CONTINUOUS
 62
    3
 10
-20.899999999999466
 20
118.5
 11
-30.899999999999693
 21
118.5
  0
ENDBLK
  0
BLOCK
  2
-010-_4_
 70
   64
 10
0
 20
0
 30
0
  0
LINE
  8
_0-9_小物
  6
CONTINUOUS
 62
    3
 10
-191.43377500000096
 20
101.69551000001161
 11
-193.3786950000011
 21
100.59220500001152
  0
LINE
  8
_0-9_小物
  6
CONTINUOUS
 62
    3
 10
-193.3786950000011
 20
100.59220500001152
 11
-193.27402500000139
 21
98.594945000011421
  0
LINE
  8
_0-9_小物
  6
CONTINUOUS
 62
    3
 10
-193.27402500000139
 20
98.594945000011421
 11
-191.27676500000106
 21
98.699620000011464
  0
LINE
  8
_0-9_小物
  6
CONTINUOUS
 62
    3
 10
-191.53844500000091
 20
103.69276500001138
 11
-191.43377500000096
 21
101.69551000001161
  0
LINE
  8
_0-9_小物
  6
CONTINUOUS
 62
    3
 10
-193.6403750000014
 20
105.5853550000113
 11
-193.535705000001
 21
103.58809500001121
  0
LINE
  8
_0-9_小物
  6
CONTINUOUS
 62
    3
 10
-193.535705000001
 20
103.58809500001121
 11
-191.53844500000091
 21
103.69276500001138
  0
LINE
  8
_0-9_小物
  6
CONTINUOUS
 62
    3
 10
-191.90000000000154
 20
106.5000000000116
 11
-193.6403750000014
 21
105.5853550000113
  0
LINE
  8
_0-9_小物
  6
CONTINUOUS
 62
    3
 10
-200.3662250000003
 20
101.69551000001161
 11
-198.42130500000084
 21
100.59220500001152
  0
LINE
  8
_0-9_小物
  6
CONTINUOUS
 62
    3
 10
-198.42130500000084
 20
100.59220500001152
 11
-198.52597500000124
 21
98.594945000011421
  0
LINE
  8
_0-9_小物
  6
CONTINUOUS
 62
    3
 10
-198.52597500000124
 20
98.594945000011421
 11
-200.52323500000156
 21
98.699620000011464
  0
LINE
  8
_0-9_小物
  6
CONTINUOUS
 62
    3
 10
-200.26155500000195
 20
103.69276500001138
 11
-200.3662250000003
 21
101.69551000001161
  0
LINE
  8
_0-9_小物
  6
CONTINUOUS
 62
    3
 10
-198.15962500000123
 20
105.5853550000113
 11
-198.26429500000162
 21
103.58809500001121
  0
LINE
  8
_0-9_小物
  6
CONTINUOUS
 62
    3
 10
-198.26429500000162
 20
103.58809500001121
 11
-200.26155500000195
 21
103.69276500001138
  0
LINE
  8
_0-9_小物
  6
CONTINUOUS
 62
    3
 10
-199.9000000000004
 20
106.5000000000116
 11
-198.15962500000123
 21
105.5853550000113
  0
LINE
  8
_0-9_小物
  6
CONTINUOUS
 62
    3
 10
-191.27676500000106
 20
98.699620000011464
 11
-189.58140000000171
 21
103.35760000001096
  0
LINE
  8
_0-9_小物
  6
CONTINUOUS
 62
    3
 10
-192.34094500000069
 20
98.699620000011464
 11
-190.52109000000073
 21
103.69962000001146
  0
LINE
  8
_0-9_小物
  6
CONTINUOUS
 62
    3
 10
-200.52323500000156
 20
98.699620000011464
 11
-202.21860000000115
 21
103.35760000001096
  0
LINE
  8
_0-9_小物
  6
CONTINUOUS
 62
    3
 10
-199.45905500000217
 20
98.699620000011464
 11
-201.2789100000019
 21
103.69962000001146
  0
LINE
  8
_0-9_小物
  6
CONTINUOUS
 62
    3
 10
-191.90000000000154
 20
106.5000000000116
 11
-191.90000000000154
 21
110.50000000001114
  0
LINE
  8
_0-9_小物
  6
CONTINUOUS
 62
    3
 10
-199.9000000000004
 20
106.5000000000116
 11
-199.9000000000004
 21
110.50000000001114
  0
LINE
  8
_0-9_小物
  6
CONTINUOUS
 62
    3
 10
-202.21860000000115
 20
103.35760000001096
 11
-203.21095500000146
 21
110.16122000001201
  0
ARC
  8
_0-9_小物
  6
CONTINUOUS
 62
    3
 10
-202.81514500000148
 20
110.21895500001187
 40
0.4
 50
98.130101999958413
 51
188.2984660000364
  0
LINE
  8
_0-9_小物
  6
CONTINUOUS
 62
    3
 10
-202.8717150000019
 20
110.61493500001166
 11
-202.67489000000123
 21
110.64305000001173
  0
ARC
  8
_0-9_小物
  6
CONTINUOUS
 62
    3
 10
-202.61832000000012
 20
110.24707000001149
 40
0.4
 50
8.1301020000240456
 51
98.130102000220958
  0
LINE
  8
_0-9_小物
  6
CONTINUOUS
 62
    3
 10
-202.22234000000125
 20
110.30364000001123
 11
-201.2789100000019
 21
103.69962000001146
  0
LINE
  8
_0-9_小物
  6
CONTINUOUS
 62
    3
 10
-189.58140000000171
 20
103.35760000001096
 11
-188.58904500000139
 21
110.16122000001201
  0
ARC
  8
_0-9_小物
  6
CONTINUOUS
 62
    3
 10
-188.98485500000115
 20
110.21895500001187
 40
0.4
 50
351.7015339999636
 51
81.869898000041587
  0
LINE
  8
_0-9_小物
  6
CONTINUOUS
 62
    3
 10
-188.92829000000174
 20
110.61493500001166
 11
-189.1251100000014
 21
110.64305000001173
  0
ARC
  8
_0-9_小物
  6
CONTINUOUS
 62
    3
 10
-189.18168000000045
 20
110.24707000001149
 40
0.4
 50
81.869898000074983
 51
171.86989800000879
  0
LINE
  8
_0-9_小物
  6
CONTINUOUS
 62
    3
 10
-189.57766000000137
 20
110.30364000001123
 11
-190.52109000000073
 21
103.69962000001146
  0
LINE
  8
_0-9_小物
  6
CONTINUOUS
 62
    3
 10
-189.58140000000171
 20
103.35760000001096
 11
-188.58904500000139
 21
110.16122000001201
  0
ARC
  8
_0-9_小物
  6
CONTINUOUS
 62
    3
 10
-188.98485500000115
 20
110.21895500001187
 40
0.4
 50
351.7015339999636
 51
81.869898000041587
  0
LINE
  8
_0-9_小物
  6
CONTINUOUS
 62
    3
 10
-188.92829000000174
 20
110.61493500001166
 11
-189.1251100000014
 21
110.64305000001173
  0
ARC
  8
_0-9_小物
  6
CONTINUOUS
 62
    3
 10
-189.18168000000045
 20
110.24707000001149
 40
0.4
 50
81.869898000074983
 51
171.86989800000879
  0
LINE
  8
_0-9_小物
  6
CONTINUOUS
 62
    3
 10
-189.57766000000137
 20
110.30364000001123
 11
-190.52109000000073
 21
103.69962000001146
  0
LINE
  8
_0-9_小物
  6
CONTINUOUS
 62
    3
 10
-191.90000000000154
 20
118.5000000000116
 11
-191.90000000000154
 21
110.50000000001114
  0
LINE
  8
_0-9_小物
  6
CONTINUOUS
 62
    3
 10
-195.4000000000004
 20
110.50000000001114
 11
-195.90000000000063
 21
110.50000000001114
  0
LINE
  8
_0-9_小物
  6
CONTINUOUS
 62
    3
 10
-199.9000000000004
 20
118.5000000000116
 11
-199.9000000000004
 21
110.50000000001114
  0
LINE
  8
_0-9_小物
  6
CONTINUOUS
 62
    3
 10
-196.40000000000154
 20
110.50000000001114
 11
-195.90000000000063
 21
110.50000000001114
  0
LINE
  8
_0-9_小物
  6
CONTINUOUS
 62
    3
 10
-190.49172500000086
 20
83.720175000011523
 11
-190.38705500000182
 21
81.722915000011426
  0
LINE
  8
_0-9_小物
  6
CONTINUOUS
 62
    3
 10
-190.64873500000144
 20
86.716065000011213
 11
-192.59365500000158
 21
85.61276500001145
  0
LINE
  8
_0-9_小物
  6
CONTINUOUS
 62
    3
 10
-192.59365500000158
 20
85.61276500001145
 11
-192.4889850000005
 21
83.615505000011353
  0
LINE
  8
_0-9_小物
  6
CONTINUOUS
 62
    3
 10
-192.4889850000005
 20
83.615505000011353
 11
-190.49172500000086
 21
83.720175000011523
  0
LINE
  8
_0-9_小物
  6
CONTINUOUS
 62
    3
 10
-190.75340500000115
 20
88.713325000011764
 11
-190.64873500000144
 21
86.716065000011213
  0
LINE
  8
_0-9_小物
  6
CONTINUOUS
 62
    3
 10
-190.91041500000105
 20
91.709210000012035
 11
-192.85533500000187
 21
90.605910000010908
  0
LINE
  8
_0-9_小物
  6
CONTINUOUS
 62
    3
 10
-192.85533500000187
 20
90.605910000010908
 11
-192.75066500000148
 21
88.608650000011721
  0
LINE
  8
_0-9_小物
  6
CONTINUOUS
 62
    3
 10
-192.75066500000148
 20
88.608650000011721
 11
-190.75340500000115
 21
88.713325000011764
  0
LINE
  8
_0-9_小物
  6
CONTINUOUS
 62
    3
 10
-191.01508500000145
 20
93.706470000011677
 11
-190.91041500000105
 21
91.709210000012035
  0
LINE
  8
_0-9_小物
  6
CONTINUOUS
 62
    3
 10
-191.17209500000067
 20
96.702360000010913
 11
-193.11701500000081
 21
95.599060000011605
  0
LINE
  8
_0-9_小物
  6
CONTINUOUS
 62
    3
 10
-193.11701500000081
 20
95.599060000011605
 11
-193.01234500000177
 21
93.601800000011963
  0
LINE
  8
_0-9_小物
  6
CONTINUOUS
 62
    3
 10
-193.01234500000177
 20
93.601800000011963
 11
-191.01508500000145
 21
93.706470000011677
  0
LINE
  8
_0-9_小物
  6
CONTINUOUS
 62
    3
 10
-191.27676500000106
 20
98.699620000011464
 11
-191.17209500000067
 21
96.702360000010913
  0
LINE
  8
_0-9_小物
  6
CONTINUOUS
 62
    3
 10
-201.30827500000109
 20
83.720175000011523
 11
-201.4129450000008
 21
81.722915000011426
  0
LINE
  8
_0-9_小物
  6
CONTINUOUS
 62
    3
 10
-201.15126500000119
 20
86.716065000011213
 11
-199.20634500000105
 21
85.61276500001145
  0
LINE
  8
_0-9_小物
  6
CONTINUOUS
 62
    3
 10
-199.20634500000105
 20
85.61276500001145
 11
-199.31101500000213
 21
83.615505000011353
  0
LINE
  8
_0-9_小物
  6
CONTINUOUS
 62
    3
 10
-199.31101500000213
 20
83.615505000011353
 11
-201.30827500000109
 21
83.720175000011523
  0
LINE
  8
_0-9_小物
  6
CONTINUOUS
 62
    3
 10
-201.04659500000079
 20
88.713325000011764
 11
-201.15126500000119
 21
86.716065000011213
  0
LINE
  8
_0-9_小物
  6
CONTINUOUS
 62
    3
 10
-200.88958500000157
 20
91.709210000012035
 11
-198.94466500000144
 21
90.605910000010908
  0
LINE
  8
_0-9_小物
  6
CONTINUOUS
 62
    3
 10
-198.94466500000144
 20
90.605910000010908
 11
-199.04933500000047
 21
88.608650000011721
  0
LINE
  8
_0-9_小物
  6
CONTINUOUS
 62
    3
 10
-199.04933500000047
 20
88.608650000011721
 11
-201.04659500000079
 21
88.713325000011764
  0
LINE
  8
_0-9_小物
  6
CONTINUOUS
 62
    3
 10
-200.78491500000186
 20
93.706470000011677
 11
-200.88958500000157
 21
91.709210000012035
  0
LINE
  8
_0-9_小物
  6
CONTINUOUS
 62
    3
 10
-200.62790500000196
 20
96.702360000010913
 11
-198.68298500000114
 21
95.599060000011605
  0
LINE
  8
_0-9_小物
  6
CONTINUOUS
 62
    3
 10
-198.68298500000114
 20
95.599060000011605
 11
-198.78765500000085
 21
93.601800000011963
  0
LINE
  8
_0-9_小物
  6
CONTINUOUS
 62
    3
 10
-198.78765500000085
 20
93.601800000011963
 11
-200.78491500000186
 21
93.706470000011677
  0
LINE
  8
_0-9_小物
  6
CONTINUOUS
 62
    3
 10
-200.52323500000156
 20
98.699620000011464
 11
-200.62790500000196
 21
96.702360000010913
  0
LINE
  8
_0-9_小物
  6
CONTINUOUS
 62
    3
 10
-193.88225500000121
 20
81.539740000011307
 11
-190.38705500000182
 21
81.722915000011426
  0
LINE
  8
_0-9_小物
  6
CONTINUOUS
 62
    3
 10
-190.38705500000182
 20
81.722915000011426
 11
-192.27964000000142
 21
79.620985000012013
  0
LINE
  8
_0-9_小物
  6
CONTINUOUS
 62
    3
 10
-192.27964000000142
 20
79.620985000012013
 11
-193.77758500000081
 21
79.542480000011153
  0
LINE
  8
_0-9_小物
  6
CONTINUOUS
 62
    3
 10
-193.77758500000081
 20
79.542480000011153
 11
-195.4000000000004
 21
110.50000000001114
  0
LINE
  8
_0-9_小物
  6
CONTINUOUS
 62
    3
 10
-197.91774500000142
 20
81.539740000011307
 11
-201.4129450000008
 21
81.722915000011426
  0
LINE
  8
_0-9_小物
  6
CONTINUOUS
 62
    3
 10
-201.4129450000008
 20
81.722915000011426
 11
-199.5203600000012
 21
79.620985000012013
  0
LINE
  8
_0-9_小物
  6
CONTINUOUS
 62
    3
 10
-199.5203600000012
 20
79.620985000012013
 11
-198.02241500000113
 21
79.542480000011153
  0
LINE
  8
_0-9_小物
  6
CONTINUOUS
 62
    3
 10
-198.02241500000113
 20
79.542480000011153
 11
-196.40000000000154
 21
110.50000000001114
  0
LINE
  8
_0-9_小物
  6
CONTINUOUS
 62
    3
 10
-190.89999999999904
 20
118.5000000000116
 11
-191.90000000000018
 21
113.50000000001205
  0
LINE
  8
_0-9_小物
  6
CONTINUOUS
 62
    3
 10
-195.89999999999927
 20
113.50000000001205
 11
-195.89999999999927
 21
118.5000000000116
  0
LINE
  8
_0-9_小物
  6
CONTINUOUS
 62
    3
 10
-194.90000000000018
 20
118.5000000000116
 11
-195.89999999999927
 21
113.50000000001205
  0
LINE
  8
_0-9_小物
  6
CONTINUOUS
 62
    3
 10
-196.89999999999972
 20
118.5000000000116
 11
-195.89999999999927
 21
113.50000000001205
  0
LINE
  8
_0-9_小物
  6
CONTINUOUS
 62
    3
 10
-200.89999999999881
 20
118.5000000000116
 11
-199.89999999999904
 21
113.50000000001205
  0
LINE
  8
_0-9_小物
  6
CONTINUOUS
 62
    3
 10
-190.89999999999904
 20
118.5000000000116
 11
-200.89999999999904
 21
118.5000000000116
  0
ENDBLK
  0
BLOCK
  2
-011-_5_
 70
   64
 10
0
 20
0
 30
0
  0
ARC
  8
_0-9_小物
  6
CONTINUOUS
 62
    3
 10
-169.18104500000419
 20
-109.58485500031361
 40
0.4
 50
8.1301019999584128
 51
98.298466000036413
  0
LINE
  8
_0-9_小物
  6
CONTINUOUS
 62
    3
 10
-168.78506500000441
 20
-109.52828500031251
 11
-168.75695000000388
 21
-109.72511000031386
  0
ARC
  8
_0-9_小物
  6
CONTINUOUS
 62
    3
 10
-169.15293000000412
 20
-109.78168000031451
 40
0.4
 50
278.13010200002401
 51
8.1301020002215409
  0
ARC
  8
_0-9_小物
  6
CONTINUOUS
 62
    3
 10
-169.18104500000419
 20
-123.41514500031349
 40
0.4
 50
261.7015339999636
 51
351.86989800004159
  0
LINE
  8
_0-9_小物
  6
CONTINUOUS
 62
    3
 10
-168.78506500000441
 20
-123.47171000031335
 11
-168.75695000000388
 21
-123.27489000031323
  0
ARC
  8
_0-9_小物
  6
CONTINUOUS
 62
    3
 10
-169.15293000000412
 20
-123.21832000031441
 40
0.4
 50
351.86989800004159
 51
81.869898000041587
  0
ARC
  8
_0-9_小物
  6
CONTINUOUS
 62
    3
 10
-169.18104500000419
 20
-123.41514500031349
 40
0.4
 50
261.7015339999636
 51
351.86989800004159
  0
LINE
  8
_0-9_小物
  6
CONTINUOUS
 62
    3
 10
-168.78506500000441
 20
-123.47171000031335
 11
-168.75695000000388
 21
-123.27489000031323
  0
ARC
  8
_0-9_小物
  6
CONTINUOUS
 62
    3
 10
-169.15293000000412
 20
-123.21832000031441
 40
0.4
 50
351.86989800004159
 51
81.869898000041587
  0
LINE
  8
_0-9_小物
  6
CONTINUOUS
 62
    3
 10
-160.90000000000401
 20
-112.50000000031446
 11
-168.90000000000492
 21
-112.50000000031446
  0
LINE
  8
_0-9_小物
  6
CONTINUOUS
 62
    3
 10
-182.69764000000515
 20
-121.22790500031419
 11
-183.800940000004
 21
-119.28298500031428
  0
LINE
  8
_0-9_小物
  6
CONTINUOUS
 62
    3
 10
-180.70038000000415
 20
-121.12323500031357
 11
-182.69764000000515
 21
-121.22790500031419
  0
LINE
  8
_0-9_小物
  6
CONTINUOUS
 62
    3
 10
-177.704490000004
 20
-120.96622500031367
 11
-178.80779500000455
 21
-119.02130500031376
  0
LINE
  8
_0-9_小物
  6
CONTINUOUS
 62
    3
 10
-178.80779500000455
 20
-119.02130500031376
 11
-180.80505500000419
 21
-119.12597500031347
  0
LINE
  8
_0-9_小物
  6
CONTINUOUS
 62
    3
 10
-180.80505500000419
 20
-119.12597500031347
 11
-180.70038000000415
 21
-121.12323500031357
  0
LINE
  8
_0-9_小物
  6
CONTINUOUS
 62
    3
 10
-175.70723500000469
 20
-120.86155500031396
 11
-177.704490000004
 21
-120.96622500031367
  0
LINE
  8
_0-9_小物
  6
CONTINUOUS
 62
    3
 10
-173.81464500000476
 20
-118.75962500031324
 11
-175.8119050000044
 21
-118.86429500031386
  0
LINE
  8
_0-9_小物
  6
CONTINUOUS
 62
    3
 10
-175.8119050000044
 20
-118.86429500031386
 11
-175.70723500000469
 21
-120.86155500031396
  0
LINE
  8
_0-9_小物
  6
CONTINUOUS
 62
    3
 10
-172.90000000000401
 20
-120.50000000031355
 11
-173.81464500000476
 21
-118.75962500031324
  0
LINE
  8
_0-9_小物
  6
CONTINUOUS
 62
    3
 10
-182.69764000000515
 20
-111.7720950003129
 11
-183.800940000004
 21
-113.71701500031372
  0
LINE
  8
_0-9_小物
  6
CONTINUOUS
 62
    3
 10
-180.70038000000415
 20
-111.87676500031353
 11
-182.69764000000515
 21
-111.7720950003129
  0
LINE
  8
_0-9_小物
  6
CONTINUOUS
 62
    3
 10
-177.704490000004
 20
-112.03377500031434
 11
-178.80779500000455
 21
-113.97869500031425
  0
LINE
  8
_0-9_小物
  6
CONTINUOUS
 62
    3
 10
-178.80779500000455
 20
-113.97869500031425
 11
-180.80505500000419
 21
-113.87402500031362
  0
LINE
  8
_0-9_小物
  6
CONTINUOUS
 62
    3
 10
-180.80505500000419
 20
-113.87402500031362
 11
-180.70038000000415
 21
-111.87676500031353
  0
LINE
  8
_0-9_小物
  6
CONTINUOUS
 62
    3
 10
-175.70723500000469
 20
-112.13844500031314
 11
-177.704490000004
 21
-112.03377500031434
  0
LINE
  8
_0-9_小物
  6
CONTINUOUS
 62
    3
 10
-173.81464500000476
 20
-114.24037500031386
 11
-175.8119050000044
 21
-114.13570500031324
  0
LINE
  8
_0-9_小物
  6
CONTINUOUS
 62
    3
 10
-175.8119050000044
 20
-114.13570500031324
 11
-175.70723500000469
 21
-112.13844500031314
  0
LINE
  8
_0-9_小物
  6
CONTINUOUS
 62
    3
 10
-172.90000000000401
 20
-112.50000000031446
 11
-173.81464500000476
 21
-114.24037500031386
  0
LINE
  8
_0-9_小物
  6
CONTINUOUS
 62
    3
 10
-180.70038000000415
 20
-121.12323500031357
 11
-176.04240000000465
 21
-122.81860000031315
  0
LINE
  8
_0-9_小物
  6
CONTINUOUS
 62
    3
 10
-180.70038000000415
 20
-120.05905500031417
 11
-175.7003800000046
 21
-121.87891000031391
  0
LINE
  8
_0-9_小物
  6
CONTINUOUS
 62
    3
 10
-180.70038000000415
 20
-111.87676500031353
 11
-176.04240000000465
 21
-110.18140000031394
  0
LINE
  8
_0-9_小物
  6
CONTINUOUS
 62
    3
 10
-180.70038000000415
 20
-112.94094500031292
 11
-175.7003800000046
 21
-111.12109000031319
  0
LINE
  8
_0-9_小物
  6
CONTINUOUS
 62
    3
 10
-172.90000000000401
 20
-120.50000000031355
 11
-168.90000000000492
 21
-120.50000000031355
  0
LINE
  8
_0-9_小物
  6
CONTINUOUS
 62
    3
 10
-172.90000000000401
 20
-112.50000000031446
 11
-168.90000000000492
 21
-112.50000000031446
  0
LINE
  8
_0-9_小物
  6
CONTINUOUS
 62
    3
 10
-176.04240000000465
 20
-110.18140000031394
 11
-169.2387800000036
 21
-109.18904500031363
  0
LINE
  8
_0-9_小物
  6
CONTINUOUS
 62
    3
 10
-169.09636000000438
 20
-110.17766000031384
 11
-175.7003800000046
 21
-111.12109000031319
  0
LINE
  8
_0-9_小物
  6
CONTINUOUS
 62
    3
 10
-176.04240000000465
 20
-122.81860000031315
 11
-169.2387800000036
 21
-123.81095500031347
  0
LINE
  8
_0-9_小物
  6
CONTINUOUS
 62
    3
 10
-169.09636000000438
 20
-122.82234000031326
 11
-175.7003800000046
 21
-121.87891000031391
  0
LINE
  8
_0-9_小物
  6
CONTINUOUS
 62
    3
 10
-176.04240000000465
 20
-122.81860000031315
 11
-169.2387800000036
 21
-123.81095500031347
  0
LINE
  8
_0-9_小物
  6
CONTINUOUS
 62
    3
 10
-169.09636000000438
 20
-122.82234000031326
 11
-175.7003800000046
 21
-121.87891000031391
  0
LINE
  8
_0-9_小物
  6
CONTINUOUS
 62
    3
 10
-195.67982500000454
 20
-121.90827500031423
 11
-197.67708500000418
 21
-122.01294500031304
  0
LINE
  8
_0-9_小物
  6
CONTINUOUS
 62
    3
 10
-192.6839350000044
 20
-121.75126500031342
 11
-193.78723500000461
 21
-119.80634500031351
  0
LINE
  8
_0-9_小物
  6
CONTINUOUS
 62
    3
 10
-193.78723500000461
 20
-119.80634500031351
 11
-195.78449500000426
 21
-119.91101500031414
  0
LINE
  8
_0-9_小物
  6
CONTINUOUS
 62
    3
 10
-195.78449500000426
 20
-119.91101500031414
 11
-195.67982500000454
 21
-121.90827500031423
  0
LINE
  8
_0-9_小物
  6
CONTINUOUS
 62
    3
 10
-190.6866750000043
 20
-121.64659500031371
 11
-192.6839350000044
 21
-121.75126500031342
  0
LINE
  8
_0-9_小物
  6
CONTINUOUS
 62
    3
 10
-187.69079000000403
 20
-121.48958500031381
 11
-188.79409000000516
 21
-119.54466500031299
  0
LINE
  8
_0-9_小物
  6
CONTINUOUS
 62
    3
 10
-188.79409000000516
 20
-119.54466500031299
 11
-190.79135000000434
 21
-119.64933500031361
  0
LINE
  8
_0-9_小物
  6
CONTINUOUS
 62
    3
 10
-190.79135000000434
 20
-119.64933500031361
 11
-190.6866750000043
 21
-121.64659500031371
  0
LINE
  8
_0-9_小物
  6
CONTINUOUS
 62
    3
 10
-185.69353000000393
 20
-121.38491500031319
 11
-187.69079000000403
 21
-121.48958500031381
  0
LINE
  8
_0-9_小物
  6
CONTINUOUS
 62
    3
 10
-183.800940000004
 20
-119.28298500031428
 11
-185.7982000000041
 21
-119.38765500031309
  0
LINE
  8
_0-9_小物
  6
CONTINUOUS
 62
    3
 10
-185.7982000000041
 20
-119.38765500031309
 11
-185.69353000000393
 21
-121.38491500031319
  0
LINE
  8
_0-9_小物
  6
CONTINUOUS
 62
    3
 10
-195.67982500000454
 20
-111.09172500031377
 11
-197.67708500000418
 21
-110.98705500031406
  0
LINE
  8
_0-9_小物
  6
CONTINUOUS
 62
    3
 10
-192.6839350000044
 20
-111.24873500031367
 11
-193.78723500000461
 21
-113.19365500031358
  0
LINE
  8
_0-9_小物
  6
CONTINUOUS
 62
    3
 10
-193.78723500000461
 20
-113.19365500031358
 11
-195.78449500000426
 21
-113.08898500031296
  0
LINE
  8
_0-9_小物
  6
CONTINUOUS
 62
    3
 10
-195.78449500000426
 20
-113.08898500031296
 11
-195.67982500000454
 21
-111.09172500031377
  0
LINE
  8
_0-9_小物
  6
CONTINUOUS
 62
    3
 10
-190.6866750000043
 20
-111.3534050003143
 11
-192.6839350000044
 21
-111.24873500031367
  0
LINE
  8
_0-9_小物
  6
CONTINUOUS
 62
    3
 10
-187.69079000000403
 20
-111.51041500031329
 11
-188.79409000000516
 21
-113.4553350003132
  0
LINE
  8
_0-9_小物
  6
CONTINUOUS
 62
    3
 10
-188.79409000000516
 20
-113.4553350003132
 11
-190.79135000000434
 21
-113.35066500031439
  0
LINE
  8
_0-9_小物
  6
CONTINUOUS
 62
    3
 10
-190.79135000000434
 20
-113.35066500031439
 11
-190.6866750000043
 21
-111.3534050003143
  0
LINE
  8
_0-9_小物
  6
CONTINUOUS
 62
    3
 10
-185.69353000000393
 20
-111.615085000313
 11
-187.69079000000403
 21
-111.51041500031329
  0
LINE
  8
_0-9_小物
  6
CONTINUOUS
 62
    3
 10
-183.800940000004
 20
-113.71701500031372
 11
-185.7982000000041
 21
-113.61234500031401
  0
LINE
  8
_0-9_小物
  6
CONTINUOUS
 62
    3
 10
-185.7982000000041
 20
-113.61234500031401
 11
-185.69353000000393
 21
-111.615085000313
  0
LINE
  8
_0-9_小物
  6
CONTINUOUS
 62
    3
 10
-197.86026000000476
 20
-118.51774500031365
 11
-197.67708500000418
 21
-122.01294500031304
  0
LINE
  8
_0-9_小物
  6
CONTINUOUS
 62
    3
 10
-197.67708500000418
 20
-122.01294500031304
 11
-199.77901500000399
 21
-120.12036000031344
  0
LINE
  8
_0-9_小物
  6
CONTINUOUS
 62
    3
 10
-199.77901500000399
 20
-120.12036000031344
 11
-199.85752000000485
 21
-118.62241500031428
  0
LINE
  8
_0-9_小物
  6
CONTINUOUS
 62
    3
 10
-199.85752000000485
 20
-118.62241500031428
 11
-168.90000000000492
 21
-117.00000000031446
  0
LINE
  8
_0-9_小物
  6
CONTINUOUS
 62
    3
 10
-197.86026000000476
 20
-114.48225500031344
 11
-197.67708500000418
 21
-110.98705500031406
  0
LINE
  8
_0-9_小物
  6
CONTINUOUS
 62
    3
 10
-197.67708500000418
 20
-110.98705500031406
 11
-199.77901500000399
 21
-112.87964000031366
  0
LINE
  8
_0-9_小物
  6
CONTINUOUS
 62
    3
 10
-199.77901500000399
 20
-112.87964000031366
 11
-199.85752000000485
 21
-114.37758500031373
  0
LINE
  8
_0-9_小物
  6
CONTINUOUS
 62
    3
 10
-199.85752000000485
 20
-114.37758500031373
 11
-168.90000000000492
 21
-116.00000000031355
  0
LINE
  8
_0-9_小物
  6
CONTINUOUS
 62
    3
 10
-160.90000000000401
 20
-121.50000000031446
 11
-165.90000000000401
 21
-120.50000000031355
  0
LINE
  8
_0-9_小物
  6
CONTINUOUS
 62
    3
 10
-160.90000000000401
 20
-117.50000000031355
 11
-165.90000000000401
 21
-116.50000000031446
  0
LINE
  8
_0-9_小物
  6
CONTINUOUS
 62
    3
 10
-160.90000000000401
 20
-120.50000000031355
 11
-168.90000000000492
 21
-120.50000000031355
  0
LINE
  8
_0-9_小物
  6
CONTINUOUS
 62
    3
 10
-160.90000000000401
 20
-115.50000000031355
 11
-165.90000000000401
 21
-116.50000000031446
  0
LINE
  8
_0-9_小物
  6
CONTINUOUS
 62
    3
 10
-160.90000000000401
 20
-111.50000000031446
 11
-165.90000000000401
 21
-112.50000000031446
  0
LINE
  8
_0-9_小物
  6
CONTINUOUS
 62
    3
 10
-165.90000000000401
 20
-116.50000000031446
 11
-160.90000000000219
 21
-116.50000000031446
  0
LINE
  8
_0-9_小物
  6
CONTINUOUS
 62
    3
 10
-168.90000000000492
 20
-116.00000000031355
 11
-168.90000000000492
 21
-117.00000000031446
  0
LINE
  8
_0-9_小物
  6
CONTINUOUS
 62
    3
 10
-160.90000000000401
 20
-111.50000000031446
 11
-160.90000000000401
 21
-121.50000000031446
  0
ENDBLK
  0
BLOCK
  2
-012-_6_
 70
   64
 10
0
 20
0
 30
0
  0
LINE
  8
_0-9_小物
  6
CONTINUOUS
 62
    3
 10
-20.491724999999462
 20
-183.27982500001156
 11
-20.387055000000885
 21
-185.27708500001143
  0
LINE
  8
_0-9_小物
  6
CONTINUOUS
 62
    3
 10
-20.648735000000499
 20
-180.28393500001164
 11
-22.593655000000183
 21
-181.38723500001163
  0
LINE
  8
_0-9_小物
  6
CONTINUOUS
 62
    3
 10
-22.593655000000183
 20
-181.38723500001163
 11
-22.488984999999786
 21
-183.3844950000115
  0
LINE
  8
_0-9_小物
  6
CONTINUOUS
 62
    3
 10
-22.488984999999786
 20
-183.3844950000115
 11
-20.491724999999462
 21
-183.27982500001156
  0
LINE
  8
_0-9_小物
  6
CONTINUOUS
 62
    3
 10
-20.753405000000214
 20
-178.28667500001131
 11
-20.648735000000499
 21
-180.28393500001164
  0
LINE
  8
_0-9_小物
  6
CONTINUOUS
 62
    3
 10
-20.910415000000114
 20
-175.29079000001127
 11
-22.855335000000935
 21
-176.39409000001217
  0
LINE
  8
_0-9_小物
  6
CONTINUOUS
 62
    3
 10
-22.855335000000935
 20
-176.39409000001217
 11
-22.750665000000083
 21
-178.39135000001136
  0
LINE
  8
_0-9_小物
  6
CONTINUOUS
 62
    3
 10
-22.750665000000083
 20
-178.39135000001136
 11
-20.753405000000214
 21
-178.28667500001131
  0
LINE
  8
_0-9_小物
  6
CONTINUOUS
 62
    3
 10
-21.015085000000738
 20
-173.29353000001117
 11
-20.910415000000114
 21
-175.29079000001127
  0
LINE
  8
_0-9_小物
  6
CONTINUOUS
 62
    3
 10
-21.172094999999729
 20
-170.29764000001217
 11
-23.117014999999412
 21
-171.40094000001125
  0
LINE
  8
_0-9_小物
  6
CONTINUOUS
 62
    3
 10
-23.117014999999412
 20
-171.40094000001125
 11
-23.012345000000835
 21
-173.39820000001134
  0
LINE
  8
_0-9_小物
  6
CONTINUOUS
 62
    3
 10
-23.012345000000835
 20
-173.39820000001134
 11
-21.015085000000738
 21
-173.29353000001117
  0
LINE
  8
_0-9_小物
  6
CONTINUOUS
 62
    3
 10
-21.276765000000353
 20
-168.30038000001139
 11
-21.172094999999729
 21
-170.29764000001217
  0
LINE
  8
_0-9_小物
  6
CONTINUOUS
 62
    3
 10
-21.433775000000253
 20
-165.30449000001124
 11
-23.378695000000164
 21
-166.40779500001156
  0
LINE
  8
_0-9_小物
  6
CONTINUOUS
 62
    3
 10
-23.378695000000164
 20
-166.40779500001156
 11
-23.274025000000449
 21
-168.40505500001143
  0
LINE
  8
_0-9_小物
  6
CONTINUOUS
 62
    3
 10
-23.274025000000449
 20
-168.40505500001143
 11
-21.276765000000353
 21
-168.30038000001139
  0
LINE
  8
_0-9_小物
  6
CONTINUOUS
 62
    3
 10
-21.538444999999967
 20
-163.3072350000117
 11
-21.433775000000253
 21
-165.30449000001124
  0
LINE
  8
_0-9_小物
  6
CONTINUOUS
 62
    3
 10
-23.640375000000688
 20
-161.41464500001177
 11
-23.535705000000064
 21
-163.41190500001164
  0
LINE
  8
_0-9_小物
  6
CONTINUOUS
 62
    3
 10
-23.535705000000064
 20
-163.41190500001164
 11
-21.538444999999967
 21
-163.3072350000117
  0
LINE
  8
_0-9_小物
  6
CONTINUOUS
 62
    3
 10
-21.900000000000148
 20
-160.50000000001125
 11
-23.640375000000688
 21
-161.41464500001177
  0
LINE
  8
_0-9_小物
  6
CONTINUOUS
 62
    3
 10
-31.308275000000151
 20
-183.27982500001156
 11
-31.412944999999866
 21
-185.27708500001143
  0
LINE
  8
_0-9_小物
  6
CONTINUOUS
 62
    3
 10
-31.151265000000251
 20
-180.28393500001164
 11
-29.20634500000034
 21
-181.38723500001163
  0
LINE
  8
_0-9_小物
  6
CONTINUOUS
 62
    3
 10
-29.20634500000034
 20
-181.38723500001163
 11
-29.311015000000737
 21
-183.3844950000115
  0
LINE
  8
_0-9_小物
  6
CONTINUOUS
 62
    3
 10
-29.311015000000737
 20
-183.3844950000115
 11
-31.308275000000151
 21
-183.27982500001156
  0
LINE
  8
_0-9_小物
  6
CONTINUOUS
 62
    3
 10
-31.0465949999994
 20
-178.28667500001131
 11
-31.151265000000251
 21
-180.28393500001164
  0
LINE
  8
_0-9_小物
  6
CONTINUOUS
 62
    3
 10
-30.889585000000636
 20
-175.29079000001127
 11
-28.944665000000725
 21
-176.39409000001217
  0
LINE
  8
_0-9_小物
  6
CONTINUOUS
 62
    3
 10
-28.944665000000725
 20
-176.39409000001217
 11
-29.04933499999953
 21
-178.39135000001136
  0
LINE
  8
_0-9_小物
  6
CONTINUOUS
 62
    3
 10
-29.04933499999953
 20
-178.39135000001136
 11
-31.0465949999994
 21
-178.28667500001131
  0
LINE
  8
_0-9_小物
  6
CONTINUOUS
 62
    3
 10
-30.784915000000922
 20
-173.29353000001117
 11
-30.889585000000636
 21
-175.29079000001127
  0
LINE
  8
_0-9_小物
  6
CONTINUOUS
 62
    3
 10
-30.627905000001022
 20
-170.29764000001217
 11
-28.682985000000201
 21
-171.40094000001125
  0
LINE
  8
_0-9_小物
  6
CONTINUOUS
 62
    3
 10
-28.682985000000201
 20
-171.40094000001125
 11
-28.787654999999916
 21
-173.39820000001134
  0
LINE
  8
_0-9_小物
  6
CONTINUOUS
 62
    3
 10
-28.787654999999916
 20
-173.39820000001134
 11
-30.784915000000922
 21
-173.29353000001117
  0
LINE
  8
_0-9_小物
  6
CONTINUOUS
 62
    3
 10
-30.52323500000017
 20
-168.30038000001139
 11
-30.627905000001022
 21
-170.29764000001217
  0
LINE
  8
_0-9_小物
  6
CONTINUOUS
 62
    3
 10
-30.366224999999588
 20
-165.30449000001124
 11
-28.42130499999945
 21
-166.40779500001156
  0
LINE
  8
_0-9_小物
  6
CONTINUOUS
 62
    3
 10
-28.42130499999945
 20
-166.40779500001156
 11
-28.525975000000301
 21
-168.40505500001143
  0
LINE
  8
_0-9_小物
  6
CONTINUOUS
 62
    3
 10
-28.525975000000301
 20
-168.40505500001143
 11
-30.52323500000017
 21
-168.30038000001139
  0
LINE
  8
_0-9_小物
  6
CONTINUOUS
 62
    3
 10
-30.261555000000556
 20
-163.3072350000117
 11
-30.366224999999588
 21
-165.30449000001124
  0
LINE
  8
_0-9_小物
  6
CONTINUOUS
 62
    3
 10
-28.159624999999835
 20
-161.41464500001177
 11
-28.264295000000686
 21
-163.41190500001164
  0
LINE
  8
_0-9_小物
  6
CONTINUOUS
 62
    3
 10
-28.264295000000686
 20
-163.41190500001164
 11
-30.261555000000556
 21
-163.3072350000117
  0
LINE
  8
_0-9_小物
  6
CONTINUOUS
 62
    3
 10
-29.899999999999466
 20
-160.50000000001125
 11
-28.159624999999835
 21
-161.41464500001177
  0
LINE
  8
_0-9_小物
  6
CONTINUOUS
 62
    3
 10
-21.276765000000353
 20
-168.30038000001139
 11
-19.58140000000077
 21
-163.64240000001189
  0
LINE
  8
_0-9_小物
  6
CONTINUOUS
 62
    3
 10
-22.340944999999749
 20
-168.30038000001139
 11
-20.521090000000015
 21
-163.30038000001161
  0
LINE
  8
_0-9_小物
  6
CONTINUOUS
 62
    3
 10
-30.52323500000017
 20
-168.30038000001139
 11
-32.218599999999753
 21
-163.64240000001189
  0
LINE
  8
_0-9_小物
  6
CONTINUOUS
 62
    3
 10
-29.459055000000774
 20
-168.30038000001139
 11
-31.278910000000508
 21
-163.30038000001161
  0
LINE
  8
_0-9_小物
  6
CONTINUOUS
 62
    3
 10
-23.882255000000271
 20
-185.46026000001177
 11
-20.387055000000885
 21
-185.27708500001143
  0
LINE
  8
_0-9_小物
  6
CONTINUOUS
 62
    3
 10
-20.387055000000885
 20
-185.27708500001143
 11
-22.279640000000484
 21
-187.37901500001124
  0
LINE
  8
_0-9_小物
  6
CONTINUOUS
 62
    3
 10
-22.279640000000484
 20
-187.37901500001124
 11
-23.777584999999419
 21
-187.45752000001187
  0
LINE
  8
_0-9_小物
  6
CONTINUOUS
 62
    3
 10
-23.777584999999419
 20
-187.45752000001187
 11
-25.399999999999466
 21
-156.50000000001194
  0
LINE
  8
_0-9_小物
  6
CONTINUOUS
 62
    3
 10
-21.900000000000148
 20
-160.50000000001125
 11
-21.900000000000148
 21
-156.50000000001194
  0
LINE
  8
_0-9_小物
  6
CONTINUOUS
 62
    3
 10
-27.91774500000048
 20
-185.46026000001177
 11
-31.412944999999866
 21
-185.27708500001143
  0
LINE
  8
_0-9_小物
  6
CONTINUOUS
 62
    3
 10
-31.412944999999866
 20
-185.27708500001143
 11
-29.520360000000267
 21
-187.37901500001124
  0
LINE
  8
_0-9_小物
  6
CONTINUOUS
 62
    3
 10
-29.520360000000267
 20
-187.37901500001124
 11
-28.022415000000194
 21
-187.45752000001187
  0
LINE
  8
_0-9_小物
  6
CONTINUOUS
 62
    3
 10
-28.022415000000194
 20
-187.45752000001187
 11
-26.400000000000148
 21
-156.50000000001194
  0
LINE
  8
_0-9_小物
  6
CONTINUOUS
 62
    3
 10
-29.899999999999466
 20
-160.50000000001125
 11
-29.899999999999466
 21
-156.50000000001194
  0
LINE
  8
_0-9_小物
  6
CONTINUOUS
 62
    3
 10
-32.218599999999753
 20
-163.64240000001189
 11
-33.21095500000007
 21
-156.83878000001084
  0
ARC
  8
_0-9_小物
  6
CONTINUOUS
 62
    3
 10
-32.815145000000086
 20
-156.78104500001143
 40
0.4
 50
98.130101999958413
 51
188.29846599999553
  0
LINE
  8
_0-9_小物
  6
CONTINUOUS
 62
    3
 10
-32.871715000000961
 20
-156.38506500001142
 11
-32.674889999999834
 21
-156.35695000001112
  0
ARC
  8
_0-9_小物
  6
CONTINUOUS
 62
    3
 10
-32.618319999999414
 20
-156.75293000001136
 40
0.4
 50
8.1301020000240456
 51
98.130102000221527
  0
LINE
  8
_0-9_小物
  6
CONTINUOUS
 62
    3
 10
-32.222339999999861
 20
-156.69636000001162
 11
-31.278910000000508
 21
-163.30038000001161
  0
LINE
  8
_0-9_小物
  6
CONTINUOUS
 62
    3
 10
-19.58140000000077
 20
-163.64240000001189
 11
-18.589045000000453
 21
-156.83878000001084
  0
ARC
  8
_0-9_小物
  6
CONTINUOUS
 62
    3
 10
-18.984855000000437
 20
-156.78104500001143
 40
0.4
 50
351.70153399996417
 51
81.869898000074386
  0
LINE
  8
_0-9_小物
  6
CONTINUOUS
 62
    3
 10
-18.928290000000345
 20
-156.38506500001142
 11
-19.125110000000689
 21
-156.35695000001112
  0
ARC
  8
_0-9_小物
  6
CONTINUOUS
 62
    3
 10
-19.181679999999517
 20
-156.75293000001136
 40
0.4
 50
81.869898000041587
 51
171.86989800000936
  0
LINE
  8
_0-9_小物
  6
CONTINUOUS
 62
    3
 10
-19.577660000000662
 20
-156.69636000001162
 11
-20.521090000000015
 21
-163.30038000001161
  0
LINE
  8
_0-9_小物
  6
CONTINUOUS
 62
    3
 10
-19.58140000000077
 20
-163.64240000001189
 11
-18.589045000000453
 21
-156.83878000001084
  0
ARC
  8
_0-9_小物
  6
CONTINUOUS
 62
    3
 10
-18.984855000000437
 20
-156.78104500001143
 40
0.4
 50
351.70153399996417
 51
81.869898000074386
  0
LINE
  8
_0-9_小物
  6
CONTINUOUS
 62
    3
 10
-18.928290000000345
 20
-156.38506500001142
 11
-19.125110000000689
 21
-156.35695000001112
  0
ARC
  8
_0-9_小物
  6
CONTINUOUS
 62
    3
 10
-19.181679999999517
 20
-156.75293000001136
 40
0.4
 50
81.869898000041587
 51
171.86989800000936
  0
LINE
  8
_0-9_小物
  6
CONTINUOUS
 62
    3
 10
-19.577660000000662
 20
-156.69636000001162
 11
-20.521090000000015
 21
-163.30038000001161
  0
LINE
  8
_0-9_小物
  6
CONTINUOUS
 62
    3
 10
-20.899999999999466
 20
-148.50000000001125
 11
-21.900000000000148
 21
-153.50000000001125
  0
LINE
  8
_0-9_小物
  6
CONTINUOUS
 62
    3
 10
-21.900000000000148
 20
-148.50000000001125
 11
-21.900000000000148
 21
-156.50000000001194
  0
LINE
  8
_0-9_小物
  6
CONTINUOUS
 62
    3
 10
-25.399999999999466
 20
-156.50000000001194
 11
-25.899999999999238
 21
-156.50000000001194
  0
LINE
  8
_0-9_小物
  6
CONTINUOUS
 62
    3
 10
-25.899999999999238
 20
-153.50000000001125
 11
-25.899999999999238
 21
-148.50000000001125
  0
LINE
  8
_0-9_小物
  6
CONTINUOUS
 62
    3
 10
-24.900000000000148
 20
-148.50000000001125
 11
-25.899999999999238
 21
-153.50000000001125
  0
LINE
  8
_0-9_小物
  6
CONTINUOUS
 62
    3
 10
-26.900000000000375
 20
-148.50000000001125
 11
-25.899999999999238
 21
-153.50000000001125
  0
LINE
  8
_0-9_小物
  6
CONTINUOUS
 62
    3
 10
-30.899999999999466
 20
-148.50000000001125
 11
-29.899999999999466
 21
-153.50000000001125
  0
LINE
  8
_0-9_小物
  6
CONTINUOUS
 62
    3
 10
-29.899999999999466
 20
-148.50000000001125
 11
-29.899999999999466
 21
-156.50000000001194
  0
LINE
  8
_0-9_小物
  6
CONTINUOUS
 62
    3
 10
-26.400000000000148
 20
-156.50000000001194
 11
-25.899999999999238
 21
-156.50000000001194
  0
LINE
  8
_0-9_小物
  6
CONTINUOUS
 62
    3
 10
-20.899999999999466
 20
-148.50000000001125
 11
-30.899999999999466
 21
-148.50000000001125
  0
ENDBLK
  0
BLOCK
  2
-013-_7_
 70
   64
 10
0
 20
0
 30
0
  0
LINE
  8
_0-9_小物
  6
CONTINUOUS
 62
    3
 10
34.508274999999628
 20
-183.27982500001156
 11
34.612944999998206
 21
-185.27708500001143
  0
LINE
  8
_0-9_小物
  6
CONTINUOUS
 62
    3
 10
34.351264999998591
 20
-180.28393500001164
 11
32.406344999998907
 21
-181.38723500001163
  0
LINE
  8
_0-9_小物
  6
CONTINUOUS
 62
    3
 10
32.406344999998907
 20
-181.38723500001163
 11
32.511014999999304
 21
-183.3844950000115
  0
LINE
  8
_0-9_小物
  6
CONTINUOUS
 62
    3
 10
32.511014999999304
 20
-183.3844950000115
 11
34.508274999999628
 21
-183.27982500001156
  0
LINE
  8
_0-9_小物
  6
CONTINUOUS
 62
    3
 10
34.246594999998877
 20
-178.28667500001131
 11
34.351264999998591
 21
-180.28393500001164
  0
LINE
  8
_0-9_小物
  6
CONTINUOUS
 62
    3
 10
34.089584999998976
 20
-175.29079000001127
 11
32.144664999998156
 21
-176.39409000001217
  0
LINE
  8
_0-9_小物
  6
CONTINUOUS
 62
    3
 10
32.144664999998156
 20
-176.39409000001217
 11
32.249334999999007
 21
-178.39135000001136
  0
LINE
  8
_0-9_小物
  6
CONTINUOUS
 62
    3
 10
32.249334999999007
 20
-178.39135000001136
 11
34.246594999998877
 21
-178.28667500001131
  0
LINE
  8
_0-9_小物
  6
CONTINUOUS
 62
    3
 10
33.984914999998352
 20
-173.29353000001117
 11
34.089584999998976
 21
-175.29079000001127
  0
LINE
  8
_0-9_小物
  6
CONTINUOUS
 62
    3
 10
33.827904999999362
 20
-170.29764000001217
 11
31.882984999999678
 21
-171.40094000001125
  0
LINE
  8
_0-9_小物
  6
CONTINUOUS
 62
    3
 10
31.882984999999678
 20
-171.40094000001125
 11
31.987654999998256
 21
-173.39820000001134
  0
LINE
  8
_0-9_小物
  6
CONTINUOUS
 62
    3
 10
31.987654999998256
 20
-173.39820000001134
 11
33.984914999998352
 21
-173.29353000001117
  0
LINE
  8
_0-9_小物
  6
CONTINUOUS
 62
    3
 10
33.723234999998738
 20
-168.30038000001139
 11
33.827904999999362
 21
-170.29764000001217
  0
LINE
  8
_0-9_小物
  6
CONTINUOUS
 62
    3
 10
33.566224999998838
 20
-165.30449000001124
 11
31.621304999998927
 21
-166.40779500001156
  0
LINE
  8
_0-9_小物
  6
CONTINUOUS
 62
    3
 10
31.621304999998927
 20
-166.40779500001156
 11
31.725974999998641
 21
-168.40505500001143
  0
LINE
  8
_0-9_小物
  6
CONTINUOUS
 62
    3
 10
31.725974999998641
 20
-168.40505500001143
 11
33.723234999998738
 21
-168.30038000001139
  0
LINE
  8
_0-9_小物
  6
CONTINUOUS
 62
    3
 10
33.461554999999123
 20
-163.3072350000117
 11
33.566224999998838
 21
-165.30449000001124
  0
LINE
  8
_0-9_小物
  6
CONTINUOUS
 62
    3
 10
31.359624999998402
 20
-161.41464500001177
 11
31.464294999999026
 21
-163.41190500001164
  0
LINE
  8
_0-9_小物
  6
CONTINUOUS
 62
    3
 10
31.464294999999026
 20
-163.41190500001164
 11
33.461554999999123
 21
-163.3072350000117
  0
LINE
  8
_0-9_小物
  6
CONTINUOUS
 62
    3
 10
33.099999999998943
 20
-160.50000000001125
 11
31.359624999998402
 21
-161.41464500001177
  0
LINE
  8
_0-9_小物
  6
CONTINUOUS
 62
    3
 10
23.691724999998939
 20
-183.27982500001156
 11
23.587054999999225
 21
-185.27708500001143
  0
LINE
  8
_0-9_小物
  6
CONTINUOUS
 62
    3
 10
23.84873499999884
 20
-180.28393500001164
 11
25.793654999998751
 21
-181.38723500001163
  0
LINE
  8
_0-9_小物
  6
CONTINUOUS
 62
    3
 10
25.793654999998751
 20
-181.38723500001163
 11
25.688984999998354
 21
-183.3844950000115
  0
LINE
  8
_0-9_小物
  6
CONTINUOUS
 62
    3
 10
25.688984999998354
 20
-183.3844950000115
 11
23.691724999998939
 21
-183.27982500001156
  0
LINE
  8
_0-9_小物
  6
CONTINUOUS
 62
    3
 10
23.953404999999691
 20
-178.28667500001131
 11
23.84873499999884
 21
-180.28393500001164
  0
LINE
  8
_0-9_小物
  6
CONTINUOUS
 62
    3
 10
24.110414999998454
 20
-175.29079000001127
 11
26.055334999998365
 21
-176.39409000001217
  0
LINE
  8
_0-9_小物
  6
CONTINUOUS
 62
    3
 10
26.055334999998365
 20
-176.39409000001217
 11
25.95066499999956
 21
-178.39135000001136
  0
LINE
  8
_0-9_小物
  6
CONTINUOUS
 62
    3
 10
25.95066499999956
 20
-178.39135000001136
 11
23.953404999999691
 21
-178.28667500001131
  0
LINE
  8
_0-9_小物
  6
CONTINUOUS
 62
    3
 10
24.215084999998169
 20
-173.29353000001117
 11
24.110414999998454
 21
-175.29079000001127
  0
LINE
  8
_0-9_小物
  6
CONTINUOUS
 62
    3
 10
24.372094999998069
 20
-170.29764000001217
 11
26.317014999998889
 21
-171.40094000001125
  0
LINE
  8
_0-9_小物
  6
CONTINUOUS
 62
    3
 10
26.317014999998889
 20
-171.40094000001125
 11
26.212344999999175
 21
-173.39820000001134
  0
LINE
  8
_0-9_小物
  6
CONTINUOUS
 62
    3
 10
26.212344999999175
 20
-173.39820000001134
 11
24.215084999998169
 21
-173.29353000001117
  0
LINE
  8
_0-9_小物
  6
CONTINUOUS
 62
    3
 10
24.47676499999892
 20
-168.30038000001139
 11
24.372094999998069
 21
-170.29764000001217
  0
LINE
  8
_0-9_小物
  6
CONTINUOUS
 62
    3
 10
24.633774999999503
 20
-165.30449000001124
 11
26.578694999999641
 21
-166.40779500001156
  0
LINE
  8
_0-9_小物
  6
CONTINUOUS
 62
    3
 10
26.578694999999641
 20
-166.40779500001156
 11
26.47402499999879
 21
-168.40505500001143
  0
LINE
  8
_0-9_小物
  6
CONTINUOUS
 62
    3
 10
26.47402499999879
 20
-168.40505500001143
 11
24.47676499999892
 21
-168.30038000001139
  0
LINE
  8
_0-9_小物
  6
CONTINUOUS
 62
    3
 10
24.738444999998535
 20
-163.3072350000117
 11
24.633774999999503
 21
-165.30449000001124
  0
LINE
  8
_0-9_小物
  6
CONTINUOUS
 62
    3
 10
26.840374999999256
 20
-161.41464500001177
 11
26.735704999998404
 21
-163.41190500001164
  0
LINE
  8
_0-9_小物
  6
CONTINUOUS
 62
    3
 10
26.735704999998404
 20
-163.41190500001164
 11
24.738444999998535
 21
-163.3072350000117
  0
LINE
  8
_0-9_小物
  6
CONTINUOUS
 62
    3
 10
25.099999999999625
 20
-160.50000000001125
 11
26.840374999999256
 21
-161.41464500001177
  0
LINE
  8
_0-9_小物
  6
CONTINUOUS
 62
    3
 10
33.723234999998738
 20
-168.30038000001139
 11
35.418599999998321
 21
-163.64240000001189
  0
LINE
  8
_0-9_小物
  6
CONTINUOUS
 62
    3
 10
32.659054999999341
 20
-168.30038000001139
 11
34.478909999999075
 21
-163.30038000001161
  0
LINE
  8
_0-9_小物
  6
CONTINUOUS
 62
    3
 10
24.47676499999892
 20
-168.30038000001139
 11
22.781399999999337
 21
-163.64240000001189
  0
LINE
  8
_0-9_小物
  6
CONTINUOUS
 62
    3
 10
25.540944999998317
 20
-168.30038000001139
 11
23.721089999998583
 21
-163.30038000001161
  0
LINE
  8
_0-9_小物
  6
CONTINUOUS
 62
    3
 10
31.11774499999882
 20
-185.46026000001177
 11
34.612944999998206
 21
-185.27708500001143
  0
LINE
  8
_0-9_小物
  6
CONTINUOUS
 62
    3
 10
34.612944999998206
 20
-185.27708500001143
 11
32.720359999998607
 21
-187.37901500001124
  0
LINE
  8
_0-9_小物
  6
CONTINUOUS
 62
    3
 10
32.720359999998607
 20
-187.37901500001124
 11
31.222414999999671
 21
-187.45752000001187
  0
LINE
  8
_0-9_小物
  6
CONTINUOUS
 62
    3
 10
31.222414999999671
 20
-187.45752000001187
 11
29.599999999999625
 21
-156.50000000001194
  0
LINE
  8
_0-9_小物
  6
CONTINUOUS
 62
    3
 10
33.099999999998943
 20
-160.50000000001125
 11
33.099999999998943
 21
-156.50000000001194
  0
LINE
  8
_0-9_小物
  6
CONTINUOUS
 62
    3
 10
27.082254999998611
 20
-185.46026000001177
 11
23.587054999999225
 21
-185.27708500001143
  0
LINE
  8
_0-9_小物
  6
CONTINUOUS
 62
    3
 10
23.587054999999225
 20
-185.27708500001143
 11
25.479639999998824
 21
-187.37901500001124
  0
LINE
  8
_0-9_小物
  6
CONTINUOUS
 62
    3
 10
25.479639999998824
 20
-187.37901500001124
 11
26.977584999998896
 21
-187.45752000001187
  0
LINE
  8
_0-9_小物
  6
CONTINUOUS
 62
    3
 10
26.977584999998896
 20
-187.45752000001187
 11
28.599999999998943
 21
-156.50000000001194
  0
LINE
  8
_0-9_小物
  6
CONTINUOUS
 62
    3
 10
25.099999999999625
 20
-160.50000000001125
 11
25.099999999999625
 21
-156.50000000001194
  0
LINE
  8
_0-9_小物
  6
CONTINUOUS
 62
    3
 10
22.781399999999337
 20
-163.64240000001189
 11
21.789044999999021
 21
-156.83878000001084
  0
ARC
  8
_0-9_小物
  6
CONTINUOUS
 62
    3
 10
22.184854999999004
 20
-156.78104500001143
 40
0.4
 50
98.130101999958413
 51
188.29846599999553
  0
LINE
  8
_0-9_小物
  6
CONTINUOUS
 62
    3
 10
22.128284999997902
 20
-156.38506500001142
 11
22.325109999999256
 21
-156.35695000001112
  0
ARC
  8
_0-9_小物
  6
CONTINUOUS
 62
    3
 10
22.381679999999676
 20
-156.75293000001136
 40
0.4
 50
8.1301020000240456
 51
98.130102000221527
  0
LINE
  8
_0-9_小物
  6
CONTINUOUS
 62
    3
 10
22.77765999999923
 20
-156.69636000001162
 11
23.721089999998583
 21
-163.30038000001161
  0
LINE
  8
_0-9_小物
  6
CONTINUOUS
 62
    3
 10
35.418599999998321
 20
-163.64240000001189
 11
36.410954999998637
 21
-156.83878000001084
  0
ARC
  8
_0-9_小物
  6
CONTINUOUS
 62
    3
 10
36.015144999998654
 20
-156.78104500001143
 40
0.4
 50
351.70153399996417
 51
81.869898000041587
  0
LINE
  8
_0-9_小物
  6
CONTINUOUS
 62
    3
 10
36.071709999998745
 20
-156.38506500001142
 11
35.874889999998402
 21
-156.35695000001112
  0
ARC
  8
_0-9_小物
  6
CONTINUOUS
 62
    3
 10
35.818319999999574
 20
-156.75293000001136
 40
0.4
 50
81.869898000041587
 51
171.86989800000936
  0
LINE
  8
_0-9_小物
  6
CONTINUOUS
 62
    3
 10
35.422339999998428
 20
-156.69636000001162
 11
34.478909999999075
 21
-163.30038000001161
  0
LINE
  8
_0-9_小物
  6
CONTINUOUS
 62
    3
 10
35.418599999998321
 20
-163.64240000001189
 11
36.410954999998637
 21
-156.83878000001084
  0
ARC
  8
_0-9_小物
  6
CONTINUOUS
 62
    3
 10
36.015144999998654
 20
-156.78104500001143
 40
0.4
 50
351.70153399996417
 51
81.869898000041587
  0
LINE
  8
_0-9_小物
  6
CONTINUOUS
 62
    3
 10
36.071709999998745
 20
-156.38506500001142
 11
35.874889999998402
 21
-156.35695000001112
  0
ARC
  8
_0-9_小物
  6
CONTINUOUS
 62
    3
 10
35.818319999999574
 20
-156.75293000001136
 40
0.4
 50
81.869898000041587
 51
171.86989800000936
  0
LINE
  8
_0-9_小物
  6
CONTINUOUS
 62
    3
 10
35.422339999998428
 20
-156.69636000001162
 11
34.478909999999075
 21
-163.30038000001161
  0
LINE
  8
_0-9_小物
  6
CONTINUOUS
 62
    3
 10
34.099999999999625
 20
-148.50000000001125
 11
33.099999999998943
 21
-153.50000000001125
  0
LINE
  8
_0-9_小物
  6
CONTINUOUS
 62
    3
 10
33.099999999998943
 20
-148.50000000001125
 11
33.099999999998943
 21
-156.50000000001194
  0
LINE
  8
_0-9_小物
  6
CONTINUOUS
 62
    3
 10
29.599999999999625
 20
-156.50000000001194
 11
29.099999999999852
 21
-156.50000000001194
  0
LINE
  8
_0-9_小物
  6
CONTINUOUS
 62
    3
 10
29.099999999999852
 20
-153.50000000001125
 11
29.099999999999852
 21
-148.50000000001125
  0
LINE
  8
_0-9_小物
  6
CONTINUOUS
 62
    3
 10
30.099999999998943
 20
-148.50000000001125
 11
29.099999999999852
 21
-153.50000000001125
  0
LINE
  8
_0-9_小物
  6
CONTINUOUS
 62
    3
 10
28.099999999998715
 20
-148.50000000001125
 11
29.099999999999852
 21
-153.50000000001125
  0
LINE
  8
_0-9_小物
  6
CONTINUOUS
 62
    3
 10
24.099999999999625
 20
-148.50000000001125
 11
25.099999999999625
 21
-153.50000000001125
  0
LINE
  8
_0-9_小物
  6
CONTINUOUS
 62
    3
 10
25.099999999999625
 20
-148.50000000001125
 11
25.099999999999625
 21
-156.50000000001194
  0
LINE
  8
_0-9_小物
  6
CONTINUOUS
 62
    3
 10
28.599999999998943
 20
-156.50000000001194
 11
29.099999999999852
 21
-156.50000000001194
  0
LINE
  8
_0-9_小物
  6
CONTINUOUS
 62
    3
 10
34.099999999999625
 20
-148.50000000001125
 11
24.099999999999625
 21
-148.50000000001125
  0
ENDBLK
  0
ENDSEC
  0
SECTION
  2
ENTITIES
  0
LINE
  8
_f-0_
  6
CONTINUOUS
 62
    6
 10
19.999999999999943
 20
20.000000000000114
 11
820.99999999999989
 21
20.000000000000114
  0
LINE
  8
_f-0_
  6
CONTINUOUS
 62
    6
 10
19.999999999999943
 20
554
 11
19.999999999999943
 21
20.000000000000114
  0
LINE
  8
_f-0_
  6
CONTINUOUS
 62
    6
 10
821
 20
554
 11
19.999999999999943
 21
554
  0
LINE
  8
_f-0_
  6
CONTINUOUS
 62
    6
 10
820.99999999999989
 20
20.000000000000114
 11
821
 21
554
  0
LINE
  8
_f-0_
  6
CONTINUOUS
 62
    6
 10
19.999999999999943
 20
287.00000000000011
 11
821
 21
287.00000000000011
  0
LINE
  8
_1-0_
  6
CONTINUOUS
 62
    2
 10
704.19999999999959
 20
499.99028008718818
 11
704.19999999999959
 21
493.19028008719044
  0
LINE
  8
_1-0_
  6
CONTINUOUS
 62
    2
 10
706.19999999999959
 20
494.19028008719044
 11
718.60000000000014
 21
494.19028008719044
  0
LINE
  8
_1-0_
  6
CONTINUOUS
 62
    2
 10
704.19999999999959
 20
499.99028008718818
 11
704.19999999999959
 21
493.19028008719044
  0
LINE
  8
_1-0_
  6
CONTINUOUS
 62
    2
 10
718.60000000000014
 20
493.19028008719044
 11
704.19999999999959
 21
493.19028008719044
  0
LINE
  8
_1-0_
  6
CONTINUOUS
 62
    2
 10
763
 20
499.94028008718817
 11
763
 21
494.19268292630818
  0
LINE
  8
_1-0_
  6
CONTINUOUS
 62
    2
 10
706.19999999999959
 20
499.99028008718818
 11
706.19999999999959
 21
494.19028008718817
  0
LINE
  8
_1-0_
  6
CONTINUOUS
 62
    2
 10
738.60000000000014
 20
494.19028008718817
 11
763
 21
494.19028008718817
  0
LINE
  8
_1-0_
  6
CONTINUOUS
 62
    2
 10
763
 20
499.99028008718818
 11
763
 21
494.19028008718817
  0
INSERT
  2
-000-HATCHING
  8
_1-0_
 10
420.5
 20
297
 41
1
 42
1
 50
0
  0
LINE
  8
_1-0_
  6
CONTINUOUS
 62
    2
 10
765.00000000000034
 20
493.19028008718817
 11
765.00000000000034
 21
499.99028008718818
  0
LINE
  8
_1-0_
  6
CONTINUOUS
 62
    2
 10
738.60000000000036
 20
493.19028008718817
 11
765.00000000000034
 21
493.19028008718817
  0
INSERT
  2
-001-HATCHING_1_
  8
_1-0_
 10
420.5
 20
297
 41
1
 42
1
 50
0
  0
LINE
  8
_1-0_
  6
CENTER1
 62
    2
 10
728.60000000000014
 20
494.19028008718817
 11
728.60000000000014
 21
474.19028008718817
  0
LINE
  8
_1-0_
  6
CONTINUOUS
 62
    2
 10
738.60000000000014
 20
494.19028008718817
 11
738.60000000000014
 21
474.19028008718817
  0
LINE
  8
_1-0_
  6
CONTINUOUS
 62
    2
 10
718.60000000000014
 20
494.19028008719044
 11
718.60000000000014
 21
474.19028008718817
  0
LINE
  8
_1-0_
  6
CONTINUOUS
 62
    2
 10
763
 20
499.99028008718818
 11
771
 21
499.99028008718818
  0
LINE
  8
_1-0_
  6
CONTINUOUS
 62
    2
 10
698.19999999999982
 20
499.99028008718818
 11
706.19999999999959
 21
499.99028008718818
  0
LINE
  8
_1-f_
  6
CONTINUOUS
 62
    4
 10
764
 20
494.19028008718817
 11
792
 21
494.19028008718817
  0
LINE
  8
_1-f_
  6
CONTINUOUS
 62
    4
 10
772
 20
499.99028008718818
 11
792
 21
499.99028008718818
  0
POINT
  8
_1-f_
 62
    4
 10
791
 20
499.99028008718818
  0
POINT
  8
_1-f_
 62
    4
 10
791
 20
494.19028008718817
  0
LINE
  8
_1-f_
  6
CONTINUOUS
 62
    4
 10
791
 20
499.99028008718818
 11
791
 21
494.19028008718817
  0
TEXT
  8
_1-f_
 62
    4
 10
791
 20
493.49028008718807
 40
9
 41
0.8
 50
90
  1
29
  0
LINE
  8
_1-f_
  6
CONTINUOUS
 62
    4
 10
705.19999999999959
 20
494.19028008719044
 11
677.19999999999982
 21
494.19028008719044
  0
LINE
  8
_1-f_
  6
CONTINUOUS
 62
    4
 10
697.19999999999982
 20
499.99028008718818
 11
677.19999999999982
 21
499.99028008718818
  0
POINT
  8
_1-f_
 62
    4
 10
678.19999999999982
 20
499.99028008718818
  0
POINT
  8
_1-f_
 62
    4
 10
678.19999999999982
 20
494.19028008719044
  0
LINE
  8
_1-f_
  6
CONTINUOUS
 62
    4
 10
678.19999999999982
 20
499.99028008718818
 11
678.19999999999982
 21
494.19028008719044
  0
TEXT
  8
_1-f_
 62
    4
 10
678.19999999999982
 20
493.49028008718926
 40
9
 41
0.8
 50
90
  1
29
  0
LINE
  8
_1-f_
  6
CONTINUOUS
 62
    4
 10
718.60000000000014
 20
495.19028008719044
 11
718.60000000000014
 21
520.99028008718813
  0
LINE
  8
_1-f_
  6
CONTINUOUS
 62
    4
 10
706.19999999999959
 20
500.99028008718818
 11
706.19999999999959
 21
520.99028008718813
  0
POINT
  8
_1-f_
 62
    4
 10
706.19999999999959
 20
519.99028008718813
  0
POINT
  8
_1-f_
 62
    4
 10
718.60000000000014
 20
519.99028008718813
  0
LINE
  8
_1-f_
  6
CONTINUOUS
 62
    4
 10
706.19999999999959
 20
519.99028008718813
 11
718.60000000000014
 21
519.99028008718813
  0
TEXT
  8
_1-f_
 62
    4
 10
708.79999999999995
 20
519.99028008718813
 40
9
 41
0.8
 50
0
  1
62
  0
LINE
  8
_1-f_
  6
CONTINUOUS
 62
    4
 10
738.60000000000014
 20
495.19028008718817
 11
738.60000000000014
 21
520.99028008718813
  0
POINT
  8
_1-f_
 62
    4
 10
718.60000000000014
 20
519.99028008718813
  0
POINT
  8
_1-f_
 62
    4
 10
738.60000000000014
 20
519.99028008718813
  0
LINE
  8
_1-f_
  6
CONTINUOUS
 62
    4
 10
718.60000000000014
 20
519.99028008718813
 11
738.60000000000014
 21
519.99028008718813
  0
TEXT
  8
_1-f_
 62
    4
 10
723.20000000000016
 20
519.99028008718813
 40
9
 41
0.8
 50
0
  1
100
  0
LINE
  8
_1-f_
  6
CONTINUOUS
 62
    4
 10
763
 20
500.99028008718818
 11
763
 21
520.99028008718813
  0
POINT
  8
_1-f_
 62
    4
 10
738.60000000000014
 20
519.99028008718813
  0
POINT
  8
_1-f_
 62
    4
 10
763
 20
519.99028008718813
  0
LINE
  8
_1-f_
  6
CONTINUOUS
 62
    4
 10
738.60000000000014
 20
519.99028008718813
 11
763
 21
519.99028008718813
  0
TEXT
  8
_1-f_
 62
    4
 10
745.40000000000009
 20
519.99028008718813
 40
9
 41
0.8
 50
0
  1
122
  0
LINE
  8
_1-0_
  6
CONTINUOUS
 62
    2
 10
738.60000000000014
 20
223.41927353993916
 11
763.00000000000011
 21
223.41927353993916
  0
LINE
  8
_1-0_
  6
CONTINUOUS
 62
    2
 10
763.00000000000011
 20
229.21927353993917
 11
763.00000000000011
 21
223.41927353993916
  0
LINE
  8
_1-0_
  6
CONTINUOUS
 62
    2
 10
738.60000000000036
 20
222.41927353993916
 11
765.00000000000034
 21
222.41927353993916
  0
LINE
  8
_1-0_
  6
CONTINUOUS
 62
    2
 10
765.00000000000034
 20
222.41927353993916
 11
765.00000000000034
 21
229.21927353993917
  0
INSERT
  2
-002-HATCHING_2_
  8
_1-0_
 10
420.5
 20
297
 41
1
 42
1
 50
0
  0
LINE
  8
_1-0_
  6
CONTINUOUS
 62
    2
 10
718.59999999999957
 20
240.41927353994143
 11
718.59999999999957
 21
203.41927353994146
  0
LINE
  8
_1-0_
  6
CONTINUOUS
 62
    2
 10
738.59999999999957
 20
223.41927353994143
 11
738.59999999999957
 21
203.41927353994146
  0
LINE
  8
_1-0_
  6
CENTER1
 62
    2
 10
728.60000000000014
 20
223.41927353993916
 11
728.60000000000014
 21
203.41927353994146
  0
LINE
  8
_1-0_
  6
CONTINUOUS
 62
    2
 10
763.00000000000011
 20
229.21927353993908
 11
771
 21
229.21927353993908
  0
LINE
  8
_1-f_
  6
CONTINUOUS
 62
    4
 10
738.59999999999957
 20
224.41927353994143
 11
738.59999999999957
 21
250.21927353993917
  0
LINE
  8
_1-f_
  6
CONTINUOUS
 62
    4
 10
763.00000000000011
 20
230.21927353993917
 11
763.00000000000011
 21
250.21927353993917
  0
POINT
  8
_1-f_
 62
    4
 10
763.00000000000011
 20
249.21927353993917
  0
POINT
  8
_1-f_
 62
    4
 10
738.59999999999957
 20
249.21927353993917
  0
LINE
  8
_1-f_
  6
CONTINUOUS
 62
    4
 10
763.00000000000011
 20
249.21927353993917
 11
738.59999999999957
 21
249.21927353993917
  0
TEXT
  8
_1-f_
 62
    4
 10
745.39999999999975
 20
249.21927353993917
 40
9
 41
0.8
 50
0
  1
122
  0
LINE
  8
_1-f_
  6
CONTINUOUS
 62
    4
 10
718.59999999999957
 20
241.41927353994143
 11
718.59999999999957
 21
250.21927353993917
  0
POINT
  8
_1-f_
 62
    4
 10
738.59999999999957
 20
249.21927353993917
  0
POINT
  8
_1-f_
 62
    4
 10
718.59999999999957
 20
249.21927353993917
  0
LINE
  8
_1-f_
  6
CONTINUOUS
 62
    4
 10
738.59999999999957
 20
249.21927353993917
 11
718.59999999999957
 21
249.21927353993917
  0
TEXT
  8
_1-f_
 62
    4
 10
723.19999999999959
 20
249.21927353993917
 40
9
 41
0.8
 50
0
  1
100
  0
LINE
  8
_1-f_
  6
CONTINUOUS
 62
    4
 10
764.00000000000011
 20
223.41927353993916
 11
792
 21
223.41927353993916
  0
LINE
  8
_1-f_
  6
CONTINUOUS
 62
    4
 10
772
 20
229.21927353993908
 11
792
 21
229.21927353993908
  0
POINT
  8
_1-f_
 62
    4
 10
791
 20
229.21927353993908
  0
POINT
  8
_1-f_
 62
    4
 10
791
 20
223.41927353993916
  0
LINE
  8
_1-f_
  6
CONTINUOUS
 62
    4
 10
791
 20
229.21927353993908
 11
791
 21
223.41927353993916
  0
TEXT
  8
_1-f_
 62
    4
 10
791
 20
222.71927353993917
 40
9
 41
0.8
 50
90
  1
29
  0
LINE
  8
_1-f_
  6
CONTINUOUS
 62
    4
 10
801
 20
268.21927353993914
 11
659.19999999999982
 21
268.21927353993914
  0
LINE
  8
_1-f_
  6
CONTINUOUS
 62
    4
 10
801
 20
268.21927353993914
 11
801
 21
181.41927353994146
  0
LINE
  8
_1-f_
  6
CONTINUOUS
 62
    4
 10
659.19999999999982
 20
181.41927353994146
 11
801
 21
181.41927353994146
  0
LINE
  8
_1-f_
  6
CONTINUOUS
 62
    4
 10
659.19999999999982
 20
268.21927353993914
 11
659.19999999999982
 21
181.41927353994146
  0
LINE
  8
_1-f_
  6
CONTINUOUS
 62
    4
 10
801
 20
538.99028008718585
 11
659.19999999999982
 21
538.99028008718585
  0
LINE
  8
_1-f_
  6
CONTINUOUS
 62
    4
 10
801
 20
538.99028008718585
 11
801
 21
452.19028008718817
  0
LINE
  8
_1-f_
  6
CONTINUOUS
 62
    4
 10
659.19999999999982
 20
452.19028008718817
 11
801
 21
452.19028008718817
  0
LINE
  8
_1-f_
  6
CONTINUOUS
 62
    4
 10
659.19999999999982
 20
538.99028008718585
 11
659.19999999999982
 21
452.19028008718817
  0
LINE
  8
_0-0_躯体
  6
CONTINUOUS
 62
    2
 10
359.60000000000076
 20
148.49999999998875
 11
481.60000000000076
 21
148.49999999998875
  0
LINE
  8
_0-0_躯体
  6
CONTINUOUS
 62
    2
 10
481.60000000000076
 20
177.49999999998875
 11
481.60000000000076
 21
148.49999999998875
  0
LINE
  8
_0-0_躯体
  6
CONTINUOUS
 62
    2
 10
359.60000000000122
 20
143.49999999998886
 11
491.60000000000122
 21
143.49999999998886
  0
LINE
  8
_0-0_躯体
  6
CONTINUOUS
 62
    2
 10
491.60000000000122
 20
143.49999999998886
 11
491.60000000000122
 21
177.49999999998875
  0
INSERT
  2
-003-HATCHING_3_
  8
_0-0_躯体
 10
420.5
 20
297
 41
1
 42
1
 50
0
  0
LINE
  8
_0-a_
  6
CONTINUOUS
 62
    3
 10
260.59999999999394
 20
148.63165249759959
 11
279.97735420897374
 21
76.314382073428646
  0
LINE
  8
_0-a_
  6
CONTINUOUS
 62
    3
 10
259.59999999999485
 20
148.50000000000614
 11
279.0114283826835
 21
76.055563028326219
  0
ARC
  8
_0-a_
  6
CONTINUOUS
 62
    3
 10
309.59999999999553
 20
84.25174609080625
 40
30.667619588170769
 50
195.00000000000011
 51
344.99999999999989
  0
ARC
  8
_0-a_
  6
CONTINUOUS
 62
    3
 10
309.59999999999553
 20
84.25174609080625
 40
31.667619588170766
 50
194.99999999999989
 51
345.00000000000006
  0
LINE
  8
_0-a_
  6
CONTINUOUS
 62
    3
 10
260.59999999999644
 20
148.63165249759209
 11
260.59999999999644
 21
207.99999999968543
  0
LINE
  8
_0-a_
  6
CONTINUOUS
 62
    3
 10
268.10000000000235
 20
170.30000000001166
 11
268.10000000000235
 21
163.30000000001166
  0
LINE
  8
_0-a_
  6
CONTINUOUS
 62
    3
 10
268.10000000000235
 20
163.30000000001166
 11
270.10000000000235
 21
163.30000000001166
  0
LINE
  8
_0-a_
  6
CONTINUOUS
 62
    3
 10
270.10000000000235
 20
169.30000000001166
 11
270.10000000000235
 21
163.30000000001166
  0
LINE
  8
_0-a_
  6
CONTINUOUS
 62
    3
 10
274.10000000000258
 20
172.30000000001166
 11
274.10000000000258
 21
175.30000000001166
  0
LINE
  8
_0-a_
  6
CONTINUOUS
 62
    3
 10
274.10000000000258
 20
172.30000000001166
 11
412.10000000000235
 21
172.30000000001166
  0
LINE
  8
_0-a_
  6
CONTINUOUS
 62
    3
 10
270.10000000000235
 20
169.30000000001166
 11
298.57711058003036
 21
169.30000000001166
  0
LINE
  8
_0-a_
  6
CONTINUOUS
 62
    3
 10
298.57711058003036
 20
169.30000000001166
 11
416.10000000000235
 21
169.30000000001166
  0
LINE
  8
_0-a_
  6
CONTINUOUS
 62
    3
 10
283.59999995219226
 20
207.25000017013713
 11
284.59999995219181
 21
206.25000017013781
  0
LINE
  8
_0-a_
  6
CONTINUOUS
 62
    3
 10
283.59999995219226
 20
207.25000017013713
 11
283.59999995219226
 21
215.75000017013872
  0
LINE
  8
_0-a_
  6
CONTINUOUS
 62
    3
 10
283.59999995219226
 20
215.75000017013872
 11
284.59999995219181
 21
216.75000017013804
  0
LINE
  8
_0-a_
  6
CONTINUOUS
 62
    3
 10
283.59999995219226
 20
207.25000017013713
 11
283.09999995219226
 21
207.25000017013713
  0
LINE
  8
_0-a_
  6
CONTINUOUS
 62
    3
 10
283.59999995219226
 20
215.75000017013872
 11
283.09999995219226
 21
215.75000017013872
  0
LINE
  8
_0-a_
  6
CONTINUOUS
 62
    3
 10
283.09999995219226
 20
224.00000017013826
 11
272.09999995219226
 21
224.00000017013826
  0
LINE
  8
_0-a_
  6
CONTINUOUS
 62
    3
 10
283.09999995219226
 20
182.00000017013781
 11
283.09999995219226
 21
224.00000017013826
  0
LINE
  8
_0-a_
  6
CONTINUOUS
 62
    3
 10
270.59999995219226
 20
225.50000017013826
 11
284.59999995219181
 21
225.50000017013826
  0
LINE
  8
_0-a_
  6
CONTINUOUS
 62
    3
 10
284.59999995219181
 20
225.50000017013826
 11
284.59999995219181
 21
180.50000017013826
  0
LINE
  8
_0-a_
  6
CONTINUOUS
 62
    3
 10
270.59999995219226
 20
225.50000017013826
 11
270.59999995219226
 21
215.50000017013826
  0
LINE
  8
_0-a_
  6
CONTINUOUS
 62
    3
 10
272.09999995219204
 20
215.50000017013826
 11
270.59999995219226
 21
215.50000017013826
  0
LINE
  8
_0-a_
  6
CONTINUOUS
 62
    3
 10
272.09999995219204
 20
224.00000017013826
 11
272.09999995219204
 21
215.50000017013826
  0
LINE
  8
_0-a_
  6
CONTINUOUS
 62
    3
 10
274.59999995219158
 20
182.00000017013781
 11
283.09999995219226
 21
182.00000017013781
  0
LINE
  8
_0-a_
  6
CONTINUOUS
 62
    3
 10
274.59999995219158
 20
182.00000017013781
 11
274.59999995219158
 21
180.50000017013826
  0
LINE
  8
_0-a_
  6
CONTINUOUS
 62
    3
 10
284.59999995219181
 20
180.50000017013826
 11
274.59999995219158
 21
180.50000017013826
  0
LINE
  8
_0-a_
  6
CONTINUOUS
 62
    3
 10
281.20000051039364
 20
163.30000060179464
 11
280.70000051039409
 21
163.30000060179464
  0
LINE
  8
_0-a_
  6
CONTINUOUS
 62
    3
 10
281.20000051039364
 20
166.30000060179418
 11
281.20000051039364
 21
163.30000060179464
  0
LINE
  8
_0-a_
  6
CONTINUOUS
 62
    3
 10
280.70000051039409
 20
163.30000060179464
 11
281.19999926039685
 21
161.30000060179452
  0
LINE
  8
_0-a_
  6
CONTINUOUS
 62
    3
 10
278.20000183465135
 20
163.30000060179464
 11
278.70000183465089
 21
163.30000060179464
  0
LINE
  8
_0-a_
  6
CONTINUOUS
 62
    3
 10
278.20000183465135
 20
166.30000060179418
 11
278.20000183465135
 21
163.30000060179464
  0
LINE
  8
_0-a_
  6
CONTINUOUS
 62
    3
 10
278.70000183465089
 20
163.30000060179464
 11
278.20000308464836
 21
161.30000060179452
  0
ARC
  8
_0-a_
  6
CONTINUOUS
 62
    3
 10
279.70000117252192
 20
166.30000060179418
 40
1.4999993378710599
 50
0
 51
180
  0
LINE
  8
_0-a_
  6
CONTINUOUS
 62
    3
 10
281.29999999137266
 20
203.00000071498323
 11
281.29999977370329
 21
205.50000060179434
  0
LINE
  8
_0-a_
  6
CONTINUOUS
 62
    3
 10
281.29999977370329
 20
205.50000060179434
 11
262.39999545512654
 21
205.49999895620806
  0
LINE
  8
_0-a_
  6
CONTINUOUS
 62
    3
 10
283.09999996525215
 20
203.00000071498323
 11
281.29999999137266
 21
203.00000071498323
  0
LINE
  8
_0-a_
  6
CONTINUOUS
 62
    3
 10
281.29999999137266
 20
217.80000034059049
 11
281.29999999137266
 21
222.40000071498332
  0
LINE
  8
_0-a_
  6
CONTINUOUS
 62
    3
 10
278.29999999137311
 20
217.80000034059049
 11
281.29999999137266
 21
217.80000034059049
  0
LINE
  8
_0-a_
  6
CONTINUOUS
 62
    3
 10
283.09999999137329
 20
216.00000034059008
 11
280.09999999137307
 21
216.00000034059008
  0
LINE
  8
_0-a_
  6
CONTINUOUS
 62
    3
 10
279.79999999137243
 20
211.50000054955365
 11
280.09999999137307
 21
211.20000054955392
  0
LINE
  8
_0-a_
  6
CONTINUOUS
 62
    3
 10
280.09999999137307
 20
216.00000034059008
 11
280.09999999137307
 21
211.80000054955383
  0
LINE
  8
_0-a_
  6
CONTINUOUS
 62
    3
 10
280.09999999137307
 20
211.80000054955383
 11
279.79999999137243
 21
211.50000054955365
  0
LINE
  8
_0-a_
  6
CONTINUOUS
 62
    3
 10
281.29999977370329
 20
205.50000060179434
 11
262.399995481247
 21
205.49999895620772
  0
LINE
  8
_0-a_
  6
CONTINUOUS
 62
    3
 10
278.79999999137266
 20
224.000000714983
 11
282.09999999137239
 21
224.000000714983
  0
ARC
  8
_0-a_
  6
CONTINUOUS
 62
    3
 10
278.79999999137266
 20
223.50000071498278
 40
0.5
 50
90
 51
180
  0
LINE
  8
_0-a_
  6
CONTINUOUS
 62
    3
 10
278.29999999137311
 20
222.40000071498332
 11
278.29999999137311
 21
223.50000071498278
  0
LINE
  8
_0-a_
  6
CONTINUOUS
 62
    3
 10
281.29999999137266
 20
222.40000071498332
 11
278.29999999137311
 21
222.40000071498332
  0
ARC
  8
_0-a_
  6
CONTINUOUS
 62
    3
 10
282.09999999137239
 20
223.00000071498266
 40
1
 50
0
 51
90
  0
LINE
  8
_0-a_
  6
CONTINUOUS
 62
    3
 10
283.09999999137239
 20
223.00000071498278
 11
283.09999999137329
 21
216.00000034059008
  0
LINE
  8
_0-a_
  6
CONTINUOUS
 62
    3
 10
283.09999996525215
 20
206.99999999968543
 11
283.09999996525215
 21
203.00000071498323
  0
LINE
  8
_0-a_
  6
CONTINUOUS
 62
    3
 10
280.09999999137307
 20
211.20000054955392
 11
280.09999999137307
 21
206.99999999968543
  0
LINE
  8
_0-a_
  6
CONTINUOUS
 62
    3
 10
278.29999999137311
 20
206.99999999968543
 11
278.29999999137311
 21
217.80000034059049
  0
LINE
  8
_0-a_
  6
CONTINUOUS
 62
    3
 10
260.59999999137239
 20
206.99999999968543
 11
278.29999999137311
 21
206.99999999968543
  0
LINE
  8
_0-a_
  6
CONTINUOUS
 62
    3
 10
280.09999999137307
 20
206.99999999968543
 11
283.09999996525215
 21
206.99999999968543
  0
LINE
  8
_0-a_
  6
CONTINUOUS
 62
    3
 10
276.20000117252306
 20
156.00000030635783
 11
264.39999939060243
 21
155.99999957498699
  0
ARC
  8
_0-a_
  6
CONTINUOUS
 62
    3
 10
264.39999939060243
 20
157.99999957498699
 40
2
 50
180.00000498863071
 51
270
  0
ARC
  8
_0-a_
  6
CONTINUOUS
 62
    3
 10
276.20000117252306
 20
158.00000030635795
 40
2
 50
270
 51
0
  0
LINE
  8
_0-a_
  6
CONTINUOUS
 62
    3
 10
278.20000117252306
 20
158.00000030635795
 11
278.20000117252306
 21
161.30000060179452
  0
LINE
  8
_0-a_
  6
CONTINUOUS
 62
    3
 10
281.2000011725226
 20
153.49999999968531
 11
281.2000011725226
 21
161.30000060179452
  0
LINE
  8
_0-a_
  6
CONTINUOUS
 62
    3
 10
260.60000000878603
 20
153.49999999968531
 11
281.2000011725226
 21
153.49999999968531
  0
LINE
  8
_0-a_
  6
CONTINUOUS
 62
    3
 10
260.60000000878603
 20
153.49999999968531
 11
260.59999999137239
 21
206.99999999968543
  0
LINE
  8
_0-a_
  6
CONTINUOUS
 62
    3
 10
262.3999968133873
 20
180.20000132312612
 11
262.09999813682856
 21
180.49999999968531
  0
LINE
  8
_0-a_
  6
CONTINUOUS
 62
    3
 10
262.09999813682856
 20
180.49999999968531
 11
262.39999818035102
 21
180.80000004320823
  0
LINE
  8
_0-a_
  6
CONTINUOUS
 62
    3
 10
262.39999939060266
 20
157.99999940085081
 11
262.39999751771956
 21
180.20000132312623
  0
LINE
  8
_0-a_
  6
CONTINUOUS
 62
    3
 10
262.39999763182749
 20
180.80000004320812
 11
262.399995481247
 21
205.49999895620772
  0
LINE
  8
_0-a_
  6
CONTINUOUS
 62
    3
 10
284.59999998258303
 20
206.50000071529735
 11
284.59999998258303
 21
216.50000071529701
  0
LINE
  8
_0-a_
  6
CONTINUOUS
 62
    3
 10
268.59999998258257
 20
211.50000071529712
 11
269.78356803442165
 21
213.55000071529707
  0
LINE
  8
_0-a_
  6
CONTINUOUS
 62
    3
 10
268.59999998258257
 20
211.50000071529712
 11
269.78356803442165
 21
209.45000071529728
  0
LINE
  8
_0-a_
  6
CONTINUOUS
 62
    3
 10
277.80738170192575
 20
209.71000071529704
 11
277.45519756159086
 21
209.10000071529691
  0
LINE
  8
_0-a_
  6
CONTINUOUS
 62
    3
 10
277.45519756159086
 20
209.10000071529691
 11
277.10301342125598
 21
209.71000071529704
  0
LINE
  8
_0-a_
  6
CONTINUOUS
 62
    3
 10
275.79999998258285
 20
213.29000071529731
 11
276.15218412291773
 21
213.90000071529744
  0
LINE
  8
_0-a_
  6
CONTINUOUS
 62
    3
 10
276.15218412291773
 20
213.90000071529744
 11
276.50436826325262
 21
213.29000071529731
  0
LINE
  8
_0-a_
  6
CONTINUOUS
 62
    3
 10
276.50436826325262
 20
213.29000071529731
 11
277.80738170192575
 21
209.71000071529704
  0
LINE
  8
_0-a_
  6
CONTINUOUS
 62
    3
 10
275.79999998258285
 20
213.29000071529731
 11
277.10301342125598
 21
209.71000071529704
  0
LINE
  8
_0-a_
  6
CONTINUOUS
 62
    3
 10
277.45519756159086
 20
209.10000071529691
 11
276.15218412291773
 21
213.90000071529744
  0
LINE
  8
_0-a_
  6
CONTINUOUS
 62
    3
 10
279.30738170192575
 20
209.71000071529704
 11
278.95519756159086
 21
209.10000071529691
  0
LINE
  8
_0-a_
  6
CONTINUOUS
 62
    3
 10
278.95519756159086
 20
209.10000071529691
 11
278.60301342125598
 21
209.71000071529704
  0
LINE
  8
_0-a_
  6
CONTINUOUS
 62
    3
 10
277.29999998258285
 20
213.29000071529731
 11
277.65218412291773
 21
213.90000071529744
  0
LINE
  8
_0-a_
  6
CONTINUOUS
 62
    3
 10
277.65218412291773
 20
213.90000071529744
 11
278.00436826325262
 21
213.29000071529731
  0
LINE
  8
_0-a_
  6
CONTINUOUS
 62
    3
 10
278.00436826325262
 20
213.29000071529731
 11
279.30738170192575
 21
209.71000071529704
  0
LINE
  8
_0-a_
  6
CONTINUOUS
 62
    3
 10
277.29999998258285
 20
213.29000071529731
 11
278.60301342125598
 21
209.71000071529704
  0
LINE
  8
_0-a_
  6
CONTINUOUS
 62
    3
 10
278.95519756159086
 20
209.10000071529691
 11
277.65218412291773
 21
213.90000071529744
  0
LINE
  8
_0-a_
  6
CONTINUOUS
 62
    3
 10
280.80738170192575
 20
209.71000071529704
 11
280.45519756159086
 21
209.10000071529691
  0
LINE
  8
_0-a_
  6
CONTINUOUS
 62
    3
 10
280.45519756159086
 20
209.10000071529691
 11
280.10301342125598
 21
209.71000071529704
  0
LINE
  8
_0-a_
  6
CONTINUOUS
 62
    3
 10
278.79999998258285
 20
213.29000071529731
 11
279.15218412291773
 21
213.90000071529744
  0
LINE
  8
_0-a_
  6
CONTINUOUS
 62
    3
 10
279.15218412291773
 20
213.90000071529744
 11
279.50436826325262
 21
213.29000071529731
  0
LINE
  8
_0-a_
  6
CONTINUOUS
 62
    3
 10
279.50436826325262
 20
213.29000071529731
 11
280.80738170192575
 21
209.71000071529704
  0
LINE
  8
_0-a_
  6
CONTINUOUS
 62
    3
 10
278.79999998258285
 20
213.29000071529731
 11
280.10301342125598
 21
209.71000071529704
  0
LINE
  8
_0-a_
  6
CONTINUOUS
 62
    3
 10
280.45519756159086
 20
209.10000071529691
 11
279.15218412291773
 21
213.90000071529744
  0
LINE
  8
_0-a_
  6
CONTINUOUS
 62
    3
 10
280.29999998258285
 20
213.29000071529731
 11
280.65218412291773
 21
213.90000071529744
  0
LINE
  8
_0-a_
  6
CONTINUOUS
 62
    3
 10
280.65218412291773
 20
213.90000071529744
 11
281.00436826325262
 21
213.29000071529731
  0
LINE
  8
_0-a_
  6
CONTINUOUS
 62
    3
 10
275.29999998258285
 20
213.55000071529707
 11
269.78356803442165
 21
213.55000071529707
  0
LINE
  8
_0-a_
  6
CONTINUOUS
 62
    3
 10
275.29999998258285
 20
209.45000071529728
 11
275.29999998258285
 21
213.55000071529707
  0
LINE
  8
_0-a_
  6
CONTINUOUS
 62
    3
 10
275.29999998258285
 20
209.45000071529728
 11
269.78356803442165
 21
209.45000071529728
  0
LINE
  8
_0-a_
  6
CONTINUOUS
 62
    3
 10
281.00436826325262
 20
213.29000071529731
 11
281.29999998258285
 21
212.47775924196276
  0
LINE
  8
_0-a_
  6
CONTINUOUS
 62
    3
 10
281.30369084225453
 20
211.50000071529712
 11
280.65218412291773
 21
213.90000071529744
  0
LINE
  8
_0-a_
  6
CONTINUOUS
 62
    3
 10
281.29999998258285
 20
213.29000071529731
 11
281.00436826325262
 21
213.29000071529731
  0
LINE
  8
_0-a_
  6
CONTINUOUS
 62
    3
 10
280.29999998258285
 20
213.29000071529731
 11
279.50436826325262
 21
213.29000071529731
  0
LINE
  8
_0-a_
  6
CONTINUOUS
 62
    3
 10
278.79999998258285
 20
213.29000071529731
 11
278.00436826325262
 21
213.29000071529731
  0
LINE
  8
_0-a_
  6
CONTINUOUS
 62
    3
 10
277.29999998258285
 20
213.29000071529731
 11
276.50436826325262
 21
213.29000071529731
  0
LINE
  8
_0-a_
  6
CONTINUOUS
 62
    3
 10
275.79999998258285
 20
213.29000071529731
 11
275.29999998258285
 21
213.29000071529731
  0
LINE
  8
_0-a_
  6
CONTINUOUS
 62
    3
 10
281.29999998258285
 20
209.71000071529704
 11
280.80738170192575
 21
209.71000071529704
  0
LINE
  8
_0-a_
  6
CONTINUOUS
 62
    3
 10
277.10301342125598
 20
209.71000071529704
 11
275.29999998258285
 21
209.71000071529704
  0
LINE
  8
_0-a_
  6
CONTINUOUS
 62
    3
 10
278.60301342125598
 20
209.71000071529704
 11
277.80738170192575
 21
209.71000071529704
  0
LINE
  8
_0-a_
  6
CONTINUOUS
 62
    3
 10
280.10301342125598
 20
209.71000071529704
 11
279.30738170192575
 21
209.71000071529704
  0
LINE
  8
_0-a_
  6
CONTINUOUS
 62
    3
 10
275.29999998258285
 20
209.75000071529701
 11
269.95677311517869
 21
209.75000071529701
  0
LINE
  8
_0-a_
  6
CONTINUOUS
 62
    3
 10
268.94641014409666
 20
211.50000071529712
 11
269.95677311517869
 21
209.75000071529701
  0
LINE
  8
_0-a_
  6
CONTINUOUS
 62
    3
 10
268.94641014409666
 20
211.50000071529712
 11
275.29999998258285
 21
210.37969140241682
  0
LINE
  8
_0-a_
  6
CONTINUOUS
 62
    3
 10
284.59999998258303
 20
216.50000071529701
 11
284.39999998258276
 21
216.50000071529701
  0
LINE
  8
_0-a_
  6
CONTINUOUS
 62
    3
 10
284.39999998258276
 20
206.50000071529735
 11
284.39999998258276
 21
216.50000071529701
  0
LINE
  8
_0-a_
  6
CONTINUOUS
 62
    3
 10
284.59999998258303
 20
206.50000071529735
 11
284.39999998258276
 21
206.50000071529735
  0
LINE
  8
_0-a_
  6
CONTINUOUS
 62
    3
 10
284.39999998258276
 20
216.50000071529701
 11
281.29999998258285
 21
213.40000071529676
  0
LINE
  8
_0-a_
  6
CONTINUOUS
 62
    3
 10
281.29999998258285
 20
209.60000071529748
 11
281.29999998258285
 21
213.40000071529676
  0
LINE
  8
_0-a_
  6
CONTINUOUS
 62
    3
 10
284.39999998258276
 20
206.50000071529735
 11
281.29999998258285
 21
209.60000071529748
  0
LINE
  8
_0-a_
  6
CONTINUOUS
 62
    3
 10
263.8999974880814
 20
171.50000068347595
 11
263.8999974880814
 21
189.50000068347686
  0
LINE
  8
_0-a_
  6
CONTINUOUS
 62
    3
 10
262.3999974880814
 20
171.50000068347595
 11
262.3999974880814
 21
189.50000068347686
  0
LINE
  8
_0-a_
  6
CONTINUOUS
 62
    3
 10
263.8999974880814
 20
171.50000068347595
 11
262.3999974880814
 21
171.50000068347595
  0
LINE
  8
_0-a_
  6
CONTINUOUS
 62
    3
 10
263.8999974880814
 20
189.50000068347686
 11
262.3999974880814
 21
189.50000068347686
  0
LINE
  8
_0-a_
  6
CONTINUOUS
 62
    3
 10
263.8999974880814
 20
176.00000068347595
 11
265.14487630308162
 21
176.10891346727647
  0
LINE
  8
_0-a_
  6
CONTINUOUS
 62
    3
 10
265.14487630308162
 20
184.89108789977649
 11
263.8999974880814
 21
185.00000068347595
  0
ARC
  8
_0-a_
  6
CONTINUOUS
 62
    3
 10
265.05859211778119
 20
183.90485514857733
 40
0.9899999999999997
 50
37.367558032045224
 51
85.000000001200362
  0
ARC
  8
_0-a_
  6
CONTINUOUS
 62
    3
 10
265.05859211778119
 20
177.09514621837639
 40
0.9899999999999997
 50
274.99999999879964
 51
322.63244196795478
  0
ARC
  8
_0-a_
  6
CONTINUOUS
 62
    3
 10
260.59999748808144
 20
180.50000068347686
 40
6.5999999999999996
 50
322.63244196770472
 51
338.26638354339804
  0
ARC
  8
_0-a_
  6
CONTINUOUS
 62
    3
 10
260.59999748808144
 20
180.50000068347686
 40
6.5999999999999996
 50
21.74840859090472
 51
37.367558032305141
  0
LINE
  8
_0-a_
  6
CONTINUOUS
 62
    3
 10
267.1591246176817
 20
180.18500068347646
 11
266.72330972768117
 21
180.18500068347646
  0
LINE
  8
_0-a_
  6
CONTINUOUS
 62
    3
 10
267.1591246176817
 20
179.83771200157548
 11
267.1591246176817
 21
180.18500068347646
  0
LINE
  8
_0-a_
  6
CONTINUOUS
 62
    3
 10
266.72330972768117
 20
178.05749741497664
 11
267.1591246176817
 21
179.83771200157548
  0
LINE
  8
_0-a_
  6
CONTINUOUS
 62
    3
 10
267.1591246176817
 20
181.16228936547657
 11
266.89368879628177
 21
182.46219963317685
  0
LINE
  8
_0-a_
  6
CONTINUOUS
 62
    3
 10
266.89368879628177
 20
182.46219963317685
 11
266.72330972768117
 21
182.94250395207541
  0
LINE
  8
_0-a_
  6
CONTINUOUS
 62
    3
 10
267.1591246176817
 20
180.81500068347657
 11
267.1591246176817
 21
181.16228936547657
  0
LINE
  8
_0-a_
  6
CONTINUOUS
 62
    3
 10
266.72330972768117
 20
180.81500068347657
 11
267.1591246176817
 21
180.81500068347657
  0
LINE
  8
_0-a_
  6
CONTINUOUS
 62
    3
 10
266.72330972768117
 20
180.18500068347646
 11
266.72841490208151
 21
180.50000068347686
  0
LINE
  8
_0-a_
  6
CONTINUOUS
 62
    3
 10
266.72841490208151
 20
180.50000068347686
 11
266.72330972768117
 21
180.81500068347657
  0
LINE
  8
_0-a_
  6
CONTINUOUS
 62
    3
 10
276.69999870767055
 20
166.29999860210933
 11
276.69999870767055
 21
161.30000060210909
  0
LINE
  8
_0-a_
  6
CONTINUOUS
 62
    3
 10
276.69999870767055
 20
161.30000060210909
 11
278.19999870766986
 21
161.30000060210909
  0
LINE
  8
_0-a_
  6
CONTINUOUS
 62
    3
 10
281.19999870767055
 20
161.30000060210909
 11
282.69999870767055
 21
161.30000060210909
  0
LINE
  8
_0-a_
  6
CONTINUOUS
 62
    3
 10
282.69999870767055
 20
161.30000060210909
 11
282.69999870767055
 21
166.29999860210933
  0
ARC
  8
_0-a_
  6
CONTINUOUS
 62
    3
 10
279.69999870767009
 20
166.29999860210933
 40
1.7000010000000001
 50
0
 51
180
  0
ARC
  8
_0-a_
  6
CONTINUOUS
 62
    3
 10
279.69999870767009
 20
166.29999860210933
 40
3
 50
0
 51
180
  0
LINE
  8
_0-a_
  6
CONTINUOUS
 62
    3
 10
281.19999270767079
 20
163.29999860210921
 11
280.95614970767014
 21
163.29999860210921
  0
ARC
  8
_0-a_
  6
CONTINUOUS
 62
    3
 10
280.95614970767014
 20
163.10000060210939
 40
0.200001
 50
90
 51
194.0364020000541
  0
LINE
  8
_0-a_
  6
CONTINUOUS
 62
    3
 10
281.19999870767055
 20
161.30000060210909
 11
280.76212170767002
 21
163.05149360210942
  0
LINE
  8
_0-a_
  6
CONTINUOUS
 62
    3
 10
278.19999870766986
 20
163.29999860210921
 11
278.44384470767017
 21
163.29999860210921
  0
ARC
  8
_0-a_
  6
CONTINUOUS
 62
    3
 10
278.44384470767017
 20
163.10000060210939
 40
0.200001
 50
345.96380799996041
 51
90
  0
LINE
  8
_0-a_
  6
CONTINUOUS
 62
    3
 10
278.2000017076702
 20
161.30000060210909
 11
278.63787270767074
 21
163.05149360210942
  0
LINE
  8
_0-a_
  6
CONTINUOUS
 62
    3
 10
281.19999270767079
 20
163.29999860210921
 11
281.39999370767003
 21
163.29999860210921
  0
LINE
  8
_0-a_
  6
CONTINUOUS
 62
    3
 10
281.39999370767003
 20
163.29999860210921
 11
281.39999970766979
 21
166.29999860210933
  0
LINE
  8
_0-a_
  6
CONTINUOUS
 62
    3
 10
278.2000017076702
 20
163.29999860210921
 11
277.99999770767039
 21
163.29999860210921
  0
LINE
  8
_0-a_
  6
CONTINUOUS
 62
    3
 10
277.99999770767039
 20
163.29999860210921
 11
277.99999770767039
 21
166.29999860210933
  0
LINE
  8
_0-a_
  6
CONTINUOUS
 62
    3
 10
418.10000000000235
 20
170.30000000000018
 11
418.10000000000235
 21
163.30000000000018
  0
LINE
  8
_0-a_
  6
CONTINUOUS
 62
    3
 10
418.10000000000235
 20
170.30000000000018
 11
418.10000000000235
 21
163.30000000000018
  0
LINE
  8
_0-a_
  6
CONTINUOUS
 62
    3
 10
418.10000000000235
 20
163.30000000000018
 11
416.10000000000235
 21
163.30000000000018
  0
LINE
  8
_0-a_
  6
CONTINUOUS
 62
    3
 10
418.10000000000235
 20
170.30000000000018
 11
418.10000000000235
 21
163.30000000000018
  0
LINE
  8
_0-a_
  6
CONTINUOUS
 62
    3
 10
416.10000000000235
 20
169.3000000000003
 11
416.10000000000235
 21
163.30000000000018
  0
LINE
  8
_0-a_
  6
CONTINUOUS
 62
    3
 10
412.10000000000235
 20
172.3000000000003
 11
412.10000000000235
 21
175.3000000000003
  0
LINE
  8
_0-a_
  6
CONTINUOUS
 62
    3
 10
412.10000000000235
 20
172.3000000000003
 11
388.16623447556702
 21
172.3000000000003
  0
LINE
  8
_0-a_
  6
CONTINUOUS
 62
    3
 10
416.10000000000235
 20
169.3000000000003
 11
387.62288941997434
 21
169.3000000000003
  0
LINE
  8
_0-a_
  6
CONTINUOUS
 62
    3
 10
409.60000000000076
 20
148.49999999998875
 11
409.60000000000076
 21
149.49999999998886
  0
LINE
  8
_0-a_
  6
CONTINUOUS
 62
    3
 10
359.60000000000076
 20
148.49999999998875
 11
409.60000000000076
 21
148.49999999998875
  0
LINE
  8
_0-a_
  6
CONTINUOUS
 62
    3
 10
403.60000000000076
 20
154.49999999998875
 11
385.59999999999985
 21
154.49999999998875
  0
LINE
  8
_0-a_
  6
CONTINUOUS
 62
    3
 10
403.60000000000076
 20
152.99999999998875
 11
385.59999999999985
 21
152.99999999998875
  0
LINE
  8
_0-a_
  6
CONTINUOUS
 62
    3
 10
403.60000000000076
 20
154.49999999998875
 11
403.60000000000076
 21
152.99999999998875
  0
LINE
  8
_0-a_
  6
CONTINUOUS
 62
    3
 10
385.59999999999985
 20
154.49999999998875
 11
385.59999999999985
 21
152.99999999998875
  0
LINE
  8
_0-a_
  6
CONTINUOUS
 62
    3
 10
399.10000000000076
 20
154.49999999998875
 11
398.99108721620013
 21
155.74487881498885
  0
LINE
  8
_0-a_
  6
CONTINUOUS
 62
    3
 10
390.20891278370021
 20
155.74487881498885
 11
390.10000000000076
 21
154.49999999998875
  0
ARC
  8
_0-a_
  6
CONTINUOUS
 62
    3
 10
391.19514553489938
 20
155.65859462968854
 40
0.9899999999999997
 50
127.36755803206628
 51
175.0000000012005
  0
ARC
  8
_0-a_
  6
CONTINUOUS
 62
    3
 10
398.00485446510032
 20
155.65859462968854
 40
0.9899999999999997
 50
4.9999999987995034
 51
52.632441967950172
  0
ARC
  8
_0-a_
  6
CONTINUOUS
 62
    3
 10
394.59999999999985
 20
151.19999999998868
 40
6.5999999999999996
 50
52.632441967704736
 51
68.266383543400039
  0
ARC
  8
_0-a_
  6
CONTINUOUS
 62
    3
 10
394.59999999999985
 20
151.19999999998868
 40
6.5999999999999996
 50
111.74840859090317
 51
127.36755803230528
  0
LINE
  8
_0-a_
  6
CONTINUOUS
 62
    3
 10
394.91500000000013
 20
157.75912712958893
 11
394.91500000000013
 21
157.32331223958852
  0
LINE
  8
_0-a_
  6
CONTINUOUS
 62
    3
 10
395.26228868190123
 20
157.75912712958893
 11
394.91500000000013
 21
157.75912712958893
  0
LINE
  8
_0-a_
  6
CONTINUOUS
 62
    3
 10
397.04250326849996
 20
157.32331223958852
 11
395.26228868190123
 21
157.75912712958893
  0
LINE
  8
_0-a_
  6
CONTINUOUS
 62
    3
 10
393.93771131800003
 20
157.75912712958893
 11
392.63780105029986
 21
157.493691308189
  0
LINE
  8
_0-a_
  6
CONTINUOUS
 62
    3
 10
392.63780105029986
 20
157.493691308189
 11
392.1574967314013
 21
157.32331223958852
  0
LINE
  8
_0-a_
  6
CONTINUOUS
 62
    3
 10
394.28500000000003
 20
157.75912712958893
 11
393.93771131800003
 21
157.75912712958893
  0
LINE
  8
_0-a_
  6
CONTINUOUS
 62
    3
 10
394.28500000000003
 20
157.32331223958852
 11
394.28500000000003
 21
157.75912712958893
  0
LINE
  8
_0-a_
  6
CONTINUOUS
 62
    3
 10
394.91500000000013
 20
157.32331223958852
 11
394.59999999999985
 21
157.32841741398886
  0
LINE
  8
_0-a_
  6
CONTINUOUS
 62
    3
 10
394.59999999999985
 20
157.32841741398886
 11
394.28500000000003
 21
157.32331223958852
  0
LINE
  8
_0-a_
  6
CONTINUOUS
 62
    3
 10
414.9000000000014
 20
152.99999999998875
 11
414.60000000000076
 21
152.69999999998902
  0
LINE
  8
_0-a_
  6
CONTINUOUS
 62
    3
 10
414.60000000000076
 20
152.69999999998902
 11
414.30000000000103
 21
152.99999999998875
  0
LINE
  8
_0-a_
  6
CONTINUOUS
 62
    3
 10
419.9000000000014
 20
152.99999999998875
 11
419.60000000000076
 21
152.69999999998902
  0
LINE
  8
_0-a_
  6
CONTINUOUS
 62
    3
 10
419.60000000000076
 20
152.69999999998902
 11
419.30000000000103
 21
152.99999999998875
  0
LINE
  8
_0-a_
  6
CONTINUOUS
 62
    3
 10
394.90000000000094
 20
152.99999999998875
 11
394.60000000000031
 21
152.69999999998902
  0
LINE
  8
_0-a_
  6
CONTINUOUS
 62
    3
 10
394.60000000000031
 20
152.69999999998902
 11
394.30000000000058
 21
152.99999999998875
  0
LINE
  8
_0-a_
  6
CONTINUOUS
 62
    3
 10
419.30000000000103
 20
152.99999999998875
 11
414.9000000000014
 21
152.99999999998875
  0
LINE
  8
_0-a_
  6
CONTINUOUS
 62
    3
 10
414.30000000000103
 20
152.99999999998875
 11
394.90000000000094
 21
152.99999999998875
  0
LINE
  8
_0-a_
  6
CONTINUOUS
 62
    3
 10
458.59999999999985
 20
153.49999999998863
 11
440.59999999999894
 21
153.49999999998863
  0
LINE
  8
_0-a_
  6
CONTINUOUS
 62
    3
 10
458.59999999999985
 20
151.99999999998863
 11
440.59999999999894
 21
151.99999999998863
  0
LINE
  8
_0-a_
  6
CONTINUOUS
 62
    3
 10
458.59999999999985
 20
153.49999999998863
 11
458.59999999999985
 21
151.99999999998863
  0
LINE
  8
_0-a_
  6
CONTINUOUS
 62
    3
 10
440.59999999999894
 20
153.49999999998863
 11
440.59999999999894
 21
151.99999999998863
  0
LINE
  8
_0-a_
  6
CONTINUOUS
 62
    3
 10
454.09999999999985
 20
153.49999999998863
 11
453.99108721619922
 21
154.74487881498874
  0
LINE
  8
_0-a_
  6
CONTINUOUS
 62
    3
 10
445.2089127836993
 20
154.74487881498874
 11
445.09999999999985
 21
153.49999999998863
  0
ARC
  8
_0-a_
  6
CONTINUOUS
 62
    3
 10
446.19514553489847
 20
154.65859462968842
 40
0.9899999999999997
 50
127.36755803206628
 51
175.0000000012005
  0
ARC
  8
_0-a_
  6
CONTINUOUS
 62
    3
 10
453.00485446509941
 20
154.65859462968842
 40
0.9899999999999997
 50
4.9999999987995034
 51
52.632441967950172
  0
ARC
  8
_0-a_
  6
CONTINUOUS
 62
    3
 10
449.59999999999894
 20
150.19999999998856
 40
6.5999999999999996
 50
52.632441967704736
 51
68.266383543400039
  0
ARC
  8
_0-a_
  6
CONTINUOUS
 62
    3
 10
449.59999999999894
 20
150.19999999998856
 40
6.5999999999999996
 50
111.74840859090317
 51
127.36755803230528
  0
LINE
  8
_0-a_
  6
CONTINUOUS
 62
    3
 10
449.91499999999922
 20
156.75912712958882
 11
449.91499999999922
 21
156.3233122395884
  0
LINE
  8
_0-a_
  6
CONTINUOUS
 62
    3
 10
450.26228868190032
 20
156.75912712958882
 11
449.91499999999922
 21
156.75912712958882
  0
LINE
  8
_0-a_
  6
CONTINUOUS
 62
    3
 10
452.04250326849905
 20
156.3233122395884
 11
450.26228868190032
 21
156.75912712958882
  0
LINE
  8
_0-a_
  6
CONTINUOUS
 62
    3
 10
448.93771131799912
 20
156.75912712958882
 11
447.63780105029895
 21
156.49369130818889
  0
LINE
  8
_0-a_
  6
CONTINUOUS
 62
    3
 10
447.63780105029895
 20
156.49369130818889
 11
447.15749673140039
 21
156.3233122395884
  0
LINE
  8
_0-a_
  6
CONTINUOUS
 62
    3
 10
449.28499999999912
 20
156.75912712958882
 11
448.93771131799912
 21
156.75912712958882
  0
LINE
  8
_0-a_
  6
CONTINUOUS
 62
    3
 10
449.28499999999912
 20
156.3233122395884
 11
449.28499999999912
 21
156.75912712958882
  0
LINE
  8
_0-a_
  6
CONTINUOUS
 62
    3
 10
449.91499999999922
 20
156.3233122395884
 11
449.59999999999894
 21
156.32841741398875
  0
LINE
  8
_0-a_
  6
CONTINUOUS
 62
    3
 10
449.59999999999894
 20
156.32841741398875
 11
449.28499999999912
 21
156.3233122395884
  0
LINE
  8
_0-a_
  6
CONTINUOUS
 62
    3
 10
429.60000000000076
 20
152.99999999998875
 11
432.10000000000076
 21
151.99999999998909
  0
LINE
  8
_0-a_
  6
CONTINUOUS
 62
    3
 10
449.60000000000122
 20
151.69999999998845
 11
449.30000000000149
 21
151.99999999998909
  0
LINE
  8
_0-a_
  6
CONTINUOUS
 62
    3
 10
449.90000000000094
 20
151.99999999998909
 11
449.60000000000122
 21
151.69999999998845
  0
LINE
  8
_0-a_
  6
CONTINUOUS
 62
    3
 10
449.30000000000149
 20
151.99999999998886
 11
432.10000000000076
 21
151.99999999998886
  0
LINE
  8
_0-a_
  6
CONTINUOUS
 62
    3
 10
458.59999999999985
 20
153.49999999998863
 11
458.59999999999985
 21
151.99999999998863
  0
LINE
  8
_0-a_
  6
CONTINUOUS
 62
    3
 10
473.60000000000076
 20
151.99999999998886
 11
449.90000000000094
 21
151.99999999998886
  0
LINE
  8
_0-a_
  6
CONTINUOUS
 62
    3
 10
429.60000000000076
 20
152.99999999998875
 11
419.9000000000014
 21
152.99999999998875
  0
ARC
  8
_0-a_
  6
CONTINUOUS
 62
    3
 10
355.60000000000076
 20
150.49999999998886
 40
1
 50
180
 51
270
  0
ARC
  8
_0-a_
  6
CONTINUOUS
 62
    3
 10
360.60000000000076
 20
155.99999999998875
 40
3
 50
180
 51
270
  0
LINE
  8
_0-a_
  6
CONTINUOUS
 62
    3
 10
354.60000000000076
 20
161.80000000000041
 11
354.60000000000076
 21
150.49999999998886
  0
LINE
  8
_0-a_
  6
CONTINUOUS
 62
    3
 10
353.09999850000094
 20
166.29999800000064
 11
353.09999850000094
 21
161.30000000000041
  0
LINE
  8
_0-a_
  6
CONTINUOUS
 62
    3
 10
353.09999850000094
 20
161.30000000000041
 11
354.59999850000025
 21
161.30000000000041
  0
LINE
  8
_0-a_
  6
CONTINUOUS
 62
    3
 10
357.59999850000071
 20
161.30000000000041
 11
359.09999850000071
 21
161.30000000000041
  0
LINE
  8
_0-a_
  6
CONTINUOUS
 62
    3
 10
359.09999850000071
 20
161.30000000000041
 11
359.09999850000071
 21
166.29999800000064
  0
ARC
  8
_0-a_
  6
CONTINUOUS
 62
    3
 10
356.09999850000025
 20
166.29999800000064
 40
1.7000010000000001
 50
0
 51
180
  0
ARC
  8
_0-a_
  6
CONTINUOUS
 62
    3
 10
356.09999850000025
 20
166.29999800000064
 40
3
 50
0
 51
180
  0
LINE
  8
_0-a_
  6
CONTINUOUS
 62
    3
 10
357.59999250000095
 20
163.29999800000041
 11
357.3561495000003
 21
163.29999800000041
  0
ARC
  8
_0-a_
  6
CONTINUOUS
 62
    3
 10
357.3561495000003
 20
163.10000000000059
 40
0.200001
 50
90
 51
194.03640199999484
  0
LINE
  8
_0-a_
  6
CONTINUOUS
 62
    3
 10
357.59999850000071
 20
161.30000000000041
 11
357.16212150000041
 21
163.05149300000062
  0
LINE
  8
_0-a_
  6
CONTINUOUS
 62
    3
 10
354.59999850000025
 20
163.29999800000041
 11
354.8438445000001
 21
163.29999800000041
  0
ARC
  8
_0-a_
  6
CONTINUOUS
 62
    3
 10
354.8438445000001
 20
163.10000000000059
 40
0.200001
 50
345.96380800004334
 51
90
  0
LINE
  8
_0-a_
  6
CONTINUOUS
 62
    3
 10
354.60000150000036
 20
161.30000000000041
 11
355.03787250000113
 21
163.05149300000062
  0
LINE
  8
_0-a_
  6
CONTINUOUS
 62
    3
 10
357.59999250000095
 20
163.29999800000041
 11
357.7999935000002
 21
163.29999800000041
  0
LINE
  8
_0-a_
  6
CONTINUOUS
 62
    3
 10
357.7999935000002
 20
163.29999800000041
 11
357.79999950000041
 21
166.29999800000064
  0
LINE
  8
_0-a_
  6
CONTINUOUS
 62
    3
 10
354.60000150000036
 20
163.29999800000041
 11
354.39999750000055
 21
163.29999800000041
  0
LINE
  8
_0-a_
  6
CONTINUOUS
 62
    3
 10
354.39999750000055
 20
163.29999800000041
 11
354.39999750000055
 21
166.29999800000064
  0
LINE
  8
_0-a_
  6
CONTINUOUS
 62
    3
 10
355.10000000000122
 20
163.30000000000041
 11
354.60000000000076
 21
161.30000000000041
  0
LINE
  8
_0-a_
  6
CONTINUOUS
 62
    3
 10
354.60000000000076
 20
163.30000000000041
 11
355.10000000000122
 21
163.30000000000041
  0
LINE
  8
_0-a_
  6
CONTINUOUS
 62
    3
 10
354.60000000000076
 20
166.30000000000041
 11
354.60000000000076
 21
163.30000000000041
  0
ARC
  8
_0-a_
  6
CONTINUOUS
 62
    3
 10
356.10000000000076
 20
166.30000000000041
 40
1.5
 50
0
 51
180
  0
LINE
  8
_0-a_
  6
CONTINUOUS
 62
    3
 10
357.60000000000122
 20
163.30000000000041
 11
357.60000000000122
 21
166.30000000000041
  0
LINE
  8
_0-a_
  6
CONTINUOUS
 62
    3
 10
357.10000000000076
 20
163.30000000000041
 11
357.60000000000122
 21
163.30000000000041
  0
LINE
  8
_0-a_
  6
CONTINUOUS
 62
    3
 10
357.60000000000122
 20
161.30000000000041
 11
357.10000000000076
 21
163.30000000000041
  0
LINE
  8
_0-a_
  6
CONTINUOUS
 62
    3
 10
357.60000000000122
 20
155.49999999998875
 11
357.60000000000122
 21
161.30000000000041
  0
LINE
  8
_0-a_
  6
CONTINUOUS
 62
    3
 10
394.30000000000058
 20
152.99999999998875
 11
360.60000000000076
 21
152.99999999998875
  0
LINE
  8
_0-a_
  6
CONTINUOUS
 62
    3
 10
355.60000000000076
 20
149.49999999998886
 11
409.60000000000076
 21
149.49999999998886
  0
LINE
  8
_0-a_
  6
CONTINUOUS
 62
    3
 10
354.60000000000076
 20
174.99999999998886
 11
463.10000000000076
 21
174.99999999998886
  0
LINE
  8
_0-a_
  6
CONTINUOUS
 62
    3
 10
358.83267301202108
 20
149.50000000000011
 11
339.22264579102324
 21
76.314382073429215
  0
LINE
  8
_0-a_
  6
CONTINUOUS
 62
    3
 10
359.60000000000076
 20
148.50000000000023
 11
340.18857161731324
 21
76.055563028326787
  0
LINE
  8
_0-a_
  6
CONTINUOUS
 62
    3
 10
418.10000000000235
 20
170.30000000000018
 11
418.10000000000235
 21
163.30000000000018
  0
LINE
  8
_0-a_
  6
CONTINUOUS
 62
    3
 10
418.10000000000235
 20
170.30000000000018
 11
418.10000000000235
 21
163.30000000000018
  0
LINE
  8
_0-a_
  6
CONTINUOUS
 62
    3
 10
418.10000000000235
 20
163.30000000000018
 11
416.10000000000235
 21
163.30000000000018
  0
LINE
  8
_0-a_
  6
CONTINUOUS
 62
    3
 10
418.10000000000235
 20
170.30000000000018
 11
418.10000000000235
 21
163.30000000000018
  0
LINE
  8
_0-a_
  6
CONTINUOUS
 62
    3
 10
412.10000000000235
 20
172.3000000000003
 11
412.10000000000235
 21
175.3000000000003
  0
LINE
  8
_0-a_
  6
CONTINUOUS
 62
    3
 10
416.10000000000235
 20
169.3000000000003
 11
416.10000000000235
 21
163.30000000000018
  0
LINE
  8
_0-a_
  6
CONTINUOUS
 62
    3
 10
414.10000000000258
 20
175.00000000000023
 11
412.10000000000235
 21
175.00000000000023
  0
LINE
  8
_0-a_
  6
CONTINUOUS
 62
    3
 10
414.10000000000258
 20
175.00000000000023
 11
418.10000000000235
 21
170.30000000000018
  0
LINE
  8
_0-a_
  6
CONTINUOUS
 62
    3
 10
274.10000000000258
 20
175.30000000001166
 11
412.10000000000235
 21
175.30000000001166
  0
LINE
  8
_0-a_
  6
CONTINUOUS
 62
    3
 10
268.10000000000235
 20
170.30000000001166
 11
268.10000000000235
 21
163.30000000001166
  0
LINE
  8
_0-a_
  6
CONTINUOUS
 62
    3
 10
268.10000000000235
 20
163.30000000001166
 11
270.10000000000235
 21
163.30000000001166
  0
LINE
  8
_0-a_
  6
CONTINUOUS
 62
    3
 10
268.10000000000235
 20
170.30000000001166
 11
268.10000000000235
 21
163.30000000001166
  0
LINE
  8
_0-a_
  6
CONTINUOUS
 62
    3
 10
270.10000000000235
 20
169.30000000001166
 11
270.10000000000235
 21
163.30000000001166
  0
LINE
  8
_0-a_
  6
CONTINUOUS
 62
    3
 10
274.10000000000258
 20
172.30000000001166
 11
274.10000000000258
 21
174.80000000001166
  0
LINE
  8
_0-a_
  6
CONTINUOUS
 62
    3
 10
274.10000000000258
 20
174.80000000001166
 11
274.10000000000258
 21
175.30000000001166
  0
LINE
  8
_0-a_
  6
CONTINUOUS
 62
    3
 10
274.10000000000258
 20
175.00000000000034
 11
272.10000000000235
 21
175.00000000000034
  0
LINE
  8
_0-a_
  6
CONTINUOUS
 62
    3
 10
272.10000000000235
 20
175.00000000000034
 11
268.10000000000235
 21
170.30000000001166
  0
ARC
  8
_0-a_
  6
CONTINUOUS
 62
    3
 10
362.60000000000076
 20
180.49999999998886
 40
1
 50
0
 51
90
  0
LINE
  8
_0-a_
  6
CONTINUOUS
 62
    3
 10
363.60000000000076
 20
180.49999999998886
 11
363.60000000000076
 21
177.49999999998886
  0
ARC
  8
_0-a_
  6
CONTINUOUS
 62
    3
 10
362.60000000000076
 20
180.49999999998886
 40
1
 50
0
 51
90
  0
LINE
  8
_0-a_
  6
CONTINUOUS
 62
    3
 10
354.60000000000076
 20
174.99999999998897
 11
354.60000000000076
 21
176.99999999998886
  0
LINE
  8
_0-a_
  6
CONTINUOUS
 62
    3
 10
362.30000000000058
 20
181.49999999998886
 11
354.60000000000076
 21
176.99999999998886
  0
LINE
  8
_0-a_
  6
CONTINUOUS
 62
    3
 10
354.60000000000076
 20
174.99999999998897
 11
354.60000000000076
 21
176.99999999998886
  0
ARC
  8
_0-a_
  6
CONTINUOUS
 62
    3
 10
362.60000000000076
 20
180.49999999998886
 40
1
 50
0
 51
90
  0
LINE
  8
_0-a_
  6
CONTINUOUS
 62
    3
 10
354.60000000000076
 20
174.99999999998897
 11
354.60000000000076
 21
176.99999999998886
  0
LINE
  8
_0-a_
  6
CONTINUOUS
 62
    3
 10
363.60000000000076
 20
180.49999999998886
 11
363.60000000000076
 21
177.49999999998886
  0
LINE
  8
_0-a_
  6
CONTINUOUS
 62
    3
 10
363.60000000000076
 20
180.49999999998886
 11
363.60000000000076
 21
177.49999999998886
  0
LINE
  8
_0-a_
  6
CONTINUOUS
 62
    3
 10
354.60000000000076
 20
174.99999999998897
 11
354.60000000000076
 21
176.99999999998886
  0
ARC
  8
_0-a_
  6
CONTINUOUS
 62
    3
 10
362.60000000000076
 20
180.49999999998886
 40
1
 50
0
 51
90
  0
LINE
  8
_0-a_
  6
CONTINUOUS
 62
    3
 10
362.30000000000058
 20
181.49999999998886
 11
362.60000000000076
 21
181.49999999998886
  0
LINE
  8
_0-a_
  6
CONTINUOUS
 62
    3
 10
362.60000000000076
 20
181.49999999998886
 11
362.30000000000058
 21
181.49999999998886
  0
LINE
  8
_0-a_
  6
CONTINUOUS
 62
    3
 10
362.30000000000058
 20
181.49999999998886
 11
362.60000000000076
 21
181.49999999998886
  0
ARC
  8
_0-a_
  6
CONTINUOUS
 62
    3
 10
473.10000000000076
 20
153.99999999998863
 40
2
 50
270
 51
0
  0
LINE
  8
_0-a_
  6
CONTINUOUS
 62
    3
 10
477.60000000000076
 20
149.49999999998863
 11
477.60000000000076
 21
148.49999999998863
  0
LINE
  8
_0-a_
  6
CONTINUOUS
 62
    3
 10
462.60000000000076
 20
180.99999999998863
 11
462.60000000000076
 21
177.49999999998875
  0
LINE
  8
_0-a_
  6
CONTINUOUS
 62
    3
 10
479.59999999999962
 20
180.49999999998863
 11
511.2442132566577
 21
180.49999999998863
  0
LINE
  8
_0-a_
  6
CONTINUOUS
 62
    3
 10
474.10000000000053
 20
173.49999999998875
 11
470.40000000000049
 21
173.49999999998875
  0
LINE
  8
_0-a_
  6
CONTINUOUS
 62
    3
 10
469.7999999999999
 20
173.49999999998875
 11
466.10000000000031
 21
173.49999999998875
  0
LINE
  8
_0-a_
  6
CONTINUOUS
 62
    3
 10
464.60000000000031
 20
170.99999999998886
 11
474.10000000000053
 21
170.99999999998886
  0
LINE
  8
_0-a_
  6
CONTINUOUS
 62
    3
 10
462.60000000000076
 20
174.99999999998875
 11
462.60000000000076
 21
172.99999999998875
  0
ARC
  8
_0-a_
  6
CONTINUOUS
 62
    3
 10
464.60000000000031
 20
172.99999999998875
 40
2
 50
180
 51
270
  0
ARC
  8
_0-a_
  6
CONTINUOUS
 62
    3
 10
474.10000000000053
 20
169.99999999998875
 40
1
 50
0
 51
90
  0
ARC
  8
_0-a_
  6
CONTINUOUS
 62
    3
 10
464.60000000000031
 20
172.99999999998875
 40
2
 50
180
 51
270
  0
LINE
  8
_0-a_
  6
CONTINUOUS
 62
    3
 10
466.10000000000031
 20
174.99999999998875
 11
462.60000000000076
 21
174.99999999998875
  0
LINE
  8
_0-a_
  6
CONTINUOUS
 62
    3
 10
477.60000000000031
 20
170.49999999998875
 11
477.60000000000031
 21
174.33157694658951
  0
LINE
  8
_0-a_
  6
CONTINUOUS
 62
    3
 10
477.60000000000076
 20
170.49999999998875
 11
477.60000000000076
 21
174.99999999998875
  0
LINE
  8
_0-a_
  6
CONTINUOUS
 62
    3
 10
480.10000000000053
 20
169.99999999998875
 11
478.10000000000031
 21
169.99999999998875
  0
ARC
  8
_0-a_
  6
CONTINUOUS
 62
    3
 10
478.60000000000031
 20
167.49999999998875
 40
1
 50
90
 51
180
  0
LINE
  8
_0-a_
  6
CONTINUOUS
 62
    3
 10
478.60000000000031
 20
168.49999999998875
 11
481.10000000000031
 21
168.49999999998875
  0
ARC
  8
_0-a_
  6
CONTINUOUS
 62
    3
 10
481.10000000000031
 20
168.99999999998875
 40
0.5
 50
270
 51
0
  0
ARC
  8
_0-a_
  6
CONTINUOUS
 62
    3
 10
480.85000000000031
 20
176.74999999998875
 40
0.75
 50
0
 51
180
  0
ARC
  8
_0-a_
  6
CONTINUOUS
 62
    3
 10
478.10000000000031
 20
170.49999999998875
 40
0.5
 50
180
 51
270
  0
LINE
  8
_0-a_
  6
CONTINUOUS
 62
    3
 10
480.10000000000053
 20
176.74999999998875
 11
480.10000000000053
 21
169.99999999998875
  0
LINE
  8
_0-a_
  6
CONTINUOUS
 62
    3
 10
477.60000000000076
 20
170.5259835349508
 11
477.60000000000076
 21
172.5
  0
LINE
  8
_0-a_
  6
CONTINUOUS
 62
    3
 10
474.10000000000053
 20
178.99999999998875
 11
466.10000000000031
 21
178.99999999998875
  0
LINE
  8
_0-a_
  6
CONTINUOUS
 62
    3
 10
466.10000000000031
 20
173.49999999998875
 11
466.10000000000031
 21
178.99999999998875
  0
LINE
  8
_0-a_
  6
CONTINUOUS
 62
    3
 10
472.85000000000031
 20
178.99999999998863
 11
467.35000000000053
 21
178.99999999998863
  0
LINE
  8
_0-a_
  6
CONTINUOUS
 62
    3
 10
475.10000000000031
 20
181.7999999999887
 11
471.99999999999994
 21
178.69999999998879
  0
LINE
  8
_0-a_
  6
CONTINUOUS
 62
    3
 10
465.10000000000053
 20
181.7999999999887
 11
468.20000000000067
 21
178.69999999998879
  0
LINE
  8
_0-a_
  6
CONTINUOUS
 62
    3
 10
475.10000000000031
 20
181.99999999998863
 11
475.10000000000031
 21
181.7999999999887
  0
LINE
  8
_0-a_
  6
CONTINUOUS
 62
    3
 10
475.10000000000031
 20
181.7999999999887
 11
465.10000000000053
 21
181.7999999999887
  0
LINE
  8
_0-a_
  6
CONTINUOUS
 62
    3
 10
465.10000000000053
 20
181.99999999998863
 11
465.10000000000053
 21
181.7999999999887
  0
LINE
  8
_0-a_
  6
CONTINUOUS
 62
    3
 10
472.85000000000031
 20
179.49999999998875
 11
472.85000000000031
 21
178.99999999998863
  0
LINE
  8
_0-a_
  6
CONTINUOUS
 62
    3
 10
467.35000000000053
 20
179.49999999998875
 11
467.35000000000053
 21
178.99999999998863
  0
LINE
  8
_0-a_
  6
CONTINUOUS
 62
    3
 10
467.35000000000053
 20
179.49999999998875
 11
472.85000000000031
 21
179.49999999998875
  0
LINE
  8
_0-a_
  6
CONTINUOUS
 62
    3
 10
470.40000000000049
 20
181.99999999998863
 11
470.10000000000008
 21
181.69999999998845
  0
LINE
  8
_0-a_
  6
CONTINUOUS
 62
    3
 10
470.10000000000008
 20
181.69999999998845
 11
469.80000000000035
 21
181.99999999998863
  0
LINE
  8
_0-a_
  6
CONTINUOUS
 62
    3
 10
475.10000000000031
 20
181.99999999998863
 11
465.10000000000053
 21
181.99999999998863
  0
LINE
  8
_0-a_
  6
CONTINUOUS
 62
    3
 10
481.60000000000053
 20
168.99999999998875
 11
481.60000000000053
 21
176.74999999998875
  0
ARC
  8
_0-a_
  6
CONTINUOUS
 62
    3
 10
463.60000000000076
 20
180.99999999998863
 40
1
 50
90
 51
180
  0
LINE
  8
_0-a_
  6
CONTINUOUS
 62
    3
 10
484.59119843520938
 20
180.49999999998863
 11
480.59999999999962
 21
180.49999999998863
  0
LINE
  8
_0-a_
  6
CONTINUOUS
 62
    3
 10
463.60000000000076
 20
181.99999999998863
 11
479.59999999999962
 21
181.99999999998863
  0
LINE
  8
_0-a_
  6
CONTINUOUS
 62
    3
 10
491.60000000000031
 20
177.49999999998875
 11
511.2442132566577
 21
177.49999999998875
  0
LINE
  8
_0-a_
  6
CONTINUOUS
 62
    3
 10
486.19807621135368
 20
177.49999999998863
 11
511.2442132566577
 21
177.49999999998863
  0
LINE
  8
_0-a_
  6
CONTINUOUS
 62
    3
 10
481.60000000000076
 20
168.99999999998875
 11
481.60000000000076
 21
176.74999999998875
  0
LINE
  8
_0-a_
  6
CONTINUOUS
 62
    3
 10
481.60000000000076
 20
176.74999999998875
 11
481.60000000000076
 21
177.49999999998863
  0
LINE
  8
_0-a_
  6
CONTINUOUS
 62
    3
 10
479.60000000001213
 20
181.99999999998863
 11
488.09999999999962
 21
181.99999999998863
  0
LINE
  8
_0-a_
  6
CONTINUOUS
 62
    3
 10
474.10000000000053
 20
174.99999999998875
 11
474.10000000000053
 21
173.49999999998875
  0
ARC
  8
_0-a_
  6
CONTINUOUS
 62
    3
 10
479.09999999999962
 20
171.99999999998875
 40
0.5
 50
270
 51
0
  0
LINE
  8
_0-a_
  6
CONTINUOUS
 62
    3
 10
478.10000000000053
 20
171.49999999998886
 11
479.09999999999962
 21
171.49999999998886
  0
ARC
  8
_0-a_
  6
CONTINUOUS
 62
    3
 10
478.10000000000053
 20
171.99999999998875
 40
0.5
 50
180
 51
270
  0
LINE
  8
_0-a_
  6
CONTINUOUS
 62
    3
 10
479.59999999999962
 20
171.99999999998875
 11
479.59999999999962
 21
180.49999999998863
  0
LINE
  8
_0-a_
  6
CONTINUOUS
 62
    3
 10
474.10000000000053
 20
178.99999999998875
 11
474.10000000000053
 21
174.99999999998875
  0
LINE
  8
_0-a_
  6
CONTINUOUS
 62
    3
 10
477.60000000000008
 20
174.99999999998875
 11
477.60000000000008
 21
171.49999999998875
  0
LINE
  8
_0-a_
  6
CONTINUOUS
 62
    3
 10
474.10000000000053
 20
174.99999999998875
 11
477.60000000000008
 21
174.99999999998875
  0
LINE
  8
_0-a_
  6
CONTINUOUS
 62
    3
 10
477.60000000000076
 20
149.49999999998863
 11
477.60000000000076
 21
167.49999999998875
  0
LINE
  8
_0-a_
  6
CONTINUOUS
 62
    3
 10
477.60000000000076
 20
149.49999999998863
 11
477.60000000000076
 21
167.49999999998875
  0
LINE
  8
_0-a_
  6
CONTINUOUS
 62
    3
 10
475.10000000000099
 20
169.99999999998875
 11
475.10000000000099
 21
153.99999999998863
  0
LINE
  8
_0-a_
  6
CONTINUOUS
 62
    3
 10
475.09999999999962
 20
169.99999999998875
 11
475.09999999999962
 21
153.99999999998863
  0
LINE
  8
_0-a_
  6
CONTINUOUS
 62
    3
 10
470.40000000000049
 20
173.49999999998875
 11
470.10000000000076
 21
173.19999999998902
  0
LINE
  8
_0-a_
  6
CONTINUOUS
 62
    3
 10
470.10000000000076
 20
173.19999999998902
 11
469.7999999999999
 21
173.49999999998875
  0
LINE
  8
_0-a_
  6
CONTINUOUS
 62
    3
 10
471.85000000000076
 20
169.69999999998868
 11
471.85000000000076
 21
164.35677313258418
  0
LINE
  8
_0-a_
  6
CONTINUOUS
 62
    3
 10
471.89000000000073
 20
174.50301343866158
 11
471.89000000000073
 21
173.70738171933135
  0
LINE
  8
_0-a_
  6
CONTINUOUS
 62
    3
 10
471.89000000000073
 20
173.00301343866158
 11
471.89000000000073
 21
172.20738171933135
  0
LINE
  8
_0-a_
  6
CONTINUOUS
 62
    3
 10
471.89000000000073
 20
171.50301343866158
 11
471.89000000000073
 21
169.69999999998868
  0
LINE
  8
_0-a_
  6
CONTINUOUS
 62
    3
 10
471.89000000000073
 20
175.69999999998868
 11
471.89000000000073
 21
175.20738171933135
  0
LINE
  8
_0-a_
  6
CONTINUOUS
 62
    3
 10
468.31000000000057
 20
170.19999999998856
 11
468.31000000000057
 21
169.69999999998868
  0
LINE
  8
_0-a_
  6
CONTINUOUS
 62
    3
 10
468.31000000000057
 20
171.69999999998856
 11
468.31000000000057
 21
170.90436828065845
  0
LINE
  8
_0-a_
  6
CONTINUOUS
 62
    3
 10
468.31000000000057
 20
173.19999999998856
 11
468.31000000000057
 21
172.40436828065845
  0
LINE
  8
_0-a_
  6
CONTINUOUS
 62
    3
 10
468.31000000000057
 20
174.69999999998856
 11
468.31000000000057
 21
173.90436828065845
  0
LINE
  8
_0-a_
  6
CONTINUOUS
 62
    3
 10
468.31000000000057
 20
175.69999999998868
 11
468.31000000000057
 21
175.40436828065845
  0
LINE
  8
_0-a_
  6
CONTINUOUS
 62
    3
 10
470.10000000000053
 20
175.70369085966001
 11
467.70000000000044
 21
175.05218414032345
  0
LINE
  8
_0-a_
  6
CONTINUOUS
 62
    3
 10
468.31000000000057
 20
174.69999999998856
 11
470.10000000000053
 21
175.35150671932513
  0
LINE
  8
_0-a_
  6
CONTINUOUS
 62
    3
 10
468.31000000000057
 20
175.40436828065845
 11
469.1222414733349
 21
175.69999999998868
  0
LINE
  8
_0-a_
  6
CONTINUOUS
 62
    3
 10
472.15000000000049
 20
169.69999999998868
 11
472.15000000000049
 21
164.18356805182725
  0
LINE
  8
_0-a_
  6
CONTINUOUS
 62
    3
 10
472.15000000000049
 20
169.69999999998868
 11
468.05000000000081
 21
169.69999999998868
  0
LINE
  8
_0-a_
  6
CONTINUOUS
 62
    3
 10
468.05000000000081
 20
169.69999999998868
 11
468.05000000000081
 21
164.18356805182725
  0
LINE
  8
_0-a_
  6
CONTINUOUS
 62
    3
 10
467.70000000000044
 20
175.05218414032345
 11
468.31000000000057
 21
175.40436828065845
  0
LINE
  8
_0-a_
  6
CONTINUOUS
 62
    3
 10
468.31000000000057
 20
174.69999999998856
 11
467.70000000000044
 21
175.05218414032345
  0
LINE
  8
_0-a_
  6
CONTINUOUS
 62
    3
 10
472.50000000000085
 20
174.85519757899647
 11
467.70000000000044
 21
173.55218414032345
  0
LINE
  8
_0-a_
  6
CONTINUOUS
 62
    3
 10
468.31000000000057
 20
173.19999999998856
 11
471.89000000000073
 21
174.50301343866158
  0
LINE
  8
_0-a_
  6
CONTINUOUS
 62
    3
 10
468.31000000000057
 20
173.90436828065845
 11
471.89000000000073
 21
175.20738171933135
  0
LINE
  8
_0-a_
  6
CONTINUOUS
 62
    3
 10
467.70000000000044
 20
173.55218414032345
 11
468.31000000000057
 21
173.90436828065845
  0
LINE
  8
_0-a_
  6
CONTINUOUS
 62
    3
 10
468.31000000000057
 20
173.19999999998856
 11
467.70000000000044
 21
173.55218414032345
  0
LINE
  8
_0-a_
  6
CONTINUOUS
 62
    3
 10
472.50000000000085
 20
174.85519757899647
 11
471.89000000000073
 21
174.50301343866158
  0
LINE
  8
_0-a_
  6
CONTINUOUS
 62
    3
 10
471.89000000000073
 20
175.20738171933135
 11
472.50000000000085
 21
174.85519757899647
  0
LINE
  8
_0-a_
  6
CONTINUOUS
 62
    3
 10
472.50000000000085
 20
173.35519757899647
 11
467.70000000000044
 21
172.05218414032345
  0
LINE
  8
_0-a_
  6
CONTINUOUS
 62
    3
 10
468.31000000000057
 20
171.69999999998856
 11
471.89000000000073
 21
173.00301343866158
  0
LINE
  8
_0-a_
  6
CONTINUOUS
 62
    3
 10
468.31000000000057
 20
172.40436828065845
 11
471.89000000000073
 21
173.70738171933135
  0
LINE
  8
_0-a_
  6
CONTINUOUS
 62
    3
 10
467.70000000000044
 20
172.05218414032345
 11
468.31000000000057
 21
172.40436828065845
  0
LINE
  8
_0-a_
  6
CONTINUOUS
 62
    3
 10
468.31000000000057
 20
171.69999999998856
 11
467.70000000000044
 21
172.05218414032345
  0
LINE
  8
_0-a_
  6
CONTINUOUS
 62
    3
 10
472.50000000000085
 20
173.35519757899647
 11
471.89000000000073
 21
173.00301343866158
  0
LINE
  8
_0-a_
  6
CONTINUOUS
 62
    3
 10
471.89000000000073
 20
173.70738171933135
 11
472.50000000000085
 21
173.35519757899647
  0
LINE
  8
_0-a_
  6
CONTINUOUS
 62
    3
 10
472.50000000000085
 20
171.85519757899647
 11
467.70000000000044
 21
170.55218414032345
  0
LINE
  8
_0-a_
  6
CONTINUOUS
 62
    3
 10
468.31000000000057
 20
170.19999999998856
 11
471.89000000000073
 21
171.50301343866158
  0
LINE
  8
_0-a_
  6
CONTINUOUS
 62
    3
 10
468.31000000000057
 20
170.90436828065845
 11
471.89000000000073
 21
172.20738171933135
  0
LINE
  8
_0-a_
  6
CONTINUOUS
 62
    3
 10
467.70000000000044
 20
170.55218414032345
 11
468.31000000000057
 21
170.90436828065845
  0
LINE
  8
_0-a_
  6
CONTINUOUS
 62
    3
 10
468.31000000000057
 20
170.19999999998856
 11
467.70000000000044
 21
170.55218414032345
  0
LINE
  8
_0-a_
  6
CONTINUOUS
 62
    3
 10
472.50000000000085
 20
171.85519757899647
 11
471.89000000000073
 21
171.50301343866158
  0
LINE
  8
_0-a_
  6
CONTINUOUS
 62
    3
 10
471.89000000000073
 20
172.20738171933135
 11
472.50000000000085
 21
171.85519757899647
  0
LINE
  8
_0-a_
  6
CONTINUOUS
 62
    3
 10
470.10000000000053
 20
163.34641016150249
 11
468.97969068712035
 21
169.69999999998868
  0
LINE
  8
_0-a_
  6
CONTINUOUS
 62
    3
 10
470.10000000000053
 20
163.34641016150249
 11
468.35000000000053
 21
164.35677313258418
  0
LINE
  8
_0-a_
  6
CONTINUOUS
 62
    3
 10
468.35000000000053
 20
169.69999999998868
 11
468.35000000000053
 21
164.35677313258418
  0
LINE
  8
_0-a_
  6
CONTINUOUS
 62
    3
 10
471.89000000000073
 20
170.19999999998856
 11
471.89000000000073
 21
169.69999999998868
  0
LINE
  8
_0-a_
  6
CONTINUOUS
 62
    3
 10
468.05000000000081
 20
169.69999999998868
 11
468.05000000000081
 21
164.18356805182725
  0
LINE
  8
_0-a_
  6
CONTINUOUS
 62
    3
 10
468.05000000000081
 20
169.69999999998868
 11
472.15000000000049
 21
169.69999999998868
  0
LINE
  8
_0-a_
  6
CONTINUOUS
 62
    3
 10
472.15000000000049
 20
169.69999999998868
 11
472.15000000000049
 21
164.18356805182725
  0
LINE
  8
_0-a_
  6
CONTINUOUS
 62
    3
 10
470.10000000000053
 20
162.99999999998863
 11
468.05000000000081
 21
164.18356805182725
  0
LINE
  8
_0-a_
  6
CONTINUOUS
 62
    3
 10
470.10000000000053
 20
162.99999999998863
 11
472.15000000000049
 21
164.18356805182725
  0
LINE
  8
_0-a_
  6
CONTINUOUS
 62
    3
 10
472.00000000000017
 20
178.69999999998868
 11
468.2000000000009
 21
178.69999999998868
  0
LINE
  8
_0-a_
  6
CONTINUOUS
 62
    3
 10
471.89000000000073
 20
177.50301343866158
 11
471.89000000000073
 21
176.70738171933135
  0
LINE
  8
_0-a_
  6
CONTINUOUS
 62
    3
 10
471.89000000000073
 20
176.00301343866158
 11
471.89000000000073
 21
175.20738171933135
  0
LINE
  8
_0-a_
  6
CONTINUOUS
 62
    3
 10
471.89000000000073
 20
178.69999999998868
 11
471.89000000000073
 21
178.20738171933135
  0
LINE
  8
_0-a_
  6
CONTINUOUS
 62
    3
 10
468.31000000000057
 20
176.19999999998856
 11
468.31000000000057
 21
175.40436828065845
  0
LINE
  8
_0-a_
  6
CONTINUOUS
 62
    3
 10
468.31000000000057
 20
177.69999999998856
 11
468.31000000000057
 21
176.90436828065845
  0
LINE
  8
_0-a_
  6
CONTINUOUS
 62
    3
 10
468.31000000000057
 20
178.69999999998868
 11
468.31000000000057
 21
178.40436828065845
  0
LINE
  8
_0-a_
  6
CONTINUOUS
 62
    3
 10
470.10000000000053
 20
178.70369085966001
 11
467.70000000000044
 21
178.05218414032345
  0
LINE
  8
_0-a_
  6
CONTINUOUS
 62
    3
 10
468.31000000000057
 20
178.40436828065845
 11
469.1222414733349
 21
178.69999999998868
  0
LINE
  8
_0-a_
  6
CONTINUOUS
 62
    3
 10
467.70000000000044
 20
178.05218414032345
 11
468.31000000000057
 21
178.40436828065845
  0
LINE
  8
_0-a_
  6
CONTINUOUS
 62
    3
 10
468.31000000000057
 20
177.69999999998856
 11
467.70000000000044
 21
178.05218414032345
  0
LINE
  8
_0-a_
  6
CONTINUOUS
 62
    3
 10
472.50000000000085
 20
177.85519757899647
 11
467.70000000000044
 21
176.55218414032345
  0
LINE
  8
_0-a_
  6
CONTINUOUS
 62
    3
 10
468.31000000000057
 20
176.19999999998856
 11
471.89000000000073
 21
177.50301343866158
  0
LINE
  8
_0-a_
  6
CONTINUOUS
 62
    3
 10
468.31000000000057
 20
176.90436828065845
 11
471.89000000000073
 21
178.20738171933135
  0
LINE
  8
_0-a_
  6
CONTINUOUS
 62
    3
 10
467.70000000000044
 20
176.55218414032345
 11
468.31000000000057
 21
176.90436828065845
  0
LINE
  8
_0-a_
  6
CONTINUOUS
 62
    3
 10
468.31000000000057
 20
176.19999999998856
 11
467.70000000000044
 21
176.55218414032345
  0
LINE
  8
_0-a_
  6
CONTINUOUS
 62
    3
 10
472.50000000000085
 20
177.85519757899647
 11
471.89000000000073
 21
177.50301343866158
  0
LINE
  8
_0-a_
  6
CONTINUOUS
 62
    3
 10
471.89000000000073
 20
178.20738171933135
 11
472.50000000000085
 21
177.85519757899647
  0
LINE
  8
_0-a_
  6
CONTINUOUS
 62
    3
 10
472.50000000000085
 20
176.35519757899647
 11
467.70000000000044
 21
175.05218414032345
  0
LINE
  8
_0-a_
  6
CONTINUOUS
 62
    3
 10
468.31000000000057
 20
174.69999999998856
 11
471.89000000000073
 21
176.00301343866158
  0
LINE
  8
_0-a_
  6
CONTINUOUS
 62
    3
 10
468.31000000000057
 20
175.40436828065845
 11
471.89000000000073
 21
176.70738171933135
  0
LINE
  8
_0-a_
  6
CONTINUOUS
 62
    3
 10
467.70000000000044
 20
175.05218414032345
 11
468.31000000000057
 21
175.40436828065845
  0
LINE
  8
_0-a_
  6
CONTINUOUS
 62
    3
 10
468.31000000000057
 20
174.69999999998856
 11
467.70000000000044
 21
175.05218414032345
  0
LINE
  8
_0-a_
  6
CONTINUOUS
 62
    3
 10
472.50000000000085
 20
176.35519757899647
 11
471.89000000000073
 21
176.00301343866158
  0
LINE
  8
_0-a_
  6
CONTINUOUS
 62
    3
 10
471.89000000000073
 20
176.70738171933135
 11
472.50000000000085
 21
176.35519757899647
  0
LINE
  8
_0-a_
  6
CONTINUOUS
 62
    3
 10
472.50000000000085
 20
174.85519757899647
 11
471.89000000000073
 21
174.50301343866158
  0
LINE
  8
_0-a_
  6
CONTINUOUS
 62
    3
 10
471.89000000000073
 20
175.20738171933135
 11
472.50000000000085
 21
174.85519757899647
  0
ARC
  8
_0-a_
  6
CONTINUOUS
 62
    3
 10
488.59999999999962
 20
180.99999999998863
 40
1
 50
0
 51
90
  0
LINE
  8
_0-a_
  6
CONTINUOUS
 62
    3
 10
489.59999999999962
 20
180.99999999998863
 11
489.59999999999962
 21
180.49999999998863
  0
LINE
  8
_0-a_
  6
CONTINUOUS
 62
    3
 10
488.59999999999872
 20
180.49999999998863
 11
488.59119843520847
 21
180.49999999998863
  0
LINE
  8
_0-a_
  6
CONTINUOUS
 62
    3
 10
488.59999999999962
 20
181.99999999998863
 11
486.50192378864534
 21
181.99999999998863
  0
LINE
  8
_0-a_
  6
CONTINUOUS
 62
    3
 10
360.60000000000076
 20
149.49999999998886
 11
477.60000000000076
 21
149.49999999998886
  0
LINE
  8
_0-a_
  6
CONTINUOUS
 62
    3
 10
363.60000000000076
 20
180.49999999998886
 11
462.60000000000076
 21
180.49999999998886
  0
LINE
  8
_0-a_
  6
CONTINUOUS
 62
    3
 10
274.10000000000258
 20
175.3000000000003
 11
367.25321324562987
 21
175.3000000000003
  0
LINE
  8
_0-a_
  6
CONTINUOUS
 62
    3
 10
274.10000000000122
 20
172.3000000000003
 11
274.10000000000122
 21
174.80000000000018
  0
LINE
  8
_0-a_
  6
CONTINUOUS
 62
    3
 10
274.10000000000122
 20
175.3000000000003
 11
274.10000000000122
 21
174.80000000000018
  0
LINE
  8
_0-a_
  6
CONTINUOUS
 62
    3
 10
280.10000000000122
 20
175.3000000000003
 11
283.10000000000122
 21
172.3000000000003
  0
LINE
  8
_0-a_
  6
CONTINUOUS
 62
    3
 10
277.10000000000122
 20
172.3000000000003
 11
280.10000000000122
 21
175.3000000000003
  0
LINE
  8
_0-a_
  6
CONTINUOUS
 62
    3
 10
286.10000000000122
 20
175.3000000000003
 11
289.10000000000122
 21
172.3000000000003
  0
LINE
  8
_0-a_
  6
CONTINUOUS
 62
    3
 10
283.10000000000122
 20
172.3000000000003
 11
286.10000000000122
 21
175.3000000000003
  0
LINE
  8
_0-a_
  6
CONTINUOUS
 62
    3
 10
292.10000000000122
 20
175.3000000000003
 11
295.10000000000122
 21
172.3000000000003
  0
LINE
  8
_0-a_
  6
CONTINUOUS
 62
    3
 10
289.10000000000122
 20
172.3000000000003
 11
292.10000000000122
 21
175.3000000000003
  0
LINE
  8
_0-a_
  6
CONTINUOUS
 62
    3
 10
298.10000000000122
 20
175.3000000000003
 11
301.10000000000122
 21
172.3000000000003
  0
LINE
  8
_0-a_
  6
CONTINUOUS
 62
    3
 10
295.10000000000122
 20
172.3000000000003
 11
298.10000000000122
 21
175.3000000000003
  0
LINE
  8
_0-a_
  6
CONTINUOUS
 62
    3
 10
304.10000000000122
 20
175.3000000000003
 11
307.10000000000122
 21
172.3000000000003
  0
LINE
  8
_0-a_
  6
CONTINUOUS
 62
    3
 10
301.10000000000122
 20
172.3000000000003
 11
304.10000000000122
 21
175.3000000000003
  0
LINE
  8
_0-a_
  6
CONTINUOUS
 62
    3
 10
310.10000000000122
 20
175.3000000000003
 11
313.10000000000122
 21
172.3000000000003
  0
LINE
  8
_0-a_
  6
CONTINUOUS
 62
    3
 10
307.10000000000122
 20
172.3000000000003
 11
310.10000000000122
 21
175.3000000000003
  0
LINE
  8
_0-a_
  6
CONTINUOUS
 62
    3
 10
316.10000000000122
 20
175.3000000000003
 11
319.10000000000122
 21
172.3000000000003
  0
LINE
  8
_0-a_
  6
CONTINUOUS
 62
    3
 10
313.10000000000122
 20
172.3000000000003
 11
316.10000000000122
 21
175.3000000000003
  0
LINE
  8
_0-a_
  6
CONTINUOUS
 62
    3
 10
322.10000000000122
 20
175.3000000000003
 11
325.10000000000122
 21
172.3000000000003
  0
LINE
  8
_0-a_
  6
CONTINUOUS
 62
    3
 10
319.10000000000122
 20
172.3000000000003
 11
322.10000000000122
 21
175.3000000000003
  0
LINE
  8
_0-a_
  6
CONTINUOUS
 62
    3
 10
274.10000000000122
 20
175.3000000000003
 11
277.10000000000122
 21
172.3000000000003
  0
LINE
  8
_0-a_
  6
CONTINUOUS
 62
    3
 10
328.10000000000122
 20
175.3000000000003
 11
331.10000000000122
 21
172.3000000000003
  0
LINE
  8
_0-a_
  6
CONTINUOUS
 62
    3
 10
325.10000000000122
 20
172.3000000000003
 11
328.10000000000122
 21
175.3000000000003
  0
LINE
  8
_0-a_
  6
CONTINUOUS
 62
    3
 10
334.10000000000122
 20
175.3000000000003
 11
337.10000000000122
 21
172.3000000000003
  0
LINE
  8
_0-a_
  6
CONTINUOUS
 62
    3
 10
331.10000000000122
 20
172.3000000000003
 11
334.10000000000122
 21
175.3000000000003
  0
LINE
  8
_0-a_
  6
CONTINUOUS
 62
    3
 10
340.10000000000122
 20
175.3000000000003
 11
343.10000000000122
 21
172.3000000000003
  0
LINE
  8
_0-a_
  6
CONTINUOUS
 62
    3
 10
337.10000000000122
 20
172.3000000000003
 11
340.10000000000122
 21
175.3000000000003
  0
LINE
  8
_0-a_
  6
CONTINUOUS
 62
    3
 10
346.10000000000122
 20
175.3000000000003
 11
349.10000000000122
 21
172.3000000000003
  0
LINE
  8
_0-a_
  6
CONTINUOUS
 62
    3
 10
343.10000000000122
 20
172.3000000000003
 11
346.10000000000122
 21
175.3000000000003
  0
LINE
  8
_0-a_
  6
CONTINUOUS
 62
    3
 10
352.10000000000122
 20
175.3000000000003
 11
355.10000000000122
 21
172.3000000000003
  0
LINE
  8
_0-a_
  6
CONTINUOUS
 62
    3
 10
349.10000000000122
 20
172.3000000000003
 11
352.10000000000122
 21
175.3000000000003
  0
LINE
  8
_0-a_
  6
CONTINUOUS
 62
    3
 10
358.10000000000122
 20
175.3000000000003
 11
361.10000000000122
 21
172.3000000000003
  0
LINE
  8
_0-a_
  6
CONTINUOUS
 62
    3
 10
355.10000000000122
 20
172.3000000000003
 11
358.10000000000122
 21
175.3000000000003
  0
LINE
  8
_0-a_
  6
CONTINUOUS
 62
    3
 10
364.10000000000122
 20
175.3000000000003
 11
367.10000000000122
 21
172.3000000000003
  0
LINE
  8
_0-a_
  6
CONTINUOUS
 62
    3
 10
361.10000000000122
 20
172.3000000000003
 11
364.10000000000122
 21
175.3000000000003
  0
LINE
  8
_0-a_
  6
CONTINUOUS
 62
    3
 10
370.10000000000122
 20
175.3000000000003
 11
373.10000000000122
 21
172.3000000000003
  0
LINE
  8
_0-a_
  6
CONTINUOUS
 62
    3
 10
367.10000000000122
 20
172.3000000000003
 11
370.10000000000122
 21
175.3000000000003
  0
LINE
  8
_0-a_
  6
CONTINUOUS
 62
    3
 10
376.10000000000122
 20
175.3000000000003
 11
379.10000000000122
 21
172.3000000000003
  0
LINE
  8
_0-a_
  6
CONTINUOUS
 62
    3
 10
373.10000000000122
 20
172.3000000000003
 11
376.10000000000122
 21
175.3000000000003
  0
LINE
  8
_0-a_
  6
CONTINUOUS
 62
    3
 10
382.10000000000122
 20
175.3000000000003
 11
385.10000000000122
 21
172.3000000000003
  0
LINE
  8
_0-a_
  6
CONTINUOUS
 62
    3
 10
379.10000000000122
 20
172.3000000000003
 11
382.10000000000122
 21
175.3000000000003
  0
LINE
  8
_0-a_
  6
CONTINUOUS
 62
    3
 10
388.10000000000122
 20
175.3000000000003
 11
391.10000000000122
 21
172.3000000000003
  0
LINE
  8
_0-a_
  6
CONTINUOUS
 62
    3
 10
385.10000000000122
 20
172.3000000000003
 11
388.10000000000122
 21
175.3000000000003
  0
LINE
  8
_0-a_
  6
CONTINUOUS
 62
    3
 10
394.10000000000122
 20
175.3000000000003
 11
397.10000000000122
 21
172.3000000000003
  0
LINE
  8
_0-a_
  6
CONTINUOUS
 62
    3
 10
391.10000000000122
 20
172.3000000000003
 11
394.10000000000122
 21
175.3000000000003
  0
LINE
  8
_0-a_
  6
CONTINUOUS
 62
    3
 10
400.10000000000122
 20
175.3000000000003
 11
403.10000000000122
 21
172.3000000000003
  0
LINE
  8
_0-a_
  6
CONTINUOUS
 62
    3
 10
397.10000000000122
 20
172.3000000000003
 11
400.10000000000122
 21
175.3000000000003
  0
LINE
  8
_0-a_
  6
CONTINUOUS
 62
    3
 10
406.10000000000122
 20
175.3000000000003
 11
409.10000000000122
 21
172.3000000000003
  0
LINE
  8
_0-a_
  6
CONTINUOUS
 62
    3
 10
403.10000000000122
 20
172.3000000000003
 11
406.10000000000122
 21
175.3000000000003
  0
LINE
  8
_0-a_
  6
CONTINUOUS
 62
    3
 10
409.10000000000122
 20
172.3000000000003
 11
412.10000000000122
 21
175.3000000000003
  0
LINE
  8
_0-a_
  6
CONTINUOUS
 62
    3
 10
481.60000000000053
 20
176.74999999998875
 11
481.60000000000053
 21
180.49999999998863
  0
LINE
  8
_0-a_
  6
CONTINUOUS
 62
    3
 10
481.60000000000076
 20
176.74999999998863
 11
481.60000000000076
 21
180.49999999998863
  0
LINE
  8
_0-a_
  6
CONTINUOUS
 62
    3
 10
486.19807621135368
 20
177.49999999998863
 11
481.60000000000053
 21
177.49999999998863
  0
LINE
  8
_0-a_
  6
CONTINUOUS
 62
    3
 10
372.60000000000076
 20
180.49999999998886
 11
375.60000000000076
 21
177.49999999998886
  0
LINE
  8
_0-a_
  6
CONTINUOUS
 62
    3
 10
369.60000000000076
 20
177.49999999998886
 11
372.60000000000076
 21
180.49999999998886
  0
LINE
  8
_0-a_
  6
CONTINUOUS
 62
    3
 10
378.60000000000076
 20
180.49999999998886
 11
381.60000000000076
 21
177.49999999998886
  0
LINE
  8
_0-a_
  6
CONTINUOUS
 62
    3
 10
375.60000000000076
 20
177.49999999998886
 11
378.60000000000076
 21
180.49999999998886
  0
LINE
  8
_0-a_
  6
CONTINUOUS
 62
    3
 10
384.60000000000076
 20
180.49999999998886
 11
387.60000000000076
 21
177.49999999998886
  0
LINE
  8
_0-a_
  6
CONTINUOUS
 62
    3
 10
381.60000000000076
 20
177.49999999998886
 11
384.60000000000076
 21
180.49999999998886
  0
LINE
  8
_0-a_
  6
CONTINUOUS
 62
    3
 10
390.60000000000076
 20
180.49999999998886
 11
393.60000000000076
 21
177.49999999998886
  0
LINE
  8
_0-a_
  6
CONTINUOUS
 62
    3
 10
387.60000000000076
 20
177.49999999998886
 11
390.60000000000076
 21
180.49999999998886
  0
LINE
  8
_0-a_
  6
CONTINUOUS
 62
    3
 10
366.60000000000076
 20
180.49999999998886
 11
369.60000000000076
 21
177.49999999998886
  0
LINE
  8
_0-a_
  6
CONTINUOUS
 62
    3
 10
402.60000000000076
 20
180.49999999998886
 11
405.60000000000076
 21
177.49999999998886
  0
LINE
  8
_0-a_
  6
CONTINUOUS
 62
    3
 10
399.60000000000076
 20
177.49999999998886
 11
402.60000000000076
 21
180.49999999998886
  0
LINE
  8
_0-a_
  6
CONTINUOUS
 62
    3
 10
408.60000000000076
 20
180.49999999998886
 11
411.60000000000076
 21
177.49999999998886
  0
LINE
  8
_0-a_
  6
CONTINUOUS
 62
    3
 10
405.60000000000076
 20
177.49999999998886
 11
408.60000000000076
 21
180.49999999998886
  0
LINE
  8
_0-a_
  6
CONTINUOUS
 62
    3
 10
414.60000000000076
 20
180.49999999998886
 11
417.60000000000076
 21
177.49999999998886
  0
LINE
  8
_0-a_
  6
CONTINUOUS
 62
    3
 10
411.60000000000076
 20
177.49999999998886
 11
414.60000000000076
 21
180.49999999998886
  0
LINE
  8
_0-a_
  6
CONTINUOUS
 62
    3
 10
420.60000000000076
 20
180.49999999998886
 11
423.60000000000076
 21
177.49999999998886
  0
LINE
  8
_0-a_
  6
CONTINUOUS
 62
    3
 10
417.60000000000076
 20
177.49999999998886
 11
420.60000000000076
 21
180.49999999998886
  0
LINE
  8
_0-a_
  6
CONTINUOUS
 62
    3
 10
396.60000000000076
 20
180.49999999998886
 11
399.60000000000076
 21
177.49999999998886
  0
LINE
  8
_0-a_
  6
CONTINUOUS
 62
    3
 10
393.60000000000076
 20
177.49999999998886
 11
396.60000000000076
 21
180.49999999998886
  0
LINE
  8
_0-a_
  6
CONTINUOUS
 62
    3
 10
432.60000000000076
 20
180.49999999998886
 11
435.60000000000076
 21
177.49999999998886
  0
LINE
  8
_0-a_
  6
CONTINUOUS
 62
    3
 10
429.60000000000076
 20
177.49999999998886
 11
432.60000000000076
 21
180.49999999998886
  0
LINE
  8
_0-a_
  6
CONTINUOUS
 62
    3
 10
438.60000000000076
 20
180.49999999998886
 11
441.60000000000076
 21
177.49999999998886
  0
LINE
  8
_0-a_
  6
CONTINUOUS
 62
    3
 10
435.60000000000076
 20
177.49999999998886
 11
438.60000000000076
 21
180.49999999998886
  0
LINE
  8
_0-a_
  6
CONTINUOUS
 62
    3
 10
444.60000000000076
 20
180.49999999998886
 11
447.60000000000076
 21
177.49999999998886
  0
LINE
  8
_0-a_
  6
CONTINUOUS
 62
    3
 10
441.60000000000076
 20
177.49999999998886
 11
444.60000000000076
 21
180.49999999998886
  0
LINE
  8
_0-a_
  6
CONTINUOUS
 62
    3
 10
450.60000000000076
 20
180.49999999998886
 11
453.60000000000076
 21
177.49999999998886
  0
LINE
  8
_0-a_
  6
CONTINUOUS
 62
    3
 10
447.60000000000076
 20
177.49999999998886
 11
450.60000000000076
 21
180.49999999998886
  0
LINE
  8
_0-a_
  6
CONTINUOUS
 62
    3
 10
426.60000000000076
 20
180.49999999998886
 11
429.60000000000076
 21
177.49999999998886
  0
LINE
  8
_0-a_
  6
CONTINUOUS
 62
    3
 10
423.60000000000076
 20
177.49999999998886
 11
426.60000000000076
 21
180.49999999998886
  0
LINE
  8
_0-a_
  6
CONTINUOUS
 62
    3
 10
456.60000000000076
 20
180.49999999998886
 11
459.60000000000076
 21
177.49999999998886
  0
LINE
  8
_0-a_
  6
CONTINUOUS
 62
    3
 10
453.60000000000076
 20
177.49999999998886
 11
456.60000000000076
 21
180.49999999998886
  0
LINE
  8
_0-a_
  6
CONTINUOUS
 62
    3
 10
459.60000000000076
 20
177.49999999998886
 11
462.60000000000076
 21
180.49999999998886
  0
LINE
  8
_0-a_
  6
CONTINUOUS
 62
    3
 10
363.60000000000076
 20
177.49999999998886
 11
366.60000000000076
 21
180.49999999998886
  0
LINE
  8
_0-a_
  6
CONTINUOUS
 62
    3
 10
363.60000000000076
 20
177.49999999998886
 11
462.60000000000076
 21
177.49999999998886
  0
LINE
  8
_0-a_
  6
CONTINUOUS
 62
    3
 10
461.10000000000053
 20
177.49999999998863
 11
462.60000000000076
 21
177.49999999998863
  0
LINE
  8
_0-a_
  6
CONTINUOUS
 62
    3
 10
491.60000000000031
 20
177.49999999998875
 11
511.24421325665747
 21
177.49999999998875
  0
LINE
  8
_0-a_
  6
CONTINUOUS
 62
    3
 10
486.19807621135368
 20
177.49999999998863
 11
511.24421325665747
 21
177.49999999998863
  0
LINE
  8
_0-a_
  6
CONTINUOUS
 62
    3
 10
488.59999999999872
 20
180.49999999998863
 11
488.59119843520824
 21
180.49999999998863
  0
LINE
  8
_0-a_
  6
CONTINUOUS
 62
    3
 10
496.60000000000053
 20
180.49999999998863
 11
499.60000000000053
 21
177.49999999998863
  0
LINE
  8
_0-a_
  6
CONTINUOUS
 62
    3
 10
493.60000000000053
 20
177.49999999998863
 11
496.60000000000053
 21
180.49999999998863
  0
LINE
  8
_0-a_
  6
CONTINUOUS
 62
    3
 10
502.60000000000053
 20
180.49999999998863
 11
505.60000000000053
 21
177.49999999998863
  0
LINE
  8
_0-a_
  6
CONTINUOUS
 62
    3
 10
499.60000000000053
 20
177.49999999998863
 11
502.60000000000053
 21
180.49999999998863
  0
LINE
  8
_0-a_
  6
CONTINUOUS
 62
    3
 10
490.60000000000053
 20
180.49999999998863
 11
493.60000000000053
 21
177.49999999998863
  0
LINE
  8
_0-a_
  6
CONTINUOUS
 62
    3
 10
487.60000000000053
 20
177.49999999998863
 11
490.60000000000053
 21
180.49999999998863
  0
LINE
  8
_0-a_
  6
CONTINUOUS
 62
    3
 10
484.60000000000053
 20
180.49999999998863
 11
487.60000000000053
 21
177.49999999998863
  0
LINE
  8
_0-a_
  6
CONTINUOUS
 62
    3
 10
508.60000000000053
 20
180.49999999998875
 11
511.60000000000053
 21
177.49999999998875
  0
LINE
  8
_0-a_
  6
CONTINUOUS
 62
    3
 10
505.60000000000053
 20
177.49999999998875
 11
508.60000000000053
 21
180.49999999998875
  0
LINE
  8
_0-a_
  6
CONTINUOUS
 62
    3
 10
481.60000000000053
 20
177.49999999998863
 11
484.60000000000053
 21
180.49999999998863
  0
INSERT
  2
-004-
  8
_0-a_
 10
420.5
 20
297
 41
1
 42
1
 50
0
  0
INSERT
  2
-005-_1_
  8
_0-a_
 10
420.5
 20
297
 41
1
 42
1
 50
0
  0
LINE
  8
_0-a_
  6
CONTINUOUS
 62
    3
 10
280.29999998258285
 20
213.29000071529731
 11
281.29999998258285
 21
210.54252329584324
  0
LINE
  8
_0-a_
  6
DASHED1
 62
    3
 10
387.10000000000076
 20
149.49999999998886
 11
387.10000000000076
 21
152.99999999998875
  0
LINE
  8
_0-a_
  6
DASHED1
 62
    3
 10
402.10000000000076
 20
149.49999999998886
 11
402.10000000000076
 21
152.99999999998875
  0
LINE
  8
_0-a_
  6
DASHED1
 62
    3
 10
442.09999999999985
 20
149.49999999998886
 11
442.09999999999985
 21
151.99999999998886
  0
LINE
  8
_0-a_
  6
DASHED1
 62
    3
 10
457.09999999999985
 20
149.49999999998886
 11
457.09999999999985
 21
151.99999999998886
  0
LINE
  8
_0-a_
  6
DASHED1
 62
    3
 10
457.09999999999985
 20
149.49999999998886
 11
457.09999999999985
 21
151.99999999998886
  0
LINE
  8
_0-a_
  6
DASHED1
 62
    3
 10
262.39999825168724
 20
172.99999999999454
 11
260.59999999999644
 21
172.99999999999454
  0
LINE
  8
_0-a_
  6
DASHED1
 62
    3
 10
262.39999825168724
 20
187.99999999999454
 11
260.60000000878603
 21
187.99999999999454
  0
LINE
  8
_0-a_
  6
CONTINUOUS
 62
    3
 10
468.31000000000057
 20
177.69999999998856
 11
471.0574774194551
 21
178.69999999998868
  0
LINE
  8
_0-0_躯体
  6
CONTINUOUS
 62
    2
 10
259.59999999999803
 20
233.50000000000023
 11
259.59999999999803
 21
48.5
  0
LINE
  8
_0-0_躯体
  6
CONTINUOUS
 62
    2
 10
359.59999999999781
 20
148.50000000000023
 11
359.59999999999781
 21
48.5
  0
LINE
  8
_0-0_躯体
  6
CENTER1
 62
    2
 10
309.60000000000076
 20
148.49999999998875
 11
309.60000000000076
 21
48.5
  0
LINE
  8
_0-f_寸法
  6
CONTINUOUS
 62
    4
 10
284.59999995219181
 20
226.50000017013826
 11
284.59999995219181
 21
254.50000000000023
  0
LINE
  8
_0-f_寸法
  6
CONTINUOUS
 62
    4
 10
259.59999999999803
 20
234.50000000000023
 11
259.59999999999803
 21
254.50000000000023
  0
POINT
  8
_0-f_寸法
 62
    4
 10
259.59999999999803
 20
253.50000000000023
  0
POINT
  8
_0-f_寸法
 62
    4
 10
284.59999995219181
 20
253.50000000000023
  0
LINE
  8
_0-f_寸法
  6
CONTINUOUS
 62
    4
 10
259.59999999999803
 20
253.50000000000023
 11
284.59999995219181
 21
253.50000000000023
  0
TEXT
  8
_0-f_寸法
 62
    4
 10
268.49999997609467
 20
253.50000000000023
 40
9
 41
0.8
 50
0
  1
25
  0
LINE
  8
_0-f_寸法
  6
CONTINUOUS
 62
    4
 10
354.60000000000076
 20
177.99999999998886
 11
354.60000000000076
 21
254.50000000000023
  0
POINT
  8
_0-f_寸法
 62
    4
 10
284.59999995219181
 20
253.50000000000023
  0
POINT
  8
_0-f_寸法
 62
    4
 10
354.60000000000076
 20
253.50000000000023
  0
LINE
  8
_0-f_寸法
  6
CONTINUOUS
 62
    4
 10
284.59999995219181
 20
253.50000000000023
 11
354.60000000000076
 21
253.50000000000023
  0
TEXT
  8
_0-f_寸法
 62
    4
 10
315.99999997609626
 20
253.50000000000023
 40
9
 41
0.8
 50
0
  1
70
  0
LINE
  8
_0-f_寸法
  6
CONTINUOUS
 62
    4
 10
489.59999999999962
 20
181.99999999998863
 11
489.59999999999962
 21
254.50000000000023
  0
POINT
  8
_0-f_寸法
 62
    4
 10
354.60000000000076
 20
253.50000000000023
  0
POINT
  8
_0-f_寸法
 62
    4
 10
489.59999999999962
 20
253.50000000000023
  0
LINE
  8
_0-f_寸法
  6
CONTINUOUS
 62
    4
 10
354.60000000000076
 20
253.50000000000023
 11
489.59999999999962
 21
253.50000000000023
  0
TEXT
  8
_0-f_寸法
 62
    4
 10
416.70000000000033
 20
253.50000000000023
 40
9
 41
0.8
 50
0
  1
135
  0
LINE
  8
_0-f_寸法
  6
CONTINUOUS
 62
    4
 10
489.59999999999962
 20
254.50000000000023
 11
489.59999999999962
 21
274.50000000000023
  0
LINE
  8
_0-f_寸法
  6
CONTINUOUS
 62
    4
 10
259.59999999999803
 20
254.50000000000023
 11
259.59999999999803
 21
274.50000000000023
  0
POINT
  8
_0-f_寸法
 62
    4
 10
259.59999999999803
 20
273.50000000000023
  0
POINT
  8
_0-f_寸法
 62
    4
 10
489.59999999999962
 20
273.50000000000023
  0
LINE
  8
_0-f_寸法
  6
CONTINUOUS
 62
    4
 10
259.59999999999803
 20
273.50000000000023
 11
489.59999999999962
 21
273.50000000000023
  0
TEXT
  8
_0-f_寸法
 62
    4
 10
369.19999999999897
 20
273.50000000000023
 40
9
 41
0.8
 50
0
  1
230
  0
LINE
  8
_0-f_寸法
  6
CONTINUOUS
 62
    4
 10
285.59999995219181
 20
225.50000017013826
 11
532.24421325665764
 21
225.50000017013821
  0
LINE
  8
_0-f_寸法
  6
CONTINUOUS
 62
    4
 10
512.24421325665764
 20
180.49999999998863
 11
532.24421325665764
 21
180.49999999998863
  0
POINT
  8
_0-f_寸法
 62
    4
 10
531.24421325665764
 20
180.49999999998863
  0
POINT
  8
_0-f_寸法
 62
    4
 10
531.24421325665764
 20
225.50000017013821
  0
LINE
  8
_0-f_寸法
  6
CONTINUOUS
 62
    4
 10
531.24421325665764
 20
180.49999999998863
 11
531.24421325665764
 21
225.50000017013821
  0
TEXT
  8
_0-f_寸法
 62
    4
 10
531.24421325665764
 20
199.40000008506337
 40
9
 41
0.8
 50
90
  1
45
  0
LINE
  8
_0-f_寸法
  6
CONTINUOUS
 62
    4
 10
281.2000011725226
 20
152.49999999968531
 11
281.2000011725226
 21
127.49999999998875
  0
LINE
  8
_0-f_寸法
  6
CONTINUOUS
 62
    4
 10
259.59999999999803
 20
147.49999999998875
 11
259.59999999999803
 21
127.49999999998875
  0
POINT
  8
_0-f_寸法
 62
    4
 10
259.59999999999803
 20
128.49999999998875
  0
POINT
  8
_0-f_寸法
 62
    4
 10
281.2000011725226
 20
128.49999999998875
  0
LINE
  8
_0-f_寸法
  6
CONTINUOUS
 62
    4
 10
259.59999999999803
 20
128.49999999998875
 11
281.2000011725226
 21
128.49999999998875
  0
TEXT
  8
_0-f_寸法
 62
    4
 10
263.20000058626033
 20
128.49999999998875
 40
9
 41
0.8
 50
0
  1
21.6
  0
LINE
  8
_0-0_躯体
  6
CONTINUOUS
 62
    2
 10
481.60000000000076
 20
177.49999999998863
 11
521.60000000000048
 21
177.49999999998863
  0
LINE
  8
_0-f_寸法
  6
CONTINUOUS
 62
    4
 10
354.60000000000076
 20
149.49999999998886
 11
354.60000000000076
 21
122.49999999998886
  0
LINE
  8
_0-f_寸法
  6
CONTINUOUS
 62
    4
 10
359.59999999999781
 20
142.49999999998886
 11
359.59999999999781
 21
122.49999999998886
  0
POINT
  8
_0-f_寸法
 62
    4
 10
359.59999999999781
 20
123.49999999998886
  0
POINT
  8
_0-f_寸法
 62
    4
 10
354.60000000000076
 20
123.49999999998886
  0
LINE
  8
_0-f_寸法
  6
CONTINUOUS
 62
    4
 10
359.59999999999781
 20
123.49999999998886
 11
354.60000000000076
 21
123.49999999998886
  0
TEXT
  8
_0-f_寸法
 62
    4
 10
355.29999999999939
 20
123.49999999998886
 40
9
 41
0.8
 50
0
  1
5
  0
CIRCLE
  8
_0-e_付箋
  6
CONTINUOUS
 62
    4
 10
445.83767447825579
 20
190.71903262685305
 40
4.8827102566353844
  0
TEXT
  8
_0-e_付箋
 62
    4
 10
442.83767447825579
 20
187.71903262685305
 40
6
 41
1
 50
0
  1
１
  0
LINE
  8
_0-e_付箋
  6
CONTINUOUS
 62
    4
 10
438.35000000000622
 20
176.24999999998863
 11
444.07481091994708
 21
186.16566337705126
  0
CIRCLE
  8
_0-e_付箋
  6
CONTINUOUS
 62
    4
 10
325.38767372825026
 20
185.32903062686512
 40
4.8827102566353844
  0
TEXT
  8
_0-e_付箋
 62
    4
 10
322.38767372825026
 20
182.32903062686512
 40
6
 41
1
 50
0
  1
２
  0
LINE
  8
_0-e_付箋
  6
CONTINUOUS
 62
    4
 10
317.89999925000069
 20
170.8599980000007
 11
323.62481016994155
 21
180.77566137706333
  0
CIRCLE
  8
_0-e_付箋
  6
CONTINUOUS
 62
    4
 10
295.69037976443695
 20
156.29999960210921
 40
4.8827102566353844
  0
TEXT
  8
_0-e_付箋
 62
    4
 10
292.69037976443695
 20
153.29999960210921
 40
6
 41
1
 50
0
  1
７
  0
LINE
  8
_0-e_付箋
  6
CONTINUOUS
 62
    4
 10
291.46182864287192
 20
158.74135473042691
 11
282.69999870767055
 21
163.79999960210921
  0
CIRCLE
  8
_0-e_付箋
  6
CONTINUOUS
 62
    4
 10
347.11232552175119
 20
141.68096737313022
 40
4.8827102566353844
  0
TEXT
  8
_0-e_付箋
 62
    4
 10
344.11232552175119
 20
138.68096737313022
 40
6
 41
1
 50
0
  1
４
  0
LINE
  8
_0-e_付箋
  6
CONTINUOUS
 62
    4
 10
354.60000000000076
 20
156.14999999999463
 11
348.8751890800599
 21
146.23433662293201
  0
CIRCLE
  8
_0-e_付箋
  6
CONTINUOUS
 62
    4
 10
409.59999999999803
 20
129.764116701435
 40
4.8827102566353844
  0
LINE
  8
_0-e_付箋
  6
CONTINUOUS
 62
    4
 10
407.15864487168045
 20
133.99266782300003
 11
394.59999999999803
 21
155.74487881496816
  0
TEXT
  8
_0-e_付箋
 62
    4
 10
406.59999999999803
 20
126.764116701435
 40
6
 41
1
 50
0
  1
11
  0
CIRCLE
  8
_0-e_付箋
  6
CONTINUOUS
 62
    4
 10
469.09999999999962
 20
126.76923788645547
 40
4.8827102566353844
  0
LINE
  8
_0-e_付箋
  6
CONTINUOUS
 62
    4
 10
466.65864487168204
 20
130.9977890080205
 11
454.09999999999962
 21
152.74999999998863
  0
TEXT
  8
_0-e_付箋
 62
    4
 10
466.09999999999962
 20
123.76923788645547
 40
6
 41
1
 50
0
  1
12
  0
CIRCLE
  8
_0-e_付箋
  6
CONTINUOUS
 62
    4
 10
295.34213679625344
 20
143.25786467700891
 40
4.8827102566353844
  0
TEXT
  8
_0-e_付箋
 62
    4
 10
292.34213679625344
 20
140.25786467700891
 40
6
 41
1
 50
0
  1
５
  0
LINE
  8
_0-e_付箋
  6
CONTINUOUS
 62
    4
 10
291.8895392632175
 20
146.71046221004497
 11
281.2000011725226
 21
157.40000030073986
  0
CIRCLE
  8
_0-e_付箋
  6
CONTINUOUS
 62
    4
 10
477.60000000000031
 20
193.74038105675527
 40
4.8827102566353844
  0
LINE
  8
_0-e_付箋
  6
CONTINUOUS
 62
    4
 10
475.15864487168272
 20
189.51182993519012
 11
470.10000000000031
 21
180.74999999998863
  0
TEXT
  8
_0-e_付箋
 62
    4
 10
474.60000000000031
 20
190.74038105675527
 40
6
 41
1
 50
0
  1
９
  0
CIRCLE
  8
_0-e_付箋
  6
CONTINUOUS
 62
    4
 10
342.59899027263003
 20
51.25275581817607
 40
4.8827102566353844
  0
TEXT
  8
_0-e_付箋
 62
    4
 10
339.59899027263003
 20
48.25275581817607
 40
6
 41
1
 50
0
  1
６
  0
LINE
  8
_0-e_付箋
  6
CONTINUOUS
 62
    4
 10
339.14639273959409
 20
54.705353351212011
 11
331.99238855483185
 21
61.859357535974254
  0
CIRCLE
  8
_0-e_付箋
  6
CONTINUOUS
 62
    4
 10
295.20078511670403
 20
189.30112895757668
 40
4.8827102566353844
  0
TEXT
  8
_0-e_付箋
 62
    4
 10
292.20078511670403
 20
186.30112895757668
 40
6
 41
1
 50
0
  1
８
  0
LINE
  8
_0-e_付箋
  6
CONTINUOUS
 62
    4
 10
291.74818758366808
 20
185.84853142454068
 11
284.59418339890584
 21
178.69452723977849
  0
TEXT
  8
_0-e_付箋
 62
    4
 10
292.20660166998999
 20
204.98160188793645
 40
6
 41
1
 50
0
  1
３
  0
LINE
  8
_0-e_付箋
  6
CONTINUOUS
 62
    4
 10
291.75400413695382
 20
204.52900435490045
 11
284.59999995219181
 21
197.37500017013826
  0
CIRCLE
  8
_0-e_付箋
  6
CONTINUOUS
 62
    4
 10
295.20660166998999
 20
207.98160188793645
 40
4.8827102566353844
  0
LINE
  8
_0-0_躯体
  6
CONTINUOUS
 62
    2
 10
187.59999999999823
 20
444.5
 11
187.59999999999823
 21
410.5000000000116
  0
LINE
  8
_0-0_躯体
  6
CONTINUOUS
 62
    2
 10
197.599999999998
 20
415.5000000000116
 11
259.60000000000076
 21
415.5000000000116
  0
LINE
  8
_0-0_躯体
  6
CONTINUOUS
 62
    2
 10
187.59999999999823
 20
444.5
 11
187.59999999999823
 21
410.5000000000116
  0
LINE
  8
_0-0_躯体
  6
CONTINUOUS
 62
    2
 10
259.60000000000076
 20
410.5000000000116
 11
187.59999999999823
 21
410.5000000000116
  0
LINE
  8
_0-0_躯体
  6
CONTINUOUS
 62
    2
 10
481.60000000000053
 20
444.25000000000023
 11
481.60000000000053
 21
415.51201419559993
  0
LINE
  8
_0-0_躯体
  6
CONTINUOUS
 62
    2
 10
197.599999999998
 20
444.5
 11
197.599999999998
 21
415.50000000000023
  0
LINE
  8
_0-0_躯体
  6
CONTINUOUS
 62
    2
 10
359.60000000000076
 20
415.5
 11
481.60000000000053
 21
415.5
  0
LINE
  8
_0-0_躯体
  6
CONTINUOUS
 62
    2
 10
481.60000000000053
 20
444.49999999999977
 11
481.60000000000053
 21
415.5
  0
INSERT
  2
-006-HATCHING_4_
  8
_0-0_躯体
 10
420.5
 20
297
 41
1
 42
1
 50
0
  0
LINE
  8
_0-0_躯体
  6
CONTINUOUS
 62
    2
 10
491.60000000000122
 20
410.50000000000023
 11
491.60000000000122
 21
444.50000000000023
  0
LINE
  8
_0-0_躯体
  6
CONTINUOUS
 62
    2
 10
359.60000000000099
 20
410.50000000000023
 11
491.60000000000122
 21
410.50000000000023
  0
INSERT
  2
-007-HATCHING_5_
  8
_0-0_躯体
 10
420.5
 20
297
 41
1
 42
1
 50
0
  0
LINE
  8
_0-a_
  6
CONTINUOUS
 62
    3
 10
414.30000000000081
 20
420
 11
394.90000000000072
 21
420
  0
LINE
  8
_0-a_
  6
CONTINUOUS
 62
    3
 10
274.10000000000235
 20
442.30000000001155
 11
367.25321324562987
 21
442.30000000001155
  0
LINE
  8
_0-a_
  6
CONTINUOUS
 62
    3
 10
418.10000000000235
 20
437.30000000001155
 11
418.10000000000235
 21
430.30000000001155
  0
LINE
  8
_0-a_
  6
CONTINUOUS
 62
    3
 10
412.10000000000213
 20
439.30000000001155
 11
388.16623447556702
 21
439.30000000001155
  0
LINE
  8
_0-a_
  6
CONTINUOUS
 62
    3
 10
416.10000000000235
 20
436.30000000001155
 11
387.62288941997411
 21
436.30000000001155
  0
LINE
  8
_0-a_
  6
CONTINUOUS
 62
    3
 10
409.60000000000053
 20
415.5
 11
409.60000000000053
 21
416.50000000000023
  0
LINE
  8
_0-a_
  6
CONTINUOUS
 62
    3
 10
359.60000000000076
 20
415.5
 11
409.60000000000053
 21
415.5
  0
LINE
  8
_0-a_
  6
CONTINUOUS
 62
    3
 10
403.60000000000053
 20
421.5
 11
385.59999999999962
 21
421.5
  0
LINE
  8
_0-a_
  6
CONTINUOUS
 62
    3
 10
403.60000000000053
 20
420
 11
385.59999999999962
 21
420
  0
LINE
  8
_0-a_
  6
CONTINUOUS
 62
    3
 10
403.60000000000053
 20
421.5
 11
403.60000000000053
 21
420
  0
LINE
  8
_0-a_
  6
CONTINUOUS
 62
    3
 10
385.59999999999962
 20
421.5
 11
385.59999999999962
 21
420
  0
LINE
  8
_0-a_
  6
CONTINUOUS
 62
    3
 10
399.10000000000076
 20
421.5
 11
398.9910872161999
 21
422.74487881500022
  0
LINE
  8
_0-a_
  6
CONTINUOUS
 62
    3
 10
390.20891278369999
 20
422.74487881500022
 11
390.10000000000076
 21
421.5
  0
ARC
  8
_0-a_
  6
CONTINUOUS
 62
    3
 10
391.19514553489915
 20
422.65859462969979
 40
0.9899999999999997
 50
127.36755803204984
 51
175.00000000119397
  0
ARC
  8
_0-a_
  6
CONTINUOUS
 62
    3
 10
398.0048544651001
 20
422.65859462969979
 40
0.9899999999999997
 50
4.9999999988060591
 51
52.632441967950172
  0
ARC
  8
_0-a_
  6
CONTINUOUS
 62
    3
 10
394.59999999999962
 20
418.20000000000005
 40
6.5999999999999996
 50
52.632441967704736
 51
68.266383543397851
  0
ARC
  8
_0-a_
  6
CONTINUOUS
 62
    3
 10
394.59999999999962
 20
418.20000000000005
 40
6.5999999999999996
 50
111.74840859090317
 51
127.36755803230544
  0
LINE
  8
_0-a_
  6
CONTINUOUS
 62
    3
 10
394.91499999999991
 20
424.7591271296003
 11
394.91499999999991
 21
424.32331223959977
  0
LINE
  8
_0-a_
  6
CONTINUOUS
 62
    3
 10
395.26228868190123
 20
424.7591271296003
 11
394.91499999999991
 21
424.7591271296003
  0
LINE
  8
_0-a_
  6
CONTINUOUS
 62
    3
 10
397.04250326849973
 20
424.32331223959977
 11
395.26228868190123
 21
424.7591271296003
  0
LINE
  8
_0-a_
  6
CONTINUOUS
 62
    3
 10
393.9377113179998
 20
424.7591271296003
 11
392.63780105029986
 21
424.49369130820037
  0
LINE
  8
_0-a_
  6
CONTINUOUS
 62
    3
 10
392.63780105029986
 20
424.49369130820037
 11
392.1574967314013
 21
424.32331223959977
  0
LINE
  8
_0-a_
  6
CONTINUOUS
 62
    3
 10
394.2849999999998
 20
424.7591271296003
 11
393.9377113179998
 21
424.7591271296003
  0
LINE
  8
_0-a_
  6
CONTINUOUS
 62
    3
 10
394.2849999999998
 20
424.32331223959977
 11
394.2849999999998
 21
424.7591271296003
  0
LINE
  8
_0-a_
  6
CONTINUOUS
 62
    3
 10
394.91499999999991
 20
424.32331223959977
 11
394.59999999999962
 21
424.32841741400011
  0
LINE
  8
_0-a_
  6
CONTINUOUS
 62
    3
 10
394.59999999999962
 20
424.32841741400011
 11
394.2849999999998
 21
424.32331223959977
  0
LINE
  8
_0-a_
  6
CONTINUOUS
 62
    3
 10
394.90000000000072
 20
420
 11
394.60000000000031
 21
419.70000000000027
  0
LINE
  8
_0-a_
  6
CONTINUOUS
 62
    3
 10
394.60000000000031
 20
419.70000000000027
 11
394.30000000000058
 21
420
  0
ARC
  8
_0-a_
  6
CONTINUOUS
 62
    3
 10
309.60000000000167
 20
351.25174609081836
 40
31.667619588170766
 50
195.00000000000017
 51
344.99999999999966
  0
ARC
  8
_0-a_
  6
CONTINUOUS
 62
    3
 10
309.60000000000167
 20
351.25174609081836
 40
30.667619588170769
 50
195.00000000000054
 51
344.99999999999983
  0
LINE
  8
_0-a_
  6
CONTINUOUS
 62
    3
 10
358.83267301202108
 20
416.50000000001137
 11
339.22264579102324
 21
343.31438207344053
  0
LINE
  8
_0-a_
  6
CONTINUOUS
 62
    3
 10
359.60000000000076
 20
415.5000000000116
 11
340.18857161731324
 21
343.0555630283381
  0
LINE
  8
_0-a_
  6
CONTINUOUS
 62
    3
 10
259.60000000000213
 20
415.5000000000116
 11
279.0114283826901
 21
343.0555630283381
  0
LINE
  8
_0-a_
  6
CONTINUOUS
 62
    3
 10
260.36732698798181
 20
416.50000000001137
 11
279.97735420898033
 21
343.31438207344053
  0
LINE
  8
_0-a_
  6
CONTINUOUS
 62
    3
 10
274.10000000000235
 20
439.30000000001155
 11
412.10000000000213
 21
439.30000000001155
  0
LINE
  8
_0-a_
  6
CONTINUOUS
 62
    3
 10
458.59999999999985
 20
420.5
 11
440.59999999999872
 21
420.5
  0
LINE
  8
_0-a_
  6
CONTINUOUS
 62
    3
 10
458.59999999999985
 20
419
 11
440.59999999999872
 21
419
  0
LINE
  8
_0-a_
  6
CONTINUOUS
 62
    3
 10
458.59999999999985
 20
420.5
 11
458.59999999999985
 21
419
  0
LINE
  8
_0-a_
  6
CONTINUOUS
 62
    3
 10
440.59999999999872
 20
420.5
 11
440.59999999999872
 21
419
  0
LINE
  8
_0-a_
  6
CONTINUOUS
 62
    3
 10
454.09999999999985
 20
420.5
 11
453.99108721619922
 21
421.74487881499999
  0
LINE
  8
_0-a_
  6
CONTINUOUS
 62
    3
 10
445.20891278369908
 20
421.74487881499999
 11
445.09999999999985
 21
420.5
  0
ARC
  8
_0-a_
  6
CONTINUOUS
 62
    3
 10
446.19514553489824
 20
421.65859462969979
 40
0.9899999999999997
 50
127.36755803205183
 51
175.0000000012005
  0
ARC
  8
_0-a_
  6
CONTINUOUS
 62
    3
 10
453.00485446509919
 20
421.65859462969979
 40
0.9899999999999997
 50
4.9999999987995034
 51
52.632441967948175
  0
ARC
  8
_0-a_
  6
CONTINUOUS
 62
    3
 10
449.59999999999872
 20
417.19999999999982
 40
6.5999999999999996
 50
52.632441967704736
 51
68.266383543398021
  0
ARC
  8
_0-a_
  6
CONTINUOUS
 62
    3
 10
449.59999999999872
 20
417.19999999999982
 40
6.5999999999999996
 50
111.74840859090317
 51
127.36755803230515
  0
LINE
  8
_0-a_
  6
CONTINUOUS
 62
    3
 10
449.91499999999922
 20
423.75912712960007
 11
449.91499999999922
 21
423.32331223959977
  0
LINE
  8
_0-a_
  6
CONTINUOUS
 62
    3
 10
450.26228868190032
 20
423.75912712960007
 11
449.91499999999922
 21
423.75912712960007
  0
LINE
  8
_0-a_
  6
CONTINUOUS
 62
    3
 10
452.04250326849905
 20
423.32331223959977
 11
450.26228868190032
 21
423.75912712960007
  0
LINE
  8
_0-a_
  6
CONTINUOUS
 62
    3
 10
448.93771131799912
 20
423.75912712960007
 11
447.63780105029895
 21
423.49369130820014
  0
LINE
  8
_0-a_
  6
CONTINUOUS
 62
    3
 10
447.63780105029895
 20
423.49369130820014
 11
447.15749673140039
 21
423.32331223959977
  0
LINE
  8
_0-a_
  6
CONTINUOUS
 62
    3
 10
449.28499999999912
 20
423.75912712960007
 11
448.93771131799912
 21
423.75912712960007
  0
LINE
  8
_0-a_
  6
CONTINUOUS
 62
    3
 10
449.28499999999912
 20
423.32331223959977
 11
449.28499999999912
 21
423.75912712960007
  0
LINE
  8
_0-a_
  6
CONTINUOUS
 62
    3
 10
449.91499999999922
 20
423.32331223959977
 11
449.59999999999872
 21
423.32841741400011
  0
LINE
  8
_0-a_
  6
CONTINUOUS
 62
    3
 10
449.59999999999872
 20
423.32841741400011
 11
449.28499999999912
 21
423.32331223959977
  0
LINE
  8
_0-a_
  6
CONTINUOUS
 62
    3
 10
429.60000000000076
 20
420
 11
432.10000000000053
 21
419.00000000000045
  0
LINE
  8
_0-a_
  6
CONTINUOUS
 62
    3
 10
449.60000000000099
 20
418.69999999999982
 11
449.30000000000126
 21
419.00000000000045
  0
LINE
  8
_0-a_
  6
CONTINUOUS
 62
    3
 10
449.90000000000072
 20
419.00000000000045
 11
449.60000000000099
 21
418.69999999999982
  0
LINE
  8
_0-a_
  6
CONTINUOUS
 62
    3
 10
449.30000000000126
 20
419.00000000000023
 11
432.10000000000053
 21
419.00000000000023
  0
LINE
  8
_0-a_
  6
CONTINUOUS
 62
    3
 10
458.59999999999985
 20
420.5
 11
458.59999999999985
 21
419
  0
ARC
  8
_0-a_
  6
CONTINUOUS
 62
    3
 10
355.60000000000076
 20
417.50000000000023
 40
1
 50
180
 51
270
  0
ARC
  8
_0-a_
  6
CONTINUOUS
 62
    3
 10
360.60000000000076
 20
423
 40
3
 50
180
 51
270
  0
LINE
  8
_0-a_
  6
CONTINUOUS
 62
    3
 10
354.60000000000076
 20
428.80000000001178
 11
354.60000000000076
 21
417.50000000000023
  0
LINE
  8
_0-a_
  6
CONTINUOUS
 62
    3
 10
353.09999850000094
 20
433.29999800001201
 11
353.09999850000094
 21
428.30000000001178
  0
LINE
  8
_0-a_
  6
CONTINUOUS
 62
    3
 10
353.09999850000094
 20
428.30000000001178
 11
354.59999850000025
 21
428.30000000001178
  0
LINE
  8
_0-a_
  6
CONTINUOUS
 62
    3
 10
357.59999850000048
 20
428.30000000001178
 11
359.09999850000048
 21
428.30000000001178
  0
LINE
  8
_0-a_
  6
CONTINUOUS
 62
    3
 10
359.09999850000048
 20
428.30000000001178
 11
359.09999850000048
 21
433.29999800001201
  0
ARC
  8
_0-a_
  6
CONTINUOUS
 62
    3
 10
356.09999850000025
 20
433.29999800001201
 40
1.7000010000000001
 50
0
 51
180
  0
ARC
  8
_0-a_
  6
CONTINUOUS
 62
    3
 10
356.09999850000025
 20
433.29999800001201
 40
3
 50
0
 51
180
  0
LINE
  8
_0-a_
  6
CONTINUOUS
 62
    3
 10
357.59999250000095
 20
430.29999800001178
 11
357.3561495000003
 21
430.29999800001178
  0
ARC
  8
_0-a_
  6
CONTINUOUS
 62
    3
 10
357.3561495000003
 20
430.10000000001196
 40
0.200001
 50
90
 51
194.03640200002641
  0
LINE
  8
_0-a_
  6
CONTINUOUS
 62
    3
 10
357.59999850000048
 20
428.30000000001178
 11
357.16212150000041
 21
430.05149300001199
  0
LINE
  8
_0-a_
  6
CONTINUOUS
 62
    3
 10
354.59999850000025
 20
430.29999800001178
 11
354.8438445000001
 21
430.29999800001178
  0
ARC
  8
_0-a_
  6
CONTINUOUS
 62
    3
 10
354.8438445000001
 20
430.10000000001196
 40
0.200001
 50
345.96380799999201
 51
90
  0
LINE
  8
_0-a_
  6
CONTINUOUS
 62
    3
 10
354.60000150000013
 20
428.30000000001178
 11
355.03787250000113
 21
430.05149300001199
  0
LINE
  8
_0-a_
  6
CONTINUOUS
 62
    3
 10
357.59999250000095
 20
430.29999800001178
 11
357.79999349999997
 21
430.29999800001178
  0
LINE
  8
_0-a_
  6
CONTINUOUS
 62
    3
 10
357.79999349999997
 20
430.29999800001178
 11
357.79999950000041
 21
433.29999800001201
  0
LINE
  8
_0-a_
  6
CONTINUOUS
 62
    3
 10
354.60000150000013
 20
430.29999800001178
 11
354.39999750000032
 21
430.29999800001178
  0
LINE
  8
_0-a_
  6
CONTINUOUS
 62
    3
 10
354.39999750000032
 20
430.29999800001178
 11
354.39999750000032
 21
433.29999800001201
  0
LINE
  8
_0-a_
  6
CONTINUOUS
 62
    3
 10
355.10000000000122
 20
430.30000000001178
 11
354.60000000000076
 21
428.30000000001178
  0
LINE
  8
_0-a_
  6
CONTINUOUS
 62
    3
 10
354.60000000000076
 20
430.30000000001178
 11
355.10000000000122
 21
430.30000000001178
  0
LINE
  8
_0-a_
  6
CONTINUOUS
 62
    3
 10
354.60000000000076
 20
433.30000000001178
 11
354.60000000000076
 21
430.30000000001178
  0
ARC
  8
_0-a_
  6
CONTINUOUS
 62
    3
 10
356.10000000000076
 20
433.30000000001178
 40
1.5
 50
0
 51
180
  0
LINE
  8
_0-a_
  6
CONTINUOUS
 62
    3
 10
357.60000000000122
 20
430.30000000001178
 11
357.60000000000122
 21
433.30000000001178
  0
LINE
  8
_0-a_
  6
CONTINUOUS
 62
    3
 10
357.10000000000076
 20
430.30000000001178
 11
357.60000000000122
 21
430.30000000001178
  0
LINE
  8
_0-a_
  6
CONTINUOUS
 62
    3
 10
357.60000000000122
 20
428.30000000001178
 11
357.10000000000076
 21
430.30000000001178
  0
LINE
  8
_0-a_
  6
CONTINUOUS
 62
    3
 10
357.60000000000122
 20
422.5
 11
357.60000000000122
 21
428.30000000001178
  0
LINE
  8
_0-a_
  6
CONTINUOUS
 62
    3
 10
394.30000000000058
 20
420
 11
360.60000000000076
 21
420
  0
LINE
  8
_0-a_
  6
CONTINUOUS
 62
    3
 10
355.60000000000076
 20
416.50000000000023
 11
409.60000000000053
 21
416.50000000000023
  0
LINE
  8
_0-a_
  6
CONTINUOUS
 62
    3
 10
354.60000000000076
 20
442.00000000000023
 11
463.10000000000053
 21
442.00000000000023
  0
LINE
  8
_0-a_
  6
CONTINUOUS
 62
    3
 10
418.10000000000235
 20
437.30000000001155
 11
418.10000000000235
 21
430.30000000001155
  0
LINE
  8
_0-a_
  6
CONTINUOUS
 62
    3
 10
418.10000000000235
 20
437.30000000001155
 11
418.10000000000235
 21
430.30000000001155
  0
LINE
  8
_0-a_
  6
CONTINUOUS
 62
    3
 10
418.10000000000235
 20
430.30000000001155
 11
416.10000000000235
 21
430.30000000001155
  0
LINE
  8
_0-a_
  6
CONTINUOUS
 62
    3
 10
418.10000000000235
 20
437.30000000001155
 11
418.10000000000235
 21
430.30000000001155
  0
LINE
  8
_0-a_
  6
CONTINUOUS
 62
    3
 10
412.10000000000213
 20
439.30000000001155
 11
412.10000000000213
 21
442.30000000001155
  0
LINE
  8
_0-a_
  6
CONTINUOUS
 62
    3
 10
416.10000000000235
 20
436.30000000001155
 11
416.10000000000235
 21
430.30000000001155
  0
LINE
  8
_0-a_
  6
CONTINUOUS
 62
    3
 10
414.10000000000235
 20
442.0000000000116
 11
412.10000000000213
 21
442.0000000000116
  0
LINE
  8
_0-a_
  6
CONTINUOUS
 62
    3
 10
414.10000000000235
 20
442.0000000000116
 11
418.10000000000235
 21
437.30000000001155
  0
LINE
  8
_0-a_
  6
CONTINUOUS
 62
    3
 10
412.10000000000213
 20
442.30000000001155
 11
318.94678675437461
 21
442.30000000001155
  0
ARC
  8
_0-a_
  6
CONTINUOUS
 62
    3
 10
362.60000000000076
 20
447.50000000000023
 40
1
 50
0
 51
90
  0
LINE
  8
_0-a_
  6
CONTINUOUS
 62
    3
 10
363.60000000000076
 20
447.50000000000023
 11
363.60000000000076
 21
444.50000000000023
  0
ARC
  8
_0-a_
  6
CONTINUOUS
 62
    3
 10
362.60000000000053
 20
447.50000000000023
 40
1
 50
0
 51
90
  0
LINE
  8
_0-a_
  6
CONTINUOUS
 62
    3
 10
354.60000000000076
 20
442.00000000000023
 11
354.60000000000076
 21
444.00000000000023
  0
LINE
  8
_0-a_
  6
CONTINUOUS
 62
    3
 10
362.30000000000058
 20
448.50000000000023
 11
354.60000000000076
 21
444.00000000000023
  0
LINE
  8
_0-a_
  6
CONTINUOUS
 62
    3
 10
354.60000000000076
 20
442.00000000000023
 11
354.60000000000076
 21
444.00000000000023
  0
ARC
  8
_0-a_
  6
CONTINUOUS
 62
    3
 10
362.60000000000053
 20
447.50000000000023
 40
1
 50
0
 51
90
  0
LINE
  8
_0-a_
  6
CONTINUOUS
 62
    3
 10
354.60000000000076
 20
442.00000000000023
 11
354.60000000000076
 21
444.00000000000023
  0
LINE
  8
_0-a_
  6
CONTINUOUS
 62
    3
 10
363.60000000000076
 20
447.50000000000023
 11
363.60000000000076
 21
444.50000000000023
  0
LINE
  8
_0-a_
  6
CONTINUOUS
 62
    3
 10
363.60000000000076
 20
447.50000000000023
 11
363.60000000000076
 21
444.50000000000023
  0
LINE
  8
_0-a_
  6
CONTINUOUS
 62
    3
 10
354.60000000000076
 20
442.00000000000023
 11
354.60000000000076
 21
444.00000000000023
  0
ARC
  8
_0-a_
  6
CONTINUOUS
 62
    3
 10
362.60000000000053
 20
447.50000000000023
 40
1
 50
0
 51
90
  0
LINE
  8
_0-a_
  6
CONTINUOUS
 62
    3
 10
362.30000000000058
 20
448.50000000000023
 11
362.60000000000053
 21
448.50000000000023
  0
LINE
  8
_0-a_
  6
CONTINUOUS
 62
    3
 10
362.60000000000076
 20
448.50000000000023
 11
362.30000000000058
 21
448.50000000000023
  0
LINE
  8
_0-a_
  6
CONTINUOUS
 62
    3
 10
362.30000000000058
 20
448.50000000000023
 11
362.60000000000053
 21
448.50000000000023
  0
LINE
  8
_0-a_
  6
CONTINUOUS
 62
    3
 10
279.60000000000122
 20
442.00000000000023
 11
279.60000000000122
 21
444.00000000000023
  0
ARC
  8
_0-a_
  6
CONTINUOUS
 62
    3
 10
473.10000000000076
 20
421
 40
2
 50
270
 51
0
  0
LINE
  8
_0-a_
  6
CONTINUOUS
 62
    3
 10
477.60000000000076
 20
416.5
 11
477.60000000000076
 21
415.5
  0
LINE
  8
_0-a_
  6
CONTINUOUS
 62
    3
 10
461.10000000000031
 20
444.5
 11
462.60000000000076
 21
444.5
  0
LINE
  8
_0-a_
  6
CONTINUOUS
 62
    3
 10
462.60000000000076
 20
448
 11
462.60000000000076
 21
444.50000000000023
  0
LINE
  8
_0-a_
  6
CONTINUOUS
 62
    3
 10
479.59999999999962
 20
447.5
 11
511.24421325665747
 21
447.5
  0
LINE
  8
_0-a_
  6
CONTINUOUS
 62
    3
 10
474.10000000000053
 20
440.5
 11
470.40000000000049
 21
440.5
  0
LINE
  8
_0-a_
  6
CONTINUOUS
 62
    3
 10
469.7999999999999
 20
440.5
 11
466.10000000000031
 21
440.5
  0
LINE
  8
_0-a_
  6
CONTINUOUS
 62
    3
 10
464.60000000000031
 20
438.00000000000023
 11
474.10000000000053
 21
438.00000000000023
  0
LINE
  8
_0-a_
  6
CONTINUOUS
 62
    3
 10
462.60000000000076
 20
442
 11
462.60000000000076
 21
440.00000000000023
  0
ARC
  8
_0-a_
  6
CONTINUOUS
 62
    3
 10
464.60000000000031
 20
440.00000000000023
 40
2
 50
180
 51
270
  0
ARC
  8
_0-a_
  6
CONTINUOUS
 62
    3
 10
474.10000000000053
 20
437.00000000000023
 40
1
 50
0
 51
90
  0
ARC
  8
_0-a_
  6
CONTINUOUS
 62
    3
 10
464.60000000000031
 20
440.00000000000023
 40
2
 50
180
 51
270
  0
LINE
  8
_0-a_
  6
CONTINUOUS
 62
    3
 10
466.10000000000031
 20
442
 11
462.60000000000076
 21
442
  0
LINE
  8
_0-a_
  6
CONTINUOUS
 62
    3
 10
477.60000000000031
 20
437.5
 11
477.60000000000031
 21
441.33157694660099
  0
LINE
  8
_0-a_
  6
CONTINUOUS
 62
    3
 10
477.60000000000076
 20
437.5
 11
477.60000000000076
 21
442
  0
LINE
  8
_0-a_
  6
CONTINUOUS
 62
    3
 10
480.10000000000053
 20
437.00000000000023
 11
478.10000000000031
 21
437.00000000000023
  0
ARC
  8
_0-a_
  6
CONTINUOUS
 62
    3
 10
478.60000000000008
 20
434.5
 40
1
 50
90
 51
180
  0
LINE
  8
_0-a_
  6
CONTINUOUS
 62
    3
 10
478.60000000000008
 20
435.50000000000023
 11
481.10000000000031
 21
435.50000000000023
  0
ARC
  8
_0-a_
  6
CONTINUOUS
 62
    3
 10
481.10000000000031
 20
436
 40
0.5
 50
270
 51
0
  0
ARC
  8
_0-a_
  6
CONTINUOUS
 62
    3
 10
480.85000000000008
 20
443.75000000000023
 40
0.75
 50
0
 51
180
  0
ARC
  8
_0-a_
  6
CONTINUOUS
 62
    3
 10
478.10000000000031
 20
437.5
 40
0.5
 50
180
 51
270
  0
LINE
  8
_0-a_
  6
CONTINUOUS
 62
    3
 10
480.10000000000053
 20
443.75000000000023
 11
480.10000000000053
 21
437.00000000000023
  0
LINE
  8
_0-a_
  6
CONTINUOUS
 62
    3
 10
477.60000000000076
 20
437.52598353496228
 11
477.60000000000076
 21
439.50000000001137
  0
LINE
  8
_0-a_
  6
CONTINUOUS
 62
    3
 10
474.10000000000053
 20
446.00000000000023
 11
466.10000000000031
 21
446.00000000000023
  0
LINE
  8
_0-a_
  6
CONTINUOUS
 62
    3
 10
466.10000000000031
 20
440.5
 11
466.10000000000031
 21
446.00000000000023
  0
LINE
  8
_0-a_
  6
CONTINUOUS
 62
    3
 10
472.85000000000031
 20
446
 11
467.35000000000031
 21
446
  0
LINE
  8
_0-a_
  6
CONTINUOUS
 62
    3
 10
475.10000000000031
 20
448.79999999999995
 11
471.99999999999994
 21
445.70000000000005
  0
LINE
  8
_0-a_
  6
CONTINUOUS
 62
    3
 10
465.10000000000053
 20
448.79999999999995
 11
468.20000000000067
 21
445.70000000000005
  0
LINE
  8
_0-a_
  6
CONTINUOUS
 62
    3
 10
475.10000000000031
 20
449
 11
475.10000000000031
 21
448.79999999999995
  0
LINE
  8
_0-a_
  6
CONTINUOUS
 62
    3
 10
475.10000000000031
 20
448.79999999999995
 11
465.10000000000053
 21
448.79999999999995
  0
LINE
  8
_0-a_
  6
CONTINUOUS
 62
    3
 10
465.10000000000053
 20
449
 11
465.10000000000053
 21
448.79999999999995
  0
LINE
  8
_0-a_
  6
CONTINUOUS
 62
    3
 10
472.85000000000031
 20
446.5
 11
472.85000000000031
 21
446
  0
LINE
  8
_0-a_
  6
CONTINUOUS
 62
    3
 10
467.35000000000031
 20
446.5
 11
467.35000000000031
 21
446
  0
LINE
  8
_0-a_
  6
CONTINUOUS
 62
    3
 10
467.35000000000031
 20
446.5
 11
472.85000000000031
 21
446.5
  0
LINE
  8
_0-a_
  6
CONTINUOUS
 62
    3
 10
470.40000000000049
 20
449
 11
470.10000000000008
 21
448.69999999999982
  0
LINE
  8
_0-a_
  6
CONTINUOUS
 62
    3
 10
470.10000000000008
 20
448.69999999999982
 11
469.80000000000035
 21
449
  0
LINE
  8
_0-a_
  6
CONTINUOUS
 62
    3
 10
475.10000000000031
 20
449
 11
465.10000000000053
 21
449
  0
LINE
  8
_0-a_
  6
CONTINUOUS
 62
    3
 10
481.60000000000053
 20
436
 11
481.60000000000053
 21
443.75000000000023
  0
ARC
  8
_0-a_
  6
CONTINUOUS
 62
    3
 10
463.60000000000076
 20
448
 40
1
 50
90
 51
180
  0
LINE
  8
_0-a_
  6
CONTINUOUS
 62
    3
 10
484.59119843520915
 20
447.5
 11
480.59999999999962
 21
447.5
  0
LINE
  8
_0-a_
  6
CONTINUOUS
 62
    3
 10
463.60000000000076
 20
449
 11
479.59999999999962
 21
449
  0
LINE
  8
_0-a_
  6
CONTINUOUS
 62
    3
 10
491.60000000000008
 20
444.50000000000023
 11
511.24421325665747
 21
444.50000000000023
  0
LINE
  8
_0-a_
  6
CONTINUOUS
 62
    3
 10
481.60000000000053
 20
436
 11
481.60000000000053
 21
443.75000000000023
  0
LINE
  8
_0-a_
  6
CONTINUOUS
 62
    3
 10
479.60000000001213
 20
449
 11
488.09999999999962
 21
449
  0
LINE
  8
_0-a_
  6
CONTINUOUS
 62
    3
 10
474.10000000000053
 20
442
 11
474.10000000000053
 21
440.5
  0
ARC
  8
_0-a_
  6
CONTINUOUS
 62
    3
 10
479.09999999999962
 20
439.00000000000023
 40
0.5
 50
270
 51
0
  0
LINE
  8
_0-a_
  6
CONTINUOUS
 62
    3
 10
478.10000000000053
 20
438.50000000000023
 11
479.09999999999962
 21
438.50000000000023
  0
ARC
  8
_0-a_
  6
CONTINUOUS
 62
    3
 10
478.10000000000053
 20
439.00000000000023
 40
0.5
 50
180
 51
270
  0
LINE
  8
_0-a_
  6
CONTINUOUS
 62
    3
 10
479.59999999999962
 20
439.00000000000023
 11
479.59999999999962
 21
447.5
  0
LINE
  8
_0-a_
  6
CONTINUOUS
 62
    3
 10
474.10000000000053
 20
446.00000000000023
 11
474.10000000000053
 21
442
  0
LINE
  8
_0-a_
  6
CONTINUOUS
 62
    3
 10
477.60000000000008
 20
442
 11
477.60000000000008
 21
438.50000000000023
  0
LINE
  8
_0-a_
  6
CONTINUOUS
 62
    3
 10
474.10000000000053
 20
442
 11
477.60000000000008
 21
442
  0
LINE
  8
_0-a_
  6
CONTINUOUS
 62
    3
 10
477.60000000000076
 20
416.5
 11
477.60000000000076
 21
434.5
  0
LINE
  8
_0-a_
  6
CONTINUOUS
 62
    3
 10
477.60000000000076
 20
416.5
 11
477.60000000000076
 21
434.5
  0
LINE
  8
_0-a_
  6
CONTINUOUS
 62
    3
 10
475.10000000000076
 20
437.00000000000023
 11
475.10000000000076
 21
421
  0
LINE
  8
_0-a_
  6
CONTINUOUS
 62
    3
 10
475.09999999999962
 20
437.00000000000023
 11
475.09999999999962
 21
421
  0
LINE
  8
_0-a_
  6
CONTINUOUS
 62
    3
 10
470.40000000000049
 20
440.5
 11
470.10000000000076
 21
440.20000000000027
  0
LINE
  8
_0-a_
  6
CONTINUOUS
 62
    3
 10
470.10000000000076
 20
440.20000000000027
 11
469.7999999999999
 21
440.5
  0
LINE
  8
_0-a_
  6
CONTINUOUS
 62
    3
 10
471.85000000000053
 20
436.70000000000005
 11
471.85000000000053
 21
431.35677313259566
  0
LINE
  8
_0-a_
  6
CONTINUOUS
 62
    3
 10
471.8900000000005
 20
441.50301343867295
 11
471.8900000000005
 21
440.70738171934272
  0
LINE
  8
_0-a_
  6
CONTINUOUS
 62
    3
 10
471.8900000000005
 20
440.00301343867295
 11
471.8900000000005
 21
439.20738171934272
  0
LINE
  8
_0-a_
  6
CONTINUOUS
 62
    3
 10
471.8900000000005
 20
438.50301343867295
 11
471.8900000000005
 21
436.70000000000005
  0
LINE
  8
_0-a_
  6
CONTINUOUS
 62
    3
 10
471.8900000000005
 20
442.70000000000005
 11
471.8900000000005
 21
442.20738171934272
  0
LINE
  8
_0-a_
  6
CONTINUOUS
 62
    3
 10
468.31000000000034
 20
437.20000000000005
 11
468.31000000000034
 21
436.70000000000005
  0
LINE
  8
_0-a_
  6
CONTINUOUS
 62
    3
 10
468.31000000000034
 20
438.70000000000005
 11
468.31000000000034
 21
437.90436828066981
  0
LINE
  8
_0-a_
  6
CONTINUOUS
 62
    3
 10
468.31000000000034
 20
440.20000000000005
 11
468.31000000000034
 21
439.40436828066981
  0
LINE
  8
_0-a_
  6
CONTINUOUS
 62
    3
 10
468.31000000000034
 20
441.70000000000005
 11
468.31000000000034
 21
440.90436828066981
  0
LINE
  8
_0-a_
  6
CONTINUOUS
 62
    3
 10
468.31000000000034
 20
442.70000000000005
 11
468.31000000000034
 21
442.40436828066981
  0
LINE
  8
_0-a_
  6
CONTINUOUS
 62
    3
 10
470.10000000000031
 20
442.7036908596715
 11
467.70000000000022
 21
442.05218414033493
  0
LINE
  8
_0-a_
  6
CONTINUOUS
 62
    3
 10
468.31000000000034
 20
441.70000000000005
 11
470.10000000000031
 21
442.35150671933661
  0
LINE
  8
_0-a_
  6
CONTINUOUS
 62
    3
 10
468.31000000000034
 20
442.40436828066981
 11
469.12224147333467
 21
442.70000000000005
  0
LINE
  8
_0-a_
  6
CONTINUOUS
 62
    3
 10
472.15000000000026
 20
436.70000000000005
 11
472.15000000000026
 21
431.18356805183862
  0
LINE
  8
_0-a_
  6
CONTINUOUS
 62
    3
 10
472.15000000000026
 20
436.70000000000005
 11
468.05000000000058
 21
436.70000000000005
  0
LINE
  8
_0-a_
  6
CONTINUOUS
 62
    3
 10
468.05000000000058
 20
436.70000000000005
 11
468.05000000000058
 21
431.18356805183862
  0
LINE
  8
_0-a_
  6
CONTINUOUS
 62
    3
 10
467.70000000000022
 20
442.05218414033493
 11
468.31000000000034
 21
442.40436828066981
  0
LINE
  8
_0-a_
  6
CONTINUOUS
 62
    3
 10
468.31000000000034
 20
441.70000000000005
 11
467.70000000000022
 21
442.05218414033493
  0
LINE
  8
_0-a_
  6
CONTINUOUS
 62
    3
 10
472.50000000000063
 20
441.85519757900784
 11
467.70000000000022
 21
440.55218414033493
  0
LINE
  8
_0-a_
  6
CONTINUOUS
 62
    3
 10
468.31000000000034
 20
440.20000000000005
 11
471.8900000000005
 21
441.50301343867295
  0
LINE
  8
_0-a_
  6
CONTINUOUS
 62
    3
 10
468.31000000000034
 20
440.90436828066981
 11
471.8900000000005
 21
442.20738171934272
  0
LINE
  8
_0-a_
  6
CONTINUOUS
 62
    3
 10
467.70000000000022
 20
440.55218414033493
 11
468.31000000000034
 21
440.90436828066981
  0
LINE
  8
_0-a_
  6
CONTINUOUS
 62
    3
 10
468.31000000000034
 20
440.20000000000005
 11
467.70000000000022
 21
440.55218414033493
  0
LINE
  8
_0-a_
  6
CONTINUOUS
 62
    3
 10
472.50000000000063
 20
441.85519757900784
 11
471.8900000000005
 21
441.50301343867295
  0
LINE
  8
_0-a_
  6
CONTINUOUS
 62
    3
 10
471.8900000000005
 20
442.20738171934272
 11
472.50000000000063
 21
441.85519757900784
  0
LINE
  8
_0-a_
  6
CONTINUOUS
 62
    3
 10
472.50000000000063
 20
440.35519757900784
 11
467.70000000000022
 21
439.05218414033493
  0
LINE
  8
_0-a_
  6
CONTINUOUS
 62
    3
 10
468.31000000000034
 20
438.70000000000005
 11
471.8900000000005
 21
440.00301343867295
  0
LINE
  8
_0-a_
  6
CONTINUOUS
 62
    3
 10
468.31000000000034
 20
439.40436828066981
 11
471.8900000000005
 21
440.70738171934272
  0
LINE
  8
_0-a_
  6
CONTINUOUS
 62
    3
 10
467.70000000000022
 20
439.05218414033493
 11
468.31000000000034
 21
439.40436828066981
  0
LINE
  8
_0-a_
  6
CONTINUOUS
 62
    3
 10
468.31000000000034
 20
438.70000000000005
 11
467.70000000000022
 21
439.05218414033493
  0
LINE
  8
_0-a_
  6
CONTINUOUS
 62
    3
 10
472.50000000000063
 20
440.35519757900784
 11
471.8900000000005
 21
440.00301343867295
  0
LINE
  8
_0-a_
  6
CONTINUOUS
 62
    3
 10
471.8900000000005
 20
440.70738171934272
 11
472.50000000000063
 21
440.35519757900784
  0
LINE
  8
_0-a_
  6
CONTINUOUS
 62
    3
 10
472.50000000000063
 20
438.85519757900784
 11
467.70000000000022
 21
437.55218414033493
  0
LINE
  8
_0-a_
  6
CONTINUOUS
 62
    3
 10
468.31000000000034
 20
437.20000000000005
 11
471.8900000000005
 21
438.50301343867295
  0
LINE
  8
_0-a_
  6
CONTINUOUS
 62
    3
 10
468.31000000000034
 20
437.90436828066981
 11
471.8900000000005
 21
439.20738171934272
  0
LINE
  8
_0-a_
  6
CONTINUOUS
 62
    3
 10
467.70000000000022
 20
437.55218414033493
 11
468.31000000000034
 21
437.90436828066981
  0
LINE
  8
_0-a_
  6
CONTINUOUS
 62
    3
 10
468.31000000000034
 20
437.20000000000005
 11
467.70000000000022
 21
437.55218414033493
  0
LINE
  8
_0-a_
  6
CONTINUOUS
 62
    3
 10
472.50000000000063
 20
438.85519757900784
 11
471.8900000000005
 21
438.50301343867295
  0
LINE
  8
_0-a_
  6
CONTINUOUS
 62
    3
 10
471.8900000000005
 20
439.20738171934272
 11
472.50000000000063
 21
438.85519757900784
  0
LINE
  8
_0-a_
  6
CONTINUOUS
 62
    3
 10
470.10000000000053
 20
430.34641016151386
 11
468.97969068712013
 21
436.70000000000005
  0
LINE
  8
_0-a_
  6
CONTINUOUS
 62
    3
 10
470.10000000000053
 20
430.34641016151386
 11
468.35000000000031
 21
431.35677313259566
  0
LINE
  8
_0-a_
  6
CONTINUOUS
 62
    3
 10
468.35000000000031
 20
436.70000000000005
 11
468.35000000000031
 21
431.35677313259566
  0
LINE
  8
_0-a_
  6
CONTINUOUS
 62
    3
 10
471.8900000000005
 20
437.20000000000005
 11
471.8900000000005
 21
436.70000000000005
  0
LINE
  8
_0-a_
  6
CONTINUOUS
 62
    3
 10
468.05000000000058
 20
436.70000000000005
 11
468.05000000000058
 21
431.18356805183862
  0
LINE
  8
_0-a_
  6
CONTINUOUS
 62
    3
 10
468.05000000000058
 20
436.70000000000005
 11
472.15000000000026
 21
436.70000000000005
  0
LINE
  8
_0-a_
  6
CONTINUOUS
 62
    3
 10
472.15000000000026
 20
436.70000000000005
 11
472.15000000000026
 21
431.18356805183862
  0
LINE
  8
_0-a_
  6
CONTINUOUS
 62
    3
 10
470.10000000000053
 20
430
 11
468.05000000000058
 21
431.18356805183862
  0
LINE
  8
_0-a_
  6
CONTINUOUS
 62
    3
 10
470.10000000000053
 20
430
 11
472.15000000000026
 21
431.18356805183862
  0
LINE
  8
_0-a_
  6
CONTINUOUS
 62
    3
 10
471.99999999999994
 20
445.70000000000005
 11
468.20000000000067
 21
445.70000000000005
  0
LINE
  8
_0-a_
  6
CONTINUOUS
 62
    3
 10
471.8900000000005
 20
444.50301343867295
 11
471.8900000000005
 21
443.70738171934272
  0
LINE
  8
_0-a_
  6
CONTINUOUS
 62
    3
 10
471.8900000000005
 20
443.00301343867295
 11
471.8900000000005
 21
442.20738171934272
  0
LINE
  8
_0-a_
  6
CONTINUOUS
 62
    3
 10
471.8900000000005
 20
445.70000000000005
 11
471.8900000000005
 21
445.20738171934272
  0
LINE
  8
_0-a_
  6
CONTINUOUS
 62
    3
 10
468.31000000000034
 20
443.20000000000005
 11
468.31000000000034
 21
442.40436828066981
  0
LINE
  8
_0-a_
  6
CONTINUOUS
 62
    3
 10
468.31000000000034
 20
444.70000000000005
 11
468.31000000000034
 21
443.90436828066981
  0
LINE
  8
_0-a_
  6
CONTINUOUS
 62
    3
 10
468.31000000000034
 20
445.70000000000005
 11
468.31000000000034
 21
445.40436828066981
  0
LINE
  8
_0-a_
  6
CONTINUOUS
 62
    3
 10
470.10000000000031
 20
445.7036908596715
 11
467.70000000000022
 21
445.05218414033493
  0
LINE
  8
_0-a_
  6
CONTINUOUS
 62
    3
 10
468.31000000000034
 20
445.40436828066981
 11
469.12224147333467
 21
445.70000000000005
  0
LINE
  8
_0-a_
  6
CONTINUOUS
 62
    3
 10
467.70000000000022
 20
445.05218414033493
 11
468.31000000000034
 21
445.40436828066981
  0
LINE
  8
_0-a_
  6
CONTINUOUS
 62
    3
 10
468.31000000000034
 20
444.70000000000005
 11
467.70000000000022
 21
445.05218414033493
  0
LINE
  8
_0-a_
  6
CONTINUOUS
 62
    3
 10
472.50000000000063
 20
444.85519757900784
 11
467.70000000000022
 21
443.55218414033493
  0
LINE
  8
_0-a_
  6
CONTINUOUS
 62
    3
 10
468.31000000000034
 20
443.20000000000005
 11
471.8900000000005
 21
444.50301343867295
  0
LINE
  8
_0-a_
  6
CONTINUOUS
 62
    3
 10
468.31000000000034
 20
443.90436828066981
 11
471.8900000000005
 21
445.20738171934272
  0
LINE
  8
_0-a_
  6
CONTINUOUS
 62
    3
 10
467.70000000000022
 20
443.55218414033493
 11
468.31000000000034
 21
443.90436828066981
  0
LINE
  8
_0-a_
  6
CONTINUOUS
 62
    3
 10
468.31000000000034
 20
443.20000000000005
 11
467.70000000000022
 21
443.55218414033493
  0
LINE
  8
_0-a_
  6
CONTINUOUS
 62
    3
 10
472.50000000000063
 20
444.85519757900784
 11
471.8900000000005
 21
444.50301343867295
  0
LINE
  8
_0-a_
  6
CONTINUOUS
 62
    3
 10
471.8900000000005
 20
445.20738171934272
 11
472.50000000000063
 21
444.85519757900784
  0
LINE
  8
_0-a_
  6
CONTINUOUS
 62
    3
 10
472.50000000000063
 20
443.35519757900784
 11
467.70000000000022
 21
442.05218414033493
  0
LINE
  8
_0-a_
  6
CONTINUOUS
 62
    3
 10
468.31000000000034
 20
441.70000000000005
 11
471.8900000000005
 21
443.00301343867295
  0
LINE
  8
_0-a_
  6
CONTINUOUS
 62
    3
 10
468.31000000000034
 20
442.40436828066981
 11
471.8900000000005
 21
443.70738171934272
  0
LINE
  8
_0-a_
  6
CONTINUOUS
 62
    3
 10
467.70000000000022
 20
442.05218414033493
 11
468.31000000000034
 21
442.40436828066981
  0
LINE
  8
_0-a_
  6
CONTINUOUS
 62
    3
 10
468.31000000000034
 20
441.70000000000005
 11
467.70000000000022
 21
442.05218414033493
  0
LINE
  8
_0-a_
  6
CONTINUOUS
 62
    3
 10
472.50000000000063
 20
443.35519757900784
 11
471.8900000000005
 21
443.00301343867295
  0
LINE
  8
_0-a_
  6
CONTINUOUS
 62
    3
 10
471.8900000000005
 20
443.70738171934272
 11
472.50000000000063
 21
443.35519757900784
  0
LINE
  8
_0-a_
  6
CONTINUOUS
 62
    3
 10
472.50000000000063
 20
441.85519757900784
 11
471.8900000000005
 21
441.50301343867295
  0
LINE
  8
_0-a_
  6
CONTINUOUS
 62
    3
 10
471.8900000000005
 20
442.20738171934272
 11
472.50000000000063
 21
441.85519757900784
  0
ARC
  8
_0-a_
  6
CONTINUOUS
 62
    3
 10
488.59999999999962
 20
448
 40
1
 50
0
 51
90
  0
LINE
  8
_0-a_
  6
CONTINUOUS
 62
    3
 10
489.59999999999962
 20
448
 11
489.59999999999962
 21
447.5
  0
LINE
  8
_0-a_
  6
CONTINUOUS
 62
    3
 10
488.59999999999849
 20
447.5
 11
488.59119843520824
 21
447.5
  0
LINE
  8
_0-a_
  6
CONTINUOUS
 62
    3
 10
488.59999999999962
 20
449
 11
486.50192378864534
 21
449
  0
LINE
  8
_0-a_
  6
CONTINUOUS
 62
    3
 10
363.60000000000076
 20
447.50000000000023
 11
462.60000000000076
 21
447.50000000000023
  0
LINE
  8
_0-a_
  6
CONTINUOUS
 62
    3
 10
363.60000000000076
 20
444.50000000000023
 11
462.60000000000076
 21
444.50000000000023
  0
LINE
  8
_0-a_
  6
CONTINUOUS
 62
    3
 10
360.60000000000076
 20
416.50000000000023
 11
477.60000000000076
 21
416.50000000000023
  0
LINE
  8
_0-a_
  6
CONTINUOUS
 62
    3
 10
473.10000000000076
 20
419.00000000000023
 11
449.90000000000072
 21
419.00000000000023
  0
LINE
  8
_0-a_
  6
CONTINUOUS
 62
    3
 10
429.60000000000076
 20
420
 11
414.30000000000081
 21
420
  0
LINE
  8
_0-a_
  6
CONTINUOUS
 62
    3
 10
274.2610427216668
 20
364.6479469759783
 11
274.25199464774977
 21
364.68171484754731
  0
LINE
  8
_0-a_
  6
CONTINUOUS
 62
    3
 10
274.44614870511094
 20
363.95712204097953
 11
274.2610427216668
 21
364.6479469759783
  0
LINE
  8
_0-a_
  6
CONTINUOUS
 62
    3
 10
260.36732698797954
 20
416.5000000000116
 11
209.60000000000073
 21
416.5000000000116
  0
LINE
  8
_0-a_
  6
CONTINUOUS
 62
    3
 10
258.60000000000099
 20
416.5000000000116
 11
209.60000000000073
 21
416.5000000000116
  0
LINE
  8
_0-a_
  6
CONTINUOUS
 62
    3
 10
268.10000000000099
 20
437.30000000001155
 11
268.10000000000099
 21
430.30000000001155
  0
LINE
  8
_0-a_
  6
CONTINUOUS
 62
    3
 10
268.10000000000099
 20
430.30000000001155
 11
270.10000000000099
 21
430.30000000001155
  0
LINE
  8
_0-a_
  6
CONTINUOUS
 62
    3
 10
268.10000000000099
 20
437.30000000001155
 11
268.10000000000099
 21
430.30000000001155
  0
LINE
  8
_0-a_
  6
CONTINUOUS
 62
    3
 10
270.10000000000099
 20
436.30000000001155
 11
270.10000000000099
 21
430.30000000001155
  0
ARC
  8
_0-a_
  6
CONTINUOUS
 62
    3
 10
280.20000000000113
 20
417.5000000000116
 40
1
 50
270
 51
0
  0
ARC
  8
_0-a_
  6
CONTINUOUS
 62
    3
 10
275.20000000000113
 20
422.0000000000116
 40
3
 50
270
 51
0
  0
LINE
  8
_0-a_
  6
CONTINUOUS
 62
    3
 10
280.70000000000158
 20
430.30000000001178
 11
281.20000000000113
 21
428.30000000001178
  0
LINE
  8
_0-a_
  6
CONTINUOUS
 62
    3
 10
281.20000000000113
 20
430.30000000001178
 11
280.70000000000158
 21
430.30000000001178
  0
LINE
  8
_0-a_
  6
CONTINUOUS
 62
    3
 10
281.20000000000113
 20
433.30000000001178
 11
281.20000000000113
 21
430.30000000001178
  0
ARC
  8
_0-a_
  6
CONTINUOUS
 62
    3
 10
279.70000000000113
 20
433.30000000001178
 40
1.5
 50
0
 51
180
  0
LINE
  8
_0-a_
  6
CONTINUOUS
 62
    3
 10
278.20000000000158
 20
430.30000000001178
 11
278.20000000000158
 21
433.30000000001178
  0
LINE
  8
_0-a_
  6
CONTINUOUS
 62
    3
 10
278.70000000000113
 20
430.30000000001178
 11
278.20000000000158
 21
430.30000000001178
  0
LINE
  8
_0-a_
  6
CONTINUOUS
 62
    3
 10
278.20000000000158
 20
428.30000000001178
 11
278.70000000000113
 21
430.30000000001178
  0
LINE
  8
_0-a_
  6
CONTINUOUS
 62
    3
 10
282.7000000000009
 20
433.29999800001201
 11
282.7000000000009
 21
428.30000000001178
  0
LINE
  8
_0-a_
  6
CONTINUOUS
 62
    3
 10
282.7000000000009
 20
428.30000000001178
 11
281.20000000000158
 21
428.30000000001178
  0
LINE
  8
_0-a_
  6
CONTINUOUS
 62
    3
 10
278.20000000000113
 20
428.30000000001178
 11
276.70000000000113
 21
428.30000000001178
  0
LINE
  8
_0-a_
  6
CONTINUOUS
 62
    3
 10
276.70000000000113
 20
428.30000000001178
 11
276.70000000000113
 21
433.29999800001201
  0
ARC
  8
_0-a_
  6
CONTINUOUS
 62
    3
 10
279.70000000000113
 20
433.29999800001201
 40
1.7000010000000001
 50
0
 51
180
  0
ARC
  8
_0-a_
  6
CONTINUOUS
 62
    3
 10
279.70000000000113
 20
433.29999800001201
 40
3
 50
0
 51
180
  0
LINE
  8
_0-a_
  6
CONTINUOUS
 62
    3
 10
278.20000600000043
 20
430.29999800001178
 11
278.44384900000108
 21
430.29999800001178
  0
ARC
  8
_0-a_
  6
CONTINUOUS
 62
    3
 10
278.44384900000108
 20
430.10000000001196
 40
0.200001
 50
345.96359799993797
 51
90
  0
LINE
  8
_0-a_
  6
CONTINUOUS
 62
    3
 10
278.20000000000113
 20
428.30000000001178
 11
278.63787700000142
 21
430.05149300001199
  0
LINE
  8
_0-a_
  6
CONTINUOUS
 62
    3
 10
281.20000000000158
 20
430.29999800001178
 11
280.9561540000015
 21
430.29999800001178
  0
ARC
  8
_0-a_
  6
CONTINUOUS
 62
    3
 10
280.9561540000015
 20
430.10000000001196
 40
0.200001
 50
90
 51
194.03619200000799
  0
LINE
  8
_0-a_
  6
CONTINUOUS
 62
    3
 10
281.19999700000147
 20
428.30000000001178
 11
280.76212600000071
 21
430.05149300001199
  0
LINE
  8
_0-a_
  6
CONTINUOUS
 62
    3
 10
278.20000600000043
 20
430.29999800001178
 11
278.00000500000164
 21
430.29999800001178
  0
LINE
  8
_0-a_
  6
CONTINUOUS
 62
    3
 10
278.00000500000164
 20
430.29999800001178
 11
277.99999900000142
 21
433.29999800001201
  0
LINE
  8
_0-a_
  6
CONTINUOUS
 62
    3
 10
281.19999700000147
 20
430.29999800001178
 11
281.40000100000128
 21
430.29999800001178
  0
LINE
  8
_0-a_
  6
CONTINUOUS
 62
    3
 10
281.40000100000128
 20
430.29999800001178
 11
281.40000100000128
 21
433.29999800001201
  0
LINE
  8
_0-a_
  6
CONTINUOUS
 62
    3
 10
281.20000000000113
 20
428.29998799995155
 11
281.20000000000113
 21
417.5000000000116
  0
LINE
  8
_0-a_
  6
CONTINUOUS
 62
    3
 10
278.20000000000158
 20
422.0000000000116
 11
278.20000000000158
 21
428.30000000001382
  0
LINE
  8
_0-a_
  6
CONTINUOUS
 62
    3
 10
280.20000000000113
 20
416.5000000000116
 11
236.95968946047574
 21
416.5000000000116
  0
LINE
  8
_0-a_
  6
CONTINUOUS
 62
    3
 10
262.40000000000072
 20
439.5000000000116
 11
262.40000000000072
 21
419.0000000000116
  0
LINE
  8
_0-a_
  6
CONTINUOUS
 62
    3
 10
262.40000000000072
 20
439.5000000000116
 11
262.40000000000072
 21
419.0000000000116
  0
ARC
  8
_0-a_
  6
CONTINUOUS
 62
    3
 10
261.40000000000072
 20
439.5000000000116
 40
1
 50
0
 51
180
  0
LINE
  8
_0-a_
  6
CONTINUOUS
 62
    3
 10
260.40000000000072
 20
439.5000000000116
 11
260.40000000000072
 21
419.0000000000116
  0
LINE
  8
_0-a_
  6
CONTINUOUS
 62
    3
 10
262.40000000000072
 20
419.0000000000116
 11
275.20000000000113
 21
419.0000000000116
  0
LINE
  8
_0-a_
  6
CONTINUOUS
 62
    3
 10
224.90000000000092
 20
419.0000000000116
 11
260.40000000000072
 21
419.0000000000116
  0
LINE
  8
_0-a_
  6
CONTINUOUS
 62
    3
 10
224.60000000000005
 20
418.70000000001141
 11
224.90000000000069
 21
419.0000000000116
  0
LINE
  8
_0-a_
  6
CONTINUOUS
 62
    3
 10
224.30000000000123
 20
419.0000000000116
 11
224.60000000000005
 21
418.70000000001141
  0
LINE
  8
_0-a_
  6
CONTINUOUS
 62
    3
 10
233.60000000000187
 20
420.5000000000116
 11
215.60000000000073
 21
420.5000000000116
  0
LINE
  8
_0-a_
  6
CONTINUOUS
 62
    3
 10
233.60000000000187
 20
419.0000000000116
 11
215.60000000000073
 21
419.0000000000116
  0
LINE
  8
_0-a_
  6
CONTINUOUS
 62
    3
 10
233.60000000000187
 20
420.5000000000116
 11
233.60000000000187
 21
419.0000000000116
  0
LINE
  8
_0-a_
  6
CONTINUOUS
 62
    3
 10
215.60000000000073
 20
420.5000000000116
 11
215.60000000000073
 21
419.0000000000116
  0
LINE
  8
_0-a_
  6
CONTINUOUS
 62
    3
 10
229.10000000000164
 20
420.5000000000116
 11
228.99108721620146
 21
421.74487881501159
  0
LINE
  8
_0-a_
  6
CONTINUOUS
 62
    3
 10
220.20891278370109
 20
421.74487881501159
 11
220.10000000000187
 21
420.5000000000116
  0
ARC
  8
_0-a_
  6
CONTINUOUS
 62
    3
 10
221.19514553490026
 20
421.65859462971139
 40
0.9899999999999997
 50
127.36755803205315
 51
175.00000000120033
  0
ARC
  8
_0-a_
  6
CONTINUOUS
 62
    3
 10
228.0048544651012
 20
421.65859462971139
 40
0.9899999999999997
 50
4.9999999987996473
 51
52.63244196794686
  0
ARC
  8
_0-a_
  6
CONTINUOUS
 62
    3
 10
224.60000000000073
 20
417.20000000001141
 40
6.5999999999999996
 50
52.632441967704736
 51
68.266383543398021
  0
ARC
  8
_0-a_
  6
CONTINUOUS
 62
    3
 10
224.60000000000073
 20
417.20000000001141
 40
6.5999999999999996
 50
111.74840859090317
 51
127.36755803230515
  0
LINE
  8
_0-a_
  6
CONTINUOUS
 62
    3
 10
224.91500000000147
 20
423.75912712961167
 11
224.91500000000147
 21
423.32331223961137
  0
LINE
  8
_0-a_
  6
CONTINUOUS
 62
    3
 10
225.26228868190233
 20
423.75912712961167
 11
224.91500000000147
 21
423.75912712961167
  0
LINE
  8
_0-a_
  6
CONTINUOUS
 62
    3
 10
227.04250326850129
 20
423.32331223961137
 11
225.26228868190233
 21
423.75912712961167
  0
LINE
  8
_0-a_
  6
CONTINUOUS
 62
    3
 10
223.93771131800136
 20
423.75912712961167
 11
222.63780105030096
 21
423.49369130821174
  0
LINE
  8
_0-a_
  6
CONTINUOUS
 62
    3
 10
222.63780105030096
 20
423.49369130821174
 11
222.1574967314024
 21
423.32331223961137
  0
LINE
  8
_0-a_
  6
CONTINUOUS
 62
    3
 10
224.28500000000136
 20
423.75912712961167
 11
223.93771131800136
 21
423.75912712961167
  0
LINE
  8
_0-a_
  6
CONTINUOUS
 62
    3
 10
224.28500000000136
 20
423.32331223961137
 11
224.28500000000136
 21
423.75912712961167
  0
LINE
  8
_0-a_
  6
CONTINUOUS
 62
    3
 10
224.91500000000147
 20
423.32331223961137
 11
224.60000000000073
 21
423.32841741401171
  0
LINE
  8
_0-a_
  6
CONTINUOUS
 62
    3
 10
224.60000000000073
 20
423.32841741401171
 11
224.28500000000136
 21
423.32331223961137
  0
LINE
  8
_0-a_
  6
CONTINUOUS
 62
    3
 10
205.60000000000051
 20
419.0000000000116
 11
219.30000000000146
 21
419.0000000000116
  0
LINE
  8
_0-a_
  6
CONTINUOUS
 62
    3
 10
187.1000000000021
 20
444.50000000000023
 11
167.45578674334493
 21
444.50000000000023
  0
LINE
  8
_0-a_
  6
CONTINUOUS
 62
    3
 10
279.60000000000122
 20
442.00000000000023
 11
216.10000000000073
 21
442.00000000000023
  0
LINE
  8
_0-a_
  6
CONTINUOUS
 62
    3
 10
274.10000000000099
 20
439.30000000001155
 11
274.10000000000099
 21
441.80000000001155
  0
LINE
  8
_0-a_
  6
CONTINUOUS
 62
    3
 10
272.10000000000076
 20
442.00000000000023
 11
268.10000000000099
 21
437.30000000001155
  0
LINE
  8
_0-a_
  6
CONTINUOUS
 62
    3
 10
270.60000000000122
 20
447.50000000000023
 11
270.60000000000122
 21
444.50000000000023
  0
LINE
  8
_0-a_
  6
CONTINUOUS
 62
    3
 10
279.60000000000122
 20
442.00000000000023
 11
279.60000000000122
 21
444.00000000000023
  0
ARC
  8
_0-a_
  6
CONTINUOUS
 62
    3
 10
271.60000000000122
 20
447.50000000000023
 40
1
 50
90
 51
180
  0
LINE
  8
_0-a_
  6
CONTINUOUS
 62
    3
 10
279.60000000000122
 20
442.00000000000023
 11
279.60000000000122
 21
444.00000000000023
  0
LINE
  8
_0-a_
  6
CONTINUOUS
 62
    3
 10
271.90000000000117
 20
448.50000000000011
 11
279.60000000000122
 21
444.00000000000023
  0
LINE
  8
_0-a_
  6
CONTINUOUS
 62
    3
 10
279.60000000000122
 20
442.00000000000023
 11
279.60000000000122
 21
444.00000000000023
  0
ARC
  8
_0-a_
  6
CONTINUOUS
 62
    3
 10
271.60000000000122
 20
447.50000000000023
 40
1
 50
90
 51
180
  0
LINE
  8
_0-a_
  6
CONTINUOUS
 62
    3
 10
270.60000000000122
 20
447.50000000000023
 11
270.60000000000122
 21
444.50000000000023
  0
LINE
  8
_0-a_
  6
CONTINUOUS
 62
    3
 10
271.60000000000122
 20
448.50000000000011
 11
271.90000000000117
 21
448.50000000000011
  0
ARC
  8
_0-a_
  6
CONTINUOUS
 62
    3
 10
271.60000000000122
 20
447.50000000000023
 40
1
 50
90
 51
180
  0
LINE
  8
_0-a_
  6
CONTINUOUS
 62
    3
 10
271.90000000000117
 20
448.50000000000011
 11
271.60000000000122
 21
448.50000000000011
  0
LINE
  8
_0-a_
  6
CONTINUOUS
 62
    3
 10
274.10000000000099
 20
442.30000000001155
 11
274.10000000000099
 21
441.80000000001155
  0
LINE
  8
_0-a_
  6
CONTINUOUS
 62
    3
 10
204.09999999999869
 20
437.50000000000023
 11
204.09999999999869
 21
421.00000000000023
  0
ARC
  8
_0-a_
  6
CONTINUOUS
 62
    3
 10
206.09999999999869
 20
421
 40
2
 50
180
 51
270
  0
LINE
  8
_0-a_
  6
CONTINUOUS
 62
    3
 10
216.59999999999869
 20
448
 11
216.59999999999869
 21
444.50000000000023
  0
LINE
  8
_0-a_
  6
CONTINUOUS
 62
    3
 10
205.09999999999891
 20
440.5
 11
208.79999999999896
 21
440.5
  0
LINE
  8
_0-a_
  6
CONTINUOUS
 62
    3
 10
209.39999999999955
 20
440.5
 11
213.09999999999914
 21
440.5
  0
LINE
  8
_0-a_
  6
CONTINUOUS
 62
    3
 10
214.59999999999914
 20
438.00000000000023
 11
205.09999999999891
 21
438.00000000000023
  0
LINE
  8
_0-a_
  6
CONTINUOUS
 62
    3
 10
216.59999999999869
 20
442
 11
216.59999999999869
 21
440.00000000000023
  0
ARC
  8
_0-a_
  6
CONTINUOUS
 62
    3
 10
214.59999999999914
 20
440.00000000000023
 40
2
 50
270
 51
0
  0
ARC
  8
_0-a_
  6
CONTINUOUS
 62
    3
 10
205.09999999999891
 20
437.00000000000023
 40
1
 50
90
 51
180
  0
ARC
  8
_0-a_
  6
CONTINUOUS
 62
    3
 10
214.59999999999914
 20
440.00000000000023
 40
2
 50
270
 51
0
  0
LINE
  8
_0-a_
  6
CONTINUOUS
 62
    3
 10
213.09999999999914
 20
442
 11
216.59999999999869
 21
442
  0
LINE
  8
_0-a_
  6
CONTINUOUS
 62
    3
 10
201.59999999999914
 20
437.5
 11
201.59999999999914
 21
441.33157694660099
  0
LINE
  8
_0-a_
  6
CONTINUOUS
 62
    3
 10
201.59999999999869
 20
437.5
 11
201.59999999999869
 21
442
  0
LINE
  8
_0-a_
  6
CONTINUOUS
 62
    3
 10
199.09999999999891
 20
437.00000000000023
 11
201.09999999999914
 21
437.00000000000023
  0
ARC
  8
_0-a_
  6
CONTINUOUS
 62
    3
 10
200.59999999999937
 20
434.5
 40
1
 50
0
 51
90
  0
ARC
  8
_0-a_
  6
CONTINUOUS
 62
    3
 10
198.34999999999937
 20
443.75000000000023
 40
0.75
 50
0
 51
180
  0
ARC
  8
_0-a_
  6
CONTINUOUS
 62
    3
 10
201.09999999999914
 20
437.5
 40
0.5
 50
270
 51
0
  0
LINE
  8
_0-a_
  6
CONTINUOUS
 62
    3
 10
199.09999999999891
 20
443.75000000000023
 11
199.09999999999891
 21
437.00000000000023
  0
LINE
  8
_0-a_
  6
CONTINUOUS
 62
    3
 10
201.59999999999869
 20
437.52598353496228
 11
201.59999999999869
 21
439.50000000001137
  0
LINE
  8
_0-a_
  6
CONTINUOUS
 62
    3
 10
205.09999999999891
 20
446.00000000000023
 11
213.09999999999914
 21
446.00000000000023
  0
LINE
  8
_0-a_
  6
CONTINUOUS
 62
    3
 10
213.09999999999914
 20
440.5
 11
213.09999999999914
 21
446.00000000000023
  0
LINE
  8
_0-a_
  6
CONTINUOUS
 62
    3
 10
206.34999999999914
 20
446
 11
211.84999999999891
 21
446
  0
LINE
  8
_0-a_
  6
CONTINUOUS
 62
    3
 10
204.09999999999914
 20
448.79999999999995
 11
207.19999999999951
 21
445.70000000000005
  0
LINE
  8
_0-a_
  6
CONTINUOUS
 62
    3
 10
214.09999999999891
 20
448.79999999999995
 11
210.99999999999878
 21
445.70000000000005
  0
LINE
  8
_0-a_
  6
CONTINUOUS
 62
    3
 10
204.09999999999914
 20
449
 11
204.09999999999914
 21
448.79999999999995
  0
LINE
  8
_0-a_
  6
CONTINUOUS
 62
    3
 10
204.09999999999914
 20
448.79999999999995
 11
214.09999999999891
 21
448.79999999999995
  0
LINE
  8
_0-a_
  6
CONTINUOUS
 62
    3
 10
214.09999999999891
 20
449
 11
214.09999999999891
 21
448.79999999999995
  0
LINE
  8
_0-a_
  6
CONTINUOUS
 62
    3
 10
206.34999999999914
 20
446.5
 11
206.34999999999914
 21
446
  0
LINE
  8
_0-a_
  6
CONTINUOUS
 62
    3
 10
211.84999999999891
 20
446.5
 11
211.84999999999891
 21
446
  0
LINE
  8
_0-a_
  6
CONTINUOUS
 62
    3
 10
211.84999999999891
 20
446.5
 11
206.34999999999914
 21
446.5
  0
LINE
  8
_0-a_
  6
CONTINUOUS
 62
    3
 10
208.79999999999896
 20
449
 11
209.09999999999937
 21
448.69999999999982
  0
LINE
  8
_0-a_
  6
CONTINUOUS
 62
    3
 10
209.09999999999937
 20
448.69999999999982
 11
209.3999999999991
 21
449
  0
LINE
  8
_0-a_
  6
CONTINUOUS
 62
    3
 10
204.09999999999914
 20
449
 11
214.09999999999891
 21
449
  0
ARC
  8
_0-a_
  6
CONTINUOUS
 62
    3
 10
215.59999999999869
 20
448
 40
1
 50
0
 51
90
  0
LINE
  8
_0-a_
  6
CONTINUOUS
 62
    3
 10
194.60880156479007
 20
447.5
 11
198.59999999999982
 21
447.5
  0
LINE
  8
_0-a_
  6
CONTINUOUS
 62
    3
 10
215.59999999999869
 20
449
 11
199.59999999999982
 21
449
  0
LINE
  8
_0-a_
  6
CONTINUOUS
 62
    3
 10
199.59999999998732
 20
449
 11
191.09999999999982
 21
449
  0
LINE
  8
_0-a_
  6
CONTINUOUS
 62
    3
 10
205.09999999999891
 20
442
 11
205.09999999999891
 21
440.5
  0
ARC
  8
_0-a_
  6
CONTINUOUS
 62
    3
 10
200.09999999999982
 20
439.00000000000023
 40
0.5
 50
180
 51
270
  0
LINE
  8
_0-a_
  6
CONTINUOUS
 62
    3
 10
201.09999999999891
 20
438.50000000000023
 11
200.09999999999982
 21
438.50000000000023
  0
ARC
  8
_0-a_
  6
CONTINUOUS
 62
    3
 10
201.09999999999891
 20
439.00000000000023
 40
0.5
 50
270
 51
0
  0
LINE
  8
_0-a_
  6
CONTINUOUS
 62
    3
 10
199.59999999999982
 20
439.00000000000023
 11
199.59999999999982
 21
447.5
  0
LINE
  8
_0-a_
  6
CONTINUOUS
 62
    3
 10
205.09999999999891
 20
446.00000000000023
 11
205.09999999999891
 21
442
  0
LINE
  8
_0-a_
  6
CONTINUOUS
 62
    3
 10
201.59999999999937
 20
442
 11
201.59999999999937
 21
438.50000000000023
  0
LINE
  8
_0-a_
  6
CONTINUOUS
 62
    3
 10
205.09999999999891
 20
442
 11
201.59999999999937
 21
442
  0
LINE
  8
_0-a_
  6
CONTINUOUS
 62
    3
 10
201.59999999999869
 20
416.5
 11
201.59999999999869
 21
434.5
  0
LINE
  8
_0-a_
  6
CONTINUOUS
 62
    3
 10
201.59999999999869
 20
416.5
 11
201.59999999999869
 21
434.5
  0
LINE
  8
_0-a_
  6
CONTINUOUS
 62
    3
 10
204.09999999999869
 20
437.00000000000023
 11
204.09999999999869
 21
421
  0
LINE
  8
_0-a_
  6
CONTINUOUS
 62
    3
 10
204.09999999999982
 20
437.00000000000023
 11
204.09999999999982
 21
421
  0
LINE
  8
_0-a_
  6
CONTINUOUS
 62
    3
 10
207.19999999999928
 20
445.70000000000005
 11
210.99999999999855
 21
445.70000000000005
  0
LINE
  8
_0-a_
  6
CONTINUOUS
 62
    3
 10
197.59999999999778
 20
444.25000000000023
 11
197.59999999999778
 21
444.5
  0
ARC
  8
_0-a_
  6
CONTINUOUS
 62
    3
 10
190.5999999999996
 20
448
 40
1
 50
90
 51
180
  0
LINE
  8
_0-a_
  6
CONTINUOUS
 62
    3
 10
189.59999999999982
 20
448
 11
189.59999999999982
 21
447.5
  0
LINE
  8
_0-a_
  6
CONTINUOUS
 62
    3
 10
190.60000000000073
 20
447.5
 11
190.60880156479098
 21
447.5
  0
LINE
  8
_0-a_
  6
CONTINUOUS
 62
    3
 10
190.5999999999996
 20
449
 11
192.69807621135411
 21
449
  0
ARC
  8
_0-a_
  6
CONTINUOUS
 62
    3
 10
198.09999999999891
 20
436.00000000000023
 40
0.5
 50
180
 51
270
  0
LINE
  8
_0-a_
  6
CONTINUOUS
 62
    3
 10
200.59999999999937
 20
435.50000000000023
 11
198.09999999999891
 21
435.50000000000023
  0
LINE
  8
_0-a_
  6
CONTINUOUS
 62
    3
 10
201.59999999999755
 20
415.5000000000116
 11
201.59999999999755
 21
434.5
  0
LINE
  8
_0-a_
  6
CONTINUOUS
 62
    3
 10
270.60000000000122
 20
447.50000000000023
 11
216.59999999999869
 21
447.50000000000023
  0
LINE
  8
_0-a_
  6
CONTINUOUS
 62
    3
 10
199.59999999999982
 20
447.5
 11
167.45578674334493
 21
447.5
  0
LINE
  8
_0-a_
  6
CONTINUOUS
 62
    3
 10
270.60000000000122
 20
444.50000000000023
 11
216.59999999999869
 21
444.50000000000023
  0
LINE
  8
_0-a_
  6
CONTINUOUS
 62
    3
 10
217.6000000000021
 20
444.5
 11
216.59999999999869
 21
444.5
  0
LINE
  8
_0-a_
  6
CONTINUOUS
 62
    3
 10
260.36732698797954
 20
416.5000000000116
 11
201.59999999999869
 21
416.5000000000116
  0
LINE
  8
_0-a_
  6
CONTINUOUS
 62
    3
 10
222.59999999999869
 20
447.50000000000023
 11
225.59999999999869
 21
444.50000000000023
  0
LINE
  8
_0-a_
  6
CONTINUOUS
 62
    3
 10
219.59999999999869
 20
444.50000000000023
 11
222.59999999999869
 21
447.50000000000023
  0
LINE
  8
_0-a_
  6
CONTINUOUS
 62
    3
 10
216.59999999999869
 20
447.50000000000023
 11
219.59999999999869
 21
444.50000000000023
  0
LINE
  8
_0-a_
  6
CONTINUOUS
 62
    3
 10
228.59999999999869
 20
447.50000000000023
 11
231.59999999999869
 21
444.50000000000023
  0
LINE
  8
_0-a_
  6
CONTINUOUS
 62
    3
 10
225.59999999999869
 20
444.50000000000023
 11
228.59999999999869
 21
447.50000000000023
  0
LINE
  8
_0-a_
  6
CONTINUOUS
 62
    3
 10
234.59999999999869
 20
447.50000000000023
 11
237.59999999999869
 21
444.50000000000023
  0
LINE
  8
_0-a_
  6
CONTINUOUS
 62
    3
 10
231.59999999999869
 20
444.50000000000023
 11
234.59999999999869
 21
447.50000000000023
  0
LINE
  8
_0-a_
  6
CONTINUOUS
 62
    3
 10
240.59999999999869
 20
447.50000000000023
 11
243.59999999999869
 21
444.50000000000023
  0
LINE
  8
_0-a_
  6
CONTINUOUS
 62
    3
 10
237.59999999999869
 20
444.50000000000023
 11
240.59999999999869
 21
447.50000000000023
  0
LINE
  8
_0-a_
  6
CONTINUOUS
 62
    3
 10
246.59999999999869
 20
447.50000000000023
 11
249.59999999999869
 21
444.50000000000023
  0
LINE
  8
_0-a_
  6
CONTINUOUS
 62
    3
 10
243.59999999999869
 20
444.50000000000023
 11
246.59999999999869
 21
447.50000000000023
  0
LINE
  8
_0-a_
  6
CONTINUOUS
 62
    3
 10
252.59999999999869
 20
447.50000000000023
 11
255.59999999999869
 21
444.50000000000023
  0
LINE
  8
_0-a_
  6
CONTINUOUS
 62
    3
 10
249.59999999999869
 20
444.50000000000023
 11
252.59999999999869
 21
447.50000000000023
  0
LINE
  8
_0-a_
  6
CONTINUOUS
 62
    3
 10
258.59999999999872
 20
447.50000000000023
 11
261.59999999999872
 21
444.50000000000023
  0
LINE
  8
_0-a_
  6
CONTINUOUS
 62
    3
 10
255.59999999999869
 20
444.50000000000023
 11
258.59999999999872
 21
447.50000000000023
  0
LINE
  8
_0-a_
  6
CONTINUOUS
 62
    3
 10
264.59999999999872
 20
447.50000000000023
 11
267.59999999999872
 21
444.50000000000023
  0
LINE
  8
_0-a_
  6
CONTINUOUS
 62
    3
 10
261.59999999999872
 20
444.50000000000023
 11
264.59999999999872
 21
447.50000000000023
  0
LINE
  8
_0-a_
  6
CONTINUOUS
 62
    3
 10
267.59999999999872
 20
444.50000000000023
 11
270.59999999999872
 21
447.50000000000023
  0
LINE
  8
_0-a_
  6
CONTINUOUS
 62
    3
 10
280.10000000000099
 20
442.30000000001155
 11
283.10000000000099
 21
439.30000000001155
  0
LINE
  8
_0-a_
  6
CONTINUOUS
 62
    3
 10
277.10000000000099
 20
439.30000000001155
 11
280.10000000000099
 21
442.30000000001155
  0
LINE
  8
_0-a_
  6
CONTINUOUS
 62
    3
 10
286.10000000000099
 20
442.30000000001155
 11
289.10000000000099
 21
439.30000000001155
  0
LINE
  8
_0-a_
  6
CONTINUOUS
 62
    3
 10
283.10000000000099
 20
439.30000000001155
 11
286.10000000000099
 21
442.30000000001155
  0
LINE
  8
_0-a_
  6
CONTINUOUS
 62
    3
 10
292.10000000000099
 20
442.30000000001155
 11
295.10000000000099
 21
439.30000000001155
  0
LINE
  8
_0-a_
  6
CONTINUOUS
 62
    3
 10
289.10000000000099
 20
439.30000000001155
 11
292.10000000000099
 21
442.30000000001155
  0
LINE
  8
_0-a_
  6
CONTINUOUS
 62
    3
 10
298.10000000000099
 20
442.30000000001155
 11
301.10000000000099
 21
439.30000000001155
  0
LINE
  8
_0-a_
  6
CONTINUOUS
 62
    3
 10
295.10000000000099
 20
439.30000000001155
 11
298.10000000000099
 21
442.30000000001155
  0
LINE
  8
_0-a_
  6
CONTINUOUS
 62
    3
 10
304.10000000000099
 20
442.30000000001155
 11
307.10000000000099
 21
439.30000000001155
  0
LINE
  8
_0-a_
  6
CONTINUOUS
 62
    3
 10
301.10000000000099
 20
439.30000000001155
 11
304.10000000000099
 21
442.30000000001155
  0
LINE
  8
_0-a_
  6
CONTINUOUS
 62
    3
 10
310.10000000000099
 20
442.30000000001155
 11
313.10000000000099
 21
439.30000000001155
  0
LINE
  8
_0-a_
  6
CONTINUOUS
 62
    3
 10
307.10000000000099
 20
439.30000000001155
 11
310.10000000000099
 21
442.30000000001155
  0
LINE
  8
_0-a_
  6
CONTINUOUS
 62
    3
 10
316.10000000000099
 20
442.30000000001155
 11
319.10000000000099
 21
439.30000000001155
  0
LINE
  8
_0-a_
  6
CONTINUOUS
 62
    3
 10
313.10000000000099
 20
439.30000000001155
 11
316.10000000000099
 21
442.30000000001155
  0
LINE
  8
_0-a_
  6
CONTINUOUS
 62
    3
 10
322.10000000000099
 20
442.30000000001155
 11
325.10000000000099
 21
439.30000000001155
  0
LINE
  8
_0-a_
  6
CONTINUOUS
 62
    3
 10
319.10000000000099
 20
439.30000000001155
 11
322.10000000000099
 21
442.30000000001155
  0
LINE
  8
_0-a_
  6
CONTINUOUS
 62
    3
 10
274.10000000000099
 20
442.30000000001155
 11
277.10000000000099
 21
439.30000000001155
  0
LINE
  8
_0-a_
  6
CONTINUOUS
 62
    3
 10
328.10000000000099
 20
442.30000000001155
 11
331.10000000000099
 21
439.30000000001155
  0
LINE
  8
_0-a_
  6
CONTINUOUS
 62
    3
 10
325.10000000000099
 20
439.30000000001155
 11
328.10000000000099
 21
442.30000000001155
  0
LINE
  8
_0-a_
  6
CONTINUOUS
 62
    3
 10
334.10000000000099
 20
442.30000000001155
 11
337.10000000000099
 21
439.30000000001155
  0
LINE
  8
_0-a_
  6
CONTINUOUS
 62
    3
 10
331.10000000000099
 20
439.30000000001155
 11
334.10000000000099
 21
442.30000000001155
  0
LINE
  8
_0-a_
  6
CONTINUOUS
 62
    3
 10
340.10000000000099
 20
442.30000000001155
 11
343.10000000000099
 21
439.30000000001155
  0
LINE
  8
_0-a_
  6
CONTINUOUS
 62
    3
 10
337.10000000000099
 20
439.30000000001155
 11
340.10000000000099
 21
442.30000000001155
  0
LINE
  8
_0-a_
  6
CONTINUOUS
 62
    3
 10
346.10000000000099
 20
442.30000000001155
 11
349.10000000000099
 21
439.30000000001155
  0
LINE
  8
_0-a_
  6
CONTINUOUS
 62
    3
 10
343.10000000000099
 20
439.30000000001155
 11
346.10000000000099
 21
442.30000000001155
  0
LINE
  8
_0-a_
  6
CONTINUOUS
 62
    3
 10
352.10000000000099
 20
442.30000000001155
 11
355.10000000000099
 21
439.30000000001155
  0
LINE
  8
_0-a_
  6
CONTINUOUS
 62
    3
 10
349.10000000000099
 20
439.30000000001155
 11
352.10000000000099
 21
442.30000000001155
  0
LINE
  8
_0-a_
  6
CONTINUOUS
 62
    3
 10
358.10000000000099
 20
442.30000000001155
 11
361.10000000000099
 21
439.30000000001155
  0
LINE
  8
_0-a_
  6
CONTINUOUS
 62
    3
 10
355.10000000000099
 20
439.30000000001155
 11
358.10000000000099
 21
442.30000000001155
  0
LINE
  8
_0-a_
  6
CONTINUOUS
 62
    3
 10
364.10000000000099
 20
442.30000000001155
 11
367.10000000000099
 21
439.30000000001155
  0
LINE
  8
_0-a_
  6
CONTINUOUS
 62
    3
 10
361.10000000000099
 20
439.30000000001155
 11
364.10000000000099
 21
442.30000000001155
  0
LINE
  8
_0-a_
  6
CONTINUOUS
 62
    3
 10
370.10000000000099
 20
442.30000000001155
 11
373.10000000000099
 21
439.30000000001155
  0
LINE
  8
_0-a_
  6
CONTINUOUS
 62
    3
 10
367.10000000000099
 20
439.30000000001155
 11
370.10000000000099
 21
442.30000000001155
  0
LINE
  8
_0-a_
  6
CONTINUOUS
 62
    3
 10
376.10000000000099
 20
442.30000000001155
 11
379.10000000000099
 21
439.30000000001155
  0
LINE
  8
_0-a_
  6
CONTINUOUS
 62
    3
 10
373.10000000000099
 20
439.30000000001155
 11
376.10000000000099
 21
442.30000000001155
  0
LINE
  8
_0-a_
  6
CONTINUOUS
 62
    3
 10
382.10000000000099
 20
442.30000000001155
 11
385.10000000000099
 21
439.30000000001155
  0
LINE
  8
_0-a_
  6
CONTINUOUS
 62
    3
 10
379.10000000000099
 20
439.30000000001155
 11
382.10000000000099
 21
442.30000000001155
  0
LINE
  8
_0-a_
  6
CONTINUOUS
 62
    3
 10
388.10000000000099
 20
442.30000000001155
 11
391.10000000000099
 21
439.30000000001155
  0
LINE
  8
_0-a_
  6
CONTINUOUS
 62
    3
 10
385.10000000000099
 20
439.30000000001155
 11
388.10000000000099
 21
442.30000000001155
  0
LINE
  8
_0-a_
  6
CONTINUOUS
 62
    3
 10
394.10000000000099
 20
442.30000000001155
 11
397.10000000000099
 21
439.30000000001155
  0
LINE
  8
_0-a_
  6
CONTINUOUS
 62
    3
 10
391.10000000000099
 20
439.30000000001155
 11
394.10000000000099
 21
442.30000000001155
  0
LINE
  8
_0-a_
  6
CONTINUOUS
 62
    3
 10
400.10000000000099
 20
442.30000000001155
 11
403.10000000000099
 21
439.30000000001155
  0
LINE
  8
_0-a_
  6
CONTINUOUS
 62
    3
 10
397.10000000000099
 20
439.30000000001155
 11
400.10000000000099
 21
442.30000000001155
  0
LINE
  8
_0-a_
  6
CONTINUOUS
 62
    3
 10
406.10000000000099
 20
442.30000000001155
 11
409.10000000000099
 21
439.30000000001155
  0
LINE
  8
_0-a_
  6
CONTINUOUS
 62
    3
 10
403.10000000000099
 20
439.30000000001155
 11
406.10000000000099
 21
442.30000000001155
  0
LINE
  8
_0-a_
  6
CONTINUOUS
 62
    3
 10
409.10000000000099
 20
439.30000000001155
 11
412.10000000000099
 21
442.30000000001155
  0
LINE
  8
_0-a_
  6
CONTINUOUS
 62
    3
 10
372.60000000000076
 20
447.50000000000023
 11
375.60000000000076
 21
444.50000000000023
  0
LINE
  8
_0-a_
  6
CONTINUOUS
 62
    3
 10
369.60000000000076
 20
444.50000000000023
 11
372.60000000000076
 21
447.50000000000023
  0
LINE
  8
_0-a_
  6
CONTINUOUS
 62
    3
 10
378.60000000000076
 20
447.50000000000023
 11
381.60000000000076
 21
444.50000000000023
  0
LINE
  8
_0-a_
  6
CONTINUOUS
 62
    3
 10
375.60000000000076
 20
444.50000000000023
 11
378.60000000000076
 21
447.50000000000023
  0
LINE
  8
_0-a_
  6
CONTINUOUS
 62
    3
 10
384.60000000000076
 20
447.50000000000023
 11
387.60000000000076
 21
444.50000000000023
  0
LINE
  8
_0-a_
  6
CONTINUOUS
 62
    3
 10
381.60000000000076
 20
444.50000000000023
 11
384.60000000000076
 21
447.50000000000023
  0
LINE
  8
_0-a_
  6
CONTINUOUS
 62
    3
 10
390.60000000000076
 20
447.50000000000023
 11
393.60000000000076
 21
444.50000000000023
  0
LINE
  8
_0-a_
  6
CONTINUOUS
 62
    3
 10
387.60000000000076
 20
444.50000000000023
 11
390.60000000000076
 21
447.50000000000023
  0
LINE
  8
_0-a_
  6
CONTINUOUS
 62
    3
 10
366.60000000000076
 20
447.50000000000023
 11
369.60000000000076
 21
444.50000000000023
  0
LINE
  8
_0-a_
  6
CONTINUOUS
 62
    3
 10
363.60000000000076
 20
444.50000000000023
 11
366.60000000000076
 21
447.50000000000023
  0
LINE
  8
_0-a_
  6
CONTINUOUS
 62
    3
 10
402.60000000000076
 20
447.50000000000023
 11
405.60000000000076
 21
444.50000000000023
  0
LINE
  8
_0-a_
  6
CONTINUOUS
 62
    3
 10
399.60000000000076
 20
444.50000000000023
 11
402.60000000000076
 21
447.50000000000023
  0
LINE
  8
_0-a_
  6
CONTINUOUS
 62
    3
 10
408.60000000000076
 20
447.50000000000023
 11
411.60000000000076
 21
444.50000000000023
  0
LINE
  8
_0-a_
  6
CONTINUOUS
 62
    3
 10
405.60000000000076
 20
444.50000000000023
 11
408.60000000000076
 21
447.50000000000023
  0
LINE
  8
_0-a_
  6
CONTINUOUS
 62
    3
 10
414.60000000000076
 20
447.50000000000023
 11
417.60000000000076
 21
444.50000000000023
  0
LINE
  8
_0-a_
  6
CONTINUOUS
 62
    3
 10
411.60000000000076
 20
444.50000000000023
 11
414.60000000000076
 21
447.50000000000023
  0
LINE
  8
_0-a_
  6
CONTINUOUS
 62
    3
 10
420.60000000000076
 20
447.50000000000023
 11
423.60000000000076
 21
444.50000000000023
  0
LINE
  8
_0-a_
  6
CONTINUOUS
 62
    3
 10
417.60000000000076
 20
444.50000000000023
 11
420.60000000000076
 21
447.50000000000023
  0
LINE
  8
_0-a_
  6
CONTINUOUS
 62
    3
 10
396.60000000000076
 20
447.50000000000023
 11
399.60000000000076
 21
444.50000000000023
  0
LINE
  8
_0-a_
  6
CONTINUOUS
 62
    3
 10
393.60000000000076
 20
444.50000000000023
 11
396.60000000000076
 21
447.50000000000023
  0
LINE
  8
_0-a_
  6
CONTINUOUS
 62
    3
 10
432.60000000000076
 20
447.50000000000023
 11
435.60000000000076
 21
444.50000000000023
  0
LINE
  8
_0-a_
  6
CONTINUOUS
 62
    3
 10
429.60000000000076
 20
444.50000000000023
 11
432.60000000000076
 21
447.50000000000023
  0
LINE
  8
_0-a_
  6
CONTINUOUS
 62
    3
 10
438.60000000000076
 20
447.50000000000023
 11
441.60000000000076
 21
444.50000000000023
  0
LINE
  8
_0-a_
  6
CONTINUOUS
 62
    3
 10
435.60000000000076
 20
444.50000000000023
 11
438.60000000000076
 21
447.50000000000023
  0
LINE
  8
_0-a_
  6
CONTINUOUS
 62
    3
 10
444.60000000000076
 20
447.50000000000023
 11
447.60000000000076
 21
444.50000000000023
  0
LINE
  8
_0-a_
  6
CONTINUOUS
 62
    3
 10
441.60000000000076
 20
444.50000000000023
 11
444.60000000000076
 21
447.50000000000023
  0
LINE
  8
_0-a_
  6
CONTINUOUS
 62
    3
 10
450.60000000000076
 20
447.50000000000023
 11
453.60000000000076
 21
444.50000000000023
  0
LINE
  8
_0-a_
  6
CONTINUOUS
 62
    3
 10
447.60000000000076
 20
444.50000000000023
 11
450.60000000000076
 21
447.50000000000023
  0
LINE
  8
_0-a_
  6
CONTINUOUS
 62
    3
 10
426.60000000000076
 20
447.50000000000023
 11
429.60000000000076
 21
444.50000000000023
  0
LINE
  8
_0-a_
  6
CONTINUOUS
 62
    3
 10
423.60000000000076
 20
444.50000000000023
 11
426.60000000000076
 21
447.50000000000023
  0
LINE
  8
_0-a_
  6
CONTINUOUS
 62
    3
 10
459.60000000000076
 20
444.50000000000023
 11
462.60000000000076
 21
447.50000000000023
  0
LINE
  8
_0-a_
  6
CONTINUOUS
 62
    3
 10
456.60000000000076
 20
447.50000000000023
 11
459.60000000000076
 21
444.50000000000023
  0
LINE
  8
_0-a_
  6
CONTINUOUS
 62
    3
 10
453.60000000000076
 20
444.50000000000023
 11
456.60000000000076
 21
447.50000000000023
  0
LINE
  8
_0-a_
  6
CONTINUOUS
 62
    3
 10
496.60000000000053
 20
447.5
 11
499.60000000000053
 21
444.5
  0
LINE
  8
_0-a_
  6
CONTINUOUS
 62
    3
 10
493.60000000000053
 20
444.5
 11
496.60000000000053
 21
447.5
  0
LINE
  8
_0-a_
  6
CONTINUOUS
 62
    3
 10
502.60000000000053
 20
447.5
 11
505.60000000000053
 21
444.5
  0
LINE
  8
_0-a_
  6
CONTINUOUS
 62
    3
 10
499.60000000000053
 20
444.5
 11
502.60000000000053
 21
447.5
  0
LINE
  8
_0-a_
  6
CONTINUOUS
 62
    3
 10
490.60000000000053
 20
447.5
 11
493.60000000000053
 21
444.5
  0
LINE
  8
_0-a_
  6
CONTINUOUS
 62
    3
 10
487.60000000000053
 20
444.5
 11
490.60000000000053
 21
447.5
  0
LINE
  8
_0-a_
  6
CONTINUOUS
 62
    3
 10
484.60000000000053
 20
447.5
 11
487.60000000000053
 21
444.5
  0
LINE
  8
_0-a_
  6
CONTINUOUS
 62
    3
 10
481.60000000000053
 20
444.5
 11
484.60000000000053
 21
447.5
  0
LINE
  8
_0-a_
  6
CONTINUOUS
 62
    3
 10
508.60000000000031
 20
447.50000000000023
 11
511.60000000000031
 21
444.50000000000023
  0
LINE
  8
_0-a_
  6
CONTINUOUS
 62
    3
 10
505.60000000000031
 20
444.50000000000023
 11
508.60000000000031
 21
447.50000000000023
  0
LINE
  8
_0-a_
  6
CONTINUOUS
 62
    3
 10
486.19807621135345
 20
444.5
 11
481.60000000000053
 21
444.5
  0
LINE
  8
_0-a_
  6
CONTINUOUS
 62
    3
 10
197.59999999999778
 20
444.5
 11
167.45578674334493
 21
444.5
  0
LINE
  8
_0-a_
  6
CONTINUOUS
 62
    3
 10
170.59999999999778
 20
447.5
 11
173.59999999999778
 21
444.5
  0
LINE
  8
_0-a_
  6
CONTINUOUS
 62
    3
 10
167.59999999999778
 20
444.5
 11
170.59999999999778
 21
447.5
  0
LINE
  8
_0-a_
  6
CONTINUOUS
 62
    3
 10
176.59999999999778
 20
447.5
 11
179.59999999999778
 21
444.5
  0
LINE
  8
_0-a_
  6
CONTINUOUS
 62
    3
 10
173.59999999999778
 20
444.5
 11
176.59999999999778
 21
447.5
  0
LINE
  8
_0-a_
  6
CONTINUOUS
 62
    3
 10
182.59999999999778
 20
447.5
 11
185.59999999999778
 21
444.5
  0
LINE
  8
_0-a_
  6
CONTINUOUS
 62
    3
 10
179.59999999999778
 20
444.5
 11
182.59999999999778
 21
447.5
  0
LINE
  8
_0-a_
  6
CONTINUOUS
 62
    3
 10
188.59999999999778
 20
447.5
 11
191.59999999999778
 21
444.5
  0
LINE
  8
_0-a_
  6
CONTINUOUS
 62
    3
 10
185.59999999999778
 20
444.5
 11
188.59999999999778
 21
447.5
  0
LINE
  8
_0-a_
  6
CONTINUOUS
 62
    3
 10
194.59999999999778
 20
447.5
 11
197.59999999999778
 21
444.5
  0
LINE
  8
_0-a_
  6
CONTINUOUS
 62
    3
 10
191.59999999999778
 20
444.5
 11
194.59999999999778
 21
447.5
  0
LINE
  8
_0-a_
  6
CONTINUOUS
 62
    3
 10
209.39999999999864
 20
440.5
 11
209.09999999999891
 21
440.20000000000027
  0
LINE
  8
_0-a_
  6
CONTINUOUS
 62
    3
 10
209.09999999999891
 20
440.20000000000027
 11
208.79999999999828
 21
440.5
  0
LINE
  8
_0-a_
  6
CONTINUOUS
 62
    3
 10
210.84999999999891
 20
436.70000000000005
 11
210.84999999999891
 21
431.35677313259566
  0
LINE
  8
_0-a_
  6
CONTINUOUS
 62
    3
 10
210.88999999999888
 20
441.50301343867295
 11
210.88999999999888
 21
440.70738171934272
  0
LINE
  8
_0-a_
  6
CONTINUOUS
 62
    3
 10
210.88999999999888
 20
440.00301343867295
 11
210.88999999999888
 21
439.20738171934272
  0
LINE
  8
_0-a_
  6
CONTINUOUS
 62
    3
 10
210.88999999999888
 20
438.50301343867295
 11
210.88999999999888
 21
436.70000000000005
  0
LINE
  8
_0-a_
  6
CONTINUOUS
 62
    3
 10
210.88999999999888
 20
442.70000000000005
 11
210.88999999999888
 21
442.20738171934272
  0
LINE
  8
_0-a_
  6
CONTINUOUS
 62
    3
 10
207.30999999999872
 20
437.20000000000005
 11
207.30999999999872
 21
436.70000000000005
  0
LINE
  8
_0-a_
  6
CONTINUOUS
 62
    3
 10
207.30999999999872
 20
438.70000000000005
 11
207.30999999999872
 21
437.90436828066981
  0
LINE
  8
_0-a_
  6
CONTINUOUS
 62
    3
 10
207.30999999999872
 20
440.20000000000005
 11
207.30999999999872
 21
439.40436828066981
  0
LINE
  8
_0-a_
  6
CONTINUOUS
 62
    3
 10
207.30999999999872
 20
441.70000000000005
 11
207.30999999999872
 21
440.90436828066981
  0
LINE
  8
_0-a_
  6
CONTINUOUS
 62
    3
 10
207.30999999999872
 20
442.70000000000005
 11
207.30999999999872
 21
442.40436828066981
  0
LINE
  8
_0-a_
  6
CONTINUOUS
 62
    3
 10
209.09999999999891
 20
442.7036908596715
 11
206.6999999999986
 21
442.05218414033493
  0
LINE
  8
_0-a_
  6
CONTINUOUS
 62
    3
 10
207.30999999999872
 20
441.70000000000005
 11
209.09999999999891
 21
442.35150671933661
  0
LINE
  8
_0-a_
  6
CONTINUOUS
 62
    3
 10
207.30999999999872
 20
442.40436828066981
 11
208.12224147333328
 21
442.70000000000005
  0
LINE
  8
_0-a_
  6
CONTINUOUS
 62
    3
 10
211.14999999999864
 20
436.70000000000005
 11
211.14999999999864
 21
431.18356805183862
  0
LINE
  8
_0-a_
  6
CONTINUOUS
 62
    3
 10
211.14999999999864
 20
436.70000000000005
 11
207.04999999999896
 21
436.70000000000005
  0
LINE
  8
_0-a_
  6
CONTINUOUS
 62
    3
 10
207.04999999999896
 20
436.70000000000005
 11
207.04999999999896
 21
431.18356805183862
  0
LINE
  8
_0-a_
  6
CONTINUOUS
 62
    3
 10
206.6999999999986
 20
442.05218414033493
 11
207.30999999999872
 21
442.40436828066981
  0
LINE
  8
_0-a_
  6
CONTINUOUS
 62
    3
 10
207.30999999999872
 20
441.70000000000005
 11
206.6999999999986
 21
442.05218414033493
  0
LINE
  8
_0-a_
  6
CONTINUOUS
 62
    3
 10
211.49999999999901
 20
441.85519757900784
 11
206.6999999999986
 21
440.55218414033493
  0
LINE
  8
_0-a_
  6
CONTINUOUS
 62
    3
 10
207.30999999999872
 20
440.20000000000005
 11
210.88999999999888
 21
441.50301343867295
  0
LINE
  8
_0-a_
  6
CONTINUOUS
 62
    3
 10
207.30999999999872
 20
440.90436828066981
 11
210.88999999999888
 21
442.20738171934272
  0
LINE
  8
_0-a_
  6
CONTINUOUS
 62
    3
 10
206.6999999999986
 20
440.55218414033493
 11
207.30999999999872
 21
440.90436828066981
  0
LINE
  8
_0-a_
  6
CONTINUOUS
 62
    3
 10
207.30999999999872
 20
440.20000000000005
 11
206.6999999999986
 21
440.55218414033493
  0
LINE
  8
_0-a_
  6
CONTINUOUS
 62
    3
 10
211.49999999999901
 20
441.85519757900784
 11
210.88999999999888
 21
441.50301343867295
  0
LINE
  8
_0-a_
  6
CONTINUOUS
 62
    3
 10
210.88999999999888
 20
442.20738171934272
 11
211.49999999999901
 21
441.85519757900784
  0
LINE
  8
_0-a_
  6
CONTINUOUS
 62
    3
 10
211.49999999999901
 20
440.35519757900784
 11
206.6999999999986
 21
439.05218414033493
  0
LINE
  8
_0-a_
  6
CONTINUOUS
 62
    3
 10
207.30999999999872
 20
438.70000000000005
 11
210.88999999999888
 21
440.00301343867295
  0
LINE
  8
_0-a_
  6
CONTINUOUS
 62
    3
 10
207.30999999999872
 20
439.40436828066981
 11
210.88999999999888
 21
440.70738171934272
  0
LINE
  8
_0-a_
  6
CONTINUOUS
 62
    3
 10
206.6999999999986
 20
439.05218414033493
 11
207.30999999999872
 21
439.40436828066981
  0
LINE
  8
_0-a_
  6
CONTINUOUS
 62
    3
 10
207.30999999999872
 20
438.70000000000005
 11
206.6999999999986
 21
439.05218414033493
  0
LINE
  8
_0-a_
  6
CONTINUOUS
 62
    3
 10
211.49999999999901
 20
440.35519757900784
 11
210.88999999999888
 21
440.00301343867295
  0
LINE
  8
_0-a_
  6
CONTINUOUS
 62
    3
 10
210.88999999999888
 20
440.70738171934272
 11
211.49999999999901
 21
440.35519757900784
  0
LINE
  8
_0-a_
  6
CONTINUOUS
 62
    3
 10
211.49999999999901
 20
438.85519757900784
 11
206.6999999999986
 21
437.55218414033493
  0
LINE
  8
_0-a_
  6
CONTINUOUS
 62
    3
 10
207.30999999999872
 20
437.20000000000005
 11
210.88999999999888
 21
438.50301343867295
  0
LINE
  8
_0-a_
  6
CONTINUOUS
 62
    3
 10
207.30999999999872
 20
437.90436828066981
 11
210.88999999999888
 21
439.20738171934272
  0
LINE
  8
_0-a_
  6
CONTINUOUS
 62
    3
 10
206.6999999999986
 20
437.55218414033493
 11
207.30999999999872
 21
437.90436828066981
  0
LINE
  8
_0-a_
  6
CONTINUOUS
 62
    3
 10
207.30999999999872
 20
437.20000000000005
 11
206.6999999999986
 21
437.55218414033493
  0
LINE
  8
_0-a_
  6
CONTINUOUS
 62
    3
 10
211.49999999999901
 20
438.85519757900784
 11
210.88999999999888
 21
438.50301343867295
  0
LINE
  8
_0-a_
  6
CONTINUOUS
 62
    3
 10
210.88999999999888
 20
439.20738171934272
 11
211.49999999999901
 21
438.85519757900784
  0
LINE
  8
_0-a_
  6
CONTINUOUS
 62
    3
 10
209.09999999999891
 20
430.34641016151386
 11
207.97969068711851
 21
436.70000000000005
  0
LINE
  8
_0-a_
  6
CONTINUOUS
 62
    3
 10
209.09999999999891
 20
430.34641016151386
 11
207.34999999999869
 21
431.35677313259566
  0
LINE
  8
_0-a_
  6
CONTINUOUS
 62
    3
 10
207.34999999999869
 20
436.70000000000005
 11
207.34999999999869
 21
431.35677313259566
  0
LINE
  8
_0-a_
  6
CONTINUOUS
 62
    3
 10
210.88999999999888
 20
437.20000000000005
 11
210.88999999999888
 21
436.70000000000005
  0
LINE
  8
_0-a_
  6
CONTINUOUS
 62
    3
 10
207.04999999999896
 20
436.70000000000005
 11
207.04999999999896
 21
431.18356805183862
  0
LINE
  8
_0-a_
  6
CONTINUOUS
 62
    3
 10
207.04999999999896
 20
436.70000000000005
 11
211.14999999999864
 21
436.70000000000005
  0
LINE
  8
_0-a_
  6
CONTINUOUS
 62
    3
 10
211.14999999999864
 20
436.70000000000005
 11
211.14999999999864
 21
431.18356805183862
  0
LINE
  8
_0-a_
  6
CONTINUOUS
 62
    3
 10
209.09999999999891
 20
430
 11
207.04999999999896
 21
431.18356805183862
  0
LINE
  8
_0-a_
  6
CONTINUOUS
 62
    3
 10
209.09999999999891
 20
430
 11
211.14999999999864
 21
431.18356805183862
  0
LINE
  8
_0-a_
  6
CONTINUOUS
 62
    3
 10
210.88999999999888
 20
444.50301343867295
 11
210.88999999999888
 21
443.70738171934272
  0
LINE
  8
_0-a_
  6
CONTINUOUS
 62
    3
 10
210.88999999999888
 20
443.00301343867295
 11
210.88999999999888
 21
442.20738171934272
  0
LINE
  8
_0-a_
  6
CONTINUOUS
 62
    3
 10
210.88999999999888
 20
445.70000000000005
 11
210.88999999999888
 21
445.20738171934272
  0
LINE
  8
_0-a_
  6
CONTINUOUS
 62
    3
 10
207.30999999999872
 20
443.20000000000005
 11
207.30999999999872
 21
442.40436828066981
  0
LINE
  8
_0-a_
  6
CONTINUOUS
 62
    3
 10
207.30999999999872
 20
444.70000000000005
 11
207.30999999999872
 21
443.90436828066981
  0
LINE
  8
_0-a_
  6
CONTINUOUS
 62
    3
 10
207.30999999999872
 20
445.70000000000005
 11
207.30999999999872
 21
445.40436828066981
  0
LINE
  8
_0-a_
  6
CONTINUOUS
 62
    3
 10
209.09999999999891
 20
445.7036908596715
 11
206.6999999999986
 21
445.05218414033493
  0
LINE
  8
_0-a_
  6
CONTINUOUS
 62
    3
 10
207.30999999999872
 20
445.40436828066981
 11
208.12224147333328
 21
445.70000000000005
  0
LINE
  8
_0-a_
  6
CONTINUOUS
 62
    3
 10
206.6999999999986
 20
445.05218414033493
 11
207.30999999999872
 21
445.40436828066981
  0
LINE
  8
_0-a_
  6
CONTINUOUS
 62
    3
 10
207.30999999999872
 20
444.70000000000005
 11
206.6999999999986
 21
445.05218414033493
  0
LINE
  8
_0-a_
  6
CONTINUOUS
 62
    3
 10
211.49999999999901
 20
444.85519757900784
 11
206.6999999999986
 21
443.55218414033493
  0
LINE
  8
_0-a_
  6
CONTINUOUS
 62
    3
 10
207.30999999999872
 20
443.20000000000005
 11
210.88999999999888
 21
444.50301343867295
  0
LINE
  8
_0-a_
  6
CONTINUOUS
 62
    3
 10
207.30999999999872
 20
443.90436828066981
 11
210.88999999999888
 21
445.20738171934272
  0
LINE
  8
_0-a_
  6
CONTINUOUS
 62
    3
 10
206.6999999999986
 20
443.55218414033493
 11
207.30999999999872
 21
443.90436828066981
  0
LINE
  8
_0-a_
  6
CONTINUOUS
 62
    3
 10
207.30999999999872
 20
443.20000000000005
 11
206.6999999999986
 21
443.55218414033493
  0
LINE
  8
_0-a_
  6
CONTINUOUS
 62
    3
 10
211.49999999999901
 20
444.85519757900784
 11
210.88999999999888
 21
444.50301343867295
  0
LINE
  8
_0-a_
  6
CONTINUOUS
 62
    3
 10
210.88999999999888
 20
445.20738171934272
 11
211.49999999999901
 21
444.85519757900784
  0
LINE
  8
_0-a_
  6
CONTINUOUS
 62
    3
 10
211.49999999999901
 20
443.35519757900784
 11
206.6999999999986
 21
442.05218414033493
  0
LINE
  8
_0-a_
  6
CONTINUOUS
 62
    3
 10
207.30999999999872
 20
441.70000000000005
 11
210.88999999999888
 21
443.00301343867295
  0
LINE
  8
_0-a_
  6
CONTINUOUS
 62
    3
 10
207.30999999999872
 20
442.40436828066981
 11
210.88999999999888
 21
443.70738171934272
  0
LINE
  8
_0-a_
  6
CONTINUOUS
 62
    3
 10
206.6999999999986
 20
442.05218414033493
 11
207.30999999999872
 21
442.40436828066981
  0
LINE
  8
_0-a_
  6
CONTINUOUS
 62
    3
 10
207.30999999999872
 20
441.70000000000005
 11
206.6999999999986
 21
442.05218414033493
  0
LINE
  8
_0-a_
  6
CONTINUOUS
 62
    3
 10
211.49999999999901
 20
443.35519757900784
 11
210.88999999999888
 21
443.00301343867295
  0
LINE
  8
_0-a_
  6
CONTINUOUS
 62
    3
 10
210.88999999999888
 20
443.70738171934272
 11
211.49999999999901
 21
443.35519757900784
  0
LINE
  8
_0-a_
  6
CONTINUOUS
 62
    3
 10
211.49999999999901
 20
441.85519757900784
 11
210.88999999999888
 21
441.50301343867295
  0
LINE
  8
_0-a_
  6
CONTINUOUS
 62
    3
 10
210.88999999999888
 20
442.20738171934272
 11
211.49999999999901
 21
441.85519757900784
  0
LINE
  8
_0-a_
  6
CONTINUOUS
 62
    3
 10
207.30999999999872
 20
444.70000000000005
 11
210.0574774194537
 21
445.70000000000005
  0
LINE
  8
_0-a_
  6
CONTINUOUS
 62
    3
 10
468.31000000000034
 20
444.70000000000005
 11
471.0574774194551
 21
445.70000000000005
  0
LINE
  8
_0-a_
  6
DASHED1
 62
    3
 10
217.10000000000073
 20
416.5000000000116
 11
217.10000000000073
 21
419.0000000000116
  0
LINE
  8
_0-a_
  6
DASHED1
 62
    3
 10
232.10000000000073
 20
416.5000000000116
 11
232.10000000000073
 21
419.0000000000116
  0
LINE
  8
_0-a_
  6
DASHED1
 62
    3
 10
387.10000000000076
 20
416.50000000000023
 11
387.10000000000076
 21
420
  0
LINE
  8
_0-a_
  6
DASHED1
 62
    3
 10
402.10000000000053
 20
416.50000000000023
 11
402.10000000000053
 21
420
  0
LINE
  8
_0-a_
  6
DASHED1
 62
    3
 10
442.09999999999962
 20
416.50000000000023
 11
442.09999999999962
 21
419.00000000000023
  0
LINE
  8
_0-a_
  6
DASHED1
 62
    3
 10
457.09999999999962
 20
416.50000000000023
 11
457.09999999999962
 21
419.00000000000023
  0
LINE
  8
_0-a_
  6
DASHED1
 62
    3
 10
457.09999999999985
 20
416.50000000000023
 11
457.09999999999985
 21
419.00000000000023
  0
LINE
  8
_0-a_
  6
CONTINUOUS
 62
    3
 10
270.10000000000099
 20
436.30000000001155
 11
416.10000000000235
 21
436.30000000001155
  0
LINE
  8
_0-a_
  6
CONTINUOUS
 62
    3
 10
193.001923788646
 20
444.5
 11
197.59999999999778
 21
444.5
  0
LINE
  8
_0-a_
  6
CONTINUOUS
 62
    3
 10
197.59999999999778
 20
444.5
 11
197.59999999999778
 21
447.5
  0
LINE
  8
_0-a_
  6
CONTINUOUS
 62
    3
 10
481.60000000000053
 20
444.5
 11
481.60000000000053
 21
447.5
  0
LINE
  8
_0-a_
  6
CONTINUOUS
 62
    3
 10
481.60000000000053
 20
444.5
 11
511.24421325665747
 21
444.5
  0
LINE
  8
_0-f_寸法
  6
CONTINUOUS
 62
    4
 10
279.60000000000122
 20
449
 11
279.60000000000122
 21
489
  0
LINE
  8
_0-f_寸法
  6
CONTINUOUS
 62
    4
 10
189.59999999999982
 20
449
 11
189.59999999999982
 21
489
  0
POINT
  8
_0-f_寸法
 62
    4
 10
189.59999999999982
 20
488
  0
POINT
  8
_0-f_寸法
 62
    4
 10
279.60000000000122
 20
488
  0
LINE
  8
_0-f_寸法
  6
CONTINUOUS
 62
    4
 10
189.59999999999982
 20
488
 11
279.60000000000122
 21
488
  0
TEXT
  8
_0-f_寸法
 62
    4
 10
231.00000000000051
 20
488
 40
9
 41
0.8
 50
0
  1
90
  0
LINE
  8
_0-f_寸法
  6
CONTINUOUS
 62
    4
 10
354.60000000000076
 20
449
 11
354.60000000000076
 21
489
  0
POINT
  8
_0-f_寸法
 62
    4
 10
279.60000000000122
 20
488
  0
POINT
  8
_0-f_寸法
 62
    4
 10
354.60000000000076
 20
488
  0
LINE
  8
_0-f_寸法
  6
CONTINUOUS
 62
    4
 10
279.60000000000122
 20
488
 11
354.60000000000076
 21
488
  0
TEXT
  8
_0-f_寸法
 62
    4
 10
313.50000000000097
 20
488
 40
9
 41
0.8
 50
0
  1
75
  0
LINE
  8
_0-f_寸法
  6
CONTINUOUS
 62
    4
 10
489.59999999999962
 20
449
 11
489.59999999999962
 21
489
  0
POINT
  8
_0-f_寸法
 62
    4
 10
354.60000000000076
 20
488
  0
POINT
  8
_0-f_寸法
 62
    4
 10
489.59999999999962
 20
488
  0
LINE
  8
_0-f_寸法
  6
CONTINUOUS
 62
    4
 10
354.60000000000076
 20
488
 11
489.59999999999962
 21
488
  0
TEXT
  8
_0-f_寸法
 62
    4
 10
416.70000000000033
 20
488
 40
9
 41
0.8
 50
0
  1
135
  0
LINE
  8
_0-f_寸法
  6
CONTINUOUS
 62
    4
 10
489.59999999999962
 20
489
 11
489.59999999999962
 21
509
  0
LINE
  8
_0-f_寸法
  6
CONTINUOUS
 62
    4
 10
189.59999999999982
 20
489
 11
189.59999999999982
 21
509
  0
POINT
  8
_0-f_寸法
 62
    4
 10
189.59999999999982
 20
508
  0
POINT
  8
_0-f_寸法
 62
    4
 10
489.59999999999962
 20
508
  0
LINE
  8
_0-f_寸法
  6
CONTINUOUS
 62
    4
 10
189.59999999999982
 20
508
 11
489.59999999999962
 21
508
  0
TEXT
  8
_0-f_寸法
 62
    4
 10
334.19999999999987
 20
508
 40
9
 41
0.8
 50
0
  1
300
  0
LINE
  8
_0-0_躯体
  6
CENTER1
 62
    2
 10
309.60000000000076
 20
415.5
 11
309.60000000000076
 21
315.50000000000006
  0
LINE
  8
_0-0_躯体
  6
CONTINUOUS
 62
    2
 10
359.60000000000076
 20
415.5
 11
359.60000000000076
 21
315.50000000000006
  0
LINE
  8
_0-0_躯体
  6
CONTINUOUS
 62
    2
 10
259.60000000000076
 20
415.5000000000116
 11
259.60000000000076
 21
315.50000000000006
  0
LINE
  8
_0-f_寸法
  6
CONTINUOUS
 62
    4
 10
281.20000000000113
 20
416.5000000000116
 11
281.20000000000113
 21
389.5000000000116
  0
LINE
  8
_0-f_寸法
  6
CONTINUOUS
 62
    4
 10
259.60000000000076
 20
409.5000000000116
 11
259.60000000000076
 21
389.5000000000116
  0
POINT
  8
_0-f_寸法
 62
    4
 10
259.60000000000076
 20
390.5000000000116
  0
POINT
  8
_0-f_寸法
 62
    4
 10
281.20000000000113
 20
390.5000000000116
  0
LINE
  8
_0-f_寸法
  6
CONTINUOUS
 62
    4
 10
259.60000000000076
 20
390.5000000000116
 11
281.20000000000113
 21
390.5000000000116
  0
TEXT
  8
_0-f_寸法
 62
    4
 10
263.20000000000095
 20
390.5000000000116
 40
9
 41
0.8
 50
0
  1
21.6
  0
LINE
  8
_0-0_躯体
  6
CONTINUOUS
 62
    2
 10
481.60000000000053
 20
444.49999999999977
 11
521.60000000000025
 21
444.49999999999977
  0
LINE
  8
_0-0_躯体
  6
CONTINUOUS
 62
    2
 10
157.5999999999982
 20
444.49999999999966
 11
197.599999999998
 21
444.49999999999966
  0
LINE
  8
_0-f_寸法
  6
CONTINUOUS
 62
    4
 10
354.60000000000076
 20
416.50000000000023
 11
354.60000000000076
 21
389.50000000000023
  0
LINE
  8
_0-f_寸法
  6
CONTINUOUS
 62
    4
 10
359.60000000000099
 20
409.50000000000023
 11
359.60000000000099
 21
389.50000000000023
  0
POINT
  8
_0-f_寸法
 62
    4
 10
359.60000000000099
 20
390.50000000000023
  0
POINT
  8
_0-f_寸法
 62
    4
 10
354.60000000000076
 20
390.50000000000023
  0
LINE
  8
_0-f_寸法
  6
CONTINUOUS
 62
    4
 10
359.60000000000099
 20
390.50000000000023
 11
354.60000000000076
 21
390.50000000000023
  0
TEXT
  8
_0-f_寸法
 62
    4
 10
355.30000000000075
 20
390.50000000000023
 40
9
 41
0.8
 50
0
  1
5
  0
CIRCLE
  8
_0-e_付箋
  6
CONTINUOUS
 62
    4
 10
251.83767447824917
 20
457.71903262686465
 40
4.8827102566353844
  0
LINE
  8
_0-e_付箋
  6
CONTINUOUS
 62
    4
 10
244.34999999999982
 20
443.25000000000011
 11
250.07481091994069
 21
453.16566337706263
  0
CIRCLE
  8
_0-e_付箋
  6
CONTINUOUS
 62
    4
 10
347.11232552175119
 20
408.68096737314158
 40
4.8827102566353844
  0
TEXT
  8
_0-e_付箋
 62
    4
 10
344.11232552175119
 20
405.68096737314158
 40
6
 41
1
 50
0
  1
４
  0
LINE
  8
_0-e_付箋
  6
CONTINUOUS
 62
    4
 10
354.60000000000076
 20
423.150000000006
 11
348.87518908005967
 21
413.23433662294337
  0
CIRCLE
  8
_0-e_付箋
  6
CONTINUOUS
 62
    4
 10
295.69038105676731
 20
423.29999900001189
 40
4.8827102566353844
  0
TEXT
  8
_0-e_付箋
 62
    4
 10
292.69038105676731
 20
420.29999900001189
 40
6
 41
1
 50
0
  1
７
  0
LINE
  8
_0-e_付箋
  6
CONTINUOUS
 62
    4
 10
291.46182993520227
 20
425.74135412832959
 11
282.7000000000009
 21
430.79999900001189
  0
CIRCLE
  8
_0-e_付箋
  6
CONTINUOUS
 62
    4
 10
291.80660171779931
 20
409.59339528219834
 40
4.8827102566353844
  0
TEXT
  8
_0-e_付箋
 62
    4
 10
288.80660171779931
 20
406.59339528219834
 40
6
 41
1
 50
0
  1
５
  0
LINE
  8
_0-e_付箋
  6
CONTINUOUS
 62
    4
 10
288.35400418476314
 20
413.04599281523429
 11
281.20000000000113
 21
420.19999699999653
  0
CIRCLE
  8
_0-e_付箋
  6
CONTINUOUS
 62
    4
 10
342.59899027263094
 20
318.25275581818818
 40
4.8827102566353844
  0
TEXT
  8
_0-e_付箋
 62
    4
 10
339.59899027263094
 20
315.25275581818818
 40
6
 41
1
 50
0
  1
６
  0
LINE
  8
_0-e_付箋
  6
CONTINUOUS
 62
    4
 10
339.146392739595
 20
321.70535335122418
 11
331.99238855483276
 21
328.85935753598642
  0
CIRCLE
  8
_0-e_付箋
  6
CONTINUOUS
 62
    4
 10
409.59999999999803
 20
396.76411670144626
 40
4.8827102566353844
  0
TEXT
  8
_0-e_付箋
 62
    4
 10
406.59999999999803
 20
393.76411670144626
 40
6
 41
1
 50
0
  1
10
  0
LINE
  8
_0-e_付箋
  6
CONTINUOUS
 62
    4
 10
407.15864487168022
 20
400.9926678230114
 11
394.59999999999803
 21
422.74487881497953
  0
CIRCLE
  8
_0-e_付箋
  6
CONTINUOUS
 62
    4
 10
469.0999999999994
 20
393.76923788646673
 40
4.8827102566353844
  0
TEXT
  8
_0-e_付箋
 62
    4
 10
466.0999999999994
 20
390.76923788646673
 40
6
 41
1
 50
0
  1
11
  0
LINE
  8
_0-e_付箋
  6
CONTINUOUS
 62
    4
 10
466.65864487168182
 20
397.99778900803187
 11
454.09999999999962
 21
419.75
  0
CIRCLE
  8
_0-e_付箋
  6
CONTINUOUS
 62
    4
 10
477.60000000000031
 20
460.74038105676664
 40
4.8827102566353844
  0
TEXT
  8
_0-e_付箋
 62
    4
 10
474.60000000000031
 20
457.74038105676664
 40
6
 41
1
 50
0
  1
８
  0
LINE
  8
_0-e_付箋
  6
CONTINUOUS
 62
    4
 10
475.15864487168272
 20
456.5118299352016
 11
470.10000000000031
 21
447.75
  0
CIRCLE
  8
_0-e_付箋
  6
CONTINUOUS
 62
    4
 10
325.38767372825004
 20
452.32903062687637
 40
4.8827102566353844
  0
TEXT
  8
_0-e_付箋
 62
    4
 10
322.38767372825004
 20
449.32903062687637
 40
6
 41
1
 50
0
  1
２
  0
LINE
  8
_0-e_付箋
  6
CONTINUOUS
 62
    4
 10
317.89999925000069
 20
437.85999800001196
 11
323.62481016994155
 21
447.77566137707458
  0
CIRCLE
  8
_0-e_付箋
  6
CONTINUOUS
 62
    4
 10
445.83767447825556
 20
457.71903262686442
 40
4.8827102566353844
  0
TEXT
  8
_0-e_付箋
 62
    4
 10
442.83767447825556
 20
454.71903262686442
 40
6
 41
1
 50
0
  1
１
  0
LINE
  8
_0-e_付箋
  6
CONTINUOUS
 62
    4
 10
438.35000000000622
 20
443.25
 11
444.07481091994708
 21
453.16566337706263
  0
LINE
  8
_f-0_
  6
CONTINUOUS
 62
    6
 10
119.99999999999994
 20
554
 11
119.99999999999994
 21
534.00000000000011
  0
LINE
  8
_f-0_
  6
CONTINUOUS
 62
    6
 10
119.99999999999994
 20
534.00000000000011
 11
19.999999999999943
 21
534.00000000000011
  0
LINE
  8
_f-0_
  6
CONTINUOUS
 62
    6
 10
119.99999999999994
 20
287.00000000000011
 11
119.99999999999994
 21
267.00000000000023
  0
LINE
  8
_f-0_
  6
CONTINUOUS
 62
    6
 10
119.99999999999994
 20
267.00000000000023
 11
19.999999999999943
 21
267.00000000000023
  0
TEXT
  8
_f-0_
 62
    4
 10
34.711999999999932
 20
536
 40
16
 41
1
 50
0
  1
100TTK-A
  0
TEXT
  8
_f-0_
 62
    4
 10
34.119999999999948
 20
269.00000000000011
 40
16
 41
1
 50
0
  1
100TCK-A
  0
TEXT
  8
_0-f_寸法
 62
    4
 10
669.99999999999989
 20
160.00000000000011
 40
8
 41
0.8662499999999999
 50
0
  1
ＴＴＫサイドプレート(Ｂ)　(t＝2.5)
  0
TEXT
  8
_0-f_寸法
 62
    4
 10
669.99999999999989
 20
150.00000000000011
 40
8
 41
0.8662499999999999
 50
0
  1
ＴＴＫセンタープレート(Ｂ)　(t＝3.0)
  0
TEXT
  8
_0-f_寸法
 62
    4
 10
669.99999999999989
 20
50.000000000000114
 40
8
 41
0.8662499999999999
 50
0
  1
ステスワッシャー1.5×18×5.5穴
  0
TEXT
  8
_0-f_寸法
 62
    4
 10
669.99999999999989
 20
70.000000000000114
 40
8
 41
0.8662499999999999
 50
0
  1
アンカープラグ(Φ8×40)
  0
TEXT
  8
_0-f_寸法
 62
    4
 10
669.99999999999989
 20
60.000000000000114
 40
8
 41
0.8662499999999999
 50
0
  1
ステンタッピンねじ(なべ5×50)
  0
TEXT
  8
_0-f_寸法
 62
    4
 10
669.99999999999989
 20
80.000000000000114
 40
8
 41
0.8662499999999999
 50
0
  1
ステンドリリングねじ(皿5x19))
  0
TEXT
  8
_0-f_寸法
 62
    4
 10
669.99999999999989
 20
100.00000000000011
 40
8
 41
0.8662499999999999
 50
0
  1
ユカホルダーキャップ
  0
TEXT
  8
_0-f_寸法
 62
    4
 10
669.99999999999989
 20
110.00000000000011
 40
8
 41
0.8662499999999999
 50
0
  1
止水補助板FS400
  0
TEXT
  8
_0-f_寸法
 62
    4
 10
669.99999999999989
 20
120.00000000000011
 40
8
 41
0.8662499999999999
 50
0
  1
ＴＣＧ壁フレーム
  0
TEXT
  8
_0-f_寸法
 62
    4
 10
669.99999999999989
 20
130.00000000000011
 40
8
 41
0.8662499999999999
 50
0
  1
ＴＴＫフレーム(Ｂ)
  0
TEXT
  8
_0-f_寸法
 62
    4
 10
658.06999999999994
 20
160.00000000000011
 40
8
 41
0.8662499999999999
 50
0
  1
 1
  0
TEXT
  8
_0-f_寸法
 62
    4
 10
658.06999999999994
 20
150.00000000000011
 40
8
 41
0.8662499999999999
 50
0
  1
 2
  0
TEXT
  8
_0-f_寸法
 62
    4
 10
658.06999999999994
 20
140.00000000000011
 40
8
 41
0.8662499999999999
 50
0
  1
 3
  0
TEXT
  8
_0-f_寸法
 62
    4
 10
658.06999999999994
 20
130.00000000000011
 40
8
 41
0.8662499999999999
 50
0
  1
 4
  0
TEXT
  8
_0-f_寸法
 62
    4
 10
658.06999999999994
 20
120.00000000000011
 40
8
 41
0.8662499999999999
 50
0
  1
 5
  0
TEXT
  8
_0-f_寸法
 62
    4
 10
658.06999999999994
 20
110.00000000000011
 40
8
 41
0.8662499999999999
 50
0
  1
 6
  0
TEXT
  8
_0-f_寸法
 62
    4
 10
658.06999999999994
 20
100.00000000000011
 40
8
 41
0.8662499999999999
 50
0
  1
 7
  0
TEXT
  8
_0-f_寸法
 62
    4
 10
658.06999999999994
 20
90.000000000000114
 40
8
 41
0.8662499999999999
 50
0
  1
 8
  0
TEXT
  8
_0-f_寸法
 62
    4
 10
658.06999999999994
 20
80.000000000000114
 40
8
 41
0.8662499999999999
 50
0
  1
 9
  0
TEXT
  8
_0-f_寸法
 62
    4
 10
658.06999999999994
 20
70.000000000000114
 40
8
 41
0.8662499999999999
 50
0
  1
10
  0
TEXT
  8
_0-f_寸法
 62
    4
 10
658.06999999999994
 20
60.000000000000114
 40
8
 41
0.8662499999999999
 50
0
  1
11
  0
TEXT
  8
_0-f_寸法
 62
    4
 10
658.06999999999994
 20
50.000000000000114
 40
8
 41
0.8662499999999999
 50
0
  1
12
  0
TEXT
  8
_0-f_寸法
 62
    4
 10
658.06999999999994
 20
40.000000000000114
 40
8
 41
0.8662499999999999
 50
0
  1
◎
  0
TEXT
  8
_0-f_寸法
 62
    4
 10
670.61750515492633
 20
399.59128396528399
 40
8
 41
0.8662499999999999
 50
0
  1
ＴＴＫフレーム(Ｂ)
  0
TEXT
  8
_0-f_寸法
 62
    4
 10
669.99999999999989
 20
390.00000000000011
 40
8
 41
0.8662499999999999
 50
0
  1
ＴＴＫフレーム(ＥＫ)
  0
TEXT
  8
_0-f_寸法
 62
    4
 10
669.99999999999989
 20
380.00000000000011
 40
8
 41
0.8662499999999999
 50
0
  1
止水補助板FS400
  0
TEXT
  8
_0-f_寸法
 62
    4
 10
669.99999999999989
 20
370.00000000000011
 40
8
 41
0.8662499999999999
 50
0
  1
ユカホルダーキャップ
  0
TEXT
  8
_0-f_寸法
 62
    4
 10
669.99999999999989
 20
360.00000000000011
 40
8
 41
0.8662499999999999
 50
0
  1
ステンドリリングねじ(皿5x19))
  0
TEXT
  8
_0-f_寸法
 62
    4
 10
669.99999999999989
 20
430.00000000000011
 40
8
 41
0.8662499999999999
 50
0
  1
ＴＴＫサイドプレート(Ｂ)　(t＝2.5)
  0
TEXT
  8
_0-f_寸法
 62
    4
 10
658.06999999999994
 20
430.00000000000011
 40
8
 41
0.8662499999999999
 50
0
  1
 1
  0
TEXT
  8
_0-f_寸法
 62
    4
 10
658.06999999999994
 20
420.00000000000011
 40
8
 41
0.8662499999999999
 50
0
  1
 2
  0
TEXT
  8
_0-f_寸法
 62
    4
 10
658.06999999999994
 20
410.00000000000011
 40
8
 41
0.8662499999999999
 50
0
  1
 3
  0
TEXT
  8
_0-f_寸法
 62
    4
 10
658.06999999999994
 20
400.00000000000011
 40
8
 41
0.8662499999999999
 50
0
  1
 4
  0
TEXT
  8
_0-f_寸法
 62
    4
 10
658.06999999999994
 20
390.00000000000011
 40
8
 41
0.8662499999999999
 50
0
  1
 5
  0
TEXT
  8
_0-f_寸法
 62
    4
 10
658.06999999999994
 20
380.00000000000011
 40
8
 41
0.8662499999999999
 50
0
  1
 6
  0
TEXT
  8
_0-f_寸法
 62
    4
 10
658.06999999999994
 20
370.00000000000011
 40
8
 41
0.8662499999999999
 50
0
  1
 7
  0
TEXT
  8
_0-f_寸法
 62
    4
 10
658.06999999999994
 20
360.00000000000011
 40
8
 41
0.8662499999999999
 50
0
  1
 8
  0
TEXT
  8
_0-f_寸法
 62
    4
 10
669.99999999999989
 20
410.00000000000011
 40
8
 41
0.8662499999999999
 50
0
  1
ＴＴＫサイドプレート(ＢＫ)　(t＝2.5)
  0
TEXT
  8
_0-f_寸法
 62
    4
 10
669.99999999999989
 20
140.00000000000011
 40
8
 41
0.8662499999999999
 50
0
  1
ＴＣＧサイドキャップＡ　(t＝1.5)
  0
TEXT
  8
_0-f_寸法
 62
    4
 10
669.99999999999989
 20
90.000000000000114
 40
8
 41
0.8662499999999999
 50
0
  1
ガスケットＧＮ
  0
TEXT
  8
_0-f_寸法
 62
    4
 10
669.99999999999989
 20
420.00000000000011
 40
8
 41
0.8662499999999999
 50
0
  1
ＴＴＫセンタープレート(Ｂ)　(t＝3.0)
  0
TEXT
  8
_f-0_
 62
    4
 10
806.87199999999984
 20
594
 40
16
 41
1
 50
0
  1
A1版
  0
TEXT
  8
_0-f_寸法
 62
    4
 10
669.99999999999989
 20
40.000000000000114
 40
8
 41
0.8662499999999999
 50
0
  1
ブチルテープ(ｔ1.0×w30) (6m／巻)
  0
TEXT
  8
_0-f_寸法
 62
    4
 10
669.99999999999989
 20
350.00000000000011
 40
8
 41
0.8662499999999999
 50
0
  1
アンカープラグ(Φ8×40)
  0
TEXT
  8
_0-f_寸法
 62
    4
 10
669.99999999999989
 20
340.00000000000011
 40
8
 41
0.8662499999999999
 50
0
  1
ステンタッピンねじ(なべ5×50)
  0
TEXT
  8
_0-f_寸法
 62
    4
 10
669.99999999999989
 20
330.00000000000011
 40
8
 41
0.8662499999999999
 50
0
  1
ステスワッシャー1.5×18×5.5穴
  0
TEXT
  8
_0-f_寸法
 62
    4
 10
669.99999999999989
 20
320.00000000000011
 40
8
 41
0.8662499999999999
 50
0
  1
ブチルテープ(ｔ1.0×w30) (6m／巻)
  0
TEXT
  8
_0-f_寸法
 62
    4
 10
658.06999999999994
 20
350.00000000000011
 40
8
 41
0.8662499999999999
 50
0
  1
 9
  0
TEXT
  8
_0-f_寸法
 62
    4
 10
658.06999999999994
 20
340.00000000000011
 40
8
 41
0.8662499999999999
 50
0
  1
10
  0
TEXT
  8
_0-f_寸法
 62
    4
 10
658.06999999999994
 20
320.00000000000011
 40
8
 41
0.8662499999999999
 50
0
  1
◎
  0
TEXT
  8
_0-f_寸法
 62
    4
 10
658.06999999999994
 20
330.00000000000011
 40
8
 41
0.8662499999999999
 50
0
  1
11
  0
TEXT
  8
_0-f_寸法
 62
    4
 10
658.06999999999994
 20
310.00000000000011
 40
8
 41
0.8662499999999999
 50
0
  1
※
  0
TEXT
  8
_0-f_寸法
 62
    4
 10
669.99999999999989
 20
310.00000000000011
 40
8
 41
0.8662499999999999
 50
0
  1
床仕上材厚さ：3.0㎜
  0
TEXT
  8
_0-f_寸法
 62
    4
 10
658.06999999999994
 20
30.000000000000114
 40
8
 41
0.8662499999999999
 50
0
  1
※
  0
LINE
  8
_f-0_
  6
CONTINUOUS
 62
    3
 10
29.999999999999943
 20
362.00000000000011
 11
29.999999999999943
 21
297.00000000000011
  0
LINE
  8
_f-0_
  6
CONTINUOUS
 62
    3
 10
29.999999999999943
 20
297.00000000000011
 11
104.99999999999994
 21
297.00000000000011
  0
LINE
  8
_f-0_
  6
CONTINUOUS
 62
    3
 10
104.99999999999994
 20
362.00000000000011
 11
29.999999999999943
 21
362.00000000000011
  0
LINE
  8
_f-0_
  6
CONTINUOUS
 62
    3
 10
104.99999999999994
 20
297.00000000000011
 11
104.99999999999994
 21
362.00000000000011
  0
LINE
  8
_f-0_
  6
CONTINUOUS
 62
    3
 10
29.999999999999943
 20
95.000000000000114
 11
29.999999999999943
 21
30.000000000000114
  0
LINE
  8
_f-0_
  6
CONTINUOUS
 62
    3
 10
29.999999999999943
 20
30.000000000000114
 11
104.99999999999994
 21
30.000000000000114
  0
LINE
  8
_f-0_
  6
CONTINUOUS
 62
    3
 10
104.99999999999994
 20
95.000000000000114
 11
29.999999999999943
 21
95.000000000000114
  0
LINE
  8
_f-0_
  6
CONTINUOUS
 62
    3
 10
104.99999999999994
 20
30.000000000000114
 11
104.99999999999994
 21
95.000000000000114
  0
INSERT
  2
-008-_2_
  8
_0-d_可動幅
 10
420.5
 20
297
 41
1
 42
1
 50
0
  0
LINE
  8
_0-d_可動幅
  6
CONTINUOUS
 62
    4
 10
92.28781180287973
 20
328.48409292736011
 11
92.232335999199847
 21
328.45206395728013
  0
LINE
  8
_0-d_可動幅
  6
CONTINUOUS
 62
    4
 10
66.653459850879869
 20
318.48409292736011
 11
94.366272771999718
 21
334.48409292736011
  0
LINE
  8
_0-d_可動幅
  6
CONTINUOUS
 62
    4
 10
66.653459850879869
 20
318.48409292736011
 11
66.653459850879869
 21
313.6840929273601
  0
LINE
  8
_0-d_可動幅
  6
CONTINUOUS
 62
    4
 10
77.045764696319964
 20
319.6840929273601
 11
77.045764696319964
 21
324.48409292736011
  0
LINE
  8
_0-d_可動幅
  6
CONTINUOUS
 62
    4
 10
66.653459850879869
 20
313.6840929273601
 11
77.045764696319964
 21
319.6840929273601
  0
LINE
  8
_0-d_可動幅
  6
CONTINUOUS
 62
    4
 10
94.366272771999718
 20
334.48409292736011
 11
94.366272771999718
 21
329.6840929273601
  0
LINE
  8
_0-d_可動幅
  6
CONTINUOUS
 62
    4
 10
94.366272771999718
 20
329.6840929273601
 11
83.973967926559851
 21
323.6840929273601
  0
LINE
  8
_0-d_可動幅
  6
CONTINUOUS
 62
    4
 10
83.973967926559851
 20
323.6840929273601
 11
83.973967926559851
 21
328.48409292736011
  0
LINE
  8
_0-d_可動幅
  6
CONTINUOUS
 62
    4
 10
83.973967926559851
 20
323.6840929273601
 11
79.817045988319876
 21
326.08409292736013
  0
LINE
  8
_0-d_可動幅
  6
CONTINUOUS
 62
    4
 10
77.045764696319964
 20
319.6840929273601
 11
72.888842758079988
 21
322.08409292736013
  0
LINE
  8
_0-d_可動幅
  6
CONTINUOUS
 62
    4
 10
94.366272771999718
 20
329.6840929273601
 11
90.209350833759743
 21
332.08409292736013
  0
LINE
  8
_0-d_可動幅
  6
CONTINUOUS
 62
    4
 10
77.045764696319964
 20
319.6840929273601
 11
63.18935823567989
 21
311.6840929273601
  0
LINE
  8
_0-d_可動幅
  6
CONTINUOUS
 62
    4
 10
77.045764696319964
 20
319.6840929273601
 11
77.045764696319964
 21
303.6840929273601
  0
LINE
  8
_0-d_可動幅
  6
CONTINUOUS
 62
    4
 10
83.973967926559851
 20
323.6840929273601
 11
83.973967926559851
 21
307.6840929273601
  0
LINE
  8
_0-d_可動幅
  6
CONTINUOUS
 62
    4
 10
83.973967926559851
 20
323.6840929273601
 11
97.830374387039853
 21
331.6840929273601
  0
LINE
  8
_0-d_可動幅
  6
CONTINUOUS
 62
    4
 10
66.653459850879869
 20
318.48409292736011
 11
47.797053390223653
 21
329.37084427329899
  0
LINE
  8
_0-d_可動幅
  6
CONTINUOUS
 62
    4
 10
77.045764696319964
 20
324.48409292736011
 11
58.189358235650332
 21
335.37084427330672
  0
LINE
  8
_0-d_可動幅
  6
CONTINUOUS
 62
    4
 10
94.366272771999718
 20
334.48409292736011
 11
75.509866311334861
 21
345.37084427330416
  0
LINE
  8
_0-d_可動幅
  6
CONTINUOUS
 62
    4
 10
66.653459850879869
 20
313.6840929273601
 11
47.797053390223653
 21
324.57084427329897
  0
LINE
  8
_0-d_可動幅
  6
CONTINUOUS
 62
    4
 10
90.030051645119954
 20
69.484092927360166
 11
86.565950029919975
 21
67.484092927360166
  0
LINE
  8
_0-d_可動幅
  6
CONTINUOUS
 62
    4
 10
86.565950029919975
 20
59.484092927360166
 11
72.709543569439973
 21
51.484092927376082
  0
LINE
  8
_0-d_可動幅
  6
CONTINUOUS
 62
    4
 10
72.709543569439973
 20
51.484092927376082
 11
72.709543569439973
 21
46.684092927376128
  0
LINE
  8
_0-d_可動幅
  6
CONTINUOUS
 62
    4
 10
72.709543569439973
 20
51.484092927376082
 11
58.853137108800126
 21
59.484092927360166
  0
LINE
  8
_0-d_可動幅
  6
CONTINUOUS
 62
    4
 10
72.709543569439973
 20
46.684092927376128
 11
58.853137108800126
 21
54.684092927376128
  0
LINE
  8
_0-d_可動幅
  6
CONTINUOUS
 62
    4
 10
83.101848414880067
 20
57.484092927360166
 11
69.245441954239993
 21
65.484092927360166
  0
LINE
  8
_0-d_可動幅
  6
CONTINUOUS
 62
    4
 10
86.565950029919975
 20
67.484092927360166
 11
72.709543569439973
 21
75.484092927360166
  0
LINE
  8
_0-d_可動幅
  6
CONTINUOUS
 62
    4
 10
83.101848414880067
 20
57.484092927360166
 11
83.101848414880067
 21
52.684092927376128
  0
LINE
  8
_0-d_可動幅
  6
CONTINUOUS
 62
    4
 10
86.565950029919975
 20
59.484092927360166
 11
86.565950029919975
 21
55.96409292736007
  0
LINE
  8
_0-d_可動幅
  6
CONTINUOUS
 62
    4
 10
86.565950029919975
 20
55.96409292736007
 11
90.030051645119954
 21
57.96409292736007
  0
LINE
  8
_0-d_可動幅
  6
CONTINUOUS
 62
    4
 10
86.565950029919975
 20
55.96409292736007
 11
83.51754060863999
 21
57.724092927360061
  0
LINE
  8
_0-d_可動幅
  6
CONTINUOUS
 62
    4
 10
72.709543569439973
 20
46.684092927376128
 11
83.101848414880067
 21
52.684092927376128
  0
LINE
  8
_0-d_可動幅
  6
CONTINUOUS
 62
    4
 10
83.101848414880067
 20
52.684092927376128
 11
78.944926476639864
 21
55.084092927376105
  0
LINE
  8
_0-d_可動幅
  6
CONTINUOUS
 62
    4
 10
90.030051645119954
 20
57.96409292736007
 11
86.565950029919975
 21
59.96409292736007
  0
LINE
  8
_0-d_可動幅
  6
CONTINUOUS
 62
    4
 10
90.030051645119954
 20
69.484092927360166
 11
77.210447312640042
 21
76.885494939680143
  0
LINE
  8
_0-d_可動幅
  6
CONTINUOUS
 62
    4
 10
83.101848414880067
 20
52.684092927376128
 11
69.245441954239993
 21
44.684092927376128
  0
LINE
  8
_0-d_可動幅
  6
CONTINUOUS
 62
    4
 10
83.101848414880067
 20
52.684092927376128
 11
83.101848414880067
 21
36.684092927376128
  0
LINE
  8
_0-d_可動幅
  6
CONTINUOUS
 62
    4
 10
73.04684344271999
 20
70.961547747840086
 11
72.198315305280119
 21
70.471702880640009
  0
LINE
  8
_0-d_可動幅
  6
CONTINUOUS
 62
    4
 10
74.496230095359977
 20
67.838891930080194
 11
73.04684344271999
 21
70.961547747840086
  0
LINE
  8
_0-d_可動幅
  6
CONTINUOUS
 62
    4
 10
69.087045467999985
 20
68.675605034720093
 11
74.496230095359977
 21
67.838891930080194
  0
LINE
  8
_0-d_可動幅
  6
CONTINUOUS
 62
    4
 10
69.935573605439856
 20
69.165449901760098
 11
69.087045467999985
 21
68.675605034720093
  0
LINE
  8
_0-d_可動幅
  6
CONTINUOUS
 62
    4
 10
62.581663081119984
 20
73.410772083200072
 11
69.935573605439856
 21
69.165449901760098
  0
LINE
  8
_0-d_可動幅
  6
CONTINUOUS
 62
    4
 10
55.227752556800112
 20
69.165449901760098
 11
62.581663081119984
 21
73.410772083200072
  0
LINE
  8
_0-d_可動幅
  6
CONTINUOUS
 62
    4
 10
56.076280694239983
 20
68.675605034720093
 11
55.227752556800112
 21
69.165449901760098
  0
LINE
  8
_0-d_可動幅
  6
CONTINUOUS
 62
    4
 10
50.667096067040063
 20
67.838891930080194
 11
56.076280694239983
 21
68.675605034720093
  0
LINE
  8
_0-d_可動幅
  6
CONTINUOUS
 62
    4
 10
52.116482719519979
 20
70.961547747840086
 11
50.667096067040063
 21
67.838891930080194
  0
LINE
  8
_0-d_可動幅
  6
CONTINUOUS
 62
    4
 10
52.965010856960077
 20
70.471702880640009
 11
52.116482719519979
 21
70.961547747840086
  0
LINE
  8
_0-d_可動幅
  6
CONTINUOUS
 62
    4
 10
60.318921381279949
 20
74.717025062240054
 11
52.965010856960077
 21
70.471702880640009
  0
LINE
  8
_0-d_可動幅
  6
CONTINUOUS
 62
    4
 10
52.965010856960077
 20
78.962347243680142
 11
60.318921381279949
 21
74.717025062240054
  0
LINE
  8
_0-d_可動幅
  6
CONTINUOUS
 62
    4
 10
52.116482719519979
 20
78.472502376640136
 11
52.965010856960077
 21
78.962347243680142
  0
LINE
  8
_0-d_可動幅
  6
CONTINUOUS
 62
    4
 10
50.667096067040063
 20
81.595158194240071
 11
52.116482719519979
 21
78.472502376640136
  0
LINE
  8
_0-d_可動幅
  6
CONTINUOUS
 62
    4
 10
56.076280694239983
 20
80.758445089760016
 11
50.667096067040063
 21
81.595158194240071
  0
LINE
  8
_0-d_可動幅
  6
CONTINUOUS
 62
    4
 10
55.227752556800112
 20
80.268600222560167
 11
56.076280694239983
 21
80.758445089760016
  0
LINE
  8
_0-d_可動幅
  6
CONTINUOUS
 62
    4
 10
62.581663081119984
 20
76.023278041120079
 11
55.227752556800112
 21
80.268600222560167
  0
LINE
  8
_0-d_可動幅
  6
CONTINUOUS
 62
    4
 10
69.935573605439856
 20
80.268600222560167
 11
62.581663081119984
 21
76.023278041120079
  0
LINE
  8
_0-d_可動幅
  6
CONTINUOUS
 62
    4
 10
69.087045467999985
 20
80.758445089760016
 11
69.935573605439856
 21
80.268600222560167
  0
LINE
  8
_0-d_可動幅
  6
CONTINUOUS
 62
    4
 10
74.496230095359977
 20
81.595158194240071
 11
69.087045467999985
 21
80.758445089760016
  0
LINE
  8
_0-d_可動幅
  6
CONTINUOUS
 62
    4
 10
73.04684344271999
 20
78.472502376640136
 11
74.496230095359977
 21
81.595158194240071
  0
LINE
  8
_0-d_可動幅
  6
CONTINUOUS
 62
    4
 10
72.198315305280119
 20
78.962347243680142
 11
73.04684344271999
 21
78.472502376640136
  0
LINE
  8
_0-d_可動幅
  6
CONTINUOUS
 62
    4
 10
64.844404780960019
 20
74.717025062240054
 11
72.198315305280119
 21
78.962347243680142
  0
LINE
  8
_0-d_可動幅
  6
CONTINUOUS
 62
    4
 10
72.198315305280119
 20
70.471702880640009
 11
64.844404780960019
 21
74.717025062240054
  0
LINE
  8
_0-d_可動幅
  6
CONTINUOUS
 62
    4
 10
50.667096067040063
 20
67.838891930080194
 11
50.667096067040063
 21
66.859042955840096
  0
LINE
  8
_0-d_可動幅
  6
CONTINUOUS
 62
    4
 10
56.076280694239983
 20
68.675605034720093
 11
56.076280694239983
 21
67.695756060480107
  0
LINE
  8
_0-d_可動幅
  6
CONTINUOUS
 62
    4
 10
50.667096067040063
 20
66.859042955840096
 11
56.076280694239983
 21
67.695756060480107
  0
LINE
  8
_0-d_可動幅
  6
CONTINUOUS
 62
    4
 10
69.087045467999985
 20
68.675605034720093
 11
69.087045467999985
 21
67.695756060480107
  0
LINE
  8
_0-d_可動幅
  6
CONTINUOUS
 62
    4
 10
74.496230095359977
 20
67.838891930080194
 11
74.496230095359977
 21
66.859042955840096
  0
LINE
  8
_0-d_可動幅
  6
CONTINUOUS
 62
    4
 10
69.087045467999985
 20
67.695756060480107
 11
74.496230095359977
 21
66.859042955840096
  0
LINE
  8
_0-d_可動幅
  6
CONTINUOUS
 62
    4
 10
62.581663081119984
 20
73.410772083200072
 11
62.581663081119984
 21
72.430923108960087
  0
LINE
  8
_0-d_可動幅
  6
CONTINUOUS
 62
    4
 10
56.076280694239983
 20
68.675445794560005
 11
62.581663081119984
 21
72.430923108960087
  0
LINE
  8
_0-d_可動幅
  6
CONTINUOUS
 62
    4
 10
62.581663081119984
 20
72.430923108960087
 11
69.087045467999985
 21
68.675445794560005
  0
LINE
  8
_0-d_可動幅
  6
CONTINUOUS
 62
    4
 10
52.965010856960077
 20
78.962347243680142
 11
52.965010856960077
 21
77.982498269440043
  0
LINE
  8
_0-d_可動幅
  6
CONTINUOUS
 62
    4
 10
52.965010856960077
 20
77.982498269440043
 11
59.470255323039908
 21
74.227100575040026
  0
LINE
  8
_0-d_可動幅
  6
CONTINUOUS
 62
    4
 10
72.198315305280119
 20
78.962347243680142
 11
72.198315305280119
 21
77.982498269440043
  0
LINE
  8
_0-d_可動幅
  6
CONTINUOUS
 62
    4
 10
65.693070839200061
 20
74.227100575040026
 11
72.198315305280119
 21
77.982498269440043
  0
LINE
  8
_0-d_可動幅
  6
CONTINUOUS
 62
    4
 10
73.04684344271999
 20
78.472502376640136
 11
73.04684344271999
 21
77.49265340224008
  0
LINE
  8
_0-d_可動幅
  6
CONTINUOUS
 62
    4
 10
72.198315305280119
 20
77.982498269440043
 11
73.04684344271999
 21
77.49265340224008
  0
LINE
  8
_0-d_可動幅
  6
CONTINUOUS
 62
    4
 10
74.496230095359977
 20
81.595158194240071
 11
74.496230095359977
 21
80.615309220000086
  0
LINE
  8
_0-d_可動幅
  6
CONTINUOUS
 62
    4
 10
73.04684344271999
 20
77.49265340224008
 11
74.496230095359977
 21
80.615309220000086
  0
LINE
  8
_0-d_可動幅
  6
CONTINUOUS
 62
    4
 10
52.116482719519979
 20
78.472502376640136
 11
52.116482719519979
 21
77.49265340224008
  0
LINE
  8
_0-d_可動幅
  6
CONTINUOUS
 62
    4
 10
52.116482719519979
 20
77.49265340224008
 11
52.965010856960077
 21
77.982498269440043
  0
LINE
  8
_0-d_可動幅
  6
CONTINUOUS
 62
    4
 10
50.667096067040063
 20
81.595158194240071
 11
50.667096067040063
 21
80.615309220000086
  0
LINE
  8
_0-d_可動幅
  6
CONTINUOUS
 62
    4
 10
50.667096067040063
 20
80.615309220000086
 11
52.116482719519979
 21
77.49265340224008
  0
LINE
  8
_0-d_可動幅
  6
CONTINUOUS
 62
    4
 10
69.087045467999985
 20
80.758445089760016
 11
69.087045467999985
 21
79.778755355520047
  0
LINE
  8
_0-d_可動幅
  6
CONTINUOUS
 62
    4
 10
56.076280694239983
 20
80.758445089760016
 11
56.076280694239983
 21
79.778755355520047
  0
LINE
  8
_0-d_可動幅
  6
CONTINUOUS
 62
    4
 10
67.008255806772638
 20
338.27925138662465
 11
65.11756146587885
 21
339.37084427327954
  0
LINE
  8
_0-d_可動幅
  6
CONTINUOUS
 62
    4
 10
73.740895407264304
 20
334.39216010097897
 11
69.44798827285166
 21
336.87067119060322
  0
TEXT
  8
_0-d_可動幅
 62
    4
 10
69.496230095359749
 20
348.59515819424013
 40
6
 41
1
 50
0
  1
+50
  0
TEXT
  8
_0-d_可動幅
 62
    4
 10
69.496230095359749
 20
328.83889193008008
 40
6
 41
1
 50
0
  1
+50
  0
TEXT
  8
_0-d_可動幅
 62
    4
 10
36.667096067039836
 20
328.83889193008008
 40
6
 41
1
 50
0
  1
-50
  0
TEXT
  8
_0-d_可動幅
 62
    4
 10
36.667096067039836
 20
348.59515819424013
 40
6
 41
1
 50
0
  1
-50
  0
LINE
  8
_0-d_可動幅
  6
CONTINUOUS
 62
    4
 10
83.973967926549847
 20
328.48409292735437
 11
81.235099010954798
 21
330.06537963307642
  0
TEXT
  8
_0-d_可動幅
 62
    4
 10
74.496230095359977
 20
81.595158194240071
 40
6
 41
1
 50
0
  1
+50
  0
TEXT
  8
_0-d_可動幅
 62
    4
 10
41.667096067040063
 20
81.595158194240071
 40
6
 41
1
 50
0
  1
-50
  0
TEXT
  8
_0-d_可動幅
 62
    4
 10
41.667096067040063
 20
61.838891930080194
 40
6
 41
1
 50
0
  1
-50
  0
TEXT
  8
_0-d_可動幅
 62
    4
 10
74.496230095359977
 20
61.838891930080194
 40
6
 41
1
 50
0
  1
+50
  0
LINE
  8
_0-d_可動幅
  6
CONTINUOUS
 62
    4
 10
86.565950029919975
 20
67.484092927360166
 11
86.565950029919975
 21
59.484092927360166
  0
LINE
  8
_0-d_可動幅
  6
CONTINUOUS
 62
    4
 10
90.030051645119954
 20
81.418420996800137
 11
90.030051645119954
 21
40.684092927376128
  0
LINE
  8
_0-d_可動幅
  6
CONTINUOUS
 62
    4
 10
86.565950029919975
 20
59.484092927360166
 11
82.487318515660661
 21
61.838891930080194
  0
TEXT
  8
_0-f_寸法
 62
    4
 10
669.99999999999989
 20
30.000000000000114
 40
8
 41
0.8662499999999999
 50
0
  1
床仕上材厚さ：3.0㎜
  0
TEXT
  8
_0-e_付箋
 62
    4
 10
248.83767447824917
 20
454.71903262686465
 40
6
 41
1
 50
0
  1
３
  0
TEXT
  8
_1-f_
 62
    4
 10
704.60000000000014
 20
462.19028008718817
 40
6
 41
1
 50
0
  1
床下地仕上げ寸法
  0
TEXT
  8
_1-f_
 62
    4
 10
704.60000000000014
 20
191.41927353994146
 40
6
 41
1
 50
0
  1
床下地仕上げ寸法
  0
LINE
  8
_0-a_
  6
CONTINUOUS
 62
    3
 10
259.60000000000076
 20
415.5000000000116
 11
209.60000000000073
 21
415.5000000000116
  0
LINE
  8
_0-a_
  6
CONTINUOUS
 62
    3
 10
201.59999999999869
 20
416.5
 11
201.59999999999869
 21
415.5000000000116
  0
LINE
  8
_0-a_
  6
CONTINUOUS
 62
    3
 10
259.60000000000076
 20
415.5000000000116
 11
201.59999999999869
 21
415.5000000000116
  0
CIRCLE
  8
_0-e_付箋
  6
CONTINUOUS
 62
    4
 10
413.27309539819004
 20
355.33684899607272
 40
4.8827102566353844
  0
TEXT
  8
_0-e_付箋
 62
    4
 10
410.27309539819004
 20
352.33684899607272
 40
6
 41
1
 50
0
  1
９
  0
LINE
  8
_0-e_付箋
  6
CONTINUOUS
 62
    4
 10
400.06060999999983
 20
379.72154499999971
 11
411.51023183988178
 21
359.89021824587451
  0
INSERT
  2
-009-_3_
  8
_0-9_小物
 10
420.5
 20
297
 41
1
 42
1
 50
0
  0
LINE
  8
_0-9_小物
  6
CONTINUOUS
 62
    3
 10
392.0999999999994
 20
373.99999331352296
 11
394.5999999999994
 21
371.5
  0
LINE
  8
_0-9_小物
  6
CONTINUOUS
 62
    3
 10
394.5999999999994
 20
371.5
 11
397.0999999999994
 21
373.71811811553022
  0
LINE
  8
_0-9_小物
  6
CONTINUOUS
 62
    3
 10
392.0999999999994
 20
373.99999331352296
 11
392.0999999999994
 21
376.56226865073432
  0
LINE
  8
_0-9_小物
  6
CONTINUOUS
 62
    3
 10
397.0999999999994
 20
373.71811811553022
 11
397.0999999999994
 21
376.56226865073427
  0
LINE
  8
_0-9_小物
  6
CONTINUOUS
 62
    3
 10
222.09999999999937
 20
372.99999331353456
 11
224.59999999999937
 21
370.5000000000116
  0
LINE
  8
_0-9_小物
  6
CONTINUOUS
 62
    3
 10
224.59999999999937
 20
370.5000000000116
 11
227.09999999999937
 21
372.71811811554181
  0
LINE
  8
_0-9_小物
  6
CONTINUOUS
 62
    3
 10
222.09999999999937
 20
372.99999331353456
 11
222.09999999999937
 21
376.5622686507462
  0
LINE
  8
_0-9_小物
  6
CONTINUOUS
 62
    3
 10
227.09999999999937
 20
372.71811811554181
 11
227.09999999999937
 21
376.56226865074626
  0
INSERT
  2
-010-_4_
  8
_0-9_小物
 10
420.5
 20
297
 41
1
 42
1
 50
0
  0
LINE
  8
_0-9_小物
  6
CONTINUOUS
 62
    3
 10
455.00827499999968
 20
380.72017499999987
 11
455.11294499999804
 21
378.722915
  0
LINE
  8
_0-9_小物
  6
CONTINUOUS
 62
    3
 10
454.85126499999842
 20
383.71606499999984
 11
452.90634499999896
 21
382.6127649999998
  0
LINE
  8
_0-9_小物
  6
CONTINUOUS
 62
    3
 10
452.90634499999896
 20
382.6127649999998
 11
453.01101499999936
 21
380.61550499999993
  0
LINE
  8
_0-9_小物
  6
CONTINUOUS
 62
    3
 10
453.01101499999936
 20
380.61550499999993
 11
455.00827499999968
 21
380.72017499999987
  0
LINE
  8
_0-9_小物
  6
CONTINUOUS
 62
    3
 10
454.74659499999871
 20
385.71332500000017
 11
454.85126499999842
 21
383.71606499999984
  0
LINE
  8
_0-9_小物
  6
CONTINUOUS
 62
    3
 10
454.58958499999881
 20
388.70921000000021
 11
452.64466499999799
 21
387.60590999999931
  0
LINE
  8
_0-9_小物
  6
CONTINUOUS
 62
    3
 10
452.64466499999799
 20
387.60590999999931
 11
452.74933499999906
 21
385.60865000000013
  0
LINE
  8
_0-9_小物
  6
CONTINUOUS
 62
    3
 10
452.74933499999906
 20
385.60865000000013
 11
454.74659499999871
 21
385.71332500000017
  0
LINE
  8
_0-9_小物
  6
CONTINUOUS
 62
    3
 10
454.48491499999841
 20
390.70647000000031
 11
454.58958499999881
 21
388.70921000000021
  0
LINE
  8
_0-9_小物
  6
CONTINUOUS
 62
    3
 10
454.32790499999919
 20
393.70235999999932
 11
452.38298499999974
 21
392.59906000000024
  0
LINE
  8
_0-9_小物
  6
CONTINUOUS
 62
    3
 10
452.38298499999974
 20
392.59906000000024
 11
452.48765499999809
 21
390.60180000000014
  0
LINE
  8
_0-9_小物
  6
CONTINUOUS
 62
    3
 10
452.48765499999809
 20
390.60180000000014
 11
454.48491499999841
 21
390.70647000000031
  0
LINE
  8
_0-9_小物
  6
CONTINUOUS
 62
    3
 10
454.22323499999879
 20
395.6996200000001
 11
454.32790499999919
 21
393.70235999999932
  0
LINE
  8
_0-9_小物
  6
CONTINUOUS
 62
    3
 10
454.06622499999889
 20
398.69551000000024
 11
452.12130499999876
 21
397.59220499999992
  0
LINE
  8
_0-9_小物
  6
CONTINUOUS
 62
    3
 10
452.12130499999876
 20
397.59220499999992
 11
452.22597499999847
 21
395.59494500000005
  0
LINE
  8
_0-9_小物
  6
CONTINUOUS
 62
    3
 10
452.22597499999847
 20
395.59494500000005
 11
454.22323499999879
 21
395.6996200000001
  0
LINE
  8
_0-9_小物
  6
CONTINUOUS
 62
    3
 10
453.96155499999918
 20
400.69276499999978
 11
454.06622499999889
 21
398.69551000000024
  0
LINE
  8
_0-9_小物
  6
CONTINUOUS
 62
    3
 10
451.85962499999846
 20
402.58535499999971
 11
451.96429499999886
 21
400.58809499999984
  0
LINE
  8
_0-9_小物
  6
CONTINUOUS
 62
    3
 10
451.96429499999886
 20
400.58809499999984
 11
453.96155499999918
 21
400.69276499999978
  0
LINE
  8
_0-9_小物
  6
CONTINUOUS
 62
    3
 10
453.599999999999
 20
403.50000000000023
 11
451.85962499999846
 21
402.58535499999971
  0
LINE
  8
_0-9_小物
  6
CONTINUOUS
 62
    3
 10
444.19172499999877
 20
380.72017499999987
 11
444.08705499999905
 21
378.722915
  0
LINE
  8
_0-9_小物
  6
CONTINUOUS
 62
    3
 10
444.34873499999867
 20
383.71606499999984
 11
446.29365499999881
 21
382.6127649999998
  0
LINE
  8
_0-9_小物
  6
CONTINUOUS
 62
    3
 10
446.29365499999881
 20
382.6127649999998
 11
446.18898499999841
 21
380.61550499999993
  0
LINE
  8
_0-9_小物
  6
CONTINUOUS
 62
    3
 10
446.18898499999841
 20
380.61550499999993
 11
444.19172499999877
 21
380.72017499999987
  0
LINE
  8
_0-9_小物
  6
CONTINUOUS
 62
    3
 10
444.45340499999975
 20
385.71332500000017
 11
444.34873499999867
 21
383.71606499999984
  0
LINE
  8
_0-9_小物
  6
CONTINUOUS
 62
    3
 10
444.61041499999828
 20
388.70921000000021
 11
446.55533499999842
 21
387.60590999999931
  0
LINE
  8
_0-9_小物
  6
CONTINUOUS
 62
    3
 10
446.55533499999842
 20
387.60590999999931
 11
446.45066499999939
 21
385.60865000000013
  0
LINE
  8
_0-9_小物
  6
CONTINUOUS
 62
    3
 10
446.45066499999939
 20
385.60865000000013
 11
444.45340499999975
 21
385.71332500000017
  0
LINE
  8
_0-9_小物
  6
CONTINUOUS
 62
    3
 10
444.715084999998
 20
390.70647000000031
 11
444.61041499999828
 21
388.70921000000021
  0
LINE
  8
_0-9_小物
  6
CONTINUOUS
 62
    3
 10
444.8720949999979
 20
393.70235999999932
 11
446.81701499999872
 21
392.59906000000024
  0
LINE
  8
_0-9_小物
  6
CONTINUOUS
 62
    3
 10
446.81701499999872
 20
392.59906000000024
 11
446.712344999999
 21
390.60180000000014
  0
LINE
  8
_0-9_小物
  6
CONTINUOUS
 62
    3
 10
446.712344999999
 20
390.60180000000014
 11
444.715084999998
 21
390.70647000000031
  0
LINE
  8
_0-9_小物
  6
CONTINUOUS
 62
    3
 10
444.97676499999898
 20
395.6996200000001
 11
444.8720949999979
 21
393.70235999999932
  0
LINE
  8
_0-9_小物
  6
CONTINUOUS
 62
    3
 10
445.13377499999956
 20
398.69551000000024
 11
447.0786949999997
 21
397.59220499999992
  0
LINE
  8
_0-9_小物
  6
CONTINUOUS
 62
    3
 10
447.0786949999997
 20
397.59220499999992
 11
446.97402499999862
 21
395.59494500000005
  0
LINE
  8
_0-9_小物
  6
CONTINUOUS
 62
    3
 10
446.97402499999862
 20
395.59494500000005
 11
444.97676499999898
 21
395.6996200000001
  0
LINE
  8
_0-9_小物
  6
CONTINUOUS
 62
    3
 10
445.23844499999859
 20
400.69276499999978
 11
445.13377499999956
 21
398.69551000000024
  0
LINE
  8
_0-9_小物
  6
CONTINUOUS
 62
    3
 10
447.34037499999931
 20
402.58535499999971
 11
447.23570499999823
 21
400.58809499999984
  0
LINE
  8
_0-9_小物
  6
CONTINUOUS
 62
    3
 10
447.23570499999823
 20
400.58809499999984
 11
445.23844499999859
 21
400.69276499999978
  0
LINE
  8
_0-9_小物
  6
CONTINUOUS
 62
    3
 10
445.59999999999945
 20
403.50000000000023
 11
447.34037499999931
 21
402.58535499999971
  0
LINE
  8
_0-9_小物
  6
CONTINUOUS
 62
    3
 10
454.22323499999879
 20
395.6996200000001
 11
455.91859999999838
 21
400.35759999999959
  0
LINE
  8
_0-9_小物
  6
CONTINUOUS
 62
    3
 10
453.1590549999994
 20
395.6996200000001
 11
454.97890999999913
 21
400.69961999999987
  0
LINE
  8
_0-9_小物
  6
CONTINUOUS
 62
    3
 10
444.97676499999898
 20
395.6996200000001
 11
443.28139999999939
 21
400.35759999999959
  0
LINE
  8
_0-9_小物
  6
CONTINUOUS
 62
    3
 10
446.04094499999837
 20
395.6996200000001
 11
444.22108999999864
 21
400.69961999999987
  0
LINE
  8
_0-9_小物
  6
CONTINUOUS
 62
    3
 10
451.61774499999865
 20
378.53973999999965
 11
455.11294499999804
 21
378.722915
  0
LINE
  8
_0-9_小物
  6
CONTINUOUS
 62
    3
 10
455.11294499999804
 20
378.722915
 11
453.22035999999844
 21
376.62098500000019
  0
LINE
  8
_0-9_小物
  6
CONTINUOUS
 62
    3
 10
453.22035999999844
 20
376.62098500000019
 11
451.72241499999973
 21
376.54247999999956
  0
LINE
  8
_0-9_小物
  6
CONTINUOUS
 62
    3
 10
451.72241499999973
 20
376.54247999999956
 11
450.09999999999945
 21
407.49999999999955
  0
LINE
  8
_0-9_小物
  6
CONTINUOUS
 62
    3
 10
453.599999999999
 20
403.50000000000023
 11
453.599999999999
 21
407.49999999999955
  0
LINE
  8
_0-9_小物
  6
CONTINUOUS
 62
    3
 10
447.58225499999844
 20
378.53973999999965
 11
444.08705499999905
 21
378.722915
  0
LINE
  8
_0-9_小物
  6
CONTINUOUS
 62
    3
 10
444.08705499999905
 20
378.722915
 11
445.97963999999865
 21
376.62098500000019
  0
LINE
  8
_0-9_小物
  6
CONTINUOUS
 62
    3
 10
445.97963999999865
 20
376.62098500000019
 11
447.47758499999873
 21
376.54247999999956
  0
LINE
  8
_0-9_小物
  6
CONTINUOUS
 62
    3
 10
447.47758499999873
 20
376.54247999999956
 11
449.099999999999
 21
407.49999999999955
  0
LINE
  8
_0-9_小物
  6
CONTINUOUS
 62
    3
 10
445.59999999999945
 20
403.50000000000023
 11
445.59999999999945
 21
407.49999999999955
  0
LINE
  8
_0-9_小物
  6
CONTINUOUS
 62
    3
 10
443.28139999999939
 20
400.35759999999959
 11
442.28904499999908
 21
407.16122000000064
  0
ARC
  8
_0-9_小物
  6
CONTINUOUS
 62
    3
 10
442.68485499999906
 20
407.21895500000005
 40
0.4
 50
98.130101999958413
 51
188.29846600001969
  0
LINE
  8
_0-9_小物
  6
CONTINUOUS
 62
    3
 10
442.62828499999796
 20
407.61493500000006
 11
442.82510999999931
 21
407.64305000000036
  0
ARC
  8
_0-9_小物
  6
CONTINUOUS
 62
    3
 10
442.88167999999973
 20
407.24707000000012
 40
0.4
 50
8.1301020000240456
 51
98.13010200025434
  0
LINE
  8
_0-9_小物
  6
CONTINUOUS
 62
    3
 10
443.27765999999929
 20
407.30363999999986
 11
444.22108999999864
 21
400.69961999999987
  0
LINE
  8
_0-9_小物
  6
CONTINUOUS
 62
    3
 10
455.91859999999838
 20
400.35759999999959
 11
456.91095499999869
 21
407.16122000000064
  0
ARC
  8
_0-9_小物
  6
CONTINUOUS
 62
    3
 10
456.51514499999871
 20
407.21895500000005
 40
0.4
 50
351.70153399996417
 51
81.869898000041573
  0
LINE
  8
_0-9_小物
  6
CONTINUOUS
 62
    3
 10
456.5717099999988
 20
407.61493500000006
 11
456.37488999999846
 21
407.64305000000036
  0
ARC
  8
_0-9_小物
  6
CONTINUOUS
 62
    3
 10
456.3183199999994
 20
407.24707000000012
 40
0.4
 50
81.869898000041587
 51
171.86989800000936
  0
LINE
  8
_0-9_小物
  6
CONTINUOUS
 62
    3
 10
455.92233999999848
 20
407.30363999999986
 11
454.97890999999913
 21
400.69961999999987
  0
LINE
  8
_0-9_小物
  6
CONTINUOUS
 62
    3
 10
455.91859999999838
 20
400.35759999999959
 11
456.91095499999869
 21
407.16122000000064
  0
ARC
  8
_0-9_小物
  6
CONTINUOUS
 62
    3
 10
456.51514499999871
 20
407.21895500000005
 40
0.4
 50
351.70153399996417
 51
81.869898000041573
  0
LINE
  8
_0-9_小物
  6
CONTINUOUS
 62
    3
 10
456.5717099999988
 20
407.61493500000006
 11
456.37488999999846
 21
407.64305000000036
  0
ARC
  8
_0-9_小物
  6
CONTINUOUS
 62
    3
 10
456.3183199999994
 20
407.24707000000012
 40
0.4
 50
81.869898000041587
 51
171.86989800000936
  0
LINE
  8
_0-9_小物
  6
CONTINUOUS
 62
    3
 10
455.92233999999848
 20
407.30363999999986
 11
454.97890999999913
 21
400.69961999999987
  0
LINE
  8
_0-9_小物
  6
CONTINUOUS
 62
    3
 10
454.59999999999945
 20
415.50000000000023
 11
453.599999999999
 21
410.50000000000023
  0
LINE
  8
_0-9_小物
  6
CONTINUOUS
 62
    3
 10
453.599999999999
 20
415.50000000000023
 11
453.599999999999
 21
407.49999999999955
  0
LINE
  8
_0-9_小物
  6
CONTINUOUS
 62
    3
 10
450.09999999999945
 20
407.49999999999955
 11
449.59999999999991
 21
407.49999999999955
  0
LINE
  8
_0-9_小物
  6
CONTINUOUS
 62
    3
 10
449.59999999999991
 20
410.50000000000023
 11
449.59999999999991
 21
415.50000000000023
  0
LINE
  8
_0-9_小物
  6
CONTINUOUS
 62
    3
 10
450.599999999999
 20
415.50000000000023
 11
449.59999999999991
 21
410.50000000000023
  0
LINE
  8
_0-9_小物
  6
CONTINUOUS
 62
    3
 10
448.59999999999877
 20
415.50000000000023
 11
449.59999999999991
 21
410.50000000000023
  0
LINE
  8
_0-9_小物
  6
CONTINUOUS
 62
    3
 10
444.59999999999968
 20
415.50000000000023
 11
445.59999999999945
 21
410.50000000000023
  0
LINE
  8
_0-9_小物
  6
CONTINUOUS
 62
    3
 10
445.59999999999945
 20
415.50000000000023
 11
445.59999999999945
 21
407.49999999999955
  0
LINE
  8
_0-9_小物
  6
CONTINUOUS
 62
    3
 10
449.099999999999
 20
407.49999999999955
 11
449.59999999999991
 21
407.49999999999955
  0
LINE
  8
_0-9_小物
  6
CONTINUOUS
 62
    3
 10
454.59999999999945
 20
415.50000000000023
 11
444.59999999999968
 21
415.50000000000023
  0
LINE
  8
_0-9_小物
  6
CONTINUOUS
 62
    3
 10
447.09999999999809
 20
372.99999331352313
 11
449.59999999999809
 21
370.50000000000017
  0
LINE
  8
_0-9_小物
  6
CONTINUOUS
 62
    3
 10
449.59999999999809
 20
370.50000000000017
 11
452.09999999999809
 21
372.71811811553039
  0
LINE
  8
_0-9_小物
  6
CONTINUOUS
 62
    3
 10
447.09999999999809
 20
372.99999331352313
 11
447.09999999999809
 21
376.56226865073478
  0
LINE
  8
_0-9_小物
  6
CONTINUOUS
 62
    3
 10
452.09999999999809
 20
372.71811811553039
 11
452.09999999999809
 21
376.56226865073484
  0
INSERT
  2
-011-_5_
  8
_0-9_小物
 10
420.5
 20
297
 41
1
 42
1
 50
0
  0
LINE
  8
_0-9_小物
  6
CONTINUOUS
 62
    3
 10
216.39999080160459
 20
182.99999999968782
 11
213.8999974880814
 21
180.49999999968782
  0
LINE
  8
_0-9_小物
  6
CONTINUOUS
 62
    3
 10
213.8999974880814
 20
180.49999999968782
 11
216.11811560361156
 21
177.99999999968782
  0
LINE
  8
_0-9_小物
  6
CONTINUOUS
 62
    3
 10
216.39999080160459
 20
182.99999999968782
 11
220.66226865073025
 21
182.99999999968782
  0
LINE
  8
_0-9_小物
  6
CONTINUOUS
 62
    3
 10
216.11811560361156
 20
177.99999999968782
 11
220.66226865073003
 21
177.99999999968782
  0
INSERT
  2
-012-_6_
  8
_0-9_小物
 10
420.5
 20
297
 41
1
 42
1
 50
0
  0
LINE
  8
_0-9_小物
  6
CONTINUOUS
 62
    3
 10
392.09999999999826
 20
106.99999331351171
 11
394.59999999999826
 21
104.49999999998875
  0
LINE
  8
_0-9_小物
  6
CONTINUOUS
 62
    3
 10
394.59999999999826
 20
104.49999999998875
 11
397.09999999999826
 21
106.71811811551891
  0
LINE
  8
_0-9_小物
  6
CONTINUOUS
 62
    3
 10
392.09999999999826
 20
106.99999331351171
 11
392.09999999999826
 21
109.56226865072321
  0
LINE
  8
_0-9_小物
  6
CONTINUOUS
 62
    3
 10
397.09999999999826
 20
106.71811811551891
 11
397.09999999999826
 21
109.56226865072301
  0
LINE
  8
_0-9_小物
  6
CONTINUOUS
 62
    3
 10
447.09999999999735
 20
105.99999331351171
 11
449.59999999999735
 21
103.49999999998875
  0
LINE
  8
_0-9_小物
  6
CONTINUOUS
 62
    3
 10
449.59999999999735
 20
103.49999999998875
 11
452.09999999999735
 21
105.71811811551891
  0
LINE
  8
_0-9_小物
  6
CONTINUOUS
 62
    3
 10
447.09999999999735
 20
105.99999331351171
 11
447.09999999999735
 21
109.56226865072335
  0
LINE
  8
_0-9_小物
  6
CONTINUOUS
 62
    3
 10
452.09999999999735
 20
105.71811811551891
 11
452.09999999999735
 21
109.56226865072335
  0
INSERT
  2
-013-_7_
  8
_0-9_小物
 10
420.5
 20
297
 41
1
 42
1
 50
0
  0
CIRCLE
  8
_0-e_付箋
  6
CONTINUOUS
 62
    4
 10
413.27309539819004
 20
88.336848996061462
 40
4.8827102566353844
  0
LINE
  8
_0-e_付箋
  6
CONTINUOUS
 62
    4
 10
400.06060999999983
 20
112.72154499998851
 11
411.51023183988178
 21
92.890218245863252
  0
TEXT
  8
_0-e_付箋
 62
    4
 10
410.27309539819004
 20
85.336848996061462
 40
6
 41
1
 50
0
  1
10
  0
LINE
  8
_0-f_寸法
  6
CONTINUOUS
 62
    4
 10
224.59999999999937
 20
369.5000000000116
 11
224.59999999999937
 21
294.50000000000006
  0
LINE
  8
_0-f_寸法
  6
CONTINUOUS
 62
    4
 10
259.60000000000076
 20
314.50000000000006
 11
259.60000000000076
 21
294.50000000000006
  0
POINT
  8
_0-f_寸法
 62
    4
 10
259.60000000000076
 20
295.50000000000006
  0
POINT
  8
_0-f_寸法
 62
    4
 10
224.59999999999937
 20
295.50000000000006
  0
LINE
  8
_0-f_寸法
  6
CONTINUOUS
 62
    4
 10
259.60000000000076
 20
295.50000000000006
 11
224.59999999999937
 21
295.50000000000006
  0
TEXT
  8
_0-f_寸法
 62
    4
 10
238.50000000000009
 20
295.50000000000006
 40
9
 41
0.8
 50
0
  1
35
  0
LINE
  8
_0-f_寸法
  6
CONTINUOUS
 62
    4
 10
359.60000000000076
 20
314.50000000000006
 11
359.60000000000076
 21
294.50000000000006
  0
LINE
  8
_0-f_寸法
  6
CONTINUOUS
 62
    4
 10
259.60000000000076
 20
314.50000000000006
 11
259.60000000000076
 21
294.50000000000006
  0
POINT
  8
_0-f_寸法
 62
    4
 10
259.60000000000076
 20
295.50000000000006
  0
POINT
  8
_0-f_寸法
 62
    4
 10
359.60000000000076
 20
295.50000000000006
  0
LINE
  8
_0-f_寸法
  6
CONTINUOUS
 62
    4
 10
259.60000000000076
 20
295.50000000000006
 11
359.60000000000076
 21
295.50000000000006
  0
TEXT
  8
_0-f_寸法
 62
    4
 10
304.20000000000078
 20
295.50000000000006
 40
9
 41
0.8
 50
0
  1
100
  0
LINE
  8
_0-f_寸法
  6
CONTINUOUS
 62
    4
 10
394.5999999999994
 20
370.5
 11
394.5999999999994
 21
294.50000000000006
  0
POINT
  8
_0-f_寸法
 62
    4
 10
359.60000000000076
 20
295.50000000000006
  0
POINT
  8
_0-f_寸法
 62
    4
 10
394.5999999999994
 20
295.50000000000006
  0
LINE
  8
_0-f_寸法
  6
CONTINUOUS
 62
    4
 10
359.60000000000076
 20
295.50000000000006
 11
394.5999999999994
 21
295.50000000000006
  0
TEXT
  8
_0-f_寸法
 62
    4
 10
373.50000000000006
 20
295.50000000000006
 40
9
 41
0.8
 50
0
  1
35
  0
LINE
  8
_0-f_寸法
  6
CONTINUOUS
 62
    4
 10
449.59999999999809
 20
369.50000000000017
 11
449.59999999999809
 21
294.50000000000006
  0
POINT
  8
_0-f_寸法
 62
    4
 10
394.5999999999994
 20
295.50000000000006
  0
POINT
  8
_0-f_寸法
 62
    4
 10
449.59999999999809
 20
295.50000000000006
  0
LINE
  8
_0-f_寸法
  6
CONTINUOUS
 62
    4
 10
394.5999999999994
 20
295.50000000000006
 11
449.59999999999809
 21
295.50000000000006
  0
TEXT
  8
_0-f_寸法
 62
    4
 10
418.49999999999875
 20
295.50000000000006
 40
9
 41
0.8
 50
0
  1
55
  0
LINE
  8
_0-f_寸法
  6
CONTINUOUS
 62
    4
 10
359.59999999999781
 20
47.5
 11
359.59999999999781
 21
27.5
  0
LINE
  8
_0-f_寸法
  6
CONTINUOUS
 62
    4
 10
259.59999999999803
 20
47.5
 11
259.59999999999803
 21
27.5
  0
POINT
  8
_0-f_寸法
 62
    4
 10
259.59999999999803
 20
28.5
  0
POINT
  8
_0-f_寸法
 62
    4
 10
359.59999999999781
 20
28.5
  0
LINE
  8
_0-f_寸法
  6
CONTINUOUS
 62
    4
 10
259.59999999999803
 20
28.5
 11
359.59999999999781
 21
28.5
  0
TEXT
  8
_0-f_寸法
 62
    4
 10
304.19999999999794
 20
28.5
 40
9
 41
0.8
 50
0
  1
100
  0
LINE
  8
_0-f_寸法
  6
CONTINUOUS
 62
    4
 10
394.59999999999826
 20
103.49999999998875
 11
394.59999999999826
 21
27.5
  0
POINT
  8
_0-f_寸法
 62
    4
 10
359.59999999999781
 20
28.5
  0
POINT
  8
_0-f_寸法
 62
    4
 10
394.59999999999826
 20
28.5
  0
LINE
  8
_0-f_寸法
  6
CONTINUOUS
 62
    4
 10
359.59999999999781
 20
28.5
 11
394.59999999999826
 21
28.5
  0
TEXT
  8
_0-f_寸法
 62
    4
 10
373.49999999999801
 20
28.5
 40
9
 41
0.8
 50
0
  1
35
  0
LINE
  8
_0-f_寸法
  6
CONTINUOUS
 62
    4
 10
449.59999999999735
 20
102.49999999998875
 11
449.59999999999735
 21
27.5
  0
POINT
  8
_0-f_寸法
 62
    4
 10
394.59999999999826
 20
28.5
  0
POINT
  8
_0-f_寸法
 62
    4
 10
449.59999999999735
 20
28.5
  0
LINE
  8
_0-f_寸法
  6
CONTINUOUS
 62
    4
 10
394.59999999999826
 20
28.5
 11
449.59999999999735
 21
28.5
  0
TEXT
  8
_0-f_寸法
 62
    4
 10
418.49999999999778
 20
28.5
 40
9
 41
0.8
 50
0
  1
55
  0
LINE
  8
_0-f_寸法
  6
CONTINUOUS
 62
    4
 10
358.60000000000076
 20
148.49999999998875
 11
192.8999974880814
 21
148.49999999998875
  0
LINE
  8
_0-f_寸法
  6
CONTINUOUS
 62
    4
 10
212.8999974880814
 20
180.49999999968782
 11
192.8999974880814
 21
180.49999999968782
  0
POINT
  8
_0-f_寸法
 62
    4
 10
193.8999974880814
 20
180.49999999968782
  0
POINT
  8
_0-f_寸法
 62
    4
 10
193.8999974880814
 20
148.49999999998875
  0
LINE
  8
_0-f_寸法
  6
CONTINUOUS
 62
    4
 10
193.8999974880814
 20
180.49999999968782
 11
193.8999974880814
 21
148.49999999998875
  0
TEXT
  8
_0-f_寸法
 62
    4
 10
193.8999974880814
 20
160.89999999983829
 40
9
 41
0.8
 50
90
  1
32
  0
LINE
  8
_0-f_寸法
  6
CONTINUOUS
 62
    4
 10
482.60000000000053
 20
415.5
 11
542.60000000000025
 21
415.5
  0
LINE
  8
_0-f_寸法
  6
CONTINUOUS
 62
    4
 10
522.60000000000025
 20
444.49999999999977
 11
542.60000000000025
 21
444.49999999999977
  0
POINT
  8
_0-f_寸法
 62
    4
 10
541.60000000000025
 20
444.49999999999977
  0
POINT
  8
_0-f_寸法
 62
    4
 10
541.60000000000025
 20
415.5
  0
LINE
  8
_0-f_寸法
  6
CONTINUOUS
 62
    4
 10
541.60000000000025
 20
444.49999999999977
 11
541.60000000000025
 21
415.5
  0
TEXT
  8
_0-f_寸法
 62
    4
 10
541.60000000000025
 20
426.39999999999986
 40
9
 41
0.8
 50
90
  1
29
  0
LINE
  8
_0-f_寸法
  6
CONTINUOUS
 62
    4
 10
482.60000000000076
 20
148.49999999998875
 11
542.60000000000048
 21
148.49999999998875
  0
LINE
  8
_0-f_寸法
  6
CONTINUOUS
 62
    4
 10
522.60000000000048
 20
177.49999999998863
 11
542.60000000000048
 21
177.49999999998863
  0
POINT
  8
_0-f_寸法
 62
    4
 10
541.60000000000048
 20
177.49999999998863
  0
POINT
  8
_0-f_寸法
 62
    4
 10
541.60000000000048
 20
148.49999999998875
  0
LINE
  8
_0-f_寸法
  6
CONTINUOUS
 62
    4
 10
541.60000000000048
 20
177.49999999998863
 11
541.60000000000048
 21
148.49999999998875
  0
TEXT
  8
_0-f_寸法
 62
    4
 10
541.60000000000048
 20
159.39999999998867
 40
9
 41
0.8
 50
90
  1
29
  0
ENDSEC
  0
EOF
