  0
SECTION
  2
HEADER
  9
$ACADVER
  1
AC1009
  9
$INSBASE
 10
0
 20
0
 30
0
  9
$EXTMIN
 10
0
 20
0
  9
$EXTMAX
 10
841
 20
594
  9
$LIMMIN
 10
0
 20
0
  9
$LIMMAX
 10
841
 20
594
  9
$LTSCALE
 40
1
  0
ENDSEC
  0
SECTION
  2
TABLES
  0
TABLE
  2
LTYPE
 70
     9
  0
LTYPE
  2
CONTINUOUS
 70
    64
  3
実線
 72
    65
 73
     0
 40
0.0
  0
LTYPE
  2
DASHED1
 70
    64
  3
--  --  --  --  --  --  --  --  
 72
    65
 73
     2
 40
2.5
 49
1.25
 49
-1.25
  0
LTYPE
  2
DASHED2
 70
    64
  3
----    ----    ----    ----    
 72
    65
 73
     2
 40
5.0
 49
2.5
 49
-2.5
  0
LTYPE
  2
DASHED3
 70
    64
  3
------  ------  ------  ------  
 72
    65
 73
     2
 40
5.0
 49
3.75
 49
-1.25
  0
LTYPE
  2
CENTER1
 70
    64
  3
----- - ----- - ----- - ----- - 
 72
    65
 73
     4
 40
10.0
 49
6.25
 49
-1.25
 49
1.25
 49
-1.25
  0
LTYPE
  2
CENTER2
 70
    64
  3
----------  --  ----------  --  
 72
    65
 73
     4
 40
20.0
 49
12.5
 49
-2.5
 49
2.5
 49
-2.5
  0
LTYPE
  2
PHANTOM1
 70
    64
  3
--- - - --- - - --- - - --- - - 
 72
    65
 73
     6
 40
10.0
 49
3.25
 49
-1.25
 49
1.25
 49
-1.25
 49
1.25
 49
-1.25
  0
LTYPE
  2
PHANTOM2
 70
    64
  3
--------  -  -  --------  -  -  
 72
    65
 73
     6
 40
20.0
 49
10.0
 49
-2.5
 49
1.25
 49
-2.5
 49
1.25
 49
-2.5
  0
LTYPE
  2
DOT
 70
    64
  3
-   -   -   -   -   -   -   -   
 72
    65
 73
     2
 40
2.5
 49
0.625
 49
-1.875
  0
LTYPE
  2
DUMMY
 70
    64
  3
ダミー
 72
    65
 73
     0
 40
0.0
  0
LTYPE
  2
RAND1
 70
    64
  3
ランダム線1
 72
    65
 73
     4
 40
10.0
 49
1.0
 49
-2.0
 49
3.0
 49
-4.0
  0
LTYPE
  2
RAND2
 70
    64
  3
ランダム線2
 72
    65
 73
     4
 40
14.0
 49
2.0
 49
-3.0
 49
4.0
 49
-5.0
  0
LTYPE
  2
RAND3
 70
    64
  3
ランダム線3
 72
    65
 73
     4
 40
18.0
 49
3.0
 49
-4.0
 49
5.0
 49
-6.0
  0
LTYPE
  2
RAND4
 70
    64
  3
ランダム線4
 72
    65
 73
     4
 40
22.0
 49
4.0
 49
-5.0
 49
6.0
 49
-7.0
  0
LTYPE
  2
RAND5
 70
    64
  3
ランダム線5
 72
    65
 73
     4
 40
26.0
 49
5.0
 49
-6.0
 49
7.0
 49
-8.0
  0
LTYPE
  2
LONG1
 70
    64
  3
----------  --  ----------  --  
 72
    65
 73
     4
 40
40.0
 49
32.5
 49
-2.5
 49
2.5
 49
-2.5
  0
LTYPE
  2
LONG2
 70
    64
  3
--------  -  -  --------  -  -  
 72
    65
 73
     6
 40
40.0
 49
30.0
 49
-2.5
 49
1.25
 49
-2.5
 49
1.25
 49
-2.5
  0
LTYPE
  2
LONG3
 70
    64
  3
+++++++++++++++..+++++++++++++++
 72
    65
 73
     2
 40
40.0
 49
37.5
 49
-2.5
  0
LTYPE
  2
LONG4
 70
    64
  3
+++++++++++++++..+++++++++++++++
 72
    65
 73
     2
 40
80.0
 49
75.0
 49
-5.0
  0
LTYPE
  2
LONG5
 70
    64
  3
----------  --  ----------  --  
 72
    65
 73
     4
 40
60.0
 49
37.5
 49
-7.5
 49
7.5
 49
-7.5
  0
LTYPE
  2
dashed
 70
   64
  3
-------   -------------   ------
 72
   65
 73
    2
 40
7.5
 49
6
 49
-1.5
  0
LTYPE
  2
dashed_spaced
 70
   64
  3
----        --------        ----
 72
   65
 73
    2
 40
12
 49
6
 49
-6
  0
LTYPE
  2
long_dashed_dotted
 70
   64
  3
------------- --- --------------
 72
   65
 73
    4
 40
15.25
 49
12
 49
-1.5
 49
0.25
 49
-1.5
  0
LTYPE
  2
long_dashed_double-dotted
 70
   64
  3
----------- --- --- ------------
 72
   65
 73
    6
 40
17
 49
12
 49
-1.5
 49
0.25
 49
-1.5
 49
0.25
 49
-1.5
  0
LTYPE
  2
long_dashed_triplicate-dotted
 70
   64
  3
--------- --- --- --- ----------
 72
   65
 73
    8
 40
18.75
 49
12
 49
-1.5
 49
0.25
 49
-1.5
 49
0.25
 49
-1.5
 49
0.25
 49
-1.5
  0
LTYPE
  2
dotted
 70
   64
  3
   -       -       -       -    
 72
   65
 73
    2
 40
1.75
 49
0.25
 49
-1.5
  0
LTYPE
  2
chain
 70
   64
  3
-------------- -- --------------
 72
   65
 73
    4
 40
18.5
 49
12
 49
-1.5
 49
3.5
 49
-1.5
  0
LTYPE
  2
chain_double_dash
 70
   64
  3
------------ -- -- -------------
 72
   65
 73
    6
 40
23.5
 49
12
 49
-1.5
 49
3.5
 49
-1.5
 49
3.5
 49
-1.5
  0
LTYPE
  2
dashed_dotted
 70
   64
  3
-----------     -     ----------
 72
   65
 73
    4
 40
9.25
 49
6
 49
-1.5
 49
0.25
 49
-1.5
  0
LTYPE
  2
double-dashed_dotted
 70
   64
  3
------   -----------   -   -----
 72
   65
 73
    6
 40
16.75
 49
6
 49
-1.5
 49
6
 49
-1.5
 49
0.25
 49
-1.5
  0
LTYPE
  2
dashed_double-dotted
 70
   64
  3
---------    -    -    ---------
 72
   65
 73
    6
 40
11
 49
6
 49
-1.5
 49
0.25
 49
-1.5
 49
0.25
 49
-1.5
  0
LTYPE
  2
double-dashed_double-dotted
 70
   64
  3
-----   ---------   -   -   ----
 72
   65
 73
    8
 40
18.5
 49
6
 49
-1.5
 49
6
 49
-1.5
 49
0.25
 49
-1.5
 49
0.25
 49
-1.5
  0
LTYPE
  2
dashed_triplicate-dotted
 70
   64
  3
-------    -    -    -    ------
 72
   65
 73
    8
 40
12.75
 49
6
 49
-1.5
 49
0.25
 49
-1.5
 49
0.25
 49
-1.5
 49
0.25
 49
-1.5
  0
LTYPE
  2
double-dashed_triplicate-dotted
 70
   64
  3
-----  ---------  -  -  -  -----
 72
   65
 73
   10
 40
20.25
 49
6
 49
-1.5
 49
6
 49
-1.5
 49
0.25
 49
-1.5
 49
0.25
 49
-1.5
 49
0.25
 49
-1.5
  0
LTYPE
  2
undefined
 70
   64
  3
--------------------------------
 72
   65
 73
    0
 40
0
  0
ENDTAB
  0
TABLE
  2
STYLE
  5
3
100
AcDbSymbolTable
 70
     1
  0
STYLE
  5
10
100
AcDbSymbolTableRecord
100
AcDbTextStyleTableRecord
  2
STANDARD
 70
     0
 40
0.0
 41
1.0
 50
0.0
 71
     0
 42
0.2
  3
txt
  4
bigfont.shx
  0
STYLE
  5
26
100
AcDbSymbolTableRecord
100
AcDbTextStyleTableRecord
  2
TATEGAKI
 70
    68
 40
0.0
 41
1.0
 50
0.0
 71
     0
 42
1.0
  3
txt
  4
bigfont.shx
  0
ENDTAB
  0
TABLE
  2
LAYER
 70
   11
  0
LAYER
  2
_0-0_躯体
 70
   64
 62
    7
  6
CONTINUOUS
  0
LAYER
  2
_0-1_耐火帯
 70
   64
 62
    7
  6
CONTINUOUS
  0
LAYER
  2
_0-9_小物
 70
   64
 62
    7
  6
CONTINUOUS
  0
LAYER
  2
_0-a_
 70
   64
 62
    7
  6
CONTINUOUS
  0
LAYER
  2
_0-e_付箋
 70
   64
 62
    7
  6
CONTINUOUS
  0
LAYER
  2
_0-f_寸法
 70
   64
 62
    7
  6
CONTINUOUS
  0
LAYER
  2
_1-0_
 70
   64
 62
    7
  6
CONTINUOUS
  0
LAYER
  2
_1-e_
 70
   64
 62
    7
  6
CONTINUOUS
  0
LAYER
  2
_1-f_
 70
   64
 62
    7
  6
CONTINUOUS
  0
LAYER
  2
_f-0_
 70
   64
 62
    7
  6
CONTINUOUS
  0
LAYER
  2
ADD_LINE
 70
   64
 62
    7
  6
CONTINUOUS
  0
ENDTAB
  0
ENDSEC
  0
SECTION
  2
BLOCKS
  0
BLOCK
  2
-000-
 70
   64
 10
0
 20
0
 30
0
  0
ARC
  8
_0-a_
  6
CONTINUOUS
 62
    3
 10
-148.00000004780765
 20
53.600000170138514
 40
0.2999999999999999
 50
180
 51
270
  0
ARC
  8
_0-a_
  6
CONTINUOUS
 62
    3
 10
-150.30000004780783
 20
61.600000170138287
 40
0.5
 50
0
 51
90
  0
LINE
  8
_0-a_
  6
CONTINUOUS
 62
    3
 10
-146.30000004780783
 20
53.30000017013856
 11
-148.00000004780765
 21
53.30000017013856
  0
LINE
  8
_0-a_
  6
CONTINUOUS
 62
    3
 10
-151.30000004780783
 20
63.600000170138514
 11
-160.26575233063346
 21
62.815598485409623
  0
ARC
  8
_0-a_
  6
CONTINUOUS
 62
    3
 10
-160.17859658788581
 20
61.81940378731781
 40
1
 50
94.999999999999758
 51
333.4665312869933
  0
ARC
  8
_0-a_
  6
CONTINUOUS
 62
    3
 10
-158.38924945332161
 20
60.925962780856139
 40
1
 50
91.423665625010599
 51
153.46653128700785
  0
LINE
  8
_0-a_
  6
CONTINUOUS
 62
    3
 10
-151.39893714734359
 20
62.100000170138514
 11
-158.4140945491568
 21
61.925654093818707
  0
LINE
  8
_0-a_
  6
CONTINUOUS
 62
    3
 10
-150.30000004780783
 20
62.100000170138514
 11
-151.39893714734359
 21
62.100000170138514
  0
LINE
  8
_0-a_
  6
CONTINUOUS
 62
    3
 10
-149.80000004780783
 20
53.600000170138514
 11
-149.80000004780783
 21
61.600000170138287
  0
ARC
  8
_0-a_
  6
CONTINUOUS
 62
    3
 10
-148.00000004780765
 20
53.600000170138514
 40
1.8
 50
180
 51
270
  0
LINE
  8
_0-a_
  6
CONTINUOUS
 62
    3
 10
-148.30000004780783
 20
53.600000170138514
 11
-148.30000004780783
 21
62.600000170138514
  0
LINE
  8
_0-a_
  6
CONTINUOUS
 62
    3
 10
-151.30000004780783
 20
63.600000170138514
 11
-149.30000004780783
 21
63.600000170138514
  0
ARC
  8
_0-a_
  6
CONTINUOUS
 62
    3
 10
-149.30000004780783
 20
62.600000170138514
 40
1
 50
0
 51
90
  0
LINE
  8
_0-a_
  6
CONTINUOUS
 62
    3
 10
-146.30000004780783
 20
51.80000017013856
 11
-148.00000004780765
 21
51.80000017013856
  0
LINE
  8
_0-a_
  6
CONTINUOUS
 62
    3
 10
-146.45198387545958
 20
54.689449992816094
 11
-146.78358495397248
 21
57.066431424112693
  0
ARC
  8
_0-a_
  6
CONTINUOUS
 62
    3
 10
-145.12157156328755
 20
60.57288153522552
 40
0.4999999999999986
 50
297.94179900622902
 51
117.94179900622902
  0
LINE
  8
_0-a_
  6
CONTINUOUS
 62
    3
 10
-146.680994813984
 20
60.311731913000699
 11
-145.3558587750245
 21
61.014593548211792
  0
LINE
  8
_0-a_
  6
CONTINUOUS
 62
    3
 10
-146.78358495397248
 20
57.066431424112693
 11
-146.81231695363937
 21
59.0817910625384
  0
LINE
  8
_0-a_
  6
CONTINUOUS
 62
    3
 10
-146.81231695363937
 20
59.0817910625384
 11
-146.680994813984
 21
60.311731913000699
  0
LINE
  8
_0-a_
  6
CONTINUOUS
 62
    3
 10
-145.35881017506023
 20
59.881068852109706
 11
-144.88728435155059
 21
60.13116952223902
  0
ARC
  8
_0-a_
  6
CONTINUOUS
 62
    3
 10
-146.30000004780783
 20
53.600000170138514
 40
1.8
 50
270
 51
7.9417990062325998
  0
LINE
  8
_0-a_
  6
CONTINUOUS
 62
    3
 10
-144.51726397433509
 20
53.848700979022965
 11
-145.35881017506023
 21
59.881068852109706
  0
ARC
  8
_0-a_
  6
CONTINUOUS
 62
    3
 10
-146.30000004780783
 20
53.600000170138514
 40
0.2999999999999999
 50
270
 51
7.9417990062392505
  0
LINE
  8
_0-a_
  6
CONTINUOUS
 62
    3
 10
-146.00287736889555
 20
53.641450304952627
 11
-146.1548611965473
 21
54.730900127630207
  0
LINE
  8
_0-a_
  6
CONTINUOUS
 62
    3
 10
-146.1548611965473
 20
54.730900127630207
 11
-146.45198387545958
 21
54.689449992816094
  0
ENDBLK
  0
BLOCK
  2
-001-_1_
 70
   64
 10
0
 20
0
 30
0
  0
ARC
  8
_0-a_
  6
CONTINUOUS
 62
    3
 10
-144.30000004780834
 20
18.900000170138469
 40
0.2999999999999999
 50
180
 51
270
  0
LINE
  8
_0-a_
  6
CONTINUOUS
 62
    3
 10
-144.60000004780846
 20
20.600000170138401
 11
-144.60000004780846
 21
18.900000170138469
  0
LINE
  8
_0-a_
  6
CONTINUOUS
 62
    3
 10
-144.30000004780834
 20
17.100000170138401
 11
-136.30000004780834
 21
17.100000170138401
  0
ARC
  8
_0-a_
  6
CONTINUOUS
 62
    3
 10
-144.30000004780834
 20
18.900000170138469
 40
1.8
 50
180
 51
270
  0
LINE
  8
_0-a_
  6
CONTINUOUS
 62
    3
 10
-144.30000004780834
 20
18.600000170138401
 11
-135.30000004780834
 21
18.600000170138401
  0
ARC
  8
_0-a_
  6
CONTINUOUS
 62
    3
 10
-135.30000004780834
 20
17.600000170138401
 40
1
 50
0
 51
90
  0
LINE
  8
_0-a_
  6
CONTINUOUS
 62
    3
 10
-146.10000004780846
 20
20.600000170138401
 11
-146.10000004780846
 21
18.900000170138469
  0
LINE
  8
_0-a_
  6
CONTINUOUS
 62
    3
 10
-143.21055022513076
 20
20.448016342486767
 11
-140.83356879383393
 21
20.116415263973863
  0
ARC
  8
_0-a_
  6
CONTINUOUS
 62
    3
 10
-137.32711868272156
 20
21.778428654658455
 40
0.4999999999999986
 50
332.05820099378559
 51
152.05820099378559
  0
LINE
  8
_0-a_
  6
CONTINUOUS
 62
    3
 10
-137.58826830494593
 20
20.219005403962342
 11
-136.88540666973506
 21
21.5441414429215
  0
LINE
  8
_0-a_
  6
CONTINUOUS
 62
    3
 10
-140.83356879383393
 20
20.116415263973863
 11
-138.81820915540823
 21
20.087683264306634
  0
LINE
  8
_0-a_
  6
CONTINUOUS
 62
    3
 10
-138.81820915540823
 20
20.087683264306634
 11
-137.58826830494593
 21
20.219005403962342
  0
LINE
  8
_0-a_
  6
CONTINUOUS
 62
    3
 10
-138.01893136583715
 20
21.541190042885887
 11
-137.76883069570761
 21
22.012715866395524
  0
ARC
  8
_0-a_
  6
CONTINUOUS
 62
    3
 10
-144.30000004780834
 20
20.600000170138401
 40
1.8
 50
82.058200993760252
 51
180
  0
LINE
  8
_0-a_
  6
CONTINUOUS
 62
    3
 10
-144.05129923892366
 20
22.382736243610907
 11
-138.01893136583715
 21
21.541190042885887
  0
ARC
  8
_0-a_
  6
CONTINUOUS
 62
    3
 10
-144.30000004780834
 20
20.600000170138401
 40
0.2999999999999999
 50
82.058200993760749
 51
180
  0
LINE
  8
_0-a_
  6
CONTINUOUS
 62
    3
 10
-144.25854991299423
 20
20.897122849050447
 11
-143.16910009031665
 21
20.745139021398813
  0
LINE
  8
_0-a_
  6
CONTINUOUS
 62
    3
 10
-143.16910009031665
 20
20.745139021398813
 11
-143.21055022513076
 21
20.448016342486767
  0
LINE
  8
_0-a_
  6
CONTINUOUS
 62
    3
 10
-136.27996794318244
 20
14.369099800284175
 11
-144.61498428263263
 21
10.973882190013455
  0
ARC
  8
_0-a_
  6
CONTINUOUS
 62
    3
 10
-144.99223068377393
 20
11.899995116618925
 40
1
 50
53.696691075073844
 51
292.16322236205013
  0
ARC
  8
_0-a_
  6
CONTINUOUS
 62
    3
 10
-143.80811124079821
 20
13.511783298970045
 40
1
 50
233.6966910750738
 51
295.73955673703853
  0
LINE
  8
_0-a_
  6
CONTINUOUS
 62
    3
 10
-137.05278361715784
 20
15.658496746039077
 11
-143.37383016026808
 21
12.611005888566183
  0
LINE
  8
_0-a_
  6
CONTINUOUS
 62
    3
 10
-136.07504873317032
 20
16.160191120504351
 11
-137.05278361715784
 21
15.658496746039077
  0
ARC
  8
_0-a_
  6
CONTINUOUS
 62
    3
 10
-136.30000004780834
 20
16.600000170138401
 40
0.5
 50
297.08860670010415
 51
90
  0
LINE
  8
_0-a_
  6
CONTINUOUS
 62
    3
 10
-134.30657564536534
 20
15.991583063926214
 11
-134.30505755682327
 21
17.597471415631162
  0
LINE
  8
_0-a_
  6
CONTINUOUS
 62
    3
 10
-136.27996794318244
 20
14.369099800284175
 11
-134.8500482738674
 21
15.102818792805579
  0
ARC
  8
_0-a_
  6
CONTINUOUS
 62
    3
 10
-135.30657519854469
 20
15.992528389833979
 40
1
 50
297.16322236202711
 51
359.94583680715368
  0
ENDBLK
  0
BLOCK
  2
-002-_2_
 70
   64
 10
0
 20
0
 30
0
  0
LINE
  8
_0-f_寸法
  6
CONTINUOUS
 62
    4
 10
-137.69999882747754
 20
-9.4000000003146624
 11
-137.69999882747754
 21
-34.400000000011119
  0
LINE
  8
_0-f_寸法
  6
CONTINUOUS
 62
    4
 10
-160.90000000000197
 20
-14.400000000011119
 11
-160.90000000000197
 21
-34.400000000011119
  0
LINE
  8
_0-f_寸法
  6
CONTINUOUS
 62
    4
 10
-160.90000000000197
 20
-33.400000000011119
 11
-137.69999882747754
 21
-33.400000000011119
  0
POINT
  8
_0-f_寸法
 62
    4
 10
-160.90000000000197
 20
-33.400000000011119
  0
POINT
  8
_0-f_寸法
 62
    4
 10
-137.69999882747754
 20
-33.400000000011119
  0
TEXT
  8
_0-f_寸法
 62
    4
 10
-156.49999941373994
 20
-33.400000000011119
 40
9
 41
0.8
 50
0
  1
23.2
  0
ENDBLK
  0
BLOCK
  2
-003-_3_
 70
   64
 10
0
 20
0
 30
0
  0
ARC
  8
_0-9_小物
  6
CONTINUOUS
 62
    3
 10
-169.18104500000396
 20
25.51514499968664
 40
0.4
 50
8.1301019999584128
 51
98.298466000035802
  0
LINE
  8
_0-9_小物
  6
CONTINUOUS
 62
    3
 10
-168.78506500000418
 20
25.571714999687742
 11
-168.75695000000366
 21
25.374889999686388
  0
ARC
  8
_0-9_小物
  6
CONTINUOUS
 62
    3
 10
-169.15293000000389
 20
25.318319999685741
 40
0.4
 50
278.13010200002401
 51
8.1301020002215409
  0
ARC
  8
_0-9_小物
  6
CONTINUOUS
 62
    3
 10
-169.18104500000396
 20
11.684854999686763
 40
0.4
 50
261.70153399996417
 51
351.86989800004159
  0
LINE
  8
_0-9_小物
  6
CONTINUOUS
 62
    3
 10
-168.78506500000418
 20
11.628289999686899
 11
-168.75695000000366
 21
11.825109999687015
  0
ARC
  8
_0-9_小物
  6
CONTINUOUS
 62
    3
 10
-169.15293000000389
 20
11.881679999685844
 40
0.4
 50
351.86989800004159
 51
81.869898000041587
  0
ARC
  8
_0-9_小物
  6
CONTINUOUS
 62
    3
 10
-169.18104500000396
 20
11.684854999686763
 40
0.4
 50
261.70153399996417
 51
351.86989800004159
  0
LINE
  8
_0-9_小物
  6
CONTINUOUS
 62
    3
 10
-168.78506500000418
 20
11.628289999686899
 11
-168.75695000000366
 21
11.825109999687015
  0
ARC
  8
_0-9_小物
  6
CONTINUOUS
 62
    3
 10
-169.15293000000389
 20
11.881679999685844
 40
0.4
 50
351.86989800004159
 51
81.869898000041587
  0
LINE
  8
_0-9_小物
  6
CONTINUOUS
 62
    3
 10
-160.90000000000379
 20
22.599999999685792
 11
-168.9000000000047
 21
22.599999999685792
  0
LINE
  8
_0-9_小物
  6
CONTINUOUS
 62
    3
 10
-182.69764000000492
 20
13.872094999686055
 11
-183.80094000000378
 21
15.817014999685966
  0
LINE
  8
_0-9_小物
  6
CONTINUOUS
 62
    3
 10
-180.70038000000392
 20
13.976764999686679
 11
-182.69764000000492
 21
13.872094999686055
  0
LINE
  8
_0-9_小物
  6
CONTINUOUS
 62
    3
 10
-177.70449000000377
 20
14.13377499968658
 11
-178.80779500000432
 21
16.078694999686491
  0
LINE
  8
_0-9_小物
  6
CONTINUOUS
 62
    3
 10
-178.80779500000432
 20
16.078694999686491
 11
-180.80505500000396
 21
15.974024999686776
  0
LINE
  8
_0-9_小物
  6
CONTINUOUS
 62
    3
 10
-180.80505500000396
 20
15.974024999686776
 11
-180.70038000000392
 21
13.976764999686679
  0
LINE
  8
_0-9_小物
  6
CONTINUOUS
 62
    3
 10
-175.70723500000446
 20
14.238444999686294
 11
-177.70449000000377
 21
14.13377499968658
  0
LINE
  8
_0-9_小物
  6
CONTINUOUS
 62
    3
 10
-173.81464500000453
 20
16.340374999687015
 11
-175.81190500000417
 21
16.235704999686391
  0
LINE
  8
_0-9_小物
  6
CONTINUOUS
 62
    3
 10
-175.81190500000417
 20
16.235704999686391
 11
-175.70723500000446
 21
14.238444999686294
  0
LINE
  8
_0-9_小物
  6
CONTINUOUS
 62
    3
 10
-172.90000000000379
 20
14.599999999686702
 11
-173.81464500000453
 21
16.340374999687015
  0
LINE
  8
_0-9_小物
  6
CONTINUOUS
 62
    3
 10
-182.69764000000492
 20
23.327904999687348
 11
-183.80094000000378
 21
21.382984999686528
  0
LINE
  8
_0-9_小物
  6
CONTINUOUS
 62
    3
 10
-180.70038000000392
 20
23.223234999686724
 11
-182.69764000000492
 21
23.327904999687348
  0
LINE
  8
_0-9_小物
  6
CONTINUOUS
 62
    3
 10
-177.70449000000377
 20
23.066224999685915
 11
-178.80779500000432
 21
21.121304999686004
  0
LINE
  8
_0-9_小物
  6
CONTINUOUS
 62
    3
 10
-178.80779500000432
 20
21.121304999686004
 11
-180.80505500000396
 21
21.225974999686628
  0
LINE
  8
_0-9_小物
  6
CONTINUOUS
 62
    3
 10
-180.80505500000396
 20
21.225974999686628
 11
-180.70038000000392
 21
23.223234999686724
  0
LINE
  8
_0-9_小物
  6
CONTINUOUS
 62
    3
 10
-175.70723500000446
 20
22.96155499968711
 11
-177.70449000000377
 21
23.066224999685915
  0
LINE
  8
_0-9_小物
  6
CONTINUOUS
 62
    3
 10
-173.81464500000453
 20
20.859624999686389
 11
-175.81190500000417
 21
20.964294999687013
  0
LINE
  8
_0-9_小物
  6
CONTINUOUS
 62
    3
 10
-175.81190500000417
 20
20.964294999687013
 11
-175.70723500000446
 21
22.96155499968711
  0
LINE
  8
_0-9_小物
  6
CONTINUOUS
 62
    3
 10
-172.90000000000379
 20
22.599999999685792
 11
-173.81464500000453
 21
20.859624999686389
  0
LINE
  8
_0-9_小物
  6
CONTINUOUS
 62
    3
 10
-180.70038000000392
 20
13.976764999686679
 11
-176.04240000000442
 21
12.281399999687096
  0
LINE
  8
_0-9_小物
  6
CONTINUOUS
 62
    3
 10
-180.70038000000392
 20
15.040944999686076
 11
-175.70038000000437
 21
13.221089999686342
  0
LINE
  8
_0-9_小物
  6
CONTINUOUS
 62
    3
 10
-180.70038000000392
 20
23.223234999686724
 11
-176.04240000000442
 21
24.918599999686307
  0
LINE
  8
_0-9_小物
  6
CONTINUOUS
 62
    3
 10
-180.70038000000392
 20
22.159054999687328
 11
-175.70038000000437
 21
23.978909999687062
  0
LINE
  8
_0-9_小物
  6
CONTINUOUS
 62
    3
 10
-172.90000000000379
 20
14.599999999686702
 11
-168.9000000000047
 21
14.599999999686702
  0
LINE
  8
_0-9_小物
  6
CONTINUOUS
 62
    3
 10
-172.90000000000379
 20
22.599999999685792
 11
-168.9000000000047
 21
22.599999999685792
  0
LINE
  8
_0-9_小物
  6
CONTINUOUS
 62
    3
 10
-176.04240000000442
 20
24.918599999686307
 11
-169.23878000000337
 21
25.910954999686624
  0
LINE
  8
_0-9_小物
  6
CONTINUOUS
 62
    3
 10
-169.09636000000415
 20
24.922339999686415
 11
-175.70038000000437
 21
23.978909999687062
  0
LINE
  8
_0-9_小物
  6
CONTINUOUS
 62
    3
 10
-176.04240000000442
 20
12.281399999687096
 11
-169.23878000000337
 21
11.28904499968678
  0
LINE
  8
_0-9_小物
  6
CONTINUOUS
 62
    3
 10
-169.09636000000415
 20
12.277659999686989
 11
-175.70038000000437
 21
13.221089999686342
  0
LINE
  8
_0-9_小物
  6
CONTINUOUS
 62
    3
 10
-176.04240000000442
 20
12.281399999687096
 11
-169.23878000000337
 21
11.28904499968678
  0
LINE
  8
_0-9_小物
  6
CONTINUOUS
 62
    3
 10
-169.09636000000415
 20
12.277659999686989
 11
-175.70038000000437
 21
13.221089999686342
  0
LINE
  8
_0-9_小物
  6
CONTINUOUS
 62
    3
 10
-195.67982500000431
 20
13.191724999686016
 11
-197.67708500000396
 21
13.087054999687211
  0
LINE
  8
_0-9_小物
  6
CONTINUOUS
 62
    3
 10
-192.68393500000417
 20
13.348734999686826
 11
-193.78723500000439
 21
15.293654999686737
  0
LINE
  8
_0-9_小物
  6
CONTINUOUS
 62
    3
 10
-193.78723500000439
 20
15.293654999686737
 11
-195.78449500000403
 21
15.188984999686113
  0
LINE
  8
_0-9_小物
  6
CONTINUOUS
 62
    3
 10
-195.78449500000403
 20
15.188984999686113
 11
-195.67982500000431
 21
13.191724999686016
  0
LINE
  8
_0-9_小物
  6
CONTINUOUS
 62
    3
 10
-190.68667500000407
 20
13.453404999686541
 11
-192.68393500000417
 21
13.348734999686826
  0
LINE
  8
_0-9_小物
  6
CONTINUOUS
 62
    3
 10
-187.6907900000038
 20
13.610414999686441
 11
-188.79409000000493
 21
15.555334999687261
  0
LINE
  8
_0-9_小物
  6
CONTINUOUS
 62
    3
 10
-188.79409000000493
 20
15.555334999687261
 11
-190.79135000000412
 21
15.450664999686637
  0
LINE
  8
_0-9_小物
  6
CONTINUOUS
 62
    3
 10
-190.79135000000412
 20
15.450664999686637
 11
-190.68667500000407
 21
13.453404999686541
  0
LINE
  8
_0-9_小物
  6
CONTINUOUS
 62
    3
 10
-185.6935300000037
 20
13.715084999687065
 11
-187.6907900000038
 21
13.610414999686441
  0
LINE
  8
_0-9_小物
  6
CONTINUOUS
 62
    3
 10
-183.80094000000378
 20
15.817014999685966
 11
-185.79820000000387
 21
15.712344999687161
  0
LINE
  8
_0-9_小物
  6
CONTINUOUS
 62
    3
 10
-185.79820000000387
 20
15.712344999687161
 11
-185.6935300000037
 21
13.715084999687065
  0
LINE
  8
_0-9_小物
  6
CONTINUOUS
 62
    3
 10
-195.67982500000431
 20
24.008274999686478
 11
-197.67708500000396
 21
24.112944999686192
  0
LINE
  8
_0-9_小物
  6
CONTINUOUS
 62
    3
 10
-192.68393500000417
 20
23.851264999686578
 11
-193.78723500000439
 21
21.906344999686667
  0
LINE
  8
_0-9_小物
  6
CONTINUOUS
 62
    3
 10
-193.78723500000439
 20
21.906344999686667
 11
-195.78449500000403
 21
22.011014999687291
  0
LINE
  8
_0-9_小物
  6
CONTINUOUS
 62
    3
 10
-195.78449500000403
 20
22.011014999687291
 11
-195.67982500000431
 21
24.008274999686478
  0
LINE
  8
_0-9_小物
  6
CONTINUOUS
 62
    3
 10
-190.68667500000407
 20
23.746594999685954
 11
-192.68393500000417
 21
23.851264999686578
  0
LINE
  8
_0-9_小物
  6
CONTINUOUS
 62
    3
 10
-187.6907900000038
 20
23.589584999686963
 11
-188.79409000000493
 21
21.644664999687052
  0
LINE
  8
_0-9_小物
  6
CONTINUOUS
 62
    3
 10
-188.79409000000493
 20
21.644664999687052
 11
-190.79135000000412
 21
21.749334999685857
  0
LINE
  8
_0-9_小物
  6
CONTINUOUS
 62
    3
 10
-190.79135000000412
 20
21.749334999685857
 11
-190.68667500000407
 21
23.746594999685954
  0
LINE
  8
_0-9_小物
  6
CONTINUOUS
 62
    3
 10
-185.6935300000037
 20
23.484914999687248
 11
-187.6907900000038
 21
23.589584999686963
  0
LINE
  8
_0-9_小物
  6
CONTINUOUS
 62
    3
 10
-183.80094000000378
 20
21.382984999686528
 11
-185.79820000000387
 21
21.487654999686242
  0
LINE
  8
_0-9_小物
  6
CONTINUOUS
 62
    3
 10
-185.79820000000387
 20
21.487654999686242
 11
-185.6935300000037
 21
23.484914999687248
  0
LINE
  8
_0-9_小物
  6
CONTINUOUS
 62
    3
 10
-197.86026000000453
 20
16.582254999686597
 11
-197.67708500000396
 21
13.087054999687211
  0
LINE
  8
_0-9_小物
  6
CONTINUOUS
 62
    3
 10
-197.67708500000396
 20
13.087054999687211
 11
-199.77901500000377
 21
14.97963999968681
  0
LINE
  8
_0-9_小物
  6
CONTINUOUS
 62
    3
 10
-199.77901500000377
 20
14.97963999968681
 11
-199.85752000000463
 21
16.477584999685973
  0
LINE
  8
_0-9_小物
  6
CONTINUOUS
 62
    3
 10
-199.85752000000463
 20
16.477584999685973
 11
-168.9000000000047
 21
18.099999999685792
  0
LINE
  8
_0-9_小物
  6
CONTINUOUS
 62
    3
 10
-197.86026000000453
 20
20.617744999686806
 11
-197.67708500000396
 21
24.112944999686192
  0
LINE
  8
_0-9_小物
  6
CONTINUOUS
 62
    3
 10
-197.67708500000396
 20
24.112944999686192
 11
-199.77901500000377
 21
22.220359999686593
  0
LINE
  8
_0-9_小物
  6
CONTINUOUS
 62
    3
 10
-199.77901500000377
 20
22.220359999686593
 11
-199.85752000000463
 21
20.722414999686521
  0
LINE
  8
_0-9_小物
  6
CONTINUOUS
 62
    3
 10
-199.85752000000463
 20
20.722414999686521
 11
-168.9000000000047
 21
19.099999999686702
  0
LINE
  8
_0-9_小物
  6
CONTINUOUS
 62
    3
 10
-160.90000000000379
 20
13.599999999685792
 11
-165.90000000000379
 21
14.599999999686702
  0
LINE
  8
_0-9_小物
  6
CONTINUOUS
 62
    3
 10
-160.90000000000379
 20
17.599999999686702
 11
-165.90000000000379
 21
18.599999999685792
  0
LINE
  8
_0-9_小物
  6
CONTINUOUS
 62
    3
 10
-160.90000000000379
 20
14.599999999686702
 11
-168.9000000000047
 21
14.599999999686702
  0
LINE
  8
_0-9_小物
  6
CONTINUOUS
 62
    3
 10
-160.90000000000379
 20
19.599999999686702
 11
-165.90000000000379
 21
18.599999999685792
  0
LINE
  8
_0-9_小物
  6
CONTINUOUS
 62
    3
 10
-160.90000000000379
 20
23.599999999685792
 11
-165.90000000000379
 21
22.599999999685792
  0
LINE
  8
_0-9_小物
  6
CONTINUOUS
 62
    3
 10
-165.90000000000379
 20
18.599999999685792
 11
-160.90000000000197
 21
18.599999999685792
  0
LINE
  8
_0-9_小物
  6
CONTINUOUS
 62
    3
 10
-168.9000000000047
 20
19.099999999686702
 11
-168.9000000000047
 21
18.099999999685792
  0
LINE
  8
_0-9_小物
  6
CONTINUOUS
 62
    3
 10
-160.90000000000379
 20
23.599999999685792
 11
-160.90000000000379
 21
13.599999999685792
  0
ENDBLK
  0
BLOCK
  2
-004-_4_
 70
   64
 10
0
 20
0
 30
0
  0
LINE
  8
_0-9_小物
  6
CONTINUOUS
 62
    3
 10
-20.491724999999064
 20
-49.779825000011442
 11
-20.387055000000714
 21
-51.777085000011311
  0
LINE
  8
_0-9_小物
  6
CONTINUOUS
 62
    3
 10
-20.648735000000329
 20
-46.783935000011525
 11
-22.593654999999785
 21
-47.887235000011515
  0
LINE
  8
_0-9_小物
  6
CONTINUOUS
 62
    3
 10
-22.593654999999785
 20
-47.887235000011515
 11
-22.488984999999616
 21
-49.884495000011384
  0
LINE
  8
_0-9_小物
  6
CONTINUOUS
 62
    3
 10
-22.488984999999616
 20
-49.884495000011384
 11
-20.491724999999064
 21
-49.779825000011442
  0
LINE
  8
_0-9_小物
  6
CONTINUOUS
 62
    3
 10
-20.753405000000043
 20
-44.786675000011201
 11
-20.648735000000329
 21
-46.783935000011525
  0
LINE
  8
_0-9_小物
  6
CONTINUOUS
 62
    3
 10
-20.910414999999944
 20
-41.790790000011157
 11
-22.855335000000764
 21
-42.894090000012056
  0
LINE
  8
_0-9_小物
  6
CONTINUOUS
 62
    3
 10
-22.855335000000764
 20
-42.894090000012056
 11
-22.750664999999685
 21
-44.891350000011244
  0
LINE
  8
_0-9_小物
  6
CONTINUOUS
 62
    3
 10
-22.750664999999685
 20
-44.891350000011244
 11
-20.753405000000043
 21
-44.786675000011201
  0
LINE
  8
_0-9_小物
  6
CONTINUOUS
 62
    3
 10
-21.015085000000568
 20
-39.79353000001106
 11
-20.910414999999944
 21
-41.790790000011157
  0
LINE
  8
_0-9_小物
  6
CONTINUOUS
 62
    3
 10
-21.172094999999558
 20
-36.797640000012052
 11
-23.117014999999014
 21
-37.900940000011133
  0
LINE
  8
_0-9_小物
  6
CONTINUOUS
 62
    3
 10
-23.117014999999014
 20
-37.900940000011133
 11
-23.012345000000664
 21
-39.898200000011229
  0
LINE
  8
_0-9_小物
  6
CONTINUOUS
 62
    3
 10
-23.012345000000664
 20
-39.898200000011229
 11
-21.015085000000568
 21
-39.79353000001106
  0
LINE
  8
_0-9_小物
  6
CONTINUOUS
 62
    3
 10
-21.276765000000182
 20
-34.800380000011273
 11
-21.172094999999558
 21
-36.797640000012052
  0
LINE
  8
_0-9_小物
  6
CONTINUOUS
 62
    3
 10
-21.433775000000082
 20
-31.804490000011128
 11
-23.378694999999993
 21
-32.907795000011447
  0
LINE
  8
_0-9_小物
  6
CONTINUOUS
 62
    3
 10
-23.378694999999993
 20
-32.907795000011447
 11
-23.274025000000279
 21
-34.905055000011316
  0
LINE
  8
_0-9_小物
  6
CONTINUOUS
 62
    3
 10
-23.274025000000279
 20
-34.905055000011316
 11
-21.276765000000182
 21
-34.800380000011273
  0
LINE
  8
_0-9_小物
  6
CONTINUOUS
 62
    3
 10
-21.538444999999797
 20
-29.807235000011588
 11
-21.433775000000082
 21
-31.804490000011128
  0
LINE
  8
_0-9_小物
  6
CONTINUOUS
 62
    3
 10
-23.640375000000518
 20
-27.91464500001166
 11
-23.535704999999894
 21
-29.911905000011529
  0
LINE
  8
_0-9_小物
  6
CONTINUOUS
 62
    3
 10
-23.535704999999894
 20
-29.911905000011529
 11
-21.538444999999797
 21
-29.807235000011588
  0
LINE
  8
_0-9_小物
  6
CONTINUOUS
 62
    3
 10
-21.89999999999975
 20
-27.000000000011141
 11
-23.640375000000518
 21
-27.91464500001166
  0
LINE
  8
_0-9_小物
  6
CONTINUOUS
 62
    3
 10
-31.308274999999981
 20
-49.779825000011442
 11
-31.412944999999695
 21
-51.777085000011311
  0
LINE
  8
_0-9_小物
  6
CONTINUOUS
 62
    3
 10
-31.15126500000008
 20
-46.783935000011525
 11
-29.206345000000169
 21
-47.887235000011515
  0
LINE
  8
_0-9_小物
  6
CONTINUOUS
 62
    3
 10
-29.206345000000169
 20
-47.887235000011515
 11
-29.311015000000339
 21
-49.884495000011384
  0
LINE
  8
_0-9_小物
  6
CONTINUOUS
 62
    3
 10
-29.311015000000339
 20
-49.884495000011384
 11
-31.308274999999981
 21
-49.779825000011442
  0
LINE
  8
_0-9_小物
  6
CONTINUOUS
 62
    3
 10
-31.046594999999002
 20
-44.786675000011201
 11
-31.15126500000008
 21
-46.783935000011525
  0
LINE
  8
_0-9_小物
  6
CONTINUOUS
 62
    3
 10
-30.889585000000466
 20
-41.790790000011157
 11
-28.944665000000555
 21
-42.894090000012056
  0
LINE
  8
_0-9_小物
  6
CONTINUOUS
 62
    3
 10
-28.944665000000555
 20
-42.894090000012056
 11
-29.04933499999936
 21
-44.891350000011244
  0
LINE
  8
_0-9_小物
  6
CONTINUOUS
 62
    3
 10
-29.04933499999936
 20
-44.891350000011244
 11
-31.046594999999002
 21
-44.786675000011201
  0
LINE
  8
_0-9_小物
  6
CONTINUOUS
 62
    3
 10
-30.784915000000751
 20
-39.79353000001106
 11
-30.889585000000466
 21
-41.790790000011157
  0
LINE
  8
_0-9_小物
  6
CONTINUOUS
 62
    3
 10
-30.627905000000851
 20
-36.797640000012052
 11
-28.682985000000031
 21
-37.900940000011133
  0
LINE
  8
_0-9_小物
  6
CONTINUOUS
 62
    3
 10
-28.682985000000031
 20
-37.900940000011133
 11
-28.787654999999745
 21
-39.898200000011229
  0
LINE
  8
_0-9_小物
  6
CONTINUOUS
 62
    3
 10
-28.787654999999745
 20
-39.898200000011229
 11
-30.784915000000751
 21
-39.79353000001106
  0
LINE
  8
_0-9_小物
  6
CONTINUOUS
 62
    3
 10
-30.523234999999772
 20
-34.800380000011273
 11
-30.627905000000851
 21
-36.797640000012052
  0
LINE
  8
_0-9_小物
  6
CONTINUOUS
 62
    3
 10
-30.366224999999417
 20
-31.804490000011128
 11
-28.421304999999052
 21
-32.907795000011447
  0
LINE
  8
_0-9_小物
  6
CONTINUOUS
 62
    3
 10
-28.421304999999052
 20
-32.907795000011447
 11
-28.52597500000013
 21
-34.905055000011316
  0
LINE
  8
_0-9_小物
  6
CONTINUOUS
 62
    3
 10
-28.52597500000013
 20
-34.905055000011316
 11
-30.523234999999772
 21
-34.800380000011273
  0
LINE
  8
_0-9_小物
  6
CONTINUOUS
 62
    3
 10
-30.261555000000158
 20
-29.807235000011588
 11
-30.366224999999417
 21
-31.804490000011128
  0
LINE
  8
_0-9_小物
  6
CONTINUOUS
 62
    3
 10
-28.159624999999437
 20
-27.91464500001166
 11
-28.264295000000516
 21
-29.911905000011529
  0
LINE
  8
_0-9_小物
  6
CONTINUOUS
 62
    3
 10
-28.264295000000516
 20
-29.911905000011529
 11
-30.261555000000158
 21
-29.807235000011588
  0
LINE
  8
_0-9_小物
  6
CONTINUOUS
 62
    3
 10
-29.899999999999295
 20
-27.000000000011141
 11
-28.159624999999437
 21
-27.91464500001166
  0
LINE
  8
_0-9_小物
  6
CONTINUOUS
 62
    3
 10
-21.276765000000182
 20
-34.800380000011273
 11
-19.581400000000599
 21
-30.142400000011776
  0
LINE
  8
_0-9_小物
  6
CONTINUOUS
 62
    3
 10
-22.340944999999579
 20
-34.800380000011273
 11
-20.521089999999845
 21
-29.800380000011501
  0
LINE
  8
_0-9_小物
  6
CONTINUOUS
 62
    3
 10
-30.523234999999772
 20
-34.800380000011273
 11
-32.218599999999356
 21
-30.142400000011776
  0
LINE
  8
_0-9_小物
  6
CONTINUOUS
 62
    3
 10
-29.459055000000376
 20
-34.800380000011273
 11
-31.27891000000011
 21
-29.800380000011501
  0
LINE
  8
_0-9_小物
  6
CONTINUOUS
 62
    3
 10
-23.8822550000001
 20
-51.960260000011658
 11
-20.387055000000714
 21
-51.777085000011311
  0
LINE
  8
_0-9_小物
  6
CONTINUOUS
 62
    3
 10
-20.387055000000714
 20
-51.777085000011311
 11
-22.279640000000313
 21
-53.879015000011123
  0
LINE
  8
_0-9_小物
  6
CONTINUOUS
 62
    3
 10
-22.279640000000313
 20
-53.879015000011123
 11
-23.777584999999021
 21
-53.957520000011755
  0
LINE
  8
_0-9_小物
  6
CONTINUOUS
 62
    3
 10
-23.777584999999021
 20
-53.957520000011755
 11
-25.399999999999295
 21
-23.000000000011823
  0
LINE
  8
_0-9_小物
  6
CONTINUOUS
 62
    3
 10
-21.89999999999975
 20
-27.000000000011141
 11
-21.89999999999975
 21
-23.000000000011823
  0
LINE
  8
_0-9_小物
  6
CONTINUOUS
 62
    3
 10
-27.917745000000309
 20
-51.960260000011658
 11
-31.412944999999695
 21
-51.777085000011311
  0
LINE
  8
_0-9_小物
  6
CONTINUOUS
 62
    3
 10
-31.412944999999695
 20
-51.777085000011311
 11
-29.520360000000096
 21
-53.879015000011123
  0
LINE
  8
_0-9_小物
  6
CONTINUOUS
 62
    3
 10
-29.520360000000096
 20
-53.879015000011123
 11
-28.022415000000024
 21
-53.957520000011755
  0
LINE
  8
_0-9_小物
  6
CONTINUOUS
 62
    3
 10
-28.022415000000024
 20
-53.957520000011755
 11
-26.39999999999975
 21
-23.000000000011823
  0
LINE
  8
_0-9_小物
  6
CONTINUOUS
 62
    3
 10
-29.899999999999295
 20
-27.000000000011141
 11
-29.899999999999295
 21
-23.000000000011823
  0
LINE
  8
_0-9_小物
  6
CONTINUOUS
 62
    3
 10
-32.218599999999356
 20
-30.142400000011776
 11
-33.210954999999672
 21
-23.338780000010729
  0
ARC
  8
_0-9_小物
  6
CONTINUOUS
 62
    3
 10
-32.815144999999688
 20
-23.281045000011318
 40
0.4
 50
98.130101999958413
 51
188.29846600001969
  0
LINE
  8
_0-9_小物
  6
CONTINUOUS
 62
    3
 10
-32.87171500000079
 20
-22.885065000011309
 11
-32.674889999999436
 21
-22.856950000011011
  0
ARC
  8
_0-9_小物
  6
CONTINUOUS
 62
    3
 10
-32.618319999999244
 20
-23.252930000011247
 40
0.4
 50
8.1301020000240456
 51
98.130102000220958
  0
LINE
  8
_0-9_小物
  6
CONTINUOUS
 62
    3
 10
-32.222339999999463
 20
-23.196360000011509
 11
-31.27891000000011
 21
-29.800380000011501
  0
LINE
  8
_0-9_小物
  6
CONTINUOUS
 62
    3
 10
-19.581400000000599
 20
-30.142400000011776
 11
-18.589045000000283
 21
-23.338780000010729
  0
ARC
  8
_0-9_小物
  6
CONTINUOUS
 62
    3
 10
-18.984855000000266
 20
-23.281045000011318
 40
0.4
 50
351.70153399996417
 51
81.869898000041587
  0
LINE
  8
_0-9_小物
  6
CONTINUOUS
 62
    3
 10
-18.928290000000402
 20
-22.885065000011309
 11
-19.125110000000518
 21
-22.856950000011011
  0
ARC
  8
_0-9_小物
  6
CONTINUOUS
 62
    3
 10
-19.181679999999346
 20
-23.252930000011247
 40
0.4
 50
81.869898000041587
 51
171.86989800000936
  0
LINE
  8
_0-9_小物
  6
CONTINUOUS
 62
    3
 10
-19.577660000000492
 20
-23.196360000011509
 11
-20.521089999999845
 21
-29.800380000011501
  0
LINE
  8
_0-9_小物
  6
CONTINUOUS
 62
    3
 10
-19.581400000000599
 20
-30.142400000011776
 11
-18.589045000000283
 21
-23.338780000010729
  0
ARC
  8
_0-9_小物
  6
CONTINUOUS
 62
    3
 10
-18.984855000000266
 20
-23.281045000011318
 40
0.4
 50
351.70153399996417
 51
81.869898000041587
  0
LINE
  8
_0-9_小物
  6
CONTINUOUS
 62
    3
 10
-18.928290000000402
 20
-22.885065000011309
 11
-19.125110000000518
 21
-22.856950000011011
  0
ARC
  8
_0-9_小物
  6
CONTINUOUS
 62
    3
 10
-19.181679999999346
 20
-23.252930000011247
 40
0.4
 50
81.869898000041587
 51
171.86989800000936
  0
LINE
  8
_0-9_小物
  6
CONTINUOUS
 62
    3
 10
-19.577660000000492
 20
-23.196360000011509
 11
-20.521089999999845
 21
-29.800380000011501
  0
LINE
  8
_0-9_小物
  6
CONTINUOUS
 62
    3
 10
-20.899999999999295
 20
-15.000000000011141
 11
-21.89999999999975
 21
-20.000000000011141
  0
LINE
  8
_0-9_小物
  6
CONTINUOUS
 62
    3
 10
-21.89999999999975
 20
-15.000000000011141
 11
-21.89999999999975
 21
-23.000000000011823
  0
LINE
  8
_0-9_小物
  6
CONTINUOUS
 62
    3
 10
-25.399999999999295
 20
-23.000000000011823
 11
-25.89999999999884
 21
-23.000000000011823
  0
LINE
  8
_0-9_小物
  6
CONTINUOUS
 62
    3
 10
-25.89999999999884
 20
-20.000000000011141
 11
-25.89999999999884
 21
-15.000000000011141
  0
LINE
  8
_0-9_小物
  6
CONTINUOUS
 62
    3
 10
-24.89999999999975
 20
-15.000000000011141
 11
-25.89999999999884
 21
-20.000000000011141
  0
LINE
  8
_0-9_小物
  6
CONTINUOUS
 62
    3
 10
-26.900000000000205
 20
-15.000000000011141
 11
-25.89999999999884
 21
-20.000000000011141
  0
LINE
  8
_0-9_小物
  6
CONTINUOUS
 62
    3
 10
-30.899999999999295
 20
-15.000000000011141
 11
-29.899999999999295
 21
-20.000000000011141
  0
LINE
  8
_0-9_小物
  6
CONTINUOUS
 62
    3
 10
-29.899999999999295
 20
-15.000000000011141
 11
-29.899999999999295
 21
-23.000000000011823
  0
LINE
  8
_0-9_小物
  6
CONTINUOUS
 62
    3
 10
-26.39999999999975
 20
-23.000000000011823
 11
-25.89999999999884
 21
-23.000000000011823
  0
LINE
  8
_0-9_小物
  6
CONTINUOUS
 62
    3
 10
-20.899999999999295
 20
-15.000000000011141
 11
-30.899999999999295
 21
-15.000000000011141
  0
ENDBLK
  0
BLOCK
  2
-005-_5_
 70
   64
 10
0
 20
0
 30
0
  0
LINE
  8
_0-9_小物
  6
CONTINUOUS
 62
    3
 10
34.508275000000026
 20
-49.779825000011442
 11
34.612944999998376
 21
-51.777085000011311
  0
LINE
  8
_0-9_小物
  6
CONTINUOUS
 62
    3
 10
34.351264999998762
 20
-46.783935000011525
 11
32.406344999999305
 21
-47.887235000011515
  0
LINE
  8
_0-9_小物
  6
CONTINUOUS
 62
    3
 10
32.406344999999305
 20
-47.887235000011515
 11
32.511014999999475
 21
-49.884495000011384
  0
LINE
  8
_0-9_小物
  6
CONTINUOUS
 62
    3
 10
32.511014999999475
 20
-49.884495000011384
 11
34.508275000000026
 21
-49.779825000011442
  0
LINE
  8
_0-9_小物
  6
CONTINUOUS
 62
    3
 10
34.246594999999047
 20
-44.786675000011201
 11
34.351264999998762
 21
-46.783935000011525
  0
LINE
  8
_0-9_小物
  6
CONTINUOUS
 62
    3
 10
34.089584999999147
 20
-41.790790000011157
 11
32.144664999998326
 21
-42.894090000012056
  0
LINE
  8
_0-9_小物
  6
CONTINUOUS
 62
    3
 10
32.144664999998326
 20
-42.894090000012056
 11
32.249334999999405
 21
-44.891350000011244
  0
LINE
  8
_0-9_小物
  6
CONTINUOUS
 62
    3
 10
32.249334999999405
 20
-44.891350000011244
 11
34.246594999999047
 21
-44.786675000011201
  0
LINE
  8
_0-9_小物
  6
CONTINUOUS
 62
    3
 10
33.984914999998523
 20
-39.79353000001106
 11
34.089584999999147
 21
-41.790790000011157
  0
LINE
  8
_0-9_小物
  6
CONTINUOUS
 62
    3
 10
33.827904999999532
 20
-36.797640000012052
 11
31.882985000000076
 21
-37.900940000011133
  0
LINE
  8
_0-9_小物
  6
CONTINUOUS
 62
    3
 10
31.882985000000076
 20
-37.900940000011133
 11
31.987654999998426
 21
-39.898200000011229
  0
LINE
  8
_0-9_小物
  6
CONTINUOUS
 62
    3
 10
31.987654999998426
 20
-39.898200000011229
 11
33.984914999998523
 21
-39.79353000001106
  0
LINE
  8
_0-9_小物
  6
CONTINUOUS
 62
    3
 10
33.723234999998908
 20
-34.800380000011273
 11
33.827904999999532
 21
-36.797640000012052
  0
LINE
  8
_0-9_小物
  6
CONTINUOUS
 62
    3
 10
33.566224999999008
 20
-31.804490000011128
 11
31.621304999999097
 21
-32.907795000011447
  0
LINE
  8
_0-9_小物
  6
CONTINUOUS
 62
    3
 10
31.621304999999097
 20
-32.907795000011447
 11
31.725974999998812
 21
-34.905055000011316
  0
LINE
  8
_0-9_小物
  6
CONTINUOUS
 62
    3
 10
31.725974999998812
 20
-34.905055000011316
 11
33.723234999998908
 21
-34.800380000011273
  0
LINE
  8
_0-9_小物
  6
CONTINUOUS
 62
    3
 10
33.461554999999294
 20
-29.807235000011588
 11
33.566224999999008
 21
-31.804490000011128
  0
LINE
  8
_0-9_小物
  6
CONTINUOUS
 62
    3
 10
31.359624999998573
 20
-27.91464500001166
 11
31.464294999999197
 21
-29.911905000011529
  0
LINE
  8
_0-9_小物
  6
CONTINUOUS
 62
    3
 10
31.464294999999197
 20
-29.911905000011529
 11
33.461554999999294
 21
-29.807235000011588
  0
LINE
  8
_0-9_小物
  6
CONTINUOUS
 62
    3
 10
33.099999999999341
 20
-27.000000000011141
 11
31.359624999998573
 21
-27.91464500001166
  0
LINE
  8
_0-9_小物
  6
CONTINUOUS
 62
    3
 10
23.69172499999911
 20
-49.779825000011442
 11
23.587054999999395
 21
-51.777085000011311
  0
LINE
  8
_0-9_小物
  6
CONTINUOUS
 62
    3
 10
23.84873499999901
 20
-46.783935000011525
 11
25.793654999998921
 21
-47.887235000011515
  0
LINE
  8
_0-9_小物
  6
CONTINUOUS
 62
    3
 10
25.793654999998921
 20
-47.887235000011515
 11
25.688984999998752
 21
-49.884495000011384
  0
LINE
  8
_0-9_小物
  6
CONTINUOUS
 62
    3
 10
25.688984999998752
 20
-49.884495000011384
 11
23.69172499999911
 21
-49.779825000011442
  0
LINE
  8
_0-9_小物
  6
CONTINUOUS
 62
    3
 10
23.953405000000089
 20
-44.786675000011201
 11
23.84873499999901
 21
-46.783935000011525
  0
LINE
  8
_0-9_小物
  6
CONTINUOUS
 62
    3
 10
24.110414999998625
 20
-41.790790000011157
 11
26.055334999998536
 21
-42.894090000012056
  0
LINE
  8
_0-9_小物
  6
CONTINUOUS
 62
    3
 10
26.055334999998536
 20
-42.894090000012056
 11
25.950664999999731
 21
-44.891350000011244
  0
LINE
  8
_0-9_小物
  6
CONTINUOUS
 62
    3
 10
25.950664999999731
 20
-44.891350000011244
 11
23.953405000000089
 21
-44.786675000011201
  0
LINE
  8
_0-9_小物
  6
CONTINUOUS
 62
    3
 10
24.215084999998339
 20
-39.79353000001106
 11
24.110414999998625
 21
-41.790790000011157
  0
LINE
  8
_0-9_小物
  6
CONTINUOUS
 62
    3
 10
24.372094999998239
 20
-36.797640000012052
 11
26.31701499999906
 21
-37.900940000011133
  0
LINE
  8
_0-9_小物
  6
CONTINUOUS
 62
    3
 10
26.31701499999906
 20
-37.900940000011133
 11
26.212344999999345
 21
-39.898200000011229
  0
LINE
  8
_0-9_小物
  6
CONTINUOUS
 62
    3
 10
26.212344999999345
 20
-39.898200000011229
 11
24.215084999998339
 21
-39.79353000001106
  0
LINE
  8
_0-9_小物
  6
CONTINUOUS
 62
    3
 10
24.476764999999318
 20
-34.800380000011273
 11
24.372094999998239
 21
-36.797640000012052
  0
LINE
  8
_0-9_小物
  6
CONTINUOUS
 62
    3
 10
24.633774999999673
 20
-31.804490000011128
 11
26.578695000000039
 21
-32.907795000011447
  0
LINE
  8
_0-9_小物
  6
CONTINUOUS
 62
    3
 10
26.578695000000039
 20
-32.907795000011447
 11
26.47402499999896
 21
-34.905055000011316
  0
LINE
  8
_0-9_小物
  6
CONTINUOUS
 62
    3
 10
26.47402499999896
 20
-34.905055000011316
 11
24.476764999999318
 21
-34.800380000011273
  0
LINE
  8
_0-9_小物
  6
CONTINUOUS
 62
    3
 10
24.738444999998933
 20
-29.807235000011588
 11
24.633774999999673
 21
-31.804490000011128
  0
LINE
  8
_0-9_小物
  6
CONTINUOUS
 62
    3
 10
26.840374999999653
 20
-27.91464500001166
 11
26.735704999998575
 21
-29.911905000011529
  0
LINE
  8
_0-9_小物
  6
CONTINUOUS
 62
    3
 10
26.735704999998575
 20
-29.911905000011529
 11
24.738444999998933
 21
-29.807235000011588
  0
LINE
  8
_0-9_小物
  6
CONTINUOUS
 62
    3
 10
25.099999999999795
 20
-27.000000000011141
 11
26.840374999999653
 21
-27.91464500001166
  0
LINE
  8
_0-9_小物
  6
CONTINUOUS
 62
    3
 10
33.723234999998908
 20
-34.800380000011273
 11
35.418599999998719
 21
-30.142400000011776
  0
LINE
  8
_0-9_小物
  6
CONTINUOUS
 62
    3
 10
32.659054999999512
 20
-34.800380000011273
 11
34.478909999999246
 21
-29.800380000011501
  0
LINE
  8
_0-9_小物
  6
CONTINUOUS
 62
    3
 10
24.476764999999318
 20
-34.800380000011273
 11
22.781399999999735
 21
-30.142400000011776
  0
LINE
  8
_0-9_小物
  6
CONTINUOUS
 62
    3
 10
25.540944999998715
 20
-34.800380000011273
 11
23.721089999998981
 21
-29.800380000011501
  0
LINE
  8
_0-9_小物
  6
CONTINUOUS
 62
    3
 10
31.11774499999899
 20
-51.960260000011658
 11
34.612944999998376
 21
-51.777085000011311
  0
LINE
  8
_0-9_小物
  6
CONTINUOUS
 62
    3
 10
34.612944999998376
 20
-51.777085000011311
 11
32.720359999998777
 21
-53.879015000011123
  0
LINE
  8
_0-9_小物
  6
CONTINUOUS
 62
    3
 10
32.720359999998777
 20
-53.879015000011123
 11
31.222415000000069
 21
-53.957520000011755
  0
LINE
  8
_0-9_小物
  6
CONTINUOUS
 62
    3
 10
31.222415000000069
 20
-53.957520000011755
 11
29.599999999999795
 21
-23.000000000011823
  0
LINE
  8
_0-9_小物
  6
CONTINUOUS
 62
    3
 10
33.099999999999341
 20
-27.000000000011141
 11
33.099999999999341
 21
-23.000000000011823
  0
LINE
  8
_0-9_小物
  6
CONTINUOUS
 62
    3
 10
27.082254999998781
 20
-51.960260000011658
 11
23.587054999999395
 21
-51.777085000011311
  0
LINE
  8
_0-9_小物
  6
CONTINUOUS
 62
    3
 10
23.587054999999395
 20
-51.777085000011311
 11
25.479639999998994
 21
-53.879015000011123
  0
LINE
  8
_0-9_小物
  6
CONTINUOUS
 62
    3
 10
25.479639999998994
 20
-53.879015000011123
 11
26.977584999999067
 21
-53.957520000011755
  0
LINE
  8
_0-9_小物
  6
CONTINUOUS
 62
    3
 10
26.977584999999067
 20
-53.957520000011755
 11
28.599999999999341
 21
-23.000000000011823
  0
LINE
  8
_0-9_小物
  6
CONTINUOUS
 62
    3
 10
25.099999999999795
 20
-27.000000000011141
 11
25.099999999999795
 21
-23.000000000011823
  0
LINE
  8
_0-9_小物
  6
CONTINUOUS
 62
    3
 10
22.781399999999735
 20
-30.142400000011776
 11
21.789044999999419
 21
-23.338780000010729
  0
ARC
  8
_0-9_小物
  6
CONTINUOUS
 62
    3
 10
22.184854999999402
 20
-23.281045000011318
 40
0.4
 50
98.130101999958413
 51
188.29846600001969
  0
LINE
  8
_0-9_小物
  6
CONTINUOUS
 62
    3
 10
22.1282849999983
 20
-22.885065000011309
 11
22.325109999999654
 21
-22.856950000011011
  0
ARC
  8
_0-9_小物
  6
CONTINUOUS
 62
    3
 10
22.381679999999847
 20
-23.252930000011247
 40
0.4
 50
8.1301020000240456
 51
98.130102000220958
  0
LINE
  8
_0-9_小物
  6
CONTINUOUS
 62
    3
 10
22.777659999999628
 20
-23.196360000011509
 11
23.721089999998981
 21
-29.800380000011501
  0
LINE
  8
_0-9_小物
  6
CONTINUOUS
 62
    3
 10
35.418599999998719
 20
-30.142400000011776
 11
36.410954999999035
 21
-23.338780000010729
  0
ARC
  8
_0-9_小物
  6
CONTINUOUS
 62
    3
 10
36.015144999999052
 20
-23.281045000011318
 40
0.4
 50
351.70153399996417
 51
81.869898000041587
  0
LINE
  8
_0-9_小物
  6
CONTINUOUS
 62
    3
 10
36.071709999999143
 20
-22.885065000011309
 11
35.8748899999988
 21
-22.856950000011011
  0
ARC
  8
_0-9_小物
  6
CONTINUOUS
 62
    3
 10
35.818319999999744
 20
-23.252930000011247
 40
0.4
 50
81.869898000041587
 51
171.86989800000936
  0
LINE
  8
_0-9_小物
  6
CONTINUOUS
 62
    3
 10
35.422339999998826
 20
-23.196360000011509
 11
34.478909999999246
 21
-29.800380000011501
  0
LINE
  8
_0-9_小物
  6
CONTINUOUS
 62
    3
 10
35.418599999998719
 20
-30.142400000011776
 11
36.410954999999035
 21
-23.338780000010729
  0
ARC
  8
_0-9_小物
  6
CONTINUOUS
 62
    3
 10
36.015144999999052
 20
-23.281045000011318
 40
0.4
 50
351.70153399996417
 51
81.869898000041587
  0
LINE
  8
_0-9_小物
  6
CONTINUOUS
 62
    3
 10
36.071709999999143
 20
-22.885065000011309
 11
35.8748899999988
 21
-22.856950000011011
  0
ARC
  8
_0-9_小物
  6
CONTINUOUS
 62
    3
 10
35.818319999999744
 20
-23.252930000011247
 40
0.4
 50
81.869898000041587
 51
171.86989800000936
  0
LINE
  8
_0-9_小物
  6
CONTINUOUS
 62
    3
 10
35.422339999998826
 20
-23.196360000011509
 11
34.478909999999246
 21
-29.800380000011501
  0
LINE
  8
_0-9_小物
  6
CONTINUOUS
 62
    3
 10
34.099999999999795
 20
-15.000000000011141
 11
33.099999999999341
 21
-20.000000000011141
  0
LINE
  8
_0-9_小物
  6
CONTINUOUS
 62
    3
 10
33.099999999999341
 20
-15.000000000011141
 11
33.099999999999341
 21
-23.000000000011823
  0
LINE
  8
_0-9_小物
  6
CONTINUOUS
 62
    3
 10
29.599999999999795
 20
-23.000000000011823
 11
29.10000000000025
 21
-23.000000000011823
  0
LINE
  8
_0-9_小物
  6
CONTINUOUS
 62
    3
 10
29.10000000000025
 20
-20.000000000011141
 11
29.10000000000025
 21
-15.000000000011141
  0
LINE
  8
_0-9_小物
  6
CONTINUOUS
 62
    3
 10
30.099999999999341
 20
-15.000000000011141
 11
29.10000000000025
 21
-20.000000000011141
  0
LINE
  8
_0-9_小物
  6
CONTINUOUS
 62
    3
 10
28.099999999998886
 20
-15.000000000011141
 11
29.10000000000025
 21
-20.000000000011141
  0
LINE
  8
_0-9_小物
  6
CONTINUOUS
 62
    3
 10
24.099999999999795
 20
-15.000000000011141
 11
25.099999999999795
 21
-20.000000000011141
  0
LINE
  8
_0-9_小物
  6
CONTINUOUS
 62
    3
 10
25.099999999999795
 20
-15.000000000011141
 11
25.099999999999795
 21
-23.000000000011823
  0
LINE
  8
_0-9_小物
  6
CONTINUOUS
 62
    3
 10
28.599999999999341
 20
-23.000000000011823
 11
29.10000000000025
 21
-23.000000000011823
  0
LINE
  8
_0-9_小物
  6
CONTINUOUS
 62
    3
 10
34.099999999999795
 20
-15.000000000011141
 11
24.099999999999795
 21
-15.000000000011141
  0
ENDBLK
  0
ENDSEC
  0
SECTION
  2
ENTITIES
  0
LINE
  8
_f-0_
  6
CONTINUOUS
 62
    6
 10
19.999999999999943
 20
20.000000000000114
 11
821
 21
20.000000000000114
  0
LINE
  8
_f-0_
  6
CONTINUOUS
 62
    6
 10
19.999999999999943
 20
554.00000000000023
 11
19.999999999999943
 21
20.000000000000114
  0
LINE
  8
_f-0_
  6
CONTINUOUS
 62
    6
 10
821
 20
554.00000000000023
 11
19.999999999999943
 21
554.00000000000023
  0
LINE
  8
_f-0_
  6
CONTINUOUS
 62
    6
 10
821
 20
20.000000000000114
 11
821
 21
554.00000000000023
  0
LINE
  8
_1-0_
  6
CONTINUOUS
 62
    2
 10
718.59999999999968
 20
373.91927353994163
 11
718.59999999999968
 21
336.91927353994174
  0
LINE
  8
_1-0_
  6
CENTER1
 62
    2
 10
728.60000000000002
 20
356.91927353993952
 11
728.60000000000002
 21
336.91927353994174
  0
LINE
  8
_1-f_
  6
CONTINUOUS
 62
    4
 10
801
 20
401.71927353993937
 11
659.20000000000005
 21
401.71927353993937
  0
LINE
  8
_1-f_
  6
CONTINUOUS
 62
    4
 10
801
 20
401.71927353993937
 11
801
 21
314.91927353994174
  0
LINE
  8
_1-f_
  6
CONTINUOUS
 62
    4
 10
659.20000000000005
 20
314.91927353994174
 11
801
 21
314.91927353994174
  0
LINE
  8
_1-f_
  6
CONTINUOUS
 62
    4
 10
659.20000000000005
 20
401.71927353993937
 11
659.20000000000005
 21
314.91927353994174
  0
TEXT
  8
_0-f_寸法
 62
    4
 10
670
 20
293.50000000000011
 40
8
 41
0.8662499999999999
 50
0
  1
ＴＴＫサイドプレート(Ｂ)　(t＝2.5)
  0
TEXT
  8
_0-f_寸法
 62
    4
 10
670
 20
283.50000000000011
 40
8
 41
0.8662499999999999
 50
0
  1
ＴＴＫセンタープレート(Ｂ)　(t＝3.0)
  0
TEXT
  8
_0-f_寸法
 62
    4
 10
670
 20
183.50000000000011
 40
8
 41
0.8662499999999999
 50
0
  1
ステスワッシャー1.5×18×5.5穴
  0
TEXT
  8
_0-f_寸法
 62
    4
 10
670
 20
203.50000000000011
 40
8
 41
0.8662499999999999
 50
0
  1
アンカープラグ(Φ8×40)
  0
TEXT
  8
_0-f_寸法
 62
    4
 10
670
 20
193.50000000000011
 40
8
 41
0.8662499999999999
 50
0
  1
ステンタッピンねじ(なべ5×50)
  0
TEXT
  8
_0-f_寸法
 62
    4
 10
670
 20
213.50000000000011
 40
8
 41
0.8662499999999999
 50
0
  1
ステンドリリングねじ(皿5x19))
  0
TEXT
  8
_0-f_寸法
 62
    4
 10
670
 20
233.50000000000011
 40
8
 41
0.8662499999999999
 50
0
  1
ユカホルダーキャップ
  0
TEXT
  8
_0-f_寸法
 62
    4
 10
670
 20
243.50000000000011
 40
8
 41
0.8662499999999999
 50
0
  1
止水補助板FS400
  0
TEXT
  8
_0-f_寸法
 62
    4
 10
670
 20
253.50000000000011
 40
8
 41
0.8662499999999999
 50
0
  1
ＴＣＧ壁フレーム
  0
TEXT
  8
_0-f_寸法
 62
    4
 10
670
 20
263.50000000000011
 40
8
 41
0.8662499999999999
 50
0
  1
ＴＴＫフレーム(Ｂ)
  0
TEXT
  8
_0-f_寸法
 62
    4
 10
658.07000000000005
 20
293.50000000000011
 40
8
 41
0.8662499999999999
 50
0
  1
 1
  0
TEXT
  8
_0-f_寸法
 62
    4
 10
658.07000000000005
 20
283.50000000000011
 40
8
 41
0.8662499999999999
 50
0
  1
 2
  0
TEXT
  8
_0-f_寸法
 62
    4
 10
658.07000000000005
 20
273.50000000000011
 40
8
 41
0.8662499999999999
 50
0
  1
 3
  0
TEXT
  8
_0-f_寸法
 62
    4
 10
658.07000000000005
 20
263.50000000000011
 40
8
 41
0.8662499999999999
 50
0
  1
 4
  0
TEXT
  8
_0-f_寸法
 62
    4
 10
658.07000000000005
 20
253.50000000000011
 40
8
 41
0.8662499999999999
 50
0
  1
 5
  0
TEXT
  8
_0-f_寸法
 62
    4
 10
658.07000000000005
 20
243.50000000000011
 40
8
 41
0.8662499999999999
 50
0
  1
 6
  0
TEXT
  8
_0-f_寸法
 62
    4
 10
658.07000000000005
 20
233.50000000000011
 40
8
 41
0.8662499999999999
 50
0
  1
 7
  0
TEXT
  8
_0-f_寸法
 62
    4
 10
658.07000000000005
 20
223.50000000000011
 40
8
 41
0.8662499999999999
 50
0
  1
 8
  0
TEXT
  8
_0-f_寸法
 62
    4
 10
658.07000000000005
 20
213.50000000000011
 40
8
 41
0.8662499999999999
 50
0
  1
 9
  0
TEXT
  8
_0-f_寸法
 62
    4
 10
658.07000000000005
 20
203.50000000000011
 40
8
 41
0.8662499999999999
 50
0
  1
10
  0
TEXT
  8
_0-f_寸法
 62
    4
 10
658.07000000000005
 20
193.50000000000011
 40
8
 41
0.8662499999999999
 50
0
  1
11
  0
TEXT
  8
_0-f_寸法
 62
    4
 10
658.07000000000005
 20
183.50000000000011
 40
8
 41
0.8662499999999999
 50
0
  1
12
  0
TEXT
  8
_0-f_寸法
 62
    4
 10
658.07000000000005
 20
173.50000000000011
 40
8
 41
0.8662499999999999
 50
0
  1
◎
  0
TEXT
  8
_0-f_寸法
 62
    4
 10
670
 20
273.50000000000011
 40
8
 41
0.8662499999999999
 50
0
  1
ＴＣＧサイドキャップＡ　(t＝1.5)
  0
TEXT
  8
_0-f_寸法
 62
    4
 10
670
 20
223.50000000000011
 40
8
 41
0.8662499999999999
 50
0
  1
ガスケットＧＮ
  0
TEXT
  8
_0-f_寸法
 62
    4
 10
670
 20
173.50000000000011
 40
8
 41
0.8662499999999999
 50
0
  1
ブチルテープ(ｔ1.0×w30) (6m／巻)
  0
TEXT
  8
_0-f_寸法
 62
    4
 10
658.07000000000005
 20
163.50000000000011
 40
8
 41
0.8662499999999999
 50
0
  1
※
  0
TEXT
  8
_0-f_寸法
 62
    4
 10
670
 20
163.50000000000011
 40
8
 41
0.8662499999999999
 50
0
  1
床仕上材厚さ：3.0㎜
  0
TEXT
  8
_1-f_
 62
    4
 10
704.60000000000002
 20
324.91927353994174
 40
6
 41
1
 50
0
  1
床下地仕上げ寸法
  0
LINE
  8
_0-a_
  6
CONTINUOUS
 62
    3
 10
268.10000000000213
 20
305.40000000001191
 11
268.10000000000213
 21
298.40000000001191
  0
LINE
  8
_0-a_
  6
CONTINUOUS
 62
    3
 10
268.10000000000213
 20
298.40000000001191
 11
270.10000000000213
 21
298.40000000001191
  0
LINE
  8
_0-a_
  6
CONTINUOUS
 62
    3
 10
270.10000000000213
 20
304.40000000001191
 11
270.10000000000213
 21
298.40000000001191
  0
LINE
  8
_0-a_
  6
CONTINUOUS
 62
    3
 10
274.10000000000258
 20
307.40000000001191
 11
412.10000000000207
 21
307.40000000001191
  0
LINE
  8
_0-a_
  6
CONTINUOUS
 62
    3
 10
270.10000000000213
 20
304.40000000001191
 11
298.57711058003031
 21
304.40000000001191
  0
LINE
  8
_0-a_
  6
CONTINUOUS
 62
    3
 10
298.57711058003031
 20
304.40000000001191
 11
416.10000000000207
 21
304.40000000001191
  0
LINE
  8
_0-a_
  6
CONTINUOUS
 62
    3
 10
418.10000000000207
 20
305.40000000000043
 11
418.10000000000207
 21
298.40000000000043
  0
LINE
  8
_0-a_
  6
CONTINUOUS
 62
    3
 10
418.10000000000207
 20
305.40000000000043
 11
418.10000000000207
 21
298.40000000000043
  0
LINE
  8
_0-a_
  6
CONTINUOUS
 62
    3
 10
418.10000000000207
 20
298.40000000000043
 11
416.10000000000207
 21
298.40000000000043
  0
LINE
  8
_0-a_
  6
CONTINUOUS
 62
    3
 10
418.10000000000207
 20
305.40000000000043
 11
418.10000000000207
 21
298.40000000000043
  0
LINE
  8
_0-a_
  6
CONTINUOUS
 62
    3
 10
416.10000000000207
 20
304.40000000000055
 11
416.10000000000207
 21
298.40000000000043
  0
LINE
  8
_0-a_
  6
CONTINUOUS
 62
    3
 10
412.10000000000207
 20
307.40000000000055
 11
412.10000000000207
 21
310.40000000000055
  0
LINE
  8
_0-a_
  6
CONTINUOUS
 62
    3
 10
412.10000000000207
 20
307.40000000000055
 11
388.16623447556674
 21
307.40000000000055
  0
LINE
  8
_0-a_
  6
CONTINUOUS
 62
    3
 10
416.10000000000207
 20
304.40000000000055
 11
387.62288941997429
 21
304.40000000000055
  0
LINE
  8
_0-a_
  6
CONTINUOUS
 62
    3
 10
409.6000000000007
 20
283.59999999998888
 11
409.6000000000007
 21
284.59999999998911
  0
LINE
  8
_0-a_
  6
CONTINUOUS
 62
    3
 10
403.6000000000007
 20
289.59999999998888
 11
385.5999999999998
 21
289.59999999998888
  0
LINE
  8
_0-a_
  6
CONTINUOUS
 62
    3
 10
403.6000000000007
 20
288.09999999998888
 11
385.5999999999998
 21
288.09999999998888
  0
LINE
  8
_0-a_
  6
CONTINUOUS
 62
    3
 10
403.6000000000007
 20
289.59999999998888
 11
403.6000000000007
 21
288.09999999998888
  0
LINE
  8
_0-a_
  6
CONTINUOUS
 62
    3
 10
385.5999999999998
 20
289.59999999998888
 11
385.5999999999998
 21
288.09999999998888
  0
LINE
  8
_0-a_
  6
CONTINUOUS
 62
    3
 10
399.1000000000007
 20
289.59999999998888
 11
398.99108721619984
 21
290.8448788149891
  0
LINE
  8
_0-a_
  6
CONTINUOUS
 62
    3
 10
390.20891278370016
 20
290.8448788149891
 11
390.1000000000007
 21
289.59999999998888
  0
ARC
  8
_0-a_
  6
CONTINUOUS
 62
    3
 10
391.19514553489932
 20
290.75859462968867
 40
0.9899999999999997
 50
127.36755803208473
 51
175.0000000012005
  0
ARC
  8
_0-a_
  6
CONTINUOUS
 62
    3
 10
398.00485446510027
 20
290.75859462968867
 40
0.9899999999999997
 50
4.9999999987995034
 51
52.632441967954776
  0
ARC
  8
_0-a_
  6
CONTINUOUS
 62
    3
 10
394.5999999999998
 20
286.29999999998893
 40
6.5999999999999996
 50
52.632441967704736
 51
68.266383543402242
  0
ARC
  8
_0-a_
  6
CONTINUOUS
 62
    3
 10
394.5999999999998
 20
286.29999999998893
 40
6.5999999999999996
 50
111.74840859090362
 51
127.36755803230515
  0
LINE
  8
_0-a_
  6
CONTINUOUS
 62
    3
 10
394.91499999999985
 20
292.85912712958918
 11
394.91499999999985
 21
292.42331223958865
  0
LINE
  8
_0-a_
  6
CONTINUOUS
 62
    3
 10
395.26228868190117
 20
292.85912712958918
 11
394.91499999999985
 21
292.85912712958918
  0
LINE
  8
_0-a_
  6
CONTINUOUS
 62
    3
 10
397.04250326849967
 20
292.42331223958865
 11
395.26228868190117
 21
292.85912712958918
  0
LINE
  8
_0-a_
  6
CONTINUOUS
 62
    3
 10
393.93771131799974
 20
292.85912712958918
 11
392.6378010502998
 21
292.59369130818925
  0
LINE
  8
_0-a_
  6
CONTINUOUS
 62
    3
 10
392.6378010502998
 20
292.59369130818925
 11
392.15749673140124
 21
292.42331223958865
  0
LINE
  8
_0-a_
  6
CONTINUOUS
 62
    3
 10
394.28499999999974
 20
292.85912712958918
 11
393.93771131799974
 21
292.85912712958918
  0
LINE
  8
_0-a_
  6
CONTINUOUS
 62
    3
 10
394.28499999999974
 20
292.42331223958865
 11
394.28499999999974
 21
292.85912712958918
  0
LINE
  8
_0-a_
  6
CONTINUOUS
 62
    3
 10
394.91499999999985
 20
292.42331223958865
 11
394.5999999999998
 21
292.428417413989
  0
LINE
  8
_0-a_
  6
CONTINUOUS
 62
    3
 10
394.5999999999998
 20
292.428417413989
 11
394.28499999999974
 21
292.42331223958865
  0
LINE
  8
_0-a_
  6
CONTINUOUS
 62
    3
 10
414.90000000000134
 20
288.09999999998888
 11
414.6000000000007
 21
287.79999999998915
  0
LINE
  8
_0-a_
  6
CONTINUOUS
 62
    3
 10
414.6000000000007
 20
287.79999999998915
 11
414.30000000000098
 21
288.09999999998888
  0
LINE
  8
_0-a_
  6
CONTINUOUS
 62
    3
 10
419.90000000000134
 20
288.09999999998888
 11
419.6000000000007
 21
287.79999999998915
  0
LINE
  8
_0-a_
  6
CONTINUOUS
 62
    3
 10
419.6000000000007
 20
287.79999999998915
 11
419.30000000000098
 21
288.09999999998888
  0
LINE
  8
_0-a_
  6
CONTINUOUS
 62
    3
 10
394.90000000000089
 20
288.09999999998888
 11
394.60000000000025
 21
287.79999999998915
  0
LINE
  8
_0-a_
  6
CONTINUOUS
 62
    3
 10
394.60000000000025
 20
287.79999999998915
 11
394.30000000000052
 21
288.09999999998888
  0
LINE
  8
_0-a_
  6
CONTINUOUS
 62
    3
 10
419.30000000000098
 20
288.09999999998888
 11
414.90000000000134
 21
288.09999999998888
  0
LINE
  8
_0-a_
  6
CONTINUOUS
 62
    3
 10
414.30000000000098
 20
288.09999999998888
 11
394.90000000000089
 21
288.09999999998888
  0
LINE
  8
_0-a_
  6
CONTINUOUS
 62
    3
 10
458.5999999999998
 20
288.59999999998865
 11
440.59999999999889
 21
288.59999999998865
  0
LINE
  8
_0-a_
  6
CONTINUOUS
 62
    3
 10
458.5999999999998
 20
287.09999999998865
 11
440.59999999999889
 21
287.09999999998865
  0
LINE
  8
_0-a_
  6
CONTINUOUS
 62
    3
 10
458.5999999999998
 20
288.59999999998865
 11
458.5999999999998
 21
287.09999999998865
  0
LINE
  8
_0-a_
  6
CONTINUOUS
 62
    3
 10
440.59999999999889
 20
288.59999999998865
 11
440.59999999999889
 21
287.09999999998865
  0
LINE
  8
_0-a_
  6
CONTINUOUS
 62
    3
 10
454.0999999999998
 20
288.59999999998865
 11
453.99108721619893
 21
289.84487881498887
  0
LINE
  8
_0-a_
  6
CONTINUOUS
 62
    3
 10
445.20891278369925
 20
289.84487881498887
 11
445.0999999999998
 21
288.59999999998865
  0
ARC
  8
_0-a_
  6
CONTINUOUS
 62
    3
 10
446.19514553489842
 20
289.75859462968867
 40
0.9899999999999997
 50
127.36755803208473
 51
175.0000000012005
  0
ARC
  8
_0-a_
  6
CONTINUOUS
 62
    3
 10
453.00485446509936
 20
289.75859462968867
 40
0.9899999999999997
 50
4.9999999987995034
 51
52.632441967945553
  0
ARC
  8
_0-a_
  6
CONTINUOUS
 62
    3
 10
449.59999999999889
 20
285.2999999999887
 40
6.5999999999999996
 50
52.632441967704736
 51
68.266383543402242
  0
ARC
  8
_0-a_
  6
CONTINUOUS
 62
    3
 10
449.59999999999889
 20
285.2999999999887
 40
6.5999999999999996
 50
111.74840859090271
 51
127.36755803230515
  0
LINE
  8
_0-a_
  6
CONTINUOUS
 62
    3
 10
449.91499999999894
 20
291.85912712958896
 11
449.91499999999894
 21
291.42331223958865
  0
LINE
  8
_0-a_
  6
CONTINUOUS
 62
    3
 10
450.26228868190026
 20
291.85912712958896
 11
449.91499999999894
 21
291.85912712958896
  0
LINE
  8
_0-a_
  6
CONTINUOUS
 62
    3
 10
452.04250326849876
 20
291.42331223958865
 11
450.26228868190026
 21
291.85912712958896
  0
LINE
  8
_0-a_
  6
CONTINUOUS
 62
    3
 10
448.93771131799883
 20
291.85912712958896
 11
447.63780105029889
 21
291.59369130818902
  0
LINE
  8
_0-a_
  6
CONTINUOUS
 62
    3
 10
447.63780105029889
 20
291.59369130818902
 11
447.15749673140033
 21
291.42331223958865
  0
LINE
  8
_0-a_
  6
CONTINUOUS
 62
    3
 10
449.28499999999883
 20
291.85912712958896
 11
448.93771131799883
 21
291.85912712958896
  0
LINE
  8
_0-a_
  6
CONTINUOUS
 62
    3
 10
449.28499999999883
 20
291.42331223958865
 11
449.28499999999883
 21
291.85912712958896
  0
LINE
  8
_0-a_
  6
CONTINUOUS
 62
    3
 10
449.91499999999894
 20
291.42331223958865
 11
449.59999999999889
 21
291.428417413989
  0
LINE
  8
_0-a_
  6
CONTINUOUS
 62
    3
 10
449.59999999999889
 20
291.428417413989
 11
449.28499999999883
 21
291.42331223958865
  0
LINE
  8
_0-a_
  6
CONTINUOUS
 62
    3
 10
429.6000000000007
 20
288.09999999998888
 11
432.1000000000007
 21
287.09999999998911
  0
LINE
  8
_0-a_
  6
CONTINUOUS
 62
    3
 10
449.60000000000116
 20
286.79999999998847
 11
449.30000000000143
 21
287.09999999998911
  0
LINE
  8
_0-a_
  6
CONTINUOUS
 62
    3
 10
449.90000000000089
 20
287.09999999998911
 11
449.60000000000116
 21
286.79999999998847
  0
LINE
  8
_0-a_
  6
CONTINUOUS
 62
    3
 10
449.30000000000143
 20
287.09999999998911
 11
432.1000000000007
 21
287.09999999998911
  0
LINE
  8
_0-a_
  6
CONTINUOUS
 62
    3
 10
458.5999999999998
 20
288.59999999998865
 11
458.5999999999998
 21
287.09999999998865
  0
LINE
  8
_0-a_
  6
CONTINUOUS
 62
    3
 10
473.6000000000007
 20
287.09999999998911
 11
449.90000000000089
 21
287.09999999998911
  0
LINE
  8
_0-a_
  6
CONTINUOUS
 62
    3
 10
429.6000000000007
 20
288.09999999998888
 11
419.90000000000134
 21
288.09999999998888
  0
ARC
  8
_0-a_
  6
CONTINUOUS
 62
    3
 10
355.6000000000007
 20
285.59999999998911
 40
1
 50
180
 51
270
  0
ARC
  8
_0-a_
  6
CONTINUOUS
 62
    3
 10
360.6000000000007
 20
291.09999999998888
 40
3
 50
180
 51
270
  0
LINE
  8
_0-a_
  6
CONTINUOUS
 62
    3
 10
354.6000000000007
 20
296.90000000000066
 11
354.6000000000007
 21
285.59999999998911
  0
LINE
  8
_0-a_
  6
CONTINUOUS
 62
    3
 10
353.09999850000065
 20
301.39999800000089
 11
353.09999850000065
 21
296.40000000000066
  0
LINE
  8
_0-a_
  6
CONTINUOUS
 62
    3
 10
353.09999850000065
 20
296.40000000000066
 11
354.5999985000002
 21
296.40000000000066
  0
LINE
  8
_0-a_
  6
CONTINUOUS
 62
    3
 10
357.59999850000065
 20
296.40000000000066
 11
359.09999850000065
 21
296.40000000000066
  0
LINE
  8
_0-a_
  6
CONTINUOUS
 62
    3
 10
359.09999850000065
 20
296.40000000000066
 11
359.09999850000065
 21
301.39999800000089
  0
ARC
  8
_0-a_
  6
CONTINUOUS
 62
    3
 10
356.0999985000002
 20
301.39999800000089
 40
1.7000010000000001
 50
0
 51
180
  0
ARC
  8
_0-a_
  6
CONTINUOUS
 62
    3
 10
356.0999985000002
 20
301.39999800000089
 40
3
 50
0
 51
180
  0
LINE
  8
_0-a_
  6
CONTINUOUS
 62
    3
 10
357.59999250000089
 20
298.39999800000066
 11
357.35614950000024
 21
298.39999800000066
  0
ARC
  8
_0-a_
  6
CONTINUOUS
 62
    3
 10
357.35614950000024
 20
298.20000000000084
 40
0.200001
 50
90
 51
194.03640199995928
  0
LINE
  8
_0-a_
  6
CONTINUOUS
 62
    3
 10
357.59999850000065
 20
296.40000000000066
 11
357.16212150000035
 21
298.15149300000087
  0
LINE
  8
_0-a_
  6
CONTINUOUS
 62
    3
 10
354.5999985000002
 20
298.39999800000066
 11
354.84384450000005
 21
298.39999800000066
  0
ARC
  8
_0-a_
  6
CONTINUOUS
 62
    3
 10
354.84384450000005
 20
298.20000000000084
 40
0.200001
 50
345.96380799999201
 51
90
  0
LINE
  8
_0-a_
  6
CONTINUOUS
 62
    3
 10
354.6000015000003
 20
296.40000000000066
 11
355.03787250000084
 21
298.15149300000087
  0
LINE
  8
_0-a_
  6
CONTINUOUS
 62
    3
 10
357.59999250000089
 20
298.39999800000066
 11
357.79999350000014
 21
298.39999800000066
  0
LINE
  8
_0-a_
  6
CONTINUOUS
 62
    3
 10
357.79999350000014
 20
298.39999800000066
 11
357.79999950000035
 21
301.39999800000089
  0
LINE
  8
_0-a_
  6
CONTINUOUS
 62
    3
 10
354.6000015000003
 20
298.39999800000066
 11
354.3999975000005
 21
298.39999800000066
  0
LINE
  8
_0-a_
  6
CONTINUOUS
 62
    3
 10
354.3999975000005
 20
298.39999800000066
 11
354.3999975000005
 21
301.39999800000089
  0
LINE
  8
_0-a_
  6
CONTINUOUS
 62
    3
 10
355.10000000000116
 20
298.40000000000066
 11
354.6000000000007
 21
296.40000000000066
  0
LINE
  8
_0-a_
  6
CONTINUOUS
 62
    3
 10
354.6000000000007
 20
298.40000000000066
 11
355.10000000000116
 21
298.40000000000066
  0
LINE
  8
_0-a_
  6
CONTINUOUS
 62
    3
 10
354.6000000000007
 20
301.40000000000066
 11
354.6000000000007
 21
298.40000000000066
  0
ARC
  8
_0-a_
  6
CONTINUOUS
 62
    3
 10
356.1000000000007
 20
301.40000000000066
 40
1.5
 50
0
 51
180
  0
LINE
  8
_0-a_
  6
CONTINUOUS
 62
    3
 10
357.60000000000116
 20
298.40000000000066
 11
357.60000000000116
 21
301.40000000000066
  0
LINE
  8
_0-a_
  6
CONTINUOUS
 62
    3
 10
357.1000000000007
 20
298.40000000000066
 11
357.60000000000116
 21
298.40000000000066
  0
LINE
  8
_0-a_
  6
CONTINUOUS
 62
    3
 10
357.60000000000116
 20
296.40000000000066
 11
357.1000000000007
 21
298.40000000000066
  0
LINE
  8
_0-a_
  6
CONTINUOUS
 62
    3
 10
357.60000000000116
 20
290.59999999998888
 11
357.60000000000116
 21
296.40000000000066
  0
LINE
  8
_0-a_
  6
CONTINUOUS
 62
    3
 10
394.30000000000052
 20
288.09999999998888
 11
360.6000000000007
 21
288.09999999998888
  0
LINE
  8
_0-a_
  6
CONTINUOUS
 62
    3
 10
355.6000000000007
 20
284.59999999998911
 11
409.6000000000007
 21
284.59999999998911
  0
LINE
  8
_0-a_
  6
CONTINUOUS
 62
    3
 10
354.6000000000007
 20
310.09999999998911
 11
463.1000000000007
 21
310.09999999998911
  0
LINE
  8
_0-a_
  6
CONTINUOUS
 62
    3
 10
418.10000000000207
 20
305.40000000000043
 11
418.10000000000207
 21
298.40000000000043
  0
LINE
  8
_0-a_
  6
CONTINUOUS
 62
    3
 10
418.10000000000207
 20
305.40000000000043
 11
418.10000000000207
 21
298.40000000000043
  0
LINE
  8
_0-a_
  6
CONTINUOUS
 62
    3
 10
418.10000000000207
 20
298.40000000000043
 11
416.10000000000207
 21
298.40000000000043
  0
LINE
  8
_0-a_
  6
CONTINUOUS
 62
    3
 10
418.10000000000207
 20
305.40000000000043
 11
418.10000000000207
 21
298.40000000000043
  0
LINE
  8
_0-a_
  6
CONTINUOUS
 62
    3
 10
412.10000000000207
 20
307.40000000000055
 11
412.10000000000207
 21
310.40000000000055
  0
LINE
  8
_0-a_
  6
CONTINUOUS
 62
    3
 10
416.10000000000207
 20
304.40000000000055
 11
416.10000000000207
 21
298.40000000000043
  0
LINE
  8
_0-a_
  6
CONTINUOUS
 62
    3
 10
414.10000000000252
 20
310.10000000000048
 11
412.10000000000207
 21
310.10000000000048
  0
LINE
  8
_0-a_
  6
CONTINUOUS
 62
    3
 10
414.10000000000252
 20
310.10000000000048
 11
418.10000000000207
 21
305.40000000000043
  0
LINE
  8
_0-a_
  6
CONTINUOUS
 62
    3
 10
274.10000000000258
 20
310.40000000001191
 11
412.10000000000207
 21
310.40000000001191
  0
LINE
  8
_0-a_
  6
CONTINUOUS
 62
    3
 10
268.10000000000213
 20
305.40000000001191
 11
268.10000000000213
 21
298.40000000001191
  0
LINE
  8
_0-a_
  6
CONTINUOUS
 62
    3
 10
268.10000000000213
 20
298.40000000001191
 11
270.10000000000213
 21
298.40000000001191
  0
LINE
  8
_0-a_
  6
CONTINUOUS
 62
    3
 10
268.10000000000213
 20
305.40000000001191
 11
268.10000000000213
 21
298.40000000001191
  0
LINE
  8
_0-a_
  6
CONTINUOUS
 62
    3
 10
270.10000000000213
 20
304.40000000001191
 11
270.10000000000213
 21
298.40000000001191
  0
LINE
  8
_0-a_
  6
CONTINUOUS
 62
    3
 10
274.10000000000258
 20
310.10000000000059
 11
272.10000000000213
 21
310.10000000000059
  0
LINE
  8
_0-a_
  6
CONTINUOUS
 62
    3
 10
272.10000000000213
 20
310.10000000000059
 11
268.10000000000213
 21
305.40000000001191
  0
ARC
  8
_0-a_
  6
CONTINUOUS
 62
    3
 10
362.6000000000007
 20
315.59999999998911
 40
1
 50
0
 51
90
  0
LINE
  8
_0-a_
  6
CONTINUOUS
 62
    3
 10
363.6000000000007
 20
315.59999999998911
 11
363.6000000000007
 21
312.59999999998911
  0
ARC
  8
_0-a_
  6
CONTINUOUS
 62
    3
 10
362.6000000000007
 20
315.59999999998911
 40
1
 50
0
 51
90
  0
LINE
  8
_0-a_
  6
CONTINUOUS
 62
    3
 10
354.6000000000007
 20
310.09999999998922
 11
354.6000000000007
 21
312.09999999998911
  0
LINE
  8
_0-a_
  6
CONTINUOUS
 62
    3
 10
362.30000000000052
 20
316.59999999998911
 11
354.6000000000007
 21
312.09999999998911
  0
LINE
  8
_0-a_
  6
CONTINUOUS
 62
    3
 10
354.6000000000007
 20
310.09999999998922
 11
354.6000000000007
 21
312.09999999998911
  0
ARC
  8
_0-a_
  6
CONTINUOUS
 62
    3
 10
362.6000000000007
 20
315.59999999998911
 40
1
 50
0
 51
90
  0
LINE
  8
_0-a_
  6
CONTINUOUS
 62
    3
 10
354.6000000000007
 20
310.09999999998922
 11
354.6000000000007
 21
312.09999999998911
  0
LINE
  8
_0-a_
  6
CONTINUOUS
 62
    3
 10
363.6000000000007
 20
315.59999999998911
 11
363.6000000000007
 21
312.59999999998911
  0
LINE
  8
_0-a_
  6
CONTINUOUS
 62
    3
 10
363.6000000000007
 20
315.59999999998911
 11
363.6000000000007
 21
312.59999999998911
  0
LINE
  8
_0-a_
  6
CONTINUOUS
 62
    3
 10
354.6000000000007
 20
310.09999999998922
 11
354.6000000000007
 21
312.09999999998911
  0
ARC
  8
_0-a_
  6
CONTINUOUS
 62
    3
 10
362.6000000000007
 20
315.59999999998911
 40
1
 50
0
 51
90
  0
LINE
  8
_0-a_
  6
CONTINUOUS
 62
    3
 10
362.30000000000052
 20
316.59999999998911
 11
362.6000000000007
 21
316.59999999998911
  0
LINE
  8
_0-a_
  6
CONTINUOUS
 62
    3
 10
362.6000000000007
 20
316.59999999998911
 11
362.30000000000052
 21
316.59999999998911
  0
LINE
  8
_0-a_
  6
CONTINUOUS
 62
    3
 10
362.30000000000052
 20
316.59999999998911
 11
362.6000000000007
 21
316.59999999998911
  0
ARC
  8
_0-a_
  6
CONTINUOUS
 62
    3
 10
473.1000000000007
 20
289.09999999998865
 40
2
 50
270
 51
0
  0
LINE
  8
_0-a_
  6
CONTINUOUS
 62
    3
 10
477.6000000000007
 20
284.59999999998865
 11
477.6000000000007
 21
283.59999999998865
  0
LINE
  8
_0-a_
  6
CONTINUOUS
 62
    3
 10
462.6000000000007
 20
316.09999999998888
 11
462.6000000000007
 21
312.599999999989
  0
LINE
  8
_0-a_
  6
CONTINUOUS
 62
    3
 10
479.59999999999957
 20
315.59999999998888
 11
511.24421325665764
 21
315.59999999998888
  0
LINE
  8
_0-a_
  6
CONTINUOUS
 62
    3
 10
474.10000000000025
 20
308.599999999989
 11
470.40000000000043
 21
308.599999999989
  0
LINE
  8
_0-a_
  6
CONTINUOUS
 62
    3
 10
469.79999999999961
 20
308.599999999989
 11
466.10000000000025
 21
308.599999999989
  0
LINE
  8
_0-a_
  6
CONTINUOUS
 62
    3
 10
464.60000000000025
 20
306.09999999998911
 11
474.10000000000025
 21
306.09999999998911
  0
LINE
  8
_0-a_
  6
CONTINUOUS
 62
    3
 10
462.6000000000007
 20
310.099999999989
 11
462.6000000000007
 21
308.099999999989
  0
ARC
  8
_0-a_
  6
CONTINUOUS
 62
    3
 10
464.60000000000025
 20
308.099999999989
 40
2
 50
180
 51
270
  0
ARC
  8
_0-a_
  6
CONTINUOUS
 62
    3
 10
474.10000000000025
 20
305.099999999989
 40
1
 50
0
 51
90
  0
ARC
  8
_0-a_
  6
CONTINUOUS
 62
    3
 10
464.60000000000025
 20
308.099999999989
 40
2
 50
180
 51
270
  0
LINE
  8
_0-a_
  6
CONTINUOUS
 62
    3
 10
466.10000000000025
 20
310.099999999989
 11
462.6000000000007
 21
310.099999999989
  0
LINE
  8
_0-a_
  6
CONTINUOUS
 62
    3
 10
477.60000000000025
 20
305.599999999989
 11
477.60000000000025
 21
309.43157694658976
  0
LINE
  8
_0-a_
  6
CONTINUOUS
 62
    3
 10
477.6000000000007
 20
305.599999999989
 11
477.6000000000007
 21
310.099999999989
  0
LINE
  8
_0-a_
  6
CONTINUOUS
 62
    3
 10
480.10000000000048
 20
305.099999999989
 11
478.10000000000025
 21
305.099999999989
  0
ARC
  8
_0-a_
  6
CONTINUOUS
 62
    3
 10
478.60000000000025
 20
302.599999999989
 40
1
 50
90
 51
180
  0
LINE
  8
_0-a_
  6
CONTINUOUS
 62
    3
 10
478.60000000000025
 20
303.599999999989
 11
481.10000000000025
 21
303.599999999989
  0
ARC
  8
_0-a_
  6
CONTINUOUS
 62
    3
 10
481.10000000000025
 20
304.099999999989
 40
0.5
 50
270
 51
0
  0
ARC
  8
_0-a_
  6
CONTINUOUS
 62
    3
 10
480.85000000000025
 20
311.849999999989
 40
0.75
 50
0
 51
180
  0
ARC
  8
_0-a_
  6
CONTINUOUS
 62
    3
 10
478.10000000000025
 20
305.599999999989
 40
0.5
 50
180
 51
270
  0
LINE
  8
_0-a_
  6
CONTINUOUS
 62
    3
 10
480.10000000000048
 20
311.849999999989
 11
480.10000000000048
 21
305.099999999989
  0
LINE
  8
_0-a_
  6
CONTINUOUS
 62
    3
 10
477.6000000000007
 20
305.62598353495105
 11
477.6000000000007
 21
307.60000000000025
  0
LINE
  8
_0-a_
  6
CONTINUOUS
 62
    3
 10
474.10000000000025
 20
314.099999999989
 11
466.10000000000025
 21
314.099999999989
  0
LINE
  8
_0-a_
  6
CONTINUOUS
 62
    3
 10
466.10000000000025
 20
308.599999999989
 11
466.10000000000025
 21
314.099999999989
  0
LINE
  8
_0-a_
  6
CONTINUOUS
 62
    3
 10
472.85000000000025
 20
314.09999999998888
 11
467.35000000000025
 21
314.09999999998888
  0
LINE
  8
_0-a_
  6
CONTINUOUS
 62
    3
 10
475.10000000000025
 20
316.89999999998895
 11
471.99999999999989
 21
313.79999999998904
  0
LINE
  8
_0-a_
  6
CONTINUOUS
 62
    3
 10
465.10000000000025
 20
316.89999999998895
 11
468.20000000000061
 21
313.79999999998904
  0
LINE
  8
_0-a_
  6
CONTINUOUS
 62
    3
 10
475.10000000000025
 20
317.09999999998888
 11
475.10000000000025
 21
316.89999999998895
  0
LINE
  8
_0-a_
  6
CONTINUOUS
 62
    3
 10
475.10000000000025
 20
316.89999999998895
 11
465.10000000000025
 21
316.89999999998895
  0
LINE
  8
_0-a_
  6
CONTINUOUS
 62
    3
 10
465.10000000000025
 20
317.09999999998888
 11
465.10000000000025
 21
316.89999999998895
  0
LINE
  8
_0-a_
  6
CONTINUOUS
 62
    3
 10
472.85000000000025
 20
314.599999999989
 11
472.85000000000025
 21
314.09999999998888
  0
LINE
  8
_0-a_
  6
CONTINUOUS
 62
    3
 10
467.35000000000025
 20
314.599999999989
 11
467.35000000000025
 21
314.09999999998888
  0
LINE
  8
_0-a_
  6
CONTINUOUS
 62
    3
 10
467.35000000000025
 20
314.599999999989
 11
472.85000000000025
 21
314.599999999989
  0
LINE
  8
_0-a_
  6
CONTINUOUS
 62
    3
 10
470.40000000000043
 20
317.09999999998888
 11
470.0999999999998
 21
316.7999999999887
  0
LINE
  8
_0-a_
  6
CONTINUOUS
 62
    3
 10
470.0999999999998
 20
316.7999999999887
 11
469.80000000000007
 21
317.09999999998888
  0
LINE
  8
_0-a_
  6
CONTINUOUS
 62
    3
 10
475.10000000000025
 20
317.09999999998888
 11
465.10000000000025
 21
317.09999999998888
  0
LINE
  8
_0-a_
  6
CONTINUOUS
 62
    3
 10
481.60000000000048
 20
304.099999999989
 11
481.60000000000048
 21
311.849999999989
  0
ARC
  8
_0-a_
  6
CONTINUOUS
 62
    3
 10
463.6000000000007
 20
316.09999999998888
 40
1
 50
90
 51
180
  0
LINE
  8
_0-a_
  6
CONTINUOUS
 62
    3
 10
484.59119843520932
 20
315.59999999998888
 11
480.59999999999957
 21
315.59999999998888
  0
LINE
  8
_0-a_
  6
CONTINUOUS
 62
    3
 10
463.6000000000007
 20
317.09999999998888
 11
479.59999999999957
 21
317.09999999998888
  0
LINE
  8
_0-a_
  6
CONTINUOUS
 62
    3
 10
491.60000000000025
 20
312.599999999989
 11
511.24421325665764
 21
312.599999999989
  0
LINE
  8
_0-a_
  6
CONTINUOUS
 62
    3
 10
486.19807621135362
 20
312.59999999998888
 11
511.24421325665764
 21
312.59999999998888
  0
LINE
  8
_0-a_
  6
CONTINUOUS
 62
    3
 10
481.6000000000007
 20
304.099999999989
 11
481.6000000000007
 21
311.849999999989
  0
LINE
  8
_0-a_
  6
CONTINUOUS
 62
    3
 10
481.6000000000007
 20
311.849999999989
 11
481.6000000000007
 21
312.59999999998888
  0
LINE
  8
_0-a_
  6
CONTINUOUS
 62
    3
 10
479.60000000001207
 20
317.09999999998888
 11
488.09999999999957
 21
317.09999999998888
  0
LINE
  8
_0-a_
  6
CONTINUOUS
 62
    3
 10
474.10000000000025
 20
310.099999999989
 11
474.10000000000025
 21
308.599999999989
  0
ARC
  8
_0-a_
  6
CONTINUOUS
 62
    3
 10
479.09999999999957
 20
307.099999999989
 40
0.5
 50
270
 51
0
  0
LINE
  8
_0-a_
  6
CONTINUOUS
 62
    3
 10
478.10000000000048
 20
306.59999999998911
 11
479.09999999999957
 21
306.59999999998911
  0
ARC
  8
_0-a_
  6
CONTINUOUS
 62
    3
 10
478.10000000000048
 20
307.099999999989
 40
0.5
 50
180
 51
270
  0
LINE
  8
_0-a_
  6
CONTINUOUS
 62
    3
 10
479.59999999999957
 20
307.099999999989
 11
479.59999999999957
 21
315.59999999998888
  0
LINE
  8
_0-a_
  6
CONTINUOUS
 62
    3
 10
474.10000000000025
 20
314.099999999989
 11
474.10000000000025
 21
310.099999999989
  0
LINE
  8
_0-a_
  6
CONTINUOUS
 62
    3
 10
477.60000000000002
 20
310.099999999989
 11
477.60000000000002
 21
306.599999999989
  0
LINE
  8
_0-a_
  6
CONTINUOUS
 62
    3
 10
474.10000000000025
 20
310.099999999989
 11
477.60000000000002
 21
310.099999999989
  0
LINE
  8
_0-a_
  6
CONTINUOUS
 62
    3
 10
477.6000000000007
 20
284.59999999998865
 11
477.6000000000007
 21
302.599999999989
  0
LINE
  8
_0-a_
  6
CONTINUOUS
 62
    3
 10
477.6000000000007
 20
284.59999999998865
 11
477.6000000000007
 21
302.599999999989
  0
LINE
  8
_0-a_
  6
CONTINUOUS
 62
    3
 10
475.10000000000093
 20
305.099999999989
 11
475.10000000000093
 21
289.09999999998865
  0
LINE
  8
_0-a_
  6
CONTINUOUS
 62
    3
 10
475.09999999999957
 20
305.099999999989
 11
475.09999999999957
 21
289.09999999998865
  0
LINE
  8
_0-a_
  6
CONTINUOUS
 62
    3
 10
470.40000000000043
 20
308.599999999989
 11
470.1000000000007
 21
308.29999999998927
  0
LINE
  8
_0-a_
  6
CONTINUOUS
 62
    3
 10
470.1000000000007
 20
308.29999999998927
 11
469.79999999999961
 21
308.599999999989
  0
LINE
  8
_0-a_
  6
CONTINUOUS
 62
    3
 10
471.8500000000007
 20
304.79999999998893
 11
471.8500000000007
 21
299.45677313258443
  0
LINE
  8
_0-a_
  6
CONTINUOUS
 62
    3
 10
471.89000000000067
 20
309.60301343866183
 11
471.89000000000067
 21
308.8073817193316
  0
LINE
  8
_0-a_
  6
CONTINUOUS
 62
    3
 10
471.89000000000067
 20
308.10301343866183
 11
471.89000000000067
 21
307.3073817193316
  0
LINE
  8
_0-a_
  6
CONTINUOUS
 62
    3
 10
471.89000000000067
 20
306.60301343866183
 11
471.89000000000067
 21
304.79999999998893
  0
LINE
  8
_0-a_
  6
CONTINUOUS
 62
    3
 10
471.89000000000067
 20
310.79999999998893
 11
471.89000000000067
 21
310.3073817193316
  0
LINE
  8
_0-a_
  6
CONTINUOUS
 62
    3
 10
468.31000000000029
 20
305.29999999998881
 11
468.31000000000029
 21
304.79999999998893
  0
LINE
  8
_0-a_
  6
CONTINUOUS
 62
    3
 10
468.31000000000029
 20
306.79999999998881
 11
468.31000000000029
 21
306.0043682806587
  0
LINE
  8
_0-a_
  6
CONTINUOUS
 62
    3
 10
468.31000000000029
 20
308.29999999998881
 11
468.31000000000029
 21
307.5043682806587
  0
LINE
  8
_0-a_
  6
CONTINUOUS
 62
    3
 10
468.31000000000029
 20
309.79999999998881
 11
468.31000000000029
 21
309.0043682806587
  0
LINE
  8
_0-a_
  6
CONTINUOUS
 62
    3
 10
468.31000000000029
 20
310.79999999998893
 11
468.31000000000029
 21
310.5043682806587
  0
LINE
  8
_0-a_
  6
CONTINUOUS
 62
    3
 10
470.10000000000025
 20
310.80369085966026
 11
467.70000000000016
 21
310.1521841403237
  0
LINE
  8
_0-a_
  6
CONTINUOUS
 62
    3
 10
468.31000000000029
 20
309.79999999998881
 11
470.10000000000025
 21
310.45150671932538
  0
LINE
  8
_0-a_
  6
CONTINUOUS
 62
    3
 10
468.31000000000029
 20
310.5043682806587
 11
469.12224147333461
 21
310.79999999998893
  0
LINE
  8
_0-a_
  6
CONTINUOUS
 62
    3
 10
472.15000000000043
 20
304.79999999998893
 11
472.15000000000043
 21
299.2835680518275
  0
LINE
  8
_0-a_
  6
CONTINUOUS
 62
    3
 10
472.15000000000043
 20
304.79999999998893
 11
468.05000000000052
 21
304.79999999998893
  0
LINE
  8
_0-a_
  6
CONTINUOUS
 62
    3
 10
468.05000000000052
 20
304.79999999998893
 11
468.05000000000052
 21
299.2835680518275
  0
LINE
  8
_0-a_
  6
CONTINUOUS
 62
    3
 10
467.70000000000016
 20
310.1521841403237
 11
468.31000000000029
 21
310.5043682806587
  0
LINE
  8
_0-a_
  6
CONTINUOUS
 62
    3
 10
468.31000000000029
 20
309.79999999998881
 11
467.70000000000016
 21
310.1521841403237
  0
LINE
  8
_0-a_
  6
CONTINUOUS
 62
    3
 10
472.5000000000008
 20
309.95519757899672
 11
467.70000000000016
 21
308.6521841403237
  0
LINE
  8
_0-a_
  6
CONTINUOUS
 62
    3
 10
468.31000000000029
 20
308.29999999998881
 11
471.89000000000067
 21
309.60301343866183
  0
LINE
  8
_0-a_
  6
CONTINUOUS
 62
    3
 10
468.31000000000029
 20
309.0043682806587
 11
471.89000000000067
 21
310.3073817193316
  0
LINE
  8
_0-a_
  6
CONTINUOUS
 62
    3
 10
467.70000000000016
 20
308.6521841403237
 11
468.31000000000029
 21
309.0043682806587
  0
LINE
  8
_0-a_
  6
CONTINUOUS
 62
    3
 10
468.31000000000029
 20
308.29999999998881
 11
467.70000000000016
 21
308.6521841403237
  0
LINE
  8
_0-a_
  6
CONTINUOUS
 62
    3
 10
472.5000000000008
 20
309.95519757899672
 11
471.89000000000067
 21
309.60301343866183
  0
LINE
  8
_0-a_
  6
CONTINUOUS
 62
    3
 10
471.89000000000067
 20
310.3073817193316
 11
472.5000000000008
 21
309.95519757899672
  0
LINE
  8
_0-a_
  6
CONTINUOUS
 62
    3
 10
472.5000000000008
 20
308.45519757899672
 11
467.70000000000016
 21
307.1521841403237
  0
LINE
  8
_0-a_
  6
CONTINUOUS
 62
    3
 10
468.31000000000029
 20
306.79999999998881
 11
471.89000000000067
 21
308.10301343866183
  0
LINE
  8
_0-a_
  6
CONTINUOUS
 62
    3
 10
468.31000000000029
 20
307.5043682806587
 11
471.89000000000067
 21
308.8073817193316
  0
LINE
  8
_0-a_
  6
CONTINUOUS
 62
    3
 10
467.70000000000016
 20
307.1521841403237
 11
468.31000000000029
 21
307.5043682806587
  0
LINE
  8
_0-a_
  6
CONTINUOUS
 62
    3
 10
468.31000000000029
 20
306.79999999998881
 11
467.70000000000016
 21
307.1521841403237
  0
LINE
  8
_0-a_
  6
CONTINUOUS
 62
    3
 10
472.5000000000008
 20
308.45519757899672
 11
471.89000000000067
 21
308.10301343866183
  0
LINE
  8
_0-a_
  6
CONTINUOUS
 62
    3
 10
471.89000000000067
 20
308.8073817193316
 11
472.5000000000008
 21
308.45519757899672
  0
LINE
  8
_0-a_
  6
CONTINUOUS
 62
    3
 10
472.5000000000008
 20
306.95519757899672
 11
467.70000000000016
 21
305.6521841403237
  0
LINE
  8
_0-a_
  6
CONTINUOUS
 62
    3
 10
468.31000000000029
 20
305.29999999998881
 11
471.89000000000067
 21
306.60301343866183
  0
LINE
  8
_0-a_
  6
CONTINUOUS
 62
    3
 10
468.31000000000029
 20
306.0043682806587
 11
471.89000000000067
 21
307.3073817193316
  0
LINE
  8
_0-a_
  6
CONTINUOUS
 62
    3
 10
467.70000000000016
 20
305.6521841403237
 11
468.31000000000029
 21
306.0043682806587
  0
LINE
  8
_0-a_
  6
CONTINUOUS
 62
    3
 10
468.31000000000029
 20
305.29999999998881
 11
467.70000000000016
 21
305.6521841403237
  0
LINE
  8
_0-a_
  6
CONTINUOUS
 62
    3
 10
472.5000000000008
 20
306.95519757899672
 11
471.89000000000067
 21
306.60301343866183
  0
LINE
  8
_0-a_
  6
CONTINUOUS
 62
    3
 10
471.89000000000067
 20
307.3073817193316
 11
472.5000000000008
 21
306.95519757899672
  0
LINE
  8
_0-a_
  6
CONTINUOUS
 62
    3
 10
470.10000000000025
 20
298.44641016150274
 11
468.97969068712007
 21
304.79999999998893
  0
LINE
  8
_0-a_
  6
CONTINUOUS
 62
    3
 10
470.10000000000025
 20
298.44641016150274
 11
468.35000000000025
 21
299.45677313258443
  0
LINE
  8
_0-a_
  6
CONTINUOUS
 62
    3
 10
468.35000000000025
 20
304.79999999998893
 11
468.35000000000025
 21
299.45677313258443
  0
LINE
  8
_0-a_
  6
CONTINUOUS
 62
    3
 10
471.89000000000067
 20
305.29999999998881
 11
471.89000000000067
 21
304.79999999998893
  0
LINE
  8
_0-a_
  6
CONTINUOUS
 62
    3
 10
468.05000000000052
 20
304.79999999998893
 11
468.05000000000052
 21
299.2835680518275
  0
LINE
  8
_0-a_
  6
CONTINUOUS
 62
    3
 10
468.05000000000052
 20
304.79999999998893
 11
472.15000000000043
 21
304.79999999998893
  0
LINE
  8
_0-a_
  6
CONTINUOUS
 62
    3
 10
472.15000000000043
 20
304.79999999998893
 11
472.15000000000043
 21
299.2835680518275
  0
LINE
  8
_0-a_
  6
CONTINUOUS
 62
    3
 10
470.10000000000025
 20
298.09999999998888
 11
468.05000000000052
 21
299.2835680518275
  0
LINE
  8
_0-a_
  6
CONTINUOUS
 62
    3
 10
470.10000000000025
 20
298.09999999998888
 11
472.15000000000043
 21
299.2835680518275
  0
LINE
  8
_0-a_
  6
CONTINUOUS
 62
    3
 10
471.99999999999989
 20
313.79999999998893
 11
468.20000000000061
 21
313.79999999998893
  0
LINE
  8
_0-a_
  6
CONTINUOUS
 62
    3
 10
471.89000000000067
 20
312.60301343866183
 11
471.89000000000067
 21
311.8073817193316
  0
LINE
  8
_0-a_
  6
CONTINUOUS
 62
    3
 10
471.89000000000067
 20
311.10301343866183
 11
471.89000000000067
 21
310.3073817193316
  0
LINE
  8
_0-a_
  6
CONTINUOUS
 62
    3
 10
471.89000000000067
 20
313.79999999998893
 11
471.89000000000067
 21
313.3073817193316
  0
LINE
  8
_0-a_
  6
CONTINUOUS
 62
    3
 10
468.31000000000029
 20
311.29999999998881
 11
468.31000000000029
 21
310.5043682806587
  0
LINE
  8
_0-a_
  6
CONTINUOUS
 62
    3
 10
468.31000000000029
 20
312.79999999998881
 11
468.31000000000029
 21
312.0043682806587
  0
LINE
  8
_0-a_
  6
CONTINUOUS
 62
    3
 10
468.31000000000029
 20
313.79999999998893
 11
468.31000000000029
 21
313.5043682806587
  0
LINE
  8
_0-a_
  6
CONTINUOUS
 62
    3
 10
470.10000000000025
 20
313.80369085966026
 11
467.70000000000016
 21
313.1521841403237
  0
LINE
  8
_0-a_
  6
CONTINUOUS
 62
    3
 10
468.31000000000029
 20
313.5043682806587
 11
469.12224147333461
 21
313.79999999998893
  0
LINE
  8
_0-a_
  6
CONTINUOUS
 62
    3
 10
467.70000000000016
 20
313.1521841403237
 11
468.31000000000029
 21
313.5043682806587
  0
LINE
  8
_0-a_
  6
CONTINUOUS
 62
    3
 10
468.31000000000029
 20
312.79999999998881
 11
467.70000000000016
 21
313.1521841403237
  0
LINE
  8
_0-a_
  6
CONTINUOUS
 62
    3
 10
472.5000000000008
 20
312.95519757899672
 11
467.70000000000016
 21
311.6521841403237
  0
LINE
  8
_0-a_
  6
CONTINUOUS
 62
    3
 10
468.31000000000029
 20
311.29999999998881
 11
471.89000000000067
 21
312.60301343866183
  0
LINE
  8
_0-a_
  6
CONTINUOUS
 62
    3
 10
468.31000000000029
 20
312.0043682806587
 11
471.89000000000067
 21
313.3073817193316
  0
LINE
  8
_0-a_
  6
CONTINUOUS
 62
    3
 10
467.70000000000016
 20
311.6521841403237
 11
468.31000000000029
 21
312.0043682806587
  0
LINE
  8
_0-a_
  6
CONTINUOUS
 62
    3
 10
468.31000000000029
 20
311.29999999998881
 11
467.70000000000016
 21
311.6521841403237
  0
LINE
  8
_0-a_
  6
CONTINUOUS
 62
    3
 10
472.5000000000008
 20
312.95519757899672
 11
471.89000000000067
 21
312.60301343866183
  0
LINE
  8
_0-a_
  6
CONTINUOUS
 62
    3
 10
471.89000000000067
 20
313.3073817193316
 11
472.5000000000008
 21
312.95519757899672
  0
LINE
  8
_0-a_
  6
CONTINUOUS
 62
    3
 10
472.5000000000008
 20
311.45519757899672
 11
467.70000000000016
 21
310.1521841403237
  0
LINE
  8
_0-a_
  6
CONTINUOUS
 62
    3
 10
468.31000000000029
 20
309.79999999998881
 11
471.89000000000067
 21
311.10301343866183
  0
LINE
  8
_0-a_
  6
CONTINUOUS
 62
    3
 10
468.31000000000029
 20
310.5043682806587
 11
471.89000000000067
 21
311.8073817193316
  0
LINE
  8
_0-a_
  6
CONTINUOUS
 62
    3
 10
467.70000000000016
 20
310.1521841403237
 11
468.31000000000029
 21
310.5043682806587
  0
LINE
  8
_0-a_
  6
CONTINUOUS
 62
    3
 10
468.31000000000029
 20
309.79999999998881
 11
467.70000000000016
 21
310.1521841403237
  0
LINE
  8
_0-a_
  6
CONTINUOUS
 62
    3
 10
472.5000000000008
 20
311.45519757899672
 11
471.89000000000067
 21
311.10301343866183
  0
LINE
  8
_0-a_
  6
CONTINUOUS
 62
    3
 10
471.89000000000067
 20
311.8073817193316
 11
472.5000000000008
 21
311.45519757899672
  0
LINE
  8
_0-a_
  6
CONTINUOUS
 62
    3
 10
472.5000000000008
 20
309.95519757899672
 11
471.89000000000067
 21
309.60301343866183
  0
LINE
  8
_0-a_
  6
CONTINUOUS
 62
    3
 10
471.89000000000067
 20
310.3073817193316
 11
472.5000000000008
 21
309.95519757899672
  0
ARC
  8
_0-a_
  6
CONTINUOUS
 62
    3
 10
488.59999999999957
 20
316.09999999998888
 40
1
 50
0
 51
90
  0
LINE
  8
_0-a_
  6
CONTINUOUS
 62
    3
 10
489.59999999999957
 20
316.09999999998888
 11
489.59999999999957
 21
315.59999999998888
  0
LINE
  8
_0-a_
  6
CONTINUOUS
 62
    3
 10
488.59999999999866
 20
315.59999999998888
 11
488.59119843520841
 21
315.59999999998888
  0
LINE
  8
_0-a_
  6
CONTINUOUS
 62
    3
 10
488.59999999999957
 20
317.09999999998888
 11
486.50192378864529
 21
317.09999999998888
  0
LINE
  8
_0-a_
  6
CONTINUOUS
 62
    3
 10
363.6000000000007
 20
315.59999999998911
 11
462.6000000000007
 21
315.59999999998911
  0
LINE
  8
_0-a_
  6
CONTINUOUS
 62
    3
 10
274.10000000000258
 20
310.40000000000055
 11
367.25321324562981
 21
310.40000000000055
  0
LINE
  8
_0-a_
  6
CONTINUOUS
 62
    3
 10
274.10000000000122
 20
307.40000000000055
 11
274.10000000000122
 21
309.90000000000043
  0
LINE
  8
_0-a_
  6
CONTINUOUS
 62
    3
 10
280.10000000000116
 20
310.40000000000055
 11
283.10000000000116
 21
307.40000000000055
  0
LINE
  8
_0-a_
  6
CONTINUOUS
 62
    3
 10
277.10000000000116
 20
307.40000000000055
 11
280.10000000000116
 21
310.40000000000055
  0
LINE
  8
_0-a_
  6
CONTINUOUS
 62
    3
 10
286.10000000000116
 20
310.40000000000055
 11
289.10000000000116
 21
307.40000000000055
  0
LINE
  8
_0-a_
  6
CONTINUOUS
 62
    3
 10
283.10000000000116
 20
307.40000000000055
 11
286.10000000000116
 21
310.40000000000055
  0
LINE
  8
_0-a_
  6
CONTINUOUS
 62
    3
 10
292.10000000000116
 20
310.40000000000055
 11
295.10000000000116
 21
307.40000000000055
  0
LINE
  8
_0-a_
  6
CONTINUOUS
 62
    3
 10
289.10000000000116
 20
307.40000000000055
 11
292.10000000000116
 21
310.40000000000055
  0
LINE
  8
_0-a_
  6
CONTINUOUS
 62
    3
 10
298.10000000000116
 20
310.40000000000055
 11
301.10000000000116
 21
307.40000000000055
  0
LINE
  8
_0-a_
  6
CONTINUOUS
 62
    3
 10
295.10000000000116
 20
307.40000000000055
 11
298.10000000000116
 21
310.40000000000055
  0
LINE
  8
_0-a_
  6
CONTINUOUS
 62
    3
 10
304.10000000000116
 20
310.40000000000055
 11
307.10000000000116
 21
307.40000000000055
  0
LINE
  8
_0-a_
  6
CONTINUOUS
 62
    3
 10
301.10000000000116
 20
307.40000000000055
 11
304.10000000000116
 21
310.40000000000055
  0
LINE
  8
_0-a_
  6
CONTINUOUS
 62
    3
 10
310.10000000000116
 20
310.40000000000055
 11
313.10000000000116
 21
307.40000000000055
  0
LINE
  8
_0-a_
  6
CONTINUOUS
 62
    3
 10
307.10000000000116
 20
307.40000000000055
 11
310.10000000000116
 21
310.40000000000055
  0
LINE
  8
_0-a_
  6
CONTINUOUS
 62
    3
 10
316.10000000000116
 20
310.40000000000055
 11
319.10000000000116
 21
307.40000000000055
  0
LINE
  8
_0-a_
  6
CONTINUOUS
 62
    3
 10
313.10000000000116
 20
307.40000000000055
 11
316.10000000000116
 21
310.40000000000055
  0
LINE
  8
_0-a_
  6
CONTINUOUS
 62
    3
 10
322.10000000000116
 20
310.40000000000055
 11
325.10000000000116
 21
307.40000000000055
  0
LINE
  8
_0-a_
  6
CONTINUOUS
 62
    3
 10
319.10000000000116
 20
307.40000000000055
 11
322.10000000000116
 21
310.40000000000055
  0
LINE
  8
_0-a_
  6
CONTINUOUS
 62
    3
 10
274.10000000000122
 20
310.40000000000055
 11
277.10000000000116
 21
307.40000000000055
  0
LINE
  8
_0-a_
  6
CONTINUOUS
 62
    3
 10
328.10000000000116
 20
310.40000000000055
 11
331.10000000000116
 21
307.40000000000055
  0
LINE
  8
_0-a_
  6
CONTINUOUS
 62
    3
 10
325.10000000000116
 20
307.40000000000055
 11
328.10000000000116
 21
310.40000000000055
  0
LINE
  8
_0-a_
  6
CONTINUOUS
 62
    3
 10
334.10000000000116
 20
310.40000000000055
 11
337.10000000000116
 21
307.40000000000055
  0
LINE
  8
_0-a_
  6
CONTINUOUS
 62
    3
 10
331.10000000000116
 20
307.40000000000055
 11
334.10000000000116
 21
310.40000000000055
  0
LINE
  8
_0-a_
  6
CONTINUOUS
 62
    3
 10
340.10000000000116
 20
310.40000000000055
 11
343.10000000000116
 21
307.40000000000055
  0
LINE
  8
_0-a_
  6
CONTINUOUS
 62
    3
 10
337.10000000000116
 20
307.40000000000055
 11
340.10000000000116
 21
310.40000000000055
  0
LINE
  8
_0-a_
  6
CONTINUOUS
 62
    3
 10
346.10000000000116
 20
310.40000000000055
 11
349.10000000000116
 21
307.40000000000055
  0
LINE
  8
_0-a_
  6
CONTINUOUS
 62
    3
 10
343.10000000000116
 20
307.40000000000055
 11
346.10000000000116
 21
310.40000000000055
  0
LINE
  8
_0-a_
  6
CONTINUOUS
 62
    3
 10
352.10000000000116
 20
310.40000000000055
 11
355.10000000000116
 21
307.40000000000055
  0
LINE
  8
_0-a_
  6
CONTINUOUS
 62
    3
 10
349.10000000000116
 20
307.40000000000055
 11
352.10000000000116
 21
310.40000000000055
  0
LINE
  8
_0-a_
  6
CONTINUOUS
 62
    3
 10
358.10000000000116
 20
310.40000000000055
 11
361.10000000000116
 21
307.40000000000055
  0
LINE
  8
_0-a_
  6
CONTINUOUS
 62
    3
 10
355.10000000000116
 20
307.40000000000055
 11
358.10000000000116
 21
310.40000000000055
  0
LINE
  8
_0-a_
  6
CONTINUOUS
 62
    3
 10
364.10000000000116
 20
310.40000000000055
 11
367.10000000000116
 21
307.40000000000055
  0
LINE
  8
_0-a_
  6
CONTINUOUS
 62
    3
 10
361.10000000000116
 20
307.40000000000055
 11
364.10000000000116
 21
310.40000000000055
  0
LINE
  8
_0-a_
  6
CONTINUOUS
 62
    3
 10
370.10000000000116
 20
310.40000000000055
 11
373.10000000000116
 21
307.40000000000055
  0
LINE
  8
_0-a_
  6
CONTINUOUS
 62
    3
 10
367.10000000000116
 20
307.40000000000055
 11
370.10000000000116
 21
310.40000000000055
  0
LINE
  8
_0-a_
  6
CONTINUOUS
 62
    3
 10
376.10000000000116
 20
310.40000000000055
 11
379.10000000000116
 21
307.40000000000055
  0
LINE
  8
_0-a_
  6
CONTINUOUS
 62
    3
 10
373.10000000000116
 20
307.40000000000055
 11
376.10000000000116
 21
310.40000000000055
  0
LINE
  8
_0-a_
  6
CONTINUOUS
 62
    3
 10
382.10000000000116
 20
310.40000000000055
 11
385.10000000000116
 21
307.40000000000055
  0
LINE
  8
_0-a_
  6
CONTINUOUS
 62
    3
 10
379.10000000000116
 20
307.40000000000055
 11
382.10000000000116
 21
310.40000000000055
  0
LINE
  8
_0-a_
  6
CONTINUOUS
 62
    3
 10
388.10000000000116
 20
310.40000000000055
 11
391.10000000000116
 21
307.40000000000055
  0
LINE
  8
_0-a_
  6
CONTINUOUS
 62
    3
 10
385.10000000000116
 20
307.40000000000055
 11
388.10000000000116
 21
310.40000000000055
  0
LINE
  8
_0-a_
  6
CONTINUOUS
 62
    3
 10
394.10000000000116
 20
310.40000000000055
 11
397.10000000000116
 21
307.40000000000055
  0
LINE
  8
_0-a_
  6
CONTINUOUS
 62
    3
 10
391.10000000000116
 20
307.40000000000055
 11
394.10000000000116
 21
310.40000000000055
  0
LINE
  8
_0-a_
  6
CONTINUOUS
 62
    3
 10
400.10000000000116
 20
310.40000000000055
 11
403.10000000000116
 21
307.40000000000055
  0
LINE
  8
_0-a_
  6
CONTINUOUS
 62
    3
 10
397.10000000000116
 20
307.40000000000055
 11
400.10000000000116
 21
310.40000000000055
  0
LINE
  8
_0-a_
  6
CONTINUOUS
 62
    3
 10
406.10000000000116
 20
310.40000000000055
 11
409.10000000000116
 21
307.40000000000055
  0
LINE
  8
_0-a_
  6
CONTINUOUS
 62
    3
 10
403.10000000000116
 20
307.40000000000055
 11
406.10000000000116
 21
310.40000000000055
  0
LINE
  8
_0-a_
  6
CONTINUOUS
 62
    3
 10
409.10000000000116
 20
307.40000000000055
 11
412.10000000000116
 21
310.40000000000055
  0
LINE
  8
_0-a_
  6
CONTINUOUS
 62
    3
 10
481.60000000000048
 20
311.849999999989
 11
481.60000000000048
 21
315.59999999998888
  0
LINE
  8
_0-a_
  6
CONTINUOUS
 62
    3
 10
481.6000000000007
 20
311.84999999998888
 11
481.6000000000007
 21
315.59999999998888
  0
LINE
  8
_0-a_
  6
CONTINUOUS
 62
    3
 10
486.19807621135362
 20
312.59999999998888
 11
481.60000000000048
 21
312.59999999998888
  0
LINE
  8
_0-a_
  6
CONTINUOUS
 62
    3
 10
372.6000000000007
 20
315.59999999998911
 11
375.6000000000007
 21
312.59999999998911
  0
LINE
  8
_0-a_
  6
CONTINUOUS
 62
    3
 10
369.6000000000007
 20
312.59999999998911
 11
372.6000000000007
 21
315.59999999998911
  0
LINE
  8
_0-a_
  6
CONTINUOUS
 62
    3
 10
378.6000000000007
 20
315.59999999998911
 11
381.6000000000007
 21
312.59999999998911
  0
LINE
  8
_0-a_
  6
CONTINUOUS
 62
    3
 10
375.6000000000007
 20
312.59999999998911
 11
378.6000000000007
 21
315.59999999998911
  0
LINE
  8
_0-a_
  6
CONTINUOUS
 62
    3
 10
384.6000000000007
 20
315.59999999998911
 11
387.6000000000007
 21
312.59999999998911
  0
LINE
  8
_0-a_
  6
CONTINUOUS
 62
    3
 10
381.6000000000007
 20
312.59999999998911
 11
384.6000000000007
 21
315.59999999998911
  0
LINE
  8
_0-a_
  6
CONTINUOUS
 62
    3
 10
390.6000000000007
 20
315.59999999998911
 11
393.6000000000007
 21
312.59999999998911
  0
LINE
  8
_0-a_
  6
CONTINUOUS
 62
    3
 10
387.6000000000007
 20
312.59999999998911
 11
390.6000000000007
 21
315.59999999998911
  0
LINE
  8
_0-a_
  6
CONTINUOUS
 62
    3
 10
366.6000000000007
 20
315.59999999998911
 11
369.6000000000007
 21
312.59999999998911
  0
LINE
  8
_0-a_
  6
CONTINUOUS
 62
    3
 10
402.6000000000007
 20
315.59999999998911
 11
405.6000000000007
 21
312.59999999998911
  0
LINE
  8
_0-a_
  6
CONTINUOUS
 62
    3
 10
399.6000000000007
 20
312.59999999998911
 11
402.6000000000007
 21
315.59999999998911
  0
LINE
  8
_0-a_
  6
CONTINUOUS
 62
    3
 10
408.6000000000007
 20
315.59999999998911
 11
411.6000000000007
 21
312.59999999998911
  0
LINE
  8
_0-a_
  6
CONTINUOUS
 62
    3
 10
405.6000000000007
 20
312.59999999998911
 11
408.6000000000007
 21
315.59999999998911
  0
LINE
  8
_0-a_
  6
CONTINUOUS
 62
    3
 10
414.6000000000007
 20
315.59999999998911
 11
417.6000000000007
 21
312.59999999998911
  0
LINE
  8
_0-a_
  6
CONTINUOUS
 62
    3
 10
411.6000000000007
 20
312.59999999998911
 11
414.6000000000007
 21
315.59999999998911
  0
LINE
  8
_0-a_
  6
CONTINUOUS
 62
    3
 10
420.6000000000007
 20
315.59999999998911
 11
423.6000000000007
 21
312.59999999998911
  0
LINE
  8
_0-a_
  6
CONTINUOUS
 62
    3
 10
417.6000000000007
 20
312.59999999998911
 11
420.6000000000007
 21
315.59999999998911
  0
LINE
  8
_0-a_
  6
CONTINUOUS
 62
    3
 10
396.6000000000007
 20
315.59999999998911
 11
399.6000000000007
 21
312.59999999998911
  0
LINE
  8
_0-a_
  6
CONTINUOUS
 62
    3
 10
393.6000000000007
 20
312.59999999998911
 11
396.6000000000007
 21
315.59999999998911
  0
LINE
  8
_0-a_
  6
CONTINUOUS
 62
    3
 10
432.6000000000007
 20
315.59999999998911
 11
435.6000000000007
 21
312.59999999998911
  0
LINE
  8
_0-a_
  6
CONTINUOUS
 62
    3
 10
429.6000000000007
 20
312.59999999998911
 11
432.6000000000007
 21
315.59999999998911
  0
LINE
  8
_0-a_
  6
CONTINUOUS
 62
    3
 10
438.6000000000007
 20
315.59999999998911
 11
441.6000000000007
 21
312.59999999998911
  0
LINE
  8
_0-a_
  6
CONTINUOUS
 62
    3
 10
435.6000000000007
 20
312.59999999998911
 11
438.6000000000007
 21
315.59999999998911
  0
LINE
  8
_0-a_
  6
CONTINUOUS
 62
    3
 10
444.6000000000007
 20
315.59999999998911
 11
447.6000000000007
 21
312.59999999998911
  0
LINE
  8
_0-a_
  6
CONTINUOUS
 62
    3
 10
441.6000000000007
 20
312.59999999998911
 11
444.6000000000007
 21
315.59999999998911
  0
LINE
  8
_0-a_
  6
CONTINUOUS
 62
    3
 10
450.6000000000007
 20
315.59999999998911
 11
453.6000000000007
 21
312.59999999998911
  0
LINE
  8
_0-a_
  6
CONTINUOUS
 62
    3
 10
447.6000000000007
 20
312.59999999998911
 11
450.6000000000007
 21
315.59999999998911
  0
LINE
  8
_0-a_
  6
CONTINUOUS
 62
    3
 10
426.6000000000007
 20
315.59999999998911
 11
429.6000000000007
 21
312.59999999998911
  0
LINE
  8
_0-a_
  6
CONTINUOUS
 62
    3
 10
423.6000000000007
 20
312.59999999998911
 11
426.6000000000007
 21
315.59999999998911
  0
LINE
  8
_0-a_
  6
CONTINUOUS
 62
    3
 10
456.6000000000007
 20
315.59999999998911
 11
459.6000000000007
 21
312.59999999998911
  0
LINE
  8
_0-a_
  6
CONTINUOUS
 62
    3
 10
453.6000000000007
 20
312.59999999998911
 11
456.6000000000007
 21
315.59999999998911
  0
LINE
  8
_0-a_
  6
CONTINUOUS
 62
    3
 10
459.6000000000007
 20
312.59999999998911
 11
462.6000000000007
 21
315.59999999998911
  0
LINE
  8
_0-a_
  6
CONTINUOUS
 62
    3
 10
363.6000000000007
 20
312.59999999998911
 11
366.6000000000007
 21
315.59999999998911
  0
LINE
  8
_0-a_
  6
CONTINUOUS
 62
    3
 10
363.6000000000007
 20
312.59999999998911
 11
462.6000000000007
 21
312.59999999998911
  0
LINE
  8
_0-a_
  6
CONTINUOUS
 62
    3
 10
461.10000000000025
 20
312.59999999998888
 11
462.6000000000007
 21
312.59999999998888
  0
LINE
  8
_0-a_
  6
CONTINUOUS
 62
    3
 10
491.60000000000025
 20
312.599999999989
 11
511.24421325665742
 21
312.599999999989
  0
LINE
  8
_0-a_
  6
CONTINUOUS
 62
    3
 10
486.19807621135362
 20
312.59999999998888
 11
511.24421325665742
 21
312.59999999998888
  0
LINE
  8
_0-a_
  6
CONTINUOUS
 62
    3
 10
488.59999999999866
 20
315.59999999998888
 11
488.59119843520818
 21
315.59999999998888
  0
LINE
  8
_0-a_
  6
CONTINUOUS
 62
    3
 10
496.60000000000048
 20
315.59999999998888
 11
499.60000000000048
 21
312.59999999998888
  0
LINE
  8
_0-a_
  6
CONTINUOUS
 62
    3
 10
493.60000000000048
 20
312.59999999998888
 11
496.60000000000048
 21
315.59999999998888
  0
LINE
  8
_0-a_
  6
CONTINUOUS
 62
    3
 10
502.60000000000048
 20
315.59999999998888
 11
505.60000000000048
 21
312.59999999998888
  0
LINE
  8
_0-a_
  6
CONTINUOUS
 62
    3
 10
499.60000000000048
 20
312.59999999998888
 11
502.60000000000048
 21
315.59999999998888
  0
LINE
  8
_0-a_
  6
CONTINUOUS
 62
    3
 10
490.60000000000048
 20
315.59999999998888
 11
493.60000000000048
 21
312.59999999998888
  0
LINE
  8
_0-a_
  6
CONTINUOUS
 62
    3
 10
487.60000000000048
 20
312.59999999998888
 11
490.60000000000048
 21
315.59999999998888
  0
LINE
  8
_0-a_
  6
CONTINUOUS
 62
    3
 10
484.60000000000048
 20
315.59999999998888
 11
487.60000000000048
 21
312.59999999998888
  0
LINE
  8
_0-a_
  6
CONTINUOUS
 62
    3
 10
508.60000000000048
 20
315.599999999989
 11
511.60000000000048
 21
312.599999999989
  0
LINE
  8
_0-a_
  6
CONTINUOUS
 62
    3
 10
505.60000000000048
 20
312.599999999989
 11
508.60000000000048
 21
315.599999999989
  0
LINE
  8
_0-a_
  6
CONTINUOUS
 62
    3
 10
481.60000000000048
 20
312.59999999998888
 11
484.60000000000048
 21
315.59999999998888
  0
LINE
  8
_0-a_
  6
DASHED1
 62
    3
 10
387.1000000000007
 20
284.59999999998911
 11
387.1000000000007
 21
288.09999999998888
  0
LINE
  8
_0-a_
  6
DASHED1
 62
    3
 10
402.1000000000007
 20
284.59999999998911
 11
402.1000000000007
 21
288.09999999998888
  0
LINE
  8
_0-a_
  6
DASHED1
 62
    3
 10
442.0999999999998
 20
284.59999999998911
 11
442.0999999999998
 21
287.09999999998911
  0
LINE
  8
_0-a_
  6
DASHED1
 62
    3
 10
457.0999999999998
 20
284.59999999998911
 11
457.0999999999998
 21
287.09999999998911
  0
LINE
  8
_0-a_
  6
DASHED1
 62
    3
 10
457.0999999999998
 20
284.59999999998911
 11
457.0999999999998
 21
287.09999999998911
  0
LINE
  8
_0-a_
  6
CONTINUOUS
 62
    3
 10
468.31000000000029
 20
312.79999999998881
 11
471.05747741945504
 21
313.79999999998893
  0
LINE
  8
_0-f_寸法
  6
CONTINUOUS
 62
    4
 10
489.59999999999957
 20
317.09999999998888
 11
489.59999999999957
 21
389.60000000000048
  0
POINT
  8
_0-f_寸法
 62
    4
 10
354.6000000000007
 20
388.60000000000048
  0
POINT
  8
_0-f_寸法
 62
    4
 10
489.59999999999957
 20
388.60000000000048
  0
LINE
  8
_0-f_寸法
  6
CONTINUOUS
 62
    4
 10
354.6000000000007
 20
388.60000000000048
 11
489.59999999999957
 21
388.60000000000048
  0
TEXT
  8
_0-f_寸法
 62
    4
 10
416.70000000000027
 20
388.60000000000048
 40
9
 41
0.8
 50
0
  1
135
  0
LINE
  8
_0-f_寸法
  6
CONTINUOUS
 62
    4
 10
489.59999999999957
 20
389.60000000000048
 11
489.59999999999957
 21
409.60000000000048
  0
LINE
  8
_0-f_寸法
  6
CONTINUOUS
 62
    4
 10
259.59999999999803
 20
389.60000000000048
 11
259.59999999999803
 21
409.60000000000048
  0
POINT
  8
_0-f_寸法
 62
    4
 10
259.59999999999803
 20
408.60000000000048
  0
POINT
  8
_0-f_寸法
 62
    4
 10
489.59999999999957
 20
408.60000000000048
  0
LINE
  8
_0-f_寸法
  6
CONTINUOUS
 62
    4
 10
259.59999999999803
 20
408.60000000000048
 11
489.59999999999957
 21
408.60000000000048
  0
TEXT
  8
_0-f_寸法
 62
    4
 10
369.19999999999891
 20
408.60000000000048
 40
9
 41
0.8
 50
0
  1
230
  0
LINE
  8
_0-f_寸法
  6
CONTINUOUS
 62
    4
 10
354.6000000000007
 20
284.59999999998911
 11
354.6000000000007
 21
257.59999999998911
  0
LINE
  8
_0-f_寸法
  6
CONTINUOUS
 62
    4
 10
359.59999999999752
 20
277.59999999998911
 11
359.59999999999752
 21
257.59999999998911
  0
POINT
  8
_0-f_寸法
 62
    4
 10
359.59999999999752
 20
258.59999999998911
  0
POINT
  8
_0-f_寸法
 62
    4
 10
354.6000000000007
 20
258.59999999998911
  0
LINE
  8
_0-f_寸法
  6
CONTINUOUS
 62
    4
 10
359.59999999999752
 20
258.59999999998911
 11
354.6000000000007
 21
258.59999999998911
  0
TEXT
  8
_0-f_寸法
 62
    4
 10
355.29999999999933
 20
258.59999999998911
 40
9
 41
0.8
 50
0
  1
5
  0
CIRCLE
  8
_0-e_付箋
  6
CONTINUOUS
 62
    4
 10
445.83767447825574
 20
325.8190326268533
 40
4.8827102566353844
  0
TEXT
  8
_0-e_付箋
 62
    4
 10
442.83767447825574
 20
322.8190326268533
 40
6
 41
1
 50
0
  1
１
  0
LINE
  8
_0-e_付箋
  6
CONTINUOUS
 62
    4
 10
438.35000000000616
 20
311.34999999998888
 11
444.07481091994703
 21
321.26566337705151
  0
CIRCLE
  8
_0-e_付箋
  6
CONTINUOUS
 62
    4
 10
325.38767372825021
 20
320.42903062686537
 40
4.8827102566353844
  0
TEXT
  8
_0-e_付箋
 62
    4
 10
322.38767372825021
 20
317.42903062686537
 40
6
 41
1
 50
0
  1
２
  0
LINE
  8
_0-e_付箋
  6
CONTINUOUS
 62
    4
 10
317.89999925000063
 20
305.95999800000095
 11
323.6248101699415
 21
315.87566137706358
  0
CIRCLE
  8
_0-e_付箋
  6
CONTINUOUS
 62
    4
 10
347.11232552175113
 20
276.78096737313047
 40
4.8827102566353844
  0
TEXT
  8
_0-e_付箋
 62
    4
 10
344.11232552175113
 20
273.78096737313047
 40
6
 41
1
 50
0
  1
４
  0
LINE
  8
_0-e_付箋
  6
CONTINUOUS
 62
    4
 10
354.6000000000007
 20
291.24999999999466
 11
348.87518908005984
 21
281.33433662293203
  0
CIRCLE
  8
_0-e_付箋
  6
CONTINUOUS
 62
    4
 10
409.59999999999798
 20
264.86411670143514
 40
4.8827102566353844
  0
LINE
  8
_0-e_付箋
  6
CONTINUOUS
 62
    4
 10
407.15864487168017
 20
269.09266782300017
 11
394.59999999999798
 21
290.84487881496818
  0
TEXT
  8
_0-e_付箋
 62
    4
 10
406.59999999999798
 20
261.86411670143514
 40
6
 41
1
 50
0
  1
11
  0
CIRCLE
  8
_0-e_付箋
  6
CONTINUOUS
 62
    4
 10
469.09999999999934
 20
261.86923788645561
 40
4.8827102566353844
  0
LINE
  8
_0-e_付箋
  6
CONTINUOUS
 62
    4
 10
466.65864487168199
 20
266.09778900802064
 11
454.09999999999934
 21
287.84999999998865
  0
TEXT
  8
_0-e_付箋
 62
    4
 10
466.09999999999934
 20
258.86923788645561
 40
6
 41
1
 50
0
  1
12
  0
CIRCLE
  8
_0-e_付箋
  6
CONTINUOUS
 62
    4
 10
477.60000000000025
 20
328.84038105675552
 40
4.8827102566353844
  0
LINE
  8
_0-e_付箋
  6
CONTINUOUS
 62
    4
 10
475.15864487168267
 20
324.61182993519037
 11
470.10000000000025
 21
315.84999999998888
  0
TEXT
  8
_0-e_付箋
 62
    4
 10
474.60000000000025
 20
325.84038105675552
 40
6
 41
1
 50
0
  1
９
  0
CIRCLE
  8
_0-e_付箋
  6
CONTINUOUS
 62
    4
 10
342.59899027262998
 20
186.35275581817621
 40
4.8827102566353844
  0
TEXT
  8
_0-e_付箋
 62
    4
 10
339.59899027262998
 20
183.35275581817621
 40
6
 41
1
 50
0
  1
６
  0
LINE
  8
_0-e_付箋
  6
CONTINUOUS
 62
    4
 10
339.14639273959381
 20
189.80535335121215
 11
331.99238855483179
 21
196.95935753597439
  0
LINE
  8
_0-a_
  6
CONTINUOUS
 62
    3
 10
275.70000000000249
 20
307.40000000001191
 11
275.70000000000249
 21
310.40000000001191
  0
LINE
  8
_0-a_
  6
CONTINUOUS
 62
    3
 10
285.19999995219212
 20
342.35000017013738
 11
286.19999995219166
 21
341.35000017013806
  0
LINE
  8
_0-a_
  6
CONTINUOUS
 62
    3
 10
285.19999995219212
 20
342.35000017013738
 11
285.19999995219212
 21
350.85000017013897
  0
LINE
  8
_0-a_
  6
CONTINUOUS
 62
    3
 10
285.19999995219212
 20
350.85000017013897
 11
286.19999995219166
 21
351.85000017013829
  0
LINE
  8
_0-a_
  6
CONTINUOUS
 62
    3
 10
285.19999995219212
 20
342.35000017013738
 11
284.69999995219212
 21
342.35000017013738
  0
LINE
  8
_0-a_
  6
CONTINUOUS
 62
    3
 10
285.19999995219212
 20
350.85000017013897
 11
284.69999995219212
 21
350.85000017013897
  0
LINE
  8
_0-a_
  6
CONTINUOUS
 62
    3
 10
284.69999995219212
 20
359.10000017013851
 11
273.69999995219217
 21
359.10000017013851
  0
LINE
  8
_0-a_
  6
CONTINUOUS
 62
    3
 10
284.69999995219212
 20
317.10000017013806
 11
284.69999995219212
 21
359.10000017013851
  0
LINE
  8
_0-a_
  6
CONTINUOUS
 62
    3
 10
272.19999995219217
 20
360.60000017013851
 11
286.19999995219166
 21
360.60000017013851
  0
LINE
  8
_0-a_
  6
CONTINUOUS
 62
    3
 10
286.19999995219166
 20
360.60000017013851
 11
286.19999995219166
 21
315.60000017013851
  0
LINE
  8
_0-a_
  6
CONTINUOUS
 62
    3
 10
272.19999995219217
 20
360.60000017013851
 11
272.19999995219217
 21
350.60000017013851
  0
LINE
  8
_0-a_
  6
CONTINUOUS
 62
    3
 10
273.69999995219217
 20
350.60000017013851
 11
272.19999995219217
 21
350.60000017013851
  0
LINE
  8
_0-a_
  6
CONTINUOUS
 62
    3
 10
273.69999995219217
 20
359.10000017013851
 11
273.69999995219217
 21
350.60000017013851
  0
LINE
  8
_0-a_
  6
CONTINUOUS
 62
    3
 10
276.19999995219166
 20
317.10000017013806
 11
284.69999995219212
 21
317.10000017013806
  0
LINE
  8
_0-a_
  6
CONTINUOUS
 62
    3
 10
276.19999995219166
 20
317.10000017013806
 11
276.19999995219166
 21
315.60000017013851
  0
LINE
  8
_0-a_
  6
CONTINUOUS
 62
    3
 10
286.19999995219166
 20
315.60000017013851
 11
276.19999995219166
 21
315.60000017013851
  0
LINE
  8
_0-a_
  6
CONTINUOUS
 62
    3
 10
282.80000051039349
 20
298.40000060179489
 11
282.30000051039394
 21
298.40000060179489
  0
LINE
  8
_0-a_
  6
CONTINUOUS
 62
    3
 10
282.80000051039349
 20
301.40000060179443
 11
282.80000051039349
 21
298.40000060179489
  0
LINE
  8
_0-a_
  6
CONTINUOUS
 62
    3
 10
282.30000051039394
 20
298.40000060179489
 11
282.7999992603967
 21
296.40000060179466
  0
LINE
  8
_0-a_
  6
CONTINUOUS
 62
    3
 10
279.80000183465143
 20
298.40000060179489
 11
280.30000183465097
 21
298.40000060179489
  0
LINE
  8
_0-a_
  6
CONTINUOUS
 62
    3
 10
279.80000183465143
 20
301.40000060179443
 11
279.80000183465143
 21
298.40000060179489
  0
LINE
  8
_0-a_
  6
CONTINUOUS
 62
    3
 10
280.30000183465097
 20
298.40000060179489
 11
279.80000308464821
 21
296.40000060179466
  0
ARC
  8
_0-a_
  6
CONTINUOUS
 62
    3
 10
281.300001172522
 20
301.40000060179443
 40
1.4999993378710599
 50
0
 51
180
  0
LINE
  8
_0-a_
  6
CONTINUOUS
 62
    3
 10
282.89999999137251
 20
338.10000071498348
 11
282.89999977370314
 21
340.60000060179459
  0
LINE
  8
_0-a_
  6
CONTINUOUS
 62
    3
 10
282.89999977370314
 20
340.60000060179459
 11
263.99999545512668
 21
340.59999895620831
  0
LINE
  8
_0-a_
  6
CONTINUOUS
 62
    3
 10
284.699999965252
 20
338.10000071498348
 11
282.89999999137251
 21
338.10000071498348
  0
LINE
  8
_0-a_
  6
CONTINUOUS
 62
    3
 10
282.89999999137251
 20
352.90000034059074
 11
282.89999999137251
 21
357.50000071498357
  0
LINE
  8
_0-a_
  6
CONTINUOUS
 62
    3
 10
279.89999999137297
 20
352.90000034059074
 11
282.89999999137251
 21
352.90000034059074
  0
LINE
  8
_0-a_
  6
CONTINUOUS
 62
    3
 10
284.69999999137315
 20
351.10000034059033
 11
281.69999999137315
 21
351.10000034059033
  0
LINE
  8
_0-a_
  6
CONTINUOUS
 62
    3
 10
281.39999999137251
 20
346.6000005495539
 11
281.69999999137315
 21
346.30000054955417
  0
LINE
  8
_0-a_
  6
CONTINUOUS
 62
    3
 10
281.69999999137315
 20
351.10000034059033
 11
281.69999999137315
 21
346.90000054955408
  0
LINE
  8
_0-a_
  6
CONTINUOUS
 62
    3
 10
281.69999999137315
 20
346.90000054955408
 11
281.39999999137251
 21
346.6000005495539
  0
LINE
  8
_0-a_
  6
CONTINUOUS
 62
    3
 10
282.89999977370314
 20
340.60000060179459
 11
263.99999548124691
 21
340.59999895620797
  0
LINE
  8
_0-a_
  6
CONTINUOUS
 62
    3
 10
280.39999999137251
 20
359.10000071498325
 11
283.69999999137224
 21
359.10000071498325
  0
ARC
  8
_0-a_
  6
CONTINUOUS
 62
    3
 10
280.39999999137251
 20
358.60000071498303
 40
0.5
 50
90
 51
180
  0
LINE
  8
_0-a_
  6
CONTINUOUS
 62
    3
 10
279.89999999137297
 20
357.50000071498357
 11
279.89999999137297
 21
358.60000071498303
  0
LINE
  8
_0-a_
  6
CONTINUOUS
 62
    3
 10
282.89999999137251
 20
357.50000071498357
 11
279.89999999137297
 21
357.50000071498357
  0
ARC
  8
_0-a_
  6
CONTINUOUS
 62
    3
 10
283.69999999137224
 20
358.10000071498291
 40
1
 50
0
 51
90
  0
LINE
  8
_0-a_
  6
CONTINUOUS
 62
    3
 10
284.69999999137224
 20
358.10000071498303
 11
284.69999999137315
 21
351.10000034059033
  0
LINE
  8
_0-a_
  6
CONTINUOUS
 62
    3
 10
284.699999965252
 20
342.09999999968568
 11
284.699999965252
 21
338.10000071498348
  0
LINE
  8
_0-a_
  6
CONTINUOUS
 62
    3
 10
281.69999999137315
 20
346.30000054955417
 11
281.69999999137315
 21
342.09999999968568
  0
LINE
  8
_0-a_
  6
CONTINUOUS
 62
    3
 10
279.89999999137297
 20
342.09999999968568
 11
279.89999999137297
 21
352.90000034059074
  0
LINE
  8
_0-a_
  6
CONTINUOUS
 62
    3
 10
281.69999999137315
 20
342.09999999968568
 11
284.699999965252
 21
342.09999999968568
  0
LINE
  8
_0-a_
  6
CONTINUOUS
 62
    3
 10
277.80000117252291
 20
291.10000030635786
 11
265.99999939060257
 21
291.09999957498724
  0
ARC
  8
_0-a_
  6
CONTINUOUS
 62
    3
 10
265.99999939060257
 20
293.09999957498724
 40
2
 50
180.00000498863398
 51
270
  0
ARC
  8
_0-a_
  6
CONTINUOUS
 62
    3
 10
277.80000117252291
 20
293.10000030635808
 40
2
 50
270
 51
0
  0
LINE
  8
_0-a_
  6
CONTINUOUS
 62
    3
 10
279.80000117252291
 20
293.10000030635808
 11
279.80000117252291
 21
296.40000060179466
  0
LINE
  8
_0-a_
  6
CONTINUOUS
 62
    3
 10
282.80000117252246
 20
288.59999999968534
 11
282.80000117252246
 21
296.40000060179466
  0
LINE
  8
_0-a_
  6
CONTINUOUS
 62
    3
 10
262.20000000878593
 20
288.59999999968534
 11
282.80000117252246
 21
288.59999999968534
  0
LINE
  8
_0-a_
  6
CONTINUOUS
 62
    3
 10
263.99999681338744
 20
315.30000132312637
 11
263.69999813682847
 21
315.59999999968556
  0
LINE
  8
_0-a_
  6
CONTINUOUS
 62
    3
 10
263.69999813682847
 20
315.59999999968556
 11
263.99999818035116
 21
315.90000004320848
  0
LINE
  8
_0-a_
  6
CONTINUOUS
 62
    3
 10
263.99999939060257
 20
293.09999940085083
 11
263.99999751771969
 21
315.30000132312648
  0
LINE
  8
_0-a_
  6
CONTINUOUS
 62
    3
 10
263.99999763182763
 20
315.90000004320837
 11
263.99999548124691
 21
340.59999895620797
  0
LINE
  8
_0-a_
  6
CONTINUOUS
 62
    3
 10
286.19999998258288
 20
341.6000007152976
 11
286.19999998258288
 21
351.60000071529726
  0
LINE
  8
_0-a_
  6
CONTINUOUS
 62
    3
 10
270.19999998258248
 20
346.60000071529737
 11
271.38356803442178
 21
348.65000071529732
  0
LINE
  8
_0-a_
  6
CONTINUOUS
 62
    3
 10
270.19999998258248
 20
346.60000071529737
 11
271.38356803442178
 21
344.55000071529753
  0
LINE
  8
_0-a_
  6
CONTINUOUS
 62
    3
 10
279.4073817019256
 20
344.81000071529729
 11
279.05519756159072
 21
344.20000071529716
  0
LINE
  8
_0-a_
  6
CONTINUOUS
 62
    3
 10
279.05519756159072
 20
344.20000071529716
 11
278.70301342125583
 21
344.81000071529729
  0
LINE
  8
_0-a_
  6
CONTINUOUS
 62
    3
 10
277.3999999825827
 20
348.39000071529756
 11
277.75218412291758
 21
349.00000071529769
  0
LINE
  8
_0-a_
  6
CONTINUOUS
 62
    3
 10
277.75218412291758
 20
349.00000071529769
 11
278.10436826325247
 21
348.39000071529756
  0
LINE
  8
_0-a_
  6
CONTINUOUS
 62
    3
 10
278.10436826325247
 20
348.39000071529756
 11
279.4073817019256
 21
344.81000071529729
  0
LINE
  8
_0-a_
  6
CONTINUOUS
 62
    3
 10
277.3999999825827
 20
348.39000071529756
 11
278.70301342125583
 21
344.81000071529729
  0
LINE
  8
_0-a_
  6
CONTINUOUS
 62
    3
 10
279.05519756159072
 20
344.20000071529716
 11
277.75218412291758
 21
349.00000071529769
  0
LINE
  8
_0-a_
  6
CONTINUOUS
 62
    3
 10
280.9073817019256
 20
344.81000071529729
 11
280.55519756159072
 21
344.20000071529716
  0
LINE
  8
_0-a_
  6
CONTINUOUS
 62
    3
 10
280.55519756159072
 20
344.20000071529716
 11
280.20301342125583
 21
344.81000071529729
  0
LINE
  8
_0-a_
  6
CONTINUOUS
 62
    3
 10
278.8999999825827
 20
348.39000071529756
 11
279.25218412291758
 21
349.00000071529769
  0
LINE
  8
_0-a_
  6
CONTINUOUS
 62
    3
 10
279.25218412291758
 20
349.00000071529769
 11
279.60436826325247
 21
348.39000071529756
  0
LINE
  8
_0-a_
  6
CONTINUOUS
 62
    3
 10
279.60436826325247
 20
348.39000071529756
 11
280.9073817019256
 21
344.81000071529729
  0
LINE
  8
_0-a_
  6
CONTINUOUS
 62
    3
 10
278.8999999825827
 20
348.39000071529756
 11
280.20301342125583
 21
344.81000071529729
  0
LINE
  8
_0-a_
  6
CONTINUOUS
 62
    3
 10
280.55519756159072
 20
344.20000071529716
 11
279.25218412291758
 21
349.00000071529769
  0
LINE
  8
_0-a_
  6
CONTINUOUS
 62
    3
 10
282.4073817019256
 20
344.81000071529729
 11
282.05519756159072
 21
344.20000071529716
  0
LINE
  8
_0-a_
  6
CONTINUOUS
 62
    3
 10
282.05519756159072
 20
344.20000071529716
 11
281.70301342125583
 21
344.81000071529729
  0
LINE
  8
_0-a_
  6
CONTINUOUS
 62
    3
 10
280.3999999825827
 20
348.39000071529756
 11
280.75218412291758
 21
349.00000071529769
  0
LINE
  8
_0-a_
  6
CONTINUOUS
 62
    3
 10
280.75218412291758
 20
349.00000071529769
 11
281.10436826325247
 21
348.39000071529756
  0
LINE
  8
_0-a_
  6
CONTINUOUS
 62
    3
 10
281.10436826325247
 20
348.39000071529756
 11
282.4073817019256
 21
344.81000071529729
  0
LINE
  8
_0-a_
  6
CONTINUOUS
 62
    3
 10
280.3999999825827
 20
348.39000071529756
 11
281.70301342125583
 21
344.81000071529729
  0
LINE
  8
_0-a_
  6
CONTINUOUS
 62
    3
 10
282.05519756159072
 20
344.20000071529716
 11
280.75218412291758
 21
349.00000071529769
  0
LINE
  8
_0-a_
  6
CONTINUOUS
 62
    3
 10
281.8999999825827
 20
348.39000071529756
 11
282.25218412291758
 21
349.00000071529769
  0
LINE
  8
_0-a_
  6
CONTINUOUS
 62
    3
 10
282.25218412291758
 20
349.00000071529769
 11
282.60436826325247
 21
348.39000071529756
  0
LINE
  8
_0-a_
  6
CONTINUOUS
 62
    3
 10
276.8999999825827
 20
348.65000071529732
 11
271.38356803442178
 21
348.65000071529732
  0
LINE
  8
_0-a_
  6
CONTINUOUS
 62
    3
 10
276.8999999825827
 20
344.55000071529753
 11
276.8999999825827
 21
348.65000071529732
  0
LINE
  8
_0-a_
  6
CONTINUOUS
 62
    3
 10
276.8999999825827
 20
344.55000071529753
 11
271.38356803442178
 21
344.55000071529753
  0
LINE
  8
_0-a_
  6
CONTINUOUS
 62
    3
 10
282.60436826325247
 20
348.39000071529756
 11
282.8999999825827
 21
347.57775924196301
  0
LINE
  8
_0-a_
  6
CONTINUOUS
 62
    3
 10
282.90369084225438
 20
346.60000071529737
 11
282.25218412291758
 21
349.00000071529769
  0
LINE
  8
_0-a_
  6
CONTINUOUS
 62
    3
 10
282.8999999825827
 20
348.39000071529756
 11
282.60436826325247
 21
348.39000071529756
  0
LINE
  8
_0-a_
  6
CONTINUOUS
 62
    3
 10
281.8999999825827
 20
348.39000071529756
 11
281.10436826325247
 21
348.39000071529756
  0
LINE
  8
_0-a_
  6
CONTINUOUS
 62
    3
 10
280.3999999825827
 20
348.39000071529756
 11
279.60436826325247
 21
348.39000071529756
  0
LINE
  8
_0-a_
  6
CONTINUOUS
 62
    3
 10
278.8999999825827
 20
348.39000071529756
 11
278.10436826325247
 21
348.39000071529756
  0
LINE
  8
_0-a_
  6
CONTINUOUS
 62
    3
 10
277.3999999825827
 20
348.39000071529756
 11
276.8999999825827
 21
348.39000071529756
  0
LINE
  8
_0-a_
  6
CONTINUOUS
 62
    3
 10
282.8999999825827
 20
344.81000071529729
 11
282.4073817019256
 21
344.81000071529729
  0
LINE
  8
_0-a_
  6
CONTINUOUS
 62
    3
 10
278.70301342125583
 20
344.81000071529729
 11
276.8999999825827
 21
344.81000071529729
  0
LINE
  8
_0-a_
  6
CONTINUOUS
 62
    3
 10
280.20301342125583
 20
344.81000071529729
 11
279.4073817019256
 21
344.81000071529729
  0
LINE
  8
_0-a_
  6
CONTINUOUS
 62
    3
 10
281.70301342125583
 20
344.81000071529729
 11
280.9073817019256
 21
344.81000071529729
  0
LINE
  8
_0-a_
  6
CONTINUOUS
 62
    3
 10
276.8999999825827
 20
344.85000071529726
 11
271.5567731151786
 21
344.85000071529726
  0
LINE
  8
_0-a_
  6
CONTINUOUS
 62
    3
 10
270.54641014409657
 20
346.60000071529737
 11
271.5567731151786
 21
344.85000071529726
  0
LINE
  8
_0-a_
  6
CONTINUOUS
 62
    3
 10
270.54641014409657
 20
346.60000071529737
 11
276.8999999825827
 21
345.47969140241707
  0
LINE
  8
_0-a_
  6
CONTINUOUS
 62
    3
 10
286.19999998258288
 20
351.60000071529726
 11
285.99999998258261
 21
351.60000071529726
  0
LINE
  8
_0-a_
  6
CONTINUOUS
 62
    3
 10
285.99999998258261
 20
341.6000007152976
 11
285.99999998258261
 21
351.60000071529726
  0
LINE
  8
_0-a_
  6
CONTINUOUS
 62
    3
 10
286.19999998258288
 20
341.6000007152976
 11
285.99999998258261
 21
341.6000007152976
  0
LINE
  8
_0-a_
  6
CONTINUOUS
 62
    3
 10
285.99999998258261
 20
351.60000071529726
 11
282.8999999825827
 21
348.50000071529701
  0
LINE
  8
_0-a_
  6
CONTINUOUS
 62
    3
 10
282.8999999825827
 20
344.70000071529773
 11
282.8999999825827
 21
348.50000071529701
  0
LINE
  8
_0-a_
  6
CONTINUOUS
 62
    3
 10
285.99999998258261
 20
341.6000007152976
 11
282.8999999825827
 21
344.70000071529773
  0
LINE
  8
_0-a_
  6
CONTINUOUS
 62
    3
 10
265.49999748808153
 20
306.6000006834762
 11
265.49999748808153
 21
324.60000068347711
  0
LINE
  8
_0-a_
  6
CONTINUOUS
 62
    3
 10
263.99999748808153
 20
306.6000006834762
 11
263.99999748808153
 21
324.60000068347711
  0
LINE
  8
_0-a_
  6
CONTINUOUS
 62
    3
 10
265.49999748808153
 20
306.6000006834762
 11
263.99999748808153
 21
306.6000006834762
  0
LINE
  8
_0-a_
  6
CONTINUOUS
 62
    3
 10
265.49999748808153
 20
324.60000068347711
 11
263.99999748808153
 21
324.60000068347711
  0
LINE
  8
_0-a_
  6
CONTINUOUS
 62
    3
 10
265.49999748808153
 20
311.1000006834762
 11
266.74487630308153
 21
311.20891346727672
  0
LINE
  8
_0-a_
  6
CONTINUOUS
 62
    3
 10
266.74487630308153
 20
319.99108789977674
 11
265.49999748808153
 21
320.1000006834762
  0
ARC
  8
_0-a_
  6
CONTINUOUS
 62
    3
 10
266.6585921177811
 20
319.00485514857758
 40
0.9899999999999997
 50
37.367558032042609
 51
85.000000001200505
  0
ARC
  8
_0-a_
  6
CONTINUOUS
 62
    3
 10
266.6585921177811
 20
312.19514621837664
 40
0.9899999999999997
 50
274.99999999879952
 51
322.63244196795739
  0
ARC
  8
_0-a_
  6
CONTINUOUS
 62
    3
 10
262.19999748808135
 20
315.60000068347711
 40
6.5999999999999996
 50
322.63244196770472
 51
338.26638354340008
  0
ARC
  8
_0-a_
  6
CONTINUOUS
 62
    3
 10
262.19999748808135
 20
315.60000068347711
 40
6.5999999999999996
 50
21.748408590904258
 51
37.367558032302973
  0
LINE
  8
_0-a_
  6
CONTINUOUS
 62
    3
 10
268.75912461768161
 20
315.28500068347671
 11
268.32330972768108
 21
315.28500068347671
  0
LINE
  8
_0-a_
  6
CONTINUOUS
 62
    3
 10
268.75912461768161
 20
314.93771200157573
 11
268.75912461768161
 21
315.28500068347671
  0
LINE
  8
_0-a_
  6
CONTINUOUS
 62
    3
 10
268.32330972768108
 20
313.15749741497689
 11
268.75912461768161
 21
314.93771200157573
  0
LINE
  8
_0-a_
  6
CONTINUOUS
 62
    3
 10
268.75912461768161
 20
316.26228936547682
 11
268.49368879628167
 21
317.5621996331771
  0
LINE
  8
_0-a_
  6
CONTINUOUS
 62
    3
 10
268.49368879628167
 20
317.5621996331771
 11
268.32330972768108
 21
318.04250395207566
  0
LINE
  8
_0-a_
  6
CONTINUOUS
 62
    3
 10
268.75912461768161
 20
315.91500068347682
 11
268.75912461768161
 21
316.26228936547682
  0
LINE
  8
_0-a_
  6
CONTINUOUS
 62
    3
 10
268.32330972768108
 20
315.91500068347682
 11
268.75912461768161
 21
315.91500068347682
  0
LINE
  8
_0-a_
  6
CONTINUOUS
 62
    3
 10
268.32330972768108
 20
315.28500068347671
 11
268.32841490208142
 21
315.60000068347711
  0
LINE
  8
_0-a_
  6
CONTINUOUS
 62
    3
 10
268.32841490208142
 20
315.60000068347711
 11
268.32330972768108
 21
315.91500068347682
  0
LINE
  8
_0-a_
  6
CONTINUOUS
 62
    3
 10
278.2999987076704
 20
301.39999860210958
 11
278.2999987076704
 21
296.40000060210934
  0
LINE
  8
_0-a_
  6
CONTINUOUS
 62
    3
 10
278.2999987076704
 20
296.40000060210934
 11
279.79999870766994
 21
296.40000060210934
  0
LINE
  8
_0-a_
  6
CONTINUOUS
 62
    3
 10
282.7999987076704
 20
296.40000060210934
 11
284.2999987076704
 21
296.40000060210934
  0
LINE
  8
_0-a_
  6
CONTINUOUS
 62
    3
 10
284.2999987076704
 20
296.40000060210934
 11
284.2999987076704
 21
301.39999860210958
  0
ARC
  8
_0-a_
  6
CONTINUOUS
 62
    3
 10
281.29999870766994
 20
301.39999860210958
 40
1.7000010000000001
 50
0
 51
180
  0
ARC
  8
_0-a_
  6
CONTINUOUS
 62
    3
 10
281.29999870766994
 20
301.39999860210958
 40
3
 50
0
 51
180
  0
LINE
  8
_0-a_
  6
CONTINUOUS
 62
    3
 10
282.79999270767064
 20
298.39999860210946
 11
282.55614970766999
 21
298.39999860210946
  0
ARC
  8
_0-a_
  6
CONTINUOUS
 62
    3
 10
282.55614970766999
 20
298.20000060210964
 40
0.200001
 50
90
 51
194.03640200006197
  0
LINE
  8
_0-a_
  6
CONTINUOUS
 62
    3
 10
282.7999987076704
 20
296.40000060210934
 11
282.3621217076701
 21
298.15149360210967
  0
LINE
  8
_0-a_
  6
CONTINUOUS
 62
    3
 10
279.79999870766994
 20
298.39999860210946
 11
280.04384470767025
 21
298.39999860210946
  0
ARC
  8
_0-a_
  6
CONTINUOUS
 62
    3
 10
280.04384470767025
 20
298.20000060210964
 40
0.200001
 50
345.96380799996041
 51
90
  0
LINE
  8
_0-a_
  6
CONTINUOUS
 62
    3
 10
279.80000170767005
 20
296.40000060210934
 11
280.23787270767059
 21
298.15149360210967
  0
LINE
  8
_0-a_
  6
CONTINUOUS
 62
    3
 10
282.79999270767064
 20
298.39999860210946
 11
282.99999370766989
 21
298.39999860210946
  0
LINE
  8
_0-a_
  6
CONTINUOUS
 62
    3
 10
282.99999370766989
 20
298.39999860210946
 11
282.99999970766964
 21
301.39999860210958
  0
LINE
  8
_0-a_
  6
CONTINUOUS
 62
    3
 10
279.80000170767005
 20
298.39999860210946
 11
279.59999770767024
 21
298.39999860210946
  0
LINE
  8
_0-a_
  6
CONTINUOUS
 62
    3
 10
279.59999770767024
 20
298.39999860210946
 11
279.59999770767024
 21
301.39999860210958
  0
LINE
  8
_0-a_
  6
CONTINUOUS
 62
    3
 10
275.70000000000249
 20
307.40000000001191
 11
275.70000000000249
 21
309.90000000001191
  0
LINE
  8
_0-a_
  6
CONTINUOUS
 62
    3
 10
275.70000000000249
 20
309.90000000001191
 11
275.70000000000249
 21
310.40000000001191
  0
LINE
  8
_0-a_
  6
CONTINUOUS
 62
    3
 10
275.70000000000113
 20
310.40000000000055
 11
275.70000000000113
 21
309.90000000000043
  0
INSERT
  2
-000-
  8
_0-a_
 10
420.5
 20
297
 41
1
 42
1
 50
0
  0
INSERT
  2
-001-_1_
  8
_0-a_
 10
420.5
 20
297
 41
1
 42
1
 50
0
  0
LINE
  8
_0-a_
  6
CONTINUOUS
 62
    3
 10
281.8999999825827
 20
348.39000071529756
 11
282.8999999825827
 21
345.64252329584349
  0
LINE
  8
_0-a_
  6
DASHED1
 62
    3
 10
263.99999825168737
 20
308.09999999999479
 11
262.19999999999658
 21
308.09999999999479
  0
LINE
  8
_0-a_
  6
DASHED1
 62
    3
 10
263.99999825168737
 20
323.09999999999479
 11
262.20000000878593
 21
323.09999999999479
  0
CIRCLE
  8
_0-e_付箋
  6
CONTINUOUS
 62
    4
 10
297.29037976443703
 20
291.39999960210946
 40
4.8827102566353844
  0
TEXT
  8
_0-e_付箋
 62
    4
 10
294.29037976443703
 20
288.39999960210946
 40
6
 41
1
 50
0
  1
７
  0
LINE
  8
_0-e_付箋
  6
CONTINUOUS
 62
    4
 10
293.061828642872
 20
293.84135473042704
 11
284.2999987076704
 21
298.89999960210946
  0
CIRCLE
  8
_0-e_付箋
  6
CONTINUOUS
 62
    4
 10
296.94213679625352
 20
278.35786467700893
 40
4.8827102566353844
  0
TEXT
  8
_0-e_付箋
 62
    4
 10
293.94213679625352
 20
275.35786467700893
 40
6
 41
1
 50
0
  1
５
  0
LINE
  8
_0-e_付箋
  6
CONTINUOUS
 62
    4
 10
293.48953926321735
 20
281.8104622100451
 11
282.80000117252246
 21
292.50000030074
  0
CIRCLE
  8
_0-e_付箋
  6
CONTINUOUS
 62
    4
 10
296.80078511670388
 20
324.40112895757693
 40
4.8827102566353844
  0
TEXT
  8
_0-e_付箋
 62
    4
 10
293.80078511670388
 20
321.40112895757693
 40
6
 41
1
 50
0
  1
８
  0
LINE
  8
_0-e_付箋
  6
CONTINUOUS
 62
    4
 10
293.34818758366816
 20
320.94853142454099
 11
286.19418339890569
 21
313.79452723977874
  0
TEXT
  8
_0-e_付箋
 62
    4
 10
293.80660166998985
 20
340.0816018879367
 40
6
 41
1
 50
0
  1
３
  0
LINE
  8
_0-e_付箋
  6
CONTINUOUS
 62
    4
 10
293.35400413695368
 20
339.62900435490064
 11
286.19999995219166
 21
332.47500017013851
  0
CIRCLE
  8
_0-e_付箋
  6
CONTINUOUS
 62
    4
 10
296.80660166998985
 20
343.0816018879367
 40
4.8827102566353844
  0
LINE
  8
_0-f_寸法
  6
CONTINUOUS
 62
    4
 10
287.19999995219166
 20
360.60000017013851
 11
532.24421325665764
 21
360.60000017013851
  0
LINE
  8
_0-f_寸法
  6
CONTINUOUS
 62
    4
 10
512.24421325665764
 20
315.59999999998888
 11
532.24421325665764
 21
315.59999999998888
  0
POINT
  8
_0-f_寸法
 62
    4
 10
531.24421325665764
 20
315.59999999998888
  0
POINT
  8
_0-f_寸法
 62
    4
 10
531.24421325665764
 20
360.60000017013851
  0
LINE
  8
_0-f_寸法
  6
CONTINUOUS
 62
    4
 10
531.24421325665764
 20
315.59999999998888
 11
531.24421325665764
 21
360.60000017013851
  0
TEXT
  8
_0-f_寸法
 62
    4
 10
531.24421325665764
 20
334.50000008506368
 40
9
 41
0.8
 50
90
  1
45
  0
LINE
  8
_0-f_寸法
  6
CONTINUOUS
 62
    4
 10
286.19999995219166
 20
361.60000017013851
 11
286.19999995219166
 21
389.60000000000048
  0
LINE
  8
_0-f_寸法
  6
CONTINUOUS
 62
    4
 10
259.59999999999803
 20
369.60000000000048
 11
259.59999999999803
 21
389.60000000000048
  0
POINT
  8
_0-f_寸法
 62
    4
 10
259.59999999999803
 20
388.60000000000048
  0
POINT
  8
_0-f_寸法
 62
    4
 10
286.19999995219166
 20
388.60000000000048
  0
LINE
  8
_0-f_寸法
  6
CONTINUOUS
 62
    4
 10
259.59999999999803
 20
388.60000000000048
 11
286.19999995219166
 21
388.60000000000048
  0
TEXT
  8
_0-f_寸法
 62
    4
 10
265.69999997609489
 20
388.60000000000048
 40
9
 41
0.8
 50
0
  1
26.6
  0
LINE
  8
_0-f_寸法
  6
CONTINUOUS
 62
    4
 10
354.6000000000007
 20
313.09999999998911
 11
354.6000000000007
 21
389.60000000000048
  0
POINT
  8
_0-f_寸法
 62
    4
 10
286.19999995219166
 20
388.60000000000048
  0
POINT
  8
_0-f_寸法
 62
    4
 10
354.6000000000007
 20
388.60000000000048
  0
LINE
  8
_0-f_寸法
  6
CONTINUOUS
 62
    4
 10
286.19999995219166
 20
388.60000000000048
 11
354.6000000000007
 21
388.60000000000048
  0
TEXT
  8
_0-f_寸法
 62
    4
 10
313.19999997609619
 20
388.60000000000048
 40
9
 41
0.8
 50
0
  1
68.4
  0
LINE
  8
_0-a_
  6
CONTINUOUS
 62
    3
 10
262.20000000878593
 20
342.09999999968568
 11
279.89999999137297
 21
342.09999999968568
  0
LINE
  8
_0-a_
  6
CONTINUOUS
 62
    3
 10
262.20000000878593
 20
288.59999999968534
 11
262.20000000878593
 21
342.09999999968568
  0
LINE
  8
_0-f_寸法
  6
CONTINUOUS
 62
    3
 10
261.19999999999658
 20
343.09999999968568
 11
262.19999999999658
 21
343.09999999968568
  0
LINE
  8
_0-1_耐火帯
  6
CONTINUOUS
 62
    4
 10
349.99999999999761
 20
222.49999999999989
 11
347.99999999999761
 21
222.49999999999989
  0
ARC
  8
_0-1_耐火帯
  6
CONTINUOUS
 62
    4
 10
347.99999999999761
 20
223.49999999999989
 40
1
 50
180
 51
270
  0
LINE
  8
_0-1_耐火帯
  6
CONTINUOUS
 62
    4
 10
346.99999999999761
 20
223.49999999999989
 11
346.99999999999761
 21
226.49999999999989
  0
ARC
  8
_0-1_耐火帯
  6
CONTINUOUS
 62
    4
 10
347.99999999999761
 20
226.49999999999989
 40
1
 50
90
 51
180
  0
LINE
  8
_0-1_耐火帯
  6
CONTINUOUS
 62
    4
 10
347.99999999999761
 20
227.49999999999989
 11
349.99999999999761
 21
227.49999999999989
  0
ARC
  8
_0-1_耐火帯
  6
CONTINUOUS
 62
    4
 10
358.09999999999752
 20
226.99999999999989
 40
1
 50
0
 51
90
  0
LINE
  8
_0-1_耐火帯
  6
CONTINUOUS
 62
    4
 10
359.09999999999752
 20
226.99999999999989
 11
359.09999999999752
 21
222.99999999999989
  0
ARC
  8
_0-1_耐火帯
  6
CONTINUOUS
 62
    4
 10
358.09999999999752
 20
222.99999999999989
 40
1
 50
270
 51
0
  0
LINE
  8
_0-1_耐火帯
  6
CONTINUOUS
 62
    4
 10
359.59999999999752
 20
210.77499999999998
 11
356.49999999999761
 21
213.87499999999989
  0
ARC
  8
_0-1_耐火帯
  6
CONTINUOUS
 62
    4
 10
356.59999999999752
 20
239.08908400000007
 40
3
 50
300.80613099999954
 51
0
  0
LINE
  8
_0-1_耐火帯
  6
CONTINUOUS
 62
    4
 10
358.13640399999747
 20
236.51236999999981
 11
356.49999999999761
 21
235.53663799999993
  0
LINE
  8
_0-1_耐火帯
  6
CONTINUOUS
 62
    4
 10
356.49999999999761
 20
235.53663799999993
 11
356.49999999999761
 21
213.87499999999989
  0
ARC
  8
_0-1_耐火帯
  6
CONTINUOUS
 62
    4
 10
356.59999999999752
 20
241.12538022290016
 40
3
 50
0
 51
74.875993000005408
  0
LINE
  8
_0-1_耐火帯
  6
CONTINUOUS
 62
    4
 10
353.76216216219734
 20
244.99999999999989
 11
357.38272799999766
 21
244.02147022289989
  0
LINE
  8
_0-1_耐火帯
  6
CONTINUOUS
 62
    4
 10
359.59999999999752
 20
241.12538022290016
 11
359.59999999999752
 21
239.08908400000007
  0
LINE
  8
_0-1_耐火帯
  6
CONTINUOUS
 62
    4
 10
353.76216216219734
 20
244.99999999999989
 11
351.59999999999752
 21
234.99999999999989
  0
LINE
  8
_0-1_耐火帯
  6
CONTINUOUS
 62
    4
 10
349.99999999999761
 20
214.99999999999989
 11
347.09999999999752
 21
212.0999999999998
  0
LINE
  8
_0-1_耐火帯
  6
CONTINUOUS
 62
    4
 10
351.59999999999752
 20
214.99999999999989
 11
351.59999999999752
 21
234.99999999999989
  0
LINE
  8
_0-1_耐火帯
  6
CONTINUOUS
 62
    4
 10
356.49999999999761
 20
214.99999999999989
 11
358.09999999999752
 21
214.99999999999989
  0
LINE
  8
_0-1_耐火帯
  6
CONTINUOUS
 62
    4
 10
358.09999999999752
 20
234.99999999999989
 11
356.49999999999761
 21
234.99999999999989
  0
LINE
  8
_0-1_耐火帯
  6
CONTINUOUS
 62
    4
 10
358.09999999999752
 20
214.99999999999989
 11
358.09999999999752
 21
234.99999999999989
  0
LINE
  8
_0-1_耐火帯
  6
CONTINUOUS
 62
    4
 10
356.49999999999761
 20
214.99999999999989
 11
356.49999999999761
 21
234.99999999999989
  0
LINE
  8
_0-1_耐火帯
  6
CONTINUOUS
 62
    4
 10
349.99999999999761
 20
214.99999999999989
 11
349.99999999999761
 21
235.17099599999972
  0
LINE
  8
_0-1_耐火帯
  6
CONTINUOUS
 62
    4
 10
359.59999999999752
 20
282.00000000000034
 11
351.59999999999752
 21
235.00000000000034
  0
LINE
  8
_0-1_耐火帯
  6
CONTINUOUS
 62
    4
 10
349.99999999999716
 20
214.99999999999989
 11
351.59999999999752
 21
214.99999999999989
  0
LINE
  8
_0-1_耐火帯
  6
CONTINUOUS
 62
    4
 10
358.24932800802333
 20
283.60000000000025
 11
349.99999999999761
 21
235.13519795284935
  0
LINE
  8
_0-1_耐火帯
  6
DASHED1
 62
    4
 10
392.09999999999752
 20
282.00000000000034
 11
390.49999999999761
 21
283.5999999999998
  0
LINE
  8
_0-1_耐火帯
  6
DASHED1
 62
    4
 10
398.69999999999743
 20
283.5999999999998
 11
397.09999999999752
 21
282.00000000000034
  0
LINE
  8
_0-1_耐火帯
  6
DASHED1
 62
    4
 10
407.59999999999752
 20
283.5999999999998
 11
407.59999999999752
 21
282.00000000000034
  0
LINE
  8
_0-1_耐火帯
  6
DASHED1
 62
    4
 10
381.59999999999752
 20
283.5999999999998
 11
381.59999999999752
 21
282.00000000000034
  0
LINE
  8
_0-1_耐火帯
  6
CONTINUOUS
 62
    4
 10
347.09999999999752
 20
183.77499999999975
 11
347.09999999999752
 21
212.0999999999998
  0
ARC
  8
_0-1_耐火帯
  6
CONTINUOUS
 62
    4
 10
309.59999999999752
 20
183.77499999999975
 40
37.499999999999837
 50
180
 51
0
  0
LINE
  8
_0-1_耐火帯
  6
CONTINUOUS
 62
    4
 10
359.59999999999752
 20
183.77499999999975
 11
359.59999999999752
 21
210.77499999999998
  0
ARC
  8
_0-1_耐火帯
  6
CONTINUOUS
 62
    4
 10
309.59999999999752
 20
183.77499999999975
 40
49.999999999999829
 50
180
 51
0
  0
LINE
  8
_0-1_耐火帯
  6
DASHED1
 62
    4
 10
453.69999999999743
 20
283.5999999999998
 11
452.09999999999798
 21
282.00000000000034
  0
LINE
  8
_0-1_耐火帯
  6
DASHED1
 62
    4
 10
462.59999999999798
 20
283.5999999999998
 11
462.59999999999798
 21
282.00000000000034
  0
LINE
  8
_0-1_耐火帯
  6
DASHED1
 62
    4
 10
436.59999999999798
 20
283.5999999999998
 11
436.59999999999798
 21
282.00000000000034
  0
LINE
  8
_0-1_耐火帯
  6
DASHED1
 62
    4
 10
447.09999999999798
 20
282.00000000000034
 11
445.49999999999761
 21
283.5999999999998
  0
LINE
  8
_0-1_耐火帯
  6
CONTINUOUS
 62
    4
 10
477.59999999999798
 20
283.5999999999998
 11
358.37502599999732
 21
283.5999999999998
  0
LINE
  8
_0-1_耐火帯
  6
CONTINUOUS
 62
    4
 10
477.59999999999798
 20
283.5999999999998
 11
477.59999999999798
 21
282.00000000000034
  0
LINE
  8
_0-1_耐火帯
  6
CONTINUOUS
 62
    4
 10
477.59999999999798
 20
282.00000000000034
 11
359.59999999999752
 21
282.00000000000034
  0
LINE
  8
_0-0_躯体
  6
CONTINUOUS
 62
    2
 10
359.59999999999752
 20
282.00000000000034
 11
481.59999999999752
 21
282.00000000000034
  0
LINE
  8
_0-0_躯体
  6
CONTINUOUS
 62
    2
 10
481.59999999999752
 20
311.00000000000023
 11
481.59999999999752
 21
282.00000000000034
  0
LINE
  8
_0-0_躯体
  6
CONTINUOUS
 62
    2
 10
359.59999999999798
 20
277.00000000000057
 11
491.5999999999982
 21
277.00000000000057
  0
LINE
  8
_0-0_躯体
  6
CONTINUOUS
 62
    2
 10
481.59999999999752
 20
312.60000000000025
 11
521.59999999999707
 21
312.60000000000025
  0
LINE
  8
_0-0_躯体
  6
CONTINUOUS
 62
    2
 10
481.59999999999752
 20
312.60000000000048
 11
481.59999999999752
 21
282.01201419560027
  0
LINE
  8
_0-0_躯体
  6
CONTINUOUS
 62
    2
 10
491.5999999999982
 20
277.00000000000057
 11
491.5999999999982
 21
312.60000000000025
  0
LINE
  8
_0-0_躯体
  6
CONTINUOUS
 62
    2
 10
491.5999999999982
 20
278.73626932474724
 11
489.8637306752513
 21
277.00000000000057
  0
LINE
  8
_0-0_躯体
  6
CONTINUOUS
 62
    2
 10
491.5999999999982
 20
281.56469644949345
 11
487.03530355050509
 21
277.00000000000057
  0
LINE
  8
_0-0_躯体
  6
CONTINUOUS
 62
    2
 10
491.5999999999982
 20
284.39312357423967
 11
484.20687642575888
 21
277.00000000000057
  0
LINE
  8
_0-0_躯体
  6
CONTINUOUS
 62
    2
 10
491.5999999999982
 20
287.22155069898588
 11
481.37844930101267
 21
277.00000000000057
  0
LINE
  8
_0-0_躯体
  6
CONTINUOUS
 62
    2
 10
491.5999999999982
 20
290.04997782373209
 11
478.55002217626645
 21
277.00000000000057
  0
LINE
  8
_0-0_躯体
  6
CONTINUOUS
 62
    2
 10
491.5999999999982
 20
292.87840494847831
 11
481.59999999999752
 21
282.87840494847762
  0
LINE
  8
_0-0_躯体
  6
CONTINUOUS
 62
    2
 10
480.72159505152024
 20
282.00000000000034
 11
475.72159505152024
 21
277.00000000000057
  0
LINE
  8
_0-0_躯体
  6
CONTINUOUS
 62
    2
 10
491.5999999999982
 20
295.70683207322452
 11
481.59999999999752
 21
285.70683207322384
  0
LINE
  8
_0-0_躯体
  6
CONTINUOUS
 62
    2
 10
477.89316792677403
 20
282.00000000000034
 11
472.89316792677425
 21
277.00000000000057
  0
LINE
  8
_0-0_躯体
  6
CONTINUOUS
 62
    2
 10
491.5999999999982
 20
298.53525919797084
 11
481.59999999999752
 21
288.53525919797005
  0
LINE
  8
_0-0_躯体
  6
CONTINUOUS
 62
    2
 10
475.06474080202781
 20
282.00000000000034
 11
470.06474080202804
 21
277.00000000000057
  0
LINE
  8
_0-0_躯体
  6
CONTINUOUS
 62
    2
 10
491.5999999999982
 20
301.36368632271706
 11
481.59999999999752
 21
291.36368632271626
  0
LINE
  8
_0-0_躯体
  6
CONTINUOUS
 62
    2
 10
472.23631367728137
 20
282.00000000000034
 11
467.23631367728183
 21
277.00000000000057
  0
LINE
  8
_0-0_躯体
  6
CONTINUOUS
 62
    2
 10
491.5999999999982
 20
304.19211344746304
 11
481.59999999999752
 21
294.19211344746248
  0
LINE
  8
_0-0_躯体
  6
CONTINUOUS
 62
    2
 10
469.40788655253562
 20
282.00000000000034
 11
464.40788655253562
 21
277.00000000000057
  0
LINE
  8
_0-0_躯体
  6
CONTINUOUS
 62
    2
 10
491.5999999999982
 20
307.02054057220926
 11
481.59999999999752
 21
297.02054057220846
  0
LINE
  8
_0-0_躯体
  6
CONTINUOUS
 62
    2
 10
466.5794594277894
 20
282.00000000000034
 11
461.5794594277894
 21
277.00000000000057
  0
LINE
  8
_0-0_躯体
  6
CONTINUOUS
 62
    2
 10
491.5999999999982
 20
309.84896769695547
 11
481.59999999999752
 21
299.84896769695479
  0
LINE
  8
_0-0_躯体
  6
CONTINUOUS
 62
    2
 10
463.75103230304319
 20
282.00000000000034
 11
458.75103230304319
 21
277.00000000000057
  0
LINE
  8
_0-0_躯体
  6
CONTINUOUS
 62
    2
 10
460.92260517829698
 20
282.00000000000034
 11
455.92260517829698
 21
277.00000000000057
  0
LINE
  8
_0-0_躯体
  6
CONTINUOUS
 62
    2
 10
458.09417805355076
 20
282.00000000000034
 11
453.09417805355076
 21
277.00000000000057
  0
LINE
  8
_0-0_躯体
  6
CONTINUOUS
 62
    2
 10
455.26575092880455
 20
282.00000000000034
 11
450.26575092880455
 21
277.00000000000057
  0
LINE
  8
_0-0_躯体
  6
CONTINUOUS
 62
    2
 10
452.43732380405834
 20
282.00000000000034
 11
447.43732380405834
 21
277.00000000000057
  0
LINE
  8
_0-0_躯体
  6
CONTINUOUS
 62
    2
 10
449.60889667931212
 20
282.00000000000034
 11
444.60889667931212
 21
277.00000000000057
  0
LINE
  8
_0-0_躯体
  6
CONTINUOUS
 62
    2
 10
446.78046955456591
 20
282.00000000000034
 11
441.78046955456591
 21
277.00000000000057
  0
LINE
  8
_0-0_躯体
  6
CONTINUOUS
 62
    2
 10
443.9520424298197
 20
282.00000000000034
 11
438.9520424298197
 21
277.00000000000057
  0
LINE
  8
_0-0_躯体
  6
CONTINUOUS
 62
    2
 10
441.12361530507349
 20
282.00000000000034
 11
436.12361530507349
 21
277.00000000000057
  0
LINE
  8
_0-0_躯体
  6
CONTINUOUS
 62
    2
 10
438.29518818032727
 20
282.00000000000034
 11
433.29518818032727
 21
277.00000000000057
  0
LINE
  8
_0-0_躯体
  6
CONTINUOUS
 62
    2
 10
435.46676105558106
 20
282.00000000000034
 11
430.46676105558106
 21
277.00000000000057
  0
LINE
  8
_0-0_躯体
  6
CONTINUOUS
 62
    2
 10
432.63833393083485
 20
282.00000000000034
 11
427.63833393083485
 21
277.00000000000057
  0
LINE
  8
_0-0_躯体
  6
CONTINUOUS
 62
    2
 10
429.80990680608863
 20
282.00000000000034
 11
424.80990680608863
 21
277.00000000000057
  0
LINE
  8
_0-0_躯体
  6
CONTINUOUS
 62
    2
 10
426.98147968134242
 20
282.00000000000034
 11
421.98147968134242
 21
277.00000000000057
  0
LINE
  8
_0-0_躯体
  6
CONTINUOUS
 62
    2
 10
424.15305255659621
 20
282.00000000000034
 11
419.15305255659621
 21
277.00000000000057
  0
LINE
  8
_0-0_躯体
  6
CONTINUOUS
 62
    2
 10
421.32462543185
 20
282.00000000000034
 11
416.32462543185045
 21
277.00000000000057
  0
LINE
  8
_0-0_躯体
  6
CONTINUOUS
 62
    2
 10
418.49619830710378
 20
282.00000000000034
 11
413.49619830710424
 21
277.00000000000057
  0
LINE
  8
_0-0_躯体
  6
CONTINUOUS
 62
    2
 10
415.66777118235757
 20
282.00000000000034
 11
410.66777118235802
 21
277.00000000000057
  0
LINE
  8
_0-0_躯体
  6
CONTINUOUS
 62
    2
 10
412.83934405761136
 20
282.00000000000034
 11
407.83934405761181
 21
277.00000000000057
  0
LINE
  8
_0-0_躯体
  6
CONTINUOUS
 62
    2
 10
410.0109169328656
 20
282.00000000000034
 11
405.0109169328656
 21
277.00000000000057
  0
LINE
  8
_0-0_躯体
  6
CONTINUOUS
 62
    2
 10
407.18248980811939
 20
282.00000000000034
 11
402.18248980811939
 21
277.00000000000057
  0
LINE
  8
_0-0_躯体
  6
CONTINUOUS
 62
    2
 10
404.35406268337317
 20
282.00000000000034
 11
399.35406268337317
 21
277.00000000000057
  0
LINE
  8
_0-0_躯体
  6
CONTINUOUS
 62
    2
 10
401.52563555862696
 20
282.00000000000034
 11
396.52563555862696
 21
277.00000000000057
  0
LINE
  8
_0-0_躯体
  6
CONTINUOUS
 62
    2
 10
398.69720843388075
 20
282.00000000000034
 11
393.69720843388075
 21
277.00000000000057
  0
LINE
  8
_0-0_躯体
  6
CONTINUOUS
 62
    2
 10
395.86878130913453
 20
282.00000000000034
 11
390.86878130913453
 21
277.00000000000057
  0
LINE
  8
_0-0_躯体
  6
CONTINUOUS
 62
    2
 10
393.04035418438832
 20
282.00000000000034
 11
388.04035418438832
 21
277.00000000000057
  0
LINE
  8
_0-0_躯体
  6
CONTINUOUS
 62
    2
 10
390.21192705964211
 20
282.00000000000034
 11
385.21192705964211
 21
277.00000000000057
  0
LINE
  8
_0-0_躯体
  6
CONTINUOUS
 62
    2
 10
387.38349993489589
 20
282.00000000000034
 11
382.38349993489589
 21
277.00000000000057
  0
LINE
  8
_0-0_躯体
  6
CONTINUOUS
 62
    2
 10
384.55507281014968
 20
282.00000000000034
 11
379.55507281014968
 21
277.00000000000057
  0
LINE
  8
_0-0_躯体
  6
CONTINUOUS
 62
    2
 10
381.72664568540347
 20
282.00000000000034
 11
376.72664568540347
 21
277.00000000000057
  0
LINE
  8
_0-0_躯体
  6
CONTINUOUS
 62
    2
 10
378.89821856065726
 20
282.00000000000034
 11
373.89821856065726
 21
277.00000000000057
  0
LINE
  8
_0-0_躯体
  6
CONTINUOUS
 62
    2
 10
376.06979143591104
 20
282.00000000000034
 11
371.06979143591104
 21
277.00000000000057
  0
LINE
  8
_0-0_躯体
  6
CONTINUOUS
 62
    2
 10
373.24136431116483
 20
282.00000000000034
 11
368.24136431116483
 21
277.00000000000057
  0
LINE
  8
_0-0_躯体
  6
CONTINUOUS
 62
    2
 10
370.41293718641862
 20
282.00000000000034
 11
365.41293718641862
 21
277.00000000000057
  0
LINE
  8
_0-0_躯体
  6
CONTINUOUS
 62
    2
 10
367.5845100616724
 20
282.00000000000034
 11
362.58451006167286
 21
277.00000000000057
  0
LINE
  8
_0-0_躯体
  6
CONTINUOUS
 62
    2
 10
364.75608293692619
 20
282.00000000000034
 11
359.75608293692665
 21
277.00000000000057
  0
LINE
  8
_0-0_躯体
  6
CONTINUOUS
 62
    2
 10
361.92765581217998
 20
282.00000000000034
 11
359.59999999999752
 21
279.67234418781788
  0
LINE
  8
_0-0_躯体
  6
CONTINUOUS
 62
    2
 10
491.52260517829666
 20
312.60000000000025
 11
481.59999999999752
 21
302.677394821701
  0
LINE
  8
_0-0_躯体
  6
CONTINUOUS
 62
    2
 10
488.69417805355044
 20
312.60000000000025
 11
481.59999999999752
 21
305.50582194644721
  0
LINE
  8
_0-0_躯体
  6
CONTINUOUS
 62
    2
 10
485.86575092880423
 20
312.60000000000025
 11
481.59999999999752
 21
308.33424907119343
  0
LINE
  8
_0-0_躯体
  6
CONTINUOUS
 62
    2
 10
483.03732380405825
 20
312.60000000000036
 11
481.59999999999752
 21
311.16267619593964
  0
INSERT
  2
-002-_2_
  8
_0-f_寸法
 10
420.5
 20
297
 41
1
 42
1
 50
0
  0
LINE
  8
_1-0_
  6
CONTINUOUS
 62
    2
 10
738.60000000000002
 20
356.91927353993952
 11
763
 21
356.91927353993952
  0
LINE
  8
_1-0_
  6
CONTINUOUS
 62
    2
 10
738.60000000000036
 20
355.91927353993952
 11
765.00000000000045
 21
355.91927353993952
  0
LINE
  8
_1-0_
  6
CONTINUOUS
 62
    2
 10
738.60000000000002
 20
356.91927353993952
 11
738.60000000000002
 21
336.91927353993952
  0
LINE
  8
_1-0_
  6
CONTINUOUS
 62
    2
 10
763
 20
363.03927353993942
 11
771
 21
363.03927353993942
  0
LINE
  8
_1-0_
  6
CONTINUOUS
 62
    2
 10
763
 20
363.03927353993942
 11
763
 21
356.92167637905942
  0
LINE
  8
_1-0_
  6
CONTINUOUS
 62
    2
 10
763
 20
363.03927353993942
 11
763
 21
356.91927353993952
  0
LINE
  8
_1-0_
  6
CONTINUOUS
 62
    2
 10
765.00000000000045
 20
355.91927353993952
 11
765.00000000000045
 21
363.03927353993942
  0
LINE
  8
_1-0_
  6
CONTINUOUS
 62
    2
 10
765.00000000000045
 20
356.2665274048889
 11
764.65274613505107
 21
355.91927353993952
  0
LINE
  8
_1-0_
  6
CONTINUOUS
 62
    2
 10
765.00000000000045
 20
356.83221282983806
 11
764.0870607101017
 21
355.91927353993952
  0
LINE
  8
_1-0_
  6
CONTINUOUS
 62
    2
 10
765.00000000000045
 20
357.39789825478738
 11
763.52137528515232
 21
355.91927353993952
  0
LINE
  8
_1-0_
  6
CONTINUOUS
 62
    2
 10
765.00000000000045
 20
357.96358367973653
 11
762.95568986020305
 21
355.91927353993952
  0
LINE
  8
_1-0_
  6
CONTINUOUS
 62
    2
 10
765.00000000000045
 20
358.52926910468568
 11
762.39000443525401
 21
355.91927353993952
  0
LINE
  8
_1-0_
  6
CONTINUOUS
 62
    2
 10
765.00000000000045
 20
359.09495452963506
 11
763
 21
357.09495452963483
  0
LINE
  8
_1-0_
  6
CONTINUOUS
 62
    2
 10
762.82431901030475
 20
356.91927353993952
 11
761.82431901030475
 21
355.91927353993952
  0
LINE
  8
_1-0_
  6
CONTINUOUS
 62
    2
 10
765.00000000000045
 20
359.66063995458421
 11
763
 21
357.66063995458398
  0
LINE
  8
_1-0_
  6
CONTINUOUS
 62
    2
 10
762.25863358535537
 20
356.91927353993952
 11
761.25863358535537
 21
355.91927353993952
  0
LINE
  8
_1-0_
  6
CONTINUOUS
 62
    2
 10
765.00000000000045
 20
360.22632537953353
 11
763
 21
358.22632537953336
  0
LINE
  8
_1-0_
  6
CONTINUOUS
 62
    2
 10
761.6929481604061
 20
356.91927353993952
 11
760.6929481604061
 21
355.91927353993952
  0
LINE
  8
_1-0_
  6
CONTINUOUS
 62
    2
 10
765.00000000000045
 20
360.79201080448286
 11
763
 21
358.79201080448252
  0
LINE
  8
_1-0_
  6
CONTINUOUS
 62
    2
 10
761.12726273545707
 20
356.91927353993952
 11
760.12726273545707
 21
355.91927353993952
  0
LINE
  8
_1-0_
  6
CONTINUOUS
 62
    2
 10
765.00000000000045
 20
361.35769622943201
 11
763
 21
359.35769622943184
  0
LINE
  8
_1-0_
  6
CONTINUOUS
 62
    2
 10
760.5615773105078
 20
356.91927353993952
 11
759.5615773105078
 21
355.91927353993952
  0
LINE
  8
_1-0_
  6
CONTINUOUS
 62
    2
 10
765.00000000000045
 20
361.92338165438116
 11
763
 21
359.92338165438116
  0
LINE
  8
_1-0_
  6
CONTINUOUS
 62
    2
 10
759.99589188555842
 20
356.91927353993952
 11
758.99589188555876
 21
355.91927353993952
  0
LINE
  8
_1-0_
  6
CONTINUOUS
 62
    2
 10
765.00000000000045
 20
362.48906707933048
 11
763
 21
360.48906707933031
  0
LINE
  8
_1-0_
  6
CONTINUOUS
 62
    2
 10
759.4302064606095
 20
356.91927353993952
 11
758.4302064606095
 21
355.91927353993952
  0
LINE
  8
_1-0_
  6
CONTINUOUS
 62
    2
 10
758.86452103566012
 20
356.91927353993952
 11
757.86452103566012
 21
355.91927353993952
  0
LINE
  8
_1-0_
  6
CONTINUOUS
 62
    2
 10
758.29883561071074
 20
356.91927353993952
 11
757.29883561071074
 21
355.91927353993952
  0
LINE
  8
_1-0_
  6
CONTINUOUS
 62
    2
 10
757.73315018576182
 20
356.91927353993952
 11
756.73315018576182
 21
355.91927353993952
  0
LINE
  8
_1-0_
  6
CONTINUOUS
 62
    2
 10
757.16746476081209
 20
356.91927353993952
 11
756.16746476081244
 21
355.91927353993952
  0
LINE
  8
_1-0_
  6
CONTINUOUS
 62
    2
 10
756.60177933586317
 20
356.91927353993952
 11
755.60177933586317
 21
355.91927353993952
  0
LINE
  8
_1-0_
  6
CONTINUOUS
 62
    2
 10
756.03609391091379
 20
356.91927353993952
 11
755.03609391091379
 21
355.91927353993952
  0
LINE
  8
_1-0_
  6
CONTINUOUS
 62
    2
 10
755.47040848596453
 20
356.91927353993952
 11
754.47040848596453
 21
355.91927353993952
  0
LINE
  8
_1-0_
  6
CONTINUOUS
 62
    2
 10
754.90472306101549
 20
356.91927353993952
 11
753.90472306101549
 21
355.91927353993952
  0
LINE
  8
_1-0_
  6
CONTINUOUS
 62
    2
 10
754.33903763606622
 20
356.91927353993952
 11
753.33903763606622
 21
355.91927353993952
  0
LINE
  8
_1-0_
  6
CONTINUOUS
 62
    2
 10
753.77335221111684
 20
356.91927353993952
 11
752.77335221111684
 21
355.91927353993952
  0
LINE
  8
_1-0_
  6
CONTINUOUS
 62
    2
 10
753.20766678616792
 20
356.91927353993952
 11
752.20766678616792
 21
355.91927353993952
  0
LINE
  8
_1-0_
  6
CONTINUOUS
 62
    2
 10
752.64198136121854
 20
356.91927353993952
 11
751.64198136121854
 21
355.91927353993952
  0
LINE
  8
_1-0_
  6
CONTINUOUS
 62
    2
 10
752.07629593626916
 20
356.91927353993952
 11
751.07629593626916
 21
355.91927353993952
  0
LINE
  8
_1-0_
  6
CONTINUOUS
 62
    2
 10
751.5106105113199
 20
356.91927353993952
 11
750.5106105113199
 21
355.91927353993952
  0
LINE
  8
_1-0_
  6
CONTINUOUS
 62
    2
 10
750.94492508637052
 20
356.91927353993952
 11
749.94492508637052
 21
355.91927353993952
  0
LINE
  8
_1-0_
  6
CONTINUOUS
 62
    2
 10
750.37923966142159
 20
356.91927353993952
 11
749.37923966142159
 21
355.91927353993952
  0
LINE
  8
_1-0_
  6
CONTINUOUS
 62
    2
 10
749.81355423647221
 20
356.91927353993952
 11
748.81355423647221
 21
355.91927353993952
  0
LINE
  8
_1-0_
  6
CONTINUOUS
 62
    2
 10
749.24786881152295
 20
356.91927353993952
 11
748.24786881152295
 21
355.91927353993952
  0
LINE
  8
_1-0_
  6
CONTINUOUS
 62
    2
 10
748.68218338657391
 20
356.91927353993952
 11
747.68218338657391
 21
355.91927353993952
  0
LINE
  8
_1-0_
  6
CONTINUOUS
 62
    2
 10
748.11649796162465
 20
356.91927353993952
 11
747.11649796162465
 21
355.91927353993952
  0
LINE
  8
_1-0_
  6
CONTINUOUS
 62
    2
 10
747.55081253667527
 20
356.91927353993952
 11
746.55081253667527
 21
355.91927353993952
  0
LINE
  8
_1-0_
  6
CONTINUOUS
 62
    2
 10
746.98512711172589
 20
356.91927353993952
 11
745.98512711172589
 21
355.91927353993952
  0
LINE
  8
_1-0_
  6
CONTINUOUS
 62
    2
 10
746.41944168677662
 20
356.91927353993952
 11
745.41944168677696
 21
355.91927353993952
  0
LINE
  8
_1-0_
  6
CONTINUOUS
 62
    2
 10
745.85375626182758
 20
356.91927353993952
 11
744.85375626182758
 21
355.91927353993952
  0
LINE
  8
_1-0_
  6
CONTINUOUS
 62
    2
 10
745.28807083687866
 20
356.91927353993952
 11
744.28807083687866
 21
355.91927353993952
  0
LINE
  8
_1-0_
  6
CONTINUOUS
 62
    2
 10
744.72238541192894
 20
356.91927353993952
 11
743.72238541192894
 21
355.91927353993952
  0
LINE
  8
_1-0_
  6
CONTINUOUS
 62
    2
 10
744.15669998698002
 20
356.91927353993952
 11
743.15669998698002
 21
355.91927353993952
  0
LINE
  8
_1-0_
  6
CONTINUOUS
 62
    2
 10
743.59101456203064
 20
356.91927353993952
 11
742.59101456203064
 21
355.91927353993952
  0
LINE
  8
_1-0_
  6
CONTINUOUS
 62
    2
 10
743.02532913708137
 20
356.91927353993952
 11
742.02532913708137
 21
355.91927353993952
  0
LINE
  8
_1-0_
  6
CONTINUOUS
 62
    2
 10
742.45964371213233
 20
356.91927353993952
 11
741.45964371213233
 21
355.91927353993952
  0
LINE
  8
_1-0_
  6
CONTINUOUS
 62
    2
 10
741.89395828718307
 20
356.91927353993952
 11
740.89395828718307
 21
355.91927353993952
  0
LINE
  8
_1-0_
  6
CONTINUOUS
 62
    2
 10
741.32827286223369
 20
356.91927353993952
 11
740.32827286223369
 21
355.91927353993952
  0
LINE
  8
_1-0_
  6
CONTINUOUS
 62
    2
 10
740.76258743728431
 20
356.91927353993952
 11
739.76258743728431
 21
355.91927353993952
  0
LINE
  8
_1-0_
  6
CONTINUOUS
 62
    2
 10
740.19690201233539
 20
356.91927353993952
 11
739.19690201233539
 21
355.91927353993952
  0
LINE
  8
_1-0_
  6
CONTINUOUS
 62
    2
 10
739.63121658738601
 20
356.91927353993952
 11
738.63121658738601
 21
355.91927353993952
  0
LINE
  8
_1-0_
  6
CONTINUOUS
 62
    2
 10
739.06553116243674
 20
356.91927353993952
 11
738.60000000000002
 21
356.45374237750286
  0
LINE
  8
_1-0_
  6
CONTINUOUS
 62
    2
 10
764.98452103566024
 20
363.03927353993942
 11
763
 21
361.05475250427946
  0
LINE
  8
_1-0_
  6
CONTINUOUS
 62
    2
 10
764.41883561071086
 20
363.03927353993942
 11
763
 21
361.62043792922879
  0
LINE
  8
_1-0_
  6
CONTINUOUS
 62
    2
 10
763.85315018576148
 20
363.03927353993942
 11
763
 21
362.18612335417811
  0
LINE
  8
_1-0_
  6
CONTINUOUS
 62
    2
 10
763.28746476081221
 20
363.03927353993942
 11
763
 21
362.75180877912749
  0
LINE
  8
_1-e_
  6
CONTINUOUS
 62
    4
 10
764
 20
356.91927353993952
 11
792
 21
356.91927353993952
  0
LINE
  8
_1-e_
  6
CONTINUOUS
 62
    4
 10
772
 20
363.03927353993942
 11
792
 21
363.03927353993942
  0
POINT
  8
_1-e_
 62
    4
 10
791
 20
363.03927353993942
  0
POINT
  8
_1-e_
 62
    4
 10
791
 20
356.91927353993952
  0
LINE
  8
_1-e_
  6
CONTINUOUS
 62
    4
 10
791
 20
363.03927353993942
 11
791
 21
356.91927353993952
  0
TEXT
  8
_1-e_
 62
    4
 10
791
 20
353.97927353993941
 40
6
 41
1
 50
90
  1
30.6
  0
LINE
  8
_1-0_
  6
CONTINUOUS
 62
    4
 10
738.60000000000002
 20
357.91927353993952
 11
738.60000000000002
 21
384.03927353993942
  0
LINE
  8
_1-0_
  6
CONTINUOUS
 62
    4
 10
763
 20
364.03927353993942
 11
763
 21
384.03927353993942
  0
POINT
  8
_1-0_
 62
    4
 10
763
 20
383.03927353993942
  0
POINT
  8
_1-0_
 62
    4
 10
738.60000000000002
 20
383.03927353993942
  0
LINE
  8
_1-0_
  6
CONTINUOUS
 62
    4
 10
763
 20
383.03927353993942
 11
738.60000000000002
 21
383.03927353993942
  0
TEXT
  8
_1-0_
 62
    4
 10
745.40000000000009
 20
383.03927353993942
 40
9
 41
0.8
 50
0
  1
122
  0
LINE
  8
_1-0_
  6
CONTINUOUS
 62
    4
 10
718.59999999999968
 20
374.91927353994163
 11
718.59999999999968
 21
384.03927353993942
  0
POINT
  8
_1-0_
 62
    4
 10
738.60000000000002
 20
383.03927353993942
  0
POINT
  8
_1-0_
 62
    4
 10
718.59999999999968
 20
383.03927353993942
  0
LINE
  8
_1-0_
  6
CONTINUOUS
 62
    4
 10
738.60000000000002
 20
383.03927353993942
 11
718.59999999999968
 21
383.03927353993942
  0
TEXT
  8
_1-0_
 62
    4
 10
723.20000000000005
 20
383.03927353993942
 40
9
 41
0.8
 50
0
  1
100
  0
LINE
  8
_f-0_
  6
CONTINUOUS
 62
    6
 10
219.99999999999994
 20
554.00000000000023
 11
219.99999999999994
 21
534.00000000000034
  0
LINE
  8
_f-0_
  6
CONTINUOUS
 62
    6
 10
219.99999999999994
 20
534.00000000000034
 11
19.999999999999943
 21
534.00000000000034
  0
TEXT
  8
_f-0_
 62
    4
 10
46.807999999999936
 20
536.00000000000023
 40
16
 41
1
 50
0
  1
100TCK-A　耐火仕様
  0
LINE
  8
_0-9_小物
  6
CONTINUOUS
 62
    3
 10
217.99999080160472
 20
318.09999999968807
 11
215.49999748808153
 21
315.59999999968807
  0
LINE
  8
_0-9_小物
  6
CONTINUOUS
 62
    3
 10
215.49999748808153
 20
315.59999999968807
 11
217.71811560361169
 21
313.09999999968807
  0
INSERT
  2
-003-_3_
  8
_0-9_小物
 10
420.5
 20
297
 41
1
 42
1
 50
0
  0
LINE
  8
_0-9_小物
  6
CONTINUOUS
 62
    3
 10
217.99999080160472
 20
318.09999999968807
 11
220.66226865073048
 21
318.09999999968807
  0
LINE
  8
_0-9_小物
  6
CONTINUOUS
 62
    3
 10
217.71811560361169
 20
313.09999999968807
 11
220.66226865073025
 21
313.09999999968807
  0
INSERT
  2
-004-_4_
  8
_0-9_小物
 10
420.5
 20
297
 41
1
 42
1
 50
0
  0
INSERT
  2
-005-_5_
  8
_0-9_小物
 10
420.5
 20
297
 41
1
 42
1
 50
0
  0
LINE
  8
_0-9_小物
  6
CONTINUOUS
 62
    3
 10
392.0999999999998
 20
242.09999331351185
 11
394.5999999999998
 21
239.59999999998888
  0
LINE
  8
_0-9_小物
  6
CONTINUOUS
 62
    3
 10
394.5999999999998
 20
239.59999999998888
 11
397.0999999999998
 21
241.81811811551904
  0
LINE
  8
_0-9_小物
  6
CONTINUOUS
 62
    3
 10
392.0999999999998
 20
242.09999331351185
 11
392.0999999999998
 21
243.06226865072324
  0
LINE
  8
_0-9_小物
  6
CONTINUOUS
 62
    3
 10
397.0999999999998
 20
241.81811811551904
 11
397.0999999999998
 21
243.06226865072324
  0
LINE
  8
_0-9_小物
  6
CONTINUOUS
 62
    3
 10
447.09999999999843
 20
241.09999331351185
 11
449.59999999999843
 21
238.59999999998888
  0
LINE
  8
_0-9_小物
  6
CONTINUOUS
 62
    3
 10
449.59999999999843
 20
238.59999999998888
 11
452.09999999999843
 21
240.81811811551904
  0
LINE
  8
_0-9_小物
  6
CONTINUOUS
 62
    3
 10
447.09999999999843
 20
241.09999331351185
 11
447.09999999999843
 21
243.06226865072324
  0
LINE
  8
_0-9_小物
  6
CONTINUOUS
 62
    3
 10
452.09999999999843
 20
240.81811811551904
 11
452.09999999999843
 21
243.06226865072324
  0
CIRCLE
  8
_0-e_付箋
  6
CONTINUOUS
 62
    4
 10
413.27309539819055
 20
221.83684899606135
 40
4.8827102566353844
  0
LINE
  8
_0-e_付箋
  6
CONTINUOUS
 62
    4
 10
400.06061000000011
 20
246.22154499998862
 11
411.51023183988229
 21
226.39021824586337
  0
TEXT
  8
_0-e_付箋
 62
    4
 10
410.27309539819055
 20
218.83684899606135
 40
6
 41
1
 50
0
  1
10
  0
LINE
  8
_0-0_躯体
  6
CONTINUOUS
 62
    2
 10
359.59999999999752
 20
282.00000000000034
 11
359.59999999999752
 21
132.00000000000011
  0
LINE
  8
_0-0_躯体
  6
CENTER1
 62
    2
 10
309.6000000000007
 20
281.99999999998875
 11
309.6000000000007
 21
132.00000000000011
  0
LINE
  8
_0-0_躯体
  6
CONTINUOUS
 62
    2
 10
259.59999999999803
 20
368.60000000000048
 11
259.59999999999803
 21
132.00000000000011
  0
LINE
  8
_0-f_寸法
  6
CONTINUOUS
 62
    4
 10
359.59999999999752
 20
131.00000000000011
 11
359.59999999999752
 21
111.00000000000011
  0
LINE
  8
_0-f_寸法
  6
CONTINUOUS
 62
    4
 10
259.59999999999803
 20
131.00000000000011
 11
259.59999999999803
 21
111.00000000000011
  0
POINT
  8
_0-f_寸法
 62
    4
 10
259.59999999999803
 20
112.00000000000011
  0
POINT
  8
_0-f_寸法
 62
    4
 10
359.59999999999752
 20
112.00000000000011
  0
LINE
  8
_0-f_寸法
  6
CONTINUOUS
 62
    4
 10
259.59999999999803
 20
112.00000000000011
 11
359.59999999999752
 21
112.00000000000011
  0
TEXT
  8
_0-f_寸法
 62
    4
 10
304.19999999999777
 20
112.00000000000011
 40
9
 41
0.8
 50
0
  1
100
  0
LINE
  8
_0-f_寸法
  6
CONTINUOUS
 62
    4
 10
394.5999999999998
 20
238.59999999998888
 11
394.5999999999998
 21
111.00000000000011
  0
POINT
  8
_0-f_寸法
 62
    4
 10
359.59999999999752
 20
112.00000000000011
  0
POINT
  8
_0-f_寸法
 62
    4
 10
394.5999999999998
 20
112.00000000000011
  0
LINE
  8
_0-f_寸法
  6
CONTINUOUS
 62
    4
 10
359.59999999999752
 20
112.00000000000011
 11
394.5999999999998
 21
112.00000000000011
  0
TEXT
  8
_0-f_寸法
 62
    4
 10
373.49999999999864
 20
112.00000000000011
 40
9
 41
0.8
 50
0
  1
35
  0
LINE
  8
_0-f_寸法
  6
CONTINUOUS
 62
    4
 10
449.59999999999843
 20
237.59999999998888
 11
449.59999999999843
 21
111.00000000000011
  0
POINT
  8
_0-f_寸法
 62
    4
 10
394.5999999999998
 20
112.00000000000011
  0
POINT
  8
_0-f_寸法
 62
    4
 10
449.59999999999843
 20
112.00000000000011
  0
LINE
  8
_0-f_寸法
  6
CONTINUOUS
 62
    4
 10
394.5999999999998
 20
112.00000000000011
 11
449.59999999999843
 21
112.00000000000011
  0
TEXT
  8
_0-f_寸法
 62
    4
 10
418.49999999999909
 20
112.00000000000011
 40
9
 41
0.8
 50
0
  1
55
  0
LINE
  8
_0-f_寸法
  6
CONTINUOUS
 62
    4
 10
358.59999999999752
 20
282.00000000000034
 11
194.49999748808153
 21
282.00000000000034
  0
LINE
  8
_0-f_寸法
  6
CONTINUOUS
 62
    4
 10
214.49999748808153
 20
315.59999999968807
 11
194.49999748808153
 21
315.59999999968807
  0
POINT
  8
_0-f_寸法
 62
    4
 10
195.49999748808153
 20
315.59999999968807
  0
POINT
  8
_0-f_寸法
 62
    4
 10
195.49999748808153
 20
282.00000000000034
  0
LINE
  8
_0-f_寸法
  6
CONTINUOUS
 62
    4
 10
195.49999748808153
 20
315.59999999968807
 11
195.49999748808153
 21
282.00000000000034
  0
TEXT
  8
_0-f_寸法
 62
    4
 10
195.49999748808153
 20
291.59999999984433
 40
9
 41
0.8
 50
90
  1
33.6
  0
TEXT
  8
_0-f_寸法
 62
    4
 10
658.07000000000005
 20
153.50000000000011
 40
8
 41
0.8662499999999999
 50
0
  1
※
  0
TEXT
  8
_0-e_付箋
 62
    4
 10
328.7909522551268
 20
124.65339113824109
 40
6
 41
1
 50
0
  1
耐火帯
  0
LINE
  8
_0-e_付箋
  6
CONTINUOUS
 62
    4
 10
328.79095225512674
 20
124.65339113824109
 11
346.7909522551268
 21
124.65339113824109
  0
LINE
  8
_0-e_付箋
  6
CONTINUOUS
 62
    4
 10
322.54095225512674
 20
135.47870868554662
 11
328.79095225512674
 21
124.65339113824109
  0
LINE
  8
_0-1_耐火帯
  6
CONTINUOUS
 62
    4
 10
269.19999999999794
 20
232.50000000000034
 11
271.19999999999794
 21
232.50000000000034
  0
ARC
  8
_0-1_耐火帯
  6
CONTINUOUS
 62
    4
 10
271.19999999999794
 20
233.50000000000034
 40
1
 50
270
 51
0
  0
LINE
  8
_0-1_耐火帯
  6
CONTINUOUS
 62
    4
 10
272.19999999999794
 20
233.50000000000034
 11
272.19999999999794
 21
236.50000000000034
  0
ARC
  8
_0-1_耐火帯
  6
CONTINUOUS
 62
    4
 10
271.19999999999794
 20
236.50000000000034
 40
1
 50
0
 51
90
  0
LINE
  8
_0-1_耐火帯
  6
CONTINUOUS
 62
    4
 10
271.19999999999794
 20
237.50000000000034
 11
269.19999999999794
 21
237.50000000000034
  0
ARC
  8
_0-1_耐火帯
  6
CONTINUOUS
 62
    4
 10
261.09999999999758
 20
237.00000000000034
 40
1
 50
90
 51
180
  0
LINE
  8
_0-1_耐火帯
  6
CONTINUOUS
 62
    4
 10
260.09999999999758
 20
237.00000000000034
 11
260.09999999999758
 21
233.00000000000034
  0
ARC
  8
_0-1_耐火帯
  6
CONTINUOUS
 62
    4
 10
261.09999999999758
 20
233.00000000000034
 40
1
 50
180
 51
270
  0
LINE
  8
_0-1_耐火帯
  6
CONTINUOUS
 62
    4
 10
259.59999999999758
 20
220.77500000000043
 11
262.69999999999794
 21
223.87500000000034
  0
ARC
  8
_0-1_耐火帯
  6
CONTINUOUS
 62
    4
 10
262.59999999999758
 20
249.08908400000007
 40
3
 50
180
 51
239.19386900000919
  0
LINE
  8
_0-1_耐火帯
  6
CONTINUOUS
 62
    4
 10
261.06359599999809
 20
246.51237000000026
 11
262.69999999999794
 21
245.53663800000038
  0
LINE
  8
_0-1_耐火帯
  6
CONTINUOUS
 62
    4
 10
262.69999999999794
 20
245.53663800000038
 11
262.69999999999794
 21
223.87500000000034
  0
ARC
  8
_0-1_耐火帯
  6
CONTINUOUS
 62
    4
 10
262.59999999999758
 20
251.12538022290016
 40
3
 50
105.12400699999459
 51
180
  0
LINE
  8
_0-1_耐火帯
  6
CONTINUOUS
 62
    4
 10
265.43783783779776
 20
255.00000000000034
 11
261.8172719999979
 21
254.02147022290035
  0
LINE
  8
_0-1_耐火帯
  6
CONTINUOUS
 62
    4
 10
259.59999999999758
 20
251.12538022290016
 11
259.59999999999758
 21
249.08908400000007
  0
LINE
  8
_0-1_耐火帯
  6
CONTINUOUS
 62
    4
 10
265.43783783779776
 20
255.00000000000034
 11
267.59999999999758
 21
245.00000000000034
  0
LINE
  8
_0-1_耐火帯
  6
CONTINUOUS
 62
    4
 10
267.59999999999758
 20
245.00000000000034
 11
267.59999999999758
 21
225.00000000000034
  0
LINE
  8
_0-1_耐火帯
  6
CONTINUOUS
 62
    4
 10
269.19999999999794
 20
225.00000000000034
 11
267.59999999999758
 21
225.00000000000034
  0
LINE
  8
_0-1_耐火帯
  6
CONTINUOUS
 62
    4
 10
269.19999999999794
 20
225.00000000000034
 11
272.09999999999758
 21
222.10000000000025
  0
LINE
  8
_0-1_耐火帯
  6
CONTINUOUS
 62
    4
 10
269.19999999999794
 20
245.00000000000034
 11
269.19999999999794
 21
225.00000000000034
  0
LINE
  8
_0-1_耐火帯
  6
CONTINUOUS
 62
    4
 10
267.59999999999758
 20
245.00000000000034
 11
267.59999999999758
 21
225.00000000000034
  0
LINE
  8
_0-1_耐火帯
  6
CONTINUOUS
 62
    4
 10
269.19999999999794
 20
225.00000000000034
 11
267.59999999999758
 21
225.00000000000034
  0
LINE
  8
_0-1_耐火帯
  6
CONTINUOUS
 62
    4
 10
262.69999999999794
 20
225.00000000000034
 11
261.09999999999758
 21
225.00000000000034
  0
LINE
  8
_0-1_耐火帯
  6
CONTINUOUS
 62
    4
 10
261.09999999999758
 20
245.00000000000034
 11
262.69999999999794
 21
245.00000000000034
  0
LINE
  8
_0-1_耐火帯
  6
CONTINUOUS
 62
    4
 10
261.09999999999758
 20
225.00000000000034
 11
261.09999999999758
 21
245.00000000000034
  0
LINE
  8
_0-1_耐火帯
  6
CONTINUOUS
 62
    4
 10
262.69999999999794
 20
225.00000000000034
 11
262.69999999999794
 21
245.00000000000034
  0
LINE
  8
_0-1_耐火帯
  6
CONTINUOUS
 62
    4
 10
269.19999999999794
 20
225.00000000000034
 11
267.59999999999803
 21
225.00000000000034
  0
LINE
  8
_0-1_耐火帯
  6
CONTINUOUS
 62
    4
 10
269.19999999999794
 20
225.00000000000034
 11
267.59999999999758
 21
225.00000000000034
  0
LINE
  8
_0-1_耐火帯
  6
CONTINUOUS
 62
    4
 10
267.59999999999758
 20
245.0000000000008
 11
267.59999999999758
 21
225.0000000000008
  0
LINE
  8
_0-1_耐火帯
  6
CONTINUOUS
 62
    4
 10
269.19999999999749
 20
245.13519795284935
 11
269.19999999999749
 21
225.0000000000008
  0
LINE
  8
_0-1_耐火帯
  6
CONTINUOUS
 62
    4
 10
269.19999999999749
 20
225.0000000000008
 11
267.59999999999758
 21
225.0000000000008
  0
LINE
  8
_0-1_耐火帯
  6
CONTINUOUS
 62
    4
 10
267.59999999999758
 20
225.00000000000034
 11
269.19999999999749
 21
225.00000000000034
  0
LINE
  8
_0-1_耐火帯
  6
CONTINUOUS
 62
    4
 10
267.59999999999758
 20
245.00000000000034
 11
267.59999999999758
 21
225.00000000000034
  0
LINE
  8
_0-1_耐火帯
  6
CONTINUOUS
 62
    4
 10
269.19999999999749
 20
245.00000000000034
 11
269.19999999999749
 21
225.00000000000034
  0
LINE
  8
_0-1_耐火帯
  6
CONTINUOUS
 62
    4
 10
269.19999999999749
 20
245.00000000000034
 11
261.19999999999749
 21
282.00000000000034
  0
LINE
  8
_0-1_耐火帯
  6
CONTINUOUS
 62
    4
 10
259.59999999999758
 20
282.00000000000034
 11
267.59999999999758
 21
245.00000000000034
  0
LINE
  8
_0-1_耐火帯
  6
CONTINUOUS
 62
    4
 10
259.59999999999758
 20
332.00000000000045
 11
259.59999999999758
 21
282.00000000000034
  0
LINE
  8
_0-1_耐火帯
  6
CONTINUOUS
 62
    4
 10
261.19999999999749
 20
332.00000000000045
 11
261.19999999999749
 21
282.00000000000034
  0
LINE
  8
_0-1_耐火帯
  6
CONTINUOUS
 62
    4
 10
259.59999999999758
 20
332.00000000000045
 11
261.19999999999749
 21
332.00000000000045
  0
LINE
  8
_0-1_耐火帯
  6
DASHED1
 62
    4
 10
259.59999999999758
 20
306.00000000000045
 11
261.19999999999749
 21
306.00000000000045
  0
LINE
  8
_0-1_耐火帯
  6
DASHED1
 62
    4
 10
259.59999999999758
 20
321.10000000000036
 11
261.19999999999749
 21
322.70000000000027
  0
LINE
  8
_0-1_耐火帯
  6
DASHED1
 62
    4
 10
259.59999999999758
 20
316.10000000000036
 11
261.19999999999749
 21
314.50000000000045
  0
LINE
  8
_0-1_耐火帯
  6
CONTINUOUS
 62
    4
 10
272.09999999999758
 20
183.77499999999975
 11
272.09999999999758
 21
222.10000000000025
  0
LINE
  8
_0-1_耐火帯
  6
CONTINUOUS
 62
    4
 10
259.59999999999803
 20
183.77499999999975
 11
259.59999999999758
 21
220.77500000000043
  0
LINE
  8
_0-a_
  6
CONTINUOUS
 62
    3
 10
261.19999999999658
 20
282.66949520632534
 11
261.19999999999658
 21
343.09999999968568
  0
LINE
  8
_0-a_
  6
CONTINUOUS
 62
    3
 10
261.19999999999658
 20
282.66949520632534
 11
280.36210037466486
 21
211.15556302832749
  0
LINE
  8
_0-a_
  6
CONTINUOUS
 62
    3
 10
262.19999999999658
 20
282.80114770391572
 11
262.19999999999658
 21
343.09999999968568
  0
LINE
  8
_0-a_
  6
CONTINUOUS
 62
    3
 10
262.19999999999658
 20
282.80114770391572
 11
281.32802620095487
 21
211.41438207342992
  0
ARC
  8
_0-a_
  6
CONTINUOUS
 62
    3
 10
309.6000000000007
 20
218.98983462131844
 40
30.269301047331084
 50
194.99999999999997
 51
345
  0
ARC
  8
_0-a_
  6
CONTINUOUS
 62
    3
 10
309.6000000000007
 20
218.98983462131844
 40
29.269301047330227
 50
194.99999999999991
 51
345.00000000000006
  0
LINE
  8
_0-a_
  6
CONTINUOUS
 62
    3
 10
357.48200102004063
 20
284.59999999998911
 11
337.87197379904654
 21
211.41438207342992
  0
LINE
  8
_0-a_
  6
CONTINUOUS
 62
    3
 10
357.48200102004063
 20
284.59999999998911
 11
477.6000000000007
 21
284.59999999998911
  0
LINE
  8
_0-a_
  6
CONTINUOUS
 62
    3
 10
358.24932800802031
 20
283.59999999998888
 11
338.83789962533655
 21
211.15556302832749
  0
LINE
  8
_0-a_
  6
CONTINUOUS
 62
    3
 10
358.24932800802031
 20
283.59999999998888
 11
409.6000000000007
 21
283.59999999998888
  0
TEXT
  8
_0-f_寸法
 62
    4
 10
670
 20
153.50000000000011
 40
8
 41
0.8662499999999999
 50
0
  1
耐火帯：耐火帯TCK-13
  0
LINE
  8
_0-f_寸法
  6
CONTINUOUS
 62
    4
 10
482.59999999999752
 20
282.00000000000034
 11
542.59999999999718
 21
282.00000000000034
  0
LINE
  8
_0-f_寸法
  6
CONTINUOUS
 62
    4
 10
522.59999999999707
 20
312.60000000000025
 11
542.59999999999718
 21
312.60000000000025
  0
POINT
  8
_0-f_寸法
 62
    4
 10
541.59999999999718
 20
312.60000000000025
  0
POINT
  8
_0-f_寸法
 62
    4
 10
541.59999999999718
 20
282.00000000000034
  0
LINE
  8
_0-f_寸法
  6
CONTINUOUS
 62
    4
 10
541.59999999999718
 20
312.60000000000025
 11
541.59999999999718
 21
282.00000000000034
  0
TEXT
  8
_0-f_寸法
 62
    4
 10
541.59999999999718
 20
290.10000000000025
 40
9
 41
0.8
 50
90
  1
30.6
  0
TEXT
  8
_f-0_
 62
    4
 10
806.87199999999996
 20
594.00000000000023
 40
16
 41
1
 50
0
  1
A1版
  0
ENDSEC
  0
EOF
