  0
SECTION
  2
HEADER
  9
$ACADVER
  1
AC1009
  9
$INSBASE
 10
0
 20
0
 30
0
  9
$EXTMIN
 10
0
 20
0
  9
$EXTMAX
 10
420
 20
297
  9
$LIMMIN
 10
0
 20
0
  9
$LIMMAX
 10
420
 20
297
  9
$LTSCALE
 40
1
  0
ENDSEC
  0
SECTION
  2
TABLES
  0
TABLE
  2
LTYPE
 70
     9
  0
LTYPE
  2
CONTINUOUS
 70
    64
  3
実線
 72
    65
 73
     0
 40
0.0
  0
LTYPE
  2
DASHED1
 70
    64
  3
--  --  --  --  --  --  --  --  
 72
    65
 73
     2
 40
2.5
 49
1.25
 49
-1.25
  0
LTYPE
  2
DASHED2
 70
    64
  3
----    ----    ----    ----    
 72
    65
 73
     2
 40
5.0
 49
2.5
 49
-2.5
  0
LTYPE
  2
DASHED3
 70
    64
  3
------  ------  ------  ------  
 72
    65
 73
     2
 40
5.0
 49
3.75
 49
-1.25
  0
LTYPE
  2
CENTER1
 70
    64
  3
----- - ----- - ----- - ----- - 
 72
    65
 73
     4
 40
10.0
 49
6.25
 49
-1.25
 49
1.25
 49
-1.25
  0
LTYPE
  2
CENTER2
 70
    64
  3
----------  --  ----------  --  
 72
    65
 73
     4
 40
20.0
 49
12.5
 49
-2.5
 49
2.5
 49
-2.5
  0
LTYPE
  2
PHANTOM1
 70
    64
  3
--- - - --- - - --- - - --- - - 
 72
    65
 73
     6
 40
10.0
 49
3.25
 49
-1.25
 49
1.25
 49
-1.25
 49
1.25
 49
-1.25
  0
LTYPE
  2
PHANTOM2
 70
    64
  3
--------  -  -  --------  -  -  
 72
    65
 73
     6
 40
20.0
 49
10.0
 49
-2.5
 49
1.25
 49
-2.5
 49
1.25
 49
-2.5
  0
LTYPE
  2
DOT
 70
    64
  3
-   -   -   -   -   -   -   -   
 72
    65
 73
     2
 40
2.5
 49
0.625
 49
-1.875
  0
LTYPE
  2
DUMMY
 70
    64
  3
ダミー
 72
    65
 73
     0
 40
0.0
  0
LTYPE
  2
RAND1
 70
    64
  3
ランダム線1
 72
    65
 73
     4
 40
10.0
 49
1.0
 49
-2.0
 49
3.0
 49
-4.0
  0
LTYPE
  2
RAND2
 70
    64
  3
ランダム線2
 72
    65
 73
     4
 40
14.0
 49
2.0
 49
-3.0
 49
4.0
 49
-5.0
  0
LTYPE
  2
RAND3
 70
    64
  3
ランダム線3
 72
    65
 73
     4
 40
18.0
 49
3.0
 49
-4.0
 49
5.0
 49
-6.0
  0
LTYPE
  2
RAND4
 70
    64
  3
ランダム線4
 72
    65
 73
     4
 40
22.0
 49
4.0
 49
-5.0
 49
6.0
 49
-7.0
  0
LTYPE
  2
RAND5
 70
    64
  3
ランダム線5
 72
    65
 73
     4
 40
26.0
 49
5.0
 49
-6.0
 49
7.0
 49
-8.0
  0
LTYPE
  2
LONG1
 70
    64
  3
----------  --  ----------  --  
 72
    65
 73
     4
 40
40.0
 49
32.5
 49
-2.5
 49
2.5
 49
-2.5
  0
LTYPE
  2
LONG2
 70
    64
  3
--------  -  -  --------  -  -  
 72
    65
 73
     6
 40
40.0
 49
30.0
 49
-2.5
 49
1.25
 49
-2.5
 49
1.25
 49
-2.5
  0
LTYPE
  2
LONG3
 70
    64
  3
+++++++++++++++..+++++++++++++++
 72
    65
 73
     2
 40
40.0
 49
37.5
 49
-2.5
  0
LTYPE
  2
LONG4
 70
    64
  3
+++++++++++++++..+++++++++++++++
 72
    65
 73
     2
 40
80.0
 49
75.0
 49
-5.0
  0
LTYPE
  2
LONG5
 70
    64
  3
----------  --  ----------  --  
 72
    65
 73
     4
 40
60.0
 49
37.5
 49
-7.5
 49
7.5
 49
-7.5
  0
LTYPE
  2
dashed
 70
   64
  3
-------   -------------   ------
 72
   65
 73
    2
 40
7.5
 49
6
 49
-1.5
  0
LTYPE
  2
dashed_spaced
 70
   64
  3
----        --------        ----
 72
   65
 73
    2
 40
12
 49
6
 49
-6
  0
LTYPE
  2
long_dashed_dotted
 70
   64
  3
------------- --- --------------
 72
   65
 73
    4
 40
15.25
 49
12
 49
-1.5
 49
0.25
 49
-1.5
  0
LTYPE
  2
long_dashed_double-dotted
 70
   64
  3
----------- --- --- ------------
 72
   65
 73
    6
 40
17
 49
12
 49
-1.5
 49
0.25
 49
-1.5
 49
0.25
 49
-1.5
  0
LTYPE
  2
long_dashed_triplicate-dotted
 70
   64
  3
--------- --- --- --- ----------
 72
   65
 73
    8
 40
18.75
 49
12
 49
-1.5
 49
0.25
 49
-1.5
 49
0.25
 49
-1.5
 49
0.25
 49
-1.5
  0
LTYPE
  2
dotted
 70
   64
  3
   -       -       -       -    
 72
   65
 73
    2
 40
1.75
 49
0.25
 49
-1.5
  0
LTYPE
  2
chain
 70
   64
  3
-------------- -- --------------
 72
   65
 73
    4
 40
18.5
 49
12
 49
-1.5
 49
3.5
 49
-1.5
  0
LTYPE
  2
chain_double_dash
 70
   64
  3
------------ -- -- -------------
 72
   65
 73
    6
 40
23.5
 49
12
 49
-1.5
 49
3.5
 49
-1.5
 49
3.5
 49
-1.5
  0
LTYPE
  2
dashed_dotted
 70
   64
  3
-----------     -     ----------
 72
   65
 73
    4
 40
9.25
 49
6
 49
-1.5
 49
0.25
 49
-1.5
  0
LTYPE
  2
double-dashed_dotted
 70
   64
  3
------   -----------   -   -----
 72
   65
 73
    6
 40
16.75
 49
6
 49
-1.5
 49
6
 49
-1.5
 49
0.25
 49
-1.5
  0
LTYPE
  2
dashed_double-dotted
 70
   64
  3
---------    -    -    ---------
 72
   65
 73
    6
 40
11
 49
6
 49
-1.5
 49
0.25
 49
-1.5
 49
0.25
 49
-1.5
  0
LTYPE
  2
double-dashed_double-dotted
 70
   64
  3
-----   ---------   -   -   ----
 72
   65
 73
    8
 40
18.5
 49
6
 49
-1.5
 49
6
 49
-1.5
 49
0.25
 49
-1.5
 49
0.25
 49
-1.5
  0
LTYPE
  2
dashed_triplicate-dotted
 70
   64
  3
-------    -    -    -    ------
 72
   65
 73
    8
 40
12.75
 49
6
 49
-1.5
 49
0.25
 49
-1.5
 49
0.25
 49
-1.5
 49
0.25
 49
-1.5
  0
LTYPE
  2
double-dashed_triplicate-dotted
 70
   64
  3
-----  ---------  -  -  -  -----
 72
   65
 73
   10
 40
20.25
 49
6
 49
-1.5
 49
6
 49
-1.5
 49
0.25
 49
-1.5
 49
0.25
 49
-1.5
 49
0.25
 49
-1.5
  0
LTYPE
  2
undefined
 70
   64
  3
--------------------------------
 72
   65
 73
    0
 40
0
  0
LTYPE
  2
PLINE2
 70
   64
  3
------     -----------     -----
 72
   65
 73
    2
 40
3
 49
2.1000000000000001
 49
-0.9
  0
LTYPE
  2
PLINE3
 70
   64
  3
------------   ---   -----------
 72
   65
 73
    4
 40
10
 49
7
 49
-1
 49
1
 49
-1
  0
LTYPE
  2
PLINE4
 70
   64
  3
---------   ---   ---   --------
 72
   65
 73
    6
 40
10
 49
5
 49
-1
 49
1
 49
-1
 49
1
 49
-1
  0
LTYPE
  2
PLINE5
 70
   64
  3
------     -----------     -----
 72
   65
 73
    2
 40
5
 49
3.5
 49
-1.5
  0
LTYPE
  2
PLINE6
 70
   64
  3
------------   ---   -----------
 72
   65
 73
    4
 40
15
 49
10.5
 49
-1.5
 49
1.5
 49
-1.5
  0
LTYPE
  2
PLINE7
 70
   64
  3
---------   ---   ---   --------
 72
   65
 73
    6
 40
15
 49
7.5
 49
-1.5
 49
1.5
 49
-1.5
 49
1.5
 49
-1.5
  0
LTYPE
  2
PLINE8
 70
   64
  3
------     -----------     -----
 72
   65
 73
    2
 40
7
 49
4.9000000000000004
 49
-2.1000000000000001
  0
LTYPE
  2
PLINE9
 70
   64
  3
------------   ---   -----------
 72
   65
 73
    4
 40
20
 49
14
 49
-2
 49
2
 49
-2
  0
LTYPE
  2
PLINE10
 70
   64
  3
---------   ---   ---   --------
 72
   65
 73
    6
 40
20
 49
10
 49
-2
 49
2
 49
-2
 49
2
 49
-2
  0
LTYPE
  2
PLINE11
 70
   64
  3
------     -----------     -----
 72
   65
 73
    2
 40
9
 49
6.2999999999999998
 49
-2.7000000000000002
  0
LTYPE
  2
PLINE12
 70
   64
  3
------------   ---   -----------
 72
   65
 73
    4
 40
25
 49
17.5
 49
-2.5
 49
2.5
 49
-2.5
  0
LTYPE
  2
PLINE13
 70
   64
  3
---------   ---   ---   --------
 72
   65
 73
    6
 40
25
 49
12.5
 49
-2.5
 49
2.5
 49
-2.5
 49
2.5
 49
-2.5
  0
LTYPE
  2
PLINE14
 70
   64
  3
------     -----------     -----
 72
   65
 73
    2
 40
11
 49
7.7000000000000002
 49
-3.2999999999999998
  0
LTYPE
  2
PLINE15
 70
   64
  3
------------   ---   -----------
 72
   65
 73
    4
 40
30
 49
21
 49
-3
 49
3
 49
-3
  0
LTYPE
  2
PLINE16
 70
   64
  3
---------   ---   ---   --------
 72
   65
 73
    6
 40
30
 49
15
 49
-3
 49
3
 49
-3
 49
3
 49
-3
  0
ENDTAB
  0
TABLE
  2
STYLE
  5
3
100
AcDbSymbolTable
 70
     1
  0
STYLE
  5
10
100
AcDbSymbolTableRecord
100
AcDbTextStyleTableRecord
  2
STANDARD
 70
     0
 40
0.0
 41
1.0
 50
0.0
 71
     0
 42
0.2
  3
txt
  4
bigfont.shx
  0
STYLE
  5
26
100
AcDbSymbolTableRecord
100
AcDbTextStyleTableRecord
  2
TATEGAKI
 70
    68
 40
0.0
 41
1.0
 50
0.0
 71
     0
 42
1.0
  3
txt
  4
bigfont.shx
  0
ENDTAB
  0
TABLE
  2
LAYER
 70
    2
  0
LAYER
  2
_0-0_0
 70
   64
 62
    7
  6
CONTINUOUS
  0
LAYER
  2
ADD_LINE
 70
   64
 62
    7
  6
CONTINUOUS
  0
ENDTAB
  0
ENDSEC
  0
SECTION
  2
BLOCKS
  0
ENDSEC
  0
SECTION
  2
ENTITIES
  0
TEXT
  8
_0-0_0
 62
    7
 10
430.1290081646506
 20
373.99936960140269
 40
5
 41
1
 50
0
  1
S-4055J
  0
TEXT
  8
_0-0_0
 62
    7
 10
424.04183820957803
 20
347.79717314182824
 40
5
 41
1
 50
0
  1
FYK2段水切
  0
TEXT
  8
_0-0_0
 62
    7
 10
450.55707132233135
 20
435.55192482932114
 40
5
 41
1
 50
0
  1
コーキング処理
  0
TEXT
  8
_0-0_0
 62
    7
 10
300.36062060741131
 20
191.55818787195301
 40
6
 41
0.7500000000000061
 50
0
  1
尺度
  0
TEXT
  8
_0-0_0
 62
    7
 10
299.28556356081015
 20
181.3070469399255
 40
6
 41
0.7500000000000105
 50
0
  1
１/１
  0
TEXT
  8
_0-0_0
 62
    7
 10
498.02107341471526
 20
191.28254332765175
 40
6
 41
0.7500000000000092
 50
0
  1
００１
  0
TEXT
  8
_0-0_0
 62
    7
 10
444.69049122676404
 20
192.78254332765175
 40
6
 41
0.7500000000000283
 50
0
  1
図番
  0
TEXT
  8
_0-0_0
 62
    7
 10
444.69049122676404
 20
182.54504332765157
 40
6
 41
0.7500000000000283
 50
0
  1
図名
  0
TEXT
  8
_0-0_0
 62
    7
 10
325.86236622676495
 20
194.24504332765162
 40
6
 41
0.7500000000000056
 50
0
  1
作成
  0
TEXT
  8
_0-0_0
 62
    7
 10
325.86236622676495
 20
186.93254332765162
 40
6
 41
0.7500000000000056
 50
0
  1
制定
  0
TEXT
  8
_0-0_0
 62
    7
 10
344.61236622676449
 20
194.99504332765162
 40
4.5
 41
0.8333333333333382
 50
0
  1
Ｈ２４．１．２４
  0
TEXT
  8
_0-0_0
 62
    7
 10
384.92486622676449
 20
182.54504332765157
 40
6
 41
0.7500000000000014
 50
0
  1
承認・検図
  0
TEXT
  8
_0-0_0
 62
    7
 10
391.67486622676449
 20
192.78254332765175
 40
6
 41
0.7500000000000056
 50
0
  1
作図
  0
TEXT
  8
_0-0_0
 62
    7
 10
420.92486622676449
 20
192.78254332765175
 40
6
 41
0.7499999999999834
 50
0
  1
本間
  0
TEXT
  8
_0-0_0
 62
    7
 10
497.08827337094624
 20
182.12875557834366
 40
6
 41
0.7500000000000056
 50
0
  1
FYK２段水切
  0
TEXT
  8
_0-0_0
 62
    7
 10
192.06129927067502
 20
308.48523877456989
 40
4
 41
1
 50
90
  1
9.64
  0
TEXT
  8
_0-0_0
 62
    7
 10
192.06129927067502
 20
300.66764615868271
 40
4
 41
1
 50
90
  1
10
  0
TEXT
  8
_0-0_0
 62
    7
 10
192.06129927067502
 20
290.66764615868271
 40
4
 41
1
 50
90
  1
10
  0
TEXT
  8
_0-0_0
 62
    7
 10
192.06129927067502
 20
279.98523877456989
 40
4
 41
1
 50
90
  1
7.36
  0
TEXT
  8
_0-0_0
 62
    7
 10
228.59523003161428
 20
321.12075553036937
 40
4
 41
1
 50
0
  1
41
  0
TEXT
  8
_0-0_0
 62
    7
 10
256.59523003161428
 20
321.12075553036937
 40
4
 41
1
 50
0
  1
15
  0
TEXT
  8
_0-0_0
 62
    7
 10
282.621516498907
 20
308.91825147646216
 40
4
 41
1
 50
90
  1
8.77
  0
TEXT
  8
_0-0_0
 62
    7
 10
253.25698739014422
 20
305.88538312421417
 40
4
 41
1
 50
0
  1
R0.5
  0
TEXT
  8
_0-0_0
 62
    7
 10
222.51660880657289
 20
251.69227464476432
 40
4
 41
1
 50
0
  1
R1
  0
TEXT
  8
_0-0_0
 62
    7
 10
270.87508207039116
 20
272.98156267525007
 40
4
 41
1
 50
0
  1
R1
  0
TEXT
  8
_0-0_0
 62
    7
 10
202.4391231554531
 20
285.10452655199026
 40
4
 41
1
 50
0
  1
R1
  0
TEXT
  8
_0-0_0
 62
    7
 10
243.03985908897755
 20
321.66699578423425
 40
4
 41
1
 50
0
  1
R0.5
  0
TEXT
  8
_0-0_0
 62
    7
 10
268.53529396686224
 20
311.97330322164078
 40
4
 41
1
 50
0
  1
R1
  0
TEXT
  8
_0-0_0
 62
    7
 10
246.95296300061125
 20
275.08900723938893
 40
4
 41
1
 50
0
  1
R0.5
  0
TEXT
  8
_0-0_0
 62
    7
 10
282.621516498907
 20
277.46158156382796
 40
4
 41
1
 50
90
  1
4.33
  0
TEXT
  8
_0-0_0
 62
    7
 10
282.621516498907
 20
292.08150821578454
 40
4
 41
1
 50
90
  1
24.9
  0
TEXT
  8
_0-0_0
 62
    7
 10
234.84523003161428
 20
328.67639869092852
 40
4
 41
1
 50
0
  1
56
  0
TEXT
  8
_0-0_0
 62
    7
 10
236.49549592994424
 20
224.85574988385918
 40
4
 41
1
 50
0
  1
51.2
  0
TEXT
  8
_0-0_0
 62
    7
 10
209.49549592994424
 20
224.85574988385918
 40
4
 41
1
 50
0
  1
4.8
  0
TEXT
  8
_0-0_0
 62
    7
 10
221.36062936600354
 20
229.94429253503779
 40
4
 41
1
 50
0
  1
R1
  0
TEXT
  8
_0-0_0
 62
    7
 10
200.36033619566012
 20
228.98097633456325
 40
4
 41
1
 50
0
  1
R1
  0
TEXT
  8
_0-0_0
 62
    7
 10
192.06129927067502
 20
257.80283139045707
 40
4
 41
1
 50
90
  1
43
  0
TEXT
  8
_0-0_0
 62
    7
 10
186.37192599156867
 20
275.05283139045707
 40
4
 41
1
 50
90
  1
80
  0
TEXT
  8
_0-0_0
 62
    7
 10
282.621516498907
 20
257.29832482450536
 40
4
 41
1
 50
90
  1
42
  0
TEXT
  8
_0-0_0
 62
    7
 10
216.13186269503956
 20
382.97730789907075
 40
6
 41
1
 50
90
  1
52
  0
TEXT
  8
_0-0_0
 62
    7
 10
216.13186269503956
 20
413.23273789907068
 40
6
 41
1
 50
90
  1
5
  0
TEXT
  8
_0-0_0
 62
    7
 10
242.2153408370981
 20
423.79068798344076
 40
6
 41
1
 50
0
  1
37
  0
TEXT
  8
_0-0_0
 62
    7
 10
172.11276450026014
 20
434.81196750720267
 40
5
 41
1
 50
0
  1
S-4055J
  0
TEXT
  8
_0-0_0
 62
    7
 10
167.86276450026011
 20
338.27077377572107
 40
5
 41
1
 50
0
  1
FYK2段水切
  0
TEXT
  8
_0-0_0
 62
    7
 10
185.74921496493482
 20
187.60501407388767
 40
6
 41
0.7500000000000005
 50
0
  1
三洋工業株式会社　営業統括部
  0
LINE
  8
_0-0_0
  6
CONTINUOUS
 62
    7
 10
516.87591859720339
 20
377.13400822655797
 11
517.87591859720339
 21
377.13400822655797
  0
LINE
  8
_0-0_0
  6
CONTINUOUS
 62
    7
 10
461.81232996987671
 20
364.47141716876183
 11
461.81232996987671
 21
405.59746206440661
  0
LINE
  8
_0-0_0
  6
CONTINUOUS
 62
    7
 10
464.9625699133893
 20
368.20480934887667
 11
464.96260468331127
 21
404.05138217091792
  0
LINE
  8
_0-0_0
  6
CONTINUOUS
 62
    7
 10
463.46160330745386
 20
405.36318859662981
 11
463.46157163871237
 21
368.20481016818542
  0
LINE
  8
_0-0_0
  6
CONTINUOUS
 62
    7
 10
463.46157163871237
 20
368.20481016818542
 11
464.9625699133893
 21
368.20480934887667
  0
LINE
  8
_0-0_0
  6
CONTINUOUS
 62
    7
 10
463.31232996987671
 20
366.97141716876183
 11
463.31232996987671
 21
405.46240403685863
  0
LINE
  8
_0-0_0
  6
CONTINUOUS
 62
    7
 10
465.11286176653618
 20
366.97141716876183
 11
465.11286176653618
 21
371.97141716876183
  0
LINE
  8
_0-0_0
  6
CONTINUOUS
 62
    7
 10
465.11286176653618
 20
366.97141716876183
 11
463.31232996987671
 21
366.97141716876183
  0
LINE
  8
_0-0_0
  6
CONTINUOUS
 62
    7
 10
515.62781987758797
 20
410.71444304469208
 11
515.38660830680908
 21
412.49942081007941
  0
LINE
  8
_0-0_0
  6
CONTINUOUS
 62
    7
 10
510.67285712108685
 20
410.04485803762634
 11
515.62781987758797
 21
410.71444304469208
  0
ARC
  8
_0-0_0
  6
CONTINUOUS
 62
    7
 10
462.81232996987671
 20
405.59746206440661
 40
1
 50
97.695999999999941
 51
180
  0
LINE
  8
_0-0_0
  6
CONTINUOUS
 62
    7
 10
465.61286176653618
 20
371.97141716876183
 11
465.11286176653618
 21
371.97141716876183
  0
ARC
  8
_0-0_0
  6
CONTINUOUS
 62
    7
 10
465.61286176653618
 20
370.97141716876183
 40
1
 50
0
 51
90.000000000000028
  0
ARC
  8
_0-0_0
  6
CONTINUOUS
 62
    7
 10
516.81232996987671
 20
410.67188575176226
 40
1
 50
277.69599999999991
 51
0
  0
LINE
  8
_0-0_0
  6
CONTINUOUS
 62
    7
 10
517.81232996987671
 20
434.12852019924833
 11
517.81232996987671
 21
410.67188575176226
  0
LINE
  8
_0-0_0
  6
CONTINUOUS
 62
    7
 10
510.76670615567707
 20
409.35037045767524
 11
510.6728571210873
 21
410.04485803762634
  0
LINE
  8
_0-0_0
  6
CONTINUOUS
 62
    7
 10
511.32916093203391
 20
408.92183268273163
 11
516.94624697128972
 21
409.68089320046204
  0
ARC
  8
_0-0_0
  6
CONTINUOUS
 62
    7
 10
511.26220243132718
 20
409.41732895838174
 40
0.5
 50
187.69599999999068
 51
277.69599999999963
  0
LINE
  8
_0-0_0
  6
CONTINUOUS
 62
    7
 10
464.96260468331127
 20
404.05138217091792
 11
515.2286029257906
 21
410.84403843139182
  0
LINE
  8
_0-0_0
  6
CONTINUOUS
 62
    7
 10
515.02759350666963
 20
412.33151825089328
 11
463.46160330745386
 21
405.36318859662981
  0
LINE
  8
_0-0_0
  6
CONTINUOUS
 62
    7
 10
462.67841296846325
 20
406.58845461570684
 11
516.31232996987671
 21
413.83623193698747
  0
LINE
  8
_0-0_0
  6
CONTINUOUS
 62
    7
 10
515.38660830680908
 20
412.49942081007941
 11
463.31232996987671
 21
405.46240403685863
  0
LINE
  8
_0-0_0
  6
CONTINUOUS
 62
    7
 10
465.61286176653618
 20
363.47141716876183
 11
462.81232996987671
 21
363.47141716876183
  0
LINE
  8
_0-0_0
  6
CONTINUOUS
 62
    7
 10
465.61286176653618
 20
363.47141716876183
 11
462.81232996987671
 21
363.47141716876183
  0
ARC
  8
_0-0_0
  6
CONTINUOUS
 62
    7
 10
465.61286176653618
 20
364.47141716876183
 40
1
 50
270
 51
0
  0
ARC
  8
_0-0_0
  6
CONTINUOUS
 62
    7
 10
462.81232996987671
 20
364.47141716876183
 40
1
 50
180
 51
270
  0
LINE
  8
_0-0_0
  6
CONTINUOUS
 62
    7
 10
466.61286176653618
 20
370.97141716876183
 11
466.61286176653618
 21
364.47141716876183
  0
LINE
  8
_0-0_0
  6
PLINE2
 62
    7
 10
532.72697396987667
 20
421.57660793698744
 11
531.81232996987671
 21
419.83623193698747
  0
LINE
  8
_0-0_0
  6
PLINE2
 62
    7
 10
531.81232996987671
 20
419.83623193698747
 11
519.81232996987671
 21
419.83623193698747
  0
LINE
  8
_0-0_0
  6
PLINE2
 62
    7
 10
539.61270996987639
 20
427.39528993698752
 11
534.61270996987639
 21
429.21514193698738
  0
LINE
  8
_0-0_0
  6
PLINE2
 62
    7
 10
539.61270996987639
 20
428.45946793698738
 11
534.95472996987644
 21
430.15483393698753
  0
LINE
  8
_0-0_0
  6
PLINE2
 62
    7
 10
539.61270996987639
 20
420.27717593698742
 11
534.61270996987639
 21
418.45732393698756
  0
LINE
  8
_0-0_0
  6
PLINE2
 62
    7
 10
534.95472996987644
 20
417.51763193698741
 11
528.15110796987653
 21
416.52527593698744
  0
ARC
  8
_0-0_0
  6
PLINE2
 62
    7
 10
528.09337596987677
 20
416.92108793698742
 40
0.4
 50
188.13010199999999
 51
278.29846600000002
  0
LINE
  8
_0-0_0
  6
PLINE2
 62
    7
 10
527.69739596987654
 20
416.86451993698745
 11
527.66927796987636
 21
417.06134393698756
  0
ARC
  8
_0-0_0
  6
PLINE2
 62
    7
 10
528.0652579698766
 20
417.11791393698752
 40
0.4
 50
98.13010199999998
 51
188.13010199999999
  0
LINE
  8
_0-0_0
  6
PLINE2
 62
    7
 10
528.00868996987663
 20
417.51389393698753
 11
534.61270996987639
 21
418.45732393698756
  0
LINE
  8
_0-0_0
  6
PLINE2
 62
    7
 10
534.95472996987644
 20
430.15483393698753
 11
528.15110796987653
 21
431.14718793698751
  0
ARC
  8
_0-0_0
  6
PLINE2
 62
    7
 10
528.09337596987677
 20
430.75137593698753
 40
0.4
 50
81.701533999999995
 51
171.86989800000001
  0
LINE
  8
_0-0_0
  6
PLINE2
 62
    7
 10
527.69739596987654
 20
430.80794593698749
 11
527.66927796987636
 21
430.61111993698739
  0
ARC
  8
_0-0_0
  6
PLINE2
 62
    7
 10
528.0652579698766
 20
430.55455193698742
 40
0.4
 50
171.86989800000001
 51
261.86989799999998
  0
LINE
  8
_0-0_0
  6
PLINE2
 62
    7
 10
527.81232996987671
 20
424.33623193698747
 11
527.81232996987671
 21
423.83623193698747
  0
LINE
  8
_0-0_0
  6
PLINE2
 62
    7
 10
531.81232996987671
 20
427.83623193698747
 11
532.72697396987667
 21
426.0958559369875
  0
LINE
  8
_0-0_0
  6
PLINE2
 62
    7
 10
532.72697396987667
 20
426.0958559369875
 11
534.72423396987631
 21
426.20052793698744
  0
LINE
  8
_0-0_0
  6
PLINE2
 62
    7
 10
534.72423396987631
 20
426.20052793698744
 11
534.61956196987683
 21
428.19778793698754
  0
LINE
  8
_0-0_0
  6
PLINE2
 62
    7
 10
534.61956196987683
 20
428.19778793698754
 11
536.6168199698767
 21
428.30245993698747
  0
LINE
  8
_0-0_0
  6
PLINE2
 62
    7
 10
536.6168199698767
 20
428.30245993698747
 11
537.72012196987669
 21
426.35753593698735
  0
LINE
  8
_0-0_0
  6
PLINE2
 62
    7
 10
537.72012196987669
 20
426.35753593698735
 11
539.71738196987633
 21
426.46220793698751
  0
LINE
  8
_0-0_0
  6
PLINE2
 62
    7
 10
539.71738196987633
 20
426.46220793698751
 11
539.61270996987639
 21
428.45946793698738
  0
LINE
  8
_0-0_0
  6
PLINE2
 62
    7
 10
539.61270996987639
 20
428.45946793698738
 11
541.60996796987672
 21
428.56413993698754
  0
LINE
  8
_0-0_0
  6
PLINE2
 62
    7
 10
541.60996796987672
 20
428.56413993698754
 11
542.71326996987671
 21
426.61921593698742
  0
LINE
  8
_0-0_0
  6
PLINE2
 62
    7
 10
542.71326996987671
 20
426.61921593698742
 11
544.71052796987658
 21
426.72388793698735
  0
LINE
  8
_0-0_0
  6
PLINE2
 62
    7
 10
544.71052796987658
 20
426.72388793698735
 11
544.60585796987641
 21
428.72114793698745
  0
LINE
  8
_0-0_0
  6
PLINE2
 62
    7
 10
544.60585796987641
 20
428.72114793698745
 11
546.60311596987674
 21
428.82581993698739
  0
LINE
  8
_0-0_0
  6
PLINE2
 62
    7
 10
546.60311596987674
 20
428.82581993698739
 11
547.70641796987672
 21
426.88089593698749
  0
LINE
  8
_0-0_0
  6
PLINE2
 62
    7
 10
527.81232996987671
 20
423.33623193698747
 11
527.81232996987671
 21
423.83623193698747
  0
LINE
  8
_0-0_0
  6
PLINE2
 62
    7
 10
532.72697396987667
 20
421.57660793698744
 11
534.72423396987631
 21
421.47193593698751
  0
LINE
  8
_0-0_0
  6
PLINE2
 62
    7
 10
534.72423396987631
 20
421.47193593698751
 11
534.61956196987683
 21
419.4746779369874
  0
LINE
  8
_0-0_0
  6
PLINE2
 62
    7
 10
534.61956196987683
 20
419.4746779369874
 11
536.6168199698767
 21
419.37000593698747
  0
LINE
  8
_0-0_0
  6
PLINE2
 62
    7
 10
536.6168199698767
 20
419.37000593698747
 11
537.72012196987669
 21
421.3149279369876
  0
LINE
  8
_0-0_0
  6
PLINE2
 62
    7
 10
537.72012196987669
 20
421.3149279369876
 11
539.71738196987633
 21
421.21025793698743
  0
LINE
  8
_0-0_0
  6
PLINE2
 62
    7
 10
539.71738196987633
 20
421.21025793698743
 11
539.61270996987639
 21
419.21299793698756
  0
LINE
  8
_0-0_0
  6
PLINE2
 62
    7
 10
539.61270996987639
 20
419.21299793698756
 11
541.60996796987672
 21
419.1083259369874
  0
LINE
  8
_0-0_0
  6
PLINE2
 62
    7
 10
541.60996796987672
 20
419.1083259369874
 11
542.71326996987671
 21
421.05324993698753
  0
LINE
  8
_0-0_0
  6
PLINE2
 62
    7
 10
542.71326996987671
 20
421.05324993698753
 11
544.71052796987658
 21
420.94857793698759
  0
LINE
  8
_0-0_0
  6
PLINE2
 62
    7
 10
544.71052796987658
 20
420.94857793698759
 11
544.60585796987641
 21
418.95131793698749
  0
LINE
  8
_0-0_0
  6
PLINE2
 62
    7
 10
544.60585796987641
 20
418.95131793698749
 11
546.60311596987674
 21
418.84664593698756
  0
LINE
  8
_0-0_0
  6
PLINE2
 62
    7
 10
546.60311596987674
 20
418.84664593698756
 11
547.70641796987672
 21
420.79156993698746
  0
LINE
  8
_0-0_0
  6
PLINE2
 62
    7
 10
528.00868996987663
 20
430.15857193698741
 11
534.61270996987639
 21
429.21514193698738
  0
LINE
  8
_0-0_0
  6
PLINE2
 62
    7
 10
539.61270996987639
 20
419.21299793698756
 11
534.95472996987644
 21
417.51763193698741
  0
LINE
  8
_0-0_0
  6
PLINE2
 62
    7
 10
531.81232996987671
 20
427.83623193698747
 11
519.81232996987671
 21
427.83623193698747
  0
LINE
  8
_0-0_0
  6
CONTINUOUS
 62
    7
 10
429.49712106699405
 20
373.72783233158623
 11
453.81547243723878
 21
373.72783233158623
  0
LINE
  8
_0-0_0
  6
CONTINUOUS
 62
    7
 10
453.81547243723878
 20
373.72783233158623
 11
464.4010764432054
 21
392.0626362987249
  0
LINE
  8
_0-0_0
  6
CONTINUOUS
 62
    7
 10
428.1990863400564
 20
347.29075467755649
 11
452.51743771030112
 21
347.29075467755649
  0
LINE
  8
_0-0_0
  6
CONTINUOUS
 62
    7
 10
452.51743771030112
 20
347.29075467755649
 11
463.10304171626774
 21
365.62555864469516
  0
LINE
  8
_0-0_0
  6
CONTINUOUS
 62
    7
 10
517.87591859720339
 20
449.55665137379208
 11
517.87591859720339
 21
299.26888054409653
  0
LINE
  8
_0-0_0
  6
CONTINUOUS
 62
    7
 10
537.67629959720341
 20
328.51077122655795
 11
533.01831959720346
 21
326.8154052265578
  0
LINE
  8
_0-0_0
  6
CONTINUOUS
 62
    7
 10
535.78371059720337
 20
330.61270322655776
 11
537.78096959720358
 21
330.50803022655793
  0
LINE
  8
_0-0_0
  6
CONTINUOUS
 62
    7
 10
556.83343559720367
 20
331.01159222655781
 11
525.87591959720328
 21
332.63400722655786
  0
LINE
  8
_0-0_0
  6
CONTINUOUS
 62
    7
 10
535.78371059720337
 20
335.65531022655784
 11
537.78096959720358
 21
335.75998322655789
  0
LINE
  8
_0-0_0
  6
CONTINUOUS
 62
    7
 10
556.83343559720367
 20
335.25642122655802
 11
525.87591959720328
 21
333.63400622655797
  0
LINE
  8
_0-0_0
  6
CONTINUOUS
 62
    7
 10
537.67629959720341
 20
329.57494922655781
 11
532.67629859720353
 21
327.75509822655783
  0
LINE
  8
_0-0_0
  6
CONTINUOUS
 62
    7
 10
537.67629959720341
 20
337.75724222655788
 11
533.01831959720346
 21
339.45260822655803
  0
LINE
  8
_0-0_0
  6
CONTINUOUS
 62
    7
 10
537.67629959720341
 20
336.69306422655802
 11
532.67629859720353
 21
338.51291522655777
  0
LINE
  8
_0-0_0
  6
CONTINUOUS
 62
    7
 10
552.00647459720346
 20
331.26456122655793
 11
553.87591859720339
 21
333.13400822655797
  0
LINE
  8
_0-0_0
  6
CONTINUOUS
 62
    7
 10
550.76315459720342
 20
329.827663226558
 11
552.76041359720364
 21
329.72299022655795
  0
LINE
  8
_0-0_0
  6
CONTINUOUS
 62
    7
 10
550.76315459720342
 20
336.44035022655783
 11
552.76041359720364
 21
336.54502322655787
  0
LINE
  8
_0-0_0
  6
CONTINUOUS
 62
    7
 10
552.00647459720346
 20
335.0034522265579
 11
553.87591859720339
 21
333.13400822655797
  0
LINE
  8
_0-0_0
  6
CONTINUOUS
 62
    7
 10
552.76041359720364
 20
329.72299022655795
 11
552.65574059720336
 21
327.72573122655797
  0
LINE
  8
_0-0_0
  6
CONTINUOUS
 62
    7
 10
554.65299959720357
 20
327.6210612265578
 11
556.75493159720361
 21
329.51364722655796
  0
LINE
  8
_0-0_0
  6
CONTINUOUS
 62
    7
 10
554.83617659720346
 20
331.11626522655786
 11
554.65299959720357
 21
327.6210612265578
  0
LINE
  8
_0-0_0
  6
CONTINUOUS
 62
    7
 10
552.65574059720336
 20
327.72573122655797
 11
554.65299959720357
 21
327.6210612265578
  0
LINE
  8
_0-0_0
  6
CONTINUOUS
 62
    7
 10
556.75493159720361
 20
329.51364722655796
 11
556.83343559720367
 21
331.01159222655781
  0
LINE
  8
_0-0_0
  6
CONTINUOUS
 62
    7
 10
552.65574059720336
 20
338.54228222655786
 11
554.65299959720357
 21
338.64695222655803
  0
LINE
  8
_0-0_0
  6
CONTINUOUS
 62
    7
 10
552.76041359720364
 20
336.54502322655787
 11
552.65574059720336
 21
338.54228222655786
  0
LINE
  8
_0-0_0
  6
CONTINUOUS
 62
    7
 10
556.75493159720361
 20
336.75436622655786
 11
556.83343559720367
 21
335.25642122655802
  0
LINE
  8
_0-0_0
  6
CONTINUOUS
 62
    7
 10
554.65299959720357
 20
338.64695222655803
 11
556.75493159720361
 21
336.75436622655786
  0
LINE
  8
_0-0_0
  6
CONTINUOUS
 62
    7
 10
554.83617659720346
 20
335.15174822655797
 11
554.65299959720357
 21
338.64695222655803
  0
LINE
  8
_0-0_0
  6
CONTINUOUS
 62
    7
 10
549.65985359720332
 20
327.88273922655787
 11
550.76315459720342
 21
329.827663226558
  0
LINE
  8
_0-0_0
  6
CONTINUOUS
 62
    7
 10
547.76726459720328
 20
329.98467122655791
 11
547.66259459720357
 21
327.98741222655792
  0
LINE
  8
_0-0_0
  6
CONTINUOUS
 62
    7
 10
544.66670459720342
 20
328.14442022655783
 11
545.77000559720352
 21
330.08934422655796
  0
LINE
  8
_0-0_0
  6
CONTINUOUS
 62
    7
 10
542.77411859720348
 20
330.24635222655786
 11
542.66944559720366
 21
328.24909322655787
  0
LINE
  8
_0-0_0
  6
CONTINUOUS
 62
    7
 10
539.67355859720362
 20
328.40610122655801
 11
540.77685959720327
 21
330.3510222265578
  0
LINE
  8
_0-0_0
  6
CONTINUOUS
 62
    7
 10
537.78096959720358
 20
330.50803022655793
 11
537.67629959720341
 21
328.51077122655795
  0
LINE
  8
_0-0_0
  6
CONTINUOUS
 62
    7
 10
542.66944559720366
 20
328.24909322655787
 11
544.66670459720342
 21
328.14442022655783
  0
LINE
  8
_0-0_0
  6
CONTINUOUS
 62
    7
 10
547.66259459720357
 20
327.98741222655792
 11
549.65985359720332
 21
327.88273922655787
  0
LINE
  8
_0-0_0
  6
CONTINUOUS
 62
    7
 10
537.67629959720341
 20
328.51077122655795
 11
539.67355859720362
 21
328.40610122655801
  0
LINE
  8
_0-0_0
  6
CONTINUOUS
 62
    7
 10
542.66944559720366
 20
338.01892022655795
 11
544.66670459720342
 21
338.12359322655777
  0
LINE
  8
_0-0_0
  6
CONTINUOUS
 62
    7
 10
545.77000559720352
 20
330.08934422655796
 11
547.76726459720328
 21
329.98467122655791
  0
LINE
  8
_0-0_0
  6
CONTINUOUS
 62
    7
 10
549.65985359720332
 20
338.38527422655795
 11
550.76315459720342
 21
336.44035022655783
  0
LINE
  8
_0-0_0
  6
CONTINUOUS
 62
    7
 10
547.66259459720357
 20
338.28060122655791
 11
549.65985359720332
 21
338.38527422655795
  0
LINE
  8
_0-0_0
  6
CONTINUOUS
 62
    7
 10
547.76726459720328
 20
336.28334222655792
 11
547.66259459720357
 21
338.28060122655791
  0
LINE
  8
_0-0_0
  6
CONTINUOUS
 62
    7
 10
545.77000559720352
 20
336.17866922655787
 11
547.76726459720328
 21
336.28334222655792
  0
LINE
  8
_0-0_0
  6
CONTINUOUS
 62
    7
 10
544.66670459720342
 20
338.12359322655777
 11
545.77000559720352
 21
336.17866922655787
  0
LINE
  8
_0-0_0
  6
CONTINUOUS
 62
    7
 10
540.77685959720327
 20
330.3510222265578
 11
542.77411859720348
 21
330.24635222655786
  0
LINE
  8
_0-0_0
  6
CONTINUOUS
 62
    7
 10
542.77411859720348
 20
336.02166122655797
 11
542.66944559720366
 21
338.01892022655795
  0
LINE
  8
_0-0_0
  6
CONTINUOUS
 62
    7
 10
540.77685959720327
 20
335.91699122655803
 11
542.77411859720348
 21
336.02166122655797
  0
LINE
  8
_0-0_0
  6
CONTINUOUS
 62
    7
 10
539.67355859720362
 20
337.86191222655782
 11
540.77685959720327
 21
335.91699122655803
  0
LINE
  8
_0-0_0
  6
CONTINUOUS
 62
    7
 10
537.67629959720341
 20
337.75724222655788
 11
539.67355859720362
 21
337.86191222655782
  0
LINE
  8
_0-0_0
  6
CONTINUOUS
 62
    7
 10
537.78096959720358
 20
335.75998322655789
 11
537.67629959720341
 21
337.75724222655788
  0
LINE
  8
_0-0_0
  6
CONTINUOUS
 62
    7
 10
529.87591859720339
 20
337.13400722655786
 11
517.87591859720339
 21
337.13400722655786
  0
LINE
  8
_0-0_0
  6
CONTINUOUS
 62
    7
 10
517.87591859720339
 20
328.13400722655786
 11
522.87591959720328
 21
329.13400622655797
  0
LINE
  8
_0-0_0
  6
CONTINUOUS
 62
    7
 10
522.87591959720328
 20
333.13400822655797
 11
517.87591859720339
 21
333.13400822655797
  0
LINE
  8
_0-0_0
  6
CONTINUOUS
 62
    7
 10
517.87591859720339
 20
332.13400622655797
 11
522.87591959720328
 21
333.13400822655797
  0
LINE
  8
_0-0_0
  6
CONTINUOUS
 62
    7
 10
517.87591859720339
 20
334.13400722655786
 11
522.87591959720328
 21
333.13400822655797
  0
LINE
  8
_0-0_0
  6
CONTINUOUS
 62
    7
 10
517.87591859720339
 20
338.13400622655797
 11
522.87591959720328
 21
337.13400722655786
  0
LINE
  8
_0-0_0
  6
CONTINUOUS
 62
    7
 10
529.87591859720339
 20
329.13400622655797
 11
517.87591859720339
 21
329.13400622655797
  0
LINE
  8
_0-0_0
  6
CONTINUOUS
 62
    7
 10
534.68040959720327
 20
328.66777922655785
 11
535.78371059720337
 21
330.61270322655776
  0
LINE
  8
_0-0_0
  6
CONTINUOUS
 62
    7
 10
532.78782359720333
 20
330.76971122655789
 11
532.68315059720351
 21
328.7724522265579
  0
LINE
  8
_0-0_0
  6
CONTINUOUS
 62
    7
 10
530.79056459720357
 20
330.87438122655783
 11
529.87591859720339
 21
329.13400622655797
  0
LINE
  8
_0-0_0
  6
CONTINUOUS
 62
    7
 10
526.07227859720331
 20
326.81166722655792
 11
532.67629859720353
 21
327.75509822655783
  0
LINE
  8
_0-0_0
  6
CONTINUOUS
 62
    7
 10
533.01831959720346
 20
326.8154052265578
 11
526.21469759720355
 21
325.82305022655794
  0
LINE
  8
_0-0_0
  6
CONTINUOUS
 62
    7
 10
532.68315059720351
 20
328.7724522265579
 11
534.68040959720327
 21
328.66777922655785
  0
ARC
  8
_0-0_0
  6
CONTINUOUS
 62
    7
 10
526.12884659720328
 20
326.41568822655802
 40
0.3999989999999998
 50
98.13010199999998
 51
188.130102000005
  0
LINE
  8
_0-0_0
  6
CONTINUOUS
 62
    7
 10
525.76098359720334
 20
326.16229322655784
 11
525.73286759720338
 21
326.35912022655782
  0
ARC
  8
_0-0_0
  6
CONTINUOUS
 62
    7
 10
526.15696559720334
 20
326.21886122655781
 40
0.3999989999999998
 50
188.130102000005
 51
278.29846599999996
  0
LINE
  8
_0-0_0
  6
CONTINUOUS
 62
    7
 10
526.07227859720331
 20
339.45634622655791
 11
532.67629859720353
 21
338.51291522655777
  0
LINE
  8
_0-0_0
  6
CONTINUOUS
 62
    7
 10
533.01831959720346
 20
339.45260822655803
 11
526.21469759720355
 21
340.44496322655789
  0
LINE
  8
_0-0_0
  6
CONTINUOUS
 62
    7
 10
530.79056459720357
 20
330.87438122655783
 11
532.78782359720333
 21
330.76971122655789
  0
LINE
  8
_0-0_0
  6
CONTINUOUS
 62
    7
 10
534.68040959720327
 20
337.60023422655797
 11
535.78371059720337
 21
335.65531022655784
  0
LINE
  8
_0-0_0
  6
CONTINUOUS
 62
    7
 10
532.68315059720351
 20
337.49556122655792
 11
534.68040959720327
 21
337.60023422655797
  0
LINE
  8
_0-0_0
  6
CONTINUOUS
 62
    7
 10
532.78782359720333
 20
335.49830222655794
 11
532.68315059720351
 21
337.49556122655792
  0
LINE
  8
_0-0_0
  6
CONTINUOUS
 62
    7
 10
530.79056459720357
 20
335.39363222655777
 11
532.78782359720333
 21
335.49830222655794
  0
LINE
  8
_0-0_0
  6
CONTINUOUS
 62
    7
 10
529.87591859720339
 20
337.13400722655786
 11
530.79056459720357
 21
335.39363222655777
  0
LINE
  8
_0-0_0
  6
CONTINUOUS
 62
    7
 10
525.87591959720328
 20
333.63400622655797
 11
525.87591959720328
 21
332.63400722655786
  0
ARC
  8
_0-0_0
  6
CONTINUOUS
 62
    7
 10
526.12884659720328
 20
339.85232522655781
 40
0.3999989999999998
 50
171.869897999995
 51
261.86989799999998
  0
LINE
  8
_0-0_0
  6
CONTINUOUS
 62
    7
 10
525.76098359720334
 20
340.10572022655799
 11
525.73286759720338
 21
339.90889622655789
  0
ARC
  8
_0-0_0
  6
CONTINUOUS
 62
    7
 10
526.15696559720334
 20
340.04915222655802
 40
0.3999989999999998
 50
81.701533999999995
 51
171.869897999995
  0
LINE
  8
_0-0_0
  6
CONTINUOUS
 62
    7
 10
516.87591859720339
 20
330.63400822655797
 11
517.87591859720339
 21
330.63400822655797
  0
LINE
  8
_0-0_0
  6
CONTINUOUS
 62
    7
 10
516.87591859720339
 20
335.63400822655797
 11
517.87591859720339
 21
335.63400822655797
  0
LINE
  8
_0-0_0
  6
CONTINUOUS
 62
    7
 10
517.87591859720339
 20
377.13400822655797
 11
517.87591859720339
 21
347.13400822655797
  0
LINE
  8
_0-0_0
  6
CONTINUOUS
 62
    7
 10
516.87591859720339
 20
347.13400822655797
 11
516.87591859720339
 21
377.13400822655797
  0
LINE
  8
_0-0_0
  6
CONTINUOUS
 62
    7
 10
517.87591859720339
 20
352.71611171245797
 11
516.87591859720339
 21
351.71611171245797
  0
LINE
  8
_0-0_0
  6
CONTINUOUS
 62
    7
 10
517.87591859720339
 20
351.30189815005781
 11
516.87591859720339
 21
350.30189815005781
  0
LINE
  8
_0-0_0
  6
CONTINUOUS
 62
    7
 10
517.87591859720339
 20
349.88768458775792
 11
516.87591859720339
 21
348.88768458775792
  0
LINE
  8
_0-0_0
  6
CONTINUOUS
 62
    7
 10
517.87591859720339
 20
348.47347102535798
 11
516.87591859720339
 21
347.47347102535798
  0
LINE
  8
_0-0_0
  6
CONTINUOUS
 62
    7
 10
517.87591859720339
 20
347.13400822655797
 11
516.87591859720339
 21
347.13400822655797
  0
LINE
  8
_0-0_0
  6
CONTINUOUS
 62
    7
 10
517.87591859720339
 20
364.02982021145783
 11
516.87591859720339
 21
363.02982021145783
  0
LINE
  8
_0-0_0
  6
CONTINUOUS
 62
    7
 10
517.87591859720339
 20
362.6156066490579
 11
516.87591859720339
 21
361.6156066490579
  0
LINE
  8
_0-0_0
  6
CONTINUOUS
 62
    7
 10
517.87591859720339
 20
361.201393086758
 11
516.87591859720339
 21
360.201393086758
  0
LINE
  8
_0-0_0
  6
CONTINUOUS
 62
    7
 10
517.87591859720339
 20
359.78717952435784
 11
516.87591859720339
 21
358.78717952435784
  0
LINE
  8
_0-0_0
  6
CONTINUOUS
 62
    7
 10
517.87591859720339
 20
358.3729659619579
 11
516.87591859720339
 21
357.3729659619579
  0
LINE
  8
_0-0_0
  6
CONTINUOUS
 62
    7
 10
517.87591859720339
 20
356.95875239955797
 11
516.87591859720339
 21
355.95875239955797
  0
LINE
  8
_0-0_0
  6
CONTINUOUS
 62
    7
 10
517.87591859720339
 20
355.54453883725785
 11
516.87591859720339
 21
354.54453883725785
  0
LINE
  8
_0-0_0
  6
CONTINUOUS
 62
    7
 10
517.87591859720339
 20
354.13032527485791
 11
516.87591859720339
 21
353.13032527485791
  0
LINE
  8
_0-0_0
  6
CONTINUOUS
 62
    7
 10
517.87591859720339
 20
376.75774227285785
 11
516.87591859720339
 21
375.75774227285785
  0
LINE
  8
_0-0_0
  6
CONTINUOUS
 62
    7
 10
517.87591859720339
 20
375.34352871045792
 11
516.87591859720339
 21
374.34352871045792
  0
LINE
  8
_0-0_0
  6
CONTINUOUS
 62
    7
 10
517.87591859720339
 20
373.92931514805775
 11
516.87591859720339
 21
372.92931514805775
  0
LINE
  8
_0-0_0
  6
CONTINUOUS
 62
    7
 10
517.87591859720339
 20
372.51510158565782
 11
516.87591859720339
 21
371.51510158565782
  0
LINE
  8
_0-0_0
  6
CONTINUOUS
 62
    7
 10
517.87591859720339
 20
371.10088802335792
 11
516.87591859720339
 21
370.10088802335792
  0
LINE
  8
_0-0_0
  6
CONTINUOUS
 62
    7
 10
517.87591859720339
 20
369.68667446095776
 11
516.87591859720339
 21
368.68667446095776
  0
LINE
  8
_0-0_0
  6
CONTINUOUS
 62
    7
 10
517.87591859720339
 20
368.27246089855782
 11
516.87591859720339
 21
367.27246089855782
  0
LINE
  8
_0-0_0
  6
CONTINUOUS
 62
    7
 10
517.87591859720339
 20
366.85824733615789
 11
516.87591859720339
 21
365.85824733615789
  0
LINE
  8
_0-0_0
  6
CONTINUOUS
 62
    7
 10
517.87591859720339
 20
365.44403377385777
 11
516.87591859720339
 21
364.44403377385777
  0
LINE
  8
_0-0_0
  6
CONTINUOUS
 62
    7
 10
517.87591859720339
 20
299.73886576831671
 11
517.87591859720339
 21
197.39604472343365
  0
LINE
  8
_0-0_0
  6
CONTINUOUS
 62
    7
 10
516.87591859720339
 20
310.75386604725861
 11
516.87591859720339
 21
347.13400822655797
  0
LINE
  8
_0-0_0
  6
CONTINUOUS
 62
    7
 10
517.87591859720339
 20
303.9981093846676
 11
548.34031799324009
 21
251.23222180866185
  0
LINE
  8
_0-0_0
  6
CONTINUOUS
 62
    7
 10
517.87591859720339
 20
313.9981093846676
 11
548.34031799324009
 21
261.23222180866185
  0
LINE
  8
_0-0_0
  6
CONTINUOUS
 62
    7
 10
487.30887460558722
 20
434.29051934428151
 11
513.98434544114696
 21
441.43819021238971
  0
LINE
  8
_0-0_0
  6
CONTINUOUS
 62
    7
 10
450.05297319587987
 20
434.29051934428151
 11
487.30887460558722
 21
434.29051934428151
  0
LINE
  8
_0-0_0
  6
CONTINUOUS
 62
    7
 10
496.83497405951539
 20
414.21814917609174
 11
494.42082721072427
 21
411.11424608478887
  0
LINE
  8
_0-0_0
  6
CONTINUOUS
 62
    7
 10
515.27480707880829
 20
410.93095067909087
 11
515.07379765968733
 21
412.41843049859256
  0
LINE
  8
_0-0_0
  6
CONTINUOUS
 62
    7
 10
515.67402403060544
 20
410.80135529239135
 11
515.43281245982632
 21
412.58633305777846
  0
LINE
  8
_0-0_0
  6
CONTINUOUS
 62
    7
 10
510.71906127410432
 20
410.13177028532562
 11
515.67402403060544
 21
410.80135529239135
  0
ARC
  8
_0-0_0
  6
CONTINUOUS
 62
    7
 10
516.85853412289396
 20
410.75879799946154
 40
1
 50
277.69599999999991
 51
0
  0
LINE
  8
_0-0_0
  6
CONTINUOUS
 62
    7
 10
516.85853412289396
 20
423.92314418468675
 11
516.35853412289396
 21
423.42314418468675
  0
LINE
  8
_0-0_0
  6
CONTINUOUS
 62
    7
 10
516.85853412289396
 20
423.92314418468675
 11
516.35853412289396
 21
424.42314418468675
  0
LINE
  8
_0-0_0
  6
CONTINUOUS
 62
    7
 10
516.35853412289396
 20
423.42314418468675
 11
516.35853412289396
 21
413.92314418468675
  0
ARC
  8
_0-0_0
  6
CONTINUOUS
 62
    7
 10
516.85853412289396
 20
434.2154324469476
 40
1
 50
0
 51
59.688988726781545
  0
LINE
  8
_0-0_0
  6
CONTINUOUS
 62
    7
 10
503.61088089510406
 20
443.11849947702228
 11
517.36322766731416
 21
435.07873101999223
  0
LINE
  8
_0-0_0
  6
CONTINUOUS
 62
    7
 10
502.85853412289396
 20
442.68685019049997
 11
502.85853412289396
 21
441.71737281874664
  0
ARC
  8
_0-0_0
  6
CONTINUOUS
 62
    7
 10
503.35853412289396
 20
442.68685019049997
 40
0.5
 50
59.688988726781652
 51
179.99999999999994
  0
LINE
  8
_0-0_0
  6
CONTINUOUS
 62
    7
 10
502.85853412289396
 20
442.68685019049997
 11
502.85853412289396
 21
441.82080772137681
  0
LINE
  8
_0-0_0
  6
CONTINUOUS
 62
    7
 10
517.85853412289396
 20
434.2154324469476
 11
517.85853412289396
 21
410.75879799946154
  0
LINE
  8
_0-0_0
  6
CONTINUOUS
 62
    7
 10
516.11088089510406
 20
434.07334459194624
 11
502.85853412289396
 21
441.82080772137681
  0
LINE
  8
_0-0_0
  6
CONTINUOUS
 62
    7
 10
516.35853412289396
 20
433.64169530542415
 11
516.35853412289396
 21
424.42314418468675
  0
ARC
  8
_0-0_0
  6
CONTINUOUS
 62
    7
 10
515.85853412289396
 20
433.64169530542415
 40
0.5
 50
0
 51
59.688988726781602
  0
LINE
  8
_0-0_0
  6
CONTINUOUS
 62
    7
 10
510.81291030869477
 20
409.43728270537451
 11
510.71906127410455
 21
410.13177028532562
  0
LINE
  8
_0-0_0
  6
CONTINUOUS
 62
    7
 10
511.37536508505138
 20
409.00874493043091
 11
516.99245112430719
 21
409.76780544816131
  0
ARC
  8
_0-0_0
  6
CONTINUOUS
 62
    7
 10
511.30840658434488
 20
409.50424120608102
 40
0.5
 50
187.69599999999065
 51
277.69599999999957
  0
LINE
  8
_0-0_0
  6
CONTINUOUS
 62
    7
 10
517.87591859720339
 20
437.87019122406139
 11
516.54159123250815
 21
435.55906843447974
  0
LINE
  8
_0-0_0
  6
CONTINUOUS
 62
    7
 10
517.87591859720339
 20
441.87019122406139
 11
514.81496864898224
 21
436.56847039431682
  0
LINE
  8
_0-0_0
  6
CONTINUOUS
 62
    7
 10
517.87591859720339
 20
445.8701912240615
 11
513.08834606545611
 21
437.57787235415401
  0
LINE
  8
_0-0_0
  6
CONTINUOUS
 62
    7
 10
516.35853412289396
 20
429.92314418468675
 11
515.15853412289391
 21
429.92314418468675
  0
LINE
  8
_0-0_0
  6
CONTINUOUS
 62
    7
 10
515.15853412289391
 20
429.92314418468675
 11
515.15853412289391
 21
417.92314418468675
  0
LINE
  8
_0-0_0
  6
CONTINUOUS
 62
    7
 10
516.35853412289396
 20
417.92314418468675
 11
515.15853412289391
 21
417.92314418468675
  0
LINE
  8
_0-0_0
  6
CONTINUOUS
 62
    7
 10
516.35853412289396
 20
423.42314418468675
 11
516.85853412289396
 21
423.92314418468675
  0
LINE
  8
_0-0_0
  6
CONTINUOUS
 62
    7
 10
516.35853412289396
 20
424.42314418468663
 11
516.85853412289396
 21
423.92314418468675
  0
LINE
  8
_0-0_0
  6
CONTINUOUS
 62
    7
 10
519.85853412289396
 20
418.92314418468675
 11
518.35853412289396
 21
418.92314418468675
  0
LINE
  8
_0-0_0
  6
CONTINUOUS
 62
    7
 10
519.85853412289396
 20
428.92314418468663
 11
518.35853412289396
 21
428.92314418468663
  0
LINE
  8
_0-0_0
  6
PLINE2
 62
    7
 10
532.77317812289414
 20
421.66352018468672
 11
531.85853412289418
 21
419.92314418468663
  0
LINE
  8
_0-0_0
  6
PLINE2
 62
    7
 10
531.85853412289418
 20
419.92314418468663
 11
519.85853412289396
 21
419.92314418468663
  0
LINE
  8
_0-0_0
  6
PLINE2
 62
    7
 10
539.65891412289409
 20
427.48220218468668
 11
534.65891412289386
 21
429.30205418468665
  0
LINE
  8
_0-0_0
  6
PLINE2
 62
    7
 10
539.65891412289409
 20
428.54638018468665
 11
535.00093412289391
 21
430.24174618468669
  0
LINE
  8
_0-0_0
  6
PLINE2
 62
    7
 10
539.65891412289409
 20
420.36408818468669
 11
534.65891412289386
 21
418.54423618468672
  0
LINE
  8
_0-0_0
  6
PLINE2
 62
    7
 10
535.00093412289391
 20
417.60454418468669
 11
528.197312122894
 21
416.6121881846866
  0
ARC
  8
_0-0_0
  6
PLINE2
 62
    7
 10
528.13958012289402
 20
417.00800018468669
 40
0.4
 50
188.13010199999999
 51
278.29846600000002
  0
LINE
  8
_0-0_0
  6
PLINE2
 62
    7
 10
527.74360012289401
 20
416.95143218468672
 11
527.71548212289383
 21
417.14825618468672
  0
ARC
  8
_0-0_0
  6
PLINE2
 62
    7
 10
528.11146212289407
 20
417.20482618468668
 40
0.4
 50
98.13010199999998
 51
188.13010199999999
  0
LINE
  8
_0-0_0
  6
PLINE2
 62
    7
 10
528.0548941228941
 20
417.60080618468669
 11
534.65891412289386
 21
418.54423618468672
  0
LINE
  8
_0-0_0
  6
PLINE2
 62
    7
 10
535.00093412289391
 20
430.24174618468669
 11
528.197312122894
 21
431.23410018468667
  0
ARC
  8
_0-0_0
  6
PLINE2
 62
    7
 10
528.13958012289402
 20
430.83828818468669
 40
0.4
 50
81.701533999999995
 51
171.86989800000001
  0
LINE
  8
_0-0_0
  6
PLINE2
 62
    7
 10
527.74360012289401
 20
430.89485818468665
 11
527.71548212289383
 21
430.69803218468667
  0
ARC
  8
_0-0_0
  6
PLINE2
 62
    7
 10
528.11146212289407
 20
430.6414641846867
 40
0.4
 50
171.86989800000001
 51
261.86989799999998
  0
LINE
  8
_0-0_0
  6
PLINE2
 62
    7
 10
527.85853412289418
 20
424.42314418468663
 11
527.85853412289418
 21
423.92314418468675
  0
LINE
  8
_0-0_0
  6
PLINE2
 62
    7
 10
531.85853412289418
 20
427.92314418468675
 11
532.77317812289414
 21
426.18276818468667
  0
LINE
  8
_0-0_0
  6
PLINE2
 62
    7
 10
519.85853412289396
 20
428.92314418468663
 11
524.85853412289418
 21
427.92314418468675
  0
LINE
  8
_0-0_0
  6
PLINE2
 62
    7
 10
519.85853412289396
 20
424.92314418468675
 11
524.85853412289418
 21
423.92314418468675
  0
LINE
  8
_0-0_0
  6
PLINE2
 62
    7
 10
519.85853412289396
 20
422.92314418468663
 11
524.85853412289418
 21
423.92314418468675
  0
LINE
  8
_0-0_0
  6
PLINE2
 62
    7
 10
524.85853412289418
 20
423.92314418468675
 11
519.85853412289396
 21
423.92314418468675
  0
LINE
  8
_0-0_0
  6
PLINE2
 62
    7
 10
532.77317812289414
 20
426.18276818468667
 11
534.77043812289401
 21
426.28744018468672
  0
LINE
  8
_0-0_0
  6
PLINE2
 62
    7
 10
534.77043812289401
 20
426.28744018468672
 11
534.66576612289407
 21
428.2847001846867
  0
LINE
  8
_0-0_0
  6
PLINE2
 62
    7
 10
534.66576612289407
 20
428.2847001846867
 11
536.66302412289417
 21
428.38937218468675
  0
LINE
  8
_0-0_0
  6
PLINE2
 62
    7
 10
536.66302412289417
 20
428.38937218468675
 11
537.76632612289416
 21
426.44444818468662
  0
LINE
  8
_0-0_0
  6
PLINE2
 62
    7
 10
537.76632612289416
 20
426.44444818468662
 11
539.7635861228938
 21
426.54912018468667
  0
LINE
  8
_0-0_0
  6
PLINE2
 62
    7
 10
539.7635861228938
 20
426.54912018468667
 11
539.65891412289409
 21
428.54638018468665
  0
LINE
  8
_0-0_0
  6
PLINE2
 62
    7
 10
539.65891412289409
 20
428.54638018468665
 11
541.65617212289419
 21
428.65105218468671
  0
LINE
  8
_0-0_0
  6
PLINE2
 62
    7
 10
541.65617212289419
 20
428.65105218468671
 11
542.75947412289418
 21
426.70612818468669
  0
LINE
  8
_0-0_0
  6
PLINE2
 62
    7
 10
542.75947412289418
 20
426.70612818468669
 11
544.75673212289405
 21
426.81080018468663
  0
LINE
  8
_0-0_0
  6
PLINE2
 62
    7
 10
544.75673212289405
 20
426.81080018468663
 11
544.65206212289388
 21
428.80806018468661
  0
LINE
  8
_0-0_0
  6
PLINE2
 62
    7
 10
544.65206212289388
 20
428.80806018468661
 11
546.64932012289421
 21
428.91273218468666
  0
LINE
  8
_0-0_0
  6
PLINE2
 62
    7
 10
546.64932012289421
 20
428.91273218468666
 11
547.75262212289419
 21
426.96780818468676
  0
LINE
  8
_0-0_0
  6
PLINE2
 62
    7
 10
527.85853412289418
 20
423.42314418468675
 11
527.85853412289418
 21
423.92314418468675
  0
LINE
  8
_0-0_0
  6
PLINE2
 62
    7
 10
519.85853412289396
 20
418.92314418468675
 11
524.85853412289418
 21
419.92314418468663
  0
LINE
  8
_0-0_0
  6
PLINE2
 62
    7
 10
532.77317812289414
 20
421.66352018468672
 11
534.77043812289401
 21
421.55884818468667
  0
LINE
  8
_0-0_0
  6
PLINE2
 62
    7
 10
534.77043812289401
 20
421.55884818468667
 11
534.66576612289407
 21
419.56159018468668
  0
LINE
  8
_0-0_0
  6
PLINE2
 62
    7
 10
534.66576612289407
 20
419.56159018468668
 11
536.66302412289417
 21
419.45691818468674
  0
LINE
  8
_0-0_0
  6
PLINE2
 62
    7
 10
536.66302412289417
 20
419.45691818468674
 11
537.76632612289416
 21
421.40184018468676
  0
LINE
  8
_0-0_0
  6
PLINE2
 62
    7
 10
537.76632612289416
 20
421.40184018468676
 11
539.7635861228938
 21
421.29717018468671
  0
LINE
  8
_0-0_0
  6
PLINE2
 62
    7
 10
539.7635861228938
 20
421.29717018468671
 11
539.65891412289409
 21
419.29991018468672
  0
LINE
  8
_0-0_0
  6
PLINE2
 62
    7
 10
539.65891412289409
 20
419.29991018468672
 11
541.65617212289419
 21
419.19523818468667
  0
LINE
  8
_0-0_0
  6
PLINE2
 62
    7
 10
541.65617212289419
 20
419.19523818468667
 11
542.75947412289418
 21
421.14016218468669
  0
LINE
  8
_0-0_0
  6
PLINE2
 62
    7
 10
542.75947412289418
 20
421.14016218468669
 11
544.75673212289405
 21
421.03549018468675
  0
LINE
  8
_0-0_0
  6
PLINE2
 62
    7
 10
544.75673212289405
 20
421.03549018468675
 11
544.65206212289388
 21
419.03823018468677
  0
LINE
  8
_0-0_0
  6
PLINE2
 62
    7
 10
544.65206212289388
 20
419.03823018468677
 11
546.64932012289421
 21
418.93355818468672
  0
LINE
  8
_0-0_0
  6
PLINE2
 62
    7
 10
546.64932012289421
 20
418.93355818468672
 11
547.75262212289419
 21
420.87848218468662
  0
LINE
  8
_0-0_0
  6
PLINE2
 62
    7
 10
528.0548941228941
 20
430.24548418468669
 11
534.65891412289386
 21
429.30205418468665
  0
LINE
  8
_0-0_0
  6
PLINE2
 62
    7
 10
539.65891412289409
 20
419.29991018468672
 11
535.00093412289391
 21
417.60454418468669
  0
LINE
  8
_0-0_0
  6
PLINE2
 62
    7
 10
531.85853412289418
 20
427.92314418468675
 11
519.85853412289396
 21
427.92314418468675
  0
ARC
  8
_0-0_0
  6
CONTINUOUS
 62
    7
 10
515.28724412289387
 20
425.4259081846867
 40
3
 50
92.458926000000019
 51
141.38536199999999
  0
ARC
  8
_0-0_0
  6
CONTINUOUS
 62
    7
 10
515.28724412289387
 20
422.42038218468667
 40
3
 50
218.61463800000001
 51
267.54107399999998
  0
ARC
  8
_0-0_0
  6
CONTINUOUS
 62
    7
 10
517.15853412289391
 20
423.92314418468675
 40
5.4000000000000004
 50
180
 51
218.682187
  0
ARC
  8
_0-0_0
  6
CONTINUOUS
 62
    7
 10
517.15853412289391
 20
423.92314418468675
 40
5.4000000000000004
 50
141.14893799999996
 51
180
  0
LINE
  8
_0-0_0
  6
CONTINUOUS
 62
    7
 10
516.35853412289396
 20
432.06625152450863
 11
504.99719725982686
 21
412.38783883577116
  0
LINE
  8
_0-0_0
  6
CONTINUOUS
 62
    7
 10
515.43578918036428
 20
434.46801040161995
 11
502.49237013175718
 21
412.04935098577732
  0
LINE
  8
_0-0_0
  6
CONTINUOUS
 62
    7
 10
512.48318771793413
 20
421.35395465418867
 11
507.50202438789688
 21
412.72632668576489
  0
LINE
  8
_0-0_0
  6
CONTINUOUS
 62
    7
 10
513.87894534471616
 20
419.77147777882692
 11
510.00685151596656
 21
413.06481453575861
  0
LINE
  8
_0-0_0
  6
CONTINUOUS
 62
    7
 10
516.35853412289396
 20
416.06625152450863
 11
515.01650577210614
 21
413.74179023574618
  0
LINE
  8
_0-0_0
  6
CONTINUOUS
 62
    7
 10
515.12121052334555
 20
417.92314418468675
 11
512.51167864403635
 21
413.40330238575245
  0
LINE
  8
_0-0_0
  6
CONTINUOUS
 62
    7
 10
501.44578939139285
 20
421.4430039008796
 11
498.55936466579476
 21
416.63229602488286
  0
LINE
  8
_0-0_0
  6
CONTINUOUS
 62
    7
 10
509.56223179417782
 20
437.77994566033135
 11
501.44578939139274
 21
421.44300390087938
  0
LINE
  8
_0-0_0
  6
CONTINUOUS
 62
    7
 10
498.55936466579465
 20
416.63229602488263
 11
496.83497405951539
 21
414.21814917609174
  0
LINE
  8
_0-0_0
  6
CONTINUOUS
 62
    7
 10
511.98254401331246
 20
436.48681432129399
 11
497.48271587561737
 21
411.37237528578987
  0
LINE
  8
_0-0_0
  6
CONTINUOUS
 62
    7
 10
513.70916659683849
 20
435.47741236145691
 11
499.98754300368728
 21
411.7108631357836
  0
LINE
  8
_0-0_0
  6
CONTINUOUS
 62
    7
 10
517.67786446516118
 20
449.52715140471537
 11
511.3617234819302
 21
438.58727431399109
  0
LINE
  8
_0-0_0
  6
CONTINUOUS
 62
    7
 10
503.37591859720339
 20
388.13400822655797
 11
503.37591859720339
 21
383.93400822655792
  0
ARC
  8
_0-0_0
  6
CONTINUOUS
 62
    7
 10
505.37591859720339
 20
387.13400822655797
 40
0.5
 50
90
 51
180
  0
ARC
  8
_0-0_0
  6
CONTINUOUS
 62
    7
 10
515.37591859720339
 20
387.13400822655797
 40
0.5
 50
0
 51
90
  0
LINE
  8
_0-0_0
  6
CONTINUOUS
 62
    7
 10
506.87591859720339
 20
387.63400822655797
 11
506.87591859720339
 21
386.83400822655778
  0
LINE
  8
_0-0_0
  6
CONTINUOUS
 62
    7
 10
514.99864127980334
 20
383.63400822655797
 11
498.13060759720327
 21
383.63400822655797
  0
ARC
  8
_0-0_0
  6
CONTINUOUS
 62
    7
 10
503.37591859720339
 20
382.1554367979578
 40
2.0214285714289999
 50
222.74124453868001
 51
270
  0
ARC
  8
_0-0_0
  6
CONTINUOUS
 62
    7
 10
503.37591859720339
 20
385.1125796551579
 40
2.0214285714289999
 50
90
 51
137.25875546131999
  0
ARC
  8
_0-0_0
  6
CONTINUOUS
 62
    7
 10
502.87591859720339
 20
377.63400822655797
 40
0.5
 50
270
 51
0
  0
LINE
  8
_0-0_0
  6
CONTINUOUS
 62
    7
 10
504.87591859720339
 20
382.13400822655797
 11
513.37591859720339
 21
382.13400822655797
  0
LINE
  8
_0-0_0
  6
CONTINUOUS
 62
    7
 10
504.87591859720339
 20
385.13400822655797
 11
513.37591859720339
 21
385.13400822655797
  0
LINE
  8
_0-0_0
  6
CONTINUOUS
 62
    7
 10
507.87591859720339
 20
379.63400822655797
 11
512.87591859720339
 21
379.63400822655797
  0
LINE
  8
_0-0_0
  6
CONTINUOUS
 62
    7
 10
510.87591859720339
 20
385.63400822655797
 11
511.37591859720339
 21
385.13400822655797
  0
LINE
  8
_0-0_0
  6
CONTINUOUS
 62
    7
 10
510.87591859720339
 20
381.63400822655797
 11
511.37591859720339
 21
382.13400822655797
  0
LINE
  8
_0-0_0
  6
CONTINUOUS
 62
    7
 10
516.87591859720339
 20
377.13400822655797
 11
515.87591859720339
 21
377.13400822655797
  0
LINE
  8
_0-0_0
  6
CONTINUOUS
 62
    7
 10
512.87591859720339
 20
385.63400822655797
 11
512.87591859720339
 21
381.63400822655797
  0
LINE
  8
_0-0_0
  6
CONTINUOUS
 62
    7
 10
513.37591859720339
 20
385.13400822655797
 11
513.37591859720339
 21
382.13400822655797
  0
LINE
  8
_0-0_0
  6
CONTINUOUS
 62
    7
 10
513.37591859720339
 20
385.13400822655797
 11
512.87591859720339
 21
385.63400822655797
  0
LINE
  8
_0-0_0
  6
CONTINUOUS
 62
    7
 10
513.37591859720339
 20
382.13400822655797
 11
512.87591859720339
 21
381.63400822655797
  0
LINE
  8
_0-0_0
  6
CONTINUOUS
 62
    7
 10
515.87591859720339
 20
379.63400822655797
 11
515.37591859720339
 21
379.63400822655797
  0
ARC
  8
_0-0_0
  6
CONTINUOUS
 62
    7
 10
512.87591859720339
 20
379.13400822655797
 40
0.5
 50
0
 51
90
  0
LINE
  8
_0-0_0
  6
CONTINUOUS
 62
    7
 10
514.37591859720339
 20
381.93400822655792
 11
514.37591859720339
 21
385.33400822655778
  0
ARC
  8
_0-0_0
  6
CONTINUOUS
 62
    7
 10
514.07591859720367
 20
381.93400822655792
 40
0.2999999999999998
 50
270
 51
0
  0
LINE
  8
_0-0_0
  6
CONTINUOUS
 62
    7
 10
514.07591859720367
 20
381.63400822655797
 11
512.87591859720339
 21
381.63400822655797
  0
LINE
  8
_0-0_0
  6
CONTINUOUS
 62
    7
 10
514.07591859720367
 20
385.63400822655797
 11
512.87591859720339
 21
385.63400822655797
  0
ARC
  8
_0-0_0
  6
CONTINUOUS
 62
    7
 10
514.07591859720367
 20
385.33400822655778
 40
0.2999999999999998
 50
0
 51
90
  0
LINE
  8
_0-0_0
  6
CONTINUOUS
 62
    7
 10
511.37591859720339
 20
385.13400822655797
 11
511.87591859720339
 21
385.63400822655797
  0
LINE
  8
_0-0_0
  6
CONTINUOUS
 62
    7
 10
511.87591859720339
 20
385.63400822655797
 11
512.37591859720339
 21
385.13400822655797
  0
LINE
  8
_0-0_0
  6
CONTINUOUS
 62
    7
 10
512.37591859720339
 20
385.13400822655797
 11
512.87591859720339
 21
385.63400822655797
  0
LINE
  8
_0-0_0
  6
CONTINUOUS
 62
    7
 10
511.37591859720339
 20
382.13400822655797
 11
511.87591859720339
 21
381.63400822655797
  0
LINE
  8
_0-0_0
  6
CONTINUOUS
 62
    7
 10
511.87591859720339
 20
381.63400822655797
 11
512.37591859720339
 21
382.13400822655797
  0
LINE
  8
_0-0_0
  6
CONTINUOUS
 62
    7
 10
512.37591859720339
 20
382.13400822655797
 11
512.87591859720339
 21
381.63400822655797
  0
LINE
  8
_0-0_0
  6
CONTINUOUS
 62
    7
 10
515.87591859720339
 20
387.13400822655797
 11
515.87591859720339
 21
379.63400822655797
  0
CIRCLE
  8
_0-0_0
  6
CONTINUOUS
 62
    7
 10
506.73400882380326
 20
384.39023761665783
 40
0.9
  0
LINE
  8
_0-0_0
  6
CONTINUOUS
 62
    7
 10
504.87591859720339
 20
381.63400822655797
 11
507.87591859720339
 21
381.63400822655797
  0
LINE
  8
_0-0_0
  6
CONTINUOUS
 62
    7
 10
504.87591859720339
 20
385.63400822655797
 11
507.87591859720339
 21
385.63400822655797
  0
LINE
  8
_0-0_0
  6
CONTINUOUS
 62
    7
 10
506.17591841690353
 20
379.22366593905792
 11
505.9655761294033
 21
379.43400822655792
  0
LINE
  8
_0-0_0
  6
CONTINUOUS
 62
    7
 10
506.17591720470352
 20
377.80945358885776
 11
505.37591759720351
 21
378.60945319635778
  0
LINE
  8
_0-0_0
  6
CONTINUOUS
 62
    7
 10
506.17591859720358
 20
379.43400822655792
 11
505.37591759720351
 21
379.43400822655792
  0
LINE
  8
_0-0_0
  6
CONTINUOUS
 62
    7
 10
504.87591859720339
 20
376.63400822655797
 11
504.87591859720339
 21
387.13400822655797
  0
LINE
  8
_0-0_0
  6
CONTINUOUS
 62
    7
 10
503.37591859720339
 20
383.33400822655778
 11
503.37591859720339
 21
377.63400822655797
  0
LINE
  8
_0-0_0
  6
CONTINUOUS
 62
    7
 10
503.67591859720358
 20
383.63400822655797
 11
503.37591859720339
 21
383.33400822655778
  0
LINE
  8
_0-0_0
  6
CONTINUOUS
 62
    7
 10
503.67591859720358
 20
383.63400822655797
 11
503.37591859720339
 21
383.93400822655792
  0
ARC
  8
_0-0_0
  6
CONTINUOUS
 62
    7
 10
507.87591859720339
 20
379.13400822655797
 40
0.5
 50
90
 51
180
  0
LINE
  8
_0-0_0
  6
CONTINUOUS
 62
    7
 10
507.87591859720339
 20
385.63400822655797
 11
505.37591859720339
 21
385.63400822655797
  0
LINE
  8
_0-0_0
  6
CONTINUOUS
 62
    7
 10
507.87591859720339
 20
381.63400822655797
 11
505.37591859720339
 21
381.63400822655797
  0
LINE
  8
_0-0_0
  6
CONTINUOUS
 62
    7
 10
507.87591859720339
 20
385.63400822655797
 11
508.37591859720339
 21
385.13400822655797
  0
LINE
  8
_0-0_0
  6
CONTINUOUS
 62
    7
 10
508.37591859720339
 20
385.13400822655797
 11
508.87591859720339
 21
385.63400822655797
  0
LINE
  8
_0-0_0
  6
CONTINUOUS
 62
    7
 10
508.87591859720339
 20
385.63400822655797
 11
509.37591859720339
 21
385.13400822655797
  0
LINE
  8
_0-0_0
  6
CONTINUOUS
 62
    7
 10
509.37591859720339
 20
385.13400822655797
 11
509.87591859720339
 21
385.63400822655797
  0
LINE
  8
_0-0_0
  6
CONTINUOUS
 62
    7
 10
509.87591859720339
 20
385.63400822655797
 11
510.37591859720339
 21
385.13400822655797
  0
LINE
  8
_0-0_0
  6
CONTINUOUS
 62
    7
 10
510.37591859720339
 20
385.13400822655797
 11
510.87591859720339
 21
385.63400822655797
  0
LINE
  8
_0-0_0
  6
CONTINUOUS
 62
    7
 10
507.87591859720339
 20
381.63400822655797
 11
508.37591859720339
 21
382.13400822655797
  0
LINE
  8
_0-0_0
  6
CONTINUOUS
 62
    7
 10
508.37591859720339
 20
382.13400822655797
 11
508.87591859720339
 21
381.63400822655797
  0
LINE
  8
_0-0_0
  6
CONTINUOUS
 62
    7
 10
508.87591859720339
 20
381.63400822655797
 11
509.37591859720339
 21
382.13400822655797
  0
LINE
  8
_0-0_0
  6
CONTINUOUS
 62
    7
 10
509.37591859720339
 20
382.13400822655797
 11
509.87591859720339
 21
381.63400822655797
  0
LINE
  8
_0-0_0
  6
CONTINUOUS
 62
    7
 10
509.87591859720339
 20
381.63400822655797
 11
510.37591859720339
 21
382.13400822655797
  0
LINE
  8
_0-0_0
  6
CONTINUOUS
 62
    7
 10
510.37591859720339
 20
382.13400822655797
 11
510.87591859720339
 21
381.63400822655797
  0
LINE
  8
_0-0_0
  6
CONTINUOUS
 62
    7
 10
506.17591859720358
 20
380.43400822655792
 11
505.4759185972033
 21
380.43400822655792
  0
LINE
  8
_0-0_0
  6
CONTINUOUS
 62
    7
 10
506.87591859720339
 20
386.83400822655778
 11
505.4759185972033
 21
386.83400822655778
  0
ARC
  8
_0-0_0
  6
CONTINUOUS
 62
    7
 10
505.4759185972033
 20
381.03400822655783
 40
0.5999999999999996
 50
90
 51
270
  0
ARC
  8
_0-0_0
  6
CONTINUOUS
 62
    7
 10
505.4759185972033
 20
386.23400822655788
 40
0.5999999999999996
 50
90
 51
270
  0
ARC
  8
_0-0_0
  6
CONTINUOUS
 62
    7
 10
504.9759185972033
 20
383.63400822655797
 40
4.2000000000000002
 50
137.25875546131999
 51
165.90421075582998
  0
ARC
  8
_0-0_0
  6
CONTINUOUS
 62
    7
 10
504.9759185972033
 20
383.63400822655797
 40
4.2000000000000002
 50
194.09578924417005
 51
222.74124453868004
  0
LINE
  8
_0-0_0
  6
CONTINUOUS
 62
    7
 10
501.31019902250353
 20
384.13400822655797
 11
501.31019902250353
 21
383.13400822655797
  0
ARC
  8
_0-0_0
  6
CONTINUOUS
 62
    7
 10
501.31019902250353
 20
384.55448694995778
 40
0.4204787234042999
 50
165.90421075583001
 51
270
  0
ARC
  8
_0-0_0
  6
CONTINUOUS
 62
    7
 10
501.31019902250353
 20
382.71352950315793
 40
0.4204787234042999
 50
90.000000000000028
 51
194.09578924417005
  0
LINE
  8
_0-0_0
  6
CONTINUOUS
 62
    7
 10
502.37591859720339
 20
377.13400822655797
 11
500.37591859720339
 21
377.13400822655797
  0
LINE
  8
_0-0_0
  6
CONTINUOUS
 62
    7
 10
512.37591859720339
 20
387.63400822655797
 11
505.37591859720339
 21
387.63400822655797
  0
LINE
  8
_0-0_0
  6
CONTINUOUS
 62
    7
 10
504.37591859720339
 20
389.13400822655797
 11
512.37591859720339
 21
389.13400822655797
  0
LINE
  8
_0-0_0
  6
CONTINUOUS
 62
    7
 10
515.37591859720339
 20
387.63400822655797
 11
506.87591859720339
 21
387.63400822655797
  0
ARC
  8
_0-0_0
  6
CONTINUOUS
 62
    7
 10
512.37591859720339
 20
388.13400822655797
 40
0.5
 50
270
 51
0
  0
LINE
  8
_0-0_0
  6
CONTINUOUS
 62
    7
 10
512.87591859720339
 20
388.63400822655797
 11
512.87591859720339
 21
388.13400822655797
  0
ARC
  8
_0-0_0
  6
CONTINUOUS
 62
    7
 10
512.37591859720339
 20
388.63400822655797
 40
0.5
 50
0
 51
90
  0
ARC
  8
_0-0_0
  6
CONTINUOUS
 62
    7
 10
504.37591859720339
 20
388.13400822655797
 40
1
 50
90
 51
180
  0
LINE
  8
_0-0_0
  6
CONTINUOUS
 62
    7
 10
293.79986622676449
 20
180.42629332765148
 11
293.79986622676449
 21
200.90129332765162
  0
LINE
  8
_0-0_0
  6
CONTINUOUS
 62
    7
 10
323.04986622676495
 20
180.42629332765148
 11
323.04986622676495
 21
200.90129332765162
  0
LINE
  8
_0-0_0
  6
CONTINUOUS
 62
    7
 10
381.54986622676449
 20
180.42629332765148
 11
381.54986622676449
 21
200.90129332765162
  0
LINE
  8
_0-0_0
  6
CONTINUOUS
 62
    7
 10
410.79986622676449
 20
180.42629332765148
 11
410.79986622676449
 21
200.90129332765162
  0
LINE
  8
_0-0_0
  6
CONTINUOUS
 62
    7
 10
337.67486622676449
 20
200.90129332765162
 11
337.67486622676449
 21
180.42629332765148
  0
LINE
  8
_0-0_0
  6
CONTINUOUS
 62
    7
 10
323.04986622676495
 20
193.58879332765162
 11
381.54986622676449
 21
193.58879332765162
  0
LINE
  8
_0-0_0
  6
CONTINUOUS
 62
    7
 10
323.04986622676495
 20
186.27629332765184
 11
381.54986622676449
 21
186.27629332765184
  0
LINE
  8
_0-0_0
  6
CONTINUOUS
 62
    7
 10
293.79986622676449
 20
190.66379332765166
 11
323.04986622676495
 21
190.66379332765166
  0
LINE
  8
_0-0_0
  6
CONTINUOUS
 62
    7
 10
381.54986622676449
 20
190.66379332765166
 11
564.71103060266694
 21
190.66379332765166
  0
LINE
  8
_0-0_0
  6
CONTINUOUS
 62
    7
 10
458.33111622676449
 20
180.42629332765148
 11
458.33111622676449
 21
200.90129332765162
  0
LINE
  8
_0-0_0
  6
CONTINUOUS
 62
    7
 10
440.04986622676449
 20
180.42629332765148
 11
440.04986622676449
 21
200.90129332765162
  0
LINE
  8
_0-0_0
  6
CONTINUOUS
 62
    7
 10
502.87591859720339
 20
377.13400822655797
 11
484.37591859720339
 21
377.13400822655797
  0
LINE
  8
_0-0_0
  6
CONTINUOUS
 62
    7
 10
377.87591859720339
 20
278.86235835325795
 11
407.89020139720367
 21
278.86235835325795
  0
LINE
  8
_0-0_0
  6
CONTINUOUS
 62
    7
 10
407.87591859720339
 20
276.86235835325795
 11
377.87591859720339
 21
276.86235835325795
  0
LINE
  8
_0-0_0
  6
CONTINUOUS
 62
    7
 10
377.87591859720339
 20
277.86235835325795
 11
407.87591859720339
 21
277.86235835325795
  0
LINE
  8
_0-0_0
  6
CONTINUOUS
 62
    7
 10
320.93545006920328
 20
323.04905232855788
 11
485.7093233037034
 21
331.68448510855785
  0
LINE
  8
_0-0_0
  6
CONTINUOUS
 62
    7
 10
321.99263638530363
 20
302.87673572645792
 11
486.76650961980329
 21
311.51216850655794
  0
LINE
  8
_0-0_0
  6
CONTINUOUS
 62
    7
 10
322.08684110650336
 20
301.07920256395789
 11
486.86071434100347
 21
309.71463534395787
  0
LINE
  8
_0-0_0
  6
CONTINUOUS
 62
    7
 10
322.27001695340357
 20
297.58399919225792
 11
487.04389018790368
 21
306.21943197235794
  0
LINE
  8
_0-0_0
  6
CONTINUOUS
 62
    7
 10
322.3485208878036
 20
296.08605489015793
 11
487.12239412230326
 21
304.72148767025794
  0
LINE
  8
_0-0_0
  6
CONTINUOUS
 62
    7
 10
321.17096187230334
 20
318.55521942215785
 11
485.94483510680345
 21
327.19065220215782
  0
LINE
  8
_0-0_0
  6
CONTINUOUS
 62
    7
 10
321.24946580660333
 20
317.05727511995781
 11
486.02333904120349
 21
325.69270790005783
  0
LINE
  8
_0-0_0
  6
CONTINUOUS
 62
    7
 10
322.40085684400344
 20
295.08742535535782
 11
487.17473007850356
 21
303.72285813545784
  0
LINE
  8
_0-0_0
  6
CONTINUOUS
 62
    7
 10
501.03292646590342
 20
334.201222108558
 11
294.82358264100355
 21
323.39424833125793
  0
LINE
  8
_0-0_0
  6
CONTINUOUS
 62
    7
 10
335.9933970249034
 20
322.33614737005803
 11
470.8083842167033
 21
329.40150146285794
  0
LINE
  8
_0-0_0
  6
CONTINUOUS
 62
    7
 10
403.58116523390333
 20
322.54573894585781
 11
416.51111631110359
 21
308.98068608655797
  0
LINE
  8
_0-0_0
  6
CONTINUOUS
 62
    7
 10
403.0020863190033
 20
321.99377190845792
 11
415.93203741280365
 21
308.4287190318579
  0
LINE
  8
_0-0_0
  6
CONTINUOUS
 62
    7
 10
409.37591859720339
 20
279.36235835325795
 11
397.87591859720339
 21
279.36235835325795
  0
LINE
  8
_0-0_0
  6
CONTINUOUS
 62
    7
 10
409.07591859720367
 20
281.36235835325795
 11
393.37591859720339
 21
281.36235835325795
  0
LINE
  8
_0-0_0
  6
CONTINUOUS
 62
    7
 10
404.90229138340362
 20
276.86235835325795
 11
403.90229138340362
 21
277.86235835325795
  0
LINE
  8
_0-0_0
  6
CONTINUOUS
 62
    7
 10
408.87591859720339
 20
285.76235835325781
 11
404.37591859720339
 21
285.76235835325781
  0
LINE
  8
_0-0_0
  6
CONTINUOUS
 62
    7
 10
408.87591859720339
 20
287.36235835325795
 11
404.37591859720339
 21
287.36235835325795
  0
LINE
  8
_0-0_0
  6
CONTINUOUS
 62
    7
 10
500.92825455340369
 20
336.19848117805793
 11
294.71891072850337
 21
325.39150740075786
  0
LINE
  8
_0-0_0
  6
CONTINUOUS
 62
    7
 10
517.87591859720339
 20
392.13400822655797
 11
517.87591859720339
 21
276.86235835325795
  0
ARC
  8
_0-0_0
  6
CONTINUOUS
 62
    7
 10
409.07591859720367
 20
283.06235835325799
 40
0.2999999999999998
 50
0
 51
90
  0
LINE
  8
_0-0_0
  6
CONTINUOUS
 62
    7
 10
410.87591859720339
 20
288.36235835325795
 11
410.87591859720339
 21
278.86235835325795
  0
ARC
  8
_0-0_0
  6
CONTINUOUS
 62
    7
 10
413.87591859720339
 20
287.11235835325795
 40
10.25
 50
251.07535558394997
 51
270
  0
ARC
  8
_0-0_0
  6
CONTINUOUS
 62
    7
 10
413.87591859720339
 20
287.11235835325795
 40
9.25
 50
251.07535558394997
 51
270
  0
ARC
  8
_0-0_0
  6
CONTINUOUS
 62
    7
 10
407.87591859720339
 20
269.61235835325795
 40
8.25
 50
71.075355583900006
 51
90
  0
LINE
  8
_0-0_0
  6
CONTINUOUS
 62
    7
 10
407.87591859720339
 20
277.86235835325795
 11
407.87591859720339
 21
276.86235835325795
  0
LINE
  8
_0-0_0
  6
CONTINUOUS
 62
    7
 10
410.87591859720339
 20
278.86235835325795
 11
409.37591859720339
 21
278.86235835325795
  0
LINE
  8
_0-0_0
  6
CONTINUOUS
 62
    7
 10
409.37591859720339
 20
278.86235835325795
 11
409.37591859720339
 21
279.36235835325795
  0
ARC
  8
_0-0_0
  6
CONTINUOUS
 62
    7
 10
409.07591859720367
 20
281.6623583532579
 40
0.2999999999999998
 50
270
 51
0
  0
LINE
  8
_0-0_0
  6
CONTINUOUS
 62
    7
 10
409.37591859720339
 20
281.6623583532579
 11
409.37591859720339
 21
283.06235835325799
  0
LINE
  8
_0-0_0
  6
CONTINUOUS
 62
    7
 10
407.73071850820349
 20
276.86235835325795
 11
406.73071850820349
 21
277.86235835325795
  0
LINE
  8
_0-0_0
  6
CONTINUOUS
 62
    7
 10
406.31650494580333
 20
276.86235835325795
 11
405.31650494580333
 21
277.86235835325795
  0
ARC
  8
_0-0_0
  6
CONTINUOUS
 62
    7
 10
407.87591859720339
 20
269.61235835325795
 40
9.25
 50
71.075355583900006
 51
90
  0
ARC
  8
_0-0_0
  6
CONTINUOUS
 62
    7
 10
406.12591859720339
 20
288.11235835325795
 40
0.75
 50
90
 51
270
  0
ARC
  8
_0-0_0
  6
CONTINUOUS
 62
    7
 10
407.12591859720339
 20
284.11235835325795
 40
0.75
 50
90
 51
270
  0
ARC
  8
_0-0_0
  6
CONTINUOUS
 62
    7
 10
409.07591859720367
 20
287.06235835325799
 40
0.2999999999999998
 50
0
 51
90
  0
LINE
  8
_0-0_0
  6
CONTINUOUS
 62
    7
 10
409.07591859720367
 20
287.36235835325795
 11
406.12591859720339
 21
287.36235835325795
  0
LINE
  8
_0-0_0
  6
CONTINUOUS
 62
    7
 10
409.07591859720367
 20
284.86235835325795
 11
407.12591859720339
 21
284.86235835325795
  0
ARC
  8
_0-0_0
  6
CONTINUOUS
 62
    7
 10
409.07591859720367
 20
285.1623583532579
 40
0.2999999999999998
 50
270
 51
0
  0
LINE
  8
_0-0_0
  6
CONTINUOUS
 62
    7
 10
409.37591859720339
 20
285.1623583532579
 11
409.37591859720339
 21
287.06235835325799
  0
LINE
  8
_0-0_0
  6
CONTINUOUS
 62
    7
 10
409.07591859720367
 20
283.36235835325795
 11
407.12591859720339
 21
283.36235835325795
  0
LINE
  8
_0-0_0
  6
CONTINUOUS
 62
    7
 10
410.37591859720339
 20
288.86235835325795
 11
406.12591859720339
 21
288.86235835325795
  0
ARC
  8
_0-0_0
  6
CONTINUOUS
 62
    7
 10
410.37591859720339
 20
288.36235835325795
 40
0.5
 50
0
 51
90
  0
LINE
  8
_0-0_0
  6
CONTINUOUS
 62
    7
 10
408.87591859720339
 20
285.76235835325781
 11
408.87591859720339
 21
287.36235835325795
  0
LINE
  8
_0-0_0
  6
CONTINUOUS
 62
    7
 10
406.87591859720339
 20
287.36235835325795
 11
406.87591859720339
 21
285.76235835325781
  0
LINE
  8
_0-0_0
  6
CONTINUOUS
 62
    7
 10
486.88688231920366
 20
309.21532057665797
 11
458.42594057870326
 21
307.72374582365785
  0
LINE
  8
_0-0_0
  6
CONTINUOUS
 62
    7
 10
481.99840655790365
 20
306.9563817258578
 11
462.02581586280337
 21
305.9096626010579
  0
LINE
  8
_0-0_0
  6
CONTINUOUS
 62
    7
 10
511.87591859720339
 20
342.13400822655797
 11
511.87591859720339
 21
324.13400822655797
  0
ARC
  8
_0-0_0
  6
CONTINUOUS
 62
    7
 10
493.37591859720339
 20
341.63400822655797
 40
0.5
 50
270
 51
0
  0
ARC
  8
_0-0_0
  6
CONTINUOUS
 62
    7
 10
484.37591859720339
 20
342.13400822655797
 40
1
 50
180
 51
270
  0
LINE
  8
_0-0_0
  6
CONTINUOUS
 62
    7
 10
515.37591859720339
 20
352.13400822655797
 11
515.37591859720339
 21
338.13400822655797
  0
LINE
  8
_0-0_0
  6
CONTINUOUS
 62
    7
 10
513.37591859720339
 20
333.63400822655797
 11
513.37591859720339
 21
351.63400822655797
  0
ARC
  8
_0-0_0
  6
CONTINUOUS
 62
    7
 10
493.57591859720367
 20
341.43400822655792
 40
0.2999999999999998
 50
270
 51
0
  0
ARC
  8
_0-0_0
  6
CONTINUOUS
 62
    7
 10
493.87591859720339
 20
341.13400822655797
 40
1
 50
270
 51
0
  0
ARC
  8
_0-0_0
  6
CONTINUOUS
 62
    7
 10
485.37591859720339
 20
340.63400822655797
 40
0.5
 50
90
 51
180
  0
LINE
  8
_0-0_0
  6
CONTINUOUS
 62
    7
 10
507.87591859720339
 20
319.13400822655797
 11
507.87591859720339
 21
349.13400822655797
  0
LINE
  8
_0-0_0
  6
CONTINUOUS
 62
    7
 10
505.87591859720339
 20
320.63400822655797
 11
505.87591859720339
 21
348.63400822655797
  0
LINE
  8
_0-0_0
  6
CONTINUOUS
 62
    7
 10
503.87591859720339
 20
337.19711071275799
 11
503.87591859720339
 21
348.24814614605782
  0
LINE
  8
_0-0_0
  6
CONTINUOUS
 62
    7
 10
501.87591859720339
 20
337.19711071275799
 11
501.87591859720339
 21
348.24814614605782
  0
LINE
  8
_0-0_0
  6
CONTINUOUS
 62
    7
 10
508.87591859720339
 20
337.45914960925791
 11
508.87591859720339
 21
349.61225590905781
  0
LINE
  8
_0-0_0
  6
CONTINUOUS
 62
    7
 10
513.37591859720339
 20
337.45914960925791
 11
513.37591859720339
 21
349.61225590905781
  0
LINE
  8
_0-0_0
  6
CONTINUOUS
 62
    7
 10
506.26843826900347
 20
329.96942809855784
 11
485.85527193200357
 21
328.89961938265799
  0
LINE
  8
_0-0_0
  6
CONTINUOUS
 62
    7
 10
506.03292646590342
 20
334.46326100495787
 11
485.61976012890352
 21
333.39345228905779
  0
LINE
  8
_0-0_0
  6
CONTINUOUS
 62
    7
 10
512.87591859720339
 20
312.63400822655797
 11
502.12591859720339
 21
312.63400822655797
  0
LINE
  8
_0-0_0
  6
CONTINUOUS
 62
    7
 10
512.87591859720339
 20
314.13400822655797
 11
502.12591859720339
 21
314.13400822655797
  0
LINE
  8
_0-0_0
  6
CONTINUOUS
 62
    7
 10
496.87591859720339
 20
319.63400822655797
 11
504.87591859720339
 21
319.63400822655797
  0
LINE
  8
_0-0_0
  6
CONTINUOUS
 62
    7
 10
498.37591859720339
 20
317.13400822655797
 11
508.87591859720339
 21
317.13400822655797
  0
ARC
  8
_0-0_0
  6
CONTINUOUS
 62
    7
 10
500.87591859720339
 20
337.19711071275799
 40
3
 50
273
 51
359.99999999999989
  0
LINE
  8
_0-0_0
  6
CONTINUOUS
 62
    7
 10
515.37591859720339
 20
328.13400822655797
 11
515.37591859720339
 21
314.13400822655797
  0
LINE
  8
_0-0_0
  6
CONTINUOUS
 62
    7
 10
513.37591859720339
 20
314.63400822655797
 11
513.37591859720339
 21
332.63400822655797
  0
ARC
  8
_0-0_0
  6
CONTINUOUS
 62
    7
 10
509.87591859720339
 20
317.63400822655797
 40
1
 50
0
 51
90
  0
LINE
  8
_0-0_0
  6
CONTINUOUS
 62
    7
 10
510.37591859720339
 20
306.13400822655797
 11
509.37591859720339
 21
306.63400822655797
  0
LINE
  8
_0-0_0
  6
CONTINUOUS
 62
    7
 10
509.37591859720339
 20
306.63400822655797
 11
509.37591859720339
 21
306.13400822655797
  0
LINE
  8
_0-0_0
  6
CONTINUOUS
 62
    7
 10
509.37591859720339
 20
306.13400822655797
 11
508.37591859720339
 21
306.63400822655797
  0
LINE
  8
_0-0_0
  6
CONTINUOUS
 62
    7
 10
508.37591859720339
 20
306.63400822655797
 11
508.37591859720339
 21
306.13400822655797
  0
ARC
  8
_0-0_0
  6
CONTINUOUS
 62
    7
 10
507.12591859720339
 20
306.88400822655797
 40
0.75
 50
90
 51
270
  0
LINE
  8
_0-0_0
  6
CONTINUOUS
 62
    7
 10
514.87591859720339
 20
302.63400822655797
 11
514.87591859720339
 21
312.13400822655797
  0
LINE
  8
_0-0_0
  6
CONTINUOUS
 62
    7
 10
512.87591859720339
 20
306.13400822655797
 11
510.37591859720339
 21
306.13400822655797
  0
LINE
  8
_0-0_0
  6
CONTINUOUS
 62
    7
 10
512.87591859720339
 20
302.13400822655797
 11
510.37591859720339
 21
302.13400822655797
  0
LINE
  8
_0-0_0
  6
CONTINUOUS
 62
    7
 10
507.12591859720339
 20
300.63400822655797
 11
515.87591859720339
 21
300.63400822655797
  0
ARC
  8
_0-0_0
  6
CONTINUOUS
 62
    7
 10
512.87591859720339
 20
305.63400822655797
 40
0.5
 50
0
 51
90
  0
ARC
  8
_0-0_0
  6
CONTINUOUS
 62
    7
 10
512.87591859720339
 20
302.63400822655797
 40
0.5
 50
270
 51
0
  0
LINE
  8
_0-0_0
  6
CONTINUOUS
 62
    7
 10
513.37591859720339
 20
302.63400822655797
 11
513.37591859720339
 21
305.63400822655797
  0
ARC
  8
_0-0_0
  6
CONTINUOUS
 62
    7
 10
515.37591859720339
 20
302.63400822655797
 40
0.5
 50
180
 51
270
  0
LINE
  8
_0-0_0
  6
CONTINUOUS
 62
    7
 10
515.37591859720339
 20
302.13400822655797
 11
515.87591859720339
 21
302.13400822655797
  0
LINE
  8
_0-0_0
  6
CONTINUOUS
 62
    7
 10
515.87591859720339
 20
300.63400822655797
 11
515.87591859720339
 21
302.13400822655797
  0
ARC
  8
_0-0_0
  6
CONTINUOUS
 62
    7
 10
507.12591859720339
 20
301.38400822655797
 40
0.75
 50
90
 51
270
  0
LINE
  8
_0-0_0
  6
CONTINUOUS
 62
    7
 10
510.37591859720339
 20
302.13400822655797
 11
509.37591859720339
 21
301.63400822655797
  0
LINE
  8
_0-0_0
  6
CONTINUOUS
 62
    7
 10
509.37591859720339
 20
302.13400822655797
 11
509.37591859720339
 21
301.63400822655797
  0
LINE
  8
_0-0_0
  6
CONTINUOUS
 62
    7
 10
509.37591859720339
 20
302.13400822655797
 11
508.37591859720339
 21
301.63400822655797
  0
LINE
  8
_0-0_0
  6
CONTINUOUS
 62
    7
 10
508.37591859720339
 20
302.13400822655797
 11
508.37591859720339
 21
301.63400822655797
  0
LINE
  8
_0-0_0
  6
CONTINUOUS
 62
    7
 10
507.12591859720339
 20
302.13400822655797
 11
508.37591859720339
 21
302.13400822655797
  0
LINE
  8
_0-0_0
  6
CONTINUOUS
 62
    7
 10
507.12591859720339
 20
306.13400822655797
 11
508.37591859720339
 21
306.13400822655797
  0
LINE
  8
_0-0_0
  6
CONTINUOUS
 62
    7
 10
512.87591859720339
 20
307.63400822655797
 11
507.12591859720339
 21
307.63400822655797
  0
LINE
  8
_0-0_0
  6
CONTINUOUS
 62
    7
 10
515.37591859720339
 20
314.13400822655797
 11
515.87591859720339
 21
314.13400822655797
  0
ARC
  8
_0-0_0
  6
CONTINUOUS
 62
    7
 10
512.87591859720339
 20
308.13400822655797
 40
0.5
 50
270
 51
0
  0
LINE
  8
_0-0_0
  6
CONTINUOUS
 62
    7
 10
513.37591859720339
 20
312.13400822655797
 11
513.37591859720339
 21
308.13400822655797
  0
ARC
  8
_0-0_0
  6
CONTINUOUS
 62
    7
 10
512.87591859720339
 20
312.13400822655797
 40
0.5
 50
0
 51
90
  0
ARC
  8
_0-0_0
  6
CONTINUOUS
 62
    7
 10
512.87591859720339
 20
314.63400822655797
 40
0.5
 50
270
 51
0
  0
LINE
  8
_0-0_0
  6
CONTINUOUS
 62
    7
 10
515.37591859720339
 20
312.63400822655797
 11
515.87591859720339
 21
312.63400822655797
  0
ARC
  8
_0-0_0
  6
CONTINUOUS
 62
    7
 10
515.37591859720339
 20
312.13400822655797
 40
0.5
 50
90
 51
180
  0
LINE
  8
_0-0_0
  6
CONTINUOUS
 62
    7
 10
515.87591859720339
 20
314.13400822655797
 11
515.87591859720339
 21
312.63400822655797
  0
LINE
  8
_0-0_0
  6
CONTINUOUS
 62
    7
 10
510.87591859720339
 20
317.63400822655797
 11
510.87591859720339
 21
315.38400822655797
  0
ARC
  8
_0-0_0
  6
CONTINUOUS
 62
    7
 10
510.12591859720339
 20
315.38400822655797
 40
0.75
 50
180
 51
0
  0
LINE
  8
_0-0_0
  6
CONTINUOUS
 62
    7
 10
509.37591859720339
 20
316.63400822655797
 11
509.37591859720339
 21
315.38400822655797
  0
ARC
  8
_0-0_0
  6
CONTINUOUS
 62
    7
 10
508.87591859720339
 20
316.63400822655797
 40
0.5
 50
0
 51
90
  0
ARC
  8
_0-0_0
  6
CONTINUOUS
 62
    7
 10
512.00462759720347
 20
331.63124522655801
 40
3
 50
218.61463800000001
 51
267.54107400000004
  0
LINE
  8
_0-0_0
  6
CONTINUOUS
 62
    7
 10
515.87591859720339
 20
338.13400822655797
 11
515.87591859720339
 21
328.13400822655797
  0
ARC
  8
_0-0_0
  6
CONTINUOUS
 62
    7
 10
505.87591859720339
 20
337.45914960925791
 40
7.5
 50
273
 51
359.99999999999989
  0
LINE
  8
_0-0_0
  6
CONTINUOUS
 62
    7
 10
513.37591859720339
 20
324.13400822655797
 11
511.87591859720339
 21
324.13400822655797
  0
LINE
  8
_0-0_0
  6
CONTINUOUS
 62
    7
 10
515.87591859720339
 20
328.13400822655797
 11
515.37591859720339
 21
328.13400822655797
  0
ARC
  8
_0-0_0
  6
CONTINUOUS
 62
    7
 10
508.37591859720339
 20
319.13400822655797
 40
0.5
 50
180
 51
270
  0
LINE
  8
_0-0_0
  6
CONTINUOUS
 62
    7
 10
508.37591859720339
 20
318.63400822655797
 11
509.87591859720339
 21
318.63400822655797
  0
ARC
  8
_0-0_0
  6
CONTINUOUS
 62
    7
 10
504.87591859720339
 20
320.63400822655797
 40
1
 50
270
 51
0
  0
ARC
  8
_0-0_0
  6
CONTINUOUS
 62
    7
 10
512.00462759720347
 20
334.63676822655782
 40
3
 50
92.458926000000019
 51
141.38536199999999
  0
LINE
  8
_0-0_0
  6
CONTINUOUS
 62
    7
 10
515.87591859720339
 20
338.13400822655797
 11
515.37591859720339
 21
338.13400822655797
  0
LINE
  8
_0-0_0
  6
CONTINUOUS
 62
    7
 10
513.37591859720339
 20
333.63400822655797
 11
513.87591859720339
 21
333.13400822655797
  0
LINE
  8
_0-0_0
  6
CONTINUOUS
 62
    7
 10
513.37591859720339
 20
332.63400822655797
 11
513.87591859720339
 21
333.13400822655797
  0
ARC
  8
_0-0_0
  6
CONTINUOUS
 62
    7
 10
513.87591659720363
 20
333.13400822655797
 40
5.4000000000000004
 50
180
 51
218.682187
  0
ARC
  8
_0-0_0
  6
CONTINUOUS
 62
    7
 10
513.87591659720363
 20
333.13400822655797
 40
5.4000000000000004
 50
141.14893799999996
 51
180.00000000000011
  0
ARC
  8
_0-0_0
  6
CONTINUOUS
 62
    7
 10
505.87591859720339
 20
337.45914960925791
 40
3
 50
273
 51
359.99999999999989
  0
ARC
  8
_0-0_0
  6
CONTINUOUS
 62
    7
 10
496.87591859720339
 20
317.63400822655797
 40
2
 50
90
 51
180
  0
LINE
  8
_0-0_0
  6
CONTINUOUS
 62
    7
 10
487.17473007850356
 20
303.72285813545784
 11
485.7093233037034
 21
331.68448510855785
  0
LINE
  8
_0-0_0
  6
CONTINUOUS
 62
    7
 10
487.04389018790368
 20
306.21943197235794
 11
482.05074251410349
 21
305.95775219115797
  0
ARC
  8
_0-0_0
  6
CONTINUOUS
 62
    7
 10
489.06731723550354
 20
305.82478911745795
 40
0.5
 50
93.000000000010004
 51
182.99999999999901
  0
ARC
  8
_0-0_0
  6
CONTINUOUS
 62
    7
 10
487.62170888960361
 20
304.74765564835786
 40
0.5
 50
182.99999999999901
 51
273.00000000001
  0
LINE
  8
_0-0_0
  6
CONTINUOUS
 62
    7
 10
488.1471916351037
 20
304.27450885905785
 11
487.64787686780335
 21
304.24834088095793
  0
ARC
  8
_0-0_0
  6
CONTINUOUS
 62
    7
 10
488.12102365700355
 20
304.77382362645778
 40
0.5
 50
273
 51
2.9999999999997371
  0
LINE
  8
_0-0_0
  6
CONTINUOUS
 62
    7
 10
488.5680024681036
 20
305.79862113935781
 11
488.62033842440349
 21
304.79999160455793
  0
ARC
  8
_0-0_0
  6
CONTINUOUS
 62
    7
 10
493.87591859720339
 20
310.58297279325791
 40
1
 50
273
 51
359.99999999999989
  0
LINE
  8
_0-0_0
  6
CONTINUOUS
 62
    7
 10
495.48059050970357
 20
306.66158070065796
 11
489.04114925740339
 21
306.32410388485789
  0
ARC
  8
_0-0_0
  6
CONTINUOUS
 62
    7
 10
502.12591859720339
 20
313.38400822655797
 40
0.75
 50
90
 51
270
  0
ARC
  8
_0-0_0
  6
CONTINUOUS
 62
    7
 10
498.37591859720339
 20
316.13400822655797
 40
1
 50
90
 51
180
  0
LINE
  8
_0-0_0
  6
CONTINUOUS
 62
    7
 10
494.87591859720339
 20
310.58297279325791
 11
494.87591859720339
 21
317.63400822655797
  0
LINE
  8
_0-0_0
  6
CONTINUOUS
 62
    7
 10
497.37591859720339
 20
308.65883977025794
 11
497.37591859720339
 21
316.13400822655797
  0
ARC
  8
_0-0_0
  6
CONTINUOUS
 62
    7
 10
495.37591859720339
 20
308.65883977025794
 40
2
 50
273
 51
359.99999999999989
  0
ARC
  8
_0-0_0
  6
CONTINUOUS
 62
    7
 10
487.25535719590368
 20
311.73806239165799
 40
0.5
 50
93.000000000010004
 51
182.99999999999901
  0
LINE
  8
_0-0_0
  6
CONTINUOUS
 62
    7
 10
487.72850398520347
 20
312.26354513715785
 11
487.22918921780354
 21
312.23737715905793
  0
ARC
  8
_0-0_0
  6
CONTINUOUS
 62
    7
 10
487.75467196330362
 20
311.76423036975791
 40
0.5
 50
2.999999999999992
 51
93.000000000010004
  0
LINE
  8
_0-0_0
  6
CONTINUOUS
 62
    7
 10
488.35865864320328
 20
309.7931392783579
 11
488.25398673070356
 21
311.79039834785783
  0
ARC
  8
_0-0_0
  6
CONTINUOUS
 62
    7
 10
488.85797341060368
 20
309.81930725645782
 40
0.5
 50
182.99999999999901
 51
273.00000000001
  0
LINE
  8
_0-0_0
  6
CONTINUOUS
 62
    7
 10
493.92825455340369
 20
309.58434325855785
 11
488.88414138870337
 21
309.31999248915793
  0
LINE
  8
_0-0_0
  6
CONTINUOUS
 62
    7
 10
482.05074251410349
 20
305.95775219115797
 11
481.99840655790365
 21
306.9563817258578
  0
LINE
  8
_0-0_0
  6
CONTINUOUS
 62
    7
 10
485.76305573720344
 20
340.13400822655797
 11
486.67784359940367
 21
338.22532640745783
  0
ARC
  8
_0-0_0
  6
CONTINUOUS
 62
    7
 10
489.56353047290338
 20
339.60837061085783
 40
4
 50
205.60734235523
 51
321.59657593909998
  0
LINE
  8
_0-0_0
  6
CONTINUOUS
 62
    7
 10
493.87591859720339
 20
340.13400822655797
 11
484.87591859720339
 21
340.13400822655797
  0
ARC
  8
_0-0_0
  6
CONTINUOUS
 62
    7
 10
500.87591859720339
 20
337.19711071275799
 40
1
 50
273
 51
359.99999999999989
  0
ARC
  8
_0-0_0
  6
CONTINUOUS
 62
    7
 10
489.56353047290338
 20
339.60837061085783
 40
3.2000000000000002
 50
205.60734235523
 51
321.59657593909998
  0
LINE
  8
_0-0_0
  6
CONTINUOUS
 62
    7
 10
493.69206719630336
 20
338.37744229315797
 11
492.69815581460341
 21
337.1235921564579
  0
LINE
  8
_0-0_0
  6
CONTINUOUS
 62
    7
 10
493.06514212800346
 20
338.87439798405796
 11
492.07123074620347
 21
337.6205478473579
  0
ARC
  8
_0-0_0
  6
CONTINUOUS
 62
    7
 10
493.37860466210338
 20
338.62592013865799
 40
0.4
 50
321.59657593910003
 51
141.59657593906999
  0
LINE
  8
_0-0_0
  6
CONTINUOUS
 62
    7
 10
470.96539208550337
 20
326.4056128585579
 11
470.75604826050346
 21
330.40013099755799
  0
LINE
  8
_0-0_0
  6
CONTINUOUS
 62
    7
 10
482.42000964280339
 20
327.00592392725787
 11
485.77850502090348
 21
330.364419305458
  0
LINE
  8
_0-0_0
  6
CONTINUOUS
 62
    7
 10
480.92758122110342
 20
326.92770906795784
 11
485.15459923200331
 21
331.15472707885795
  0
LINE
  8
_0-0_0
  6
CONTINUOUS
 62
    7
 10
479.43515279940345
 20
326.8494942086578
 11
483.66217081040338
 21
331.07651221955791
  0
LINE
  8
_0-0_0
  6
CONTINUOUS
 62
    7
 10
477.94272437770348
 20
326.771279349358
 11
482.16974238870341
 21
330.99829736025788
  0
LINE
  8
_0-0_0
  6
CONTINUOUS
 62
    7
 10
476.45029595600352
 20
326.69306448995792
 11
480.67731396700344
 21
330.92008250095785
  0
LINE
  8
_0-0_0
  6
CONTINUOUS
 62
    7
 10
474.95786753430355
 20
326.61484963065789
 11
479.18488554530347
 21
330.84186764165781
  0
LINE
  8
_0-0_0
  6
CONTINUOUS
 62
    7
 10
473.46543911260358
 20
326.53663477135785
 11
477.6924571236035
 21
330.76365278225796
  0
LINE
  8
_0-0_0
  6
CONTINUOUS
 62
    7
 10
471.97301069100365
 20
326.45841991205782
 11
476.20002870190353
 21
330.68543792295793
  0
LINE
  8
_0-0_0
  6
CONTINUOUS
 62
    7
 10
470.94251479430329
 20
326.84213757775785
 11
474.70760028020356
 21
330.6072230636579
  0
LINE
  8
_0-0_0
  6
CONTINUOUS
 62
    7
 10
470.87208981870333
 20
328.18592616455783
 11
473.2151718585036
 21
330.52900820435786
  0
LINE
  8
_0-0_0
  6
CONTINUOUS
 62
    7
 10
485.40486648620333
 20
327.16235364595798
 11
485.91935497230349
 21
327.67684213195787
  0
LINE
  8
_0-0_0
  6
CONTINUOUS
 62
    7
 10
483.91243806450336
 20
327.0841387865579
 11
485.84892999660349
 21
329.0206307186578
  0
LINE
  8
_0-0_0
  6
CONTINUOUS
 62
    7
 10
485.73549128180355
 20
331.18517034125796
 11
470.75604826050346
 21
330.40013099755799
  0
LINE
  8
_0-0_0
  6
CONTINUOUS
 62
    7
 10
477.70721257460343
 20
331.2651122557578
 11
479.51564973790335
 21
333.0735494189579
  0
LINE
  8
_0-0_0
  6
CONTINUOUS
 62
    7
 10
484.87591859720339
 20
340.13400822655797
 11
485.95642188100362
 21
337.87956535665796
  0
LINE
  8
_0-0_0
  6
CONTINUOUS
 62
    7
 10
484.87591859720339
 20
340.63400822655797
 11
484.87591859720339
 21
340.13400822655797
  0
LINE
  8
_0-0_0
  6
CONTINUOUS
 62
    7
 10
485.7093233037034
 20
331.68448510855785
 11
485.61976012890352
 21
333.39345228905779
  0
LINE
  8
_0-0_0
  6
CONTINUOUS
 62
    7
 10
485.16935468310328
 20
331.65618655235778
 11
485.68384316920344
 21
332.1706750383579
  0
LINE
  8
_0-0_0
  6
CONTINUOUS
 62
    7
 10
483.67692626140331
 20
331.57797169295793
 11
485.48536342470368
 21
333.38640885625784
  0
LINE
  8
_0-0_0
  6
CONTINUOUS
 62
    7
 10
482.18449783970334
 20
331.4997568336579
 11
483.99293500300325
 21
333.30819399695781
  0
LINE
  8
_0-0_0
  6
CONTINUOUS
 62
    7
 10
480.69206941800337
 20
331.42154197435787
 11
482.50050658130328
 21
333.22997913765778
  0
LINE
  8
_0-0_0
  6
CONTINUOUS
 62
    7
 10
479.1996409963034
 20
331.34332711505783
 11
481.00807815960331
 21
333.15176427835797
  0
LINE
  8
_0-0_0
  6
CONTINUOUS
 62
    7
 10
470.72988028240331
 20
330.89944576495793
 11
470.64031710760344
 21
332.60841294545787
  0
LINE
  8
_0-0_0
  6
CONTINUOUS
 62
    7
 10
470.80166484300332
 20
329.52971475125798
 11
471.72274343680363
 21
330.45079334505783
  0
LINE
  8
_0-0_0
  6
CONTINUOUS
 62
    7
 10
476.21478415290346
 20
331.18689739635795
 11
478.02322131620338
 21
332.99533455965786
  0
LINE
  8
_0-0_0
  6
CONTINUOUS
 62
    7
 10
474.72235573120349
 20
331.10868253705792
 11
476.53079289450341
 21
332.91711970035783
  0
LINE
  8
_0-0_0
  6
CONTINUOUS
 62
    7
 10
473.22992730960357
 20
331.03046767775788
 11
475.03836447280344
 21
332.8389048410578
  0
LINE
  8
_0-0_0
  6
CONTINUOUS
 62
    7
 10
471.7374988879036
 20
330.95225281845785
 11
473.54593605120351
 21
332.76068998175799
  0
LINE
  8
_0-0_0
  6
CONTINUOUS
 62
    7
 10
470.70700299120369
 20
331.33597048415788
 11
472.05350762950354
 21
332.68247512245796
  0
LINE
  8
_0-0_0
  6
CONTINUOUS
 62
    7
 10
503.69450831750362
 20
374.63400822655797
 11
502.89450731750355
 21
375.43400922655781
  0
LINE
  8
_0-0_0
  6
CONTINUOUS
 62
    7
 10
486.47591759720342
 20
374.63400822655797
 11
504.87591659720363
 21
374.63400822655797
  0
LINE
  8
_0-0_0
  6
CONTINUOUS
 62
    7
 10
486.47591759720342
 20
375.43400922655781
 11
504.87591659720363
 21
375.43400922655781
  0
LINE
  8
_0-0_0
  6
CONTINUOUS
 62
    7
 10
503.87591859720339
 20
375.63400822655797
 11
485.37591859720339
 21
375.63400822655797
  0
LINE
  8
_0-0_0
  6
CONTINUOUS
 62
    7
 10
505.87591859720339
 20
374.63400822655797
 11
501.27591859720349
 21
374.63400822655797
  0
LINE
  8
_0-0_0
  6
CONTINUOUS
 62
    7
 10
506.37591859720339
 20
373.43400822655792
 11
501.27591859720349
 21
373.43400822655792
  0
LINE
  8
_0-0_0
  6
CONTINUOUS
 62
    7
 10
505.37591859720339
 20
349.13400822655797
 11
501.37591859720339
 21
349.13400822655797
  0
LINE
  8
_0-0_0
  6
CONTINUOUS
 62
    7
 10
501.87591859720339
 20
350.63400822655797
 11
506.37591859720339
 21
350.63400822655797
  0
LINE
  8
_0-0_0
  6
CONTINUOUS
 62
    7
 10
500.37591859720339
 20
357.13400822655797
 11
507.9759185972033
 21
357.13400822655797
  0
LINE
  8
_0-0_0
  6
CONTINUOUS
 62
    7
 10
506.87591859720339
 20
355.63400822655797
 11
501.37591859720339
 21
355.63400822655797
  0
LINE
  8
_0-0_0
  6
CONTINUOUS
 62
    7
 10
503.87591859720339
 20
348.24814614605782
 11
501.87591859720339
 21
348.24814614605782
  0
LINE
  8
_0-0_0
  6
CONTINUOUS
 62
    7
 10
506.87591859720339
 20
360.13400822655797
 11
506.87591859720339
 21
366.13400822655797
  0
LINE
  8
_0-0_0
  6
CONTINUOUS
 62
    7
 10
508.37591859720339
 20
364.63400822655797
 11
508.37591859720339
 21
360.83400822655778
  0
LINE
  8
_0-0_0
  6
CONTINUOUS
 62
    7
 10
515.37591859720339
 20
365.13400822655797
 11
515.37591859720339
 21
353.63400822655797
  0
LINE
  8
_0-0_0
  6
CONTINUOUS
 62
    7
 10
513.37591859720339
 20
354.13400822655797
 11
513.37591859720339
 21
364.63400822655797
  0
LINE
  8
_0-0_0
  6
CONTINUOUS
 62
    7
 10
503.37591859720339
 20
352.63400822655797
 11
503.37591859720339
 21
353.13400822655797
  0
LINE
  8
_0-0_0
  6
CONTINUOUS
 62
    7
 10
515.87591859720339
 20
353.63400822655797
 11
515.87591859720339
 21
352.13400822655797
  0
LINE
  8
_0-0_0
  6
CONTINUOUS
 62
    7
 10
503.87591859720339
 20
352.13400822655797
 11
512.87591859720339
 21
352.13400822655797
  0
LINE
  8
_0-0_0
  6
CONTINUOUS
 62
    7
 10
508.87591859720339
 20
349.61225590905781
 11
513.37591859720339
 21
349.61225590905781
  0
LINE
  8
_0-0_0
  6
CONTINUOUS
 62
    7
 10
513.37591859720339
 20
342.13400822655797
 11
511.87591859720339
 21
342.13400822655797
  0
LINE
  8
_0-0_0
  6
CONTINUOUS
 62
    7
 10
515.87591859720339
 20
352.13400822655797
 11
515.37591859720339
 21
352.13400822655797
  0
ARC
  8
_0-0_0
  6
CONTINUOUS
 62
    7
 10
512.87591859720339
 20
351.63400822655797
 40
0.5
 50
0
 51
90
  0
ARC
  8
_0-0_0
  6
CONTINUOUS
 62
    7
 10
503.87591859720339
 20
352.63400822655797
 40
0.5
 50
180
 51
270
  0
ARC
  8
_0-0_0
  6
CONTINUOUS
 62
    7
 10
506.37591859720339
 20
349.13400822655797
 40
1.5
 50
0
 51
90
  0
ARC
  8
_0-0_0
  6
CONTINUOUS
 62
    7
 10
505.37591859720339
 20
348.63400822655797
 40
0.5
 50
0
 51
90
  0
LINE
  8
_0-0_0
  6
CONTINUOUS
 62
    7
 10
512.87591859720339
 20
353.63400822655797
 11
503.87591859720339
 21
353.63400822655797
  0
LINE
  8
_0-0_0
  6
CONTINUOUS
 62
    7
 10
511.4759185972033
 20
359.13400822655797
 11
507.9759185972033
 21
357.13400822655797
  0
LINE
  8
_0-0_0
  6
CONTINUOUS
 62
    7
 10
512.22012700470339
 20
357.83164351335802
 11
508.57591859720367
 21
355.74923870905798
  0
LINE
  8
_0-0_0
  6
CONTINUOUS
 62
    7
 10
515.37591859720339
 20
353.63400822655797
 11
515.87591859720339
 21
353.63400822655797
  0
ARC
  8
_0-0_0
  6
CONTINUOUS
 62
    7
 10
512.87591859720339
 20
354.13400822655797
 40
0.5
 50
270
 51
0
  0
ARC
  8
_0-0_0
  6
CONTINUOUS
 62
    7
 10
512.2259185972033
 20
362.38400822655797
 40
0.75
 50
0
 51
180
  0
LINE
  8
_0-0_0
  6
CONTINUOUS
 62
    7
 10
511.4759185972033
 20
362.38400822655797
 11
511.4759185972033
 21
359.13400822655797
  0
LINE
  8
_0-0_0
  6
CONTINUOUS
 62
    7
 10
512.9759185972033
 20
359.13400822655797
 11
512.9759185972033
 21
362.38400822655797
  0
ARC
  8
_0-0_0
  6
CONTINUOUS
 62
    7
 10
511.4759185972033
 20
359.13400822655797
 40
1.5
 50
299.74488129689996
 51
0
  0
ARC
  8
_0-0_0
  6
CONTINUOUS
 62
    7
 10
507.87591859720339
 20
360.13400822655797
 40
1
 50
180
 51
270
  0
LINE
  8
_0-0_0
  6
CONTINUOUS
 62
    7
 10
507.87591859720339
 20
359.13400822655797
 11
509.77591859720349
 21
359.13400822655797
  0
LINE
  8
_0-0_0
  6
CONTINUOUS
 62
    7
 10
508.87591859720339
 20
360.33400822655778
 11
509.77591859720349
 21
360.33400822655778
  0
ARC
  8
_0-0_0
  6
CONTINUOUS
 62
    7
 10
508.87591859720339
 20
360.83400822655778
 40
0.5
 50
180
 51
270
  0
ARC
  8
_0-0_0
  6
CONTINUOUS
 62
    7
 10
509.77591859720349
 20
359.73400822655788
 40
0.5999999999999996
 50
270
 51
90
  0
ARC
  8
_0-0_0
  6
CONTINUOUS
 62
    7
 10
503.87591859720339
 20
353.13400822655797
 40
0.5
 50
90
 51
180
  0
ARC
  8
_0-0_0
  6
CONTINUOUS
 62
    7
 10
507.9759185972033
 20
354.23400822655788
 40
0.5999999999999996
 50
180
 51
0
  0
LINE
  8
_0-0_0
  6
CONTINUOUS
 62
    7
 10
507.37591859720339
 20
355.13400822655797
 11
507.37591859720339
 21
354.23400822655788
  0
ARC
  8
_0-0_0
  6
CONTINUOUS
 62
    7
 10
506.87591859720339
 20
355.13400822655797
 40
0.5
 50
0
 51
90
  0
LINE
  8
_0-0_0
  6
CONTINUOUS
 62
    7
 10
508.57591859720367
 20
355.74923870905798
 11
508.57591859720367
 21
354.23400822655788
  0
ARC
  8
_0-0_0
  6
CONTINUOUS
 62
    7
 10
504.87591659720363
 20
375.93401022655792
 40
1.2999989999999999
 50
270
 51
0
  0
ARC
  8
_0-0_0
  6
CONTINUOUS
 62
    7
 10
504.87591659720363
 20
375.93401022655792
 40
0.500001
 50
270
 51
0
  0
ARC
  8
_0-0_0
  6
CONTINUOUS
 62
    7
 10
503.87591859720339
 20
376.63400822655797
 40
1
 50
270
 51
0
  0
LINE
  8
_0-0_0
  6
CONTINUOUS
 62
    7
 10
515.37591859720339
 20
379.63400822655797
 11
515.37591859720339
 21
366.63400822655797
  0
LINE
  8
_0-0_0
  6
CONTINUOUS
 62
    7
 10
507.37591859720339
 20
374.43400822655792
 11
507.37591859720339
 21
379.13400822655797
  0
LINE
  8
_0-0_0
  6
CONTINUOUS
 62
    7
 10
513.37591859720339
 20
379.13400822655797
 11
513.37591859720339
 21
367.13400822655797
  0
LINE
  8
_0-0_0
  6
CONTINUOUS
 62
    7
 10
506.17591859720358
 20
374.93400822655792
 11
506.17591859720358
 21
380.43400822655792
  0
LINE
  8
_0-0_0
  6
CONTINUOUS
 62
    7
 10
507.37591859720339
 20
366.63400822655797
 11
512.87591859720339
 21
366.63400822655797
  0
LINE
  8
_0-0_0
  6
CONTINUOUS
 62
    7
 10
508.87591859720339
 20
365.13400822655797
 11
512.87591859720339
 21
365.13400822655797
  0
LINE
  8
_0-0_0
  6
CONTINUOUS
 62
    7
 10
515.37591859720339
 20
366.63400822655797
 11
515.87591859720339
 21
366.63400822655797
  0
LINE
  8
_0-0_0
  6
CONTINUOUS
 62
    7
 10
515.87591859720339
 20
365.13400822655797
 11
515.37591859720339
 21
365.13400822655797
  0
ARC
  8
_0-0_0
  6
CONTINUOUS
 62
    7
 10
512.87591859720339
 20
364.63400822655797
 40
0.5
 50
0
 51
90
  0
ARC
  8
_0-0_0
  6
CONTINUOUS
 62
    7
 10
512.87591859720339
 20
367.13400822655797
 40
0.5
 50
270
 51
0
  0
LINE
  8
_0-0_0
  6
CONTINUOUS
 62
    7
 10
515.87591859720339
 20
366.63400822655797
 11
515.87591859720339
 21
365.13400822655797
  0
LINE
  8
_0-0_0
  6
CONTINUOUS
 62
    7
 10
505.95213955230327
 20
375.20480411655797
 11
505.35747587160347
 21
375.79946779725776
  0
LINE
  8
_0-0_0
  6
CONTINUOUS
 62
    7
 10
505.0908310919034
 20
374.6518990145579
 11
504.30872087990326
 21
375.43400922655781
  0
ARC
  8
_0-0_0
  6
CONTINUOUS
 62
    7
 10
505.87591859720339
 20
374.93400822655792
 40
0.2999999999999998
 50
270
 51
0
  0
ARC
  8
_0-0_0
  6
CONTINUOUS
 62
    7
 10
506.37591859720339
 20
374.43400822655792
 40
1
 50
270
 51
0
  0
ARC
  8
_0-0_0
  6
CONTINUOUS
 62
    7
 10
507.37591859720339
 20
366.13400822655797
 40
0.5
 50
90
 51
180
  0
ARC
  8
_0-0_0
  6
CONTINUOUS
 62
    7
 10
508.87591859720339
 20
364.63400822655797
 40
0.5
 50
90
 51
180
  0
LINE
  8
_0-0_0
  6
CONTINUOUS
 62
    7
 10
506.17591599250352
 20
376.39524123865783
 11
505.37591759720351
 21
377.19523963405788
  0
LINE
  8
_0-0_0
  6
CONTINUOUS
 62
    7
 10
506.17591859720358
 20
379.43400822655792
 11
506.17591559720347
 21
375.93401022655792
  0
LINE
  8
_0-0_0
  6
CONTINUOUS
 62
    7
 10
505.37591759720351
 20
375.93401022655792
 11
505.37591759720351
 21
379.43400822655792
  0
LINE
  8
_0-0_0
  6
CONTINUOUS
 62
    7
 10
485.97591659720354
 20
364.06832869945777
 11
485.17591859720358
 21
364.86832669945795
  0
LINE
  8
_0-0_0
  6
CONTINUOUS
 62
    7
 10
485.17591859720358
 20
374.13401022655796
 11
485.17591859720358
 21
345.43400922655781
  0
LINE
  8
_0-0_0
  6
CONTINUOUS
 62
    7
 10
485.97591659720354
 20
374.13401022655796
 11
485.97591659720354
 21
345.43400922655781
  0
LINE
  8
_0-0_0
  6
CONTINUOUS
 62
    7
 10
483.37591859720339
 20
376.13400822655797
 11
483.37591859720339
 21
342.13400822655797
  0
LINE
  8
_0-0_0
  6
CONTINUOUS
 62
    7
 10
484.87591859720339
 20
375.13400822655797
 11
484.87591859720339
 21
343.13400822655797
  0
LINE
  8
_0-0_0
  6
CONTINUOUS
 62
    7
 10
484.37591859720339
 20
341.13400822655797
 11
493.37591859720339
 21
341.13400822655797
  0
LINE
  8
_0-0_0
  6
CONTINUOUS
 62
    7
 10
485.37591859720339
 20
342.63400822655797
 11
493.37591859720339
 21
342.63400822655797
  0
LINE
  8
_0-0_0
  6
CONTINUOUS
 62
    7
 10
493.57591859720367
 20
341.13400822655797
 11
485.37591859720339
 21
341.13400822655797
  0
LINE
  8
_0-0_0
  6
CONTINUOUS
 62
    7
 10
500.87591859720339
 20
351.63400822655797
 11
500.87591859720339
 21
355.13400822655797
  0
LINE
  8
_0-0_0
  6
CONTINUOUS
 62
    7
 10
499.37591859720339
 20
342.63400822655797
 11
499.37591859720339
 21
356.13400822655797
  0
ARC
  8
_0-0_0
  6
CONTINUOUS
 62
    7
 10
493.87591859720339
 20
342.83400822655778
 40
1
 50
0
 51
91.904932900560013
  0
LINE
  8
_0-0_0
  6
CONTINUOUS
 62
    7
 10
494.87591859720339
 20
342.83400822655778
 11
494.87591859720339
 21
341.13400822655797
  0
ARC
  8
_0-0_0
  6
CONTINUOUS
 62
    7
 10
500.87591859720339
 20
343.13400822655797
 40
1
 50
270
 51
90
  0
ARC
  8
_0-0_0
  6
CONTINUOUS
 62
    7
 10
501.37591859720339
 20
348.63400822655797
 40
0.5
 50
90
 51
180
  0
LINE
  8
_0-0_0
  6
CONTINUOUS
 62
    7
 10
500.87591859720339
 20
348.63400822655797
 11
500.87591859720339
 21
344.13400822655797
  0
ARC
  8
_0-0_0
  6
CONTINUOUS
 62
    7
 10
499.87591859720339
 20
342.63400822655797
 40
0.5
 50
180
 51
270
  0
LINE
  8
_0-0_0
  6
CONTINUOUS
 62
    7
 10
499.87591859720339
 20
342.13400822655797
 11
500.87591859720339
 21
342.13400822655797
  0
ARC
  8
_0-0_0
  6
CONTINUOUS
 62
    7
 10
501.87591859720339
 20
351.63400822655797
 40
1
 50
180
 51
270
  0
LINE
  8
_0-0_0
  6
CONTINUOUS
 62
    7
 10
493.87591859720339
 20
342.52386446015782
 11
493.87591859720339
 21
341.43400822655792
  0
ARC
  8
_0-0_0
  6
CONTINUOUS
 62
    7
 10
493.57591859720367
 20
342.52386446015782
 40
0.2999999999999998
 50
0
 51
91.904932900549994
  0
LINE
  8
_0-0_0
  6
CONTINUOUS
 62
    7
 10
493.56594622930368
 20
342.82369866745796
 11
487.87923445080366
 21
342.63456086885787
  0
LINE
  8
_0-0_0
  6
CONTINUOUS
 62
    7
 10
493.84267737090329
 20
343.83345558425788
 11
488.34571690330347
 21
343.65062883975781
  0
LINE
  8
_0-0_0
  6
CONTINUOUS
 62
    7
 10
487.82937261130326
 20
344.13373190535788
 11
487.81275199810341
 21
344.63345558425783
  0
ARC
  8
_0-0_0
  6
CONTINUOUS
 62
    7
 10
487.84599322450356
 20
343.63400822655797
 40
1
 50
181.90493290425695
 51
271.90493290056003
  0
LINE
  8
_0-0_0
  6
CONTINUOUS
 62
    7
 10
486.84654586670365
 20
343.60076700025786
 11
486.81330464040354
 21
344.60021435805777
  0
ARC
  8
_0-0_0
  6
CONTINUOUS
 62
    7
 10
487.3130283193035
 20
344.61683497115803
 40
0.4999999999354998
 50
1.9049329005999929
 51
181.90493290056
  0
ARC
  8
_0-0_0
  6
CONTINUOUS
 62
    7
 10
488.32909629020367
 20
344.15035251855795
 40
0.5
 50
181.904932904258
 51
271.90493290056003
  0
ARC
  8
_0-0_0
  6
CONTINUOUS
 62
    7
 10
493.37591859720339
 20
342.13400822655797
 40
0.5
 50
0
 51
90
  0
LINE
  8
_0-0_0
  6
CONTINUOUS
 62
    7
 10
493.87591859720339
 20
341.63400822655797
 11
493.87591859720339
 21
342.13400822655797
  0
ARC
  8
_0-0_0
  6
CONTINUOUS
 62
    7
 10
501.37591859720339
 20
355.13400822655797
 40
0.5
 50
90
 51
180
  0
ARC
  8
_0-0_0
  6
CONTINUOUS
 62
    7
 10
500.37591859720339
 20
356.13400822655797
 40
1
 50
90
 51
180
  0
LINE
  8
_0-0_0
  6
CONTINUOUS
 62
    7
 10
485.97591659720354
 20
351.34040663805797
 11
485.17591859720358
 21
352.14040463805793
  0
LINE
  8
_0-0_0
  6
CONTINUOUS
 62
    7
 10
485.97591659720354
 20
349.92619307565781
 11
485.17591859720358
 21
350.72619107565799
  0
LINE
  8
_0-0_0
  6
CONTINUOUS
 62
    7
 10
485.97591659720354
 20
348.51197951335791
 11
485.17591859720358
 21
349.31197751335787
  0
LINE
  8
_0-0_0
  6
CONTINUOUS
 62
    7
 10
485.97591659720354
 20
347.09776595095775
 11
485.17591859720358
 21
347.89776395095794
  0
LINE
  8
_0-0_0
  6
CONTINUOUS
 62
    7
 10
485.97591659720354
 20
345.68355238855781
 11
485.17591859720358
 21
346.483550388558
  0
LINE
  8
_0-0_0
  6
CONTINUOUS
 62
    7
 10
485.97591659720354
 20
345.43400922655781
 11
485.17591859720358
 21
345.43400922655781
  0
ARC
  8
_0-0_0
  6
CONTINUOUS
 62
    7
 10
485.37591859720339
 20
343.13400822655797
 40
0.5
 50
180
 51
270
  0
LINE
  8
_0-0_0
  6
CONTINUOUS
 62
    7
 10
485.97591659720354
 20
362.65411513705783
 11
485.17591859720358
 21
363.45411313705779
  0
LINE
  8
_0-0_0
  6
CONTINUOUS
 62
    7
 10
485.97591659720354
 20
361.23990157465789
 11
485.17591859720358
 21
362.03989957465785
  0
LINE
  8
_0-0_0
  6
CONTINUOUS
 62
    7
 10
485.97591659720354
 20
359.82568801235777
 11
485.17591859720358
 21
360.62568601235796
  0
LINE
  8
_0-0_0
  6
CONTINUOUS
 62
    7
 10
485.97591659720354
 20
358.41147444995784
 11
485.17591859720358
 21
359.21147244995802
  0
LINE
  8
_0-0_0
  6
CONTINUOUS
 62
    7
 10
485.97591659720354
 20
356.9972608875579
 11
485.17591859720358
 21
357.79725888755786
  0
LINE
  8
_0-0_0
  6
CONTINUOUS
 62
    7
 10
485.97591659720354
 20
355.58304732515796
 11
485.17591859720358
 21
356.38304532515792
  0
LINE
  8
_0-0_0
  6
CONTINUOUS
 62
    7
 10
485.97591659720354
 20
354.16883376285784
 11
485.17591859720358
 21
354.96883176285803
  0
LINE
  8
_0-0_0
  6
CONTINUOUS
 62
    7
 10
485.97591659720354
 20
352.75462020045791
 11
485.17591859720358
 21
353.55461820045787
  0
LINE
  8
_0-0_0
  6
CONTINUOUS
 62
    7
 10
486.7239455690036
 20
374.63400822655797
 11
486.01022052220367
 21
375.3477332733579
  0
LINE
  8
_0-0_0
  6
CONTINUOUS
 62
    7
 10
495.20922694330363
 20
374.63400822655797
 11
494.40922594330357
 21
375.43400922655781
  0
LINE
  8
_0-0_0
  6
CONTINUOUS
 62
    7
 10
502.2802947552035
 20
374.63400822655797
 11
501.48029375520343
 21
375.43400922655781
  0
LINE
  8
_0-0_0
  6
CONTINUOUS
 62
    7
 10
500.86608119280334
 20
374.63400822655797
 11
500.06608019280327
 21
375.43400922655781
  0
LINE
  8
_0-0_0
  6
CONTINUOUS
 62
    7
 10
499.45186763040363
 20
374.63400822655797
 11
498.65186663040356
 21
375.43400922655781
  0
LINE
  8
_0-0_0
  6
CONTINUOUS
 62
    7
 10
498.03765406800346
 20
374.63400822655797
 11
497.2376530680034
 21
375.43400922655781
  0
LINE
  8
_0-0_0
  6
CONTINUOUS
 62
    7
 10
496.62344050570334
 20
374.63400822655797
 11
495.82343950570328
 21
375.43400922655781
  0
ARC
  8
_0-0_0
  6
CONTINUOUS
 62
    7
 10
501.27591859720349
 20
374.03400822655783
 40
0.5999999999999996
 50
90
 51
270
  0
LINE
  8
_0-0_0
  6
CONTINUOUS
 62
    7
 10
493.79501338090347
 20
374.63400822655797
 11
492.9950123809034
 21
375.43400922655781
  0
LINE
  8
_0-0_0
  6
CONTINUOUS
 62
    7
 10
492.38079981850331
 20
374.63400822655797
 11
491.58079881850369
 21
375.43400922655781
  0
LINE
  8
_0-0_0
  6
CONTINUOUS
 62
    7
 10
490.96658625620364
 20
374.63400822655797
 11
490.16658525620358
 21
375.43400922655781
  0
LINE
  8
_0-0_0
  6
CONTINUOUS
 62
    7
 10
489.55237269380348
 20
374.63400822655797
 11
488.75237169380341
 21
375.43400922655781
  0
LINE
  8
_0-0_0
  6
CONTINUOUS
 62
    7
 10
488.13815913140331
 20
374.63400822655797
 11
487.3381581314037
 21
375.43400922655781
  0
LINE
  8
_0-0_0
  6
CONTINUOUS
 62
    7
 10
485.97591659720354
 20
373.96782363605791
 11
485.28605824270369
 21
374.65768199055776
  0
LINE
  8
_0-0_0
  6
CONTINUOUS
 62
    7
 10
485.97591659720354
 20
372.55361007365775
 11
485.17591859720358
 21
373.35360807365794
  0
LINE
  8
_0-0_0
  6
CONTINUOUS
 62
    7
 10
485.97591659720354
 20
371.13939651125781
 11
485.17591859720358
 21
371.93939451125777
  0
LINE
  8
_0-0_0
  6
CONTINUOUS
 62
    7
 10
485.97591659720354
 20
369.72518294895792
 11
485.17591859720358
 21
370.52518094895788
  0
LINE
  8
_0-0_0
  6
CONTINUOUS
 62
    7
 10
485.97591659720354
 20
368.31096938655776
 11
485.17591859720358
 21
369.11096738655795
  0
LINE
  8
_0-0_0
  6
CONTINUOUS
 62
    7
 10
485.97591659720354
 20
366.89675582415782
 11
485.17591859720358
 21
367.69675382415778
  0
LINE
  8
_0-0_0
  6
CONTINUOUS
 62
    7
 10
485.97591659720354
 20
365.48254226185793
 11
485.17591859720358
 21
366.28254026185789
  0
ARC
  8
_0-0_0
  6
CONTINUOUS
 62
    7
 10
486.47591759720342
 20
374.13401022655796
 40
0.500001
 50
90
 51
180
  0
ARC
  8
_0-0_0
  6
CONTINUOUS
 62
    7
 10
486.47591759720342
 20
374.13401022655796
 40
1.2999989999999999
 50
90
 51
180
  0
ARC
  8
_0-0_0
  6
CONTINUOUS
 62
    7
 10
485.37591859720339
 20
375.13400822655797
 40
0.5
 50
90
 51
180
  0
ARC
  8
_0-0_0
  6
CONTINUOUS
 62
    7
 10
484.37591859720339
 20
376.13400822655797
 40
1
 50
90
 51
180
  0
ARC
  8
_0-0_0
  6
CONTINUOUS
 62
    7
 10
458.5044445130037
 20
306.22580152155786
 40
1.5
 50
93.000000000009976
 51
273.00000000001006
  0
LINE
  8
_0-0_0
  6
CONTINUOUS
 62
    7
 10
462.07815181900366
 20
304.91103306625803
 11
458.58294844740328
 21
304.72785721945786
  0
LINE
  8
_0-0_0
  6
CONTINUOUS
 62
    7
 10
462.07815181900366
 20
304.91103306625803
 11
462.02581586280337
 21
305.9096626010579
  0
LINE
  8
_0-0_0
  6
CONTINUOUS
 62
    7
 10
426.94294225580359
 20
306.57447796945792
 11
426.84873753450336
 21
308.37201113195795
  0
LINE
  8
_0-0_0
  6
CONTINUOUS
 62
    7
 10
419.85851764420329
 20
311.43613951255782
 11
418.0269685978036
 21
309.06012852045785
  0
ARC
  8
_0-0_0
  6
CONTINUOUS
 62
    7
 10
417.23496495470351
 20
309.67064488335802
 40
1.8
 50
223.62684736228002
 51
322.37315187630003
  0
ARC
  8
_0-0_0
  6
CONTINUOUS
 62
    7
 10
417.23496495470351
 20
309.67064488335802
 40
1
 50
223.62684736227996
 51
322.37315126710001
  0
LINE
  8
_0-0_0
  6
CONTINUOUS
 62
    7
 10
420.49212057040347
 20
310.94772643745785
 11
418.66057152400333
 21
308.57171544535788
  0
LINE
  8
_0-0_0
  6
CONTINUOUS
 62
    7
 10
420.49212057040347
 20
310.94772643745785
 11
419.85851764420329
 21
311.43613951255782
  0
LINE
  8
_0-0_0
  6
CONTINUOUS
 62
    7
 10
391.15127873550352
 20
329.69396172005793
 11
393.50395007210352
 21
284.8023183640579
  0
LINE
  8
_0-0_0
  6
CONTINUOUS
 62
    7
 10
312.13666242330362
 20
296.46530317015788
 11
312.71985496620334
 21
293.93921874045793
  0
LINE
  8
_0-0_0
  6
CONTINUOUS
 62
    7
 10
310.84240420770345
 20
296.73685762685784
 11
311.55061088850323
 21
293.6692774752579
  0
LINE
  8
_0-0_0
  6
CONTINUOUS
 62
    7
 10
308.43123432490336
 20
296.11654121515778
 11
298.59622672670355
 21
249.84646834205785
  0
LINE
  8
_0-0_0
  6
CONTINUOUS
 62
    7
 10
305.65632777410326
 20
297.49083533985788
 11
293.70037767090332
 21
241.24251249665792
  0
LINE
  8
_0-0_0
  6
CONTINUOUS
 62
    7
 10
293.87591859720339
 20
238.24251249665792
 11
293.87591859720339
 21
322.39561879645782
  0
LINE
  8
_0-0_0
  6
CONTINUOUS
 62
    7
 10
291.87591859720339
 20
322.39561879645782
 11
291.87591859720339
 21
238.24251249665792
  0
LINE
  8
_0-0_0
  6
CONTINUOUS
 62
    7
 10
312.25945623640325
 20
317.47987805605783
 11
298.30584268700329
 21
239.33964217925779
  0
LINE
  8
_0-0_0
  6
CONTINUOUS
 62
    7
 10
307.82953214660336
 20
318.27093592915787
 11
293.87591859720339
 21
240.13070005245788
  0
LINE
  8
_0-0_0
  6
CONTINUOUS
 62
    7
 10
376.37591859720339
 20
289.36235835325795
 11
376.37591859720339
 21
296.86235835325795
  0
LINE
  8
_0-0_0
  6
CONTINUOUS
 62
    7
 10
403.87591859720339
 20
295.14942009015783
 11
403.87591859720339
 21
287.86235835325795
  0
LINE
  8
_0-0_0
  6
CONTINUOUS
 62
    7
 10
402.27591859720349
 20
295.14942009015783
 11
402.27591859720349
 21
287.86235835325795
  0
ARC
  8
_0-0_0
  6
CONTINUOUS
 62
    7
 10
383.9759185972033
 20
294.21656161895783
 40
0.5
 50
93.000000000010004
 51
180
  0
ARC
  8
_0-0_0
  6
CONTINUOUS
 62
    7
 10
383.9759185972033
 20
294.21656161895783
 40
2.1000000000000001
 50
93.000000000010004
 51
180
  0
ARC
  8
_0-0_0
  6
CONTINUOUS
 62
    7
 10
398.60431747810333
 20
294.48251734575786
 40
1
 50
93.000000000010004
 51
182.99999999999901
  0
ARC
  8
_0-0_0
  6
CONTINUOUS
 62
    7
 10
387.41966668880366
 20
293.89635463585785
 40
1
 50
2.999999999999992
 51
93.000000000010004
  0
LINE
  8
_0-0_0
  6
CONTINUOUS
 62
    7
 10
389.88002999290336
 20
296.62886491245797
 11
390.06843943540332
 21
293.03379858725782
  0
LINE
  8
_0-0_0
  6
CONTINUOUS
 62
    7
 10
395.87180720150343
 20
296.94288064985778
 11
396.06021664390335
 21
293.34781432475791
  0
LINE
  8
_0-0_0
  6
CONTINUOUS
 62
    7
 10
386.2508885972037
 20
239.60036235325799
 11
388.12591859720339
 21
250.23418435325777
  0
LINE
  8
_0-0_0
  6
CONTINUOUS
 62
    7
 10
392.37591859720339
 20
249.86235835325795
 11
390.43632159720335
 21
238.86235835325795
  0
LINE
  8
_0-0_0
  6
CONTINUOUS
 62
    7
 10
393.37591859720339
 20
249.86235835325795
 11
395.31551559720344
 21
238.86235835325795
  0
LINE
  8
_0-0_0
  6
CONTINUOUS
 62
    7
 10
399.50094859720355
 20
239.60036235325799
 11
397.62591859720339
 21
250.23418435325777
  0
LINE
  8
_0-0_0
  6
CONTINUOUS
 62
    7
 10
386.2508885972037
 20
239.60036235325799
 11
390.43632159720335
 21
238.86235835325795
  0
LINE
  8
_0-0_0
  6
CONTINUOUS
 62
    7
 10
399.50094859720355
 20
239.60036235325799
 11
395.31551559720344
 21
238.86235835325795
  0
LINE
  8
_0-0_0
  6
CONTINUOUS
 62
    7
 10
389.37591859720339
 20
237.36235835325795
 11
396.37591859720339
 21
237.36235835325795
  0
ARC
  8
_0-0_0
  6
CONTINUOUS
 62
    7
 10
396.37591859720339
 20
238.36235835325795
 40
1
 50
270
 51
0
  0
LINE
  8
_0-0_0
  6
CONTINUOUS
 62
    7
 10
397.37591859720339
 20
238.36235835325795
 11
397.37591859720339
 21
239.22566235325792
  0
LINE
  8
_0-0_0
  6
CONTINUOUS
 62
    7
 10
388.37591859720339
 20
238.36235835325795
 11
388.37591859720339
 21
239.22566235325792
  0
ARC
  8
_0-0_0
  6
CONTINUOUS
 62
    7
 10
389.37591859720339
 20
238.36235835325795
 40
1
 50
180
 51
270
  0
LINE
  8
_0-0_0
  6
CONTINUOUS
 62
    7
 10
388.82591859720367
 20
278.86235835325795
 11
388.82591859720367
 21
269.56235835325799
  0
LINE
  8
_0-0_0
  6
CONTINUOUS
 62
    7
 10
396.92591859720358
 20
278.86235835325795
 11
396.92591859720358
 21
269.56235835325799
  0
LINE
  8
_0-0_0
  6
CONTINUOUS
 62
    7
 10
388.12591859720339
 20
250.23418435325777
 11
388.12591859720339
 21
268.86235835325795
  0
LINE
  8
_0-0_0
  6
CONTINUOUS
 62
    7
 10
397.62591859720339
 20
250.23418435325777
 11
397.62591859720339
 21
268.86235835325795
  0
LINE
  8
_0-0_0
  6
CONTINUOUS
 62
    7
 10
393.37591859720339
 20
249.86235835325795
 11
392.37591859720339
 21
249.86235835325795
  0
LINE
  8
_0-0_0
  6
CONTINUOUS
 62
    7
 10
396.92591859720358
 20
269.56235835325799
 11
388.82591859720367
 21
269.56235835325799
  0
LINE
  8
_0-0_0
  6
CONTINUOUS
 62
    7
 10
397.62591859720339
 20
268.86235835325795
 11
388.12591859720339
 21
268.86235835325795
  0
LINE
  8
_0-0_0
  6
CONTINUOUS
 62
    7
 10
397.62591859720339
 20
268.86235835325795
 11
396.92591859720358
 21
269.56235835325799
  0
LINE
  8
_0-0_0
  6
CONTINUOUS
 62
    7
 10
388.12591859720339
 20
268.86235835325795
 11
388.82591859720367
 21
269.56235835325799
  0
LINE
  8
_0-0_0
  6
CONTINUOUS
 62
    7
 10
387.9759185972033
 20
287.86235835325795
 11
387.10241590530347
 21
287.35804133895783
  0
ARC
  8
_0-0_0
  6
CONTINUOUS
 62
    7
 10
388.54579157830347
 20
285.24880057795792
 40
2.5558227484280001
 50
55.615752531999995
 51
124.38424746796002
  0
LINE
  8
_0-0_0
  6
CONTINUOUS
 62
    7
 10
401.87591859720339
 20
282.86235835325795
 11
383.87591859720339
 21
282.86235835325795
  0
LINE
  8
_0-0_0
  6
CONTINUOUS
 62
    7
 10
397.87591859720339
 20
278.86235835325795
 11
387.87591859720339
 21
278.86235835325795
  0
LINE
  8
_0-0_0
  6
CONTINUOUS
 62
    7
 10
392.37591859720339
 20
281.36235835325795
 11
376.67591859720358
 21
281.36235835325795
  0
LINE
  8
_0-0_0
  6
CONTINUOUS
 62
    7
 10
389.98916725130346
 20
287.35804133895783
 11
389.98916725130346
 21
282.86235835325795
  0
LINE
  8
_0-0_0
  6
CONTINUOUS
 62
    7
 10
395.76266994310333
 20
287.35804133895783
 11
395.76266994310333
 21
282.86235835325795
  0
LINE
  8
_0-0_0
  6
CONTINUOUS
 62
    7
 10
398.64942128910332
 20
287.35804133895783
 11
398.64942128910332
 21
282.86235835325795
  0
LINE
  8
_0-0_0
  6
CONTINUOUS
 62
    7
 10
396.41701000920364
 20
276.86235835325795
 11
395.41701000920364
 21
277.86235835325795
  0
LINE
  8
_0-0_0
  6
CONTINUOUS
 62
    7
 10
401.87591859720339
 20
282.86235835325795
 11
401.87591859720339
 21
281.36235835325795
  0
LINE
  8
_0-0_0
  6
CONTINUOUS
 62
    7
 10
397.87591859720339
 20
279.36235835325795
 11
397.87591859720339
 21
278.86235835325795
  0
LINE
  8
_0-0_0
  6
CONTINUOUS
 62
    7
 10
403.48807782100346
 20
276.86235835325795
 11
402.48807782100346
 21
277.86235835325795
  0
LINE
  8
_0-0_0
  6
CONTINUOUS
 62
    7
 10
402.07386425870334
 20
276.86235835325795
 11
401.07386425870334
 21
277.86235835325795
  0
LINE
  8
_0-0_0
  6
CONTINUOUS
 62
    7
 10
400.65965069630363
 20
276.86235835325795
 11
399.65965069630363
 21
277.86235835325795
  0
LINE
  8
_0-0_0
  6
CONTINUOUS
 62
    7
 10
399.24543713390347
 20
276.86235835325795
 11
398.24543713390347
 21
277.86235835325795
  0
LINE
  8
_0-0_0
  6
CONTINUOUS
 62
    7
 10
397.8312235715033
 20
276.86235835325795
 11
396.8312235715033
 21
277.86235835325795
  0
LINE
  8
_0-0_0
  6
CONTINUOUS
 62
    7
 10
392.87591859720339
 20
280.86235835325795
 11
392.37591859720339
 21
281.36235835325795
  0
LINE
  8
_0-0_0
  6
CONTINUOUS
 62
    7
 10
392.87591859720339
 20
280.86235835325795
 11
393.37591859720339
 21
281.36235835325795
  0
LINE
  8
_0-0_0
  6
CONTINUOUS
 62
    7
 10
392.87591859720339
 20
278.86235835325795
 11
392.87591859720339
 21
277.86235835325795
  0
LINE
  8
_0-0_0
  6
CONTINUOUS
 62
    7
 10
395.00279644680347
 20
276.86235835325795
 11
394.00279644680347
 21
277.86235835325795
  0
LINE
  8
_0-0_0
  6
CONTINUOUS
 62
    7
 10
393.58858288440331
 20
276.86235835325795
 11
392.58858288440331
 21
277.86235835325795
  0
LINE
  8
_0-0_0
  6
CONTINUOUS
 62
    7
 10
392.17436932210364
 20
276.86235835325795
 11
391.17436932210364
 21
277.86235835325795
  0
LINE
  8
_0-0_0
  6
CONTINUOUS
 62
    7
 10
390.76015575970348
 20
276.86235835325795
 11
389.76015575970348
 21
277.86235835325795
  0
LINE
  8
_0-0_0
  6
CONTINUOUS
 62
    7
 10
389.34594219730332
 20
276.86235835325795
 11
388.34594219730332
 21
277.86235835325795
  0
LINE
  8
_0-0_0
  6
CONTINUOUS
 62
    7
 10
395.91595715310348
 20
287.86235835325795
 11
396.32395008880337
 21
288.31548041355802
  0
LINE
  8
_0-0_0
  6
CONTINUOUS
 62
    7
 10
397.77591859720349
 20
287.86235835325795
 11
387.9759185972033
 21
287.86235835325795
  0
ARC
  8
_0-0_0
  6
CONTINUOUS
 62
    7
 10
397.20604561610332
 20
285.24880057795792
 40
2.5558227484280001
 50
55.615752531999995
 51
124.38424746796002
  0
LINE
  8
_0-0_0
  6
CONTINUOUS
 62
    7
 10
396.06021664390335
 20
293.34781432475791
 11
396.32395008880337
 21
288.31548041355802
  0
LINE
  8
_0-0_0
  6
CONTINUOUS
 62
    7
 10
390.33217288030335
 20
288.00146467615798
 11
396.32395008880337
 21
288.31548041355802
  0
LINE
  8
_0-0_0
  6
CONTINUOUS
 62
    7
 10
388.47063217980337
 20
292.95006105735786
 11
397.65802389950329
 21
293.43155185475791
  0
LINE
  8
_0-0_0
  6
CONTINUOUS
 62
    7
 10
397.77591859720349
 20
287.86235835325795
 11
398.64942128910332
 21
287.35804133895783
  0
ARC
  8
_0-0_0
  6
CONTINUOUS
 62
    7
 10
404.37591859720339
 20
287.86235835325795
 40
2.1000000000000001
 50
180
 51
270
  0
ARC
  8
_0-0_0
  6
CONTINUOUS
 62
    7
 10
404.37591859720339
 20
287.86235835325795
 40
0.5
 50
180
 51
270
  0
LINE
  8
_0-0_0
  6
CONTINUOUS
 62
    7
 10
397.60568794330345
 20
294.43018138945797
 11
397.65802389950329
 21
293.43155185475791
  0
LINE
  8
_0-0_0
  6
CONTINUOUS
 62
    7
 10
390.33217288030335
 20
288.00146467615798
 11
390.48666610340331
 21
287.86235835325795
  0
LINE
  8
_0-0_0
  6
CONTINUOUS
 62
    7
 10
390.63616032590369
 20
293.0635515784578
 11
390.90874331250359
 21
287.86235835325795
  0
LINE
  8
_0-0_0
  6
CONTINUOUS
 62
    7
 10
395.49249575340343
 20
293.31806133365797
 11
395.77841703110369
 21
287.86235835325795
  0
ARC
  8
_0-0_0
  6
CONTINUOUS
 62
    7
 10
392.87591859720339
 20
278.25120531365781
 40
9.5534180126359995
 50
72.412046226000001
 51
107.58795377395001
  0
LINE
  8
_0-0_0
  6
CONTINUOUS
 62
    7
 10
390.06843943540332
 20
293.03379858725782
 11
390.33217288030335
 21
288.00146467615798
  0
LINE
  8
_0-0_0
  6
CONTINUOUS
 62
    7
 10
388.41829622360353
 20
293.94869059205791
 11
388.47063217980337
 21
292.95006105735786
  0
LINE
  8
_0-0_0
  6
CONTINUOUS
 62
    7
 10
387.10241590530347
 20
287.35804133895783
 11
387.10241590530347
 21
282.86235835325795
  0
ARC
  8
_0-0_0
  6
CONTINUOUS
 62
    7
 10
376.67591859720358
 20
283.06235835325799
 40
0.2999999999999998
 50
90
 51
180
  0
LINE
  8
_0-0_0
  6
CONTINUOUS
 62
    7
 10
387.87591859720339
 20
279.36235835325795
 11
376.37591859720339
 21
279.36235835325795
  0
LINE
  8
_0-0_0
  6
CONTINUOUS
 62
    7
 10
383.87591859720339
 20
282.86235835325795
 11
383.87591859720339
 21
281.36235835325795
  0
LINE
  8
_0-0_0
  6
CONTINUOUS
 62
    7
 10
387.87591859720339
 20
278.86235835325795
 11
387.87591859720339
 21
279.36235835325795
  0
LINE
  8
_0-0_0
  6
CONTINUOUS
 62
    7
 10
387.93172863490361
 20
276.86235835325795
 11
386.93172863490361
 21
277.86235835325795
  0
LINE
  8
_0-0_0
  6
CONTINUOUS
 62
    7
 10
386.51751507260349
 20
276.86235835325795
 11
385.51751507260349
 21
277.86235835325795
  0
LINE
  8
_0-0_0
  6
CONTINUOUS
 62
    7
 10
385.10330151020332
 20
276.86235835325795
 11
384.10330151020332
 21
277.86235835325795
  0
LINE
  8
_0-0_0
  6
CONTINUOUS
 62
    7
 10
383.68908794780361
 20
276.86235835325795
 11
382.68908794780361
 21
277.86235835325795
  0
LINE
  8
_0-0_0
  6
CONTINUOUS
 62
    7
 10
382.27487438540345
 20
276.86235835325795
 11
381.27487438540345
 21
277.86235835325795
  0
LINE
  8
_0-0_0
  6
CONTINUOUS
 62
    7
 10
380.86066082310333
 20
276.86235835325795
 11
379.86066082310333
 21
277.86235835325795
  0
ARC
  8
_0-0_0
  6
CONTINUOUS
 62
    7
 10
377.87591859720339
 20
269.61235835325795
 40
9.25
 50
90
 51
108.92464441605
  0
ARC
  8
_0-0_0
  6
CONTINUOUS
 62
    7
 10
371.87591859720339
 20
287.11235835325795
 40
10.25
 50
270
 51
288.92464441609997
  0
ARC
  8
_0-0_0
  6
CONTINUOUS
 62
    7
 10
377.87591859720339
 20
269.61235835325795
 40
8.25
 50
90
 51
108.92464441605
  0
ARC
  8
_0-0_0
  6
CONTINUOUS
 62
    7
 10
371.87591859720339
 20
287.11235835325795
 40
9.25
 50
270
 51
288.92464441609997
  0
LINE
  8
_0-0_0
  6
CONTINUOUS
 62
    7
 10
377.87591859720339
 20
276.86235835325795
 11
377.87591859720339
 21
277.86235835325795
  0
LINE
  8
_0-0_0
  6
CONTINUOUS
 62
    7
 10
376.37591859720339
 20
279.36235835325795
 11
376.37591859720339
 21
278.86235835325795
  0
LINE
  8
_0-0_0
  6
CONTINUOUS
 62
    7
 10
376.37591859720339
 20
278.86235835325795
 11
374.37591859720339
 21
278.86235835325795
  0
ARC
  8
_0-0_0
  6
CONTINUOUS
 62
    7
 10
376.67591859720358
 20
281.6623583532579
 40
0.2999999999999998
 50
180
 51
270
  0
LINE
  8
_0-0_0
  6
CONTINUOUS
 62
    7
 10
376.37591859720339
 20
283.06235835325799
 11
376.37591859720339
 21
281.6623583532579
  0
LINE
  8
_0-0_0
  6
CONTINUOUS
 62
    7
 10
379.44644726070362
 20
276.86235835325795
 11
378.44644726070362
 21
277.86235835325795
  0
LINE
  8
_0-0_0
  6
CONTINUOUS
 62
    7
 10
378.03223369830346
 20
276.86235835325795
 11
377.87591859720339
 21
277.01867345435778
  0
ARC
  8
_0-0_0
  6
CONTINUOUS
 62
    7
 10
379.62591859720339
 20
288.11235835325795
 40
0.75
 50
270
 51
90
  0
LINE
  8
_0-0_0
  6
CONTINUOUS
 62
    7
 10
376.87591859720339
 20
285.76235835325781
 11
381.37591859720339
 21
285.76235835325781
  0
LINE
  8
_0-0_0
  6
CONTINUOUS
 62
    7
 10
381.37591859720339
 20
287.36235835325795
 11
376.87591859720339
 21
287.36235835325795
  0
ARC
  8
_0-0_0
  6
CONTINUOUS
 62
    7
 10
381.37591859720339
 20
287.86235835325795
 40
2.1000000000000001
 50
270
 51
0
  0
ARC
  8
_0-0_0
  6
CONTINUOUS
 62
    7
 10
381.37591859720339
 20
287.86235835325795
 40
0.5
 50
270
 51
0
  0
LINE
  8
_0-0_0
  6
CONTINUOUS
 62
    7
 10
383.4759185972033
 20
294.21656161895783
 11
383.4759185972033
 21
287.86235835325795
  0
LINE
  8
_0-0_0
  6
CONTINUOUS
 62
    7
 10
381.87591859720339
 20
294.21656161895783
 11
381.87591859720339
 21
287.86235835325795
  0
LINE
  8
_0-0_0
  6
CONTINUOUS
 62
    7
 10
376.87591859720339
 20
288.86235835325795
 11
379.62591859720339
 21
288.86235835325795
  0
ARC
  8
_0-0_0
  6
CONTINUOUS
 62
    7
 10
376.87591859720339
 20
289.36235835325795
 40
0.5
 50
180
 51
270
  0
ARC
  8
_0-0_0
  6
CONTINUOUS
 62
    7
 10
378.62591859720339
 20
284.11235835325795
 40
0.75
 50
270
 51
90
  0
LINE
  8
_0-0_0
  6
CONTINUOUS
 62
    7
 10
376.67591859720358
 20
283.36235835325795
 11
378.62591859720339
 21
283.36235835325795
  0
LINE
  8
_0-0_0
  6
CONTINUOUS
 62
    7
 10
376.67591859720358
 20
284.86235835325795
 11
378.62591859720339
 21
284.86235835325795
  0
ARC
  8
_0-0_0
  6
CONTINUOUS
 62
    7
 10
376.67591859720358
 20
285.1623583532579
 40
0.2999999999999998
 50
180
 51
270
  0
LINE
  8
_0-0_0
  6
CONTINUOUS
 62
    7
 10
376.37591859720339
 20
287.06235835325799
 11
376.37591859720339
 21
285.1623583532579
  0
ARC
  8
_0-0_0
  6
CONTINUOUS
 62
    7
 10
376.67591859720358
 20
287.06235835325799
 40
0.2999999999999998
 50
90
 51
180
  0
LINE
  8
_0-0_0
  6
CONTINUOUS
 62
    7
 10
376.67591859720358
 20
287.36235835325795
 11
379.62591859720339
 21
287.36235835325795
  0
LINE
  8
_0-0_0
  6
CONTINUOUS
 62
    7
 10
376.87591859720339
 20
287.36235835325795
 11
376.87591859720339
 21
285.76235835325781
  0
LINE
  8
_0-0_0
  6
CONTINUOUS
 62
    7
 10
378.87591859720339
 20
287.36235835325795
 11
378.87591859720339
 21
285.76235835325781
  0
ARC
  8
_0-0_0
  6
CONTINUOUS
 62
    7
 10
307.86785194880338
 20
248.64251249665779
 40
0.5999999999999996
 50
270
 51
90
  0
LINE
  8
_0-0_0
  6
CONTINUOUS
 62
    7
 10
298.6176760914035
 20
248.04251249665788
 11
307.86785194880338
 21
248.04251249665788
  0
ARC
  8
_0-0_0
  6
CONTINUOUS
 62
    7
 10
294.87591859720339
 20
238.24251249665792
 40
3
 50
180
 51
270
  0
LINE
  8
_0-0_0
  6
CONTINUOUS
 62
    7
 10
301.87591859720339
 20
235.24251249665792
 11
301.87591859720339
 21
237.24251249665792
  0
LINE
  8
_0-0_0
  6
CONTINUOUS
 62
    7
 10
294.87591859720339
 20
235.24251249665792
 11
301.87591859720339
 21
235.24251249665792
  0
LINE
  8
_0-0_0
  6
CONTINUOUS
 62
    7
 10
298.12860229110345
 20
247.6464683420578
 11
296.70037767090332
 21
240.9271997908578
  0
LINE
  8
_0-0_0
  6
CONTINUOUS
 62
    7
 10
294.87591859720339
 20
237.24251249665792
 11
301.87591859720339
 21
237.24251249665792
  0
LINE
  8
_0-0_0
  6
CONTINUOUS
 62
    7
 10
293.87591859720339
 20
240.13070005245788
 11
298.30584268690325
 21
239.33964217895789
  0
ARC
  8
_0-0_0
  6
CONTINUOUS
 62
    7
 10
298.6176760914035
 20
247.54251249665788
 40
0.5
 50
89.999999999999986
 51
167.99999999999997
  0
ARC
  8
_0-0_0
  6
CONTINUOUS
 62
    7
 10
296.20037767090332
 20
239.74251249665792
 40
2.5
 50
180
 51
270
  0
LINE
  8
_0-0_0
  6
CONTINUOUS
 62
    7
 10
296.20037767090332
 20
237.24251249665792
 11
296.70037767090332
 21
237.24251249665792
  0
LINE
  8
_0-0_0
  6
CONTINUOUS
 62
    7
 10
293.70037767090332
 20
239.74251249665792
 11
293.70037767090332
 21
241.24251249665792
  0
LINE
  8
_0-0_0
  6
CONTINUOUS
 62
    7
 10
296.70037767090332
 20
240.9271997908578
 11
296.70037767090332
 21
237.24251249665792
  0
ARC
  8
_0-0_0
  6
CONTINUOUS
 62
    7
 10
294.87591859720339
 20
238.24251249665792
 40
1
 50
180
 51
270
  0
LINE
  8
_0-0_0
  6
CONTINUOUS
 62
    7
 10
307.86785194880338
 20
249.24251249665792
 11
305.46785194880329
 21
249.24251249665792
  0
ARC
  8
_0-0_0
  6
CONTINUOUS
 62
    7
 10
312.13523292730349
 20
293.80424810785792
 40
0.5999999999999996
 50
193
 51
13.000000000000005
  0
LINE
  8
_0-0_0
  6
CONTINUOUS
 62
    7
 10
303.46785194880329
 20
250.24251249665792
 11
303.46785194880329
 21
249.74251249665792
  0
LINE
  8
_0-0_0
  6
CONTINUOUS
 62
    7
 10
299.08530052710364
 20
249.24251249665792
 11
303.46785194880329
 21
249.24251249665792
  0
ARC
  8
_0-0_0
  6
CONTINUOUS
 62
    7
 10
299.08530052710364
 20
249.74251249665792
 40
0.5
 50
168
 51
270
  0
LINE
  8
_0-0_0
  6
CONTINUOUS
 62
    7
 10
303.46785194880329
 20
250.24251249665792
 11
305.46785194880329
 21
249.24251249665792
  0
LINE
  8
_0-0_0
  6
CONTINUOUS
 62
    7
 10
303.46785194880329
 20
249.24251249665792
 11
303.46785194880329
 21
250.24251249665792
  0
LINE
  8
_0-0_0
  6
CONTINUOUS
 62
    7
 10
347.1834193660037
 20
299.89102763305789
 11
327.21082867090342
 21
298.84430850825777
  0
LINE
  8
_0-0_0
  6
CONTINUOUS
 62
    7
 10
350.5739508252035
 20
302.07146254945781
 11
322.11300908470355
 21
300.57988779655795
  0
LINE
  8
_0-0_0
  6
CONTINUOUS
 62
    7
 10
380.17028012370326
 20
320.79720764865795
 11
368.72909478620329
 21
305.95491763315783
  0
LINE
  8
_0-0_0
  6
CONTINUOUS
 62
    7
 10
379.53667719750354
 20
321.28562072385796
 11
368.09549186010361
 21
306.44333070835785
  0
LINE
  8
_0-0_0
  6
CONTINUOUS
 62
    7
 10
393.95422372090331
 20
322.67004024835785
 11
395.19981947950362
 21
298.90265732125783
  0
LINE
  8
_0-0_0
  6
CONTINUOUS
 62
    7
 10
394.52194461150327
 20
322.69979323955783
 11
395.76754037000353
 21
298.93241031235777
  0
LINE
  8
_0-0_0
  6
CONTINUOUS
 62
    7
 10
388.53016740290366
 20
322.38577750205798
 11
389.77576316150351
 21
298.61839457485792
  0
LINE
  8
_0-0_0
  6
CONTINUOUS
 62
    7
 10
389.09788829340357
 20
322.41553049315792
 11
390.34348405200342
 21
298.6481475660579
  0
LINE
  8
_0-0_0
  6
CONTINUOUS
 62
    7
 10
383.94975061910361
 20
294.71587638625795
 11
401.74975061910334
 21
295.648734857558
  0
LINE
  8
_0-0_0
  6
CONTINUOUS
 62
    7
 10
383.86601308910338
 20
296.31368364195794
 11
401.66601308910356
 21
297.24654211315794
  0
ARC
  8
_0-0_0
  6
CONTINUOUS
 62
    7
 10
401.77591859720349
 20
295.14942009015783
 40
0.5
 50
0
 51
93.000000000010004
  0
ARC
  8
_0-0_0
  6
CONTINUOUS
 62
    7
 10
401.77591859720349
 20
295.14942009015783
 40
2.1000000000000001
 50
0
 51
93.000000000010004
  0
LINE
  8
_0-0_0
  6
CONTINUOUS
 62
    7
 10
395.76754037000353
 20
298.93241031235777
 11
395.87180720150343
 21
296.94288064985778
  0
LINE
  8
_0-0_0
  6
CONTINUOUS
 62
    7
 10
395.19981947950362
 20
298.90265732125783
 11
395.30408631100352
 21
296.91312765875784
  0
LINE
  8
_0-0_0
  6
CONTINUOUS
 62
    7
 10
390.34348405200342
 20
298.6481475660579
 11
390.44775088340327
 21
296.65861790355791
  0
LINE
  8
_0-0_0
  6
CONTINUOUS
 62
    7
 10
389.77576316150351
 20
298.61839457485792
 11
389.88002999290336
 21
296.62886491245797
  0
ARC
  8
_0-0_0
  6
CONTINUOUS
 62
    7
 10
375.37591859720339
 20
296.86235835325795
 40
1
 50
0
 51
180
  0
ARC
  8
_0-0_0
  6
CONTINUOUS
 62
    7
 10
391.65166224980328
 20
320.14607548595779
 40
6.2999999999999998
 50
53.690629000000001
 51
132.30313100000001
  0
LINE
  8
_0-0_0
  6
CONTINUOUS
 62
    7
 10
402.22590171920353
 20
322.30244264645796
 11
380.90994782510359
 21
321.1853208395579
  0
LINE
  8
_0-0_0
  6
CONTINUOUS
 62
    7
 10
402.18403295420364
 20
323.10134627425793
 11
380.8680790601037
 21
321.98422446735788
  0
ARC
  8
_0-0_0
  6
CONTINUOUS
 62
    7
 10
393.33928670240346
 20
322.44268735225785
 40
3.4500000000000002
 50
6.2378370000000034
 51
53.690875999999996
  0
ARC
  8
_0-0_0
  6
CONTINUOUS
 62
    7
 10
402.27823767550342
 20
321.30381311165786
 40
1
 50
43.626847362300005
 51
93.000000000010004
  0
ARC
  8
_0-0_0
  6
CONTINUOUS
 62
    7
 10
402.27823767550342
 20
321.30381311165786
 40
1.8
 50
43.626847362300005
 51
93.000000000010004
  0
LINE
  8
_0-0_0
  6
CONTINUOUS
 62
    7
 10
390.61491665650362
 20
325.59786790605779
 11
392.11286095860339
 21
325.67637184035777
  0
ARC
  8
_0-0_0
  6
CONTINUOUS
 62
    7
 10
390.0136850110033
 20
325.60565754835795
 40
0.5999999999999996
 50
3.0000000000000044
 51
106.700233
  0
ARC
  8
_0-0_0
  6
CONTINUOUS
 62
    7
 10
392.7099847549033
 20
325.74696463025782
 40
0.5999999999999996
 50
79.299767000000017
 51
183.00000000000003
  0
ARC
  8
_0-0_0
  6
CONTINUOUS
 62
    7
 10
380.96228378140347
 20
320.18669130475803
 40
1.8
 50
93.000000000010004
 51
142.37315263771998
  0
ARC
  8
_0-0_0
  6
CONTINUOUS
 62
    7
 10
389.72795069710344
 20
322.24891607225788
 40
3.4500000000000002
 50
132.17951099999999
 51
179.6872570000011
  0
ARC
  8
_0-0_0
  6
CONTINUOUS
 62
    7
 10
380.96228378140347
 20
320.18669130475803
 40
1
 50
93.000000000010004
 51
142.37315263771998
  0
ARC
  8
_0-0_0
  6
CONTINUOUS
 62
    7
 10
367.30348821700352
 20
307.05384707115775
 40
1
 50
223.62684873287
 51
322.3731526377
  0
LINE
  8
_0-0_0
  6
CONTINUOUS
 62
    7
 10
363.93068426830348
 20
307.98346716775779
 11
366.00056067510366
 21
305.81192121975789
  0
ARC
  8
_0-0_0
  6
CONTINUOUS
 62
    7
 10
367.30348821700352
 20
307.05384707115775
 40
1.8
 50
223.62684812372001
 51
322.3731526377
  0
LINE
  8
_0-0_0
  6
CONTINUOUS
 62
    7
 10
357.03887482290327
 20
302.91096103245775
 11
356.94467010170354
 21
304.70849419495801
  0
LINE
  8
_0-0_0
  6
CONTINUOUS
 62
    7
 10
363.93068426830348
 20
307.98346716775779
 11
364.50976318310347
 21
308.53543420515791
  0
LINE
  8
_0-0_0
  6
CONTINUOUS
 62
    7
 10
364.50976318310347
 20
308.53543420515791
 11
366.57963958990365
 21
306.36388825715778
  0
LINE
  8
_0-0_0
  6
CONTINUOUS
 62
    7
 10
347.1834193660037
 20
299.89102763305789
 11
347.23575532230359
 21
298.89239809835783
  0
LINE
  8
_0-0_0
  6
CONTINUOUS
 62
    7
 10
350.73095869390352
 20
299.075573945158
 11
347.23575532230359
 21
298.89239809835783
  0
ARC
  8
_0-0_0
  6
CONTINUOUS
 62
    7
 10
350.65245475950348
 20
300.57351824735781
 40
1.5
 50
273
 51
93.000000000009791
  0
ARC
  8
_0-0_0
  6
CONTINUOUS
 62
    7
 10
308.59077057630327
 20
296.86710026735784
 40
3
 50
93.000000000010004
 51
167.99999999999997
  0
LINE
  8
_0-0_0
  6
CONTINUOUS
 62
    7
 10
322.40085684400344
 20
295.08742535535782
 11
320.93545006920328
 21
323.04905232855788
  0
ARC
  8
_0-0_0
  6
CONTINUOUS
 62
    7
 10
315.21273896290347
 20
316.95250614055783
 40
3
 50
93.000000000010004
 51
169.87532834459998
  0
ARC
  8
_0-0_0
  6
CONTINUOUS
 62
    7
 10
321.84920612040366
 20
296.05988691205778
 40
0.5
 50
273
 51
2.9999999999997371
  0
LINE
  8
_0-0_0
  6
CONTINUOUS
 62
    7
 10
327.26316462720331
 20
297.84567897345789
 11
322.27001695340357
 21
297.58399919225792
  0
LINE
  8
_0-0_0
  6
CONTINUOUS
 62
    7
 10
327.21082867090342
 20
298.84430850825777
 11
327.26316462720331
 21
297.84567897345789
  0
LINE
  8
_0-0_0
  6
CONTINUOUS
 62
    7
 10
320.27275788390341
 20
297.47932727975797
 11
312.59767947760326
 21
297.07709346465788
  0
LINE
  8
_0-0_0
  6
CONTINUOUS
 62
    7
 10
320.11575001510334
 20
300.475215884058
 11
308.43376270760325
 21
299.86298887165788
  0
ARC
  8
_0-0_0
  6
CONTINUOUS
 62
    7
 10
320.29892586200356
 20
296.98001251245785
 40
0.5
 50
2.999999999999992
 51
93.000000000010004
  0
LINE
  8
_0-0_0
  6
CONTINUOUS
 62
    7
 10
320.79824062940349
 20
297.00618049055777
 11
320.85057658560333
 21
296.00755095575789
  0
ARC
  8
_0-0_0
  6
CONTINUOUS
 62
    7
 10
320.08958203700365
 20
300.97453065145794
 40
0.5
 50
273
 51
2.9999999999997371
  0
LINE
  8
_0-0_0
  6
CONTINUOUS
 62
    7
 10
320.58889680440359
 20
301.00069862955786
 11
320.48422489190341
 21
302.99795769905779
  0
ARC
  8
_0-0_0
  6
CONTINUOUS
 62
    7
 10
320.98353965930335
 20
303.02412567715794
 40
0.5
 50
93.000000000010004
 51
182.99999999999901
  0
LINE
  8
_0-0_0
  6
CONTINUOUS
 62
    7
 10
320.95737168120365
 20
303.52344044455788
 11
321.45668644860359
 21
303.54960842265803
  0
ARC
  8
_0-0_0
  6
CONTINUOUS
 62
    7
 10
321.48285442670328
 20
303.05029365525786
 40
0.5
 50
2.999999999999992
 51
93.000000000010004
  0
ARC
  8
_0-0_0
  6
CONTINUOUS
 62
    7
 10
321.34989135300327
 20
296.03371893385781
 40
0.5
 50
182.99999999999901
 51
273.00000000001
  0
LINE
  8
_0-0_0
  6
CONTINUOUS
 62
    7
 10
321.37605933110342
 20
295.53440416655792
 11
321.87537409850336
 21
295.56057214465784
  0
LINE
  8
_0-0_0
  6
CONTINUOUS
 62
    7
 10
309.35704596940366
 20
296.90725905905776
 11
310.53439240140358
 21
296.96896117095787
  0
ARC
  8
_0-0_0
  6
CONTINUOUS
 62
    7
 10
309.4093819256035
 20
295.90862952425789
 40
1
 50
93.000000000010004
 51
167.99999999999997
  0
ARC
  8
_0-0_0
  6
CONTINUOUS
 62
    7
 10
310.55009318830332
 20
296.66937231055783
 40
0.2999999999999998
 50
12.999999999999995
 51
93.000000000010004
  0
ARC
  8
_0-0_0
  6
CONTINUOUS
 62
    7
 10
312.62384745570341
 20
296.57777869735776
 40
0.5
 50
93.000000000010019
 51
193
  0
LINE
  8
_0-0_0
  6
CONTINUOUS
 62
    7
 10
320.96161804730343
 20
322.54973756115794
 11
335.94106106860352
 21
323.33477690475786
  0
LINE
  8
_0-0_0
  6
CONTINUOUS
 62
    7
 10
322.17858047780362
 20
318.60802647555795
 11
326.4055984887035
 21
322.83504448655788
  0
LINE
  8
_0-0_0
  6
CONTINUOUS
 62
    7
 10
321.14808458110326
 20
318.9917441413578
 11
324.91317006700353
 21
322.75682962725784
  0
LINE
  8
_0-0_0
  6
CONTINUOUS
 62
    7
 10
321.0776596055033
 20
320.33553272805796
 11
323.42074164530356
 21
322.67861476785777
  0
LINE
  8
_0-0_0
  6
CONTINUOUS
 62
    7
 10
321.94306867470357
 20
323.10185938195775
 11
323.75150583800348
 21
324.91029654525789
  0
LINE
  8
_0-0_0
  6
CONTINUOUS
 62
    7
 10
320.91257277810325
 20
323.48557704775783
 11
322.25907741630351
 21
324.83208168595786
  0
LINE
  8
_0-0_0
  6
CONTINUOUS
 62
    7
 10
329.64072258620342
 20
318.99910077215793
 11
333.86774059720335
 21
323.22611878315786
  0
LINE
  8
_0-0_0
  6
CONTINUOUS
 62
    7
 10
328.14829416450345
 20
318.9208859128579
 11
332.37531217550338
 21
323.14790392385783
  0
LINE
  8
_0-0_0
  6
CONTINUOUS
 62
    7
 10
326.65586574280348
 20
318.84267105355786
 11
330.88288375380341
 21
323.06968906445775
  0
LINE
  8
_0-0_0
  6
CONTINUOUS
 62
    7
 10
329.40521078310337
 20
323.49293367855796
 11
331.21364794640328
 21
325.30137084185787
  0
LINE
  8
_0-0_0
  6
CONTINUOUS
 62
    7
 10
335.37492446990325
 20
323.80579311585791
 11
335.88941295600341
 21
324.32028160195784
  0
LINE
  8
_0-0_0
  6
CONTINUOUS
 62
    7
 10
335.6104362730033
 20
319.31196020945788
 11
336.12492475910346
 21
319.82644869555781
  0
LINE
  8
_0-0_0
  6
CONTINUOUS
 62
    7
 10
336.15040489360342
 20
319.34025876575799
 11
335.94106106860352
 21
323.33477690475786
  0
LINE
  8
_0-0_0
  6
CONTINUOUS
 62
    7
 10
334.11800785130333
 20
319.23374535015785
 11
336.05449978340346
 21
321.17023728225797
  0
LINE
  8
_0-0_0
  6
CONTINUOUS
 62
    7
 10
332.62557942960336
 20
319.15553049085781
 11
335.98407480780349
 21
322.5140258689579
  0
LINE
  8
_0-0_0
  6
CONTINUOUS
 62
    7
 10
331.13315100790339
 20
319.07731563155778
 11
335.36016901890332
 21
323.30433364245789
  0
LINE
  8
_0-0_0
  6
CONTINUOUS
 62
    7
 10
335.91489309050337
 20
323.8340916721578
 11
335.82532991570349
 21
325.54305885265796
  0
LINE
  8
_0-0_0
  6
CONTINUOUS
 62
    7
 10
333.88249604820328
 20
323.72757825655788
 11
335.69093321150365
 21
325.53601541985802
  0
LINE
  8
_0-0_0
  6
CONTINUOUS
 62
    7
 10
332.39006762650331
 20
323.64936339725784
 11
334.19850478980368
 21
325.45780056055776
  0
LINE
  8
_0-0_0
  6
CONTINUOUS
 62
    7
 10
330.89763920480334
 20
323.57114853795781
 11
332.70607636810325
 21
325.37958570115791
  0
LINE
  8
_0-0_0
  6
CONTINUOUS
 62
    7
 10
325.16343732120356
 20
318.76445619425783
 11
329.39045533210344
 21
322.99147420515794
  0
LINE
  8
_0-0_0
  6
CONTINUOUS
 62
    7
 10
323.67100889950359
 20
318.6862413349578
 11
327.89802691040347
 21
322.91325934585791
  0
LINE
  8
_0-0_0
  6
CONTINUOUS
 62
    7
 10
327.9127823614034
 20
323.41471881925793
 11
329.72121952470332
 21
325.22315598255784
  0
LINE
  8
_0-0_0
  6
CONTINUOUS
 62
    7
 10
326.42035393970343
 20
323.33650395995789
 11
328.22879110300335
 21
325.14494112325781
  0
LINE
  8
_0-0_0
  6
CONTINUOUS
 62
    7
 10
324.92792551810351
 20
323.25828910065786
 11
326.73636268130338
 21
325.06672626395778
  0
LINE
  8
_0-0_0
  6
CONTINUOUS
 62
    7
 10
323.43549709640354
 20
323.18007424135783
 11
325.24393425970345
 21
324.98851140455793
  0
ARC
  8
_0-0_0
  6
CONTINUOUS
 62
    7
 10
315.21273896290347
 20
316.95250614055783
 40
7.5
 50
93.000000000010004
 51
169.87532834459998
  0
LINE
  8
_0-0_0
  6
CONTINUOUS
 62
    7
 10
321.08139869750346
 20
320.26418660265801
 11
315.05573109420345
 21
319.94839474485786
  0
LINE
  8
_0-0_0
  6
CONTINUOUS
 62
    7
 10
320.84588689440341
 20
324.75801950905782
 11
314.8202192911034
 21
324.44222765125789
  0
LINE
  8
_0-0_0
  6
CONTINUOUS
 62
    7
 10
321.00723462980329
 20
321.67932131475789
 11
321.9283132236036
 21
322.60039990855796
  0
LINE
  8
_0-0_0
  6
CONTINUOUS
 62
    7
 10
320.93545006920328
 20
323.04905232855788
 11
320.84588689440341
 21
324.75801950905782
  0
ARC
  8
_0-0_0
  6
CONTINUOUS
 62
    7
 10
294.87591859720339
 20
322.39561879645782
 40
3
 50
93.000000000010004
 51
180
  0
ARC
  8
_0-0_0
  6
CONTINUOUS
 62
    7
 10
294.87591859720339
 20
322.39561879645782
 40
1
 50
93.000000000010004
 51
180
  0
ARC
  8
_0-0_0
  6
CONTINUOUS
 62
    7
 10
373.87592059720362
 20
281.86235835325795
 40
0.500001
 50
270
 51
0
  0
LINE
  8
_0-0_0
  6
CONTINUOUS
 62
    7
 10
374.37591859720339
 20
279.86236035325794
 11
374.37591859720339
 21
278.86235835325795
  0
LINE
  8
_0-0_0
  6
CONTINUOUS
 62
    7
 10
363.87591859720339
 20
279.86236035325794
 11
363.87591859720339
 21
278.86235835325795
  0
LINE
  8
_0-0_0
  6
CONTINUOUS
 62
    7
 10
362.37591859720339
 20
278.86235835325795
 11
363.87591859720339
 21
278.86235835325795
  0
LINE
  8
_0-0_0
  6
CONTINUOUS
 62
    7
 10
362.37591859720339
 20
280.86236035325794
 11
362.37591859720339
 21
278.86235835325795
  0
ARC
  8
_0-0_0
  6
CONTINUOUS
 62
    7
 10
362.87591859720339
 20
280.86236035325794
 40
0.5
 50
90
 51
180
  0
LINE
  8
_0-0_0
  6
CONTINUOUS
 62
    7
 10
374.12591859720339
 20
284.61236035325794
 11
372.87591859710335
 21
284.61236035325794
  0
LINE
  8
_0-0_0
  6
CONTINUOUS
 62
    7
 10
369.87591859710335
 20
284.61236035325794
 11
368.62591859720339
 21
284.61236035325794
  0
LINE
  8
_0-0_0
  6
CONTINUOUS
 62
    7
 10
374.37591859720339
 20
279.86236035325794
 11
366.86996972340364
 21
279.86236035325794
  0
LINE
  8
_0-0_0
  6
CONTINUOUS
 62
    7
 10
366.86996972340364
 20
279.86236035325794
 11
363.87591859720339
 21
279.86236035325794
  0
LINE
  8
_0-0_0
  6
CONTINUOUS
 62
    7
 10
368.87591859720339
 20
281.36236035325794
 11
373.87592059720362
 21
281.36236035325794
  0
LINE
  8
_0-0_0
  6
CONTINUOUS
 62
    7
 10
362.87591859720339
 20
281.36236035325794
 11
366.87591859720339
 21
281.36236035325794
  0
ARC
  8
_0-0_0
  6
CONTINUOUS
 62
    7
 10
368.87591859720339
 20
281.86236035325794
 40
0.25
 50
180
 51
270
  0
ARC
  8
_0-0_0
  6
CONTINUOUS
 62
    7
 10
373.87592059720362
 20
281.86235835325795
 40
0.2500009999999999
 50
270
 51
0
  0
LINE
  8
_0-0_0
  6
CONTINUOUS
 62
    7
 10
368.62591859720339
 20
281.86236035325794
 11
368.62591859720339
 21
284.61236035325794
  0
LINE
  8
_0-0_0
  6
CONTINUOUS
 62
    7
 10
374.12591859720339
 20
281.86235835325795
 11
374.12591859720339
 21
284.61236035325794
  0
LINE
  8
_0-0_0
  6
CONTINUOUS
 62
    7
 10
368.87591859720339
 20
281.61236035325794
 11
373.87592059720362
 21
281.61236035325794
  0
LINE
  8
_0-0_0
  6
CONTINUOUS
 62
    7
 10
374.37591859720339
 20
296.86235835325795
 11
374.37591859720339
 21
286.36236035325794
  0
LINE
  8
_0-0_0
  6
CONTINUOUS
 62
    7
 10
374.37591859720339
 20
284.86236035325794
 11
374.37591859720339
 21
281.86235835325795
  0
LINE
  8
_0-0_0
  6
CONTINUOUS
 62
    7
 10
368.37591859720339
 20
281.86236035325794
 11
368.37591859720339
 21
284.86236035325794
  0
LINE
  8
_0-0_0
  6
CONTINUOUS
 62
    7
 10
366.87591859720339
 20
285.86236035325794
 11
366.87591859720339
 21
281.36236035325794
  0
ARC
  8
_0-0_0
  6
CONTINUOUS
 62
    7
 10
367.37591859720339
 20
285.86236035325794
 40
0.5
 50
90
 51
180
  0
ARC
  8
_0-0_0
  6
CONTINUOUS
 62
    7
 10
368.87591859720339
 20
281.86236035325794
 40
0.5
 50
180
 51
270
  0
LINE
  8
_0-0_0
  6
CONTINUOUS
 62
    7
 10
367.37591859720339
 20
286.36236035325794
 11
368.62591859720339
 21
286.36236035325794
  0
ARC
  8
_0-0_0
  6
CONTINUOUS
 62
    7
 10
368.62591859720339
 20
285.36236035325794
 40
1
 50
0
 51
90
  0
LINE
  8
_0-0_0
  6
CONTINUOUS
 62
    7
 10
369.62591859720339
 20
285.36236035325794
 11
369.62591859720339
 21
284.86236035325794
  0
LINE
  8
_0-0_0
  6
CONTINUOUS
 62
    7
 10
369.62591859720339
 20
284.86236035325794
 11
368.37591859720339
 21
284.86236035325794
  0
LINE
  8
_0-0_0
  6
CONTINUOUS
 62
    7
 10
374.37591859720339
 20
284.86236035325794
 11
373.12591859720339
 21
284.86236035325794
  0
LINE
  8
_0-0_0
  6
CONTINUOUS
 62
    7
 10
373.12591859720339
 20
285.36236035325794
 11
373.12591859720339
 21
284.86236035325794
  0
ARC
  8
_0-0_0
  6
CONTINUOUS
 62
    7
 10
374.12591859720339
 20
285.36236035325794
 40
1
 50
90
 51
180
  0
LINE
  8
_0-0_0
  6
CONTINUOUS
 62
    7
 10
374.12591859720339
 20
286.36236035325794
 11
374.37591859720339
 21
286.36236035325794
  0
LINE
  8
_0-0_0
  6
CONTINUOUS
 62
    7
 10
372.87591859710335
 20
284.61236035325794
 11
372.87591859710335
 21
303.53191621315784
  0
LINE
  8
_0-0_0
  6
CONTINUOUS
 62
    7
 10
369.87591859710335
 20
284.61236035325794
 11
369.87591859710335
 21
304.99517920915798
  0
ARC
  8
_0-0_0
  6
CONTINUOUS
 62
    7
 10
346.85288106340329
 20
301.98892699425789
 40
23.087541006009999
 50
3.184024179299993
 51
104.19866089519
  0
ARC
  8
_0-0_0
  6
CONTINUOUS
 62
    7
 10
347.9884982461034
 20
301.35385441245796
 40
25
 50
5.0000000000000071
 51
106.40954434920999
  0
ARC
  8
_0-0_0
  6
CONTINUOUS
 62
    7
 10
341.06721748020334
 20
324.85589416555797
 40
0.5
 50
106.40954434921004
 51
284.19866089520002
  0
LINE
  8
_0-0_0
  6
CONTINUOUS
 62
    7
 10
374.37591859720339
 20
286.36236035325794
 11
374.37591859720339
 21
296.86235835325795
  0
LINE
  8
_0-0_0
  6
CONTINUOUS
 62
    7
 10
467.87591859720339
 20
277.86235835325795
 11
413.87591859720339
 21
277.86235835325795
  0
LINE
  8
_0-0_0
  6
CONTINUOUS
 62
    7
 10
467.87591859720339
 20
276.86235835325795
 11
342.87591859720339
 21
276.86235835325795
  0
ARC
  8
_0-0_0
  6
CONTINUOUS
 62
    7
 10
467.84735882330449
 20
275.86276626679717
 40
1
 50
5.0000000000000195
 51
88.363422958380013
  0
LINE
  8
_0-0_0
  6
CONTINUOUS
 62
    7
 10
469.83974821950449
 20
276.03707775229725
 11
473.93116002700469
 21
229.27202680079733
  0
LINE
  8
_0-0_0
  6
CONTINUOUS
 62
    7
 10
468.84355352140471
 20
275.94992200959712
 11
472.93496532890447
 21
229.18487105799716
  0
ARC
  8
_0-0_0
  6
CONTINUOUS
 62
    7
 10
491.83917070340465
 20
230.83877472129723
 40
18.97641636797
 50
184.99999999999903
 51
355.00000000000006
  0
ARC
  8
_0-0_0
  6
CONTINUOUS
 62
    7
 10
467.84735882330449
 20
275.86276626679717
 40
2
 50
5.0000000000000071
 51
88.842784946750029
  0
ARC
  8
_0-0_0
  6
CONTINUOUS
 62
    7
 10
491.83917070340465
 20
230.83877472129723
 40
17.97641636797
 50
184.99999999999903
 51
355.00000000000006
  0
LINE
  8
_0-0_0
  6
CONTINUOUS
 62
    7
 10
516.87591859720339
 20
310.75386604725861
 11
509.74718137990465
 21
229.27202680079733
  0
LINE
  8
_0-0_0
  6
CONTINUOUS
 62
    7
 10
517.87591859720339
 20
310.71020510414053
 11
510.74337607800442
 21
229.18487105799716
  0
LINE
  8
_0-0_0
  6
CONTINUOUS
 62
    7
 10
467.87591859720339
 20
276.86235835325795
 11
467.87591859720339
 21
197.39604472343365
  0
LINE
  8
_0-0_0
  6
CONTINUOUS
 62
    7
 10
342.87591859720339
 20
276.86235835325795
 11
342.87591859720339
 21
205.86071737604732
  0
LINE
  8
_0-0_0
  6
CONTINUOUS
 62
    7
 10
162.79947180028361
 20
214.36960393857055
 11
162.79947180028361
 21
347.22634692875306
  0
LINE
  8
_0-0_0
  6
CONTINUOUS
 62
    7
 10
193.06129927067502
 20
280.30283139045707
 11
206.00161731974129
 21
280.30283139045707
  0
POINT
  8
_0-0_0
 62
    7
 10
193.06129927067502
 20
280.30283139045707
  0
LINE
  8
_0-0_0
  6
CONTINUOUS
 62
    7
 10
211.59523003161428
 20
240.80283139045707
 11
211.59523003161428
 21
279.29381825855364
  0
LINE
  8
_0-0_0
  6
CONTINUOUS
 62
    7
 10
213.39576182827375
 20
240.80283139045707
 11
213.39576182827375
 21
245.80283139045707
  0
LINE
  8
_0-0_0
  6
CONTINUOUS
 62
    7
 10
213.39576182827375
 20
240.80283139045707
 11
211.59523003161428
 21
240.80283139045707
  0
LINE
  8
_0-0_0
  6
CONTINUOUS
 62
    7
 10
263.66950836854664
 20
286.33083503177443
 11
211.59523003161428
 21
279.29381825855364
  0
LINE
  8
_0-0_0
  6
CONTINUOUS
 62
    7
 10
263.91071993932553
 20
284.54585726638732
 11
263.66950836854664
 21
286.33083503177443
  0
LINE
  8
_0-0_0
  6
CONTINUOUS
 62
    7
 10
258.95575718282441
 20
283.87627225932158
 11
263.91071993932553
 21
284.54585726638732
  0
ARC
  8
_0-0_0
  6
CONTINUOUS
 62
    7
 10
211.09523003161428
 20
279.42887628610185
 40
1
 50
97.695999999999941
 51
180
  0
LINE
  8
_0-0_0
  6
CONTINUOUS
 62
    7
 10
213.89576182827375
 20
245.80283139045707
 11
213.39576182827375
 21
245.80283139045707
  0
ARC
  8
_0-0_0
  6
CONTINUOUS
 62
    7
 10
213.89576182827375
 20
244.80283139045707
 40
1
 50
0
 51
90.000000000000028
  0
ARC
  8
_0-0_0
  6
CONTINUOUS
 62
    7
 10
265.09523003161428
 20
284.5032999734575
 40
1
 50
277.69599999999991
 51
0
  0
LINE
  8
_0-0_0
  6
CONTINUOUS
 62
    7
 10
266.09523003161428
 20
320.12075553036937
 11
251.09523003161428
 21
320.12075553036937
  0
POINT
  8
_0-0_0
 62
    7
 10
266.09523003161428
 20
320.12075553036937
  0
POINT
  8
_0-0_0
 62
    7
 10
251.09523003161428
 20
320.12075553036937
  0
LINE
  8
_0-0_0
  6
CONTINUOUS
 62
    7
 10
266.09523003161428
 20
320.12075553036937
 11
266.09523003161428
 21
309.376523417258
  0
LINE
  8
_0-0_0
  6
CONTINUOUS
 62
    7
 10
251.09523003161428
 20
320.12075553036937
 11
210.09523003161428
 21
320.12075553036937
  0
POINT
  8
_0-0_0
 62
    7
 10
210.09523003161428
 20
320.12075553036937
  0
LINE
  8
_0-0_0
  6
CONTINUOUS
 62
    7
 10
193.06129927067502
 20
280.30283139045707
 11
193.06129927067502
 21
287.66764615868271
  0
POINT
  8
_0-0_0
 62
    7
 10
193.06129927067502
 20
280.30283139045707
  0
POINT
  8
_0-0_0
 62
    7
 10
193.06129927067502
 20
287.66764615868271
  0
LINE
  8
_0-0_0
  6
CONTINUOUS
 62
    7
 10
193.06129927067502
 20
280.30283139045707
 11
206.00161731974129
 21
280.30283139045707
  0
LINE
  8
_0-0_0
  6
CONTINUOUS
 62
    7
 10
193.06129927067502
 20
287.66764615868271
 11
206.00161731974129
 21
287.66764615868271
  0
LINE
  8
_0-0_0
  6
CONTINUOUS
 62
    7
 10
265.09523003161428
 20
297.66764615868271
 11
264.59523003161428
 21
297.16764615868271
  0
LINE
  8
_0-0_0
  6
CONTINUOUS
 62
    7
 10
265.09523003161428
 20
297.66764615868271
 11
264.59523003161428
 21
298.16764615868271
  0
LINE
  8
_0-0_0
  6
CONTINUOUS
 62
    7
 10
264.59523003161428
 20
297.16764615868271
 11
264.59523003161428
 21
287.66764615868271
  0
LINE
  8
_0-0_0
  6
CONTINUOUS
 62
    7
 10
193.06129927067502
 20
287.66764615868271
 11
193.06129927067502
 21
297.66764615868271
  0
POINT
  8
_0-0_0
 62
    7
 10
193.06129927067502
 20
287.66764615868271
  0
POINT
  8
_0-0_0
 62
    7
 10
193.06129927067502
 20
297.66764615868271
  0
LINE
  8
_0-0_0
  6
CONTINUOUS
 62
    7
 10
193.06129927067502
 20
297.66764615868271
 11
193.06129927067502
 21
307.66764615868271
  0
POINT
  8
_0-0_0
 62
    7
 10
193.06129927067502
 20
307.66764615868271
  0
LINE
  8
_0-0_0
  6
CONTINUOUS
 62
    7
 10
193.06129927067502
 20
307.66764615868271
 11
206.00161731974129
 21
307.66764615868271
  0
LINE
  8
_0-0_0
  6
CONTINUOUS
 62
    7
 10
193.06129927067502
 20
307.66764615868271
 11
193.06129927067502
 21
317.30283139045707
  0
POINT
  8
_0-0_0
 62
    7
 10
193.06129927067502
 20
307.66764615868271
  0
POINT
  8
_0-0_0
 62
    7
 10
193.06129927067502
 20
317.30283139045707
  0
POINT
  8
_0-0_0
 62
    7
 10
277.621516498907
 20
279.29381825855364
  0
LINE
  8
_0-0_0
  6
CONTINUOUS
 62
    7
 10
277.621516498907
 20
279.29381825855364
 11
277.621516498907
 21
283.62934486910206
  0
POINT
  8
_0-0_0
 62
    7
 10
277.621516498907
 20
283.62934486910206
  0
LINE
  8
_0-0_0
  6
CONTINUOUS
 62
    7
 10
277.621516498907
 20
283.62934486910206
 11
277.621516498907
 21
308.53367156246702
  0
POINT
  8
_0-0_0
 62
    7
 10
277.621516498907
 20
308.53367156246702
  0
LINE
  8
_0-0_0
  6
CONTINUOUS
 62
    7
 10
277.621516498907
 20
308.53367156246702
 11
277.621516498907
 21
317.30283139045707
  0
POINT
  8
_0-0_0
 62
    7
 10
277.621516498907
 20
317.30283139045707
  0
LINE
  8
_0-0_0
  6
CONTINUOUS
 62
    7
 10
277.621516498907
 20
283.62934486910206
 11
267.30452384397029
 21
283.62934486910206
  0
LINE
  8
_0-0_0
  6
CONTINUOUS
 62
    7
 10
251.09523003161428
 20
320.12075553036937
 11
251.09523003161428
 21
318.05306524573336
  0
LINE
  8
_0-0_0
  6
CONTINUOUS
 62
    7
 10
277.621516498907
 20
317.30283139045707
 11
252.20422130456598
 21
317.30283139045707
  0
LINE
  8
_0-0_0
  6
CONTINUOUS
 62
    7
 10
277.621516498907
 20
279.29381825855364
 11
215.09926622769433
 21
279.29381825855364
  0
ARC
  8
_0-0_0
  6
CONTINUOUS
 62
    7
 10
265.09523003161428
 20
307.95993442094357
 40
1
 50
0
 51
59.688988726781545
  0
LINE
  8
_0-0_0
  6
CONTINUOUS
 62
    7
 10
251.84757680382415
 20
316.86300145101825
 11
265.59992357603403
 21
308.8232329939882
  0
LINE
  8
_0-0_0
  6
CONTINUOUS
 62
    7
 10
251.09523003161428
 20
316.43135216449593
 11
251.09523003161428
 21
315.46187479274261
  0
ARC
  8
_0-0_0
  6
CONTINUOUS
 62
    7
 10
251.59523003161428
 20
316.43135216449593
 40
0.5
 50
59.688988726781652
 51
179.99999999999994
  0
LINE
  8
_0-0_0
  6
CONTINUOUS
 62
    7
 10
251.09523003161428
 20
316.43135216449593
 11
251.09523003161428
 21
315.56530969537278
  0
LINE
  8
_0-0_0
  6
CONTINUOUS
 62
    7
 10
277.621516498907
 20
308.53367156246702
 11
267.03197024122244
 21
308.53367156246702
  0
LINE
  8
_0-0_0
  6
CONTINUOUS
 62
    7
 10
193.06129927067502
 20
317.30283139045707
 11
251.09523003161428
 21
317.30283139045707
  0
LINE
  8
_0-0_0
  6
CONTINUOUS
 62
    7
 10
193.06129927067502
 20
307.66764615868271
 11
262.91306041610676
 21
307.66764615868271
  0
LINE
  8
_0-0_0
  6
CONTINUOUS
 62
    7
 10
193.06129927067502
 20
297.66764615868271
 11
262.91306041610676
 21
297.66764615868271
  0
LINE
  8
_0-0_0
  6
CONTINUOUS
 62
    7
 10
193.06129927067502
 20
287.66764615868271
 11
262.91306041610676
 21
287.66764615868271
  0
LINE
  8
_0-0_0
  6
CONTINUOUS
 62
    7
 10
210.09523003161428
 20
320.12075553036937
 11
210.09523003161428
 21
281.44089923664239
  0
LINE
  8
_0-0_0
  6
CONTINUOUS
 62
    7
 10
210.96131303020081
 20
280.41986883740208
 11
264.59523003161428
 21
287.66764615868271
  0
LINE
  8
_0-0_0
  6
CONTINUOUS
 62
    7
 10
266.09523003161428
 20
307.95993442094357
 11
266.09523003161428
 21
284.5032999734575
  0
LINE
  8
_0-0_0
  6
CONTINUOUS
 62
    7
 10
264.59523003161428
 20
307.67306585018184
 11
258.79354712985275
 21
304.32346266509728
  0
LINE
  8
_0-0_0
  6
CONTINUOUS
 62
    7
 10
251.29068077480213
 20
316.82789945067418
 11
250.21582971957594
 21
318.68959608889452
  0
LINE
  8
_0-0_0
  6
CONTINUOUS
 62
    7
 10
251.29068077480213
 20
316.82789945067418
 11
250.21582971957594
 21
318.68959608889452
  0
LINE
  8
_0-0_0
  6
CONTINUOUS
 62
    7
 10
251.29068077480213
 20
316.82789945067418
 11
249.42898413658202
 21
317.90275050590014
  0
LINE
  8
_0-0_0
  6
CONTINUOUS
 62
    7
 10
251.29068077480213
 20
316.82789945067418
 11
246.51665280740815
 21
321.60192741806816
  0
LINE
  8
_0-0_0
  6
CONTINUOUS
 62
    7
 10
265.96047211040275
 20
308.46128873187934
 11
267.48054105023436
 21
309.98135767171073
  0
LINE
  8
_0-0_0
  6
CONTINUOUS
 62
    7
 10
265.96047211040275
 20
308.46128873187934
 11
268.03692489771618
 21
309.01767257936137
  0
LINE
  8
_0-0_0
  6
CONTINUOUS
 62
    7
 10
265.83716457630442
 20
283.83282765382376
 11
267.69886121452453
 21
282.75797659859779
  0
LINE
  8
_0-0_0
  6
CONTINUOUS
 62
    7
 10
265.83716457630442
 20
283.83282765382376
 11
266.91201563153061
 21
281.97113101560342
  0
LINE
  8
_0-0_0
  6
CONTINUOUS
 62
    7
 10
264.59523003161428
 20
307.67306585018184
 11
263.07516109178266
 21
306.15299691035045
  0
LINE
  8
_0-0_0
  6
CONTINUOUS
 62
    7
 10
264.59523003161428
 20
307.67306585018184
 11
262.51877724430085
 21
307.1166820026998
  0
LINE
  8
_0-0_0
  6
CONTINUOUS
 62
    7
 10
214.60286860946042
 20
245.50993817164374
 11
221.95611755052994
 21
252.86318711271349
  0
LINE
  8
_0-0_0
  6
CONTINUOUS
 62
    7
 10
214.60286860946042
 20
245.50993817164374
 11
216.86322730597874
 21
246.81495687354357
  0
LINE
  8
_0-0_0
  6
CONTINUOUS
 62
    7
 10
214.60286860946042
 20
245.50993817164374
 11
215.90788731136024
 21
247.77029686816206
  0
LINE
  8
_0-0_0
  6
CONTINUOUS
 62
    7
 10
210.35329548692368
 20
280.0993486057356
 11
209.05688293763285
 21
282.34480100867779
  0
LINE
  8
_0-0_0
  6
CONTINUOUS
 62
    7
 10
210.35329548692368
 20
280.0993486057356
 11
208.10784308398149
 21
281.39576115502666
  0
LINE
  8
_0-0_0
  6
CONTINUOUS
 62
    7
 10
210.35329548692368
 20
280.0993486057356
 11
206.05670129685893
 21
284.39594279580058
  0
LINE
  8
_0-0_0
  6
CONTINUOUS
 62
    7
 10
264.59523003161428
 20
307.67306585018184
 11
273.1400543687563
 21
312.60642248140869
  0
LINE
  8
_0-0_0
  6
CONTINUOUS
 62
    7
 10
265.83716457630442
 20
283.83282765382376
 11
271.90073481089746
 21
277.76925741923071
  0
LINE
  8
_0-0_0
  6
CONTINUOUS
 62
    7
 10
264.34757680382415
 20
307.8178465659422
 11
251.09523003161428
 21
315.56530969537278
  0
LINE
  8
_0-0_0
  6
CONTINUOUS
 62
    7
 10
264.59523003161428
 20
307.38619727942012
 11
264.59523003161428
 21
298.16764615868271
  0
ARC
  8
_0-0_0
  6
CONTINUOUS
 62
    7
 10
264.09523003161428
 20
307.38619727942012
 40
0.5
 50
0
 51
59.688988726781602
  0
LINE
  8
_0-0_0
  6
CONTINUOUS
 62
    7
 10
259.04960621741463
 20
283.18178467937048
 11
258.95575718282487
 21
283.87627225932158
  0
LINE
  8
_0-0_0
  6
CONTINUOUS
 62
    7
 10
259.61206099377148
 20
282.75324690442687
 11
265.22914703302729
 21
283.51230742215728
  0
ARC
  8
_0-0_0
  6
CONTINUOUS
 62
    7
 10
259.54510249306475
 20
283.24874318007699
 40
0.5
 50
187.69599999999068
 51
277.69599999999963
  0
LINE
  8
_0-0_0
  6
CONTINUOUS
 62
    7
 10
259.22806848488688
 20
282.88573089225076
 11
257.15161569757345
 21
282.3293470447685
  0
LINE
  8
_0-0_0
  6
CONTINUOUS
 62
    7
 10
259.22806848488688
 20
282.88573089225076
 11
257.70799954505526
 21
281.36566195241937
  0
LINE
  8
_0-0_0
  6
CONTINUOUS
 62
    7
 10
259.22806848488688
 20
282.88573089225076
 11
253.42638558312626
 21
279.5361277071662
  0
POINT
  8
_0-0_0
 62
    7
 10
187.37192599156867
 20
317.30283139045707
  0
LINE
  8
_0-0_0
  6
CONTINUOUS
 62
    7
 10
187.37192599156867
 20
317.30283139045707
 11
198.84784777337234
 21
317.30283139045707
  0
POINT
  8
_0-0_0
 62
    7
 10
210.09523003161428
 20
327.67639869092852
  0
POINT
  8
_0-0_0
 62
    7
 10
266.09523003161428
 20
327.67639869092852
  0
LINE
  8
_0-0_0
  6
CONTINUOUS
 62
    7
 10
210.09523003161428
 20
327.67639869092852
 11
210.09523003161428
 21
311.5923922923181
  0
LINE
  8
_0-0_0
  6
CONTINUOUS
 62
    7
 10
266.09523003161428
 20
327.67639869092852
 11
266.09523003161428
 21
311.5923922923181
  0
LINE
  8
_0-0_0
  6
CONTINUOUS
 62
    7
 10
210.09523003161428
 20
327.67639869092852
 11
266.09523003161428
 21
327.67639869092852
  0
LINE
  8
_0-0_0
  6
CONTINUOUS
 62
    7
 10
193.06129927067502
 20
237.30283139045707
 11
206.00161731974129
 21
237.30283139045707
  0
POINT
  8
_0-0_0
 62
    7
 10
193.06129927067502
 20
237.30283139045707
  0
ARC
  8
_0-0_0
  6
CONTINUOUS
 62
    7
 10
211.09523003161428
 20
238.30283139045707
 40
1
 50
180
 51
270
  0
LINE
  8
_0-0_0
  6
CONTINUOUS
 62
    7
 10
213.89576182827375
 20
237.30283139045707
 11
211.09523003161428
 21
237.30283139045707
  0
ARC
  8
_0-0_0
  6
CONTINUOUS
 62
    7
 10
213.89576182827375
 20
238.30283139045707
 40
1
 50
270
 51
0
  0
POINT
  8
_0-0_0
 62
    7
 10
277.621516498907
 20
237.30283139045707
  0
LINE
  8
_0-0_0
  6
CONTINUOUS
 62
    7
 10
210.09523003161428
 20
229.85574988385918
 11
214.89576182827375
 21
229.85574988385918
  0
POINT
  8
_0-0_0
 62
    7
 10
210.09523003161428
 20
229.85574988385918
  0
POINT
  8
_0-0_0
 62
    7
 10
214.89576182827375
 20
229.85574988385918
  0
LINE
  8
_0-0_0
  6
CONTINUOUS
 62
    7
 10
210.09523003161428
 20
229.85574988385918
 11
210.09523003161428
 21
236.06511492633774
  0
LINE
  8
_0-0_0
  6
CONTINUOUS
 62
    7
 10
214.89576182827375
 20
229.85574988385918
 11
214.89576182827375
 21
236.06511492633774
  0
LINE
  8
_0-0_0
  6
CONTINUOUS
 62
    7
 10
214.89576182827375
 20
229.85574988385918
 11
266.09523003161428
 21
229.85574988385918
  0
POINT
  8
_0-0_0
 62
    7
 10
266.09523003161428
 20
229.85574988385918
  0
LINE
  8
_0-0_0
  6
CONTINUOUS
 62
    7
 10
277.621516498907
 20
237.30283139045707
 11
215.9890621773269
 21
237.30283139045707
  0
LINE
  8
_0-0_0
  6
CONTINUOUS
 62
    7
 10
214.60286860945996
 20
237.59572460927041
 11
216.46456524768053
 21
236.52087355404444
  0
LINE
  8
_0-0_0
  6
CONTINUOUS
 62
    7
 10
210.38812325042761
 20
237.59572460927041
 11
209.31327219520188
 21
235.7340279710503
  0
LINE
  8
_0-0_0
  6
CONTINUOUS
 62
    7
 10
210.38812325042761
 20
237.59572460927041
 11
208.52642661220705
 21
236.52087355404444
  0
LINE
  8
_0-0_0
  6
CONTINUOUS
 62
    7
 10
214.60286860945996
 20
237.59572460927041
 11
215.67771966468615
 21
235.7340279710503
  0
LINE
  8
_0-0_0
  6
CONTINUOUS
 62
    7
 10
214.60286860945996
 20
237.59572460927041
 11
220.71348579109952
 21
231.48510742763131
  0
LINE
  8
_0-0_0
  6
CONTINUOUS
 62
    7
 10
210.38812325042761
 20
237.59572460927041
 11
204.70831780951301
 21
231.9159191683558
  0
POINT
  8
_0-0_0
 62
    7
 10
187.37192599156867
 20
237.30283139045707
  0
LINE
  8
_0-0_0
  6
CONTINUOUS
 62
    7
 10
187.37192599156867
 20
237.30283139045707
 11
198.84784777337234
 21
237.30283139045707
  0
LINE
  8
_0-0_0
  6
CONTINUOUS
 62
    7
 10
210.09523003161428
 20
238.30283139045707
 11
210.09523003161428
 21
279.42887628610185
  0
LINE
  8
_0-0_0
  6
CONTINUOUS
 62
    7
 10
214.89576182827375
 20
244.80283139045707
 11
214.89576182827375
 21
238.30283139045707
  0
LINE
  8
_0-0_0
  6
CONTINUOUS
 62
    7
 10
187.37192599156867
 20
237.30283139045707
 11
187.37192599156867
 21
317.30283139045707
  0
LINE
  8
_0-0_0
  6
CONTINUOUS
 62
    7
 10
193.06129927067502
 20
237.30283139045707
 11
193.06129927067502
 21
280.30283139045707
  0
LINE
  8
_0-0_0
  6
CONTINUOUS
 62
    7
 10
277.621516498907
 20
237.30283139045707
 11
277.621516498907
 21
279.29381825855364
  0
LINE
  8
_0-0_0
  6
CONTINUOUS
 62
    7
 10
266.09523003161428
 20
229.85574988385918
 11
266.09523003161428
 21
281.90756752261007
  0
LINE
  8
_0-0_0
  6
CONTINUOUS
 62
    7
 10
226.95299983709845
 20
425.29068798344076
 11
226.95299983709845
 21
414.45699409485235
  0
LINE
  8
_0-0_0
  6
CONTINUOUS
 62
    7
 10
214.63186269503956
 20
417.22082289907064
 11
262.04219260309799
 21
417.22082289907064
  0
LINE
  8
_0-0_0
  6
CONTINUOUS
 62
    7
 10
214.63186269503956
 20
360.20996289907077
 11
225.57478319260588
 21
360.20996289907077
  0
POINT
  8
_0-0_0
 62
    7
 10
215.13186269503956
 20
360.20996289907077
  0
LINE
  8
_0-0_0
  6
CONTINUOUS
 62
    7
 10
215.13186269503956
 20
412.24465289907073
 11
215.13186269503956
 21
360.20996289907077
  0
LINE
  8
_0-0_0
  6
CONTINUOUS
 62
    7
 10
214.63186269503956
 20
412.24465289907073
 11
225.57478319260588
 21
412.24465289907073
  0
POINT
  8
_0-0_0
 62
    7
 10
215.13186269503956
 20
412.24465289907073
  0
POINT
  8
_0-0_0
 62
    7
 10
215.13186269503956
 20
417.22082289907064
  0
LINE
  8
_0-0_0
  6
CONTINUOUS
 62
    7
 10
215.13186269503956
 20
417.22082289907064
 11
215.13186269503956
 21
412.24465289907073
  0
LINE
  8
_0-0_0
  6
CONTINUOUS
 62
    7
 10
263.9776818370982
 20
425.29068798344076
 11
263.9776818370982
 21
417.6973834945278
  0
POINT
  8
_0-0_0
 62
    7
 10
226.95299983709845
 20
424.79068798344076
  0
POINT
  8
_0-0_0
 62
    7
 10
263.9776818370982
 20
424.79068798344076
  0
LINE
  8
_0-0_0
  6
CONTINUOUS
 62
    7
 10
263.9776818370982
 20
424.79068798344076
 11
226.95299983709845
 21
424.79068798344076
  0
LINE
  8
_0-0_0
  6
CONTINUOUS
 62
    7
 10
263.77667183709798
 20
417.22082289907064
 11
263.9776818370982
 21
415.73334489907086
  0
LINE
  8
_0-0_0
  6
CONTINUOUS
 62
    7
 10
226.95299983709845
 20
412.24465289907073
 11
263.77667183709798
 21
417.22082289907064
  0
LINE
  8
_0-0_0
  6
CONTINUOUS
 62
    7
 10
226.95299983709845
 20
360.20996289907077
 11
226.95299983709845
 21
412.24465289907073
  0
LINE
  8
_0-0_0
  6
CONTINUOUS
 62
    7
 10
228.45399983709819
 20
360.20996289907077
 11
226.95299983709845
 21
360.20996289907077
  0
LINE
  8
_0-0_0
  6
CONTINUOUS
 62
    7
 10
228.45399983709819
 20
410.9328448990708
 11
228.45399983709819
 21
360.20996289907077
  0
LINE
  8
_0-0_0
  6
CONTINUOUS
 62
    7
 10
263.9776818370982
 20
415.73334489907086
 11
228.45399983709819
 21
410.9328448990708
  0
LINE
  8
_0-0_0
  6
CONTINUOUS
 62
    7
 10
162.79947180028361
 20
347.22634692875306
 11
162.79947180028361
 21
443.76754066023466
  0
LINE
  8
_0-0_0
  6
CONTINUOUS
 62
    7
 10
201.92605720023619
 20
443.76754066023466
 11
201.92605720023619
 21
430.85639435417067
  0
LINE
  8
_0-0_0
  6
CONTINUOUS
 62
    7
 10
201.92605720023619
 20
430.85639435417067
 11
162.79947180028361
 21
430.85639435417067
  0
LINE
  8
_0-0_0
  6
CONTINUOUS
 62
    7
 10
201.92605720023619
 20
347.22634692875306
 11
201.92605720023619
 21
334.31520062268908
  0
LINE
  8
_0-0_0
  6
CONTINUOUS
 62
    7
 10
201.92605720023619
 20
334.31520062268908
 11
162.79947180028361
 21
334.31520062268908
  0
LINE
  8
_0-0_0
  6
CONTINUOUS
 62
    7
 10
288.14410733915872
 20
214.36960393857055
 11
162.79947180028361
 21
214.36960393857055
  0
LINE
  8
_0-0_0
  6
CONTINUOUS
 62
    7
 10
162.79947180028361
 20
347.22634692875306
 11
288.14410733915872
 21
347.22634692875306
  0
LINE
  8
_0-0_0
  6
CONTINUOUS
 62
    7
 10
288.14410733915872
 20
443.76754066023466
 11
162.79947180028361
 21
443.76754066023466
  0
LINE
  8
_0-0_0
  6
CONTINUOUS
 62
    7
 10
288.14410733915872
 20
347.22634692875306
 11
288.14410733915872
 21
443.76754066023466
  0
LINE
  8
_0-0_0
  6
CONTINUOUS
 62
    7
 10
288.14410733915872
 20
347.22634692875306
 11
288.14410733915872
 21
214.36960393857055
  0
LINE
  8
_0-0_0
  6
CONTINUOUS
 62
    7
 10
178.77314211094938
 20
190.42934990110018
 11
182.01175680844938
 21
193.66796547612932
  0
LINE
  8
_0-0_0
  6
CONTINUOUS
 62
    7
 10
178.77314211094938
 20
185.84925707860327
 11
178.77314211094938
 21
190.42934990110018
  0
LINE
  8
_0-0_0
  6
CONTINUOUS
 62
    7
 10
178.07114211095006
 20
190.42934990110018
 11
178.07114211095006
 21
185.84925707860327
  0
LINE
  8
_0-0_0
  6
CONTINUOUS
 62
    7
 10
174.83252741345007
 20
193.66796547612932
 11
178.07114211095006
 21
190.42934990110018
  0
LINE
  8
_0-0_0
  6
CONTINUOUS
 62
    7
 10
185.4421421109497
 20
190.57473936610029
 11
184.20299540345025
 21
190.2237393661004
  0
LINE
  8
_0-0_0
  6
CONTINUOUS
 62
    7
 10
185.4421421109497
 20
190.57473936610029
 11
184.21364211094954
 21
190.57473936610029
  0
LINE
  8
_0-0_0
  6
CONTINUOUS
 62
    7
 10
184.20299540345025
 20
190.92573936612951
 11
185.4421421109497
 21
190.57473936610029
  0
LINE
  8
_0-0_0
  6
CONTINUOUS
 62
    7
 10
178.42214211094972
 20
183.55473936610326
 11
178.42214211094972
 21
184.78323936610298
  0
LINE
  8
_0-0_0
  6
CONTINUOUS
 62
    7
 10
178.42214211094972
 20
183.55473936610326
 11
178.77314211094938
 21
184.79388519610313
  0
LINE
  8
_0-0_0
  6
CONTINUOUS
 62
    7
 10
178.42214211094972
 20
183.55473936610326
 11
178.07114211095006
 21
184.79388519610313
  0
LINE
  8
_0-0_0
  6
CONTINUOUS
 62
    7
 10
171.4021421109552
 20
190.57473936610029
 11
172.64128794095552
 21
190.2237393661004
  0
LINE
  8
_0-0_0
  6
CONTINUOUS
 62
    7
 10
171.4021421109552
 20
190.57473936610029
 11
172.63064211095536
 21
190.57473936610029
  0
LINE
  8
_0-0_0
  6
CONTINUOUS
 62
    7
 10
171.4021421109552
 20
190.57473936610029
 11
172.64128794095552
 21
190.92573936612951
  0
LINE
  8
_0-0_0
  6
CONTINUOUS
 62
    7
 10
178.42214211094972
 20
197.5947393661296
 11
178.77314211094938
 21
196.35559265862969
  0
LINE
  8
_0-0_0
  6
CONTINUOUS
 62
    7
 10
178.42214211094972
 20
197.5947393661296
 11
178.07114211095006
 21
196.35559265862969
  0
LINE
  8
_0-0_0
  6
CONTINUOUS
 62
    7
 10
178.42214211094972
 20
197.5947393661296
 11
178.42214211094972
 21
196.36623936612943
  0
LINE
  8
_0-0_0
  6
CONTINUOUS
 62
    7
 10
178.42214211094972
 20
191.07112795362957
 11
175.32891600094956
 21
194.1643540636295
  0
LINE
  8
_0-0_0
  6
CONTINUOUS
 62
    7
 10
181.51536822094943
 20
194.1643540636295
 11
178.42214211094972
 21
191.07112795362957
  0
LINE
  8
_0-0_0
  6
CONTINUOUS
 62
    7
 10
178.42214211094972
 20
190.57473936610029
 11
181.77276705094994
 21
193.92536430612961
  0
LINE
  8
_0-0_0
  6
CONTINUOUS
 62
    7
 10
178.42214211094972
 20
190.57473936610029
 11
178.42214211094972
 21
185.83623936610309
  0
LINE
  8
_0-0_0
  6
CONTINUOUS
 62
    7
 10
175.07151629344992
 20
193.92536430612961
 11
178.42214211094972
 21
190.57473936610029
  0
ARC
  8
_0-0_0
  6
CONTINUOUS
 62
    7
 10
178.42214211094972
 20
190.57473936610029
 40
4.0365000000000002
 50
62.718932000000002
 51
117.281068
  0
ARC
  8
_0-0_0
  6
CONTINUOUS
 62
    7
 10
178.42214211094972
 20
190.57473936610029
 40
4.7385000000000019
 50
60.026114
 51
119.97388599999999
  0
ARC
  8
_0-0_0
  6
CONTINUOUS
 62
    7
 10
178.42214211094972
 20
190.57473936610029
 40
4.7385000000000019
 50
285.02611400000001
 51
29.973885999999773
  0
ARC
  8
_0-0_0
  6
CONTINUOUS
 62
    7
 10
178.42214211094972
 20
190.57473936610029
 40
4.0365000000000002
 50
287.718932
 51
27.28106799999998
  0
ARC
  8
_0-0_0
  6
CONTINUOUS
 62
    7
 10
178.42214211094972
 20
190.57473936610029
 40
4.0365000000000002
 50
152.718932
 51
252.28106800000003
  0
ARC
  8
_0-0_0
  6
CONTINUOUS
 62
    7
 10
178.42214211094972
 20
190.57473936610029
 40
4.7385000000000019
 50
150.02611400000001
 51
254.97388600000002
  0
CIRCLE
  8
_0-0_0
  6
CONTINUOUS
 62
    7
 10
178.42214211094972
 20
190.57473936610029
 40
5.7915000000000019
  0
CIRCLE
  8
_0-0_0
  6
CONTINUOUS
 62
    7
 10
178.42214211094972
 20
190.57473936610029
 40
6.4935000000000027
  0
ARC
  8
_0-0_0
  6
CONTINUOUS
 62
    7
 10
178.42214211094972
 20
190.57473936610029
 40
4.3875000000000011
 50
151.26020500000004
 51
253.73979500000002
  0
ARC
  8
_0-0_0
  6
CONTINUOUS
 62
    7
 10
178.42214211094972
 20
190.57473936610029
 40
4.3875000000000011
 50
286.26020499999998
 51
28.739795000000012
  0
ARC
  8
_0-0_0
  6
CONTINUOUS
 62
    7
 10
178.42214211094972
 20
190.57473936610029
 40
4.3875000000000011
 50
61.260204999999999
 51
118.73979500000002
  0
CIRCLE
  8
_0-0_0
  6
CONTINUOUS
 62
    7
 10
178.42214211094972
 20
190.57473936610029
 40
6.1425000000000018
  0
LINE
  8
_0-0_0
  6
CONTINUOUS
 62
    7
 10
564.71103060266694
 20
180.42629332765148
 11
157.59279367385864
 21
180.42629332765148
  0
LINE
  8
_0-0_0
  6
CONTINUOUS
 62
    7
 10
157.59279367385864
 20
200.90129332765162
 11
564.71103060266694
 21
200.90129332765162
  0
LINE
  8
_0-0_0
  6
CONTINUOUS
 62
    7
 10
157.59279367385864
 20
458.81334224865952
 11
564.71103060266694
 21
458.81334224865952
  0
LINE
  8
_0-0_0
  6
CONTINUOUS
 62
    7
 10
157.59279367385864
 20
458.81334224865952
 11
157.59279367385864
 21
180.42629332765148
  0
LINE
  8
_0-0_0
  6
CONTINUOUS
 62
    7
 10
564.71103060266694
 20
180.42629332765148
 11
564.71103060266694
 21
458.81334224865952
  0
LINE
  8
_0-0_0
  6
CONTINUOUS
 62
    7
 10
502.04526226707662
 20
387.85239461713331
 11
488.95991318068707
 21
379.70101553282518
  0
LINE
  8
_0-0_0
  6
CONTINUOUS
 62
    7
 10
502.04526226707662
 20
387.85239461713331
 11
503.08328447654628
 21
388.20548694300896
  0
LINE
  8
_0-0_0
  6
CONTINUOUS
 62
    7
 10
517.87591859720339
 20
393.91423752516715
 11
514.23502163938508
 21
387.60801900910258
  0
LINE
  8
_0-0_0
  6
CONTINUOUS
 62
    7
 10
494.83228103589545
 20
383.35914465068709
 11
491.23819684568247
 21
377.13400822655797
  0
LINE
  8
_0-0_0
  6
CONTINUOUS
 62
    7
 10
498.43877165148592
 20
385.6057696339102
 11
493.54759792244096
 21
377.13400822655797
  0
LINE
  8
_0-0_0
  6
CONTINUOUS
 62
    7
 10
502.04526226707662
 20
387.85239461713331
 11
495.85699899919956
 21
377.13400822655797
  0
LINE
  8
_0-0_0
  6
CONTINUOUS
 62
    7
 10
503.37591859720339
 20
382.15715898832627
 11
500.47580115271654
 21
377.13400822655797
  0
LINE
  8
_0-0_0
  6
CONTINUOUS
 62
    7
 10
503.37591859720339
 20
386.15715898832627
 11
498.16640007595794
 21
377.13400822655797
  0
LINE
  8
_0-0_0
  6
CONTINUOUS
 62
    7
 10
491.22579042030497
 20
381.11251966746397
 11
488.92879576892386
 21
377.13400822655797
  0
LINE
  8
_0-0_0
  6
CONTINUOUS
 62
    7
 10
488.95991318068707
 20
379.70101553282518
 11
486.94297886862
 21
377.13400822655797
  0
LINE
  8
_0-0_0
  6
CONTINUOUS
 62
    7
 10
507.18370171987908
 20
391.39477464809511
 11
505.87844761782935
 21
389.13400822655797
  0
LINE
  8
_0-0_0
  6
CONTINUOUS
 62
    7
 10
511.56069672293961
 20
394.97595237787186
 11
508.18784869458779
 21
389.13400822655797
  0
LINE
  8
_0-0_0
  6
CONTINUOUS
 62
    7
 10
515.93769172600105
 20
398.55713010764941
 11
510.49724977134639
 21
389.13400822655797
  0
LINE
  8
_0-0_0
  6
CONTINUOUS
 62
    7
 10
517.87591859720339
 20
397.9142375251671
 11
512.72477570959063
 21
388.99219632677466
  0
LINE
  8
_0-0_0
  6
CONTINUOUS
 62
    7
 10
504.42054276022265
 20
389.13400822655797
 11
517.87591859720339
 21
400.14295209317868
  0
LINE
  8
_0-0_0
  6
CONTINUOUS
 62
    7
 10
514.25002652107901
 20
387.63400822655797
 11
517.87591859720339
 21
387.7673320035824
  0
LINE
  8
_0-0_0
  6
CONTINUOUS
 62
    7
 10
503.61088089510406
 20
443.11849947702228
 11
517.87591859720339
 21
449.55665137379208
  0
LINE
  8
_0-0_0
  6
CONTINUOUS
 62
    7
 10
508.26142591725801
 20
445.21740141339694
 11
506.1764275073092
 21
441.60607823366524
  0
LINE
  8
_0-0_0
  6
CONTINUOUS
 62
    7
 10
511.38465215337078
 20
446.62698793787638
 11
507.90847831487804
 21
440.60607823366524
  0
LINE
  8
_0-0_0
  6
CONTINUOUS
 62
    7
 10
514.50787838948372
 20
448.03657446235593
 11
509.63510089840406
 21
439.59667627382817
  0
LINE
  8
_0-0_0
  6
CONTINUOUS
 62
    7
 10
487.30887460558722
 20
434.29051934428151
 11
503.25476813474427
 21
425.08415342275362
  0
ENDSEC
  0
EOF
