  0
SECTION
  2
HEADER
  9
$ACADVER
  1
AC1009
  9
$INSBASE
 10
0
 20
0
 30
0
  9
$EXTMIN
 10
0
 20
0
  9
$EXTMAX
 10
420
 20
297
  9
$LIMMIN
 10
0
 20
0
  9
$LIMMAX
 10
420
 20
297
  9
$LTSCALE
 40
1
  0
ENDSEC
  0
SECTION
  2
TABLES
  0
TABLE
  2
LTYPE
 70
     9
  0
LTYPE
  2
CONTINUOUS
 70
    64
  3
実線
 72
    65
 73
     0
 40
0.0
  0
LTYPE
  2
DASHED1
 70
    64
  3
--  --  --  --  --  --  --  --  
 72
    65
 73
     2
 40
2.5
 49
1.25
 49
-1.25
  0
LTYPE
  2
DASHED2
 70
    64
  3
----    ----    ----    ----    
 72
    65
 73
     2
 40
5.0
 49
2.5
 49
-2.5
  0
LTYPE
  2
DASHED3
 70
    64
  3
------  ------  ------  ------  
 72
    65
 73
     2
 40
5.0
 49
3.75
 49
-1.25
  0
LTYPE
  2
CENTER1
 70
    64
  3
----- - ----- - ----- - ----- - 
 72
    65
 73
     4
 40
10.0
 49
6.25
 49
-1.25
 49
1.25
 49
-1.25
  0
LTYPE
  2
CENTER2
 70
    64
  3
----------  --  ----------  --  
 72
    65
 73
     4
 40
20.0
 49
12.5
 49
-2.5
 49
2.5
 49
-2.5
  0
LTYPE
  2
PHANTOM1
 70
    64
  3
--- - - --- - - --- - - --- - - 
 72
    65
 73
     6
 40
10.0
 49
3.25
 49
-1.25
 49
1.25
 49
-1.25
 49
1.25
 49
-1.25
  0
LTYPE
  2
PHANTOM2
 70
    64
  3
--------  -  -  --------  -  -  
 72
    65
 73
     6
 40
20.0
 49
10.0
 49
-2.5
 49
1.25
 49
-2.5
 49
1.25
 49
-2.5
  0
LTYPE
  2
DOT
 70
    64
  3
-   -   -   -   -   -   -   -   
 72
    65
 73
     2
 40
2.5
 49
0.625
 49
-1.875
  0
LTYPE
  2
DUMMY
 70
    64
  3
ダミー
 72
    65
 73
     0
 40
0.0
  0
LTYPE
  2
RAND1
 70
    64
  3
ランダム線1
 72
    65
 73
     4
 40
10.0
 49
1.0
 49
-2.0
 49
3.0
 49
-4.0
  0
LTYPE
  2
RAND2
 70
    64
  3
ランダム線2
 72
    65
 73
     4
 40
14.0
 49
2.0
 49
-3.0
 49
4.0
 49
-5.0
  0
LTYPE
  2
RAND3
 70
    64
  3
ランダム線3
 72
    65
 73
     4
 40
18.0
 49
3.0
 49
-4.0
 49
5.0
 49
-6.0
  0
LTYPE
  2
RAND4
 70
    64
  3
ランダム線4
 72
    65
 73
     4
 40
22.0
 49
4.0
 49
-5.0
 49
6.0
 49
-7.0
  0
LTYPE
  2
RAND5
 70
    64
  3
ランダム線5
 72
    65
 73
     4
 40
26.0
 49
5.0
 49
-6.0
 49
7.0
 49
-8.0
  0
LTYPE
  2
LONG1
 70
    64
  3
----------  --  ----------  --  
 72
    65
 73
     4
 40
40.0
 49
32.5
 49
-2.5
 49
2.5
 49
-2.5
  0
LTYPE
  2
LONG2
 70
    64
  3
--------  -  -  --------  -  -  
 72
    65
 73
     6
 40
40.0
 49
30.0
 49
-2.5
 49
1.25
 49
-2.5
 49
1.25
 49
-2.5
  0
LTYPE
  2
LONG3
 70
    64
  3
+++++++++++++++..+++++++++++++++
 72
    65
 73
     2
 40
40.0
 49
37.5
 49
-2.5
  0
LTYPE
  2
LONG4
 70
    64
  3
+++++++++++++++..+++++++++++++++
 72
    65
 73
     2
 40
80.0
 49
75.0
 49
-5.0
  0
LTYPE
  2
LONG5
 70
    64
  3
----------  --  ----------  --  
 72
    65
 73
     4
 40
60.0
 49
37.5
 49
-7.5
 49
7.5
 49
-7.5
  0
LTYPE
  2
dashed
 70
   64
  3
-------   -------------   ------
 72
   65
 73
    2
 40
7.5
 49
6
 49
-1.5
  0
LTYPE
  2
dashed_spaced
 70
   64
  3
----        --------        ----
 72
   65
 73
    2
 40
12
 49
6
 49
-6
  0
LTYPE
  2
long_dashed_dotted
 70
   64
  3
------------- --- --------------
 72
   65
 73
    4
 40
15.25
 49
12
 49
-1.5
 49
0.25
 49
-1.5
  0
LTYPE
  2
long_dashed_double-dotted
 70
   64
  3
----------- --- --- ------------
 72
   65
 73
    6
 40
17
 49
12
 49
-1.5
 49
0.25
 49
-1.5
 49
0.25
 49
-1.5
  0
LTYPE
  2
long_dashed_triplicate-dotted
 70
   64
  3
--------- --- --- --- ----------
 72
   65
 73
    8
 40
18.75
 49
12
 49
-1.5
 49
0.25
 49
-1.5
 49
0.25
 49
-1.5
 49
0.25
 49
-1.5
  0
LTYPE
  2
dotted
 70
   64
  3
   -       -       -       -    
 72
   65
 73
    2
 40
1.75
 49
0.25
 49
-1.5
  0
LTYPE
  2
chain
 70
   64
  3
-------------- -- --------------
 72
   65
 73
    4
 40
18.5
 49
12
 49
-1.5
 49
3.5
 49
-1.5
  0
LTYPE
  2
chain_double_dash
 70
   64
  3
------------ -- -- -------------
 72
   65
 73
    6
 40
23.5
 49
12
 49
-1.5
 49
3.5
 49
-1.5
 49
3.5
 49
-1.5
  0
LTYPE
  2
dashed_dotted
 70
   64
  3
-----------     -     ----------
 72
   65
 73
    4
 40
9.25
 49
6
 49
-1.5
 49
0.25
 49
-1.5
  0
LTYPE
  2
double-dashed_dotted
 70
   64
  3
------   -----------   -   -----
 72
   65
 73
    6
 40
16.75
 49
6
 49
-1.5
 49
6
 49
-1.5
 49
0.25
 49
-1.5
  0
LTYPE
  2
dashed_double-dotted
 70
   64
  3
---------    -    -    ---------
 72
   65
 73
    6
 40
11
 49
6
 49
-1.5
 49
0.25
 49
-1.5
 49
0.25
 49
-1.5
  0
LTYPE
  2
double-dashed_double-dotted
 70
   64
  3
-----   ---------   -   -   ----
 72
   65
 73
    8
 40
18.5
 49
6
 49
-1.5
 49
6
 49
-1.5
 49
0.25
 49
-1.5
 49
0.25
 49
-1.5
  0
LTYPE
  2
dashed_triplicate-dotted
 70
   64
  3
-------    -    -    -    ------
 72
   65
 73
    8
 40
12.75
 49
6
 49
-1.5
 49
0.25
 49
-1.5
 49
0.25
 49
-1.5
 49
0.25
 49
-1.5
  0
LTYPE
  2
double-dashed_triplicate-dotted
 70
   64
  3
-----  ---------  -  -  -  -----
 72
   65
 73
   10
 40
20.25
 49
6
 49
-1.5
 49
6
 49
-1.5
 49
0.25
 49
-1.5
 49
0.25
 49
-1.5
 49
0.25
 49
-1.5
  0
LTYPE
  2
undefined
 70
   64
  3
--------------------------------
 72
   65
 73
    0
 40
0
  0
LTYPE
  2
PLINE2
 70
   64
  3
------     -----------     -----
 72
   65
 73
    2
 40
3
 49
2.1000000000000001
 49
-0.9
  0
LTYPE
  2
PLINE3
 70
   64
  3
------------   ---   -----------
 72
   65
 73
    4
 40
10
 49
7
 49
-1
 49
1
 49
-1
  0
LTYPE
  2
PLINE4
 70
   64
  3
---------   ---   ---   --------
 72
   65
 73
    6
 40
10
 49
5
 49
-1
 49
1
 49
-1
 49
1
 49
-1
  0
LTYPE
  2
PLINE5
 70
   64
  3
------     -----------     -----
 72
   65
 73
    2
 40
5
 49
3.5
 49
-1.5
  0
LTYPE
  2
PLINE6
 70
   64
  3
------------   ---   -----------
 72
   65
 73
    4
 40
15
 49
10.5
 49
-1.5
 49
1.5
 49
-1.5
  0
LTYPE
  2
PLINE7
 70
   64
  3
---------   ---   ---   --------
 72
   65
 73
    6
 40
15
 49
7.5
 49
-1.5
 49
1.5
 49
-1.5
 49
1.5
 49
-1.5
  0
LTYPE
  2
PLINE8
 70
   64
  3
------     -----------     -----
 72
   65
 73
    2
 40
7
 49
4.9000000000000004
 49
-2.1000000000000001
  0
LTYPE
  2
PLINE9
 70
   64
  3
------------   ---   -----------
 72
   65
 73
    4
 40
20
 49
14
 49
-2
 49
2
 49
-2
  0
LTYPE
  2
PLINE10
 70
   64
  3
---------   ---   ---   --------
 72
   65
 73
    6
 40
20
 49
10
 49
-2
 49
2
 49
-2
 49
2
 49
-2
  0
LTYPE
  2
PLINE11
 70
   64
  3
------     -----------     -----
 72
   65
 73
    2
 40
9
 49
6.2999999999999989
 49
-2.7000000000000002
  0
LTYPE
  2
PLINE12
 70
   64
  3
------------   ---   -----------
 72
   65
 73
    4
 40
25
 49
17.5
 49
-2.5
 49
2.5
 49
-2.5
  0
LTYPE
  2
PLINE13
 70
   64
  3
---------   ---   ---   --------
 72
   65
 73
    6
 40
25
 49
12.5
 49
-2.5
 49
2.5
 49
-2.5
 49
2.5
 49
-2.5
  0
LTYPE
  2
PLINE14
 70
   64
  3
------     -----------     -----
 72
   65
 73
    2
 40
11
 49
7.7000000000000002
 49
-3.2999999999999989
  0
LTYPE
  2
PLINE15
 70
   64
  3
------------   ---   -----------
 72
   65
 73
    4
 40
30
 49
21
 49
-3
 49
3
 49
-3
  0
LTYPE
  2
PLINE16
 70
   64
  3
---------   ---   ---   --------
 72
   65
 73
    6
 40
30
 49
15
 49
-3
 49
3
 49
-3
 49
3
 49
-3
  0
ENDTAB
  0
TABLE
  2
STYLE
  5
3
100
AcDbSymbolTable
 70
     1
  0
STYLE
  5
10
100
AcDbSymbolTableRecord
100
AcDbTextStyleTableRecord
  2
STANDARD
 70
     0
 40
0.0
 41
1.0
 50
0.0
 71
     0
 42
0.2
  3
txt
  4
bigfont.shx
  0
STYLE
  5
26
100
AcDbSymbolTableRecord
100
AcDbTextStyleTableRecord
  2
TATEGAKI
 70
    68
 40
0.0
 41
1.0
 50
0.0
 71
     0
 42
1.0
  3
txt
  4
bigfont.shx
  0
ENDTAB
  0
TABLE
  2
LAYER
 70
    5
  0
LAYER
  2
_0-2_寸法
 70
   64
 62
    7
  6
CONTINUOUS
  0
LAYER
  2
_0-3_躯体と製品
 70
   64
 62
    7
  6
CONTINUOUS
  0
LAYER
  2
_0-4_図面枠
 70
   64
 62
    7
  6
CONTINUOUS
  0
LAYER
  2
_0-5_文字-記号
 70
   64
 62
    7
  6
CONTINUOUS
  0
LAYER
  2
ADD_LINE
 70
   64
 62
    7
  6
CONTINUOUS
  0
ENDTAB
  0
ENDSEC
  0
SECTION
  2
BLOCKS
  0
BLOCK
  2
-000-_Open30
 70
   64
 10
0
 20
0
 30
0
  0
LINE
  8
_0-0_0
  6
CONTINUOUS
 62
    7
 10
-2
 20
0.53589838
 11
0
 21
0
  0
LINE
  8
_0-0_0
  6
CONTINUOUS
 62
    7
 10
0
 20
0
 11
-2
 21
-0.53589838
  0
LINE
  8
_0-0_0
  6
CONTINUOUS
 62
    7
 10
0
 20
0
 11
-2
 21
0
  0
ENDBLK
  0
BLOCK
  2
-001-_D4
 70
   64
 10
0
 20
0
 30
0
  0
LINE
  8
_0-2_寸法
  6
CONTINUOUS
 62
    4
 10
165.10512256645308
 20
535.07386365409559
 11
150.25922856645309
 21
535.07386365409559
  0
LINE
  8
_0-2_寸法
  6
CONTINUOUS
 62
    4
 10
155.7719225664531
 20
541.74053165409543
 11
150.25922856645309
 21
541.74053165409543
  0
LINE
  8
_0-2_寸法
  6
CONTINUOUS
 62
    4
 10
150.25922856645309
 20
533.07386365409559
 11
150.25922856645309
 21
531.07386365409559
  0
LINE
  8
_0-2_寸法
  6
CONTINUOUS
 62
    4
 10
150.25922856645309
 20
543.74053165409543
 11
150.25922856645309
 21
545.74053165409543
  0
INSERT
  2
-000-_Open30
  8
_0-2_寸法
 10
150.25922856645309
 20
535.07386365409559
 41
1
 42
1
 50
90
  0
INSERT
  2
-000-_Open30
  8
_0-2_寸法
 10
150.25922856645309
 20
541.74053165409543
 41
1
 42
1
 50
270
  0
TEXT
  8
_0-2_寸法
 62
    7
 10
148.259228566453
 20
536.40719765409563
 40
4
 41
1
 50
90
  1
10
  0
POINT
  8
_0-1_Defpoints
 62
    7
 10
165.10512256645308
 20
535.07386365409559
  0
POINT
  8
_0-1_Defpoints
 62
    7
 10
155.7719225664531
 20
541.74053165409543
  0
POINT
  8
_0-1_Defpoints
 62
    7
 10
150.25922856645309
 20
541.74053165409543
  0
ENDBLK
  0
BLOCK
  2
-002-_D5
 70
   64
 10
0
 20
0
 30
0
  0
LINE
  8
_0-2_寸法
  6
CONTINUOUS
 62
    4
 10
155.7719225664531
 20
541.74053165409543
 11
150.25922856645309
 21
541.74053165409543
  0
LINE
  8
_0-2_寸法
  6
CONTINUOUS
 62
    4
 10
155.77193056645308
 20
558.40718965409565
 11
150.25922856645309
 21
558.40718965409565
  0
LINE
  8
_0-2_寸法
  6
CONTINUOUS
 62
    4
 10
150.25922856645309
 20
543.74053165409543
 11
150.25922856645309
 21
556.40718965409565
  0
INSERT
  2
-000-_Open30
  8
_0-2_寸法
 10
150.25922856645309
 20
541.74053165409543
 41
1
 42
1
 50
270
  0
INSERT
  2
-000-_Open30
  8
_0-2_寸法
 10
150.25922856645309
 20
558.40718965409565
 41
1
 42
1
 50
90
  0
TEXT
  8
_0-2_寸法
 62
    7
 10
148.259228566453
 20
548.0738606540956
 40
4
 41
1
 50
90
  1
25
  0
POINT
  8
_0-1_Defpoints
 62
    7
 10
155.7719225664531
 20
541.74053165409543
  0
POINT
  8
_0-1_Defpoints
 62
    7
 10
155.77193056645308
 20
558.40718965409565
  0
POINT
  8
_0-1_Defpoints
 62
    7
 10
150.25922856645309
 20
558.40718965409565
  0
ENDBLK
  0
BLOCK
  2
-003-_D6
 70
   64
 10
0
 20
0
 30
0
  0
LINE
  8
_0-2_寸法
  6
CONTINUOUS
 62
    4
 10
186.1052585664531
 20
512.06614165409565
 11
186.1052585664531
 21
493.72894365409559
  0
LINE
  8
_0-2_寸法
  6
CONTINUOUS
 62
    4
 10
209.438592566453
 20
501.40719765409563
 11
209.438592566453
 21
493.72894365409559
  0
LINE
  8
_0-2_寸法
  6
CONTINUOUS
 62
    4
 10
188.10525856645307
 20
493.72894365409559
 11
207.438592566453
 21
493.72894365409559
  0
INSERT
  2
-000-_Open30
  8
_0-2_寸法
 10
186.1052585664531
 20
493.72894365409559
 41
1
 42
1
 50
180
  0
INSERT
  2
-000-_Open30
  8
_0-2_寸法
 10
209.438592566453
 20
493.72894365409559
 41
1
 42
1
 50
0
  0
TEXT
  8
_0-2_寸法
 62
    7
 10
195.77192556645309
 20
495.72894365409559
 40
4
 41
1
 50
0
  1
35
  0
POINT
  8
_0-1_Defpoints
 62
    7
 10
186.1052585664531
 20
512.06614165409565
  0
POINT
  8
_0-1_Defpoints
 62
    7
 10
209.438592566453
 20
501.40719765409563
  0
POINT
  8
_0-1_Defpoints
 62
    7
 10
209.438592566453
 20
493.72894365409559
  0
ENDBLK
  0
BLOCK
  2
-004-_D7
 70
   64
 10
0
 20
0
 30
0
  0
LINE
  8
_0-2_寸法
  6
CONTINUOUS
 62
    4
 10
209.438592566453
 20
501.40719765409563
 11
209.438592566453
 21
493.72894365409559
  0
LINE
  8
_0-2_寸法
  6
CONTINUOUS
 62
    4
 10
242.771926566453
 20
501.40719765409563
 11
242.771926566453
 21
493.72894365409559
  0
LINE
  8
_0-2_寸法
  6
CONTINUOUS
 62
    4
 10
211.438592566453
 20
493.72894365409559
 11
240.771926566453
 21
493.72894365409559
  0
INSERT
  2
-000-_Open30
  8
_0-2_寸法
 10
209.438592566453
 20
493.72894365409559
 41
1
 42
1
 50
180
  0
INSERT
  2
-000-_Open30
  8
_0-2_寸法
 10
242.771926566453
 20
493.72894365409559
 41
1
 42
1
 50
0
  0
TEXT
  8
_0-2_寸法
 62
    7
 10
224.10525956645299
 20
495.72894365409559
 40
4
 41
1
 50
0
  1
50
  0
POINT
  8
_0-1_Defpoints
 62
    7
 10
209.438592566453
 20
501.40719765409563
  0
POINT
  8
_0-1_Defpoints
 62
    7
 10
242.771926566453
 20
501.40719765409563
  0
POINT
  8
_0-1_Defpoints
 62
    7
 10
242.771926566453
 20
493.72894365409559
  0
ENDBLK
  0
BLOCK
  2
-005-_D8
 70
   64
 10
0
 20
0
 30
0
  0
LINE
  8
_0-2_寸法
  6
CONTINUOUS
 62
    4
 10
242.771926566453
 20
501.40719765409563
 11
242.771926566453
 21
493.72894365409559
  0
LINE
  8
_0-2_寸法
  6
CONTINUOUS
 62
    4
 10
266.10525856645302
 20
512.06614165409565
 11
266.10525856645302
 21
493.72894365409559
  0
LINE
  8
_0-2_寸法
  6
CONTINUOUS
 62
    4
 10
244.771926566453
 20
493.72894365409559
 11
264.10525856645302
 21
493.72894365409559
  0
INSERT
  2
-000-_Open30
  8
_0-2_寸法
 10
242.771926566453
 20
493.72894365409559
 41
1
 42
1
 50
180
  0
INSERT
  2
-000-_Open30
  8
_0-2_寸法
 10
266.10525856645302
 20
493.72894365409559
 41
1
 42
1
 50
0
  0
TEXT
  8
_0-2_寸法
 62
    7
 10
252.438592566453
 20
495.72894365409559
 40
4
 41
1
 50
0
  1
35
  0
POINT
  8
_0-1_Defpoints
 62
    7
 10
242.771926566453
 20
501.40719765409563
  0
POINT
  8
_0-1_Defpoints
 62
    7
 10
266.10525856645302
 20
512.06614165409565
  0
POINT
  8
_0-1_Defpoints
 62
    7
 10
266.10525856645302
 20
493.72894365409559
  0
ENDBLK
  0
BLOCK
  2
-006-_D9
 70
   64
 10
0
 20
0
 30
0
  0
LINE
  8
_0-2_寸法
  6
CONTINUOUS
 62
    4
 10
169.43858856645312
 20
558.54053565409561
 11
169.43858856645312
 21
581.3343496540956
  0
LINE
  8
_0-2_寸法
  6
CONTINUOUS
 62
    4
 10
170.77190856645308
 20
558.74052365409557
 11
170.77190856645308
 21
581.3343496540956
  0
LINE
  8
_0-2_寸法
  6
CONTINUOUS
 62
    4
 10
167.43858856645315
 20
581.3343496540956
 11
165.43858856645309
 21
581.3343496540956
  0
LINE
  8
_0-2_寸法
  6
CONTINUOUS
 62
    4
 10
172.77190856645308
 20
581.3343496540956
 11
174.77190856645305
 21
581.3343496540956
  0
INSERT
  2
-000-_Open30
  8
_0-2_寸法
 10
169.43858856645312
 20
581.3343496540956
 41
1
 42
1
 50
0
  0
INSERT
  2
-000-_Open30
  8
_0-2_寸法
 10
170.77190856645308
 20
581.3343496540956
 41
1
 42
1
 50
180
  0
TEXT
  8
_0-2_寸法
 62
    7
 10
169.1052485664531
 20
583.3343496540956
 40
4
 41
1
 50
0
  1
2
  0
POINT
  8
_0-1_Defpoints
 62
    7
 10
169.43858856645312
 20
558.54053565409561
  0
POINT
  8
_0-1_Defpoints
 62
    7
 10
170.77190856645308
 20
558.74052365409557
  0
POINT
  8
_0-1_Defpoints
 62
    7
 10
170.77190856645308
 20
581.3343496540956
  0
ENDBLK
  0
BLOCK
  2
-007-_D10
 70
   64
 10
0
 20
0
 30
0
  0
LINE
  8
_0-2_寸法
  6
CONTINUOUS
 62
    4
 10
170.77190856645308
 20
558.74052365409557
 11
170.77190856645308
 21
581.3343496540956
  0
LINE
  8
_0-2_寸法
  6
CONTINUOUS
 62
    4
 10
210.105198566453
 20
558.74052365409557
 11
210.105198566453
 21
581.3343496540956
  0
LINE
  8
_0-2_寸法
  6
CONTINUOUS
 62
    4
 10
172.77190856645308
 20
581.3343496540956
 11
208.105198566453
 21
581.3343496540956
  0
INSERT
  2
-000-_Open30
  8
_0-2_寸法
 10
170.77190856645308
 20
581.3343496540956
 41
1
 42
1
 50
180
  0
INSERT
  2
-000-_Open30
  8
_0-2_寸法
 10
210.105198566453
 20
581.3343496540956
 41
1
 42
1
 50
0
  0
TEXT
  8
_0-2_寸法
 62
    7
 10
188.43855356645307
 20
583.3343496540956
 40
4
 41
1
 50
0
  1
59
  0
POINT
  8
_0-1_Defpoints
 62
    7
 10
170.77190856645308
 20
558.74052365409557
  0
POINT
  8
_0-1_Defpoints
 62
    7
 10
210.105198566453
 20
558.74052365409557
  0
POINT
  8
_0-1_Defpoints
 62
    7
 10
210.105198566453
 20
581.3343496540956
  0
ENDBLK
  0
BLOCK
  2
-008-_D11
 70
   64
 10
0
 20
0
 30
0
  0
LINE
  8
_0-2_寸法
  6
CONTINUOUS
 62
    4
 10
210.105198566453
 20
558.74052365409557
 11
210.105198566453
 21
581.3343496540956
  0
LINE
  8
_0-2_寸法
  6
CONTINUOUS
 62
    4
 10
242.105320566453
 20
558.74052365409557
 11
242.105320566453
 21
581.3343496540956
  0
LINE
  8
_0-2_寸法
  6
CONTINUOUS
 62
    4
 10
212.105198566453
 20
581.3343496540956
 11
240.105320566453
 21
581.3343496540956
  0
INSERT
  2
-000-_Open30
  8
_0-2_寸法
 10
210.105198566453
 20
581.3343496540956
 41
1
 42
1
 50
180
  0
INSERT
  2
-000-_Open30
  8
_0-2_寸法
 10
242.105320566453
 20
581.3343496540956
 41
1
 42
1
 50
0
  0
TEXT
  8
_0-2_寸法
 62
    7
 10
224.10525956645299
 20
583.3343496540956
 40
4
 41
1
 50
0
  1
48
  0
POINT
  8
_0-1_Defpoints
 62
    7
 10
210.105198566453
 20
558.74052365409557
  0
POINT
  8
_0-1_Defpoints
 62
    7
 10
242.105320566453
 20
558.74052365409557
  0
POINT
  8
_0-1_Defpoints
 62
    7
 10
242.105320566453
 20
581.3343496540956
  0
ENDBLK
  0
BLOCK
  2
-009-_D12
 70
   64
 10
0
 20
0
 30
0
  0
LINE
  8
_0-2_寸法
  6
CONTINUOUS
 62
    4
 10
169.43858856645312
 20
558.54053565409561
 11
169.43858856645312
 21
590.44764965409536
  0
LINE
  8
_0-2_寸法
  6
CONTINUOUS
 62
    4
 10
282.77192856645303
 20
558.54053565409561
 11
282.77192856645303
 21
590.44764965409536
  0
LINE
  8
_0-2_寸法
  6
CONTINUOUS
 62
    4
 10
171.43858856645312
 20
590.44764965409536
 11
280.77192856645303
 21
590.44764965409536
  0
INSERT
  2
-000-_Open30
  8
_0-2_寸法
 10
169.43858856645312
 20
590.44764965409536
 41
1
 42
1
 50
180
  0
INSERT
  2
-000-_Open30
  8
_0-2_寸法
 10
282.77192856645303
 20
590.44764965409536
 41
1
 42
1
 50
0
  0
TEXT
  8
_0-2_寸法
 62
    7
 10
223.10525856645299
 20
592.44764965409536
 40
4
 41
1
 50
0
  1
170
  0
POINT
  8
_0-1_Defpoints
 62
    7
 10
169.43858856645312
 20
558.54053565409561
  0
POINT
  8
_0-1_Defpoints
 62
    7
 10
282.77192856645303
 20
558.54053565409561
  0
POINT
  8
_0-1_Defpoints
 62
    7
 10
282.77192856645303
 20
590.44764965409536
  0
ENDBLK
  0
BLOCK
  2
-010-_D13
 70
   64
 10
0
 20
0
 30
0
  0
LINE
  8
_0-2_寸法
  6
CONTINUOUS
 62
    4
 10
242.105320566453
 20
558.74052365409557
 11
242.105320566453
 21
581.3343496540956
  0
LINE
  8
_0-2_寸法
  6
CONTINUOUS
 62
    4
 10
281.43861056645301
 20
558.74052365409557
 11
281.43861056645301
 21
581.3343496540956
  0
LINE
  8
_0-2_寸法
  6
CONTINUOUS
 62
    4
 10
244.105320566453
 20
581.3343496540956
 11
279.43861056645301
 21
581.3343496540956
  0
INSERT
  2
-000-_Open30
  8
_0-2_寸法
 10
242.105320566453
 20
581.3343496540956
 41
1
 42
1
 50
180
  0
INSERT
  2
-000-_Open30
  8
_0-2_寸法
 10
281.43861056645301
 20
581.3343496540956
 41
1
 42
1
 50
0
  0
TEXT
  8
_0-2_寸法
 62
    7
 10
259.77196556645299
 20
583.3343496540956
 40
4
 41
1
 50
0
  1
59
  0
POINT
  8
_0-1_Defpoints
 62
    7
 10
242.105320566453
 20
558.74052365409557
  0
POINT
  8
_0-1_Defpoints
 62
    7
 10
281.43861056645301
 20
558.74052365409557
  0
POINT
  8
_0-1_Defpoints
 62
    7
 10
281.43861056645301
 20
581.3343496540956
  0
ENDBLK
  0
BLOCK
  2
-011-_D14
 70
   64
 10
0
 20
0
 30
0
  0
LINE
  8
_0-2_寸法
  6
CONTINUOUS
 62
    4
 10
281.43861056645301
 20
558.74052365409557
 11
281.43861056645301
 21
581.3343496540956
  0
LINE
  8
_0-2_寸法
  6
CONTINUOUS
 62
    4
 10
282.77192856645303
 20
558.54053565409561
 11
282.77192856645303
 21
581.3343496540956
  0
LINE
  8
_0-2_寸法
  6
CONTINUOUS
 62
    4
 10
279.43861056645301
 20
581.3343496540956
 11
277.43861056645301
 21
581.3343496540956
  0
LINE
  8
_0-2_寸法
  6
CONTINUOUS
 62
    4
 10
284.77192856645303
 20
581.3343496540956
 11
286.77192856645303
 21
581.3343496540956
  0
INSERT
  2
-000-_Open30
  8
_0-2_寸法
 10
281.43861056645301
 20
581.3343496540956
 41
1
 42
1
 50
0
  0
INSERT
  2
-000-_Open30
  8
_0-2_寸法
 10
282.77192856645303
 20
581.3343496540956
 41
1
 42
1
 50
180
  0
TEXT
  8
_0-2_寸法
 62
    7
 10
281.10526956645299
 20
583.3343496540956
 40
4
 41
1
 50
0
  1
2
  0
POINT
  8
_0-1_Defpoints
 62
    7
 10
281.43861056645301
 20
558.74052365409557
  0
POINT
  8
_0-1_Defpoints
 62
    7
 10
282.77192856645303
 20
558.54053565409561
  0
POINT
  8
_0-1_Defpoints
 62
    7
 10
282.77192856645303
 20
581.3343496540956
  0
ENDBLK
  0
BLOCK
  2
-012-_D15
 70
   64
 10
0
 20
0
 30
0
  0
LINE
  8
_0-2_寸法
  6
CONTINUOUS
 62
    4
 10
475.99746256645301
 20
512.06614165409565
 11
475.99746256645301
 21
493.9853316540956
  0
LINE
  8
_0-2_寸法
  6
CONTINUOUS
 62
    4
 10
499.33079656645299
 20
501.40719765409563
 11
499.33079656645299
 21
493.9853316540956
  0
LINE
  8
_0-2_寸法
  6
CONTINUOUS
 62
    4
 10
477.99746256645301
 20
493.9853316540956
 11
497.33079656645299
 21
493.9853316540956
  0
INSERT
  2
-000-_Open30
  8
_0-2_寸法
 10
475.99746256645301
 20
493.9853316540956
 41
1
 42
1
 50
180
  0
INSERT
  2
-000-_Open30
  8
_0-2_寸法
 10
499.33079656645299
 20
493.9853316540956
 41
1
 42
1
 50
0
  0
TEXT
  8
_0-2_寸法
 62
    7
 10
485.66412956645303
 20
495.9853316540956
 40
4
 41
1
 50
0
  1
35
  0
POINT
  8
_0-1_Defpoints
 62
    7
 10
475.99746256645301
 20
512.06614165409565
  0
POINT
  8
_0-1_Defpoints
 62
    7
 10
499.33079656645299
 20
501.40719765409563
  0
POINT
  8
_0-1_Defpoints
 62
    7
 10
499.33079656645299
 20
493.9853316540956
  0
ENDBLK
  0
BLOCK
  2
-013-_D16
 70
   64
 10
0
 20
0
 30
0
  0
LINE
  8
_0-2_寸法
  6
CONTINUOUS
 62
    4
 10
499.33079656645299
 20
501.40719765409563
 11
499.33079656645299
 21
493.9853316540956
  0
LINE
  8
_0-2_寸法
  6
CONTINUOUS
 62
    4
 10
532.66413056645297
 20
501.40719765409563
 11
532.66413056645297
 21
493.9853316540956
  0
LINE
  8
_0-2_寸法
  6
CONTINUOUS
 62
    4
 10
501.33079656645299
 20
493.9853316540956
 11
530.66413056645297
 21
493.9853316540956
  0
INSERT
  2
-000-_Open30
  8
_0-2_寸法
 10
499.33079656645299
 20
493.9853316540956
 41
1
 42
1
 50
180
  0
INSERT
  2
-000-_Open30
  8
_0-2_寸法
 10
532.66413056645297
 20
493.9853316540956
 41
1
 42
1
 50
0
  0
TEXT
  8
_0-2_寸法
 62
    7
 10
513.99746356645301
 20
495.9853316540956
 40
4
 41
1
 50
0
  1
50
  0
POINT
  8
_0-1_Defpoints
 62
    7
 10
499.33079656645299
 20
501.40719765409563
  0
POINT
  8
_0-1_Defpoints
 62
    7
 10
532.66413056645297
 20
501.40719765409563
  0
POINT
  8
_0-1_Defpoints
 62
    7
 10
532.66413056645297
 20
493.9853316540956
  0
ENDBLK
  0
BLOCK
  2
-014-_D17
 70
   64
 10
0
 20
0
 30
0
  0
LINE
  8
_0-2_寸法
  6
CONTINUOUS
 62
    4
 10
454.99732656645301
 20
535.07386365409559
 11
438.84534856645303
 21
535.07386365409559
  0
LINE
  8
_0-2_寸法
  6
CONTINUOUS
 62
    4
 10
445.66412656645298
 20
541.74053165409543
 11
438.84534856645303
 21
541.74053165409543
  0
LINE
  8
_0-2_寸法
  6
CONTINUOUS
 62
    4
 10
438.84534856645303
 20
533.07386365409559
 11
438.84534856645303
 21
531.07386365409559
  0
LINE
  8
_0-2_寸法
  6
CONTINUOUS
 62
    4
 10
438.84534856645303
 20
543.74053165409543
 11
438.84534856645303
 21
545.74053165409543
  0
INSERT
  2
-000-_Open30
  8
_0-2_寸法
 10
438.84534856645303
 20
535.07386365409559
 41
1
 42
1
 50
90
  0
INSERT
  2
-000-_Open30
  8
_0-2_寸法
 10
438.84534856645303
 20
541.74053165409543
 41
1
 42
1
 50
270
  0
TEXT
  8
_0-2_寸法
 62
    7
 10
436.84534856645303
 20
536.40719765409563
 40
4
 41
1
 50
90
  1
10
  0
POINT
  8
_0-1_Defpoints
 62
    7
 10
454.99732656645301
 20
535.07386365409559
  0
POINT
  8
_0-1_Defpoints
 62
    7
 10
445.66412656645298
 20
541.74053165409543
  0
POINT
  8
_0-1_Defpoints
 62
    7
 10
438.84534856645303
 20
541.74053165409543
  0
ENDBLK
  0
BLOCK
  2
-015-_D18
 70
   64
 10
0
 20
0
 30
0
  0
LINE
  8
_0-2_寸法
  6
CONTINUOUS
 62
    4
 10
445.66412656645298
 20
541.74053165409543
 11
438.84534856645303
 21
541.74053165409543
  0
LINE
  8
_0-2_寸法
  6
CONTINUOUS
 62
    4
 10
445.66413456645301
 20
558.40718965409565
 11
438.84534856645303
 21
558.40718965409565
  0
LINE
  8
_0-2_寸法
  6
CONTINUOUS
 62
    4
 10
438.84534856645303
 20
543.74053165409543
 11
438.84534856645303
 21
556.40718965409565
  0
INSERT
  2
-000-_Open30
  8
_0-2_寸法
 10
438.84534856645303
 20
541.74053165409543
 41
1
 42
1
 50
270
  0
INSERT
  2
-000-_Open30
  8
_0-2_寸法
 10
438.84534856645303
 20
558.40718965409565
 41
1
 42
1
 50
90
  0
TEXT
  8
_0-2_寸法
 62
    7
 10
436.84534856645303
 20
548.0738606540956
 40
4
 41
1
 50
90
  1
25
  0
POINT
  8
_0-1_Defpoints
 62
    7
 10
445.66412656645298
 20
541.74053165409543
  0
POINT
  8
_0-1_Defpoints
 62
    7
 10
445.66413456645301
 20
558.40718965409565
  0
POINT
  8
_0-1_Defpoints
 62
    7
 10
438.84534856645303
 20
558.40718965409565
  0
ENDBLK
  0
BLOCK
  2
-016-_D19
 70
   64
 10
0
 20
0
 30
0
  0
LINE
  8
_0-2_寸法
  6
CONTINUOUS
 62
    4
 10
445.66413456645301
 20
558.40718965409565
 11
438.84534856645303
 21
558.40718965409565
  0
LINE
  8
_0-2_寸法
  6
CONTINUOUS
 62
    4
 10
520.99745456645303
 20
595.07386765409558
 11
438.84534856645303
 21
595.07386765409558
  0
LINE
  8
_0-2_寸法
  6
CONTINUOUS
 62
    4
 10
438.84534856645303
 20
560.40718965409565
 11
438.84534856645303
 21
593.07386765409558
  0
INSERT
  2
-000-_Open30
  8
_0-2_寸法
 10
438.84534856645303
 20
558.40718965409565
 41
1
 42
1
 50
270
  0
INSERT
  2
-000-_Open30
  8
_0-2_寸法
 10
438.84534856645303
 20
595.07386765409558
 41
1
 42
1
 50
90
  0
TEXT
  8
_0-2_寸法
 62
    7
 10
436.84534856645303
 20
574.74052865409578
 40
4
 41
1
 50
90
  1
55
  0
POINT
  8
_0-1_Defpoints
 62
    7
 10
445.66413456645301
 20
558.40718965409565
  0
POINT
  8
_0-1_Defpoints
 62
    7
 10
520.99745456645303
 20
595.07386765409558
  0
POINT
  8
_0-1_Defpoints
 62
    7
 10
438.84534856645303
 20
595.07386765409558
  0
ENDBLK
  0
BLOCK
  2
-017-_D20
 70
   64
 10
0
 20
0
 30
0
  0
LINE
  8
_0-2_寸法
  6
CONTINUOUS
 62
    4
 10
459.330792566453
 20
558.74052365409557
 11
459.330792566453
 21
602.10681565409539
  0
LINE
  8
_0-2_寸法
  6
CONTINUOUS
 62
    4
 10
460.66411256645301
 20
558.07385565409561
 11
460.66411256645301
 21
602.10681565409539
  0
LINE
  8
_0-2_寸法
  6
CONTINUOUS
 62
    4
 10
457.330792566453
 20
602.10681565409539
 11
455.330792566453
 21
602.10681565409539
  0
LINE
  8
_0-2_寸法
  6
CONTINUOUS
 62
    4
 10
462.66411256645301
 20
602.10681565409539
 11
464.66411256645301
 21
602.10681565409539
  0
INSERT
  2
-000-_Open30
  8
_0-2_寸法
 10
459.330792566453
 20
602.10681565409539
 41
1
 42
1
 50
0
  0
INSERT
  2
-000-_Open30
  8
_0-2_寸法
 10
460.66411256645301
 20
602.10681565409539
 41
1
 42
1
 50
180
  0
TEXT
  8
_0-2_寸法
 62
    7
 10
458.99745256645298
 20
604.10681565409539
 40
4
 41
1
 50
0
  1
2
  0
POINT
  8
_0-1_Defpoints
 62
    7
 10
459.330792566453
 20
558.74052365409557
  0
POINT
  8
_0-1_Defpoints
 62
    7
 10
460.66411256645301
 20
558.07385565409561
  0
POINT
  8
_0-1_Defpoints
 62
    7
 10
460.66411256645301
 20
602.10681565409539
  0
ENDBLK
  0
BLOCK
  2
-018-_D21
 70
   64
 10
0
 20
0
 30
0
  0
LINE
  8
_0-2_寸法
  6
CONTINUOUS
 62
    4
 10
460.66411256645301
 20
558.07385565409561
 11
460.66411256645301
 21
602.10681565409539
  0
LINE
  8
_0-2_寸法
  6
CONTINUOUS
 62
    4
 10
499.99740256645299
 20
558.0738576540956
 11
499.99740256645299
 21
602.10681565409539
  0
LINE
  8
_0-2_寸法
  6
CONTINUOUS
 62
    4
 10
462.66411256645301
 20
602.10681565409539
 11
497.99740256645299
 21
602.10681565409539
  0
INSERT
  2
-000-_Open30
  8
_0-2_寸法
 10
460.66411256645301
 20
602.10681565409539
 41
1
 42
1
 50
180
  0
INSERT
  2
-000-_Open30
  8
_0-2_寸法
 10
499.99740256645299
 20
602.10681565409539
 41
1
 42
1
 50
0
  0
TEXT
  8
_0-2_寸法
 62
    7
 10
478.33075756645297
 20
604.10681565409539
 40
4
 41
1
 50
0
  1
59
  0
POINT
  8
_0-1_Defpoints
 62
    7
 10
460.66411256645301
 20
558.07385565409561
  0
POINT
  8
_0-1_Defpoints
 62
    7
 10
499.99740256645299
 20
558.0738576540956
  0
POINT
  8
_0-1_Defpoints
 62
    7
 10
499.99740256645299
 20
602.10681565409539
  0
ENDBLK
  0
BLOCK
  2
-019-_D22
 70
   64
 10
0
 20
0
 30
0
  0
LINE
  8
_0-2_寸法
  6
CONTINUOUS
 62
    4
 10
499.99740256645299
 20
558.0738576540956
 11
499.99740256645299
 21
602.10681565409539
  0
LINE
  8
_0-2_寸法
  6
CONTINUOUS
 62
    4
 10
520.66413056645297
 20
594.74053365409554
 11
520.66413056645297
 21
602.10681565409539
  0
LINE
  8
_0-2_寸法
  6
CONTINUOUS
 62
    4
 10
501.99740256645299
 20
602.10681565409539
 11
518.66413056645297
 21
602.10681565409539
  0
INSERT
  2
-000-_Open30
  8
_0-2_寸法
 10
499.99740256645299
 20
602.10681565409539
 41
1
 42
1
 50
180
  0
INSERT
  2
-000-_Open30
  8
_0-2_寸法
 10
520.66413056645297
 20
602.10681565409539
 41
1
 42
1
 50
0
  0
TEXT
  8
_0-2_寸法
 62
    7
 10
508.33076656645301
 20
604.10681565409539
 40
4
 41
1
 50
0
  1
31
  0
POINT
  8
_0-1_Defpoints
 62
    7
 10
499.99740256645299
 20
558.0738576540956
  0
POINT
  8
_0-1_Defpoints
 62
    7
 10
520.66413056645297
 20
594.74053365409554
  0
POINT
  8
_0-1_Defpoints
 62
    7
 10
520.66413056645297
 20
602.10681565409539
  0
ENDBLK
  0
BLOCK
  2
-020-_D23
 70
   64
 10
0
 20
0
 30
0
  0
LINE
  8
_0-2_寸法
  6
CONTINUOUS
 62
    4
 10
520.66413056645297
 20
594.74053365409554
 11
520.66413056645297
 21
602.10681565409539
  0
LINE
  8
_0-2_寸法
  6
CONTINUOUS
 62
    4
 10
532.66413056645297
 20
600.66694365409535
 11
532.66413056645297
 21
602.10681565409539
  0
LINE
  8
_0-2_寸法
  6
CONTINUOUS
 62
    4
 10
522.66413056645297
 20
602.10681565409539
 11
530.66413056645297
 21
602.10681565409539
  0
INSERT
  2
-000-_Open30
  8
_0-2_寸法
 10
520.66413056645297
 20
602.10681565409539
 41
1
 42
1
 50
180
  0
INSERT
  2
-000-_Open30
  8
_0-2_寸法
 10
532.66413056645297
 20
602.10681565409539
 41
1
 42
1
 50
0
  0
TEXT
  8
_0-2_寸法
 62
    7
 10
524.66413056645297
 20
604.10681565409539
 40
4
 41
1
 50
0
  1
18
  0
POINT
  8
_0-1_Defpoints
 62
    7
 10
520.66413056645297
 20
594.74053365409554
  0
POINT
  8
_0-1_Defpoints
 62
    7
 10
532.66413056645297
 20
600.66694365409535
  0
POINT
  8
_0-1_Defpoints
 62
    7
 10
532.66413056645297
 20
602.10681565409539
  0
ENDBLK
  0
BLOCK
  2
-021-_D24
 70
   64
 10
0
 20
0
 30
0
  0
LINE
  8
_0-2_寸法
  6
CONTINUOUS
 62
    4
 10
532.66413056645297
 20
600.66694365409535
 11
532.66413056645297
 21
611.81563565409544
  0
LINE
  8
_0-2_寸法
  6
CONTINUOUS
 62
    4
 10
459.330792566453
 20
558.74052365409557
 11
459.330792566453
 21
611.81563565409544
  0
LINE
  8
_0-2_寸法
  6
CONTINUOUS
 62
    4
 10
530.66413056645297
 20
611.81563565409544
 11
461.330792566453
 21
611.81563565409544
  0
INSERT
  2
-000-_Open30
  8
_0-2_寸法
 10
532.66413056645297
 20
611.81563565409544
 41
1
 42
1
 50
0
  0
INSERT
  2
-000-_Open30
  8
_0-2_寸法
 10
459.330792566453
 20
611.81563565409544
 41
1
 42
1
 50
180
  0
TEXT
  8
_0-2_寸法
 62
    7
 10
492.99746156645301
 20
613.81563565409544
 40
4
 41
1
 50
0
  1
110
  0
POINT
  8
_0-1_Defpoints
 62
    7
 10
532.66413056645297
 20
600.66694365409535
  0
POINT
  8
_0-1_Defpoints
 62
    7
 10
459.330792566453
 20
558.74052365409557
  0
POINT
  8
_0-1_Defpoints
 62
    7
 10
459.330792566453
 20
611.81563565409544
  0
ENDBLK
  0
BLOCK
  2
-022-_D25
 70
   64
 10
0
 20
0
 30
0
  0
LINE
  8
_0-2_寸法
  6
CONTINUOUS
 62
    4
 10
499.66413056645303
 20
541.74053165409543
 11
568.86458056645279
 21
541.74053165409543
  0
LINE
  8
_0-2_寸法
  6
CONTINUOUS
 62
    4
 10
562.33851856645299
 20
573.74053165409543
 11
568.86458056645279
 21
573.74053165409543
  0
LINE
  8
_0-2_寸法
  6
CONTINUOUS
 62
    4
 10
568.86458056645279
 20
543.74053165409543
 11
568.86458056645279
 21
571.74053165409543
  0
INSERT
  2
-000-_Open30
  8
_0-2_寸法
 10
568.86458056645279
 20
541.74053165409543
 41
1
 42
1
 50
270
  0
INSERT
  2
-000-_Open30
  8
_0-2_寸法
 10
568.86458056645279
 20
573.74053165409543
 41
1
 42
1
 50
90
  0
TEXT
  8
_0-2_寸法
 62
    7
 10
566.86458056645279
 20
555.74053165409555
 40
4
 41
1
 50
90
  1
48
  0
POINT
  8
_0-1_Defpoints
 62
    7
 10
499.66413056645303
 20
541.74053165409543
  0
POINT
  8
_0-1_Defpoints
 62
    7
 10
562.33851856645299
 20
573.74053165409543
  0
POINT
  8
_0-1_Defpoints
 62
    7
 10
568.86458056645279
 20
573.74053165409543
  0
ENDBLK
  0
BLOCK
  2
-023-_D26
 70
   64
 10
0
 20
0
 30
0
  0
LINE
  8
_0-2_寸法
  6
CONTINUOUS
 62
    4
 10
524.66413056645297
 20
547.40719765409563
 11
524.66413056645297
 21
534.72122165409564
  0
LINE
  8
_0-2_寸法
  6
CONTINUOUS
 62
    4
 10
522.66413056645297
 20
534.72122165409564
 11
520.66413056645297
 21
534.72122165409564
  0
LINE
  8
_0-2_寸法
  6
CONTINUOUS
 62
    4
 10
534.66413056645297
 20
534.72122165409564
 11
536.66413056645297
 21
534.72122165409564
  0
INSERT
  2
-000-_Open30
  8
_0-2_寸法
 10
524.66413056645297
 20
534.72122165409564
 41
1
 42
1
 50
0
  0
INSERT
  2
-000-_Open30
  8
_0-2_寸法
 10
532.66413056645297
 20
534.72122165409564
 41
1
 42
1
 50
180
  0
TEXT
  8
_0-2_寸法
 62
    7
 10
526.66413056645297
 20
536.72122165409564
 40
4
 41
1
 50
0
  1
12
  0
POINT
  8
_0-1_Defpoints
 62
    7
 10
524.66413056645297
 20
547.40719765409563
  0
POINT
  8
_0-1_Defpoints
 62
    7
 10
532.66413056645297
 20
534.72122165409564
  0
POINT
  8
_0-1_Defpoints
 62
    7
 10
532.66413056645297
 20
534.72122165409564
  0
ENDBLK
  0
ENDSEC
  0
SECTION
  2
ENTITIES
  0
LINE
  8
_0-4_図面枠
  6
CONTINUOUS
 62
    1
 10
345.46745549999997
 20
241.41628449999996
 11
74.532544500000029
 21
241.41628449999996
  0
LINE
  8
_0-4_図面枠
  6
CONTINUOUS
 62
    1
 10
74.532544500000029
 20
55.583715500000068
 11
345.46745549999997
 21
55.583715500000068
  0
LINE
  8
_0-4_図面枠
  6
CONTINUOUS
 62
    1
 10
74.548677500000025
 20
241.41628449999996
 11
74.548677500000025
 21
55.583715500000068
  0
LINE
  8
_0-4_図面枠
  6
CONTINUOUS
 62
    1
 10
190.61170749999999
 20
90.587006500000086
 11
93.945036500000043
 21
90.587006500000086
  0
LINE
  8
_0-4_図面枠
  6
CONTINUOUS
 62
    1
 10
190.61170749999999
 20
133.78700850000007
 11
93.945036500000043
 21
133.78700850000007
  0
LINE
  8
_0-4_図面枠
  6
CONTINUOUS
 62
    1
 10
190.61170749999999
 20
126.58700750000008
 11
93.945036500000043
 21
126.58700750000008
  0
TEXT
  8
_0-4_図面枠
 62
    7
 10
99.545044500000031
 20
123.38699850000009
 40
2
 41
0.8
 50
0
  1
ＴＴＦサイドプレート（Ａ）
  0
TEXT
  8
_0-4_図面枠
 62
    7
 10
112.11837183333337
 20
130.58701850000008
 40
2
 41
0.8
 50
0
  1
部材名称
  0
LINE
  8
_0-4_図面枠
  6
CONTINUOUS
 62
    1
 10
190.61170749999999
 20
94.587006500000086
 11
93.945036500000043
 21
94.587006500000086
  0
TEXT
  8
_0-4_図面枠
 62
    7
 10
99.545044500000031
 20
119.38701350000008
 40
2
 41
0.8
 50
0
  1
ＴＴＦセンタープレート（Ａ）
  0
TEXT
  8
_0-4_図面枠
 62
    7
 10
99.545044500000031
 20
115.38701350000008
 40
2
 41
0.8
 50
0
  1
ＴＴＦフレーム（Ａ）
  0
TEXT
  8
_0-4_図面枠
 62
    7
 10
99.545044500000031
 20
107.38700650000007
 40
2
 41
0.8
 50
0
  1
ステンドリリングねじ
  0
TEXT
  8
_0-4_図面枠
 62
    7
 10
99.545044500000031
 20
99.38701350000008
 40
2
 41
0.8
 50
0
  1
ステンタッピンねじ
  0
TEXT
  8
_0-4_図面枠
 62
    7
 10
99.545044500000031
 20
95.38701350000008
 40
2
 41
0.8
 50
0
  1
ステンワッシャー
  0
LINE
  8
_0-4_図面枠
  6
CONTINUOUS
 62
    2
 10
190.61170749999999
 20
122.58700750000008
 11
93.945036500000043
 21
122.58700750000008
  0
LINE
  8
_0-4_図面枠
  6
CONTINUOUS
 62
    2
 10
190.61170749999999
 20
118.58700749999997
 11
93.945036500000043
 21
118.58700749999997
  0
LINE
  8
_0-4_図面枠
  6
CONTINUOUS
 62
    2
 10
190.61170749999999
 20
114.58700749999997
 11
93.945036500000043
 21
114.58700749999997
  0
LINE
  8
_0-4_図面枠
  6
CONTINUOUS
 62
    2
 10
190.61170749999999
 20
110.58700749999997
 11
93.945036500000043
 21
110.58700749999997
  0
LINE
  8
_0-4_図面枠
  6
CONTINUOUS
 62
    2
 10
190.61170749999999
 20
106.58700649999997
 11
93.945036500000043
 21
106.58700649999997
  0
LINE
  8
_0-4_図面枠
  6
CONTINUOUS
 62
    2
 10
190.61170749999999
 20
102.58700650000009
 11
93.945036500000043
 21
102.58700650000009
  0
LINE
  8
_0-4_図面枠
  6
CONTINUOUS
 62
    2
 10
190.61170749999999
 20
98.587006500000086
 11
93.945036500000043
 21
98.587006500000086
  0
LINE
  8
_0-4_図面枠
  6
CONTINUOUS
 62
    1
 10
93.945036500000043
 20
90.587006500000086
 11
93.945036500000043
 21
133.78700850000007
  0
LINE
  8
_0-4_図面枠
  6
CONTINUOUS
 62
    1
 10
98.745036500000026
 20
90.587006500000086
 11
98.745036500000026
 21
133.78700850000007
  0
TEXT
  8
_0-4_図面枠
 62
    7
 10
99.545044500000031
 20
103.38701050000009
 40
2
 41
0.8
 50
0
  1
アンカープラグ
  0
TEXT
  8
_0-4_図面枠
 62
    7
 10
99.545029500000027
 20
91.387010500000088
 40
2
 41
0.8
 50
0
  1
ブチルテープ
  0
TEXT
  8
_0-4_図面枠
 62
    7
 10
97.106804166666691
 20
91.387010500000088
 40
2
 41
0.8
 50
0
  1
※
  0
TEXT
  8
_0-4_図面枠
 62
    7
 10
97.106804166666691
 20
95.38701350000008
 40
2
 41
0.8
 50
0
  1
８
  0
TEXT
  8
_0-4_図面枠
 62
    7
 10
97.000137500000022
 20
99.387006500000069
 40
2
 41
0.8
 50
0
  1
７
  0
TEXT
  8
_0-4_図面枠
 62
    7
 10
97.106804166666691
 20
103.38701050000009
 40
2
 41
0.8
 50
0
  1
６
  0
TEXT
  8
_0-4_図面枠
 62
    7
 10
99.545044500000031
 20
111.38701350000008
 40
2
 41
0.8
 50
0
  1
止水補助板
  0
TEXT
  8
_0-4_図面枠
 62
    7
 10
97.106804166666691
 20
107.38701349999997
 40
2
 41
0.8
 50
0
  1
５
  0
TEXT
  8
_0-4_図面枠
 62
    7
 10
97.000137500000022
 20
111.38700650000007
 40
2
 41
0.8
 50
0
  1
４
  0
TEXT
  8
_0-4_図面枠
 62
    7
 10
97.106804166666691
 20
115.38701350000008
 40
2
 41
0.8
 50
0
  1
３
  0
TEXT
  8
_0-4_図面枠
 62
    7
 10
97.106804166666691
 20
119.38701350000008
 40
2
 41
0.8
 50
0
  1
２
  0
TEXT
  8
_0-4_図面枠
 62
    7
 10
95.400137500000028
 20
123.38699850000009
 40
2
 41
0.8
 50
0
  1
　１
  0
LINE
  8
_0-4_図面枠
  6
CONTINUOUS
 62
    1
 10
135.0783715
 20
90.587006500000086
 11
135.0783715
 21
133.78700850000007
  0
TEXT
  8
_0-4_図面枠
 62
    7
 10
135.87837349999998
 20
103.38701050000009
 40
2
 41
0.8
 50
0
  1
フィッシャープラグ　Ｓ８
  0
TEXT
  8
_0-4_図面枠
 62
    7
 10
135.87837349999998
 20
107.38700650000007
 40
2
 41
0.8
 50
0
  1
皿４×１６
  0
TEXT
  8
_0-4_図面枠
 62
    7
 10
135.87837349999998
 20
99.38701350000008
 40
2
 41
0.8
 50
0
  1
なべ５×５０
  0
TEXT
  8
_0-4_図面枠
 62
    7
 10
135.87837349999998
 20
95.38701350000008
 40
2
 41
0.8
 50
0
  1
１．５×１８×５．５穴
  0
TEXT
  8
_0-4_図面枠
 62
    7
 10
135.87837349999998
 20
91.387010500000088
 40
2
 41
0.8
 50
0
  1
ｔ１．０×ｗ３０
  0
TEXT
  8
_0-4_図面枠
 62
    7
 10
135.87837349999998
 20
111.38700650000007
 40
2
 41
0.8
 50
0
  1
ＦＳ２００
  0
TEXT
  8
_0-4_図面枠
 62
    7
 10
148.52615983333328
 20
130.58701850000008
 40
2
 41
0.8
 50
0
  1
規　格
  0
LINE
  8
_0-4_図面枠
  6
CONTINUOUS
 62
    1
 10
167.41170649999998
 20
90.587006500000086
 11
167.41170649999998
 21
133.78700850000007
  0
LINE
  8
_0-4_図面枠
  6
CONTINUOUS
 62
    1
 10
179.41170749999998
 20
90.587006500000086
 11
179.41170749999998
 21
133.78700850000007
  0
LINE
  8
_0-4_図面枠
  6
CONTINUOUS
 62
    1
 10
185.81170749999998
 20
90.587006500000086
 11
185.81170749999998
 21
133.78700850000007
  0
LINE
  8
_0-4_図面枠
  6
CONTINUOUS
 62
    1
 10
190.61170749999999
 20
90.587006500000086
 11
190.61170749999999
 21
133.78700850000007
  0
TEXT
  8
_0-4_図面枠
 62
    7
 10
169.83836516666668
 20
91.38701350000008
 40
2
 41
0.8
 50
0
  1
６０００
  0
TEXT
  8
_0-4_図面枠
 62
    7
 10
183.65171049999998
 20
91.387010500000088
 40
2
 41
0.8
 50
0
  1
１
  0
TEXT
  8
_0-4_図面枠
 62
    7
 10
181.51836216666669
 20
95.38701350000008
 40
2
 41
0.8
 50
0
  1
１２
  0
TEXT
  8
_0-4_図面枠
 62
    7
 10
181.51836216666669
 20
99.38701350000008
 40
2
 41
0.8
 50
0
  1
１２
  0
TEXT
  8
_0-4_図面枠
 62
    7
 10
181.51836216666669
 20
103.38701050000009
 40
2
 41
0.8
 50
0
  1
１２
  0
TEXT
  8
_0-4_図面枠
 62
    7
 10
169.83836516666668
 20
111.38701350000008
 40
2
 41
0.8
 50
0
  1
３１００
  0
TEXT
  8
_0-4_図面枠
 62
    7
 10
169.83836516666668
 20
119.38701350000008
 40
2
 41
0.8
 50
0
  1
３０００
  0
TEXT
  8
_0-4_図面枠
 62
    7
 10
169.83836516666668
 20
115.38701350000008
 40
2
 41
0.8
 50
0
  1
３０００
  0
TEXT
  8
_0-4_図面枠
 62
    7
 10
181.41169549999998
 20
107.38700650000007
 40
2
 41
0.8
 50
0
  1
２４
  0
TEXT
  8
_0-4_図面枠
 62
    7
 10
183.65169549999999
 20
111.38701350000008
 40
2
 41
0.8
 50
0
  1
１
  0
TEXT
  8
_0-4_図面枠
 62
    7
 10
183.43836216666659
 20
115.38701350000008
 40
2
 41
0.8
 50
0
  1
２
  0
TEXT
  8
_0-4_図面枠
 62
    7
 10
183.65169549999999
 20
119.38701350000008
 40
2
 41
0.8
 50
0
  1
１
  0
TEXT
  8
_0-4_図面枠
 62
    7
 10
187.46504283333329
 20
91.387010500000088
 40
2
 41
0.8
 50
0
  1
巻
  0
TEXT
  8
_0-4_図面枠
 62
    7
 10
187.46504283333329
 20
95.38701350000008
 40
2
 41
0.8
 50
0
  1
枚
  0
TEXT
  8
_0-4_図面枠
 62
    7
 10
187.46504283333329
 20
99.38701350000008
 40
2
 41
0.8
 50
0
  1
〃
  0
TEXT
  8
_0-4_図面枠
 62
    7
 10
187.46504283333329
 20
103.38701050000009
 40
2
 41
0.8
 50
0
  1
〃
  0
TEXT
  8
_0-4_図面枠
 62
    7
 10
187.46504283333329
 20
107.38700650000007
 40
2
 41
0.8
 50
0
  1
本
  0
TEXT
  8
_0-4_図面枠
 62
    7
 10
187.46504283333329
 20
111.38701350000008
 40
2
 41
0.8
 50
0
  1
枚
  0
TEXT
  8
_0-4_図面枠
 62
    7
 10
187.46504283333329
 20
115.38701350000008
 40
2
 41
0.8
 50
0
  1
〃
  0
TEXT
  8
_0-4_図面枠
 62
    7
 10
187.46504283333329
 20
119.38701350000008
 40
2
 41
0.8
 50
0
  1
〃
  0
TEXT
  8
_0-4_図面枠
 62
    7
 10
170.74503183333329
 20
130.58701850000008
 40
2
 41
0.8
 50
0
  1
定　尺
  0
TEXT
  8
_0-4_図面枠
 62
    7
 10
169.78503183333328
 20
127.38701350000008
 40
2
 41
0.8
 50
0
  1
（ｍｍ）
  0
TEXT
  8
_0-4_図面枠
 62
    7
 10
169.83836516666668
 20
123.38699850000009
 40
2
 41
0.8
 50
0
  1
３０００
  0
TEXT
  8
_0-4_図面枠
 62
    7
 10
180.95836216666657
 20
130.58701850000008
 40
2
 41
0.8
 50
0
  1
使用
  0
TEXT
  8
_0-4_図面枠
 62
    7
 10
180.90502883333329
 20
127.38701350000008
 40
2
 41
0.8
 50
0
  1
数量
  0
TEXT
  8
_0-4_図面枠
 62
    7
 10
183.43836216666659
 20
123.38699850000009
 40
2
 41
0.8
 50
0
  1
２
  0
TEXT
  8
_0-4_図面枠
 62
    7
 10
186.33493783333327
 20
130.58701850000008
 40
2
 41
0.8
 50
0
  1
単位
  0
TEXT
  8
_0-4_図面枠
 62
    7
 10
187.46504283333329
 20
123.38699850000009
 40
2
 41
0.8
 50
0
  1
本
  0
LINE
  8
_0-3_躯体と製品
  6
CONTINUOUS
 62
    3
 10
114.09616350000005
 20
173.10349350000007
 11
117.42949650000003
 21
176.43682749999999
  0
LINE
  8
_0-3_躯体と製品
  6
CONTINUOUS
 62
    3
 10
115.51037650000004
 20
173.10349350000007
 11
118.84371050000004
 21
176.43682749999999
  0
LINE
  8
_0-3_躯体と製品
  6
CONTINUOUS
 62
    3
 10
116.92459050000002
 20
173.10349350000007
 11
120.25792350000003
 21
176.43682749999999
  0
TEXT
  8
_0-4_図面枠
 62
    7
 10
81.616572500000018
 20
229.7886865000001
 40
2
 41
0.8
 50
0
  1
◇床－床（５０ＴＴＦ－Ａ）　Ｓ＝１／３
  0
CIRCLE
  8
_0-5_文字-記号
  6
CONTINUOUS
 62
    3
 10
115.69780750000004
 20
165.7047305000001
 40
2
  0
LINE
  8
_0-5_文字-記号
  6
CONTINUOUS
 62
    3
 10
122.27837150000003
 20
177.10260150000005
 11
116.69780750000004
 21
167.4367805
  0
CIRCLE
  8
_0-5_文字-記号
  6
CONTINUOUS
 62
    3
 10
117.76411050000003
 20
158.24008849999998
 40
2
  0
LINE
  8
_0-3_躯体と製品
  6
CONTINUOUS
 62
    2
 10
111.94496950000003
 20
173.10349350000007
 11
133.94503849999998
 21
173.10349350000007
  0
LINE
  8
_0-3_躯体と製品
  6
CONTINUOUS
 62
    2
 10
116.11169250000003
 20
177.43682949999999
 11
122.17837150000004
 21
177.43683649999997
  0
LINE
  8
_0-3_躯体と製品
  6
CONTINUOUS
 62
    2
 10
115.94506950000003
 20
183.77016050000009
 11
117.01170350000002
 21
183.77016050000009
  0
LINE
  8
_0-3_躯体と製品
  6
CONTINUOUS
 62
    2
 10
133.94503849999998
 20
176.43682749999999
 11
107.27837050000001
 21
176.43682749999999
  0
LINE
  8
_0-3_躯体と製品
  6
CONTINUOUS
 62
    2
 10
118.94502950000003
 20
184.10349049999996
 11
115.44502950000003
 21
184.10349049999996
  0
LINE
  8
_0-3_躯体と製品
  6
CONTINUOUS
 62
    2
 10
114.94502950000003
 20
184.7701565000001
 11
117.01169450000005
 21
184.77016449999996
  0
LINE
  8
_0-3_躯体と製品
  6
CONTINUOUS
 62
    2
 10
117.94504350000003
 20
182.93685750000009
 11
116.27836450000004
 21
182.9368245
  0
LINE
  8
_0-3_躯体と製品
  6
CONTINUOUS
 62
    3
 10
116.44502750000004
 20
181.35618750000009
 11
117.77836150000002
 21
181.66976750000009
  0
LINE
  8
_0-3_躯体と製品
  6
CONTINUOUS
 62
    3
 10
116.68947250000002
 20
181.49731750000007
 11
117.53391650000003
 21
181.81089749999995
  0
LINE
  8
_0-3_躯体と製品
  6
CONTINUOUS
 62
    3
 10
116.68947250000002
 20
181.21505750000006
 11
117.53391650000003
 21
181.5286375
  0
LINE
  8
_0-3_躯体と製品
  6
CONTINUOUS
 62
    3
 10
116.68947250000002
 20
183.63432449999999
 11
117.11169450000003
 21
183.93224450000008
  0
LINE
  8
_0-3_躯体と製品
  6
CONTINUOUS
 62
    3
 10
116.68947250000002
 20
183.91658450000006
 11
117.11169450000003
 21
183.93224450000008
  0
LINE
  8
_0-3_躯体と製品
  6
PLINE2
 62
    3
 10
115.91169450000004
 20
184.67015650000008
 11
118.31169450000003
 21
184.67015650000008
  0
LINE
  8
_0-3_躯体と製品
  6
CONTINUOUS
 62
    3
 10
116.68947250000002
 20
184.00349050000005
 11
117.53391650000003
 21
184.00349050000005
  0
ARC
  8
_0-3_躯体と製品
  6
CONTINUOUS
 62
    3
 10
117.23661850000002
 20
179.52862450000009
 40
0.5882830000000001
 50
102.2603289999998
 51
158.44630400000042
  0
LINE
  8
_0-3_躯体と製品
  6
CONTINUOUS
 62
    3
 10
117.11169450000003
 20
179.4368235
 11
116.68947250000002
 21
179.74474350000008
  0
LINE
  8
_0-3_躯体と製品
  6
CONTINUOUS
 62
    3
 10
117.53391650000003
 20
181.10349050000008
 11
116.68947750000004
 21
181.10349050000008
  0
LINE
  8
_0-3_躯体と製品
  6
CONTINUOUS
 62
    3
 10
117.11169450000003
 20
183.93224450000008
 11
116.44502750000004
 21
183.77545450000008
  0
LINE
  8
_0-3_躯体と製品
  6
PLINE2
 62
    3
 10
116.44502750000004
 20
183.2376685000001
 11
117.77836150000002
 21
183.55124849999999
  0
LINE
  8
_0-3_躯体と製品
  6
PLINE2
 62
    3
 10
116.68947250000002
 20
183.37879849999996
 11
117.53391650000003
 21
183.69237850000007
  0
LINE
  8
_0-3_躯体と製品
  6
PLINE2
 62
    3
 10
116.68947250000002
 20
183.09653849999995
 11
117.53391650000003
 21
183.41011849999995
  0
LINE
  8
_0-3_躯体と製品
  6
CONTINUOUS
 62
    3
 10
116.44502750000004
 20
182.61050850000009
 11
117.77836150000002
 21
182.9240885000001
  0
LINE
  8
_0-3_躯体と製品
  6
CONTINUOUS
 62
    3
 10
116.68947250000002
 20
182.75163850000007
 11
117.53391650000003
 21
183.06521850000007
  0
LINE
  8
_0-3_躯体と製品
  6
CONTINUOUS
 62
    3
 10
116.68947250000002
 20
182.46937850000006
 11
117.53391650000003
 21
182.78295849999995
  0
LINE
  8
_0-3_躯体と製品
  6
CONTINUOUS
 62
    3
 10
116.44502750000004
 20
181.98334749999998
 11
117.77836150000002
 21
182.29692749999998
  0
LINE
  8
_0-3_躯体と製品
  6
CONTINUOUS
 62
    3
 10
116.68947250000002
 20
182.12447749999995
 11
117.53391650000003
 21
182.43805850000007
  0
LINE
  8
_0-3_躯体と製品
  6
CONTINUOUS
 62
    3
 10
116.68947250000002
 20
181.84221749999995
 11
117.53391650000003
 21
182.15579749999995
  0
LINE
  8
_0-3_躯体と製品
  6
CONTINUOUS
 62
    2
 10
115.61166650000003
 20
176.77016050000009
 11
133.44501449999998
 21
176.77016050000009
  0
TEXT
  8
_0-5_文字-記号
 62
    7
 10
85.664532500000021
 20
163.94402850000006
 40
2
 41
0.8
 50
0
  1
ならしモルタル（別途）
  0
LINE
  8
_0-5_文字-記号
  6
CONTINUOUS
 62
    3
 10
109.26689650000003
 20
163.44402749999995
 11
85.66453450000003
 21
163.44402749999995
  0
LINE
  8
_0-5_文字-記号
  6
CONTINUOUS
 62
    3
 10
115.84276850000005
 20
174.83377249999995
 11
109.26689650000003
 21
163.44402749999995
  0
TEXT
  8
_0-5_文字-記号
 62
    7
 10
115.00447516666671
 20
164.66473150000007
 40
2
 41
0.8
 50
0
  1
８
  0
LINE
  8
_0-3_躯体と製品
  6
CONTINUOUS
 62
    2
 10
115.94503750000003
 20
182.60349150000008
 11
115.94502550000003
 21
177.60349650000006
  0
LINE
  8
_0-3_躯体と製品
  6
CONTINUOUS
 62
    2
 10
115.27837250000003
 20
181.60349350000007
 11
115.27833350000003
 21
177.10349850000006
  0
LINE
  8
_0-3_躯体と製品
  6
CONTINUOUS
 62
    3
 10
116.68947250000002
 20
181.10349050000008
 11
116.68947250000002
 21
179.74474350000008
  0
LINE
  8
_0-3_躯体と製品
  6
CONTINUOUS
 62
    2
 10
115.27833350000003
 20
176.77016050000009
 11
115.27833350000003
 21
176.43682749999999
  0
LINE
  8
_0-3_躯体と製品
  6
CONTINUOUS
 62
    3
 10
111.94497550000003
 20
173.78073350000005
 11
114.60106950000002
 21
176.43682749999999
  0
LINE
  8
_0-3_躯体と製品
  6
CONTINUOUS
 62
    3
 10
112.68194950000003
 20
173.10349350000007
 11
116.01528250000003
 21
176.43682749999999
  0
LINE
  8
_0-3_躯体と製品
  6
CONTINUOUS
 62
    3
 10
111.94498650000003
 20
175.1949585000001
 11
113.18685550000004
 21
176.43682749999999
  0
LINE
  8
_0-3_躯体と製品
  6
CONTINUOUS
 62
    2
 10
111.94499750000003
 20
176.43682749999999
 11
111.94496950000003
 21
173.10349350000007
  0
CIRCLE
  8
_0-5_文字-記号
  6
CONTINUOUS
 62
    3
 10
115.84276850000005
 20
174.83377249999995
 40
0.2
  0
ARC
  8
_0-3_躯体と製品
  6
CONTINUOUS
 62
    2
 10
115.61166650000003
 20
177.10349350000007
 40
0.3333329999999999
 50
179.99918399999953
 51
270
  0
ARC
  8
_0-3_躯体と製品
  6
CONTINUOUS
 62
    2
 10
116.11169250000003
 20
177.60349550000007
 40
0.166667
 50
180
 51
270
  0
LINE
  8
_0-3_躯体と製品
  6
CONTINUOUS
 62
    2
 10
115.61166650000003
 20
176.77016050000009
 11
115.27833350000003
 21
176.77016050000009
  0
LINE
  8
_0-3_躯体と製品
  6
CONTINUOUS
 62
    2
 10
107.27837050000001
 20
184.2701565000001
 11
113.94503650000004
 21
184.2701565000001
  0
LINE
  8
_0-3_躯体と製品
  6
CONTINUOUS
 62
    2
 10
107.27837450000003
 20
184.7701565000001
 11
113.94504050000005
 21
184.7701565000001
  0
ARC
  8
_0-3_躯体と製品
  6
CONTINUOUS
 62
    2
 10
114.04503650000004
 20
184.6701625
 40
0.1
 50
90
 51
180
  0
ARC
  8
_0-3_躯体と製品
  6
CONTINUOUS
 62
    2
 10
114.34504050000004
 20
184.6701625
 40
0.1
 50
0
 51
90
  0
ARC
  8
_0-3_躯体と製品
  6
CONTINUOUS
 62
    2
 10
114.94502950000003
 20
184.4368235
 40
0.3333329999999999
 50
90
 51
180
  0
ARC
  8
_0-3_躯体と製品
  6
CONTINUOUS
 62
    2
 10
114.27837050000004
 20
182.10349250000007
 40
0.3333329999999999
 50
180
 51
270
  0
LINE
  8
_0-3_躯体と製品
  6
CONTINUOUS
 62
    2
 10
113.94503650000004
 20
184.7701565000001
 11
113.94503650000004
 21
182.10349250000007
  0
ARC
  8
_0-3_躯体と製品
  6
CONTINUOUS
 62
    2
 10
115.44503850000004
 20
183.93682949999999
 40
0.166667
 50
90
 51
180
  0
LINE
  8
_0-3_躯体と製品
  6
CONTINUOUS
 62
    2
 10
114.04503650000004
 20
184.77016250000008
 11
114.34504050000004
 21
184.77016250000008
  0
ARC
  8
_0-3_躯体と製品
  6
CONTINUOUS
 62
    2
 10
114.94502950000003
 20
183.10349050000008
 40
0.3333329999999999
 50
180
 51
0
  0
LINE
  8
_0-3_躯体と製品
  6
CONTINUOUS
 62
    2
 10
115.77840450000002
 20
184.10349049999996
 11
115.44503850000004
 21
184.10349350000007
  0
ARC
  8
_0-3_躯体と製品
  6
CONTINUOUS
 62
    2
 10
115.77840250000003
 20
183.9368235
 40
0.166667
 50
0
 51
89.999350999999905
  0
LINE
  8
_0-3_躯体と製品
  6
CONTINUOUS
 62
    2
 10
115.94506950000003
 20
183.77016050000009
 11
115.94506950000003
 21
183.9368235
  0
LINE
  8
_0-3_躯体と製品
  6
CONTINUOUS
 62
    2
 10
114.44503750000004
 20
182.43682949999999
 11
114.44504050000002
 21
184.6701625
  0
ARC
  8
_0-3_躯体と製品
  6
CONTINUOUS
 62
    2
 10
114.61170350000003
 20
182.43682949999999
 40
0.166667
 50
180
 51
270
  0
LINE
  8
_0-3_躯体と製品
  6
CONTINUOUS
 62
    2
 10
115.27835650000003
 20
182.43682550000005
 11
115.27837050000002
 21
183.93682849999999
  0
LINE
  8
_0-3_躯体と製品
  6
CONTINUOUS
 62
    2
 10
114.27837150000005
 20
181.77015850000009
 11
115.11170550000003
 21
181.77016150000009
  0
ARC
  8
_0-3_躯体と製品
  6
CONTINUOUS
 62
    2
 10
115.11170550000003
 20
181.60349450000007
 40
0.166667
 50
359.99953299999919
 51
90.000000000000014
  0
LINE
  8
_0-3_躯体と製品
  6
CONTINUOUS
 62
    2
 10
115.11168850000004
 20
182.27016050000009
 11
114.61170250000005
 21
182.27016350000008
  0
ARC
  8
_0-3_躯体と製品
  6
CONTINUOUS
 62
    2
 10
115.11168950000004
 20
182.43682749999999
 40
0.166667
 50
270
 51
359.99947499999922
  0
ARC
  8
_0-3_躯体と製品
  6
CONTINUOUS
 62
    2
 10
116.27837150000003
 20
182.60349150000008
 40
0.3333329999999999
 50
90.001149999999768
 51
180
  0
LINE
  8
_0-3_躯体と製品
  6
CONTINUOUS
 62
    3
 10
116.68947250000002
 20
181.84221749999995
 11
116.68947250000002
 21
181.49731750000007
  0
LINE
  8
_0-3_躯体と製品
  6
PLINE2
 62
    3
 10
115.91169450000004
 20
184.67015650000008
 11
116.68947250000002
 21
184.00349050000005
  0
LINE
  8
_0-3_躯体と製品
  6
PLINE2
 62
    3
 10
115.91169450000004
 20
184.7701565000001
 11
115.91169450000004
 21
184.67015650000008
  0
LINE
  8
_0-3_躯体と製品
  6
CONTINUOUS
 62
    3
 10
116.68947250000002
 20
181.21505750000006
 11
116.68947250000002
 21
181.10349050000008
  0
LINE
  8
_0-3_躯体と製品
  6
CONTINUOUS
 62
    2
 10
114.61169650000002
 20
183.10349050000008
 11
114.61169650000002
 21
184.4368235
  0
LINE
  8
_0-3_躯体と製品
  6
CONTINUOUS
 62
    2
 10
115.27836350000003
 20
183.10349050000008
 11
115.27836350000003
 21
183.9368235
  0
ARC
  8
_0-3_躯体と製品
  6
CONTINUOUS
 62
    2
 10
115.44502950000003
 20
183.9368235
 40
0.166667
 50
90
 51
180
  0
LINE
  8
_0-3_躯体と製品
  6
CONTINUOUS
 62
    3
 10
116.68947250000002
 20
183.63432449999999
 11
116.68947250000002
 21
183.45813650000008
  0
LINE
  8
_0-3_躯体と製品
  6
CONTINUOUS
 62
    3
 10
116.44502750000004
 20
183.77545450000008
 11
116.68947250000002
 21
183.91658450000006
  0
LINE
  8
_0-3_躯体と製品
  6
CONTINUOUS
 62
    3
 10
116.44502750000004
 20
183.77545450000008
 11
116.68947250000002
 21
183.63432449999999
  0
LINE
  8
_0-3_躯体と製品
  6
CONTINUOUS
 62
    3
 10
116.68947250000002
 20
184.00349050000005
 11
116.68947250000002
 21
183.91658450000006
  0
LINE
  8
_0-3_躯体と製品
  6
PLINE2
 62
    3
 10
116.44502750000004
 20
183.2376685000001
 11
116.68947250000002
 21
183.37879849999996
  0
LINE
  8
_0-3_躯体と製品
  6
PLINE2
 62
    3
 10
116.44502750000004
 20
183.2376685000001
 11
116.68947250000002
 21
183.09653849999995
  0
LINE
  8
_0-3_躯体と製品
  6
PLINE2
 62
    3
 10
116.68947250000002
 20
183.45813650000008
 11
116.68947250000002
 21
183.37879849999996
  0
LINE
  8
_0-3_躯体と製品
  6
CONTINUOUS
 62
    3
 10
116.44502750000004
 20
182.61050850000009
 11
116.68947250000002
 21
182.75163850000007
  0
LINE
  8
_0-3_躯体と製品
  6
CONTINUOUS
 62
    3
 10
116.44502750000004
 20
182.61050850000009
 11
116.68947250000002
 21
182.46937850000006
  0
LINE
  8
_0-3_躯体と製品
  6
PLINE2
 62
    3
 10
116.68947250000002
 20
183.09653849999995
 11
116.68947250000002
 21
182.75163850000007
  0
LINE
  8
_0-3_躯体と製品
  6
CONTINUOUS
 62
    3
 10
116.44502750000004
 20
181.98334749999998
 11
116.68947250000002
 21
182.12447749999995
  0
LINE
  8
_0-3_躯体と製品
  6
CONTINUOUS
 62
    3
 10
116.44502750000004
 20
181.98334749999998
 11
116.68947250000002
 21
181.84221749999995
  0
LINE
  8
_0-3_躯体と製品
  6
CONTINUOUS
 62
    3
 10
116.68947250000002
 20
182.46937850000006
 11
116.68947250000002
 21
182.12447749999995
  0
LINE
  8
_0-3_躯体と製品
  6
CONTINUOUS
 62
    3
 10
116.44502750000004
 20
181.35618750000009
 11
116.68947250000002
 21
181.49731750000007
  0
LINE
  8
_0-3_躯体と製品
  6
CONTINUOUS
 62
    3
 10
116.44502750000004
 20
181.35618750000009
 11
116.68947250000002
 21
181.21505750000006
  0
TEXT
  8
_0-4_図面枠
 62
    7
 10
77.188295500000038
 20
236.0088095000001
 40
2
 41
0.8
 50
0
  1
（アルミ５０タイプ）
  0
CIRCLE
  8
_0-5_文字-記号
  6
CONTINUOUS
 62
    3
 10
163.04573449999998
 20
190.99397950000008
 40
2
  0
LINE
  8
_0-3_躯体と製品
  6
CONTINUOUS
 62
    3
 10
163.33962749999998
 20
173.10349350000007
 11
166.67296049999999
 21
176.43682749999999
  0
LINE
  8
_0-3_躯体と製品
  6
CONTINUOUS
 62
    3
 10
161.92541349999999
 20
173.10349350000007
 11
165.25874749999997
 21
176.43682749999999
  0
LINE
  8
_0-3_躯体と製品
  6
CONTINUOUS
 62
    3
 10
160.51120049999997
 20
173.10349350000007
 11
163.84453349999998
 21
176.43682749999999
  0
LINE
  8
_0-3_躯体と製品
  6
CONTINUOUS
 62
    2
 10
172.61177349999997
 20
173.10349350000007
 11
150.61170549999997
 21
173.10349350000007
  0
LINE
  8
_0-3_躯体と製品
  6
CONTINUOUS
 62
    2
 10
168.44505149999998
 20
177.43682949999999
 11
162.37837149999999
 21
177.43683649999997
  0
LINE
  8
_0-3_躯体と製品
  6
CONTINUOUS
 62
    2
 10
150.61170549999997
 20
176.43682749999999
 11
177.27837349999999
 21
176.43682749999999
  0
LINE
  8
_0-3_躯体と製品
  6
CONTINUOUS
 62
    2
 10
164.94504749999999
 20
184.67015650000008
 11
163.2783805
 21
184.67015650000008
  0
LINE
  8
_0-3_躯体と製品
  6
CONTINUOUS
 62
    2
 10
165.44504749999999
 20
183.9368235
 11
158.94504949999998
 21
183.9368235
  0
LINE
  8
_0-3_躯体と製品
  6
PLINE2
 62
    3
 10
163.85434049999998
 20
169.17094850000007
 11
163.20603349999999
 21
168.8031805
  0
LINE
  8
_0-3_躯体と製品
  6
PLINE2
 62
    3
 10
163.15369749999999
 20
169.8018105000001
 11
163.81945049999999
 21
169.83670150000006
  0
LINE
  8
_0-3_躯体と製品
  6
PLINE2
 62
    3
 10
163.76711449999999
 20
170.8353305
 11
163.11880649999998
 21
170.4675635000001
  0
LINE
  8
_0-3_躯体と製品
  6
PLINE2
 62
    3
 10
163.06647049999998
 20
171.46619350000009
 11
163.73222349999998
 21
171.50108349999999
  0
LINE
  8
_0-3_躯体と製品
  6
PLINE2
 62
    3
 10
163.61170549999997
 20
172.43682749999999
 11
163.03157949999999
 21
172.13194650000008
  0
LINE
  8
_0-3_躯体と製品
  6
PLINE2
 62
    3
 10
163.48515849999998
 20
163.47715650000009
 11
162.98584349999999
 21
163.45098850000005
  0
LINE
  8
_0-3_躯体と製品
  6
PLINE2
 62
    3
 10
162.95095249999997
 20
164.1167415000001
 11
164.11602049999999
 21
164.1778005000001
  0
LINE
  8
_0-3_躯体と製品
  6
CONTINUOUS
 62
    2
 10
165.27837149999999
 20
177.93683650000008
 11
159.27837149999999
 21
177.93683650000008
  0
LINE
  8
_0-3_躯体と製品
  6
PLINE2
 62
    3
 10
163.94503849999998
 20
176.43682749999999
 11
160.61170549999997
 21
176.43682749999999
  0
LINE
  8
_0-3_躯体と製品
  6
CONTINUOUS
 62
    2
 10
168.9450775
 20
176.77016050000009
 11
151.11172949999997
 21
176.77016050000009
  0
ARC
  8
_0-3_躯体と製品
  6
CONTINUOUS
 62
    2
 10
162.27837149999999
 20
177.27016949999995
 40
1.8
 50
51.148937999999632
 51
90
  0
LINE
  8
_0-3_躯体と製品
  6
CONTINUOUS
 62
    2
 10
165.27837149999999
 20
177.43683649999997
 11
159.27837149999999
 21
177.43683649999997
  0
LINE
  8
_0-3_躯体と製品
  6
PLINE2
 62
    3
 10
163.32815049999999
 20
166.47304550000007
 11
163.99390349999999
 21
166.50793550000009
  0
LINE
  8
_0-3_躯体と製品
  6
PLINE2
 62
    3
 10
163.94156749999999
 20
167.50656550000008
 11
163.29325949999998
 21
167.13879849999995
  0
LINE
  8
_0-3_躯体と製品
  6
PLINE2
 62
    3
 10
163.24092349999998
 20
168.13742750000006
 11
163.90667649999997
 21
168.17231850000007
  0
LINE
  8
_0-5_文字-記号
  6
CONTINUOUS
 62
    3
 10
159.24049849999997
 20
184.40311750000006
 11
162.04573449999998
 21
189.26192849999995
  0
TEXT
  8
_0-5_文字-記号
 62
    7
 10
127.72446483333336
 20
188.1732995000001
 40
2
 41
0.8
 50
0
  1
７
  0
CIRCLE
  8
_0-5_文字-記号
  6
CONTINUOUS
 62
    3
 10
128.47113150000001
 20
189.2133025
 40
2
  0
LINE
  8
_0-5_文字-記号
  6
CONTINUOUS
 62
    3
 10
117.11169450000003
 20
184.67015650000008
 11
120.15891950000002
 21
189.94810550000005
  0
CIRCLE
  8
_0-5_文字-記号
  6
CONTINUOUS
 62
    3
 10
146.11604249999999
 20
190.51481149999995
 40
2
  0
ARC
  8
_0-3_躯体と製品
  6
CONTINUOUS
 62
    2
 10
142.27837149999999
 20
-66.540400499999919
 40
250.83333300000001
 50
90.418777000000034
 51
90.799502000000061
  0
ARC
  8
_0-3_躯体と製品
  6
CONTINUOUS
 62
    2
 10
142.27837149999999
 20
-66.540400499999919
 40
250
 50
86.292286000000217
 51
93.707713999999783
  0
ARC
  8
_0-3_躯体と製品
  6
CONTINUOUS
 62
    2
 10
142.27837149999999
 20
161.93682749999999
 40
5
 50
199.28698499999999
 51
340.71301499999993
  0
ARC
  8
_0-3_躯体と製品
  6
CONTINUOUS
 62
    2
 10
142.27837149999999
 20
161.93682749999999
 40
5.3333329999999997
 50
199.28698499999999
 51
340.71301499999993
  0
LINE
  8
_0-3_躯体と製品
  6
CONTINUOUS
 62
    2
 10
133.94503849999998
 20
156.43682750000008
 11
133.94503849999998
 21
176.43682749999999
  0
LINE
  8
_0-3_躯体と製品
  6
PLINE2
 62
    3
 10
124.38581850000003
 20
173.7047075000001
 11
124.07134150000002
 21
171.50336749999997
  0
LINE
  8
_0-3_躯体と製品
  6
PLINE2
 62
    3
 10
124.38457250000002
 20
171.38936149999995
 11
124.71535750000004
 21
173.65723549999996
  0
LINE
  8
_0-3_躯体と製品
  6
PLINE2
 62
    3
 10
122.98584350000003
 20
163.45098850000005
 11
122.44503850000004
 21
173.77016050000009
  0
LINE
  8
_0-3_躯体と製品
  6
PLINE2
 62
    3
 10
123.61170550000003
 20
172.43682749999999
 11
123.61170550000003
 21
173.77016050000009
  0
LINE
  8
_0-3_躯体と製品
  6
PLINE2
 62
    3
 10
121.57090050000002
 20
163.45098850000005
 11
122.11170550000003
 21
173.77016050000009
  0
LINE
  8
_0-3_躯体と製品
  6
PLINE2
 62
    3
 10
120.94503850000004
 20
172.43682749999999
 11
120.94503850000004
 21
173.77016050000009
  0
LINE
  8
_0-3_躯体と製品
  6
PLINE2
 62
    3
 10
120.17092550000004
 20
173.7047075000001
 11
120.48540250000005
 21
171.50336749999997
  0
LINE
  8
_0-3_躯体と製品
  6
PLINE2
 62
    3
 10
120.17217150000002
 20
171.38936149999995
 11
119.84138650000003
 21
173.65723549999996
  0
LINE
  8
_0-3_躯体と製品
  6
PLINE2
 62
    3
 10
124.38581850000003
 20
173.7047075000001
 11
124.07134150000002
 21
171.50336749999997
  0
LINE
  8
_0-3_躯体と製品
  6
PLINE2
 62
    3
 10
124.38457250000002
 20
171.38936149999995
 11
124.71535750000004
 21
173.65723549999996
  0
LINE
  8
_0-3_躯体と製品
  6
CONTINUOUS
 62
    2
 10
137.55899149999999
 20
160.28532750000008
 11
134.25966349999999
 21
176.54692750000009
  0
LINE
  8
_0-3_躯体と製品
  6
CONTINUOUS
 62
    2
 10
133.94503849999998
 20
176.43682749999999
 11
137.24436649999998
 21
160.17522749999998
  0
LINE
  8
_0-3_躯体と製品
  6
PLINE3
 62
    3
 10
122.27837150000003
 20
161.7662995
 11
122.27837150000003
 21
180.60866250000009
  0
LINE
  8
_0-5_文字-記号
  6
CONTINUOUS
 62
    3
 10
122.27837150000003
 20
166.05901850000009
 11
118.76411050000003
 21
159.97213950000008
  0
LINE
  8
_0-3_躯体と製品
  6
PLINE2
 62
    3
 10
120.47561350000004
 20
164.8435535000001
 11
120.44072350000002
 21
164.1778005000001
  0
LINE
  8
_0-3_躯体と製品
  6
PLINE2
 62
    3
 10
124.08112950000003
 20
164.8435535000001
 11
124.11602050000003
 21
164.1778005000001
  0
TEXT
  8
_0-5_文字-記号
 62
    7
 10
117.0707781666667
 20
157.20008650000008
 40
2
 41
0.8
 50
0
  1
６
  0
LINE
  8
_0-3_躯体と製品
  6
PLINE2
 62
    3
 10
121.07158550000003
 20
163.47715650000009
 11
121.57090050000002
 21
163.45098850000005
  0
LINE
  8
_0-3_躯体と製品
  6
PLINE2
 62
    3
 10
120.44072350000002
 20
164.1778005000001
 11
121.07158550000003
 21
163.47715650000009
  0
LINE
  8
_0-3_躯体と製品
  6
PLINE2
 62
    3
 10
121.60579050000003
 20
164.1167415000001
 11
120.44072350000002
 21
164.1778005000001
  0
LINE
  8
_0-3_躯体と製品
  6
PLINE2
 62
    3
 10
123.48515850000004
 20
163.47715650000009
 11
122.98584350000003
 21
163.45098850000005
  0
LINE
  8
_0-3_躯体と製品
  6
PLINE2
 62
    3
 10
124.11602050000003
 20
164.1778005000001
 11
123.48515850000004
 21
163.47715650000009
  0
LINE
  8
_0-3_躯体と製品
  6
PLINE2
 62
    3
 10
122.95095250000003
 20
164.1167415000001
 11
124.11602050000003
 21
164.1778005000001
  0
LINE
  8
_0-3_躯体と製品
  6
PLINE2
 62
    3
 10
122.90151950000005
 20
165.05997550000006
 11
122.27837150000003
 21
164.43682749999999
  0
LINE
  8
_0-3_躯体と製品
  6
PLINE2
 62
    3
 10
121.35071050000002
 20
168.8031805
 11
121.31582050000003
 21
168.13742750000006
  0
CIRCLE
  8
_0-5_文字-記号
  6
CONTINUOUS
 62
    3
 10
122.27837150000003
 20
166.05901850000009
 40
0.2
  0
LINE
  8
_0-3_躯体と製品
  6
PLINE2
 62
    3
 10
121.14136650000002
 20
164.80866249999997
 11
120.47561350000004
 21
164.8435535000001
  0
LINE
  8
_0-3_躯体と製品
  6
PLINE2
 62
    3
 10
121.17625750000002
 20
165.47441549999996
 11
121.14136650000002
 21
164.80866249999997
  0
LINE
  8
_0-3_躯体と製品
  6
PLINE2
 62
    3
 10
120.52794950000003
 20
165.84218250000009
 11
121.17625750000002
 21
165.47441549999996
  0
LINE
  8
_0-3_躯体と製品
  6
PLINE2
 62
    3
 10
120.56284050000002
 20
166.50793550000009
 11
120.52794950000003
 21
165.84218250000009
  0
LINE
  8
_0-3_躯体と製品
  6
PLINE2
 62
    3
 10
121.22859350000002
 20
166.47304550000007
 11
120.56284050000002
 21
166.50793550000009
  0
LINE
  8
_0-3_躯体と製品
  6
PLINE2
 62
    3
 10
121.26348450000005
 20
167.13879849999995
 11
121.22859350000002
 21
166.47304550000007
  0
LINE
  8
_0-3_躯体と製品
  6
PLINE2
 62
    3
 10
120.61517650000002
 20
167.50656550000008
 11
121.26348450000005
 21
167.13879849999995
  0
LINE
  8
_0-3_躯体と製品
  6
PLINE2
 62
    3
 10
120.65006650000004
 20
168.17231850000007
 11
120.61517650000002
 21
167.50656550000008
  0
LINE
  8
_0-3_躯体と製品
  6
PLINE2
 62
    3
 10
121.31582050000003
 20
168.13742750000006
 11
120.65006650000004
 21
168.17231850000007
  0
LINE
  8
_0-3_躯体と製品
  6
PLINE2
 62
    3
 10
121.65522350000003
 20
165.05997550000006
 11
122.27837150000003
 21
164.43682749999999
  0
LINE
  8
_0-3_躯体と製品
  6
PLINE2
 62
    3
 10
120.70240250000003
 20
169.17094850000007
 11
121.35071050000002
 21
168.8031805
  0
LINE
  8
_0-3_躯体と製品
  6
PLINE2
 62
    3
 10
120.73729350000002
 20
169.83670150000006
 11
120.70240250000003
 21
169.17094850000007
  0
LINE
  8
_0-3_躯体と製品
  6
PLINE2
 62
    3
 10
121.40304650000003
 20
169.8018105000001
 11
120.73729350000002
 21
169.83670150000006
  0
LINE
  8
_0-3_躯体と製品
  6
PLINE2
 62
    3
 10
121.43793750000002
 20
170.4675635000001
 11
121.40304650000003
 21
169.8018105000001
  0
LINE
  8
_0-3_躯体と製品
  6
PLINE2
 62
    3
 10
120.78962950000002
 20
170.8353305
 11
121.43793750000002
 21
170.4675635000001
  0
LINE
  8
_0-3_躯体と製品
  6
PLINE2
 62
    3
 10
120.82452050000002
 20
171.50108349999999
 11
120.78962950000002
 21
170.8353305
  0
LINE
  8
_0-3_躯体と製品
  6
PLINE2
 62
    3
 10
121.49027350000003
 20
171.46619350000009
 11
120.82452050000002
 21
171.50108349999999
  0
LINE
  8
_0-3_躯体と製品
  6
PLINE2
 62
    3
 10
121.52516350000003
 20
172.13194650000008
 11
121.49027350000003
 21
171.46619350000009
  0
LINE
  8
_0-3_躯体と製品
  6
PLINE2
 62
    3
 10
120.94503850000004
 20
172.43682749999999
 11
121.52516350000003
 21
172.13194650000008
  0
LINE
  8
_0-3_躯体と製品
  6
PLINE2
 62
    3
 10
120.73729350000002
 20
169.83670150000006
 11
120.17217150000002
 21
171.38936149999995
  0
LINE
  8
_0-3_躯体と製品
  6
PLINE2
 62
    3
 10
121.09201950000001
 20
169.83670150000006
 11
120.48540250000005
 21
171.50336749999997
  0
LINE
  8
_0-3_躯体と製品
  6
PLINE2
 62
    3
 10
123.20603350000002
 20
168.8031805
 11
123.24092350000002
 21
168.13742750000006
  0
LINE
  8
_0-3_躯体と製品
  6
PLINE2
 62
    3
 10
123.41537650000004
 20
164.80866249999997
 11
124.08112950000003
 21
164.8435535000001
  0
LINE
  8
_0-3_躯体と製品
  6
PLINE2
 62
    3
 10
123.38048650000003
 20
165.47441549999996
 11
123.41537650000004
 21
164.80866249999997
  0
LINE
  8
_0-3_躯体と製品
  6
PLINE2
 62
    3
 10
124.02879350000003
 20
165.84218250000009
 11
123.38048650000003
 21
165.47441549999996
  0
LINE
  8
_0-3_躯体と製品
  6
PLINE2
 62
    3
 10
123.99390350000002
 20
166.50793550000009
 11
124.02879350000003
 21
165.84218250000009
  0
LINE
  8
_0-3_躯体と製品
  6
PLINE2
 62
    3
 10
123.32815050000002
 20
166.47304550000007
 11
123.99390350000002
 21
166.50793550000009
  0
LINE
  8
_0-3_躯体と製品
  6
PLINE2
 62
    3
 10
123.29325950000003
 20
167.13879849999995
 11
123.32815050000002
 21
166.47304550000007
  0
LINE
  8
_0-3_躯体と製品
  6
PLINE2
 62
    3
 10
123.94156750000002
 20
167.50656550000008
 11
123.29325950000003
 21
167.13879849999995
  0
LINE
  8
_0-3_躯体と製品
  6
PLINE2
 62
    3
 10
123.90667650000003
 20
168.17231850000007
 11
123.94156750000002
 21
167.50656550000008
  0
LINE
  8
_0-3_躯体と製品
  6
PLINE2
 62
    3
 10
123.24092350000002
 20
168.13742750000006
 11
123.90667650000003
 21
168.17231850000007
  0
LINE
  8
_0-3_躯体と製品
  6
PLINE2
 62
    3
 10
123.11880650000003
 20
170.4675635000001
 11
123.15369750000005
 21
169.8018105000001
  0
LINE
  8
_0-3_躯体と製品
  6
PLINE2
 62
    3
 10
123.76711450000005
 20
170.8353305
 11
123.11880650000003
 21
170.4675635000001
  0
LINE
  8
_0-3_躯体と製品
  6
PLINE2
 62
    3
 10
123.73222350000002
 20
171.50108349999999
 11
123.76711450000005
 21
170.8353305
  0
LINE
  8
_0-3_躯体と製品
  6
PLINE2
 62
    3
 10
123.06647050000004
 20
171.46619350000009
 11
123.73222350000002
 21
171.50108349999999
  0
LINE
  8
_0-3_躯体と製品
  6
PLINE2
 62
    3
 10
123.03157950000001
 20
172.13194650000008
 11
123.06647050000004
 21
171.46619350000009
  0
LINE
  8
_0-3_躯体と製品
  6
PLINE2
 62
    3
 10
123.61170550000003
 20
172.43682749999999
 11
123.03157950000001
 21
172.13194650000008
  0
LINE
  8
_0-3_躯体と製品
  6
PLINE2
 62
    3
 10
123.81945050000004
 20
169.83670150000006
 11
124.38457250000002
 21
171.38936149999995
  0
LINE
  8
_0-3_躯体と製品
  6
PLINE2
 62
    3
 10
123.46472450000002
 20
169.83670150000006
 11
124.07134150000002
 21
171.50336749999997
  0
LINE
  8
_0-3_躯体と製品
  6
PLINE2
 62
    3
 10
123.85434050000002
 20
169.17094850000007
 11
123.20603350000002
 21
168.8031805
  0
LINE
  8
_0-3_躯体と製品
  6
PLINE2
 62
    3
 10
123.81945050000004
 20
169.83670150000006
 11
123.85434050000002
 21
169.17094850000007
  0
LINE
  8
_0-3_躯体と製品
  6
PLINE2
 62
    3
 10
123.15369750000005
 20
169.8018105000001
 11
123.81945050000004
 21
169.83670150000006
  0
LINE
  8
_0-3_躯体と製品
  6
CONTINUOUS
 62
    3
 10
128.23829850000004
 20
173.10349350000007
 11
131.57163249999996
 21
176.43682749999999
  0
LINE
  8
_0-3_躯体と製品
  6
CONTINUOUS
 62
    3
 10
126.82408550000004
 20
173.10349350000007
 11
130.15741849999998
 21
176.43682749999999
  0
LINE
  8
_0-3_躯体と製品
  6
CONTINUOUS
 62
    3
 10
125.40987150000004
 20
173.10349350000007
 11
128.74320450000002
 21
176.43682749999999
  0
ARC
  8
_0-3_躯体と製品
  6
CONTINUOUS
 62
    2
 10
142.27837149999999
 20
-66.540400499999919
 40
250.83333300000001
 50
91.027953000000053
 51
93.666989999999799
  0
LINE
  8
_0-3_躯体と製品
  6
CONTINUOUS
 62
    2
 10
127.94502950000003
 20
184.77015850000009
 11
129.61169649999999
 21
184.7701545000001
  0
LINE
  8
_0-3_躯体と製品
  6
CONTINUOUS
 62
    2
 10
122.37836250000004
 20
177.43682749999999
 11
132.94501649999998
 21
177.43682749999999
  0
LINE
  8
_0-3_躯体と製品
  6
CONTINUOUS
 62
    2
 10
125.61169450000003
 20
183.9368235
 11
128.94502950000003
 21
184.10349049999996
  0
LINE
  8
_0-5_文字-記号
  6
CONTINUOUS
 62
    3
 10
122.27837150000003
 20
178.4871285000001
 11
127.47113150000003
 21
187.4812525000001
  0
LINE
  8
_0-3_躯体と製品
  6
CONTINUOUS
 62
    3
 10
117.53391650000003
 20
181.5286375
 11
117.53391650000003
 21
179.74474350000008
  0
LINE
  8
_0-3_躯体と製品
  6
PLINE3
 62
    3
 10
117.11169450000003
 20
185.75803149999996
 11
117.11169450000003
 21
178.60348850000008
  0
ARC
  8
_0-3_躯体と製品
  6
CONTINUOUS
 62
    3
 10
119.11378950000004
 20
179.84729750000008
 40
2.018419999999999
 50
141.51097800000014
 51
172.70791799999932
  0
LINE
  8
_0-3_躯体と製品
  6
CONTINUOUS
 62
    3
 10
119.75301750000003
 20
173.10349350000007
 11
123.08635050000004
 21
176.43682749999999
  0
LINE
  8
_0-3_躯体と製品
  6
CONTINUOUS
 62
    3
 10
122.58144450000003
 20
173.10349350000007
 11
125.91477750000004
 21
176.43682749999999
  0
LINE
  8
_0-3_躯体と製品
  6
CONTINUOUS
 62
    3
 10
121.16723050000003
 20
173.10349350000007
 11
124.50056450000004
 21
176.43682749999999
  0
LINE
  8
_0-3_躯体と製品
  6
CONTINUOUS
 62
    2
 10
119.27837150000005
 20
177.93683650000008
 11
125.27837150000003
 21
177.93683650000008
  0
LINE
  8
_0-3_躯体と製品
  6
PLINE2
 62
    3
 10
120.61170550000003
 20
176.43682749999999
 11
123.94503850000004
 21
176.43682749999999
  0
ARC
  8
_0-3_躯体と製品
  6
CONTINUOUS
 62
    2
 10
122.27837150000003
 20
177.27016949999995
 40
1.8
 50
51.317813000000257
 51
90
  0
LINE
  8
_0-3_躯体と製品
  6
CONTINUOUS
 62
    2
 10
119.27837150000005
 20
177.43683649999997
 11
125.27837150000003
 21
177.43683649999997
  0
LINE
  8
_0-3_躯体と製品
  6
CONTINUOUS
 62
    3
 10
118.33880350000004
 20
173.10349350000007
 11
121.67213750000005
 21
176.43682749999999
  0
ARC
  8
_0-3_躯体と製品
  6
PLINE2
 62
    3
 10
119.97332350000002
 20
173.67647950000008
 40
0.133333
 50
98.130101999999809
 51
188.2984660000001
  0
ARC
  8
_0-3_躯体と製品
  6
PLINE2
 62
    3
 10
120.03893250000003
 20
173.68585149999996
 40
0.133333
 50
8.1301019999994626
 51
98.130101999999809
  0
LINE
  8
_0-3_躯体と製品
  6
PLINE2
 62
    3
 10
119.95446750000001
 20
173.80847250000005
 11
120.02007550000005
 21
173.81784450000009
  0
LINE
  8
_0-3_躯体と製品
  6
PLINE2
 62
    3
 10
122.27837150000003
 20
174.77016050000009
 11
122.27837150000003
 21
176.43682749999999
  0
LINE
  8
_0-3_躯体と製品
  6
PLINE2
 62
    3
 10
122.61170550000003
 20
176.43682749999999
 11
122.27837150000003
 21
174.77016050000009
  0
LINE
  8
_0-3_躯体と製品
  6
PLINE2
 62
    3
 10
121.94503850000004
 20
176.43682749999999
 11
122.27837150000003
 21
174.77016050000009
  0
LINE
  8
_0-3_躯体と製品
  6
PLINE2
 62
    3
 10
120.61170550000003
 20
176.43682749999999
 11
120.94503850000004
 21
174.77016050000009
  0
LINE
  8
_0-3_躯体と製品
  6
PLINE2
 62
    3
 10
120.94503850000004
 20
176.43682749999999
 11
120.94503850000004
 21
173.77016050000009
  0
LINE
  8
_0-3_躯体と製品
  6
PLINE2
 62
    3
 10
122.44503850000004
 20
173.77016050000009
 11
122.27837150000003
 21
173.77016050000009
  0
LINE
  8
_0-3_躯体と製品
  6
PLINE2
 62
    3
 10
122.11170550000003
 20
173.77016050000009
 11
122.27837150000003
 21
173.77016050000009
  0
LINE
  8
_0-3_躯体と製品
  6
CONTINUOUS
 62
    2
 10
119.27837150000005
 20
177.93683650000008
 11
119.27837150000005
 21
177.43683649999997
  0
LINE
  8
_0-3_躯体と製品
  6
CONTINUOUS
 62
    3
 10
117.11169450000003
 20
179.4368235
 11
117.53391650000003
 21
179.74474350000008
  0
LINE
  8
_0-3_躯体と製品
  6
CONTINUOUS
 62
    3
 10
117.11169450000003
 20
180.10349049999996
 11
117.11169450000003
 21
179.4368235
  0
CIRCLE
  8
_0-5_文字-記号
  6
CONTINUOUS
 62
    3
 10
122.27837150000003
 20
177.10260150000005
 40
0.2
  0
CIRCLE
  8
_0-5_文字-記号
  6
CONTINUOUS
 62
    3
 10
122.27837150000003
 20
178.4871285000001
 40
0.2
  0
LINE
  8
_0-3_躯体と製品
  6
CONTINUOUS
 62
    2
 10
122.27837150000003
 20
177.33683650000006
 11
122.17837150000004
 21
177.43683649999997
  0
LINE
  8
_0-3_躯体と製品
  6
CONTINUOUS
 62
    2
 10
122.27837150000003
 20
177.33683650000006
 11
122.37836250000004
 21
177.43682749999999
  0
ARC
  8
_0-3_躯体と製品
  6
CONTINUOUS
 62
    2
 10
122.27837150000003
 20
177.27016949999995
 40
1.8
 50
90
 51
128.8510620000003
  0
ARC
  8
_0-3_躯体と製品
  6
CONTINUOUS
 62
    2
 10
121.77745150000003
 20
177.89393250000006
 40
1
 50
128.61463799999981
 51
177.54107400000049
  0
LINE
  8
_0-3_躯体と製品
  6
CONTINUOUS
 62
    3
 10
123.99565850000005
 20
173.10349350000007
 11
127.32899150000003
 21
176.43682749999999
  0
ARC
  8
_0-3_躯体と製品
  6
PLINE2
 62
    3
 10
124.51781150000004
 20
173.68585149999996
 40
0.133333
 50
81.869898000000191
 51
171.86989800000052
  0
LINE
  8
_0-3_躯体と製品
  6
PLINE2
 62
    3
 10
124.60227650000004
 20
173.80847250000005
 11
124.53666750000002
 21
173.81784450000009
  0
ARC
  8
_0-3_躯体と製品
  6
PLINE2
 62
    3
 10
124.58341950000002
 20
173.67647950000008
 40
0.133333
 50
351.70153399999987
 51
81.869898000000205
  0
ARC
  8
_0-3_躯体と製品
  6
PLINE2
 62
    3
 10
124.51781150000004
 20
173.68585149999996
 40
0.133333
 50
81.869898000000191
 51
171.86989800000052
  0
LINE
  8
_0-3_躯体と製品
  6
PLINE2
 62
    3
 10
124.60227650000004
 20
173.80847250000005
 11
124.53666750000002
 21
173.81784450000009
  0
ARC
  8
_0-3_躯体と製品
  6
PLINE2
 62
    3
 10
124.58341950000002
 20
173.67647950000008
 40
0.133333
 50
351.70153399999987
 51
81.869898000000205
  0
LINE
  8
_0-3_躯体と製品
  6
PLINE2
 62
    3
 10
123.94503850000004
 20
176.43682749999999
 11
123.61170550000003
 21
174.77016050000009
  0
LINE
  8
_0-3_躯体と製品
  6
PLINE2
 62
    3
 10
123.61170550000003
 20
176.43682749999999
 11
123.61170550000003
 21
173.77016050000009
  0
LINE
  8
_0-3_躯体と製品
  6
CONTINUOUS
 62
    2
 10
125.27837150000003
 20
177.93683650000008
 11
125.27837150000003
 21
177.43683649999997
  0
ARC
  8
_0-3_躯体と製品
  6
CONTINUOUS
 62
    2
 10
122.77929250000001
 20
177.89393250000006
 40
1
 50
2.4589259999995199
 51
51.385362000000178
  0
LINE
  8
_0-3_躯体と製品
  6
CONTINUOUS
 62
    2
 10
121.27836350000004
 20
184.7701715
 11
122.94502950000003
 21
184.77016750000007
  0
LINE
  8
_0-3_躯体と製品
  6
CONTINUOUS
 62
    2
 10
119.11169650000001
 20
183.9368235
 11
125.61169450000003
 21
183.9368235
  0
LINE
  8
_0-5_文字-記号
  6
CONTINUOUS
 62
    3
 10
117.11169450000003
 20
184.67015650000008
 11
117.82820050000004
 21
185.41118250000005
  0
LINE
  8
_0-5_文字-記号
  6
CONTINUOUS
 62
    3
 10
117.11169450000003
 20
184.67015650000008
 11
117.39518850000003
 21
185.66118250000005
  0
LINE
  8
_0-3_躯体と製品
  6
CONTINUOUS
 62
    2
 10
119.61169650000002
 20
184.67015650000008
 11
121.27836350000004
 21
184.67015650000008
  0
LINE
  8
_0-3_躯体と製品
  6
CONTINUOUS
 62
    2
 10
118.27770950000003
 20
184.10349049999996
 11
118.44612750000006
 21
184.10349049999996
  0
LINE
  8
_0-3_躯体と製品
  6
CONTINUOUS
 62
    2
 10
117.21170350000003
 20
183.77016050000009
 11
118.11170350000003
 21
183.77016050000009
  0
LINE
  8
_0-3_躯体と製品
  6
CONTINUOUS
 62
    2
 10
117.21170350000003
 20
183.77016050000009
 11
117.11170350000003
 21
183.67016050000007
  0
LINE
  8
_0-3_躯体と製品
  6
CONTINUOUS
 62
    2
 10
119.61169650000002
 20
184.7701715
 11
117.21168550000003
 21
184.7701555000001
  0
LINE
  8
_0-3_躯体と製品
  6
CONTINUOUS
 62
    2
 10
118.94502950000003
 20
184.10349049999996
 11
119.11169650000001
 21
183.9368235
  0
LINE
  8
_0-3_躯体と製品
  6
CONTINUOUS
 62
    2
 10
117.01170350000002
 20
183.77016050000009
 11
117.11170350000003
 21
183.67016050000007
  0
ARC
  8
_0-3_躯体と製品
  6
CONTINUOUS
 62
    2
 10
118.27837050000001
 20
183.9368245
 40
0.166667
 50
90.000848999999903
 51
180
  0
ARC
  8
_0-3_躯体と製品
  6
CONTINUOUS
 62
    2
 10
117.94503050000003
 20
183.60352449999999
 40
0.666667
 50
270.00115000000022
 51
359.9961599999998
  0
LINE
  8
_0-3_躯体と製品
  6
CONTINUOUS
 62
    2
 10
118.61169650000002
 20
183.60347949999999
 11
118.61171950000001
 21
183.93681950000007
  0
ARC
  8
_0-3_躯体と製品
  6
CONTINUOUS
 62
    2
 10
118.44505250000003
 20
183.9368265
 40
0.166667
 50
359.99744000000044
 51
90.000000000000028
  0
LINE
  8
_0-3_躯体と製品
  6
CONTINUOUS
 62
    2
 10
118.11170350000003
 20
183.77016050000009
 11
118.11170350000003
 21
183.9368245
  0
LINE
  8
_0-3_躯体と製品
  6
CONTINUOUS
 62
    3
 10
117.53391650000003
 20
181.81089749999995
 11
117.53391650000003
 21
182.15579749999995
  0
LINE
  8
_0-3_躯体と製品
  6
PLINE2
 62
    3
 10
118.31169450000003
 20
184.67015650000008
 11
117.53391650000003
 21
184.00349050000005
  0
LINE
  8
_0-3_躯体と製品
  6
PLINE2
 62
    3
 10
118.31169450000003
 20
184.7701565000001
 11
118.31169450000003
 21
184.67015650000008
  0
LINE
  8
_0-3_躯体と製品
  6
CONTINUOUS
 62
    2
 10
117.11169450000003
 20
184.67016450000006
 11
117.21168550000003
 21
184.7701555000001
  0
LINE
  8
_0-3_躯体と製品
  6
CONTINUOUS
 62
    2
 10
117.11169450000003
 20
184.67016450000006
 11
117.01169450000005
 21
184.77016449999996
  0
LINE
  8
_0-3_躯体と製品
  6
CONTINUOUS
 62
    2
 10
119.61169650000002
 20
184.7701565000001
 11
119.61169650000002
 21
184.67015650000008
  0
LINE
  8
_0-3_躯体と製品
  6
CONTINUOUS
 62
    3
 10
117.53391650000003
 20
183.69237850000007
 11
117.77836150000002
 21
183.55124849999999
  0
LINE
  8
_0-3_躯体と製品
  6
PLINE2
 62
    3
 10
117.53391650000003
 20
183.41011849999995
 11
117.77836150000002
 21
183.55124849999999
  0
LINE
  8
_0-3_躯体と製品
  6
CONTINUOUS
 62
    3
 10
117.53391650000003
 20
184.00349050000005
 11
117.53391650000003
 21
183.69237850000007
  0
LINE
  8
_0-3_躯体と製品
  6
CONTINUOUS
 62
    3
 10
117.53391650000003
 20
183.06521850000007
 11
117.77836150000002
 21
182.9240885000001
  0
LINE
  8
_0-3_躯体と製品
  6
CONTINUOUS
 62
    3
 10
117.77836150000002
 20
182.9240885000001
 11
117.53391650000003
 21
182.78295849999995
  0
LINE
  8
_0-3_躯体と製品
  6
PLINE2
 62
    3
 10
117.53391650000003
 20
183.06521850000007
 11
117.53391650000003
 21
183.41011849999995
  0
LINE
  8
_0-3_躯体と製品
  6
CONTINUOUS
 62
    3
 10
117.53391650000003
 20
182.43805850000007
 11
117.77836150000002
 21
182.29692749999998
  0
LINE
  8
_0-3_躯体と製品
  6
CONTINUOUS
 62
    3
 10
117.77836150000002
 20
182.29692749999998
 11
117.53391650000003
 21
182.15579749999995
  0
LINE
  8
_0-3_躯体と製品
  6
CONTINUOUS
 62
    3
 10
117.53391650000003
 20
182.43805850000007
 11
117.53391650000003
 21
182.78295849999995
  0
LINE
  8
_0-3_躯体と製品
  6
CONTINUOUS
 62
    3
 10
117.53391650000003
 20
181.81089749999995
 11
117.77836150000002
 21
181.66976750000009
  0
LINE
  8
_0-3_躯体と製品
  6
CONTINUOUS
 62
    3
 10
117.77836150000002
 20
181.66976750000009
 11
117.53391650000003
 21
181.5286375
  0
LINE
  8
_0-3_躯体と製品
  6
CONTINUOUS
 62
    2
 10
121.27836350000004
 20
184.67015650000008
 11
121.27836350000004
 21
184.7701565000001
  0
ARC
  8
_0-3_躯体と製品
  6
CONTINUOUS
 62
    2
 10
126.27837150000003
 20
183.11408250000005
 40
0.666667
 50
93.666989999999799
 51
180
  0
ARC
  8
_0-3_躯体と製品
  6
CONTINUOUS
 62
    2
 10
125.94503850000004
 20
182.60299550000008
 40
0.3333329999999999
 50
180
 51
270
  0
LINE
  8
_0-3_躯体と製品
  6
CONTINUOUS
 62
    2
 10
124.61169650000002
 20
184.77016449999996
 11
126.27836350000004
 21
184.77016150000009
  0
LINE
  8
_0-3_躯体と製品
  6
CONTINUOUS
 62
    2
 10
125.61170550000003
 20
183.11408250000005
 11
125.61170550000003
 21
182.60299550000008
  0
LINE
  8
_0-3_躯体と製品
  6
CONTINUOUS
 62
    2
 10
122.94502950000003
 20
184.67015650000008
 11
124.61169650000002
 21
184.67015650000008
  0
LINE
  8
_0-3_躯体と製品
  6
CONTINUOUS
 62
    2
 10
122.94502950000003
 20
184.67015650000008
 11
122.94502950000003
 21
184.7701565000001
  0
LINE
  8
_0-3_躯体と製品
  6
CONTINUOUS
 62
    2
 10
124.61169650000002
 20
184.7701565000001
 11
124.61169650000002
 21
184.67015650000008
  0
LINE
  8
_0-3_躯体と製品
  6
CONTINUOUS
 62
    2
 10
126.11170550000003
 20
182.9363295
 11
126.11170550000003
 21
182.26966250000009
  0
LINE
  8
_0-3_躯体と製品
  6
CONTINUOUS
 62
    2
 10
126.11170550000003
 20
182.26966250000009
 11
125.94503850000004
 21
182.26966250000009
  0
LINE
  8
_0-3_躯体と製品
  6
CONTINUOUS
 62
    2
 10
126.27836350000004
 20
184.67015650000008
 11
127.94502950000003
 21
184.67015650000008
  0
LINE
  8
_0-3_躯体と製品
  6
CONTINUOUS
 62
    2
 10
127.94502950000003
 20
184.67015650000008
 11
127.94502950000003
 21
184.7701565000001
  0
LINE
  8
_0-3_躯体と製品
  6
CONTINUOUS
 62
    2
 10
126.27836350000004
 20
184.67015650000008
 11
126.27836350000004
 21
184.7701565000001
  0
LINE
  8
_0-3_躯体と製品
  6
CONTINUOUS
 62
    2
 10
133.7783475
 20
181.3701635000001
 11
133.7783475
 21
177.10349350000007
  0
LINE
  8
_0-3_躯体と製品
  6
CONTINUOUS
 62
    2
 10
133.11168349999997
 20
181.3701635000001
 11
133.11168349999997
 21
177.60349350000007
  0
LINE
  8
_0-3_躯体と製品
  6
CONTINUOUS
 62
    2
 10
133.94501549999998
 20
180.63682750000009
 11
133.7990585
 21
181.22065849999996
  0
LINE
  8
_0-3_躯体と製品
  6
CONTINUOUS
 62
    2
 10
132.94501649999998
 20
180.63682750000009
 11
133.09097549999998
 21
181.22065849999996
  0
LINE
  8
_0-3_躯体と製品
  6
CONTINUOUS
 62
    2
 10
132.44501649999998
 20
180.63682750000009
 11
132.44501649999998
 21
182.3034935
  0
LINE
  8
_0-3_躯体と製品
  6
CONTINUOUS
 62
    2
 10
134.44501649999998
 20
182.3034935
 11
134.44501649999998
 21
180.63682750000009
  0
LINE
  8
_0-3_躯体と製品
  6
CONTINUOUS
 62
    2
 10
134.44501649999998
 20
180.63682750000009
 11
133.94501649999998
 21
180.63682750000009
  0
ARC
  8
_0-3_躯体と製品
  6
CONTINUOUS
 62
    2
 10
133.94503849999998
 20
176.43682749999999
 40
0.3333329999999999
 50
19.286985000000019
 51
90
  0
LINE
  8
_0-3_躯体と製品
  6
CONTINUOUS
 62
    3
 10
131.06672549999999
 20
173.10349350000007
 11
133.94503849999998
 21
175.98180649999995
  0
LINE
  8
_0-3_躯体と製品
  6
CONTINUOUS
 62
    3
 10
129.6525125
 20
173.10349350000007
 11
132.98584549999998
 21
176.43682749999999
  0
LINE
  8
_0-3_躯体と製品
  6
CONTINUOUS
 62
    3
 10
133.89515349999999
 20
173.10349350000007
 11
133.94503849999998
 21
173.15337950000009
  0
LINE
  8
_0-3_躯体と製品
  6
CONTINUOUS
 62
    3
 10
132.48093949999998
 20
173.10349350000007
 11
133.94503849999998
 21
174.5675935000001
  0
ARC
  8
_0-3_躯体と製品
  6
CONTINUOUS
 62
    2
 10
133.44501449999998
 20
177.10349350000007
 40
0.3333329999999999
 50
270
 51
0
  0
ARC
  8
_0-3_躯体と製品
  6
CONTINUOUS
 62
    2
 10
132.94501649999998
 20
177.60349350000007
 40
0.166667
 50
270
 51
0
  0
LINE
  8
_0-3_躯体と製品
  6
CONTINUOUS
 62
    2
 10
132.94501649999998
 20
180.63682750000009
 11
132.44501649999998
 21
180.63682750000009
  0
LINE
  8
_0-3_躯体と製品
  6
CONTINUOUS
 62
    2
 10
133.94503849999998
 20
176.77016050000009
 11
133.44501449999998
 21
176.77016050000009
  0
ARC
  8
_0-3_躯体と製品
  6
CONTINUOUS
 62
    2
 10
133.44501649999998
 20
182.3034935
 40
1
 50
0
 51
180
  0
LINE
  8
_0-3_躯体と製品
  6
CONTINUOUS
 62
    2
 10
128.94502950000003
 20
184.10349049999996
 11
134.17834149999999
 21
184.10349049999996
  0
LINE
  8
_0-3_躯体と製品
  6
CONTINUOUS
 62
    2
 10
131.27836349999998
 20
184.77015150000005
 11
133.94501749999998
 21
184.77014650000007
  0
LINE
  8
_0-3_躯体と製品
  6
CONTINUOUS
 62
    2
 10
131.27836349999998
 20
184.67015650000008
 11
131.27836349999998
 21
184.7701565000001
  0
LINE
  8
_0-3_躯体と製品
  6
CONTINUOUS
 62
    2
 10
129.61169649999999
 20
184.67015650000008
 11
131.27836349999998
 21
184.67015650000008
  0
LINE
  8
_0-3_躯体と製品
  6
CONTINUOUS
 62
    2
 10
129.61169649999999
 20
184.7701565000001
 11
129.61169649999999
 21
184.67015650000008
  0
LINE
  8
_0-3_躯体と製品
  6
CONTINUOUS
 62
    2
 10
133.94500749999997
 20
184.7701565000001
 11
134.27834149999998
 21
184.4368235
  0
LINE
  8
_0-3_躯体と製品
  6
CONTINUOUS
 62
    2
 10
134.27834149999998
 20
184.4368235
 11
134.27834149999998
 21
184.2034905000001
  0
ARC
  8
_0-3_躯体と製品
  6
CONTINUOUS
 62
    2
 10
134.17834149999999
 20
184.2034905000001
 40
0.1
 50
270
 51
0
  0
LINE
  8
_0-3_躯体と製品
  6
CONTINUOUS
 62
    2
 10
132.94501749999998
 20
181.3701635000001
 11
133.11168449999997
 21
181.3701635000001
  0
LINE
  8
_0-3_躯体と製品
  6
CONTINUOUS
 62
    2
 10
133.94501549999998
 20
181.3701635000001
 11
133.77834849999999
 21
181.3701635000001
  0
ARC
  8
_0-3_躯体と製品
  6
CONTINUOUS
 62
    2
 10
133.44501449999998
 20
182.3701635000001
 40
0.4999979999999998
 50
0
 51
180
  0
LINE
  8
_0-3_躯体と製品
  6
CONTINUOUS
 62
    2
 10
132.94501749999998
 20
182.3701635000001
 11
132.94501749999998
 21
181.3701635000001
  0
LINE
  8
_0-3_躯体と製品
  6
CONTINUOUS
 62
    2
 10
133.94501749999998
 20
182.3701635000001
 11
133.94501549999998
 21
181.3701635000001
  0
LINE
  8
_0-3_躯体と製品
  6
CONTINUOUS
 62
    2
 10
134.0116835
 20
181.3034935
 11
134.0116835
 21
182.3034935
  0
LINE
  8
_0-3_躯体と製品
  6
CONTINUOUS
 62
    2
 10
133.94501549999998
 20
181.3034935
 11
134.0116835
 21
181.3034935
  0
LINE
  8
_0-3_躯体と製品
  6
CONTINUOUS
 62
    2
 10
132.87835149999998
 20
181.3034935
 11
132.87834949999998
 21
182.3034935
  0
LINE
  8
_0-3_躯体と製品
  6
CONTINUOUS
 62
    2
 10
132.9450185
 20
181.3034935
 11
132.87835149999998
 21
181.3034935
  0
ARC
  8
_0-3_躯体と製品
  6
CONTINUOUS
 62
    2
 10
133.86373449999996
 20
181.23682750000006
 40
0.066667
 50
90
 51
194.03619199999949
  0
LINE
  8
_0-3_躯体と製品
  6
CONTINUOUS
 62
    2
 10
133.94501649999998
 20
181.3034935
 11
133.86373449999996
 21
181.3034935
  0
ARC
  8
_0-3_躯体と製品
  6
CONTINUOUS
 62
    2
 10
133.02629949999999
 20
181.23682750000006
 40
0.066667
 50
345.96359799999959
 51
89.999999999999986
  0
LINE
  8
_0-3_躯体と製品
  6
CONTINUOUS
 62
    2
 10
132.9450185
 20
181.3034935
 11
133.02629949999999
 21
181.3034935
  0
ARC
  8
_0-3_躯体と製品
  6
CONTINUOUS
 62
    2
 10
133.44501649999998
 20
182.3034935
 40
0.566667
 50
0
 51
180
  0
ARC
  8
_0-3_躯体と製品
  6
CONTINUOUS
 62
    2
 10
142.27837149999999
 20
-66.540400499999919
 40
250.73333299999999
 50
90.799821000000193
 51
91.028362999999842
  0
LINE
  8
_0-3_躯体と製品
  6
CONTINUOUS
 62
    2
 10
137.77837149999999
 20
184.25256349999995
 11
137.77837149999999
 21
184.15254750000008
  0
LINE
  8
_0-3_躯体と製品
  6
CONTINUOUS
 62
    2
 10
138.77837149999999
 20
184.2685125000001
 11
138.77837149999999
 21
184.16850249999999
  0
LINE
  8
_0-3_躯体と製品
  6
PLINE3
 62
    3
 10
142.27837149999999
 20
188.0243905000001
 11
142.27837149999999
 21
156.43682750000008
  0
LINE
  8
_0-3_躯体と製品
  6
CONTINUOUS
 62
    2
 10
150.61170549999997
 20
156.43682750000008
 11
150.61170549999997
 21
176.43682749999999
  0
LINE
  8
_0-3_躯体と製品
  6
PLINE2
 62
    3
 10
161.57090049999999
 20
163.45098850000005
 11
162.11170549999997
 21
173.77016050000009
  0
LINE
  8
_0-3_躯体と製品
  6
PLINE2
 62
    3
 10
160.94503849999998
 20
172.43682749999999
 11
160.94503849999998
 21
173.77016050000009
  0
LINE
  8
_0-3_躯体と製品
  6
PLINE2
 62
    3
 10
162.98584349999999
 20
163.45098850000005
 11
162.44503849999998
 21
173.77016050000009
  0
LINE
  8
_0-3_躯体と製品
  6
PLINE2
 62
    3
 10
160.17092549999998
 20
173.7047075000001
 11
160.48540249999999
 21
171.50336749999997
  0
LINE
  8
_0-3_躯体と製品
  6
PLINE2
 62
    3
 10
160.17217149999999
 20
171.38936149999995
 11
159.84138649999997
 21
173.65723549999996
  0
LINE
  8
_0-3_躯体と製品
  6
PLINE2
 62
    3
 10
160.17092549999998
 20
173.7047075000001
 11
160.48540249999999
 21
171.50336749999997
  0
LINE
  8
_0-3_躯体と製品
  6
PLINE2
 62
    3
 10
160.17217149999999
 20
171.38936149999995
 11
159.84138649999997
 21
173.65723549999996
  0
LINE
  8
_0-3_躯体と製品
  6
PLINE3
 62
    3
 10
162.27837149999999
 20
161.7662995
 11
162.27837149999999
 21
180.60866250000009
  0
LINE
  8
_0-3_躯体と製品
  6
CONTINUOUS
 62
    2
 10
146.99775149999999
 20
160.28532750000008
 11
150.2970795
 21
176.54692750000009
  0
LINE
  8
_0-3_躯体と製品
  6
CONTINUOUS
 62
    2
 10
150.61170549999997
 20
176.43682749999999
 11
147.31237749999997
 21
160.17522749999998
  0
LINE
  8
_0-5_文字-記号
  6
CONTINUOUS
 62
    3
 10
148.85074249999997
 20
167.75746250000009
 11
153.15747449999998
 21
160.29798450000007
  0
LINE
  8
_0-5_文字-記号
  6
CONTINUOUS
 62
    3
 10
148.85074249999997
 20
167.75746250000009
 11
149.13423649999999
 21
166.76643749999999
  0
LINE
  8
_0-5_文字-記号
  6
CONTINUOUS
 62
    3
 10
148.85074249999997
 20
167.75746250000009
 11
149.56724849999998
 21
167.01643749999999
  0
LINE
  8
_0-3_躯体と製品
  6
PLINE2
 62
    3
 10
160.47561349999998
 20
164.8435535000001
 11
160.44072349999999
 21
164.1778005000001
  0
CIRCLE
  8
_0-5_文字-記号
  6
CONTINUOUS
 62
    3
 10
154.15747449999998
 20
158.56593350000009
 40
2
  0
TEXT
  8
_0-5_文字-記号
 62
    7
 10
153.41080483333329
 20
157.52593049999999
 40
2
 41
0.8
 50
0
  1
４
  0
LINE
  8
_0-3_躯体と製品
  6
PLINE2
 62
    3
 10
160.44072349999999
 20
164.1778005000001
 11
161.07158549999997
 21
163.47715650000009
  0
LINE
  8
_0-3_躯体と製品
  6
PLINE2
 62
    3
 10
161.60579049999998
 20
164.1167415000001
 11
160.44072349999999
 21
164.1778005000001
  0
LINE
  8
_0-3_躯体と製品
  6
PLINE2
 62
    3
 10
161.07158549999997
 20
163.47715650000009
 11
161.57090049999999
 21
163.45098850000005
  0
LINE
  8
_0-3_躯体と製品
  6
PLINE2
 62
    3
 10
161.35071049999999
 20
168.8031805
 11
161.31582049999997
 21
168.13742750000006
  0
LINE
  8
_0-3_躯体と製品
  6
PLINE2
 62
    3
 10
163.20603349999999
 20
168.8031805
 11
163.24092349999998
 21
168.13742750000006
  0
LINE
  8
_0-3_躯体と製品
  6
PLINE2
 62
    3
 10
162.90151949999998
 20
165.05997550000006
 11
162.27837149999999
 21
164.43682749999999
  0
LINE
  8
_0-3_躯体と製品
  6
PLINE2
 62
    3
 10
161.65522349999998
 20
165.05997550000006
 11
162.27837149999999
 21
164.43682749999999
  0
LINE
  8
_0-3_躯体と製品
  6
PLINE2
 62
    3
 10
161.14136649999998
 20
164.80866249999997
 11
160.47561349999998
 21
164.8435535000001
  0
LINE
  8
_0-3_躯体と製品
  6
PLINE2
 62
    3
 10
161.17625749999999
 20
165.47441549999996
 11
161.14136649999998
 21
164.80866249999997
  0
LINE
  8
_0-3_躯体と製品
  6
PLINE2
 62
    3
 10
160.52794949999998
 20
165.84218250000009
 11
161.17625749999999
 21
165.47441549999996
  0
LINE
  8
_0-3_躯体と製品
  6
PLINE2
 62
    3
 10
160.56284049999999
 20
166.50793550000009
 11
160.52794949999998
 21
165.84218250000009
  0
LINE
  8
_0-3_躯体と製品
  6
PLINE2
 62
    3
 10
161.22859349999999
 20
166.47304550000007
 11
160.56284049999999
 21
166.50793550000009
  0
LINE
  8
_0-3_躯体と製品
  6
PLINE2
 62
    3
 10
161.26348449999998
 20
167.13879849999995
 11
161.22859349999999
 21
166.47304550000007
  0
LINE
  8
_0-3_躯体と製品
  6
PLINE2
 62
    3
 10
160.61517649999999
 20
167.50656550000008
 11
161.26348449999998
 21
167.13879849999995
  0
LINE
  8
_0-3_躯体と製品
  6
PLINE2
 62
    3
 10
160.65006649999998
 20
168.17231850000007
 11
160.61517649999999
 21
167.50656550000008
  0
LINE
  8
_0-3_躯体と製品
  6
PLINE2
 62
    3
 10
161.31582049999997
 20
168.13742750000006
 11
160.65006649999998
 21
168.17231850000007
  0
LINE
  8
_0-3_躯体と製品
  6
PLINE2
 62
    3
 10
163.29325949999998
 20
167.13879849999995
 11
163.32815049999999
 21
166.47304550000007
  0
LINE
  8
_0-3_躯体と製品
  6
PLINE2
 62
    3
 10
160.73729349999999
 20
169.83670150000006
 11
160.17217149999999
 21
171.38936149999995
  0
LINE
  8
_0-3_躯体と製品
  6
PLINE2
 62
    3
 10
163.11880649999998
 20
170.4675635000001
 11
163.15369749999999
 21
169.8018105000001
  0
LINE
  8
_0-3_躯体と製品
  6
PLINE2
 62
    3
 10
163.03157949999999
 20
172.13194650000008
 11
163.06647049999998
 21
171.46619350000009
  0
LINE
  8
_0-3_躯体と製品
  6
PLINE2
 62
    3
 10
161.09201949999999
 20
169.83670150000006
 11
160.48540249999999
 21
171.50336749999997
  0
LINE
  8
_0-3_躯体と製品
  6
PLINE2
 62
    3
 10
160.70240249999998
 20
169.17094850000007
 11
161.35071049999999
 21
168.8031805
  0
LINE
  8
_0-3_躯体と製品
  6
PLINE2
 62
    3
 10
160.73729349999999
 20
169.83670150000006
 11
160.70240249999998
 21
169.17094850000007
  0
LINE
  8
_0-3_躯体と製品
  6
PLINE2
 62
    3
 10
161.40304649999999
 20
169.8018105000001
 11
160.73729349999999
 21
169.83670150000006
  0
LINE
  8
_0-3_躯体と製品
  6
PLINE2
 62
    3
 10
161.43793749999998
 20
170.4675635000001
 11
161.40304649999999
 21
169.8018105000001
  0
LINE
  8
_0-3_躯体と製品
  6
PLINE2
 62
    3
 10
160.78962949999999
 20
170.8353305
 11
161.43793749999998
 21
170.4675635000001
  0
LINE
  8
_0-3_躯体と製品
  6
PLINE2
 62
    3
 10
160.82452049999998
 20
171.50108349999999
 11
160.78962949999999
 21
170.8353305
  0
LINE
  8
_0-3_躯体と製品
  6
PLINE2
 62
    3
 10
161.49027349999997
 20
171.46619350000009
 11
160.82452049999998
 21
171.50108349999999
  0
LINE
  8
_0-3_躯体と製品
  6
PLINE2
 62
    3
 10
161.52516349999999
 20
172.13194650000008
 11
161.49027349999997
 21
171.46619350000009
  0
LINE
  8
_0-3_躯体と製品
  6
PLINE2
 62
    3
 10
160.94503849999998
 20
172.43682749999999
 11
161.52516349999999
 21
172.13194650000008
  0
LINE
  8
_0-3_躯体と製品
  6
CONTINUOUS
 62
    3
 10
150.61170549999997
 20
174.51770749999997
 11
152.53082449999999
 21
176.43682749999999
  0
LINE
  8
_0-3_躯体と製品
  6
CONTINUOUS
 62
    3
 10
150.61274949999998
 20
173.10349350000007
 11
153.94611049999997
 21
176.43682749999999
  0
LINE
  8
_0-3_躯体と製品
  6
CONTINUOUS
 62
    2
 10
162.17838049999997
 20
177.43682749999999
 11
151.61172749999997
 21
177.43682749999999
  0
ARC
  8
_0-3_躯体と製品
  6
CONTINUOUS
 62
    2
 10
142.27837149999999
 20
-66.540400499999919
 40
250.83333300000001
 50
86.333010000000144
 51
88.972046999999947
  0
ARC
  8
_0-3_躯体と製品
  6
CONTINUOUS
 62
    2
 10
151.11172749999997
 20
182.3034935
 40
1
 50
0
 51
180
  0
LINE
  8
_0-3_躯体と製品
  6
CONTINUOUS
 62
    2
 10
151.61172749999997
 20
180.63682750000009
 11
152.11172749999997
 21
180.63682750000009
  0
LINE
  8
_0-3_躯体と製品
  6
CONTINUOUS
 62
    2
 10
155.61171449999998
 20
184.10349049999996
 11
150.37840249999999
 21
184.10349049999996
  0
LINE
  8
_0-3_躯体と製品
  6
CONTINUOUS
 62
    2
 10
153.27838049999997
 20
184.77015150000005
 11
150.61172549999998
 21
184.77014650000007
  0
LINE
  8
_0-3_躯体と製品
  6
CONTINUOUS
 62
    2
 10
150.77839549999999
 20
181.3701635000001
 11
150.77839549999999
 21
177.10349350000007
  0
LINE
  8
_0-3_躯体と製品
  6
CONTINUOUS
 62
    2
 10
151.44506049999998
 20
181.3701635000001
 11
151.44506049999998
 21
177.60349350000007
  0
LINE
  8
_0-3_躯体と製品
  6
CONTINUOUS
 62
    2
 10
150.61172749999997
 20
180.63682750000009
 11
150.75768549999998
 21
181.22065849999996
  0
LINE
  8
_0-3_躯体と製品
  6
CONTINUOUS
 62
    2
 10
151.61172749999997
 20
180.63682750000009
 11
151.46576749999997
 21
181.22065849999996
  0
LINE
  8
_0-3_躯体と製品
  6
CONTINUOUS
 62
    2
 10
150.11172749999997
 20
182.3034935
 11
150.11172749999997
 21
180.63682750000009
  0
ARC
  8
_0-3_躯体と製品
  6
CONTINUOUS
 62
    2
 10
150.61170549999997
 20
176.43682749999999
 40
0.3333329999999999
 50
90
 51
160.71301499999993
  0
LINE
  8
_0-3_躯体と製品
  6
CONTINUOUS
 62
    3
 10
150.61170549999997
 20
175.93192149999999
 11
151.11661149999998
 21
176.43682749999999
  0
ARC
  8
_0-3_躯体と製品
  6
CONTINUOUS
 62
    2
 10
151.11172949999997
 20
177.10349350000007
 40
0.3333329999999999
 50
180
 51
270
  0
ARC
  8
_0-3_躯体と製品
  6
CONTINUOUS
 62
    2
 10
151.61172749999997
 20
177.60349350000007
 40
0.166667
 50
180
 51
270
  0
LINE
  8
_0-3_躯体と製品
  6
CONTINUOUS
 62
    2
 10
150.11172749999997
 20
180.63682750000009
 11
150.61172749999997
 21
180.63682750000009
  0
LINE
  8
_0-3_躯体と製品
  6
CONTINUOUS
 62
    2
 10
150.61170549999997
 20
176.77016050000009
 11
151.11172949999997
 21
176.77016050000009
  0
ARC
  8
_0-3_躯体と製品
  6
CONTINUOUS
 62
    2
 10
142.27837149999999
 20
-66.540400499999919
 40
250.73333299999999
 50
88.971636999999774
 51
89.20017900000019
  0
LINE
  8
_0-5_文字-記号
  6
CONTINUOUS
 62
    3
 10
142.27837149999999
 20
183.8677715
 11
145.11604249999999
 21
188.78276150000005
  0
ARC
  8
_0-3_躯体と製品
  6
CONTINUOUS
 62
    2
 10
142.27837149999999
 20
-66.540400499999919
 40
250.83333300000001
 50
89.809647999999967
 51
90.190352000000019
  0
CIRCLE
  8
_0-5_文字-記号
  6
CONTINUOUS
 62
    3
 10
142.27837149999999
 20
183.8677715
 40
0.2
  0
ARC
  8
_0-3_躯体と製品
  6
CONTINUOUS
 62
    2
 10
142.27837149999999
 20
-66.540400499999919
 40
250.73333299999999
 50
90.190427999999883
 51
90.418944000000067
  0
LINE
  8
_0-3_躯体と製品
  6
CONTINUOUS
 62
    2
 10
140.44503849999998
 20
184.2862325000001
 11
140.44503849999998
 21
184.18622949999997
  0
LINE
  8
_0-3_躯体と製品
  6
CONTINUOUS
 62
    2
 10
141.44503849999998
 20
184.29154850000009
 11
141.44503849999998
 21
184.19154749999996
  0
LINE
  8
_0-3_躯体と製品
  6
CONTINUOUS
 62
    2
 10
144.11170549999997
 20
184.2862325000001
 11
144.11170549999997
 21
184.18622949999997
  0
LINE
  8
_0-3_躯体と製品
  6
CONTINUOUS
 62
    2
 10
143.11170549999997
 20
184.29154850000009
 11
143.11170549999997
 21
184.19154749999996
  0
ARC
  8
_0-3_躯体と製品
  6
CONTINUOUS
 62
    2
 10
142.27837149999999
 20
-66.540400499999919
 40
250.83333300000001
 50
89.200497999999925
 51
89.581222999999966
  0
ARC
  8
_0-3_躯体と製品
  6
CONTINUOUS
 62
    2
 10
142.27837149999999
 20
-66.540400499999919
 40
250.73333299999999
 50
89.581055999999947
 51
89.809572000000131
  0
LINE
  8
_0-3_躯体と製品
  6
CONTINUOUS
 62
    2
 10
145.77837149999999
 20
184.2685125000001
 11
145.77837149999999
 21
184.16850249999999
  0
LINE
  8
_0-3_躯体と製品
  6
CONTINUOUS
 62
    2
 10
146.77837149999999
 20
184.25256349999995
 11
146.77837149999999
 21
184.15254750000008
  0
ARC
  8
_0-3_躯体と製品
  6
CONTINUOUS
 62
    2
 10
151.11172849999997
 20
182.3701635000001
 40
0.4999979999999998
 50
0
 51
180
  0
LINE
  8
_0-3_躯体と製品
  6
CONTINUOUS
 62
    2
 10
151.61172649999997
 20
182.3701635000001
 11
151.61172649999997
 21
181.3701635000001
  0
LINE
  8
_0-3_躯体と製品
  6
CONTINUOUS
 62
    2
 10
150.61172649999997
 20
182.3701635000001
 11
150.61172849999997
 21
181.3701635000001
  0
LINE
  8
_0-3_躯体と製品
  6
CONTINUOUS
 62
    2
 10
150.54506049999998
 20
181.3034935
 11
150.54506049999998
 21
182.3034935
  0
LINE
  8
_0-3_躯体と製品
  6
CONTINUOUS
 62
    2
 10
150.61172749999997
 20
181.3034935
 11
150.54506049999998
 21
181.3034935
  0
LINE
  8
_0-3_躯体と製品
  6
CONTINUOUS
 62
    2
 10
151.67839149999998
 20
181.3034935
 11
151.67839349999997
 21
182.3034935
  0
LINE
  8
_0-3_躯体と製品
  6
CONTINUOUS
 62
    2
 10
151.61172549999998
 20
181.3034935
 11
151.67839149999998
 21
181.3034935
  0
ARC
  8
_0-3_躯体と製品
  6
CONTINUOUS
 62
    2
 10
150.69300849999996
 20
181.23682750000006
 40
0.066667
 50
345.96380800000048
 51
90.000000000000043
  0
LINE
  8
_0-3_躯体と製品
  6
CONTINUOUS
 62
    2
 10
150.61172749999997
 20
181.3034935
 11
150.69300849999996
 21
181.3034935
  0
ARC
  8
_0-3_躯体と製品
  6
CONTINUOUS
 62
    2
 10
151.53044349999999
 20
181.23682750000006
 40
0.066667
 50
90
 51
194.03640200000032
  0
LINE
  8
_0-3_躯体と製品
  6
CONTINUOUS
 62
    2
 10
151.61172549999998
 20
181.3034935
 11
151.53044349999999
 21
181.3034935
  0
ARC
  8
_0-3_躯体と製品
  6
CONTINUOUS
 62
    2
 10
151.11172749999997
 20
182.3034935
 40
0.566667
 50
0
 51
180
  0
LINE
  8
_0-3_躯体と製品
  6
CONTINUOUS
 62
    2
 10
150.61173549999998
 20
184.7701565000001
 11
150.27840249999997
 21
184.4368235
  0
LINE
  8
_0-3_躯体と製品
  6
CONTINUOUS
 62
    2
 10
150.27840249999997
 20
184.4368235
 11
150.27840249999997
 21
184.2034905000001
  0
ARC
  8
_0-3_躯体と製品
  6
CONTINUOUS
 62
    2
 10
150.37840249999999
 20
184.2034905000001
 40
0.1
 50
180
 51
270
  0
LINE
  8
_0-3_躯体と製品
  6
CONTINUOUS
 62
    2
 10
151.61172649999997
 20
181.3701635000001
 11
151.44505949999999
 21
181.3701635000001
  0
LINE
  8
_0-3_躯体と製品
  6
CONTINUOUS
 62
    2
 10
150.61172849999997
 20
181.3701635000001
 11
150.77839449999999
 21
181.3701635000001
  0
LINE
  8
_0-3_躯体と製品
  6
CONTINUOUS
 62
    2
 10
152.11172749999997
 20
180.63682750000009
 11
152.11172749999997
 21
182.3034935
  0
LINE
  8
_0-3_躯体と製品
  6
CONTINUOUS
 62
    3
 10
154.85434549999997
 20
173.10349350000007
 11
158.18767949999997
 21
176.43682749999999
  0
LINE
  8
_0-3_躯体と製品
  6
CONTINUOUS
 62
    3
 10
156.26855949999998
 20
173.10349350000007
 11
159.60189249999999
 21
176.43682749999999
  0
LINE
  8
_0-3_躯体と製品
  6
CONTINUOUS
 62
    3
 10
152.02591849999999
 20
173.10349350000007
 11
155.35925249999997
 21
176.43682749999999
  0
LINE
  8
_0-3_躯体と製品
  6
CONTINUOUS
 62
    3
 10
153.4401325
 20
173.10349350000007
 11
156.77346549999999
 21
176.43682749999999
  0
LINE
  8
_0-3_躯体と製品
  6
CONTINUOUS
 62
    3
 10
157.6827735
 20
173.10349350000007
 11
161.01610649999998
 21
176.43682749999999
  0
LINE
  8
_0-3_躯体と製品
  6
CONTINUOUS
 62
    3
 10
159.09698649999999
 20
173.10349350000007
 11
162.4303195
 21
176.43682749999999
  0
ARC
  8
_0-3_躯体と製品
  6
PLINE2
 62
    3
 10
160.03893249999999
 20
173.68585149999996
 40
0.133333
 50
8.1301019999994626
 51
98.130101999999809
  0
LINE
  8
_0-3_躯体と製品
  6
PLINE2
 62
    3
 10
159.95446749999999
 20
173.80847250000005
 11
160.02007549999999
 21
173.81784450000009
  0
ARC
  8
_0-3_躯体と製品
  6
PLINE2
 62
    3
 10
159.97332349999999
 20
173.67647950000008
 40
0.133333
 50
98.130101999999809
 51
188.2984660000001
  0
ARC
  8
_0-3_躯体と製品
  6
PLINE2
 62
    3
 10
160.03893249999999
 20
173.68585149999996
 40
0.133333
 50
8.1301019999994626
 51
98.130101999999809
  0
LINE
  8
_0-3_躯体と製品
  6
PLINE2
 62
    3
 10
159.95446749999999
 20
173.80847250000005
 11
160.02007549999999
 21
173.81784450000009
  0
ARC
  8
_0-3_躯体と製品
  6
PLINE2
 62
    3
 10
159.97332349999999
 20
173.67647950000008
 40
0.133333
 50
98.130101999999809
 51
188.2984660000001
  0
LINE
  8
_0-3_躯体と製品
  6
PLINE2
 62
    3
 10
160.61170549999997
 20
176.43682749999999
 11
160.94503849999998
 21
174.77016050000009
  0
LINE
  8
_0-3_躯体と製品
  6
PLINE2
 62
    3
 10
160.94503849999998
 20
176.43682749999999
 11
160.94503849999998
 21
173.77016050000009
  0
LINE
  8
_0-3_躯体と製品
  6
PLINE2
 62
    3
 10
162.27837149999999
 20
174.77016050000009
 11
162.27837149999999
 21
176.43682749999999
  0
LINE
  8
_0-3_躯体と製品
  6
PLINE2
 62
    3
 10
161.94503849999998
 20
176.43682749999999
 11
162.27837149999999
 21
174.77016050000009
  0
LINE
  8
_0-3_躯体と製品
  6
PLINE2
 62
    3
 10
162.61170549999997
 20
176.43682749999999
 11
162.27837149999999
 21
174.77016050000009
  0
LINE
  8
_0-3_躯体と製品
  6
PLINE2
 62
    3
 10
162.11170549999997
 20
173.77016050000009
 11
162.27837149999999
 21
173.77016050000009
  0
LINE
  8
_0-3_躯体と製品
  6
PLINE2
 62
    3
 10
162.44503849999998
 20
173.77016050000009
 11
162.27837149999999
 21
173.77016050000009
  0
LINE
  8
_0-3_躯体と製品
  6
CONTINUOUS
 62
    2
 10
159.27837149999999
 20
177.93683650000008
 11
159.27837149999999
 21
177.43683649999997
  0
LINE
  8
_0-3_躯体と製品
  6
CONTINUOUS
 62
    2
 10
162.27837149999999
 20
177.33683650000006
 11
162.37837149999999
 21
177.43683649999997
  0
LINE
  8
_0-3_躯体と製品
  6
CONTINUOUS
 62
    2
 10
162.27837149999999
 20
177.33683650000006
 11
162.17838049999997
 21
177.43682749999999
  0
ARC
  8
_0-3_躯体と製品
  6
CONTINUOUS
 62
    2
 10
162.27837149999999
 20
177.27016949999995
 40
1.8
 50
90
 51
128.68218699999971
  0
ARC
  8
_0-3_躯体と製品
  6
CONTINUOUS
 62
    2
 10
161.77745149999998
 20
177.89393250000006
 40
1
 50
128.61463799999981
 51
177.54107400000049
  0
LINE
  8
_0-3_躯体と製品
  6
CONTINUOUS
 62
    2
 10
158.94504949999998
 20
183.9368235
 11
155.61171449999998
 21
184.10349049999996
  0
LINE
  8
_0-3_躯体と製品
  6
CONTINUOUS
 62
    2
 10
158.2783805
 20
184.67015650000008
 11
156.61171449999998
 21
184.67015650000008
  0
LINE
  8
_0-3_躯体と製品
  6
CONTINUOUS
 62
    2
 10
154.94504749999999
 20
184.67015650000008
 11
153.27838049999997
 21
184.67015650000008
  0
LINE
  8
_0-3_躯体と製品
  6
CONTINUOUS
 62
    2
 10
153.27838049999997
 20
184.67015650000008
 11
153.27838049999997
 21
184.7701565000001
  0
LINE
  8
_0-3_躯体と製品
  6
CONTINUOUS
 62
    2
 10
156.61171449999998
 20
184.67015650000008
 11
156.61171449999998
 21
184.7701565000001
  0
LINE
  8
_0-3_躯体と製品
  6
CONTINUOUS
 62
    2
 10
154.94504749999999
 20
184.7701565000001
 11
154.94504749999999
 21
184.67015650000008
  0
LINE
  8
_0-3_躯体と製品
  6
CONTINUOUS
 62
    2
 10
156.61171449999998
 20
184.77015850000009
 11
154.94504749999999
 21
184.7701545000001
  0
LINE
  8
_0-3_躯体と製品
  6
CONTINUOUS
 62
    2
 10
161.61171449999998
 20
184.67015650000008
 11
159.94504749999999
 21
184.67015650000008
  0
CIRCLE
  8
_0-5_文字-記号
  6
CONTINUOUS
 62
    3
 10
159.24049849999997
 20
184.40311750000006
 40
0.2
  0
LINE
  8
_0-3_躯体と製品
  6
CONTINUOUS
 62
    2
 10
158.44503849999998
 20
182.9363295
 11
158.44503849999998
 21
182.26966250000009
  0
LINE
  8
_0-3_躯体と製品
  6
CONTINUOUS
 62
    2
 10
158.44503849999998
 20
182.26966250000009
 11
158.61170549999997
 21
182.26966250000009
  0
ARC
  8
_0-3_躯体と製品
  6
CONTINUOUS
 62
    2
 10
158.61170549999997
 20
182.60299550000008
 40
0.3333329999999999
 50
270
 51
0
  0
LINE
  8
_0-3_躯体と製品
  6
CONTINUOUS
 62
    2
 10
158.94503849999998
 20
183.11408250000005
 11
158.94503849999998
 21
182.60299550000008
  0
ARC
  8
_0-3_躯体と製品
  6
CONTINUOUS
 62
    2
 10
158.27837149999999
 20
183.11408250000005
 40
0.666667
 50
0
 51
86.333010000000144
  0
LINE
  8
_0-3_躯体と製品
  6
CONTINUOUS
 62
    2
 10
158.2783805
 20
184.67015650000008
 11
158.2783805
 21
184.7701565000001
  0
LINE
  8
_0-3_躯体と製品
  6
CONTINUOUS
 62
    2
 10
159.94504749999999
 20
184.7701565000001
 11
159.94504749999999
 21
184.67015650000008
  0
LINE
  8
_0-3_躯体と製品
  6
CONTINUOUS
 62
    2
 10
159.94504749999999
 20
184.77016449999996
 11
158.2783805
 21
184.77016150000009
  0
LINE
  8
_0-3_躯体と製品
  6
CONTINUOUS
 62
    2
 10
161.61171449999998
 20
184.67015650000008
 11
161.61171449999998
 21
184.7701565000001
  0
LINE
  8
_0-3_躯体と製品
  6
CONTINUOUS
 62
    2
 10
163.2783805
 20
184.67015650000008
 11
163.2783805
 21
184.7701565000001
  0
LINE
  8
_0-3_躯体と製品
  6
CONTINUOUS
 62
    2
 10
163.2783805
 20
184.7701715
 11
161.61171449999998
 21
184.77016750000007
  0
CIRCLE
  8
_0-5_文字-記号
  6
CONTINUOUS
 62
    3
 10
121.15891950000002
 20
191.68015650000007
 40
2
  0
TEXT
  8
_0-5_文字-記号
 62
    7
 10
120.4655841666667
 20
190.6401575000001
 40
2
 41
0.8
 50
0
  1
５
  0
TEXT
  8
_0-5_文字-記号
 62
    7
 10
145.42271116666669
 20
189.4748135000001
 40
2
 41
0.8
 50
0
  1
２
  0
TEXT
  8
_0-5_文字-記号
 62
    7
 10
162.29906483333329
 20
189.95398449999999
 40
2
 41
0.8
 50
0
  1
１
  0
LINE
  8
_0-5_文字-記号
  6
CONTINUOUS
 62
    3
 10
167.26116349999998
 20
177.1853435000001
 11
171.7225565
 21
169.45798449999995
  0
LINE
  8
_0-3_躯体と製品
  6
PLINE2
 62
    3
 10
163.61170549999997
 20
172.43682749999999
 11
163.61170549999997
 21
173.77016050000009
  0
LINE
  8
_0-3_躯体と製品
  6
PLINE2
 62
    3
 10
164.38581849999997
 20
173.7047075000001
 11
164.07134149999999
 21
171.50336749999997
  0
LINE
  8
_0-3_躯体と製品
  6
PLINE2
 62
    3
 10
164.38457249999999
 20
171.38936149999995
 11
164.71535749999998
 21
173.65723549999996
  0
LINE
  8
_0-3_躯体と製品
  6
PLINE2
 62
    3
 10
164.08112949999997
 20
164.8435535000001
 11
164.11602049999999
 21
164.1778005000001
  0
LINE
  8
_0-3_躯体と製品
  6
PLINE2
 62
    3
 10
164.11602049999999
 20
164.1778005000001
 11
163.48515849999998
 21
163.47715650000009
  0
LINE
  8
_0-3_躯体と製品
  6
PLINE2
 62
    3
 10
163.41537649999998
 20
164.80866249999997
 11
164.08112949999997
 21
164.8435535000001
  0
LINE
  8
_0-3_躯体と製品
  6
PLINE2
 62
    3
 10
163.38048649999999
 20
165.47441549999996
 11
163.41537649999998
 21
164.80866249999997
  0
LINE
  8
_0-3_躯体と製品
  6
PLINE2
 62
    3
 10
164.02879349999998
 20
165.84218250000009
 11
163.38048649999999
 21
165.47441549999996
  0
LINE
  8
_0-3_躯体と製品
  6
PLINE2
 62
    3
 10
163.99390349999999
 20
166.50793550000009
 11
164.02879349999998
 21
165.84218250000009
  0
LINE
  8
_0-3_躯体と製品
  6
PLINE2
 62
    3
 10
163.90667649999997
 20
168.17231850000007
 11
163.94156749999999
 21
167.50656550000008
  0
LINE
  8
_0-3_躯体と製品
  6
PLINE2
 62
    3
 10
163.81945049999999
 20
169.83670150000006
 11
163.85434049999998
 21
169.17094850000007
  0
LINE
  8
_0-3_躯体と製品
  6
PLINE2
 62
    3
 10
163.73222349999998
 20
171.50108349999999
 11
163.76711449999999
 21
170.8353305
  0
LINE
  8
_0-3_躯体と製品
  6
PLINE2
 62
    3
 10
163.81945049999999
 20
169.83670150000006
 11
164.38457249999999
 21
171.38936149999995
  0
LINE
  8
_0-3_躯体と製品
  6
PLINE2
 62
    3
 10
163.46472449999999
 20
169.83670150000006
 11
164.07134149999999
 21
171.50336749999997
  0
TEXT
  8
_0-5_文字-記号
 62
    7
 10
172.02922516666669
 20
166.68593350000009
 40
2
 41
0.8
 50
0
  1
３
  0
CIRCLE
  8
_0-5_文字-記号
  6
CONTINUOUS
 62
    3
 10
172.7225565
 20
167.72593350000005
 40
2
  0
LINE
  8
_0-3_躯体と製品
  6
CONTINUOUS
 62
    2
 10
177.27837349999999
 20
184.2701565000001
 11
170.6117065
 21
184.2701565000001
  0
LINE
  8
_0-3_躯体と製品
  6
CONTINUOUS
 62
    2
 10
177.2783695
 20
184.7701565000001
 11
170.61170249999998
 21
184.7701565000001
  0
LINE
  8
_0-3_躯体と製品
  6
PLINE3
 62
    3
 10
167.44504949999998
 20
185.75803149999996
 11
167.44504949999998
 21
178.60348850000008
  0
LINE
  8
_0-3_躯体と製品
  6
CONTINUOUS
 62
    2
 10
168.61170549999997
 20
182.60349150000008
 11
168.61171849999999
 21
177.60349650000006
  0
LINE
  8
_0-3_躯体と製品
  6
CONTINUOUS
 62
    2
 10
169.27837149999999
 20
181.60349350000007
 11
169.27841049999998
 21
177.10349850000006
  0
LINE
  8
_0-3_躯体と製品
  6
CONTINUOUS
 62
    3
 10
167.02282649999998
 20
181.5286375
 11
167.02282649999998
 21
179.74474350000008
  0
LINE
  8
_0-3_躯体と製品
  6
CONTINUOUS
 62
    3
 10
167.86727149999999
 20
181.10349050000008
 11
167.86727149999999
 21
179.74474350000008
  0
LINE
  8
_0-3_躯体と製品
  6
PLINE3
 62
    3
 10
167.44504949999998
 20
185.75803149999996
 11
167.44504949999998
 21
178.60348850000008
  0
ARC
  8
_0-3_躯体と製品
  6
CONTINUOUS
 62
    3
 10
165.44295449999998
 20
179.84729750000008
 40
2.018419999999999
 50
7.2920820000006179
 51
38.489021999999778
  0
LINE
  8
_0-3_躯体と製品
  6
CONTINUOUS
 62
    3
 10
168.99648149999999
 20
173.10349350000007
 11
172.32981449999997
 21
176.43682749999999
  0
LINE
  8
_0-3_躯体と製品
  6
CONTINUOUS
 62
    3
 10
167.58226749999997
 20
173.10349350000007
 11
170.91560149999998
 21
176.43682749999999
  0
LINE
  8
_0-3_躯体と製品
  6
CONTINUOUS
 62
    3
 10
166.16805449999998
 20
173.10349350000007
 11
169.50138749999999
 21
176.43682749999999
  0
ARC
  8
_0-3_躯体と製品
  6
CONTINUOUS
 62
    2
 10
168.9450775
 20
177.10349350000007
 40
0.3333329999999999
 50
270
 51
0.0008160000003766
  0
LINE
  8
_0-3_躯体と製品
  6
CONTINUOUS
 62
    2
 10
168.9450775
 20
176.77016050000009
 11
169.27841049999998
 21
176.77016050000009
  0
LINE
  8
_0-3_躯体と製品
  6
CONTINUOUS
 62
    3
 10
164.7538405
 20
173.10349350000007
 11
168.08717449999997
 21
176.43682749999999
  0
ARC
  8
_0-3_躯体と製品
  6
PLINE2
 62
    3
 10
164.51781149999999
 20
173.68585149999996
 40
0.133333
 50
81.869898000000191
 51
171.86989800000052
  0
LINE
  8
_0-3_躯体と製品
  6
PLINE2
 62
    3
 10
164.60227649999999
 20
173.80847250000005
 11
164.53666749999999
 21
173.81784450000009
  0
ARC
  8
_0-3_躯体と製品
  6
PLINE2
 62
    3
 10
164.58341949999999
 20
173.67647950000008
 40
0.133333
 50
351.70153399999987
 51
81.869898000000205
  0
LINE
  8
_0-3_躯体と製品
  6
PLINE2
 62
    3
 10
163.94503849999998
 20
176.43682749999999
 11
163.61170549999997
 21
174.77016050000009
  0
LINE
  8
_0-3_躯体と製品
  6
PLINE2
 62
    3
 10
163.61170549999997
 20
176.43682749999999
 11
163.61170549999997
 21
173.77016050000009
  0
LINE
  8
_0-3_躯体と製品
  6
CONTINUOUS
 62
    2
 10
165.27837149999999
 20
177.93683650000008
 11
165.27837149999999
 21
177.43683649999997
  0
ARC
  8
_0-3_躯体と製品
  6
CONTINUOUS
 62
    2
 10
162.7792925
 20
177.89393250000006
 40
1
 50
2.4589259999995199
 51
51.385362000000178
  0
CIRCLE
  8
_0-5_文字-記号
  6
CONTINUOUS
 62
    3
 10
167.26116349999998
 20
177.1853435000001
 40
0.2
  0
ARC
  8
_0-3_躯体と製品
  6
CONTINUOUS
 62
    2
 10
168.44505149999998
 20
177.60349550000007
 40
0.166667
 50
270
 51
0
  0
ARC
  8
_0-3_躯体と製品
  6
CONTINUOUS
 62
    3
 10
167.32012449999999
 20
179.52862450000009
 40
0.5882830000000001
 50
21.553695999999505
 51
77.739671000000143
  0
LINE
  8
_0-3_躯体と製品
  6
CONTINUOUS
 62
    3
 10
167.44504949999998
 20
179.4368235
 11
167.02282649999998
 21
179.74474350000008
  0
LINE
  8
_0-3_躯体と製品
  6
CONTINUOUS
 62
    3
 10
167.44504949999998
 20
179.4368235
 11
167.86727149999999
 21
179.74474350000008
  0
LINE
  8
_0-3_躯体と製品
  6
CONTINUOUS
 62
    3
 10
167.44504949999998
 20
180.10349049999996
 11
167.44504949999998
 21
179.4368235
  0
LINE
  8
_0-3_躯体と製品
  6
CONTINUOUS
 62
    2
 10
169.27841049999998
 20
176.77016050000009
 11
169.27841049999998
 21
176.43682749999999
  0
LINE
  8
_0-3_躯体と製品
  6
CONTINUOUS
 62
    3
 10
171.82490849999999
 20
173.10349350000007
 11
172.61176749999998
 21
173.89035250000006
  0
LINE
  8
_0-3_躯体と製品
  6
CONTINUOUS
 62
    3
 10
170.41069549999997
 20
173.10349350000007
 11
172.61175549999999
 21
175.30455450000005
  0
LINE
  8
_0-3_躯体と製品
  6
CONTINUOUS
 62
    2
 10
172.61174649999998
 20
176.43682749999999
 11
172.61177349999997
 21
173.10349350000007
  0
ARC
  8
_0-3_躯体と製品
  6
CONTINUOUS
 62
    2
 10
169.11170549999997
 20
183.93682949999999
 40
0.166667
 50
0
 51
90
  0
ARC
  8
_0-3_躯体と製品
  6
CONTINUOUS
 62
    2
 10
169.11171449999998
 20
183.9368235
 40
0.166667
 50
0
 51
90
  0
LINE
  8
_0-3_躯体と製品
  6
CONTINUOUS
 62
    2
 10
169.61171449999998
 20
184.7701565000001
 11
167.54504949999998
 21
184.77016449999996
  0
ARC
  8
_0-3_躯体と製品
  6
CONTINUOUS
 62
    2
 10
166.61171349999998
 20
183.60352449999999
 40
0.666667
 50
180.00384000000008
 51
269.99884999999978
  0
LINE
  8
_0-3_躯体と製品
  6
CONTINUOUS
 62
    2
 10
166.27903449999999
 20
184.10349049999996
 11
166.11061649999999
 21
184.10349049999996
  0
LINE
  8
_0-3_躯体と製品
  6
CONTINUOUS
 62
    2
 10
165.61171449999998
 20
184.10349049999996
 11
169.11171449999998
 21
184.10349049999996
  0
LINE
  8
_0-3_躯体と製品
  6
CONTINUOUS
 62
    2
 10
164.94504749999999
 20
184.7701715
 11
167.34505849999999
 21
184.7701555000001
  0
LINE
  8
_0-3_躯体と製品
  6
PLINE2
 62
    3
 10
166.24504949999999
 20
184.67015650000008
 11
167.02282649999998
 21
184.00349050000005
  0
LINE
  8
_0-3_躯体と製品
  6
PLINE2
 62
    3
 10
168.64504949999997
 20
184.67015650000008
 11
166.24504949999999
 21
184.67015650000008
  0
LINE
  8
_0-3_躯体と製品
  6
CONTINUOUS
 62
    2
 10
165.94504649999999
 20
183.60347949999999
 11
165.94502449999999
 21
183.93681950000007
  0
ARC
  8
_0-3_躯体と製品
  6
CONTINUOUS
 62
    2
 10
166.11169149999998
 20
183.9368265
 40
0.166667
 50
90
 51
180.00255999999951
  0
LINE
  8
_0-3_躯体と製品
  6
CONTINUOUS
 62
    2
 10
164.94504749999999
 20
184.7701565000001
 11
164.94504749999999
 21
184.67015650000008
  0
LINE
  8
_0-3_躯体と製品
  6
CONTINUOUS
 62
    2
 10
165.61171449999998
 20
184.10349049999996
 11
165.44504749999999
 21
183.9368235
  0
LINE
  8
_0-3_躯体と製品
  6
PLINE2
 62
    3
 10
166.24504949999999
 20
184.7701565000001
 11
166.24504949999999
 21
184.67015650000008
  0
LINE
  8
_0-3_躯体と製品
  6
CONTINUOUS
 62
    2
 10
167.54504049999997
 20
183.77016050000009
 11
167.44504049999998
 21
183.67016050000007
  0
LINE
  8
_0-3_躯体と製品
  6
CONTINUOUS
 62
    2
 10
168.77833849999999
 20
184.10349049999996
 11
169.11170549999997
 21
184.10349350000007
  0
ARC
  8
_0-3_躯体と製品
  6
CONTINUOUS
 62
    2
 10
168.77834049999998
 20
183.9368235
 40
0.166667
 50
90.000649000000095
 51
180
  0
ARC
  8
_0-3_躯体と製品
  6
CONTINUOUS
 62
    2
 10
166.27837349999999
 20
183.9368245
 40
0.166667
 50
0
 51
89.999151000000097
  0
LINE
  8
_0-3_躯体と製品
  6
CONTINUOUS
 62
    2
 10
166.61170049999998
 20
182.93685750000009
 11
168.27837949999997
 21
182.9368245
  0
LINE
  8
_0-3_躯体と製品
  6
CONTINUOUS
 62
    2
 10
166.44504049999998
 20
183.77016050000009
 11
166.44504049999998
 21
183.9368245
  0
LINE
  8
_0-3_躯体と製品
  6
CONTINUOUS
 62
    2
 10
168.61167449999999
 20
183.77016050000009
 11
168.61167449999999
 21
183.9368235
  0
ARC
  8
_0-3_躯体と製品
  6
CONTINUOUS
 62
    2
 10
168.27837249999999
 20
182.60349150000008
 40
0.3333329999999999
 50
0
 51
89.99884999999982
  0
LINE
  8
_0-3_躯体と製品
  6
CONTINUOUS
 62
    2
 10
167.34504049999998
 20
183.77016050000009
 11
166.44504049999998
 21
183.77016050000009
  0
LINE
  8
_0-3_躯体と製品
  6
CONTINUOUS
 62
    2
 10
168.61167449999999
 20
183.77016050000009
 11
167.54504049999997
 21
183.77016050000009
  0
LINE
  8
_0-3_躯体と製品
  6
CONTINUOUS
 62
    2
 10
167.34504049999998
 20
183.77016050000009
 11
167.44504049999998
 21
183.67016050000007
  0
LINE
  8
_0-3_躯体と製品
  6
CONTINUOUS
 62
    2
 10
167.44504949999998
 20
184.67016450000006
 11
167.34505849999999
 21
184.7701555000001
  0
LINE
  8
_0-3_躯体と製品
  6
CONTINUOUS
 62
    2
 10
167.44504949999998
 20
184.67016450000006
 11
167.54504949999998
 21
184.77016449999996
  0
LINE
  8
_0-3_躯体と製品
  6
CONTINUOUS
 62
    3
 10
168.11171549999997
 20
183.77545450000008
 11
167.86727149999999
 21
183.63432449999999
  0
LINE
  8
_0-3_躯体と製品
  6
CONTINUOUS
 62
    3
 10
167.44504949999998
 20
183.93224450000008
 11
168.11171549999997
 21
183.77545450000008
  0
LINE
  8
_0-3_躯体と製品
  6
CONTINUOUS
 62
    3
 10
167.86727149999999
 20
184.00349050000005
 11
167.86727149999999
 21
183.91658450000006
  0
LINE
  8
_0-3_躯体と製品
  6
CONTINUOUS
 62
    3
 10
167.02282649999998
 20
183.69237850000007
 11
166.77838249999999
 21
183.55124849999999
  0
LINE
  8
_0-3_躯体と製品
  6
PLINE2
 62
    3
 10
167.02282649999998
 20
183.41011849999995
 11
166.77838249999999
 21
183.55124849999999
  0
LINE
  8
_0-3_躯体と製品
  6
PLINE2
 62
    3
 10
168.11171549999997
 20
183.2376685000001
 11
167.86727149999999
 21
183.37879849999996
  0
LINE
  8
_0-3_躯体と製品
  6
PLINE2
 62
    3
 10
168.11171549999997
 20
183.2376685000001
 11
167.86727149999999
 21
183.09653849999995
  0
LINE
  8
_0-3_躯体と製品
  6
PLINE2
 62
    3
 10
168.11171549999997
 20
183.2376685000001
 11
166.77838249999999
 21
183.55124849999999
  0
LINE
  8
_0-3_躯体と製品
  6
PLINE2
 62
    3
 10
167.86727149999999
 20
183.37879849999996
 11
167.02282649999998
 21
183.69237850000007
  0
LINE
  8
_0-3_躯体と製品
  6
PLINE2
 62
    3
 10
167.86727149999999
 20
183.09653849999995
 11
167.02282649999998
 21
183.41011849999995
  0
LINE
  8
_0-3_躯体と製品
  6
CONTINUOUS
 62
    3
 10
167.02282649999998
 20
184.00349050000005
 11
167.02282649999998
 21
183.69237850000007
  0
LINE
  8
_0-3_躯体と製品
  6
PLINE2
 62
    3
 10
167.86727149999999
 20
183.45813650000008
 11
167.86727149999999
 21
183.37879849999996
  0
LINE
  8
_0-3_躯体と製品
  6
CONTINUOUS
 62
    3
 10
167.02282649999998
 20
183.06521850000007
 11
166.77838249999999
 21
182.9240885000001
  0
LINE
  8
_0-3_躯体と製品
  6
CONTINUOUS
 62
    3
 10
166.77838249999999
 20
182.9240885000001
 11
167.02282649999998
 21
182.78295849999995
  0
LINE
  8
_0-3_躯体と製品
  6
CONTINUOUS
 62
    3
 10
168.11171549999997
 20
182.61050850000009
 11
167.86727149999999
 21
182.75163850000007
  0
LINE
  8
_0-3_躯体と製品
  6
CONTINUOUS
 62
    3
 10
168.11171549999997
 20
182.61050850000009
 11
167.86727149999999
 21
182.46937850000006
  0
LINE
  8
_0-3_躯体と製品
  6
CONTINUOUS
 62
    3
 10
168.11171549999997
 20
182.61050850000009
 11
166.77838249999999
 21
182.9240885000001
  0
LINE
  8
_0-3_躯体と製品
  6
CONTINUOUS
 62
    3
 10
167.86727149999999
 20
182.75163850000007
 11
167.02282649999998
 21
183.06521850000007
  0
LINE
  8
_0-3_躯体と製品
  6
CONTINUOUS
 62
    3
 10
167.86727149999999
 20
182.46937850000006
 11
167.02282649999998
 21
182.78295849999995
  0
LINE
  8
_0-3_躯体と製品
  6
PLINE2
 62
    3
 10
167.02282649999998
 20
183.06521850000007
 11
167.02282649999998
 21
183.41011849999995
  0
LINE
  8
_0-3_躯体と製品
  6
PLINE2
 62
    3
 10
167.86727149999999
 20
183.09653849999995
 11
167.86727149999999
 21
182.75163850000007
  0
LINE
  8
_0-3_躯体と製品
  6
CONTINUOUS
 62
    3
 10
167.02282649999998
 20
182.43805850000007
 11
166.77838249999999
 21
182.29692749999998
  0
LINE
  8
_0-3_躯体と製品
  6
CONTINUOUS
 62
    3
 10
166.77838249999999
 20
182.29692749999998
 11
167.02282649999998
 21
182.15579749999995
  0
LINE
  8
_0-3_躯体と製品
  6
CONTINUOUS
 62
    3
 10
168.11171549999997
 20
181.98334749999998
 11
167.86727149999999
 21
182.12447749999995
  0
LINE
  8
_0-3_躯体と製品
  6
CONTINUOUS
 62
    3
 10
168.11171549999997
 20
181.98334749999998
 11
167.86727149999999
 21
181.84221749999995
  0
LINE
  8
_0-3_躯体と製品
  6
CONTINUOUS
 62
    3
 10
168.11171549999997
 20
181.98334749999998
 11
166.77838249999999
 21
182.29692749999998
  0
LINE
  8
_0-3_躯体と製品
  6
CONTINUOUS
 62
    3
 10
167.86727149999999
 20
182.12447749999995
 11
167.02282649999998
 21
182.43805850000007
  0
LINE
  8
_0-3_躯体と製品
  6
CONTINUOUS
 62
    3
 10
167.86727149999999
 20
181.84221749999995
 11
167.02282649999998
 21
182.15579749999995
  0
LINE
  8
_0-3_躯体と製品
  6
CONTINUOUS
 62
    3
 10
167.02282649999998
 20
182.43805850000007
 11
167.02282649999998
 21
182.78295849999995
  0
LINE
  8
_0-3_躯体と製品
  6
CONTINUOUS
 62
    3
 10
167.86727149999999
 20
182.46937850000006
 11
167.86727149999999
 21
182.12447749999995
  0
LINE
  8
_0-3_躯体と製品
  6
CONTINUOUS
 62
    3
 10
167.02282649999998
 20
181.81089749999995
 11
166.77838249999999
 21
181.66976750000009
  0
LINE
  8
_0-3_躯体と製品
  6
CONTINUOUS
 62
    3
 10
166.77838249999999
 20
181.66976750000009
 11
167.02282649999998
 21
181.5286375
  0
LINE
  8
_0-3_躯体と製品
  6
CONTINUOUS
 62
    3
 10
168.11171549999997
 20
181.35618750000009
 11
167.86727149999999
 21
181.49731750000007
  0
LINE
  8
_0-3_躯体と製品
  6
CONTINUOUS
 62
    3
 10
168.11171549999997
 20
181.35618750000009
 11
167.86727149999999
 21
181.21505750000006
  0
LINE
  8
_0-3_躯体と製品
  6
CONTINUOUS
 62
    3
 10
168.11171549999997
 20
181.35618750000009
 11
166.77838249999999
 21
181.66976750000009
  0
LINE
  8
_0-3_躯体と製品
  6
CONTINUOUS
 62
    3
 10
167.86727149999999
 20
181.49731750000007
 11
167.02282649999998
 21
181.81089749999995
  0
LINE
  8
_0-3_躯体と製品
  6
CONTINUOUS
 62
    3
 10
167.86727149999999
 20
181.21505750000006
 11
167.02282649999998
 21
181.5286375
  0
LINE
  8
_0-3_躯体と製品
  6
CONTINUOUS
 62
    3
 10
167.02282649999998
 20
181.81089749999995
 11
167.02282649999998
 21
182.15579749999995
  0
LINE
  8
_0-3_躯体と製品
  6
CONTINUOUS
 62
    3
 10
167.86727149999999
 20
181.84221749999995
 11
167.86727149999999
 21
181.49731750000007
  0
LINE
  8
_0-3_躯体と製品
  6
CONTINUOUS
 62
    3
 10
167.86727149999999
 20
183.63432449999999
 11
167.44504949999998
 21
183.93224450000008
  0
LINE
  8
_0-3_躯体と製品
  6
CONTINUOUS
 62
    3
 10
167.86727149999999
 20
183.91658450000006
 11
167.44504949999998
 21
183.93224450000008
  0
LINE
  8
_0-3_躯体と製品
  6
CONTINUOUS
 62
    3
 10
167.86727149999999
 20
184.00349050000005
 11
167.02282649999998
 21
184.00349050000005
  0
LINE
  8
_0-3_躯体と製品
  6
PLINE2
 62
    3
 10
168.64504949999997
 20
184.67015650000008
 11
167.86727149999999
 21
184.00349050000005
  0
LINE
  8
_0-3_躯体と製品
  6
PLINE2
 62
    3
 10
168.64504949999997
 20
184.7701565000001
 11
168.64504949999997
 21
184.67015650000008
  0
LINE
  8
_0-3_躯体と製品
  6
CONTINUOUS
 62
    3
 10
167.86727149999999
 20
181.21505750000006
 11
167.86727149999999
 21
181.10349050000008
  0
LINE
  8
_0-3_躯体と製品
  6
CONTINUOUS
 62
    3
 10
167.02282649999998
 20
181.10349050000008
 11
167.86726649999997
 21
181.10349050000008
  0
LINE
  8
_0-3_躯体と製品
  6
CONTINUOUS
 62
    3
 10
167.86727149999999
 20
183.63432449999999
 11
167.86727149999999
 21
183.45813650000008
  0
LINE
  8
_0-3_躯体と製品
  6
CONTINUOUS
 62
    3
 10
168.11171549999997
 20
183.77545450000008
 11
167.86727149999999
 21
183.91658450000006
  0
ARC
  8
_0-3_躯体と製品
  6
CONTINUOUS
 62
    2
 10
170.21170349999997
 20
184.6701625
 40
0.1
 50
90
 51
180
  0
ARC
  8
_0-3_躯体と製品
  6
CONTINUOUS
 62
    2
 10
170.51170649999997
 20
184.6701625
 40
0.1
 50
0
 51
90
  0
ARC
  8
_0-3_躯体と製品
  6
CONTINUOUS
 62
    2
 10
169.61171449999998
 20
184.4368235
 40
0.3333329999999999
 50
0
 51
90
  0
LINE
  8
_0-3_躯体と製品
  6
CONTINUOUS
 62
    2
 10
170.1117065
 20
182.43682949999999
 11
170.11170349999998
 21
184.6701625
  0
ARC
  8
_0-3_躯体と製品
  6
CONTINUOUS
 62
    2
 10
169.94504049999998
 20
182.43682949999999
 40
0.166667
 50
270
 51
0
  0
LINE
  8
_0-3_躯体と製品
  6
CONTINUOUS
 62
    2
 10
170.6117065
 20
184.7701565000001
 11
170.6117065
 21
182.10349250000007
  0
LINE
  8
_0-3_躯体と製品
  6
CONTINUOUS
 62
    2
 10
169.27838749999998
 20
182.43682550000005
 11
169.27837349999999
 21
183.93682849999999
  0
LINE
  8
_0-3_躯体と製品
  6
CONTINUOUS
 62
    2
 10
170.27837249999999
 20
181.77015850000009
 11
169.44503849999998
 21
181.77016150000009
  0
ARC
  8
_0-3_躯体と製品
  6
CONTINUOUS
 62
    2
 10
169.44503749999998
 20
181.60349450000007
 40
0.166667
 50
90
 51
180.0004670000007
  0
ARC
  8
_0-3_躯体と製品
  6
CONTINUOUS
 62
    2
 10
170.27837349999999
 20
182.10349250000007
 40
0.3333329999999999
 50
270
 51
0
  0
LINE
  8
_0-3_躯体と製品
  6
CONTINUOUS
 62
    2
 10
169.44505449999997
 20
182.27016050000009
 11
169.94504049999998
 21
182.27016350000008
  0
ARC
  8
_0-3_躯体と製品
  6
CONTINUOUS
 62
    2
 10
169.44505349999997
 20
182.43682749999999
 40
0.166667
 50
180.00052500000069
 51
270
  0
LINE
  8
_0-3_躯体と製品
  6
CONTINUOUS
 62
    2
 10
170.51170649999997
 20
184.77016250000008
 11
170.21170349999997
 21
184.77016250000008
  0
LINE
  8
_0-3_躯体と製品
  6
CONTINUOUS
 62
    2
 10
169.94504749999999
 20
183.10349050000008
 11
169.94504749999999
 21
184.4368235
  0
LINE
  8
_0-3_躯体と製品
  6
CONTINUOUS
 62
    2
 10
169.2783805
 20
183.10349050000008
 11
169.2783805
 21
183.9368235
  0
ARC
  8
_0-3_躯体と製品
  6
CONTINUOUS
 62
    2
 10
169.61171449999998
 20
183.10349050000008
 40
0.3333329999999999
 50
180
 51
0
  0
LINE
  8
_0-4_図面枠
  6
CONTINUOUS
 62
    1
 10
210.00806649999998
 20
241.41628449999996
 11
210.00806649999998
 21
55.583715500000068
  0
LINE
  8
_0-4_図面枠
  6
CONTINUOUS
 62
    1
 10
345.46745549999997
 20
55.583715500000068
 11
345.46745549999997
 21
241.41628449999996
  0
CIRCLE
  8
_0-5_文字-記号
  6
CONTINUOUS
 62
    3
 10
261.81328550000001
 20
157.17369350000007
 40
2
  0
TEXT
  8
_0-5_文字-記号
 62
    7
 10
298.7747081666667
 20
155.23160350000006
 40
2
 41
0.8
 50
0
  1
６
  0
CIRCLE
  8
_0-5_文字-記号
  6
CONTINUOUS
 62
    3
 10
299.46803849999998
 20
156.27160849999999
 40
2
  0
LINE
  8
_0-4_図面枠
  6
CONTINUOUS
 62
    2
 10
326.40443049999999
 20
90.587006500000086
 11
229.07109149999999
 21
90.587006500000086
  0
LINE
  8
_0-4_図面枠
  6
CONTINUOUS
 62
    2
 10
326.40443049999999
 20
86.587005500000089
 11
229.07109149999999
 21
86.587005500000089
  0
LINE
  8
_0-4_図面枠
  6
CONTINUOUS
 62
    1
 10
326.40443049999999
 20
78.587005500000089
 11
229.07109149999999
 21
78.587005500000089
  0
LINE
  8
_0-4_図面枠
  6
CONTINUOUS
 62
    2
 10
326.40443049999999
 20
82.587005500000089
 11
229.07109149999999
 21
82.587005500000089
  0
LINE
  8
_0-4_図面枠
  6
CONTINUOUS
 62
    1
 10
326.40443049999999
 20
133.78700850000007
 11
229.07109149999999
 21
133.78700850000007
  0
LINE
  8
_0-4_図面枠
  6
CONTINUOUS
 62
    1
 10
326.40443049999999
 20
126.58700750000008
 11
229.07109149999999
 21
126.58700750000008
  0
LINE
  8
_0-4_図面枠
  6
CONTINUOUS
 62
    2
 10
326.40443049999999
 20
94.587006500000086
 11
229.07109149999999
 21
94.587006500000086
  0
LINE
  8
_0-4_図面枠
  6
CONTINUOUS
 62
    2
 10
326.40443049999999
 20
122.58700750000008
 11
229.07109149999999
 21
122.58700750000008
  0
LINE
  8
_0-4_図面枠
  6
CONTINUOUS
 62
    2
 10
326.40443049999999
 20
118.58700749999997
 11
229.07109149999999
 21
118.58700749999997
  0
LINE
  8
_0-4_図面枠
  6
CONTINUOUS
 62
    2
 10
326.40443049999999
 20
114.58700749999997
 11
229.07109149999999
 21
114.58700749999997
  0
LINE
  8
_0-4_図面枠
  6
CONTINUOUS
 62
    2
 10
326.40443049999999
 20
110.58700749999997
 11
229.07109149999999
 21
110.58700749999997
  0
LINE
  8
_0-4_図面枠
  6
CONTINUOUS
 62
    2
 10
326.40443049999999
 20
106.58700649999997
 11
229.07109149999999
 21
106.58700649999997
  0
LINE
  8
_0-4_図面枠
  6
CONTINUOUS
 62
    2
 10
326.40443049999999
 20
102.58700650000009
 11
229.07109149999999
 21
102.58700650000009
  0
LINE
  8
_0-4_図面枠
  6
CONTINUOUS
 62
    2
 10
326.40443049999999
 20
98.587006500000086
 11
229.07109149999999
 21
98.587006500000086
  0
LINE
  8
_0-4_図面枠
  6
CONTINUOUS
 62
    1
 10
229.07109149999999
 20
78.587005500000089
 11
229.07109149999999
 21
133.78700850000007
  0
LINE
  8
_0-4_図面枠
  6
CONTINUOUS
 62
    1
 10
233.87109249999997
 20
78.587005500000089
 11
233.87109249999997
 21
133.78700850000007
  0
LINE
  8
_0-4_図面枠
  6
CONTINUOUS
 62
    1
 10
270.87109349999997
 20
78.587005500000089
 11
270.87109349999997
 21
133.78700850000007
  0
TEXT
  8
_0-4_図面枠
 62
    7
 10
225.26099449999998
 20
74.05367650000008
 40
2
 41
0.8
 50
0
  1
　　注）ガスケットＮはＴＣＦサイドキャップＡにセット済み。
  0
TEXT
  8
_0-4_図面枠
 62
    7
 10
230.42187316666667
 20
87.387010500000088
 40
2
 41
0.8
 50
0
  1
１０
  0
TEXT
  8
_0-4_図面枠
 62
    7
 10
230.63520649999998
 20
83.387013499999966
 40
2
 41
0.8
 50
0
  1
１１
  0
TEXT
  8
_0-4_図面枠
 62
    7
 10
232.23286416666659
 20
79.387008500000064
 40
2
 41
0.8
 50
0
  1
※
  0
TEXT
  8
_0-4_図面枠
 62
    7
 10
234.67109049999999
 20
87.387013499999966
 40
2
 41
0.8
 50
0
  1
ステンタッピンねじ
  0
TEXT
  8
_0-4_図面枠
 62
    7
 10
234.67109049999999
 20
83.387013499999966
 40
2
 41
0.8
 50
0
  1
ステンスワッシャー
  0
TEXT
  8
_0-4_図面枠
 62
    7
 10
234.67109049999999
 20
79.387008500000064
 40
2
 41
0.8
 50
0
  1
ブチルテープ
  0
TEXT
  8
_0-4_図面枠
 62
    7
 10
271.67109049999999
 20
87.387013499999966
 40
2
 41
0.8
 50
0
  1
なべ５×５０
  0
TEXT
  8
_0-4_図面枠
 62
    7
 10
271.67109049999999
 20
83.387013499999966
 40
2
 41
0.8
 50
0
  1
１．５×１８×５．５穴
  0
TEXT
  8
_0-4_図面枠
 62
    7
 10
271.67110549999995
 20
79.387008500000064
 40
2
 41
0.8
 50
0
  1
ｔ１．０×ｗ３０
  0
TEXT
  8
_0-4_図面枠
 62
    7
 10
234.67109049999999
 20
95.387021500000088
 40
2
 41
0.8
 50
0
  1
ステンドリリングねじ
  0
TEXT
  8
_0-4_図面枠
 62
    7
 10
234.67109049999999
 20
123.38700650000007
 40
2
 41
0.8
 50
0
  1
ＴＴＦサイドプレート（Ａ）
  0
TEXT
  8
_0-4_図面枠
 62
    7
 10
234.67109049999999
 20
119.38701350000008
 40
2
 41
0.8
 50
0
  1
ＴＣＦセンタープレート（Ａ）
  0
TEXT
  8
_0-4_図面枠
 62
    7
 10
234.67109049999999
 20
111.38701050000009
 40
2
 41
0.8
 50
0
  1
ＴＣＮサイドキャップＡ
  0
TEXT
  8
_0-4_図面枠
 62
    7
 10
232.23520649999998
 20
99.38701350000008
 40
2
 41
0.8
 50
0
  1
７
  0
TEXT
  8
_0-4_図面枠
 62
    7
 10
232.34187316666669
 20
95.387021500000088
 40
2
 41
0.8
 50
0
  1
８
  0
TEXT
  8
_0-4_図面枠
 62
    7
 10
232.34187316666669
 20
107.38701349999997
 40
2
 41
0.8
 50
0
  1
５
  0
TEXT
  8
_0-4_図面枠
 62
    7
 10
232.34187316666669
 20
91.38701350000008
 40
2
 41
0.8
 50
0
  1
９
  0
TEXT
  8
_0-4_図面枠
 62
    7
 10
232.34187316666669
 20
119.38701350000008
 40
2
 41
0.8
 50
0
  1
２
  0
TEXT
  8
_0-4_図面枠
 62
    7
 10
232.34187316666669
 20
115.38701350000008
 40
2
 41
0.8
 50
0
  1
３
  0
TEXT
  8
_0-4_図面枠
 62
    7
 10
232.23520649999998
 20
111.38701050000009
 40
2
 41
0.8
 50
0
  1
４
  0
TEXT
  8
_0-4_図面枠
 62
    7
 10
232.34187316666669
 20
103.38700650000007
 40
2
 41
0.8
 50
0
  1
６
  0
TEXT
  8
_0-4_図面枠
 62
    7
 10
234.67109049999999
 20
91.387006500000069
 40
2
 41
0.8
 50
0
  1
アンカープラグ
  0
TEXT
  8
_0-4_図面枠
 62
    7
 10
234.67109049999999
 20
103.38701350000008
 40
2
 41
0.8
 50
0
  1
止水補助板
  0
TEXT
  8
_0-4_図面枠
 62
    7
 10
234.67109049999999
 20
99.38701350000008
 40
2
 41
0.8
 50
0
  1
ガスケットＮ
  0
TEXT
  8
_0-4_図面枠
 62
    7
 10
234.67109049999999
 20
115.38701350000008
 40
2
 41
0.8
 50
0
  1
ＴＴＦフレーム（Ａ）
  0
TEXT
  8
_0-4_図面枠
 62
    7
 10
234.67109049999999
 20
107.38701349999997
 40
2
 41
0.8
 50
0
  1
ＴＣＦ壁フレーム
  0
TEXT
  8
_0-4_図面枠
 62
    7
 10
230.63520649999998
 20
123.38700650000007
 40
2
 41
0.8
 50
0
  1
　１
  0
TEXT
  8
_0-4_図面枠
 62
    7
 10
247.24443583333328
 20
130.58702650000006
 40
2
 41
0.8
 50
0
  1
部材名称
  0
TEXT
  8
_0-4_図面枠
 62
    7
 10
271.67109049999999
 20
95.387021500000088
 40
2
 41
0.8
 50
0
  1
皿４×１６
  0
TEXT
  8
_0-4_図面枠
 62
    7
 10
271.67109049999999
 20
103.38702150000009
 40
2
 41
0.8
 50
0
  1
ＦＳ２００
  0
TEXT
  8
_0-4_図面枠
 62
    7
 10
271.67109049999999
 20
91.387006500000069
 40
2
 41
0.8
 50
0
  1
フィッシャープラグ　Ｓ８
  0
TEXT
  8
_0-4_図面枠
 62
    7
 10
284.25868083333341
 20
130.58702650000006
 40
2
 41
0.8
 50
0
  1
規　格
  0
LINE
  8
_0-4_図面枠
  6
CONTINUOUS
 62
    1
 10
303.20442850000001
 20
78.587005500000089
 11
303.20442850000001
 21
133.78700850000007
  0
LINE
  8
_0-4_図面枠
  6
CONTINUOUS
 62
    1
 10
315.2044295
 20
78.587005500000089
 11
315.2044295
 21
133.78700850000007
  0
LINE
  8
_0-4_図面枠
  6
CONTINUOUS
 62
    1
 10
321.60442949999998
 20
78.587005500000089
 11
321.60442949999998
 21
133.78700850000007
  0
LINE
  8
_0-4_図面枠
  6
CONTINUOUS
 62
    1
 10
326.40443049999999
 20
78.587005500000089
 11
326.40443049999999
 21
133.78700850000007
  0
TEXT
  8
_0-4_図面枠
 62
    7
 10
305.6311121666667
 20
79.387012499999969
 40
2
 41
0.8
 50
0
  1
６０００
  0
TEXT
  8
_0-4_図面枠
 62
    7
 10
319.44444249999998
 20
79.387008500000064
 40
2
 41
0.8
 50
0
  1
１
  0
TEXT
  8
_0-4_図面枠
 62
    7
 10
323.2577818333333
 20
79.387008500000064
 40
2
 41
0.8
 50
0
  1
巻
  0
TEXT
  8
_0-4_図面枠
 62
    7
 10
317.31107916666667
 20
87.387013499999966
 40
2
 41
0.8
 50
0
  1
１２
  0
TEXT
  8
_0-4_図面枠
 62
    7
 10
317.31107916666667
 20
83.387013499999966
 40
2
 41
0.8
 50
0
  1
１２
  0
TEXT
  8
_0-4_図面枠
 62
    7
 10
323.25775183333326
 20
83.387013499999966
 40
2
 41
0.8
 50
0
  1
枚
  0
TEXT
  8
_0-4_図面枠
 62
    7
 10
323.25775183333326
 20
87.387013499999966
 40
2
 41
0.8
 50
0
  1
〃
  0
TEXT
  8
_0-4_図面枠
 62
    7
 10
305.6311121666667
 20
99.38701350000008
 40
2
 41
0.8
 50
0
  1
３０００
  0
TEXT
  8
_0-4_図面枠
 62
    7
 10
305.6311121666667
 20
103.38700650000007
 40
2
 41
0.8
 50
0
  1
３１００
  0
TEXT
  8
_0-4_図面枠
 62
    7
 10
317.31107916666667
 20
95.387021500000088
 40
2
 41
0.8
 50
0
  1
１３
  0
TEXT
  8
_0-4_図面枠
 62
    7
 10
317.31107916666667
 20
91.387006500000069
 40
2
 41
0.8
 50
0
  1
１２
  0
TEXT
  8
_0-4_図面枠
 62
    7
 10
323.25775183333326
 20
91.387006500000069
 40
2
 41
0.8
 50
0
  1
〃
  0
TEXT
  8
_0-4_図面枠
 62
    7
 10
323.25775183333326
 20
95.38701350000008
 40
2
 41
0.8
 50
0
  1
〃
  0
TEXT
  8
_0-4_図面枠
 62
    7
 10
319.4444125
 20
99.38701350000008
 40
2
 41
0.8
 50
0
  1
１
  0
TEXT
  8
_0-4_図面枠
 62
    7
 10
323.25775183333326
 20
99.387017499999985
 40
2
 41
0.8
 50
0
  1
本
  0
TEXT
  8
_0-4_図面枠
 62
    7
 10
319.4444125
 20
103.38701350000008
 40
2
 41
0.8
 50
0
  1
１
  0
TEXT
  8
_0-4_図面枠
 62
    7
 10
323.25775183333326
 20
103.38701350000008
 40
2
 41
0.8
 50
0
  1
枚
  0
TEXT
  8
_0-4_図面枠
 62
    7
 10
305.6311121666667
 20
111.38701050000009
 40
2
 41
0.8
 50
0
  1
３０００
  0
TEXT
  8
_0-4_図面枠
 62
    7
 10
305.6311121666667
 20
107.38701349999997
 40
2
 41
0.8
 50
0
  1
３０００
  0
TEXT
  8
_0-4_図面枠
 62
    7
 10
305.6311121666667
 20
119.38701350000008
 40
2
 41
0.8
 50
0
  1
３０００
  0
TEXT
  8
_0-4_図面枠
 62
    7
 10
305.6311121666667
 20
115.38701350000008
 40
2
 41
0.8
 50
0
  1
３０００
  0
TEXT
  8
_0-4_図面枠
 62
    7
 10
319.4444125
 20
107.38701349999997
 40
2
 41
0.8
 50
0
  1
１
  0
TEXT
  8
_0-4_図面枠
 62
    7
 10
323.25775183333326
 20
107.38701349999997
 40
2
 41
0.8
 50
0
  1
本
  0
TEXT
  8
_0-4_図面枠
 62
    7
 10
319.4444125
 20
111.38701050000009
 40
2
 41
0.8
 50
0
  1
１
  0
TEXT
  8
_0-4_図面枠
 62
    7
 10
323.25775183333326
 20
111.38701050000009
 40
2
 41
0.8
 50
0
  1
〃
  0
TEXT
  8
_0-4_図面枠
 62
    7
 10
319.4444125
 20
115.38701350000008
 40
2
 41
0.8
 50
0
  1
１
  0
TEXT
  8
_0-4_図面枠
 62
    7
 10
323.25775183333326
 20
115.38701350000008
 40
2
 41
0.8
 50
0
  1
〃
  0
TEXT
  8
_0-4_図面枠
 62
    7
 10
319.4444125
 20
119.38701350000008
 40
2
 41
0.8
 50
0
  1
１
  0
TEXT
  8
_0-4_図面枠
 62
    7
 10
323.25775183333326
 20
119.38701350000008
 40
2
 41
0.8
 50
0
  1
〃
  0
TEXT
  8
_0-4_図面枠
 62
    7
 10
306.53777883333328
 20
130.58702650000006
 40
2
 41
0.8
 50
0
  1
定　尺
  0
TEXT
  8
_0-4_図面枠
 62
    7
 10
305.5777788333333
 20
127.38701350000008
 40
2
 41
0.8
 50
0
  1
（ｍｍ）
  0
TEXT
  8
_0-4_図面枠
 62
    7
 10
305.6311121666667
 20
123.38700650000007
 40
2
 41
0.8
 50
0
  1
３０００
  0
TEXT
  8
_0-4_図面枠
 62
    7
 10
316.75110916666671
 20
130.58702650000006
 40
2
 41
0.8
 50
0
  1
使用
  0
TEXT
  8
_0-4_図面枠
 62
    7
 10
322.1276768333334
 20
130.58702650000006
 40
2
 41
0.8
 50
0
  1
単位
  0
TEXT
  8
_0-4_図面枠
 62
    7
 10
316.69777583333331
 20
127.38701350000008
 40
2
 41
0.8
 50
0
  1
数量
  0
TEXT
  8
_0-4_図面枠
 62
    7
 10
319.4444125
 20
123.38700650000007
 40
2
 41
0.8
 50
0
  1
１
  0
TEXT
  8
_0-4_図面枠
 62
    7
 10
323.25775183333326
 20
123.38700650000007
 40
2
 41
0.8
 50
0
  1
本
  0
LINE
  8
_0-3_躯体と製品
  6
PLINE2
 62
    3
 10
302.15793349999996
 20
190.89574950000008
 11
302.82368650000001
 21
190.86085850000006
  0
LINE
  8
_0-3_躯体と製品
  6
PLINE2
 62
    3
 10
308.54364549999997
 20
193.14429850000005
 11
298.22447349999999
 21
192.60349350000007
  0
LINE
  8
_0-3_躯体と製品
  6
PLINE2
 62
    3
 10
308.54364549999997
 20
191.72935550000005
 11
298.22447349999999
 21
192.27016050000009
  0
LINE
  8
_0-3_躯体と製品
  6
PLINE3
 62
    3
 10
310.22833550000007
 20
192.43682749999999
 11
291.38597249999987
 21
192.43682749999999
  0
LINE
  8
_0-3_躯体と製品
  6
PLINE2
 62
    3
 10
302.15793349999996
 20
193.97790550000008
 11
302.82368650000001
 21
194.01279649999998
  0
CIRCLE
  8
_0-5_文字-記号
  6
CONTINUOUS
 62
    3
 10
300.71554649999996
 20
168.42730250000005
 40
2
  0
LINE
  8
_0-3_躯体と製品
  6
CONTINUOUS
 62
    2
 10
252.22447249999999
 20
184.2701565000001
 11
258.89113850000001
 21
184.2701565000001
  0
LINE
  8
_0-3_躯体と製品
  6
CONTINUOUS
 62
    2
 10
278.89114050000001
 20
176.43682749999999
 11
252.22447249999999
 21
176.43682749999999
  0
LINE
  8
_0-3_躯体と製品
  6
CONTINUOUS
 62
    2
 10
252.22447649999998
 20
184.7701565000001
 11
258.8911435
 21
184.7701565000001
  0
TEXT
  8
_0-5_文字-記号
 62
    7
 10
255.71245216666659
 20
193.41972850000008
 40
2
 41
0.8
 50
0
  1
８
  0
CIRCLE
  8
_0-5_文字-記号
  6
CONTINUOUS
 62
    3
 10
256.40579049999997
 20
194.4597275000001
 40
2
  0
LINE
  8
_0-5_文字-記号
  6
CONTINUOUS
 62
    3
 10
260.57306449999999
 20
174.09395450000005
 11
255.02930249999997
 21
164.4918775000001
  0
TEXT
  8
_0-5_文字-記号
 62
    7
 10
231.42693449999999
 20
164.99187250000006
 40
2
 41
0.8
 50
0
  1
ならしモルタル（別途）
  0
LINE
  8
_0-5_文字-記号
  6
CONTINUOUS
 62
    3
 10
255.02930249999997
 20
164.4918775000001
 11
231.42694049999997
 21
164.4918775000001
  0
LINE
  8
_0-3_躯体と製品
  6
CONTINUOUS
 62
    2
 10
289.9578075
 20
196.27016050000009
 11
289.9578075
 21
188.60349350000007
  0
LINE
  8
_0-3_躯体と製品
  6
CONTINUOUS
 62
    2
 10
289.55780749999997
 20
184.8034935
 11
289.55780749999997
 21
202.77016250000008
  0
LINE
  8
_0-3_躯体と製品
  6
CONTINUOUS
 62
    2
 10
295.55780749999997
 20
205.7333675000001
 11
295.55780749999997
 21
156.43682750000008
  0
LINE
  8
_0-3_躯体と製品
  6
CONTINUOUS
 62
    2
 10
295.22447349999999
 20
197.60349350000007
 11
295.22447349999999
 21
179.27016050000009
  0
LINE
  8
_0-3_躯体と製品
  6
CONTINUOUS
 62
    2
 10
294.62447349999997
 20
189.43682749999999
 11
294.62447349999997
 21
187.93682749999999
  0
LINE
  8
_0-3_躯体と製品
  6
CONTINUOUS
 62
    2
 10
295.12447349999997
 20
191.10349350000007
 11
295.12447349999997
 21
187.77016050000009
  0
LINE
  8
_0-5_文字-記号
  6
CONTINUOUS
 62
    3
 10
262.05779649999999
 20
184.67016450000006
 11
257.40579049999997
 21
192.72767650000009
  0
LINE
  8
_0-5_文字-記号
  6
CONTINUOUS
 62
    3
 10
275.9062275
 20
177.00350249999997
 11
268.28923750000001
 21
190.19651550000009
  0
LINE
  8
_0-5_文字-記号
  6
CONTINUOUS
 62
    3
 10
277.89912049999998
 20
184.67026749999997
 11
274.70853949999997
 21
190.19651550000009
  0
LINE
  8
_0-5_文字-記号
  6
CONTINUOUS
 62
    3
 10
287.22447349999999
 20
183.85009349999996
 11
284.01961349999999
 21
189.40107549999999
  0
LINE
  8
_0-5_文字-記号
  6
CONTINUOUS
 62
    3
 10
294.3468575
 20
190.18669749999998
 11
298.56761749999998
 21
182.8761265
  0
ARC
  8
_0-3_躯体と製品
  6
CONTINUOUS
 62
    2
 10
278.39111849999995
 20
182.3034935
 40
1
 50
0
 51
180
  0
LINE
  8
_0-3_躯体と製品
  6
CONTINUOUS
 62
    2
 10
279.39111849999995
 20
180.63682750000009
 11
278.89111850000006
 21
180.63682750000009
  0
ARC
  8
_0-3_躯体と製品
  6
CONTINUOUS
 62
    2
 10
287.22447349999999
 20
-66.540400499999919
 40
250
 50
88.925650999999817
 51
93.707713999999797
  0
ARC
  8
_0-3_躯体と製品
  6
CONTINUOUS
 62
    2
 10
287.22447349999999
 20
-66.540400499999919
 40
250.83333300000001
 50
91.027953000000053
 51
93.666989999999799
  0
LINE
  8
_0-3_躯体と製品
  6
CONTINUOUS
 62
    2
 10
282.6638365
 20
160.61437150000006
 11
279.15992949999998
 21
176.77016050000009
  0
LINE
  8
_0-3_躯体と製品
  6
CONTINUOUS
 62
    2
 10
278.89114050000001
 20
176.43682749999999
 11
282.33807649999994
 21
160.54372050000006
  0
LINE
  8
_0-3_躯体と製品
  6
CONTINUOUS
 62
    2
 10
278.89114050000001
 20
156.43682750000008
 11
278.89114050000001
 21
176.43682749999999
  0
LINE
  8
_0-3_躯体と製品
  6
PLINE2
 62
    3
 10
268.55780749999997
 20
172.43682749999999
 11
268.55780749999997
 21
173.77016050000009
  0
LINE
  8
_0-3_躯体と製品
  6
PLINE2
 62
    3
 10
266.51700249999999
 20
163.45098850000005
 11
267.05780749999997
 21
173.77016050000009
  0
LINE
  8
_0-3_躯体と製品
  6
PLINE2
 62
    3
 10
265.89114050000001
 20
172.43682749999999
 11
265.89114050000001
 21
173.77016050000009
  0
LINE
  8
_0-3_躯体と製品
  6
PLINE2
 62
    3
 10
265.11702749999995
 20
173.7047075000001
 11
265.43150449999996
 21
171.50336749999997
  0
LINE
  8
_0-3_躯体と製品
  6
PLINE2
 62
    3
 10
265.11827349999999
 20
171.38936149999995
 11
264.78748849999999
 21
173.65723549999996
  0
LINE
  8
_0-3_躯体と製品
  6
PLINE2
 62
    3
 10
269.33192050000002
 20
173.7047075000001
 11
269.01744350000001
 21
171.50336749999997
  0
LINE
  8
_0-3_躯体と製品
  6
PLINE2
 62
    3
 10
269.33067449999999
 20
171.38936149999995
 11
269.66145949999998
 21
173.65723549999996
  0
LINE
  8
_0-3_躯体と製品
  6
PLINE2
 62
    3
 10
269.33192050000002
 20
173.7047075000001
 11
269.01744350000001
 21
171.50336749999997
  0
LINE
  8
_0-3_躯体と製品
  6
PLINE2
 62
    3
 10
269.33067449999999
 20
171.38936149999995
 11
269.66145949999998
 21
173.65723549999996
  0
LINE
  8
_0-3_躯体と製品
  6
PLINE2
 62
    3
 10
267.93194549999998
 20
163.45098850000005
 11
267.39114050000001
 21
173.77016050000009
  0
LINE
  8
_0-3_躯体と製品
  6
PLINE3
 62
    3
 10
267.22447349999999
 20
161.7662995
 11
267.22447349999999
 21
180.60866250000009
  0
LINE
  8
_0-5_文字-記号
  6
CONTINUOUS
 62
    3
 10
269.3575525
 20
177.64876950000007
 11
273.26873749999999
 21
170.8743995000001
  0
LINE
  8
_0-5_文字-記号
  6
CONTINUOUS
 62
    3
 10
267.22447349999999
 20
178.07250750000009
 11
261.68127749999996
 21
168.47141050000005
  0
LINE
  8
_0-3_躯体と製品
  6
PLINE2
 62
    3
 10
267.84762249999994
 20
165.05997550000006
 11
267.22447349999999
 21
164.43682749999999
  0
LINE
  8
_0-3_躯体と製品
  6
PLINE2
 62
    3
 10
265.4217155
 20
164.8435535000001
 11
265.38682549999999
 21
164.1778005000001
  0
LINE
  8
_0-5_文字-記号
  6
CONTINUOUS
 62
    3
 10
267.22447349999999
 20
166.54614649999996
 11
262.81328550000001
 21
158.90574449999997
  0
TEXT
  8
_0-5_文字-記号
 62
    7
 10
261.11995316666668
 20
156.13368750000006
 40
2
 41
0.8
 50
0
  1
９
  0
LINE
  8
_0-3_躯体と製品
  6
PLINE2
 62
    3
 10
266.01768749999997
 20
163.47715650000009
 11
266.51700249999999
 21
163.45098850000005
  0
LINE
  8
_0-3_躯体と製品
  6
PLINE2
 62
    3
 10
265.38682549999999
 20
164.1778005000001
 11
266.01768749999997
 21
163.47715650000009
  0
LINE
  8
_0-3_躯体と製品
  6
PLINE2
 62
    3
 10
266.55189350000001
 20
164.1167415000001
 11
265.38682549999999
 21
164.1778005000001
  0
CIRCLE
  8
_0-5_文字-記号
  6
CONTINUOUS
 62
    3
 10
260.68127749999996
 20
166.73935950000009
 40
2
  0
TEXT
  8
_0-5_文字-記号
 62
    7
 10
258.86795016666667
 20
165.69935350000009
 40
2
 41
0.8
 50
0
  1
１０
  0
LINE
  8
_0-3_躯体と製品
  6
PLINE2
 62
    3
 10
266.29681249999999
 20
168.8031805
 11
266.26192249999997
 21
168.13742750000006
  0
LINE
  8
_0-3_躯体と製品
  6
PLINE2
 62
    3
 10
266.0874685
 20
164.80866249999997
 11
265.4217155
 21
164.8435535000001
  0
LINE
  8
_0-3_躯体と製品
  6
PLINE2
 62
    3
 10
266.12235950000002
 20
165.47441549999996
 11
266.0874685
 21
164.80866249999997
  0
LINE
  8
_0-3_躯体と製品
  6
PLINE2
 62
    3
 10
265.47405149999997
 20
165.84218250000009
 11
266.12235950000002
 21
165.47441549999996
  0
LINE
  8
_0-3_躯体と製品
  6
PLINE2
 62
    3
 10
265.50894249999999
 20
166.50793550000009
 11
265.47405149999997
 21
165.84218250000009
  0
LINE
  8
_0-3_躯体と製品
  6
PLINE2
 62
    3
 10
266.17469549999998
 20
166.47304550000007
 11
265.50894249999999
 21
166.50793550000009
  0
LINE
  8
_0-3_躯体と製品
  6
PLINE2
 62
    3
 10
266.2095865
 20
167.13879849999995
 11
266.17469549999998
 21
166.47304550000007
  0
LINE
  8
_0-3_躯体と製品
  6
PLINE2
 62
    3
 10
265.56127849999996
 20
167.50656550000008
 11
266.2095865
 21
167.13879849999995
  0
LINE
  8
_0-3_躯体と製品
  6
PLINE2
 62
    3
 10
265.59616949999997
 20
168.17231850000007
 11
265.56127849999996
 21
167.50656550000008
  0
LINE
  8
_0-3_躯体と製品
  6
PLINE2
 62
    3
 10
266.26192249999997
 20
168.13742750000006
 11
265.59616949999997
 21
168.17231850000007
  0
LINE
  8
_0-3_躯体と製品
  6
PLINE2
 62
    3
 10
266.60132549999997
 20
165.05997550000006
 11
267.22447349999999
 21
164.43682749999999
  0
CIRCLE
  8
_0-5_文字-記号
  6
CONTINUOUS
 62
    3
 10
267.22447349999999
 20
166.54614649999996
 40
0.2
  0
LINE
  8
_0-3_躯体と製品
  6
PLINE2
 62
    3
 10
265.64850549999994
 20
169.17094850000007
 11
266.29681249999999
 21
168.8031805
  0
LINE
  8
_0-3_躯体と製品
  6
PLINE2
 62
    3
 10
265.68339549999996
 20
169.83670150000006
 11
265.64850549999994
 21
169.17094850000007
  0
LINE
  8
_0-3_躯体と製品
  6
PLINE2
 62
    3
 10
266.34914849999996
 20
169.8018105000001
 11
265.68339549999996
 21
169.83670150000006
  0
LINE
  8
_0-3_躯体と製品
  6
PLINE2
 62
    3
 10
266.38403949999997
 20
170.4675635000001
 11
266.34914849999996
 21
169.8018105000001
  0
LINE
  8
_0-3_躯体と製品
  6
PLINE2
 62
    3
 10
265.73573149999999
 20
170.8353305
 11
266.38403949999997
 21
170.4675635000001
  0
LINE
  8
_0-3_躯体と製品
  6
PLINE2
 62
    3
 10
265.77062249999994
 20
171.50108349999999
 11
265.73573149999999
 21
170.8353305
  0
LINE
  8
_0-3_躯体と製品
  6
PLINE2
 62
    3
 10
266.4363755
 20
171.46619350000009
 11
265.77062249999994
 21
171.50108349999999
  0
LINE
  8
_0-3_躯体と製品
  6
PLINE2
 62
    3
 10
266.47126549999996
 20
172.13194650000008
 11
266.4363755
 21
171.46619350000009
  0
LINE
  8
_0-3_躯体と製品
  6
PLINE2
 62
    3
 10
265.89114050000001
 20
172.43682749999999
 11
266.47126549999996
 21
172.13194650000008
  0
LINE
  8
_0-3_躯体と製品
  6
PLINE2
 62
    3
 10
265.68339549999996
 20
169.83670150000006
 11
265.11827349999999
 21
171.38936149999995
  0
LINE
  8
_0-3_躯体と製品
  6
PLINE2
 62
    3
 10
266.03812149999999
 20
169.83670150000006
 11
265.43150449999996
 21
171.50336749999997
  0
LINE
  8
_0-3_躯体と製品
  6
PLINE2
 62
    3
 10
269.02723249999997
 20
164.8435535000001
 11
269.06212249999999
 21
164.1778005000001
  0
LINE
  8
_0-3_躯体と製品
  6
PLINE2
 62
    3
 10
268.43126050000001
 20
163.47715650000009
 11
267.93194549999998
 21
163.45098850000005
  0
LINE
  8
_0-3_躯体と製品
  6
PLINE2
 62
    3
 10
269.06212249999999
 20
164.1778005000001
 11
268.43126050000001
 21
163.47715650000009
  0
LINE
  8
_0-3_躯体と製品
  6
PLINE2
 62
    3
 10
267.89705449999997
 20
164.1167415000001
 11
269.06212249999999
 21
164.1778005000001
  0
TEXT
  8
_0-5_文字-記号
 62
    7
 10
272.5620648333333
 20
168.10234650000007
 40
2
 41
0.8
 50
0
  1
１１
  0
CIRCLE
  8
_0-5_文字-記号
  6
CONTINUOUS
 62
    3
 10
274.26873749999999
 20
169.14234850000008
 40
2
  0
LINE
  8
_0-3_躯体と製品
  6
PLINE2
 62
    3
 10
268.15213549999999
 20
168.8031805
 11
268.1870255
 21
168.13742750000006
  0
LINE
  8
_0-3_躯体と製品
  6
PLINE2
 62
    3
 10
268.36147949999997
 20
164.80866249999997
 11
269.02723249999997
 21
164.8435535000001
  0
LINE
  8
_0-3_躯体と製品
  6
PLINE2
 62
    3
 10
268.32658849999996
 20
165.47441549999996
 11
268.36147949999997
 21
164.80866249999997
  0
LINE
  8
_0-3_躯体と製品
  6
PLINE2
 62
    3
 10
268.9748965
 20
165.84218250000009
 11
268.32658849999996
 21
165.47441549999996
  0
LINE
  8
_0-3_躯体と製品
  6
PLINE2
 62
    3
 10
268.94000549999998
 20
166.50793550000009
 11
268.9748965
 21
165.84218250000009
  0
LINE
  8
_0-3_躯体と製品
  6
PLINE2
 62
    3
 10
268.27425249999999
 20
166.47304550000007
 11
268.94000549999998
 21
166.50793550000009
  0
LINE
  8
_0-3_躯体と製品
  6
PLINE2
 62
    3
 10
268.23936149999997
 20
167.13879849999995
 11
268.27425249999999
 21
166.47304550000007
  0
LINE
  8
_0-3_躯体と製品
  6
PLINE2
 62
    3
 10
268.88766950000002
 20
167.50656550000008
 11
268.23936149999997
 21
167.13879849999995
  0
LINE
  8
_0-3_躯体と製品
  6
PLINE2
 62
    3
 10
268.8527785
 20
168.17231850000007
 11
268.88766950000002
 21
167.50656550000008
  0
LINE
  8
_0-3_躯体と製品
  6
PLINE2
 62
    3
 10
268.1870255
 20
168.13742750000006
 11
268.8527785
 21
168.17231850000007
  0
LINE
  8
_0-3_躯体と製品
  6
PLINE2
 62
    3
 10
268.80044249999997
 20
169.17094850000007
 11
268.15213549999999
 21
168.8031805
  0
LINE
  8
_0-3_躯体と製品
  6
PLINE2
 62
    3
 10
268.76555250000001
 20
169.83670150000006
 11
268.80044249999997
 21
169.17094850000007
  0
LINE
  8
_0-3_躯体と製品
  6
PLINE2
 62
    3
 10
268.09979950000002
 20
169.8018105000001
 11
268.76555250000001
 21
169.83670150000006
  0
LINE
  8
_0-3_躯体と製品
  6
PLINE2
 62
    3
 10
268.0649085
 20
170.4675635000001
 11
268.09979950000002
 21
169.8018105000001
  0
LINE
  8
_0-3_躯体と製品
  6
PLINE2
 62
    3
 10
268.71321649999999
 20
170.8353305
 11
268.0649085
 21
170.4675635000001
  0
LINE
  8
_0-3_躯体と製品
  6
PLINE2
 62
    3
 10
268.67832549999997
 20
171.50108349999999
 11
268.71321649999999
 21
170.8353305
  0
LINE
  8
_0-3_躯体と製品
  6
PLINE2
 62
    3
 10
268.01257249999998
 20
171.46619350000009
 11
268.67832549999997
 21
171.50108349999999
  0
LINE
  8
_0-3_躯体と製品
  6
PLINE2
 62
    3
 10
267.97768250000001
 20
172.13194650000008
 11
268.01257249999998
 21
171.46619350000009
  0
LINE
  8
_0-3_躯体と製品
  6
PLINE2
 62
    3
 10
268.55780749999997
 20
172.43682749999999
 11
267.97768250000001
 21
172.13194650000008
  0
LINE
  8
_0-3_躯体と製品
  6
PLINE2
 62
    3
 10
268.76555250000001
 20
169.83670150000006
 11
269.33067449999999
 21
171.38936149999995
  0
LINE
  8
_0-3_躯体と製品
  6
PLINE2
 62
    3
 10
268.41082649999998
 20
169.83670150000006
 11
269.01744350000001
 21
171.50336749999997
  0
LINE
  8
_0-3_躯体と製品
  6
CONTINUOUS
 62
    2
 10
256.89107249999995
 20
173.10349350000007
 11
278.89114050000001
 21
173.10349350000007
  0
LINE
  8
_0-3_躯体と製品
  6
CONTINUOUS
 62
    2
 10
267.32446549999997
 20
177.43682749999999
 11
277.72445149999999
 21
177.43682749999999
  0
LINE
  8
_0-3_躯体と製品
  6
CONTINUOUS
 62
    2
 10
266.22446549999995
 20
184.7701715
 11
267.89113149999997
 21
184.77016750000007
  0
LINE
  8
_0-3_躯体と製品
  6
CONTINUOUS
 62
    2
 10
264.05779849999999
 20
183.9368235
 11
270.55779649999999
 21
183.9368235
  0
LINE
  8
_0-3_躯体と製品
  6
CONTINUOUS
 62
    2
 10
264.22447349999999
 20
177.93683650000008
 11
270.22447349999999
 21
177.93683650000008
  0
LINE
  8
_0-3_躯体と製品
  6
PLINE2
 62
    3
 10
265.55780749999997
 20
176.43682749999999
 11
268.89114050000001
 21
176.43682749999999
  0
ARC
  8
_0-3_躯体と製品
  6
CONTINUOUS
 62
    2
 10
267.22447349999999
 20
177.27016949999995
 40
1.8
 50
51.317813000000257
 51
90
  0
LINE
  8
_0-3_躯体と製品
  6
CONTINUOUS
 62
    2
 10
264.22447349999999
 20
177.43683649999997
 11
270.22447349999999
 21
177.43683649999997
  0
LINE
  8
_0-3_躯体と製品
  6
CONTINUOUS
 62
    2
 10
260.55776849999995
 20
176.77016050000009
 11
279.15992949999998
 21
176.77016050000009
  0
LINE
  8
_0-3_躯体と製品
  6
CONTINUOUS
 62
    3
 10
266.79056649999995
 20
173.10349350000007
 11
270.12390049999999
 21
176.43682749999999
  0
LINE
  8
_0-3_躯体と製品
  6
CONTINUOUS
 62
    3
 10
265.37635349999999
 20
173.10349350000007
 11
268.70968649999998
 21
176.43682749999999
  0
LINE
  8
_0-3_躯体と製品
  6
CONTINUOUS
 62
    2
 10
260.89113950000001
 20
182.60349150000008
 11
260.89112849999998
 21
177.6029865000001
  0
LINE
  8
_0-3_躯体と製品
  6
CONTINUOUS
 62
    2
 10
260.22447449999999
 20
181.60349350000007
 11
260.22445549999998
 21
177.0998105000001
  0
LINE
  8
_0-3_躯体と製品
  6
CONTINUOUS
 62
    3
 10
262.48001849999997
 20
181.5286375
 11
262.48001849999997
 21
179.74474350000008
  0
LINE
  8
_0-3_躯体と製品
  6
CONTINUOUS
 62
    3
 10
261.63557449999996
 20
181.10349050000008
 11
261.63557449999996
 21
179.74474350000008
  0
LINE
  8
_0-3_躯体と製品
  6
PLINE3
 62
    3
 10
262.05779649999999
 20
185.75803149999996
 11
262.05779649999999
 21
178.60348850000008
  0
ARC
  8
_0-3_躯体と製品
  6
CONTINUOUS
 62
    3
 10
264.05989149999999
 20
179.84729750000008
 40
2.018419999999999
 50
141.51097800000014
 51
172.70791799999932
  0
LINE
  8
_0-3_躯体と製品
  6
CONTINUOUS
 62
    2
 10
261.0577945
 20
177.43682949999999
 11
267.12447350000002
 21
177.43683649999997
  0
ARC
  8
_0-3_躯体と製品
  6
CONTINUOUS
 62
    3
 10
262.18272049999996
 20
179.52862450000009
 40
0.5882830000000001
 50
102.2603289999998
 51
158.44630400000042
  0
LINE
  8
_0-3_躯体と製品
  6
CONTINUOUS
 62
    3
 10
262.05779649999999
 20
179.4368235
 11
261.63557449999996
 21
179.74474350000008
  0
LINE
  8
_0-3_躯体と製品
  6
CONTINUOUS
 62
    3
 10
259.71949949999998
 20
173.10349350000007
 11
263.05283250000002
 21
176.43682749999999
  0
LINE
  8
_0-3_躯体と製品
  6
CONTINUOUS
 62
    3
 10
261.1337125
 20
173.10349350000007
 11
264.46704649999998
 21
176.43682749999999
  0
LINE
  8
_0-3_躯体と製品
  6
CONTINUOUS
 62
    2
 10
260.22445549999998
 20
176.77016050000009
 11
260.22445549999998
 21
176.43682749999999
  0
LINE
  8
_0-3_躯体と製品
  6
CONTINUOUS
 62
    3
 10
256.89211649999999
 20
173.10349350000007
 11
260.22547750000001
 21
176.43682749999999
  0
LINE
  8
_0-3_躯体と製品
  6
CONTINUOUS
 62
    3
 10
258.30528549999997
 20
173.10349350000007
 11
261.63861850000001
 21
176.43682749999999
  0
LINE
  8
_0-3_躯体と製品
  6
CONTINUOUS
 62
    2
 10
256.8910995
 20
176.43682749999999
 11
256.89107249999995
 21
173.10349350000007
  0
LINE
  8
_0-3_躯体と製品
  6
CONTINUOUS
 62
    3
 10
256.89109550000001
 20
175.9319445000001
 11
257.39597849999996
 21
176.43682749999999
  0
LINE
  8
_0-3_躯体と製品
  6
CONTINUOUS
 62
    3
 10
256.89108349999998
 20
174.51771950000006
 11
258.81019149999997
 21
176.43682749999999
  0
CIRCLE
  8
_0-5_文字-記号
  6
CONTINUOUS
 62
    3
 10
260.57306449999999
 20
174.09395450000005
 40
0.2
  0
ARC
  8
_0-3_躯体と製品
  6
CONTINUOUS
 62
    2
 10
261.0577945
 20
177.60349550000007
 40
0.166667
 50
180
 51
270
  0
ARC
  8
_0-3_躯体と製品
  6
CONTINUOUS
 62
    2
 10
260.55776849999995
 20
177.10349350000007
 40
0.3333329999999999
 50
179.99918399999953
 51
270
  0
LINE
  8
_0-3_躯体と製品
  6
CONTINUOUS
 62
    2
 10
260.55776849999995
 20
176.77016050000009
 11
260.22445549999998
 21
176.77016050000009
  0
ARC
  8
_0-3_躯体と製品
  6
PLINE2
 62
    3
 10
264.91942549999999
 20
173.67647950000008
 40
0.133333
 50
98.130101999999809
 51
188.2984660000001
  0
LINE
  8
_0-3_躯体と製品
  6
CONTINUOUS
 62
    3
 10
262.54792650000002
 20
173.10349350000007
 11
265.88125949999994
 21
176.43682749999999
  0
LINE
  8
_0-3_躯体と製品
  6
CONTINUOUS
 62
    3
 10
263.96213949999998
 20
173.10349350000007
 11
267.29547349999996
 21
176.43682749999999
  0
ARC
  8
_0-3_躯体と製品
  6
PLINE2
 62
    3
 10
264.98503449999998
 20
173.68585149999996
 40
0.133333
 50
8.1301019999994626
 51
98.130101999999809
  0
LINE
  8
_0-3_躯体と製品
  6
PLINE2
 62
    3
 10
264.90056949999996
 20
173.80847250000005
 11
264.96617749999996
 21
173.81784450000009
  0
LINE
  8
_0-3_躯体と製品
  6
PLINE2
 62
    3
 10
267.39114050000001
 20
173.77016050000009
 11
267.22447349999999
 21
173.77016050000009
  0
LINE
  8
_0-3_躯体と製品
  6
PLINE2
 62
    3
 10
267.05780749999997
 20
173.77016050000009
 11
267.22447349999999
 21
173.77016050000009
  0
LINE
  8
_0-3_躯体と製品
  6
PLINE2
 62
    3
 10
267.22447349999999
 20
174.77016050000009
 11
267.22447349999999
 21
176.43682749999999
  0
LINE
  8
_0-3_躯体と製品
  6
PLINE2
 62
    3
 10
267.55780749999997
 20
176.43682749999999
 11
267.22447349999999
 21
174.77016050000009
  0
LINE
  8
_0-3_躯体と製品
  6
PLINE2
 62
    3
 10
266.89114050000001
 20
176.43682749999999
 11
267.22447349999999
 21
174.77016050000009
  0
LINE
  8
_0-3_躯体と製品
  6
PLINE2
 62
    3
 10
265.55780749999997
 20
176.43682749999999
 11
265.89114050000001
 21
174.77016050000009
  0
LINE
  8
_0-3_躯体と製品
  6
PLINE2
 62
    3
 10
265.89114050000001
 20
176.43682749999999
 11
265.89114050000001
 21
173.77016050000009
  0
LINE
  8
_0-3_躯体と製品
  6
CONTINUOUS
 62
    2
 10
264.22447349999999
 20
177.93683650000008
 11
264.22447349999999
 21
177.43683649999997
  0
LINE
  8
_0-3_躯体と製品
  6
CONTINUOUS
 62
    3
 10
262.05779649999999
 20
179.4368235
 11
262.48001849999997
 21
179.74474350000008
  0
LINE
  8
_0-3_躯体と製品
  6
CONTINUOUS
 62
    3
 10
262.05779649999999
 20
180.10349049999996
 11
262.05779649999999
 21
179.4368235
  0
LINE
  8
_0-3_躯体と製品
  6
CONTINUOUS
 62
    2
 10
267.22447349999999
 20
177.33683650000006
 11
267.12447350000002
 21
177.43683649999997
  0
LINE
  8
_0-3_躯体と製品
  6
CONTINUOUS
 62
    2
 10
267.22447349999999
 20
177.33683650000006
 11
267.32446549999997
 21
177.43682749999999
  0
ARC
  8
_0-3_躯体と製品
  6
CONTINUOUS
 62
    2
 10
267.22447349999999
 20
177.27016949999995
 40
1.8
 50
90
 51
128.8510620000003
  0
ARC
  8
_0-3_躯体と製品
  6
CONTINUOUS
 62
    2
 10
266.72355349999998
 20
177.89393250000006
 40
1
 50
128.61463799999981
 51
177.54107400000049
  0
CIRCLE
  8
_0-5_文字-記号
  6
CONTINUOUS
 62
    3
 10
267.22447349999999
 20
178.07250750000009
 40
0.2
  0
LINE
  8
_0-3_躯体と製品
  6
CONTINUOUS
 62
    2
 10
262.05779649999999
 20
184.67016450000006
 11
261.95779649999997
 21
184.77016449999996
  0
LINE
  8
_0-3_躯体と製品
  6
CONTINUOUS
 62
    2
 10
263.89113149999997
 20
184.10349049999996
 11
260.39113149999997
 21
184.10349049999996
  0
LINE
  8
_0-3_躯体と製品
  6
CONTINUOUS
 62
    2
 10
261.95780549999995
 20
183.77016050000009
 11
262.05780549999997
 21
183.67016050000007
  0
LINE
  8
_0-3_躯体と製品
  6
CONTINUOUS
 62
    2
 10
262.89114549999999
 20
182.93685750000009
 11
261.22446649999995
 21
182.9368245
  0
LINE
  8
_0-3_躯体と製品
  6
CONTINUOUS
 62
    3
 10
261.63557449999996
 20
182.46937850000006
 11
262.48001849999997
 21
182.78295849999995
  0
LINE
  8
_0-3_躯体と製品
  6
CONTINUOUS
 62
    3
 10
261.39113049999997
 20
181.98334749999998
 11
262.72446349999996
 21
182.29692749999998
  0
LINE
  8
_0-3_躯体と製品
  6
CONTINUOUS
 62
    3
 10
261.63557449999996
 20
182.12447749999995
 11
262.48001849999997
 21
182.43805850000007
  0
LINE
  8
_0-3_躯体と製品
  6
CONTINUOUS
 62
    3
 10
261.63557449999996
 20
181.84221749999995
 11
262.48001849999997
 21
182.15579749999995
  0
LINE
  8
_0-3_躯体と製品
  6
CONTINUOUS
 62
    3
 10
261.39113049999997
 20
181.35618750000009
 11
262.72446349999996
 21
181.66976750000009
  0
LINE
  8
_0-3_躯体と製品
  6
CONTINUOUS
 62
    3
 10
261.63557449999996
 20
181.49731750000007
 11
262.48001849999997
 21
181.81089749999995
  0
LINE
  8
_0-3_躯体と製品
  6
CONTINUOUS
 62
    3
 10
261.63557449999996
 20
181.21505750000006
 11
262.48001849999997
 21
181.5286375
  0
LINE
  8
_0-3_躯体と製品
  6
CONTINUOUS
 62
    3
 10
261.63557449999996
 20
183.63432449999999
 11
262.05779649999999
 21
183.93224450000008
  0
LINE
  8
_0-3_躯体と製品
  6
CONTINUOUS
 62
    3
 10
261.63557449999996
 20
183.91658450000006
 11
262.05779649999999
 21
183.93224450000008
  0
LINE
  8
_0-3_躯体と製品
  6
PLINE2
 62
    3
 10
260.85779649999995
 20
184.67015650000008
 11
263.25779649999998
 21
184.67015650000008
  0
LINE
  8
_0-3_躯体と製品
  6
CONTINUOUS
 62
    3
 10
261.63557449999996
 20
184.00349050000005
 11
262.48001849999997
 21
184.00349050000005
  0
LINE
  8
_0-3_躯体と製品
  6
CONTINUOUS
 62
    3
 10
262.48001849999997
 20
181.10349050000008
 11
261.63557949999995
 21
181.10349050000008
  0
LINE
  8
_0-3_躯体と製品
  6
CONTINUOUS
 62
    3
 10
262.05779649999999
 20
183.93224450000008
 11
261.39113049999997
 21
183.77545450000008
  0
LINE
  8
_0-3_躯体と製品
  6
PLINE2
 62
    3
 10
261.39113049999997
 20
183.2376685000001
 11
262.72446349999996
 21
183.55124849999999
  0
LINE
  8
_0-3_躯体と製品
  6
PLINE2
 62
    3
 10
261.63557449999996
 20
183.37879849999996
 11
262.48001849999997
 21
183.69237850000007
  0
LINE
  8
_0-3_躯体と製品
  6
PLINE2
 62
    3
 10
261.63557449999996
 20
183.09653849999995
 11
262.48001849999997
 21
183.41011849999995
  0
LINE
  8
_0-3_躯体と製品
  6
CONTINUOUS
 62
    3
 10
261.39113049999997
 20
182.61050850000009
 11
262.72446349999996
 21
182.9240885000001
  0
LINE
  8
_0-3_躯体と製品
  6
CONTINUOUS
 62
    3
 10
261.63557449999996
 20
182.75163850000007
 11
262.48001849999997
 21
183.06521850000007
  0
CIRCLE
  8
_0-5_文字-記号
  6
CONTINUOUS
 62
    3
 10
262.05779649999999
 20
184.67016450000006
 40
0.2
  0
ARC
  8
_0-3_躯体と製品
  6
CONTINUOUS
 62
    2
 10
258.99113849999998
 20
184.6701625
 40
0.1
 50
90
 51
180
  0
ARC
  8
_0-3_躯体と製品
  6
CONTINUOUS
 62
    2
 10
259.89113149999997
 20
184.4368235
 40
0.3333329999999999
 50
90
 51
180
  0
ARC
  8
_0-3_躯体と製品
  6
CONTINUOUS
 62
    2
 10
259.29114249999998
 20
184.6701625
 40
0.1
 50
0
 51
90
  0
ARC
  8
_0-3_躯体と製品
  6
CONTINUOUS
 62
    2
 10
259.22447249999999
 20
182.10349250000007
 40
0.3333329999999999
 50
180
 51
270
  0
LINE
  8
_0-3_躯体と製品
  6
CONTINUOUS
 62
    2
 10
258.99113849999998
 20
184.77016250000008
 11
259.29114249999998
 21
184.77016250000008
  0
LINE
  8
_0-3_躯体と製品
  6
CONTINUOUS
 62
    2
 10
258.89113850000001
 20
184.7701565000001
 11
258.89113850000001
 21
182.10349250000007
  0
LINE
  8
_0-3_躯体と製品
  6
CONTINUOUS
 62
    2
 10
259.22447349999999
 20
181.77015850000009
 11
260.05780749999997
 21
181.77016150000009
  0
ARC
  8
_0-3_躯体と製品
  6
CONTINUOUS
 62
    2
 10
260.05780749999997
 20
181.60349450000007
 40
0.166667
 50
359.99953299999919
 51
90.000000000000014
  0
LINE
  8
_0-3_躯体と製品
  6
CONTINUOUS
 62
    2
 10
260.05779150000001
 20
182.27016050000009
 11
259.55780449999997
 21
182.27016350000008
  0
ARC
  8
_0-3_躯体と製品
  6
CONTINUOUS
 62
    2
 10
260.05779150000001
 20
182.43682749999999
 40
0.166667
 50
270
 51
359.99947499999922
  0
ARC
  8
_0-3_躯体と製品
  6
CONTINUOUS
 62
    2
 10
261.22447349999999
 20
182.60349150000008
 40
0.3333329999999999
 50
90.001149999999768
 51
180
  0
LINE
  8
_0-3_躯体と製品
  6
CONTINUOUS
 62
    2
 10
260.89117149999998
 20
183.77016050000009
 11
261.95780549999995
 21
183.77016050000009
  0
ARC
  8
_0-3_躯体と製品
  6
CONTINUOUS
 62
    2
 10
260.39114050000001
 20
183.93682949999999
 40
0.166667
 50
90
 51
180
  0
LINE
  8
_0-3_躯体と製品
  6
CONTINUOUS
 62
    2
 10
259.55779849999999
 20
183.10349050000008
 11
259.55779849999999
 21
184.4368235
  0
LINE
  8
_0-3_躯体と製品
  6
CONTINUOUS
 62
    2
 10
260.22446549999995
 20
183.10349050000008
 11
260.22446549999995
 21
183.9368235
  0
ARC
  8
_0-3_躯体と製品
  6
CONTINUOUS
 62
    2
 10
260.39113149999997
 20
183.9368235
 40
0.166667
 50
90
 51
180
  0
LINE
  8
_0-3_躯体と製品
  6
CONTINUOUS
 62
    2
 10
259.89113149999997
 20
184.7701565000001
 11
261.95779649999997
 21
184.77016449999996
  0
ARC
  8
_0-3_躯体と製品
  6
CONTINUOUS
 62
    2
 10
259.89113149999997
 20
183.10349050000008
 40
0.3333329999999999
 50
180
 51
0
  0
LINE
  8
_0-3_躯体と製品
  6
CONTINUOUS
 62
    2
 10
260.72450649999996
 20
184.10349049999996
 11
260.39114050000001
 21
184.10349350000007
  0
ARC
  8
_0-3_躯体と製品
  6
CONTINUOUS
 62
    2
 10
260.72450549999996
 20
183.9368235
 40
0.166667
 50
0
 51
89.999350999999905
  0
LINE
  8
_0-3_躯体と製品
  6
CONTINUOUS
 62
    2
 10
260.89117149999998
 20
183.77016050000009
 11
260.89117149999998
 21
183.9368235
  0
LINE
  8
_0-3_躯体と製品
  6
CONTINUOUS
 62
    2
 10
259.39113950000001
 20
182.43682949999999
 11
259.3911425
 21
184.6701625
  0
ARC
  8
_0-3_躯体と製品
  6
CONTINUOUS
 62
    2
 10
259.55780549999997
 20
182.43682949999999
 40
0.166667
 50
180
 51
270
  0
LINE
  8
_0-3_躯体と製品
  6
CONTINUOUS
 62
    2
 10
260.22445849999997
 20
182.43682550000005
 11
260.22447249999999
 21
183.93682849999999
  0
LINE
  8
_0-3_躯体と製品
  6
PLINE2
 62
    3
 10
261.63557449999996
 20
183.09653849999995
 11
261.63557449999996
 21
182.75163850000007
  0
LINE
  8
_0-3_躯体と製品
  6
CONTINUOUS
 62
    3
 10
261.39113049999997
 20
181.98334749999998
 11
261.63557449999996
 21
182.12447749999995
  0
LINE
  8
_0-3_躯体と製品
  6
CONTINUOUS
 62
    3
 10
261.39113049999997
 20
181.98334749999998
 11
261.63557449999996
 21
181.84221749999995
  0
LINE
  8
_0-3_躯体と製品
  6
CONTINUOUS
 62
    3
 10
261.63557449999996
 20
182.46937850000006
 11
261.63557449999996
 21
182.12447749999995
  0
LINE
  8
_0-3_躯体と製品
  6
CONTINUOUS
 62
    3
 10
261.39113049999997
 20
181.35618750000009
 11
261.63557449999996
 21
181.49731750000007
  0
LINE
  8
_0-3_躯体と製品
  6
CONTINUOUS
 62
    3
 10
261.39113049999997
 20
181.35618750000009
 11
261.63557449999996
 21
181.21505750000006
  0
LINE
  8
_0-3_躯体と製品
  6
CONTINUOUS
 62
    3
 10
261.63557449999996
 20
181.84221749999995
 11
261.63557449999996
 21
181.49731750000007
  0
LINE
  8
_0-3_躯体と製品
  6
PLINE2
 62
    3
 10
260.85779649999995
 20
184.67015650000008
 11
261.63557449999996
 21
184.00349050000005
  0
LINE
  8
_0-3_躯体と製品
  6
PLINE2
 62
    3
 10
260.85779649999995
 20
184.7701565000001
 11
260.85779649999995
 21
184.67015650000008
  0
LINE
  8
_0-3_躯体と製品
  6
CONTINUOUS
 62
    3
 10
261.63557449999996
 20
181.21505750000006
 11
261.63557449999996
 21
181.10349050000008
  0
LINE
  8
_0-3_躯体と製品
  6
CONTINUOUS
 62
    3
 10
261.63557449999996
 20
183.63432449999999
 11
261.63557449999996
 21
183.45813650000008
  0
LINE
  8
_0-3_躯体と製品
  6
CONTINUOUS
 62
    3
 10
261.39113049999997
 20
183.77545450000008
 11
261.63557449999996
 21
183.91658450000006
  0
LINE
  8
_0-3_躯体と製品
  6
CONTINUOUS
 62
    3
 10
261.39113049999997
 20
183.77545450000008
 11
261.63557449999996
 21
183.63432449999999
  0
LINE
  8
_0-3_躯体と製品
  6
CONTINUOUS
 62
    3
 10
261.63557449999996
 20
184.00349050000005
 11
261.63557449999996
 21
183.91658450000006
  0
LINE
  8
_0-3_躯体と製品
  6
PLINE2
 62
    3
 10
261.39113049999997
 20
183.2376685000001
 11
261.63557449999996
 21
183.37879849999996
  0
LINE
  8
_0-3_躯体と製品
  6
PLINE2
 62
    3
 10
261.39113049999997
 20
183.2376685000001
 11
261.63557449999996
 21
183.09653849999995
  0
LINE
  8
_0-3_躯体と製品
  6
PLINE2
 62
    3
 10
261.63557449999996
 20
183.45813650000008
 11
261.63557449999996
 21
183.37879849999996
  0
LINE
  8
_0-3_躯体と製品
  6
CONTINUOUS
 62
    3
 10
261.39113049999997
 20
182.61050850000009
 11
261.63557449999996
 21
182.75163850000007
  0
LINE
  8
_0-3_躯体と製品
  6
CONTINUOUS
 62
    3
 10
261.39113049999997
 20
182.61050850000009
 11
261.63557449999996
 21
182.46937850000006
  0
LINE
  8
_0-3_躯体と製品
  6
CONTINUOUS
 62
    2
 10
264.55779849999999
 20
184.67015650000008
 11
266.22446549999995
 21
184.67015650000008
  0
LINE
  8
_0-3_躯体と製品
  6
CONTINUOUS
 62
    2
 10
263.22381150000001
 20
184.10349049999996
 11
263.39222949999998
 21
184.10349049999996
  0
LINE
  8
_0-3_躯体と製品
  6
CONTINUOUS
 62
    2
 10
262.15780549999999
 20
183.77016050000009
 11
263.05780549999997
 21
183.77016050000009
  0
LINE
  8
_0-3_躯体と製品
  6
CONTINUOUS
 62
    2
 10
262.15780549999999
 20
183.77016050000009
 11
262.05780549999997
 21
183.67016050000007
  0
LINE
  8
_0-3_躯体と製品
  6
CONTINUOUS
 62
    2
 10
262.05779649999999
 20
184.67016450000006
 11
262.15778749999998
 21
184.7701555000001
  0
LINE
  8
_0-3_躯体と製品
  6
CONTINUOUS
 62
    2
 10
264.55779849999999
 20
184.7701565000001
 11
264.55779849999999
 21
184.67015650000008
  0
LINE
  8
_0-3_躯体と製品
  6
CONTINUOUS
 62
    2
 10
264.55779849999999
 20
184.7701715
 11
262.15778749999998
 21
184.7701555000001
  0
LINE
  8
_0-3_躯体と製品
  6
CONTINUOUS
 62
    2
 10
263.89113149999997
 20
184.10349049999996
 11
264.05779849999999
 21
183.9368235
  0
ARC
  8
_0-3_躯体と製品
  6
CONTINUOUS
 62
    2
 10
263.22447249999999
 20
183.9368245
 40
0.166667
 50
90.000848999999903
 51
180
  0
ARC
  8
_0-3_躯体と製品
  6
CONTINUOUS
 62
    2
 10
262.89113249999997
 20
183.60352449999999
 40
0.666667
 50
270.00115000000022
 51
359.9961599999998
  0
LINE
  8
_0-3_躯体と製品
  6
CONTINUOUS
 62
    2
 10
263.55779949999999
 20
183.60347949999999
 11
263.55782149999999
 21
183.93681950000007
  0
ARC
  8
_0-3_躯体と製品
  6
CONTINUOUS
 62
    2
 10
263.39115449999997
 20
183.9368265
 40
0.166667
 50
359.99744000000044
 51
90.000000000000028
  0
LINE
  8
_0-3_躯体と製品
  6
CONTINUOUS
 62
    2
 10
263.05780549999997
 20
183.77016050000009
 11
263.05780549999997
 21
183.9368245
  0
LINE
  8
_0-3_躯体と製品
  6
PLINE2
 62
    3
 10
262.48001849999997
 20
183.06521850000007
 11
262.48001849999997
 21
183.41011849999995
  0
LINE
  8
_0-3_躯体と製品
  6
CONTINUOUS
 62
    3
 10
262.48001849999997
 20
182.43805850000007
 11
262.72446349999996
 21
182.29692749999998
  0
LINE
  8
_0-3_躯体と製品
  6
CONTINUOUS
 62
    3
 10
262.72446349999996
 20
182.29692749999998
 11
262.48001849999997
 21
182.15579749999995
  0
LINE
  8
_0-3_躯体と製品
  6
CONTINUOUS
 62
    3
 10
262.48001849999997
 20
182.43805850000007
 11
262.48001849999997
 21
182.78295849999995
  0
LINE
  8
_0-3_躯体と製品
  6
CONTINUOUS
 62
    3
 10
262.48001849999997
 20
181.81089749999995
 11
262.72446349999996
 21
181.66976750000009
  0
LINE
  8
_0-3_躯体と製品
  6
CONTINUOUS
 62
    3
 10
262.72446349999996
 20
181.66976750000009
 11
262.48001849999997
 21
181.5286375
  0
LINE
  8
_0-3_躯体と製品
  6
CONTINUOUS
 62
    3
 10
262.48001849999997
 20
181.81089749999995
 11
262.48001849999997
 21
182.15579749999995
  0
LINE
  8
_0-3_躯体と製品
  6
PLINE2
 62
    3
 10
263.25779649999998
 20
184.67015650000008
 11
262.48001849999997
 21
184.00349050000005
  0
LINE
  8
_0-3_躯体と製品
  6
PLINE2
 62
    3
 10
263.25779649999998
 20
184.7701565000001
 11
263.25779649999998
 21
184.67015650000008
  0
LINE
  8
_0-3_躯体と製品
  6
CONTINUOUS
 62
    3
 10
262.48001849999997
 20
183.69237850000007
 11
262.72446349999996
 21
183.55124849999999
  0
LINE
  8
_0-3_躯体と製品
  6
PLINE2
 62
    3
 10
262.48001849999997
 20
183.41011849999995
 11
262.72446349999996
 21
183.55124849999999
  0
LINE
  8
_0-3_躯体と製品
  6
CONTINUOUS
 62
    3
 10
262.48001849999997
 20
184.00349050000005
 11
262.48001849999997
 21
183.69237850000007
  0
LINE
  8
_0-3_躯体と製品
  6
CONTINUOUS
 62
    3
 10
262.48001849999997
 20
183.06521850000007
 11
262.72446349999996
 21
182.9240885000001
  0
LINE
  8
_0-3_躯体と製品
  6
CONTINUOUS
 62
    3
 10
262.72446349999996
 20
182.9240885000001
 11
262.48001849999997
 21
182.78295849999995
  0
LINE
  8
_0-3_躯体と製品
  6
CONTINUOUS
 62
    2
 10
266.22446549999995
 20
184.67015650000008
 11
266.22446549999995
 21
184.7701565000001
  0
LINE
  8
_0-3_躯体と製品
  6
CONTINUOUS
 62
    2
 10
278.72444949999999
 20
181.3701635000001
 11
278.72444949999999
 21
177.10349350000007
  0
LINE
  8
_0-3_躯体と製品
  6
CONTINUOUS
 62
    2
 10
278.05778550000002
 20
181.3701635000001
 11
278.05778550000002
 21
177.77016050000009
  0
LINE
  8
_0-3_躯体と製品
  6
CONTINUOUS
 62
    2
 10
278.89111749999995
 20
180.63682750000009
 11
278.7451605
 21
181.22065849999996
  0
LINE
  8
_0-3_躯体と製品
  6
CONTINUOUS
 62
    2
 10
277.89111849999995
 20
180.63682750000009
 11
278.03707850000001
 21
181.22065849999996
  0
LINE
  8
_0-3_躯体と製品
  6
CONTINUOUS
 62
    2
 10
277.39111849999995
 20
180.63682750000009
 11
277.39111849999995
 21
182.3034935
  0
LINE
  8
_0-3_躯体と製品
  6
CONTINUOUS
 62
    3
 10
272.44742150000002
 20
173.10349350000007
 11
275.78075449999994
 21
176.43682749999999
  0
LINE
  8
_0-3_躯体と製品
  6
CONTINUOUS
 62
    3
 10
271.0332075
 20
173.10349350000007
 11
274.36654049999999
 21
176.43682749999999
  0
LINE
  8
_0-3_躯体と製品
  6
CONTINUOUS
 62
    3
 10
269.61899449999999
 20
173.10349350000007
 11
272.95232750000002
 21
176.43682749999999
  0
LINE
  8
_0-3_躯体と製品
  6
CONTINUOUS
 62
    3
 10
268.20478049999997
 20
173.10349350000007
 11
271.53811350000001
 21
176.43682749999999
  0
ARC
  8
_0-3_躯体と製品
  6
PLINE2
 62
    3
 10
269.46391349999999
 20
173.68585149999996
 40
0.133333
 50
81.869898000000191
 51
171.86989800000052
  0
LINE
  8
_0-3_躯体と製品
  6
PLINE2
 62
    3
 10
269.54837850000001
 20
173.80847250000005
 11
269.48276950000002
 21
173.81784450000009
  0
ARC
  8
_0-3_躯体と製品
  6
PLINE2
 62
    3
 10
269.52952249999998
 20
173.67647950000008
 40
0.133333
 50
351.70153399999987
 51
81.869898000000205
  0
ARC
  8
_0-3_躯体と製品
  6
PLINE2
 62
    3
 10
269.46391349999999
 20
173.68585149999996
 40
0.133333
 50
81.869898000000191
 51
171.86989800000052
  0
LINE
  8
_0-3_躯体と製品
  6
PLINE2
 62
    3
 10
269.54837850000001
 20
173.80847250000005
 11
269.48276950000002
 21
173.81784450000009
  0
ARC
  8
_0-3_躯体と製品
  6
PLINE2
 62
    3
 10
269.52952249999998
 20
173.67647950000008
 40
0.133333
 50
351.70153399999987
 51
81.869898000000205
  0
LINE
  8
_0-3_躯体と製品
  6
PLINE2
 62
    3
 10
268.89114050000001
 20
176.43682749999999
 11
268.55780749999997
 21
174.77016050000009
  0
LINE
  8
_0-3_躯体と製品
  6
PLINE2
 62
    3
 10
268.55780749999997
 20
176.43682749999999
 11
268.55780749999997
 21
173.77016050000009
  0
LINE
  8
_0-3_躯体と製品
  6
CONTINUOUS
 62
    2
 10
270.22447349999999
 20
177.93683650000008
 11
270.22447349999999
 21
177.43683649999997
  0
ARC
  8
_0-3_躯体と製品
  6
CONTINUOUS
 62
    2
 10
267.72539449999999
 20
177.89393250000006
 40
1
 50
2.4589259999995199
 51
51.385362000000178
  0
CIRCLE
  8
_0-5_文字-記号
  6
CONTINUOUS
 62
    3
 10
269.3575525
 20
177.64876950000007
 40
0.2
  0
LINE
  8
_0-3_躯体と製品
  6
CONTINUOUS
 62
    3
 10
275.2758485
 20
173.10349350000007
 11
278.60918149999998
 21
176.43682749999999
  0
LINE
  8
_0-3_躯体と製品
  6
CONTINUOUS
 62
    3
 10
273.86163449999998
 20
173.10349350000007
 11
277.19496849999996
 21
176.43682749999999
  0
LINE
  8
_0-3_躯体と製品
  6
CONTINUOUS
 62
    3
 10
278.10427549999997
 20
173.10349350000007
 11
278.89114050000001
 21
173.8903595000001
  0
LINE
  8
_0-3_躯体と製品
  6
CONTINUOUS
 62
    3
 10
276.69006149999996
 20
173.10349350000007
 11
278.89114050000001
 21
175.30457249999995
  0
CIRCLE
  8
_0-5_文字-記号
  6
CONTINUOUS
 62
    3
 10
275.9062275
 20
177.00350249999997
 40
0.2
  0
ARC
  8
_0-3_躯体と製品
  6
CONTINUOUS
 62
    2
 10
278.39111649999995
 20
177.10349350000007
 40
0.3333329999999999
 50
270
 51
0
  0
ARC
  8
_0-3_躯体と製品
  6
CONTINUOUS
 62
    2
 10
277.72445149999999
 20
177.77016050000009
 40
0.3333329999999999
 50
270
 51
0
  0
LINE
  8
_0-3_躯体と製品
  6
CONTINUOUS
 62
    2
 10
277.89111849999995
 20
180.63682750000009
 11
277.39111849999995
 21
180.63682750000009
  0
LINE
  8
_0-3_躯体と製品
  6
CONTINUOUS
 62
    2
 10
270.55779649999999
 20
183.9368235
 11
273.89113149999997
 21
184.10349049999996
  0
LINE
  8
_0-3_躯体と製品
  6
CONTINUOUS
 62
    2
 10
272.89113149999997
 20
184.77015850000009
 11
274.55779849999999
 21
184.7701545000001
  0
LINE
  8
_0-3_躯体と製品
  6
CONTINUOUS
 62
    2
 10
269.55779849999999
 20
184.77016449999996
 11
271.22446549999995
 21
184.77016150000009
  0
ARC
  8
_0-3_躯体と製品
  6
CONTINUOUS
 62
    2
 10
271.22447349999999
 20
183.11408250000005
 40
0.666667
 50
93.666989999999799
 51
180
  0
ARC
  8
_0-3_躯体と製品
  6
CONTINUOUS
 62
    2
 10
270.89114050000001
 20
182.60299550000008
 40
0.3333329999999999
 50
180
 51
270
  0
LINE
  8
_0-3_躯体と製品
  6
CONTINUOUS
 62
    2
 10
267.89113149999997
 20
184.67015650000008
 11
267.89113149999997
 21
184.7701565000001
  0
LINE
  8
_0-3_躯体と製品
  6
CONTINUOUS
 62
    2
 10
269.55779849999999
 20
184.7701565000001
 11
269.55779849999999
 21
184.67015650000008
  0
LINE
  8
_0-3_躯体と製品
  6
CONTINUOUS
 62
    2
 10
267.89113149999997
 20
184.67015650000008
 11
269.55779849999999
 21
184.67015650000008
  0
LINE
  8
_0-3_躯体と製品
  6
CONTINUOUS
 62
    2
 10
270.55780749999997
 20
183.11408250000005
 11
270.55780749999997
 21
182.60299550000008
  0
LINE
  8
_0-3_躯体と製品
  6
CONTINUOUS
 62
    2
 10
271.22446549999995
 20
184.67015650000008
 11
271.22446549999995
 21
184.7701565000001
  0
LINE
  8
_0-3_躯体と製品
  6
CONTINUOUS
 62
    2
 10
271.22446549999995
 20
184.67015650000008
 11
272.89113149999997
 21
184.67015650000008
  0
LINE
  8
_0-3_躯体と製品
  6
CONTINUOUS
 62
    2
 10
272.89113149999997
 20
184.67015650000008
 11
272.89113149999997
 21
184.7701565000001
  0
LINE
  8
_0-3_躯体と製品
  6
CONTINUOUS
 62
    2
 10
271.05780749999997
 20
182.9363295
 11
271.05780749999997
 21
182.26966250000009
  0
LINE
  8
_0-3_躯体と製品
  6
CONTINUOUS
 62
    2
 10
271.05780749999997
 20
182.26966250000009
 11
270.89114050000001
 21
182.26966250000009
  0
CIRCLE
  8
_0-5_文字-記号
  6
CONTINUOUS
 62
    3
 10
277.89912049999998
 20
184.67026749999997
 40
0.2
  0
LINE
  8
_0-3_躯体と製品
  6
CONTINUOUS
 62
    2
 10
273.89113149999997
 20
184.10349049999996
 11
279.12444349999998
 21
184.10349049999996
  0
LINE
  8
_0-3_躯体と製品
  6
CONTINUOUS
 62
    2
 10
276.22446549999995
 20
184.77015150000005
 11
278.89112049999994
 21
184.77014650000007
  0
LINE
  8
_0-3_躯体と製品
  6
CONTINUOUS
 62
    2
 10
276.22446549999995
 20
184.67015650000008
 11
276.22446549999995
 21
184.7701565000001
  0
LINE
  8
_0-3_躯体と製品
  6
CONTINUOUS
 62
    2
 10
274.55779849999999
 20
184.67015650000008
 11
276.22446549999995
 21
184.67015650000008
  0
LINE
  8
_0-3_躯体と製品
  6
CONTINUOUS
 62
    2
 10
274.55779849999999
 20
184.7701565000001
 11
274.55779849999999
 21
184.67015650000008
  0
LINE
  8
_0-3_躯体と製品
  6
CONTINUOUS
 62
    2
 10
278.89110949999997
 20
184.7701565000001
 11
279.22444350000001
 21
184.4368235
  0
LINE
  8
_0-3_躯体と製品
  6
CONTINUOUS
 62
    2
 10
279.22444350000001
 20
184.4368235
 11
279.22444350000001
 21
184.2034905000001
  0
ARC
  8
_0-3_躯体と製品
  6
CONTINUOUS
 62
    2
 10
279.12444349999998
 20
184.2034905000001
 40
0.1
 50
270
 51
0
  0
LINE
  8
_0-3_躯体と製品
  6
CONTINUOUS
 62
    2
 10
277.89111949999995
 20
181.3701635000001
 11
278.05778650000002
 21
181.3701635000001
  0
LINE
  8
_0-3_躯体と製品
  6
CONTINUOUS
 62
    2
 10
278.89111749999995
 20
181.3701635000001
 11
278.72445049999999
 21
181.3701635000001
  0
ARC
  8
_0-3_躯体と製品
  6
CONTINUOUS
 62
    2
 10
278.39111749999995
 20
182.3701635000001
 40
0.4999979999999998
 50
0
 51
180
  0
LINE
  8
_0-3_躯体と製品
  6
CONTINUOUS
 62
    2
 10
277.89111949999995
 20
182.3701635000001
 11
277.89111949999995
 21
181.3701635000001
  0
LINE
  8
_0-3_躯体と製品
  6
CONTINUOUS
 62
    2
 10
278.89111949999995
 20
182.3701635000001
 11
278.89111749999995
 21
181.3701635000001
  0
LINE
  8
_0-3_躯体と製品
  6
CONTINUOUS
 62
    2
 10
278.9577855
 20
181.3034935
 11
278.9577855
 21
182.3034935
  0
LINE
  8
_0-3_躯体と製品
  6
CONTINUOUS
 62
    2
 10
278.89111749999995
 20
181.3034935
 11
278.9577855
 21
181.3034935
  0
LINE
  8
_0-3_躯体と製品
  6
CONTINUOUS
 62
    2
 10
277.8244535
 20
181.3034935
 11
277.82445150000001
 21
182.3034935
  0
LINE
  8
_0-3_躯体と製品
  6
CONTINUOUS
 62
    2
 10
277.89112049999994
 20
181.3034935
 11
277.8244535
 21
181.3034935
  0
ARC
  8
_0-3_躯体と製品
  6
CONTINUOUS
 62
    2
 10
278.80983649999996
 20
181.23682750000006
 40
0.066667
 50
90
 51
194.03619199999949
  0
LINE
  8
_0-3_躯体と製品
  6
CONTINUOUS
 62
    2
 10
278.89111850000006
 20
181.3034935
 11
278.80983649999996
 21
181.3034935
  0
ARC
  8
_0-3_躯体と製品
  6
CONTINUOUS
 62
    2
 10
277.97240149999999
 20
181.23682750000006
 40
0.066667
 50
345.96359799999959
 51
89.999999999999986
  0
LINE
  8
_0-3_躯体と製品
  6
CONTINUOUS
 62
    2
 10
277.89112049999994
 20
181.3034935
 11
277.97240149999999
 21
181.3034935
  0
ARC
  8
_0-3_躯体と製品
  6
CONTINUOUS
 62
    2
 10
278.39111849999995
 20
182.3034935
 40
0.566667
 50
0
 51
180
  0
LINE
  8
_0-3_躯体と製品
  6
PLINE3
 62
    3
 10
287.22447349999999
 20
188.0243905000001
 11
287.22447349999999
 21
156.43682750000008
  0
LINE
  8
_0-5_文字-記号
  6
CONTINUOUS
 62
    3
 10
294.22447449999999
 20
179.6701685000001
 11
299.71554649999996
 21
170.15935349999995
  0
LINE
  8
_0-3_躯体と製品
  6
CONTINUOUS
 62
    2
 10
295.55780749999997
 20
179.23971150000006
 11
292.14171949999997
 21
160.69757149999998
  0
LINE
  8
_0-3_躯体と製品
  6
CONTINUOUS
 62
    2
 10
291.81390349999998
 20
160.75796650000007
 11
295.22447349999999
 21
179.27016050000009
  0
ARC
  8
_0-3_躯体と製品
  6
CONTINUOUS
 62
    2
 10
287.22447349999999
 20
161.60349350000007
 40
5
 50
192.2369309999992
 51
349.56123800000017
  0
ARC
  8
_0-3_躯体と製品
  6
CONTINUOUS
 62
    2
 10
287.22447349999999
 20
161.60349350000007
 40
4.6666669999999986
 50
192.2369309999992
 51
349.56123800000017
  0
LINE
  8
_0-5_文字-記号
  6
CONTINUOUS
 62
    3
 10
293.51169049999987
 20
166.58830549999999
 11
298.46803849999998
 21
158.00365950000008
  0
CIRCLE
  8
_0-5_文字-記号
  6
CONTINUOUS
 62
    3
 10
293.51169049999987
 20
166.58830549999999
 40
0.2
  0
TEXT
  8
_0-5_文字-記号
 62
    7
 10
300.02220616666671
 20
167.38729649999999
 40
2
 41
0.8
 50
0
  1
５
  0
LINE
  8
_0-3_躯体と製品
  6
CONTINUOUS
 62
    2
 10
289.9578075
 20
187.27016049999997
 11
294.4578075
 21
187.27016049999997
  0
LINE
  8
_0-3_躯体と製品
  6
CONTINUOUS
 62
    2
 10
293.55780749999997
 20
188.10349350000007
 11
290.12447349999997
 21
188.10349350000007
  0
LINE
  8
_0-3_躯体と製品
  6
CONTINUOUS
 62
    2
 10
294.12447349999997
 20
188.43682749999999
 11
290.12447349999997
 21
188.43682749999999
  0
LINE
  8
_0-3_躯体と製品
  6
CONTINUOUS
 62
    2
 10
290.4578075
 20
187.77016050000009
 11
292.39114050000001
 21
187.77016050000009
  0
ARC
  8
_0-3_躯体と製品
  6
CONTINUOUS
 62
    2
 10
287.22447349999999
 20
-66.540400499999919
 40
250.83333300000001
 50
88.856296000000228
 51
89.581222999999966
  0
LINE
  8
_0-3_躯体と製品
  6
CONTINUOUS
 62
    2
 10
279.39111849999995
 20
182.3034935
 11
279.39111849999995
 21
180.63682750000009
  0
ARC
  8
_0-3_躯体と製品
  6
CONTINUOUS
 62
    2
 10
287.22447349999999
 20
-66.540400499999919
 40
250.83333300000001
 50
90.418777000000034
 51
90.799502000000061
  0
LINE
  8
_0-3_躯体と製品
  6
CONTINUOUS
 62
    2
 10
282.72447349999999
 20
184.25256349999995
 11
282.72447349999999
 21
184.15254750000008
  0
ARC
  8
_0-3_躯体と製品
  6
CONTINUOUS
 62
    2
 10
287.22447349999999
 20
-66.540400499999919
 40
250.73333299999999
 50
90.799821000000193
 51
91.028362999999842
  0
LINE
  8
_0-3_躯体と製品
  6
CONTINUOUS
 62
    2
 10
283.72447349999999
 20
184.2685125000001
 11
283.72447349999999
 21
184.16850249999999
  0
ARC
  8
_0-3_躯体と製品
  6
CONTINUOUS
 62
    2
 10
289.75780749999996
 20
184.8034935
 40
0.2
 50
180
 51
0
  0
ARC
  8
_0-3_躯体と製品
  6
CONTINUOUS
 62
    2
 10
287.22447349999999
 20
-66.540400499999919
 40
250.73333299999999
 50
89.581055999999947
 51
89.809572000000131
  0
ARC
  8
_0-3_躯体と製品
  6
CONTINUOUS
 62
    2
 10
287.22447349999999
 20
-66.540400499999919
 40
250.83333300000001
 50
89.809647999999967
 51
90.190352000000019
  0
ARC
  8
_0-3_躯体と製品
  6
CONTINUOUS
 62
    2
 10
287.22447349999999
 20
-66.540400499999919
 40
250.73333299999999
 50
90.190427999999883
 51
90.418944000000067
  0
LINE
  8
_0-3_躯体と製品
  6
CONTINUOUS
 62
    2
 10
285.39114050000001
 20
184.2862325000001
 11
285.39114050000001
 21
184.18622949999997
  0
LINE
  8
_0-3_躯体と製品
  6
CONTINUOUS
 62
    2
 10
288.05780749999997
 20
184.29154850000009
 11
288.05780749999997
 21
184.19154749999996
  0
LINE
  8
_0-3_躯体と製品
  6
CONTINUOUS
 62
    2
 10
286.39114050000001
 20
184.29154850000009
 11
286.39114050000001
 21
184.19154749999996
  0
CIRCLE
  8
_0-5_文字-記号
  6
CONTINUOUS
 62
    3
 10
287.22447349999999
 20
183.85009349999996
 40
0.2
  0
LINE
  8
_0-3_躯体と製品
  6
CONTINUOUS
 62
    2
 10
289.05780749999997
 20
184.2862325000001
 11
289.05780749999997
 21
184.18622949999997
  0
ARC
  8
_0-3_躯体と製品
  6
CONTINUOUS
 62
    2
 10
290.12447349999997
 20
187.93682749999999
 40
0.166667
 50
90
 51
180
  0
ARC
  8
_0-3_躯体と製品
  6
CONTINUOUS
 62
    2
 10
290.12447349999997
 20
188.60349350000007
 40
0.166667
 50
180
 51
270
  0
LINE
  8
_0-3_躯体と製品
  6
CONTINUOUS
 62
    2
 10
289.9578075
 20
184.8034935
 11
289.9578075
 21
187.93682749999999
  0
ARC
  8
_0-3_躯体と製品
  6
CONTINUOUS
 62
    2
 10
290.4578075
 20
187.27016049999997
 40
0.5
 50
90
 51
180
  0
LINE
  8
_0-3_躯体と製品
  6
CONTINUOUS
 62
    2
 10
294.62447349999997
 20
180.10349350000007
 11
294.62447349999997
 21
187.10349350000007
  0
LINE
  8
_0-3_躯体と製品
  6
CONTINUOUS
 62
    2
 10
292.05780749999997
 20
179.9368235
 11
292.05780749999997
 21
183.18682749999999
  0
LINE
  8
_0-3_躯体と製品
  6
CONTINUOUS
 62
    2
 10
291.55780749999997
 20
179.60349350000007
 11
291.55780749999997
 21
183.18682749999999
  0
LINE
  8
_0-3_躯体と製品
  6
CONTINUOUS
 62
    2
 10
295.12447349999997
 20
183.27016050000009
 11
295.12447349999997
 21
179.77016050000009
  0
TEXT
  8
_0-5_文字-記号
 62
    7
 10
297.86095383333338
 20
180.10407050000009
 40
2
 41
0.8
 50
0
  1
１１
  0
CIRCLE
  8
_0-5_文字-記号
  6
CONTINUOUS
 62
    3
 10
299.56761749999998
 20
181.1440755000001
 40
2
  0
LINE
  8
_0-3_躯体と製品
  6
CONTINUOUS
 62
    2
 10
292.22447349999999
 20
179.7701575000001
 11
294.29114149999998
 21
179.77016050000009
  0
LINE
  8
_0-3_躯体と製品
  6
CONTINUOUS
 62
    2
 10
291.89114050000001
 20
179.27016050000009
 11
295.22447349999999
 21
179.27016050000009
  0
ARC
  8
_0-3_躯体と製品
  6
CONTINUOUS
 62
    2
 10
291.89114050000001
 20
179.60349350000007
 40
0.3333329999999999
 50
180
 51
270
  0
ARC
  8
_0-3_躯体と製品
  6
CONTINUOUS
 62
    2
 10
292.22447349999999
 20
179.9368235
 40
0.166667
 50
180
 51
270
  0
ARC
  8
_0-3_躯体と製品
  6
CONTINUOUS
 62
    2
 10
294.29114049999998
 20
180.10349350000007
 40
0.3333329999999999
 50
270
 51
0
  0
LINE
  8
_0-3_躯体と製品
  6
CONTINUOUS
 62
    2
 10
295.22447349999999
 20
179.77016050000009
 11
295.12447349999997
 21
179.77016050000009
  0
LINE
  8
_0-3_躯体と製品
  6
CONTINUOUS
 62
    2
 10
295.22447349999999
 20
179.27016050000009
 11
295.22447349999999
 21
179.77016050000009
  0
CIRCLE
  8
_0-5_文字-記号
  6
CONTINUOUS
 62
    3
 10
294.22447449999999
 20
179.6701685000001
 40
0.2
  0
LINE
  8
_0-3_躯体と製品
  6
CONTINUOUS
 62
    2
 10
295.12447349999997
 20
187.27016049999997
 11
295.12447349999997
 21
183.77016050000009
  0
ARC
  8
_0-3_躯体と製品
  6
CONTINUOUS
 62
    2
 10
293.6528955
 20
181.86481749999996
 40
0.25
 50
270
 51
90
  0
ARC
  8
_0-3_躯体と製品
  6
CONTINUOUS
 62
    2
 10
291.80780749999997
 20
183.18682749999999
 40
0.25
 50
0
 51
180
  0
LINE
  8
_0-3_躯体と製品
  6
CONTINUOUS
 62
    2
 10
293.6528955
 20
182.11481749999996
 11
293.03078649999998
 21
182.1148055000001
  0
ARC
  8
_0-3_躯体と製品
  6
CONTINUOUS
 62
    2
 10
293.03078649999998
 20
182.28147149999995
 40
0.166667
 50
194.99999999999949
 51
270
  0
LINE
  8
_0-3_躯体と製品
  6
CONTINUOUS
 62
    2
 10
292.55780749999997
 20
183.40270350000009
 11
292.8697985
 21
182.23833549999995
  0
LINE
  8
_0-3_躯体と製品
  6
CONTINUOUS
 62
    2
 10
292.55780749999997
 20
183.90969350000006
 11
292.55780749999997
 21
183.40270350000009
  0
ARC
  8
_0-3_躯体と製品
  6
CONTINUOUS
 62
    2
 10
291.90880449999997
 20
183.24901349999999
 40
0.166667
 50
14.999999999999588
 51
88.925650999999831
  0
ARC
  8
_0-3_躯体と製品
  6
CONTINUOUS
 62
    2
 10
292.22447349999999
 20
183.90969350000006
 40
0.3333329999999999
 50
0
 51
88.856296000000228
  0
LINE
  8
_0-3_躯体と製品
  6
CONTINUOUS
 62
    2
 10
292.06979250000001
 20
183.29214949999999
 11
292.45303250000001
 21
181.86187750000005
  0
LINE
  8
_0-3_躯体と製品
  6
CONTINUOUS
 62
    2
 10
293.6528955
 20
181.61481749999996
 11
292.77500749999996
 21
181.61481749999996
  0
ARC
  8
_0-3_躯体と製品
  6
CONTINUOUS
 62
    2
 10
292.77500749999996
 20
181.94815050000005
 40
0.3333329999999999
 50
194.99999999999949
 51
270
  0
LINE
  8
_0-3_躯体と製品
  6
CONTINUOUS
 62
    2
 10
295.22447349999999
 20
183.27016050000009
 11
295.22447349999999
 21
183.77016050000009
  0
LINE
  8
_0-3_躯体と製品
  6
CONTINUOUS
 62
    2
 10
295.22447349999999
 20
183.27016050000009
 11
295.12447349999997
 21
183.27016050000009
  0
LINE
  8
_0-3_躯体と製品
  6
CONTINUOUS
 62
    2
 10
295.22447349999999
 20
183.77016050000009
 11
295.12447349999997
 21
183.77016050000009
  0
LINE
  8
_0-3_躯体と製品
  6
CONTINUOUS
 62
    2
 10
293.39114050000001
 20
187.77016050000009
 11
294.4578075
 21
187.77016050000009
  0
LINE
  8
_0-3_躯体と製品
  6
CONTINUOUS
 62
    2
 10
294.0982305
 20
188.07193350000006
 11
293.55780749999997
 21
187.93682749999999
  0
LINE
  8
_0-3_躯体と製品
  6
CONTINUOUS
 62
    2
 10
293.39114050000001
 20
187.77016050000009
 11
293.39114050000001
 21
188.10349350000007
  0
LINE
  8
_0-3_躯体と製品
  6
CONTINUOUS
 62
    2
 10
292.39114050000001
 20
187.77016050000009
 11
293.39114050000001
 21
188.10349350000007
  0
LINE
  8
_0-3_躯体と製品
  6
CONTINUOUS
 62
    2
 10
293.55780749999997
 20
188.10349350000007
 11
293.55780749999997
 21
187.93682749999999
  0
ARC
  8
_0-3_躯体と製品
  6
CONTINUOUS
 62
    2
 10
294.4578075
 20
187.10349350000007
 40
0.166667
 50
0
 51
90
  0
ARC
  8
_0-3_躯体と製品
  6
CONTINUOUS
 62
    2
 10
294.4578075
 20
187.93682749999999
 40
0.166667
 50
270
 51
0
  0
LINE
  8
_0-3_躯体と製品
  6
CONTINUOUS
 62
    2
 10
295.22447349999999
 20
187.77016050000009
 11
295.12447349999997
 21
187.77016050000009
  0
LINE
  8
_0-3_躯体と製品
  6
CONTINUOUS
 62
    2
 10
295.22447349999999
 20
187.27016049999997
 11
295.12447349999997
 21
187.27016049999997
  0
LINE
  8
_0-3_躯体と製品
  6
CONTINUOUS
 62
    2
 10
295.22447349999999
 20
187.27016049999997
 11
295.22447349999999
 21
187.77016050000009
  0
ARC
  8
_0-3_躯体と製品
  6
CONTINUOUS
 62
    2
 10
294.05780849999996
 20
188.23362350000008
 40
0.166667
 50
284.0362429999999
 51
0.000393999999306
  0
ARC
  8
_0-3_躯体と製品
  6
CONTINUOUS
 62
    2
 10
294.12447349999997
 20
188.33682750000008
 40
0.1
 50
0
 51
90
  0
LINE
  8
_0-3_躯体と製品
  6
CONTINUOUS
 62
    2
 10
294.22447349999999
 20
188.33682750000008
 11
294.22447449999999
 21
188.23362449999996
  0
TEXT
  8
_0-5_文字-記号
 62
    7
 10
266.59590516666668
 20
190.88857050000007
 40
2
 41
0.8
 50
0
  1
３
  0
CIRCLE
  8
_0-5_文字-記号
  6
CONTINUOUS
 62
    3
 10
267.28923750000001
 20
191.9285665000001
 40
2
  0
TEXT
  8
_0-5_文字-記号
 62
    7
 10
272.96186883333337
 20
190.88857050000007
 40
2
 41
0.8
 50
0
  1
１
  0
CIRCLE
  8
_0-5_文字-記号
  6
CONTINUOUS
 62
    3
 10
273.70853949999997
 20
191.9285665000001
 40
2
  0
LINE
  8
_0-5_文字-記号
  6
CONTINUOUS
 62
    3
 10
294.72447349999999
 20
202.70349350000009
 11
298.81296549999996
 21
209.78496850000005
  0
LINE
  8
_0-3_躯体と製品
  6
CONTINUOUS
 62
    2
 10
290.18857650000001
 20
198.3823405
 11
292.05780749999997
 21
197.60349350000007
  0
LINE
  8
_0-3_躯体と製品
  6
CONTINUOUS
 62
    2
 10
290.06037149999997
 20
197.8940925
 11
291.9578075
 21
197.10349350000007
  0
LINE
  8
_0-3_躯体と製品
  6
CONTINUOUS
 62
    2
 10
294.12447349999997
 20
196.43679650000007
 11
290.12447549999996
 21
196.43682749999999
  0
LINE
  8
_0-3_躯体と製品
  6
CONTINUOUS
 62
    2
 10
293.55780749999997
 20
196.77016050000009
 11
290.12447349999997
 21
196.77016050000009
  0
LINE
  8
_0-3_躯体と製品
  6
CONTINUOUS
 62
    2
 10
290.12447349999997
 20
202.70349350000009
 11
292.99114049999997
 21
202.70349350000009
  0
LINE
  8
_0-3_躯体と製品
  6
CONTINUOUS
 62
    2
 10
289.89113549999996
 20
203.10349550000007
 11
293.2244695
 21
203.10354450000005
  0
LINE
  8
_0-3_躯体と製品
  6
CONTINUOUS
 62
    2
 10
289.9578075
 20
202.53682749999996
 11
289.9578075
 21
196.93682749999999
  0
CIRCLE
  8
_0-5_文字-記号
  6
CONTINUOUS
 62
    3
 10
286.30651749999998
 20
198.24854550000009
 40
2
  0
CIRCLE
  8
_0-5_文字-記号
  6
CONTINUOUS
 62
    3
 10
283.01961349999999
 20
191.13312650000006
 40
2
  0
TEXT
  8
_0-5_文字-記号
 62
    7
 10
282.32628316666671
 20
190.09312950000009
 40
2
 41
0.8
 50
0
  1
２
  0
LINE
  8
_0-5_文字-記号
  6
CONTINUOUS
 62
    3
 10
289.55780749999997
 20
192.61714550000005
 11
287.30651749999998
 21
196.51649450000008
  0
CIRCLE
  8
_0-5_文字-記号
  6
CONTINUOUS
 62
    3
 10
289.55780749999997
 20
192.61714550000005
 40
0.2
  0
ARC
  8
_0-3_躯体と製品
  6
CONTINUOUS
 62
    2
 10
290.12447349999997
 20
196.27016050000009
 40
0.166667
 50
89.999553000000034
 51
180
  0
ARC
  8
_0-3_躯体と製品
  6
CONTINUOUS
 62
    2
 10
290.12447349999997
 20
196.93682749999999
 40
0.166667
 50
180
 51
270
  0
TEXT
  8
_0-5_文字-記号
 62
    7
 10
285.55984483333327
 20
197.20854750000007
 40
2
 41
0.8
 50
0
  1
４
  0
LINE
  8
_0-3_躯体と製品
  6
CONTINUOUS
 62
    2
 10
289.9578075
 20
198.0479385000001
 11
289.9578075
 21
198.22849350000007
  0
ARC
  8
_0-3_躯体と製品
  6
CONTINUOUS
 62
    2
 10
290.12447349999997
 20
198.22849350000007
 40
0.166667
 50
67.380134999999683
 51
180
  0
ARC
  8
_0-3_躯体と製品
  6
CONTINUOUS
 62
    2
 10
290.12447349999997
 20
198.0479385000001
 40
0.166667
 50
180
 51
247.38013499999963
  0
ARC
  8
_0-3_躯体と製品
  6
CONTINUOUS
 62
    2
 10
290.12447349999997
 20
202.53682749999996
 40
0.166667
 50
90
 51
180
  0
ARC
  8
_0-3_躯体と製品
  6
CONTINUOUS
 62
    2
 10
289.89114050000001
 20
202.77016250000008
 40
0.3333329999999999
 50
90.000848999999903
 51
180
  0
ARC
  8
_0-3_躯体と製品
  6
CONTINUOUS
 62
    2
 10
294.4578075
 20
196.93682749999999
 40
0.166667
 50
0
 51
90
  0
LINE
  8
_0-3_躯体と製品
  6
CONTINUOUS
 62
    2
 10
293.39114050000001
 20
197.10349350000007
 11
293.39114050000001
 21
196.77016050000009
  0
LINE
  8
_0-3_躯体と製品
  6
CONTINUOUS
 62
    2
 10
292.39114050000001
 20
197.10349350000007
 11
293.39114050000001
 21
196.77016050000009
  0
LINE
  8
_0-3_躯体と製品
  6
CONTINUOUS
 62
    2
 10
295.12447349999997
 20
197.10349350000007
 11
295.12447349999997
 21
193.77016050000009
  0
LINE
  8
_0-5_文字-記号
  6
CONTINUOUS
 62
    3
 10
293.71257750000001
 20
192.33683550000006
 11
298.80229349999996
 21
201.15248149999996
  0
LINE
  8
_0-3_躯体と製品
  6
PLINE2
 62
    3
 10
295.55780749999997
 20
194.10349350000007
 11
297.22447349999999
 21
193.77016050000009
  0
LINE
  8
_0-3_躯体と製品
  6
PLINE2
 62
    3
 10
295.55780749999997
 20
193.77016050000009
 11
298.22447349999999
 21
193.77016050000009
  0
LINE
  8
_0-3_躯体と製品
  6
PLINE2
 62
    3
 10
297.22447349999999
 20
192.43682749999999
 11
295.55780749999997
 21
192.43682749999999
  0
LINE
  8
_0-3_躯体と製品
  6
PLINE2
 62
    3
 10
295.55780749999997
 20
192.77016050000009
 11
297.22447349999999
 21
192.43682749999999
  0
LINE
  8
_0-3_躯体と製品
  6
PLINE2
 62
    3
 10
295.55780749999997
 20
192.10349350000007
 11
297.22447349999999
 21
192.43682749999999
  0
LINE
  8
_0-3_躯体と製品
  6
PLINE2
 62
    3
 10
295.55780749999997
 20
190.77016050000009
 11
297.22447349999999
 21
191.10349350000007
  0
LINE
  8
_0-3_躯体と製品
  6
PLINE2
 62
    3
 10
295.55780749999997
 20
191.10349350000007
 11
298.22447349999999
 21
191.10349350000007
  0
LINE
  8
_0-3_躯体と製品
  6
CONTINUOUS
 62
    2
 10
294.62447349999997
 20
196.93682749999999
 11
294.62446949999998
 21
192.53682749999996
  0
LINE
  8
_0-3_躯体と製品
  6
CONTINUOUS
 62
    2
 10
295.22447349999999
 20
191.10349350000007
 11
295.22447349999999
 21
193.77016050000009
  0
LINE
  8
_0-3_躯体と製品
  6
PLINE2
 62
    3
 10
295.55780749999997
 20
190.77016050000009
 11
295.55780749999997
 21
194.10349350000007
  0
LINE
  8
_0-3_躯体と製品
  6
CONTINUOUS
 62
    2
 10
294.12447349999997
 20
189.43682749999999
 11
294.12447349999997
 21
195.43682749999999
  0
ARC
  8
_0-3_躯体と製品
  6
CONTINUOUS
 62
    2
 10
294.79114049999987
 20
192.43682749999999
 40
1.8
 50
141.3178130000006
 51
180
  0
LINE
  8
_0-3_躯体と製品
  6
CONTINUOUS
 62
    2
 10
294.62447349999997
 20
189.43682749999999
 11
294.62447349999997
 21
195.43682749999999
  0
ARC
  8
_0-3_躯体と製品
  6
CONTINUOUS
 62
    2
 10
294.16737749999999
 20
191.9359065000001
 40
1
 50
218.61463800000033
 51
267.54107400000009
  0
CIRCLE
  8
_0-5_文字-記号
  6
CONTINUOUS
 62
    3
 10
293.71257750000001
 20
192.33683550000006
 40
0.2
  0
ARC
  8
_0-3_躯体と製品
  6
CONTINUOUS
 62
    2
 10
294.79114049999987
 20
192.43682749999999
 40
1.8
 50
180
 51
218.8510620000001
  0
LINE
  8
_0-3_躯体と製品
  6
CONTINUOUS
 62
    2
 10
295.22447349999999
 20
191.10349350000007
 11
295.12447349999997
 21
191.10349350000007
  0
LINE
  8
_0-3_躯体と製品
  6
CONTINUOUS
 62
    2
 10
294.72448349999996
 20
192.43682749999999
 11
294.6244835
 21
192.53682749999996
  0
LINE
  8
_0-3_躯体と製品
  6
CONTINUOUS
 62
    2
 10
294.72448349999996
 20
192.43682749999999
 11
294.6244825
 21
192.33682650000009
  0
LINE
  8
_0-3_躯体と製品
  6
CONTINUOUS
 62
    2
 10
294.12447349999997
 20
189.43682749999999
 11
294.62447349999997
 21
189.43682749999999
  0
CIRCLE
  8
_0-5_文字-記号
  6
CONTINUOUS
 62
    3
 10
294.3468575
 20
190.18669749999998
 40
0.2
  0
LINE
  8
_0-3_躯体と製品
  6
CONTINUOUS
 62
    2
 10
294.0982295
 20
196.8017215000001
 11
293.55780749999997
 21
196.93682749999999
  0
ARC
  8
_0-3_躯体と製品
  6
CONTINUOUS
 62
    2
 10
294.16737749999999
 20
192.93774850000005
 40
1
 50
92.458925999999934
 51
141.38536199999959
  0
LINE
  8
_0-3_躯体と製品
  6
CONTINUOUS
 62
    2
 10
293.55780749999997
 20
196.77016050000009
 11
293.55780749999997
 21
196.93682749999999
  0
LINE
  8
_0-3_躯体と製品
  6
CONTINUOUS
 62
    2
 10
295.22447349999999
 20
193.77016050000009
 11
295.12447349999997
 21
193.77016050000009
  0
ARC
  8
_0-3_躯体と製品
  6
CONTINUOUS
 62
    2
 10
294.05780749999997
 20
196.64003149999996
 40
0.166667
 50
0
 51
75.963757000000015
  0
ARC
  8
_0-3_躯体と製品
  6
CONTINUOUS
 62
    2
 10
294.12447349999997
 20
196.53679649999998
 40
0.1
 50
270
 51
0
  0
LINE
  8
_0-3_躯体と製品
  6
CONTINUOUS
 62
    2
 10
294.22447349999999
 20
196.53679649999998
 11
294.22447349999999
 21
196.64003149999996
  0
LINE
  8
_0-3_躯体と製品
  6
CONTINUOUS
 62
    2
 10
294.12447349999997
 20
195.43682749999999
 11
294.62447349999997
 21
195.43682749999999
  0
LINE
  8
_0-3_躯体と製品
  6
PLINE2
 62
    3
 10
299.55780749999997
 20
191.10349350000007
 11
299.86268849999988
 21
191.68361950000008
  0
LINE
  8
_0-3_躯体と製品
  6
PLINE2
 62
    3
 10
298.28992649999998
 20
190.32938050000007
 11
300.49126649999999
 21
190.64385750000008
  0
LINE
  8
_0-3_躯体と製品
  6
PLINE2
 62
    3
 10
300.60527350000007
 20
190.33062750000005
 11
298.3373995
 21
189.99984150000006
  0
LINE
  8
_0-3_躯体と製品
  6
PLINE2
 62
    3
 10
299.55780749999997
 20
191.10349350000007
 11
298.22447349999999
 21
191.10349350000007
  0
ARC
  8
_0-3_躯体と製品
  6
PLINE2
 62
    3
 10
298.30878250000001
 20
190.19738750000005
 40
0.133333
 50
98.130101999999809
 51
188.1301019999994
  0
LINE
  8
_0-3_躯体と製品
  6
PLINE2
 62
    3
 10
298.18616249999997
 20
190.11292350000008
 11
298.17678949999998
 21
190.17853150000008
  0
ARC
  8
_0-3_躯体と製品
  6
PLINE2
 62
    3
 10
298.31815549999999
 20
190.13177950000005
 40
0.133333
 50
188.1301019999994
 51
278.29846600000008
  0
LINE
  8
_0-3_躯体と製品
  6
PLINE2
 62
    3
 10
298.22447349999999
 20
192.60349350000007
 11
298.22447349999999
 21
192.43682749999999
  0
LINE
  8
_0-3_躯体と製品
  6
PLINE2
 62
    3
 10
298.22447349999999
 20
192.27016050000009
 11
298.22447349999999
 21
192.43682749999999
  0
LINE
  8
_0-3_躯体と製品
  6
PLINE2
 62
    3
 10
302.19282449999997
 20
191.56150250000007
 11
302.15793349999996
 21
190.89574950000008
  0
LINE
  8
_0-3_躯体と製品
  6
PLINE2
 62
    3
 10
301.52707149999998
 20
191.59639250000009
 11
302.19282449999997
 21
191.56150250000007
  0
LINE
  8
_0-3_躯体と製品
  6
PLINE2
 62
    3
 10
301.15930349999996
 20
190.94808449999999
 11
301.52707149999998
 21
191.59639250000009
  0
LINE
  8
_0-3_躯体と製品
  6
PLINE2
 62
    3
 10
300.49355049999997
 20
190.98297550000007
 11
301.15930349999996
 21
190.94808449999999
  0
LINE
  8
_0-3_躯体と製品
  6
PLINE2
 62
    3
 10
300.52844149999999
 20
191.64872850000006
 11
300.49355049999997
 21
190.98297550000007
  0
LINE
  8
_0-3_躯体と製品
  6
PLINE2
 62
    3
 10
299.86268849999988
 20
191.68361950000008
 11
300.52844149999999
 21
191.64872850000006
  0
LINE
  8
_0-3_躯体と製品
  6
PLINE2
 62
    3
 10
302.15793349999996
 20
190.89574950000008
 11
300.60527350000007
 21
190.33062750000005
  0
LINE
  8
_0-3_躯体と製品
  6
PLINE2
 62
    3
 10
302.15793349999996
 20
191.25047450000005
 11
300.49126649999999
 21
190.64385750000008
  0
LINE
  8
_0-3_躯体と製品
  6
PLINE2
 62
    3
 10
298.28992649999998
 20
194.54427350000009
 11
300.49126649999999
 21
194.22979649999996
  0
LINE
  8
_0-3_躯体と製品
  6
PLINE2
 62
    3
 10
300.60527350000007
 20
194.54302750000005
 11
298.3373995
 21
194.8738125000001
  0
LINE
  8
_0-3_躯体と製品
  6
PLINE2
 62
    3
 10
298.28992649999998
 20
194.54427350000009
 11
300.49126649999999
 21
194.22979649999996
  0
LINE
  8
_0-3_躯体と製品
  6
PLINE2
 62
    3
 10
300.60527350000007
 20
194.54302750000005
 11
298.3373995
 21
194.8738125000001
  0
LINE
  8
_0-3_躯体と製品
  6
PLINE2
 62
    3
 10
299.55780749999997
 20
193.77016050000009
 11
299.86268849999988
 21
193.19003550000008
  0
LINE
  8
_0-3_躯体と製品
  6
PLINE2
 62
    3
 10
299.55780749999997
 20
193.77016050000009
 11
298.22447349999999
 21
193.77016050000009
  0
ARC
  8
_0-3_躯体と製品
  6
PLINE2
 62
    3
 10
298.30878250000001
 20
194.67626750000005
 40
0.133333
 50
171.86989800000049
 51
261.86989799999981
  0
LINE
  8
_0-3_躯体と製品
  6
PLINE2
 62
    3
 10
298.18616249999997
 20
194.76073149999996
 11
298.17678949999998
 21
194.69512350000008
  0
ARC
  8
_0-3_躯体と製品
  6
PLINE2
 62
    3
 10
298.31815549999999
 20
194.74187550000005
 40
0.133333
 50
81.701533999999882
 51
171.86989800000052
  0
ARC
  8
_0-3_躯体と製品
  6
PLINE2
 62
    3
 10
298.30878250000001
 20
194.67626750000005
 40
0.133333
 50
171.86989800000049
 51
261.86989799999981
  0
LINE
  8
_0-3_躯体と製品
  6
PLINE2
 62
    3
 10
298.18616249999997
 20
194.76073149999996
 11
298.17678949999998
 21
194.69512350000008
  0
ARC
  8
_0-3_躯体と製品
  6
PLINE2
 62
    3
 10
298.31815549999999
 20
194.74187550000005
 40
0.133333
 50
81.701533999999882
 51
171.86989800000052
  0
LINE
  8
_0-3_躯体と製品
  6
PLINE2
 62
    3
 10
302.15793349999996
 20
193.97790550000008
 11
300.60527350000007
 21
194.54302750000005
  0
LINE
  8
_0-3_躯体と製品
  6
PLINE2
 62
    3
 10
302.15793349999996
 20
193.62317950000005
 11
300.49126649999999
 21
194.22979649999996
  0
LINE
  8
_0-3_躯体と製品
  6
PLINE2
 62
    3
 10
302.19282449999997
 20
193.31215250000008
 11
302.15793349999996
 21
193.97790550000008
  0
LINE
  8
_0-3_躯体と製品
  6
PLINE2
 62
    3
 10
301.52707149999998
 20
193.27726150000007
 11
302.19282449999997
 21
193.31215250000008
  0
LINE
  8
_0-3_躯体と製品
  6
PLINE2
 62
    3
 10
301.15930349999996
 20
193.92556949999999
 11
301.52707149999998
 21
193.27726150000007
  0
LINE
  8
_0-3_躯体と製品
  6
PLINE2
 62
    3
 10
300.49355049999997
 20
193.89067850000009
 11
301.15930349999996
 21
193.92556949999999
  0
LINE
  8
_0-3_躯体と製品
  6
PLINE2
 62
    3
 10
300.52844149999999
 20
193.2249255000001
 11
300.49355049999997
 21
193.89067850000009
  0
LINE
  8
_0-3_躯体と製品
  6
PLINE2
 62
    3
 10
299.86268849999988
 20
193.19003550000008
 11
300.52844149999999
 21
193.2249255000001
  0
LINE
  8
_0-3_躯体と製品
  6
CONTINUOUS
 62
    2
 10
293.55780749999997
 20
202.87016050000005
 11
293.55780749999997
 21
200.23682750000006
  0
LINE
  8
_0-3_躯体と製品
  6
CONTINUOUS
 62
    2
 10
293.15780749999999
 20
200.23682750000006
 11
293.15780749999999
 21
202.53682749999996
  0
LINE
  8
_0-3_躯体と製品
  6
CONTINUOUS
 62
    2
 10
293.89114050000001
 20
200.03682749999996
 11
293.89114050000001
 21
203.03682749999996
  0
ARC
  8
_0-3_躯体と製品
  6
CONTINUOUS
 62
    2
 10
294.72447349999999
 20
201.20349350000009
 40
0.8333329999999999
 50
270
 51
0
  0
LINE
  8
_0-3_躯体と製品
  6
CONTINUOUS
 62
    2
 10
292.82447350000001
 20
201.87016050000005
 11
292.82447350000001
 21
200.03682749999996
  0
ARC
  8
_0-3_躯体と製品
  6
CONTINUOUS
 62
    2
 10
294.72447349999999
 20
201.20349350000009
 40
0.5
 50
270
 51
0
  0
LINE
  8
_0-3_躯体と製品
  6
CONTINUOUS
 62
    2
 10
293.39114050000001
 20
197.10349350000007
 11
294.4578075
 21
197.10349350000007
  0
LINE
  8
_0-3_躯体と製品
  6
CONTINUOUS
 62
    2
 10
295.22447349999999
 20
197.60349350000007
 11
292.05780749999997
 21
197.60349350000007
  0
ARC
  8
_0-3_躯体と製品
  6
CONTINUOUS
 62
    2
 10
293.55780749999997
 20
200.03682749999996
 40
0.3333329999999999
 50
270
 51
0
  0
LINE
  8
_0-3_躯体と製品
  6
CONTINUOUS
 62
    2
 10
292.39114050000001
 20
197.10349350000007
 11
291.9578075
 21
197.10349350000007
  0
ARC
  8
_0-3_躯体と製品
  6
CONTINUOUS
 62
    2
 10
293.35780749999998
 20
200.23682750000006
 40
0.2
 50
180
 51
0
  0
LINE
  8
_0-3_躯体と製品
  6
CONTINUOUS
 62
    2
 10
293.55780749999997
 20
199.70349350000009
 11
293.15780749999999
 21
199.70349350000009
  0
ARC
  8
_0-3_躯体と製品
  6
CONTINUOUS
 62
    2
 10
293.15780749999999
 20
200.03682749999996
 40
0.3333329999999999
 50
180
 51
270
  0
LINE
  8
_0-3_躯体と製品
  6
CONTINUOUS
 62
    2
 10
294.72447349999999
 20
200.37016050000005
 11
293.89114050000001
 21
200.37016050000005
  0
LINE
  8
_0-3_躯体と製品
  6
CONTINUOUS
 62
    2
 10
293.89114050000001
 20
200.70349350000009
 11
294.72447349999999
 21
200.70349350000009
  0
LINE
  8
_0-3_躯体と製品
  6
CONTINUOUS
 62
    2
 10
295.55780749999997
 20
197.60349350000007
 11
295.12447349999997
 21
197.60349350000007
  0
LINE
  8
_0-3_躯体と製品
  6
CONTINUOUS
 62
    2
 10
295.22447349999999
 20
197.10349350000007
 11
295.12447349999997
 21
197.10349350000007
  0
LINE
  8
_0-3_躯体と製品
  6
CONTINUOUS
 62
    2
 10
295.22447349999999
 20
197.60349350000007
 11
295.22447349999999
 21
197.10349350000007
  0
LINE
  8
_0-3_躯体と製品
  6
CONTINUOUS
 62
    2
 10
293.72447349999999
 20
203.03682749999996
 11
293.89114050000001
 21
203.03682749999996
  0
ARC
  8
_0-3_躯体と製品
  6
CONTINUOUS
 62
    2
 10
293.22447349999999
 20
202.77021149999996
 40
0.3333329999999999
 50
0
 51
90.000848999999903
  0
ARC
  8
_0-3_躯体と製品
  6
CONTINUOUS
 62
    2
 10
292.99114049999997
 20
202.53682749999996
 40
0.166667
 50
0
 51
90
  0
ARC
  8
_0-3_躯体と製品
  6
CONTINUOUS
 62
    2
 10
293.72447349999999
 20
202.87016050000005
 40
0.166667
 50
90
 51
180
  0
LINE
  8
_0-3_躯体と製品
  6
CONTINUOUS
 62
    2
 10
292.82447350000001
 20
202.37016050000005
 11
292.49114049999997
 21
202.37016050000005
  0
ARC
  8
_0-3_躯体と製品
  6
CONTINUOUS
 62
    2
 10
292.82447350000001
 20
202.03682750000007
 40
0.3333329999999999
 50
0
 51
90
  0
ARC
  8
_0-3_躯体と製品
  6
CONTINUOUS
 62
    2
 10
292.65780749999988
 20
201.87016050000005
 40
0.166667
 50
0
 51
90
  0
LINE
  8
_0-3_躯体と製品
  6
CONTINUOUS
 62
    2
 10
292.65780749999988
 20
202.03682750000007
 11
292.49114049999997
 21
202.03682750000007
  0
ARC
  8
_0-3_躯体と製品
  6
CONTINUOUS
 62
    2
 10
292.49114049999997
 20
202.20349350000009
 40
0.166667
 50
90
 51
270
  0
ARC
  8
_0-3_躯体と製品
  6
CONTINUOUS
 62
    2
 10
295.39114050000001
 20
201.52231950000009
 40
0.166667
 50
0
 51
180
  0
ARC
  8
_0-3_躯体と製品
  6
CONTINUOUS
 62
    2
 10
294.72447349999999
 20
202.20349350000009
 40
0.8333329999999999
 50
0
 51
90
  0
LINE
  8
_0-3_躯体と製品
  6
CONTINUOUS
 62
    2
 10
294.72447349999999
 20
203.03682749999996
 11
293.89114050000001
 21
203.03682749999996
  0
LINE
  8
_0-3_躯体と製品
  6
CONTINUOUS
 62
    2
 10
293.89114050000001
 20
202.70349350000009
 11
294.72447349999999
 21
202.70349350000009
  0
ARC
  8
_0-3_躯体と製品
  6
CONTINUOUS
 62
    2
 10
294.72447349999999
 20
202.20349350000009
 40
0.5
 50
0
 51
90
  0
LINE
  8
_0-3_躯体と製品
  6
CONTINUOUS
 62
    2
 10
295.22447349999999
 20
201.52231950000009
 11
295.22447349999999
 21
201.20349350000009
  0
LINE
  8
_0-3_躯体と製品
  6
CONTINUOUS
 62
    2
 10
295.22447349999999
 20
201.85565350000007
 11
295.22447349999999
 21
202.20349350000009
  0
ARC
  8
_0-3_躯体と製品
  6
CONTINUOUS
 62
    2
 10
295.39114050000001
 20
201.85565350000007
 40
0.166667
 50
180
 51
0
  0
CIRCLE
  8
_0-5_文字-記号
  6
CONTINUOUS
 62
    3
 10
294.72447349999999
 20
202.70349350000009
 40
0.2
  0
CIRCLE
  8
_0-5_文字-記号
  6
CONTINUOUS
 62
    3
 10
299.80229349999996
 20
202.88453150000009
 40
2
  0
TEXT
  8
_0-5_文字-記号
 62
    7
 10
297.98896716666655
 20
201.84453350000007
 40
2
 41
0.8
 50
0
  1
１０
  0
CIRCLE
  8
_0-5_文字-記号
  6
CONTINUOUS
 62
    3
 10
299.81296549999996
 20
211.5170195
 40
2
  0
TEXT
  8
_0-5_文字-記号
 62
    7
 10
299.06629983333329
 20
210.47702550000008
 40
2
 41
0.8
 50
0
  1
７
  0
TEXT
  8
_0-4_図面枠
 62
    7
 10
218.74785749999998
 20
228.81183350000009
 40
2
 41
0.8
 50
0
  1
◇床コーナー（５０ＴＣＦ－Ａ）　Ｓ＝１／３
  0
TEXT
  8
_0-4_図面枠
 62
    7
 10
212.89484549999997
 20
235.64615450000008
 40
2
 41
0.8
 50
0
  1
（アルミ５０タイプ）
  0
LINE
  8
_0-5_文字-記号
  6
CONTINUOUS
 62
    3
 10
304.4331105
 20
192.33683550000006
 11
308.59012049999995
 21
199.53698950000006
  0
LINE
  8
_0-3_躯体と製品
  6
PLINE2
 62
    3
 10
307.81683449999997
 20
194.27447650000005
 11
308.51747749999998
 21
193.64361350000007
  0
LINE
  8
_0-3_躯体と製品
  6
PLINE2
 62
    3
 10
307.81683449999997
 20
190.59917850000005
 11
308.51747749999998
 21
191.23004050000009
  0
LINE
  8
_0-3_躯体と製品
  6
PLINE2
 62
    3
 10
306.93465950000001
 20
193.05997549999995
 11
307.55780749999997
 21
192.43682749999999
  0
LINE
  8
_0-3_躯体と製品
  6
PLINE2
 62
    3
 10
304.85583650000001
 20
191.42193950000006
 11
305.52158950000006
 21
191.38704850000005
  0
LINE
  8
_0-3_躯体と製品
  6
PLINE2
 62
    3
 10
304.48806949999999
 20
190.77363150000008
 11
304.85583650000001
 21
191.42193950000006
  0
LINE
  8
_0-3_躯体と製品
  6
PLINE2
 62
    3
 10
303.8223165
 20
190.80852250000009
 11
304.48806949999999
 21
190.77363150000008
  0
LINE
  8
_0-3_躯体と製品
  6
PLINE2
 62
    3
 10
303.85720650000007
 20
191.47427550000009
 11
303.8223165
 21
190.80852250000009
  0
LINE
  8
_0-3_躯体と製品
  6
PLINE2
 62
    3
 10
303.19145349999997
 20
191.50916650000005
 11
303.85720650000007
 21
191.47427550000009
  0
LINE
  8
_0-3_躯体と製品
  6
PLINE2
 62
    3
 10
302.82368650000001
 20
190.86085850000006
 11
303.19145349999997
 21
191.50916650000005
  0
CIRCLE
  8
_0-5_文字-記号
  6
CONTINUOUS
 62
    3
 10
304.4331105
 20
192.33683550000006
 40
0.2
  0
LINE
  8
_0-3_躯体と製品
  6
PLINE2
 62
    3
 10
307.18597149999999
 20
191.29982249999995
 11
307.15108149999998
 21
190.63406950000007
  0
LINE
  8
_0-3_躯体と製品
  6
PLINE2
 62
    3
 10
306.5202185
 20
191.33471249999997
 11
307.18597149999999
 21
191.29982249999995
  0
LINE
  8
_0-3_躯体と製品
  6
PLINE2
 62
    3
 10
306.15245149999998
 20
190.68640550000009
 11
306.5202185
 21
191.33471249999997
  0
LINE
  8
_0-3_躯体と製品
  6
PLINE2
 62
    3
 10
305.48669849999999
 20
190.72129550000005
 11
306.15245149999998
 21
190.68640550000009
  0
LINE
  8
_0-3_躯体と製品
  6
PLINE2
 62
    3
 10
305.52158950000006
 20
191.38704850000005
 11
305.48669849999999
 21
190.72129550000005
  0
LINE
  8
_0-3_躯体と製品
  6
PLINE2
 62
    3
 10
306.93465950000001
 20
191.81367950000009
 11
307.55780749999997
 21
192.43682749999999
  0
LINE
  8
_0-3_躯体と製品
  6
PLINE2
 62
    3
 10
307.87789249999997
 20
191.76424650000007
 11
307.81683449999997
 21
190.59917850000005
  0
LINE
  8
_0-3_躯体と製品
  6
PLINE2
 62
    3
 10
307.15108149999998
 20
190.63406950000007
 11
307.81683449999997
 21
190.59917850000005
  0
LINE
  8
_0-3_躯体と製品
  6
PLINE2
 62
    3
 10
304.85583650000001
 20
193.45171550000009
 11
305.52158950000006
 21
193.48660550000005
  0
LINE
  8
_0-3_躯体と製品
  6
PLINE2
 62
    3
 10
304.48806949999999
 20
194.10002250000008
 11
304.85583650000001
 21
193.45171550000009
  0
LINE
  8
_0-3_躯体と製品
  6
PLINE2
 62
    3
 10
303.8223165
 20
194.06513250000006
 11
304.48806949999999
 21
194.10002250000008
  0
LINE
  8
_0-3_躯体と製品
  6
PLINE2
 62
    3
 10
303.85720650000007
 20
193.39937950000007
 11
303.8223165
 21
194.06513250000006
  0
LINE
  8
_0-3_躯体と製品
  6
PLINE2
 62
    3
 10
303.19145349999997
 20
193.36448850000005
 11
303.85720650000007
 21
193.39937950000007
  0
LINE
  8
_0-3_躯体と製品
  6
PLINE2
 62
    3
 10
302.82368650000001
 20
194.01279649999998
 11
303.19145349999997
 21
193.36448850000005
  0
LINE
  8
_0-3_躯体と製品
  6
PLINE2
 62
    3
 10
307.87789249999997
 20
193.10940850000009
 11
307.81683449999997
 21
194.27447650000005
  0
LINE
  8
_0-3_躯体と製品
  6
PLINE2
 62
    3
 10
307.15108149999998
 20
194.23958550000009
 11
307.81683449999997
 21
194.27447650000005
  0
LINE
  8
_0-3_躯体と製品
  6
PLINE2
 62
    3
 10
307.18597149999999
 20
193.57383250000009
 11
307.15108149999998
 21
194.23958550000009
  0
LINE
  8
_0-3_躯体と製品
  6
PLINE2
 62
    3
 10
306.5202185
 20
193.53894149999996
 11
307.18597149999999
 21
193.57383250000009
  0
LINE
  8
_0-3_躯体と製品
  6
PLINE2
 62
    3
 10
306.15245149999998
 20
194.18724949999995
 11
306.5202185
 21
193.53894149999996
  0
LINE
  8
_0-3_躯体と製品
  6
PLINE2
 62
    3
 10
305.48669849999999
 20
194.15235850000005
 11
306.15245149999998
 21
194.18724949999995
  0
LINE
  8
_0-3_躯体と製品
  6
PLINE2
 62
    3
 10
305.52158950000006
 20
193.48660550000005
 11
305.48669849999999
 21
194.15235850000005
  0
LINE
  8
_0-3_躯体と製品
  6
PLINE2
 62
    3
 10
308.51747749999998
 20
191.23004050000009
 11
308.54364549999997
 21
191.72935550000005
  0
LINE
  8
_0-3_躯体と製品
  6
PLINE2
 62
    3
 10
308.51747749999998
 20
193.64361350000007
 11
308.54364549999997
 21
193.14429850000005
  0
CIRCLE
  8
_0-5_文字-記号
  6
CONTINUOUS
 62
    3
 10
309.59012049999995
 20
201.26904049999996
 40
2
  0
TEXT
  8
_0-5_文字-記号
 62
    7
 10
308.89679416666661
 20
200.22903950000006
 40
2
 41
0.8
 50
0
  1
９
  0
INSERT
  2
-001-_D4
  8
_0-2_寸法
 10
29.225742216773483
 20
-94.433438327047725
 41
0.5
 42
0.5
 50
0
  0
INSERT
  2
-002-_D5
  8
_0-2_寸法
 10
29.225742216773483
 20
-94.433438327047725
 41
0.5
 42
0.5
 50
0
  0
INSERT
  2
-003-_D6
  8
_0-2_寸法
 10
29.225742216773483
 20
-94.433438327047725
 41
0.5
 42
0.5
 50
0
  0
INSERT
  2
-004-_D7
  8
_0-2_寸法
 10
29.225742216773483
 20
-94.433438327047725
 41
0.5
 42
0.5
 50
0
  0
INSERT
  2
-005-_D8
  8
_0-2_寸法
 10
29.225742216773483
 20
-94.433438327047725
 41
0.5
 42
0.5
 50
0
  0
INSERT
  2
-006-_D9
  8
_0-2_寸法
 10
29.225742216773483
 20
-94.433438327047725
 41
0.5
 42
0.5
 50
0
  0
INSERT
  2
-007-_D10
  8
_0-2_寸法
 10
29.225742216773483
 20
-94.433438327047725
 41
0.5
 42
0.5
 50
0
  0
INSERT
  2
-008-_D11
  8
_0-2_寸法
 10
29.225742216773483
 20
-94.433438327047725
 41
0.5
 42
0.5
 50
0
  0
INSERT
  2
-009-_D12
  8
_0-2_寸法
 10
29.225742216773483
 20
-94.433438327047725
 41
0.5
 42
0.5
 50
0
  0
INSERT
  2
-010-_D13
  8
_0-2_寸法
 10
29.225742216773483
 20
-94.433438327047725
 41
0.5
 42
0.5
 50
0
  0
INSERT
  2
-011-_D14
  8
_0-2_寸法
 10
29.225742216773483
 20
-94.433438327047725
 41
0.5
 42
0.5
 50
0
  0
INSERT
  2
-012-_D15
  8
_0-2_寸法
 10
29.225742216773483
 20
-94.433438327047725
 41
0.5
 42
0.5
 50
0
  0
INSERT
  2
-013-_D16
  8
_0-2_寸法
 10
29.225742216773483
 20
-94.433438327047725
 41
0.5
 42
0.5
 50
0
  0
INSERT
  2
-014-_D17
  8
_0-2_寸法
 10
29.225742216773483
 20
-94.433438327047725
 41
0.5
 42
0.5
 50
0
  0
INSERT
  2
-015-_D18
  8
_0-2_寸法
 10
29.225742216773483
 20
-94.433438327047725
 41
0.5
 42
0.5
 50
0
  0
INSERT
  2
-016-_D19
  8
_0-2_寸法
 10
29.225742216773483
 20
-94.433438327047725
 41
0.5
 42
0.5
 50
0
  0
INSERT
  2
-017-_D20
  8
_0-2_寸法
 10
29.225742216773483
 20
-94.433438327047725
 41
0.5
 42
0.5
 50
0
  0
INSERT
  2
-018-_D21
  8
_0-2_寸法
 10
29.225742216773483
 20
-94.433438327047725
 41
0.5
 42
0.5
 50
0
  0
INSERT
  2
-019-_D22
  8
_0-2_寸法
 10
29.225742216773483
 20
-94.433438327047725
 41
0.5
 42
0.5
 50
0
  0
INSERT
  2
-020-_D23
  8
_0-2_寸法
 10
29.225742216773483
 20
-94.433438327047725
 41
0.5
 42
0.5
 50
0
  0
INSERT
  2
-021-_D24
  8
_0-2_寸法
 10
29.225742216773483
 20
-94.433438327047725
 41
0.5
 42
0.5
 50
0
  0
INSERT
  2
-022-_D25
  8
_0-2_寸法
 10
29.225742216773483
 20
-94.433438327047725
 41
0.5
 42
0.5
 50
0
  0
INSERT
  2
-023-_D26
  8
_0-2_寸法
 10
29.225742216773483
 20
-94.433438327047725
 41
0.5
 42
0.5
 50
0
  0
ENDSEC
  0
EOF
