  0
SECTION
  2
HEADER
  9
$ACADVER
  1
AC1009
  9
$INSBASE
 10
0
 20
0
 30
0
  9
$EXTMIN
 10
0
 20
0
  9
$EXTMAX
 10
420
 20
297
  9
$LIMMIN
 10
0
 20
0
  9
$LIMMAX
 10
420
 20
297
  9
$LTSCALE
 40
1
  0
ENDSEC
  0
SECTION
  2
TABLES
  0
TABLE
  2
LTYPE
 70
     9
  0
LTYPE
  2
CONTINUOUS
 70
    64
  3
実線
 72
    65
 73
     0
 40
0.0
  0
LTYPE
  2
DASHED1
 70
    64
  3
--  --  --  --  --  --  --  --  
 72
    65
 73
     2
 40
2.5
 49
1.25
 49
-1.25
  0
LTYPE
  2
DASHED2
 70
    64
  3
----    ----    ----    ----    
 72
    65
 73
     2
 40
5.0
 49
2.5
 49
-2.5
  0
LTYPE
  2
DASHED3
 70
    64
  3
------  ------  ------  ------  
 72
    65
 73
     2
 40
5.0
 49
3.75
 49
-1.25
  0
LTYPE
  2
CENTER1
 70
    64
  3
----- - ----- - ----- - ----- - 
 72
    65
 73
     4
 40
10.0
 49
6.25
 49
-1.25
 49
1.25
 49
-1.25
  0
LTYPE
  2
CENTER2
 70
    64
  3
----------  --  ----------  --  
 72
    65
 73
     4
 40
20.0
 49
12.5
 49
-2.5
 49
2.5
 49
-2.5
  0
LTYPE
  2
PHANTOM1
 70
    64
  3
--- - - --- - - --- - - --- - - 
 72
    65
 73
     6
 40
10.0
 49
3.25
 49
-1.25
 49
1.25
 49
-1.25
 49
1.25
 49
-1.25
  0
LTYPE
  2
PHANTOM2
 70
    64
  3
--------  -  -  --------  -  -  
 72
    65
 73
     6
 40
20.0
 49
10.0
 49
-2.5
 49
1.25
 49
-2.5
 49
1.25
 49
-2.5
  0
LTYPE
  2
DOT
 70
    64
  3
-   -   -   -   -   -   -   -   
 72
    65
 73
     2
 40
2.5
 49
0.625
 49
-1.875
  0
LTYPE
  2
DUMMY
 70
    64
  3
ダミー
 72
    65
 73
     0
 40
0.0
  0
LTYPE
  2
RAND1
 70
    64
  3
ランダム線1
 72
    65
 73
     4
 40
10.0
 49
1.0
 49
-2.0
 49
3.0
 49
-4.0
  0
LTYPE
  2
RAND2
 70
    64
  3
ランダム線2
 72
    65
 73
     4
 40
14.0
 49
2.0
 49
-3.0
 49
4.0
 49
-5.0
  0
LTYPE
  2
RAND3
 70
    64
  3
ランダム線3
 72
    65
 73
     4
 40
18.0
 49
3.0
 49
-4.0
 49
5.0
 49
-6.0
  0
LTYPE
  2
RAND4
 70
    64
  3
ランダム線4
 72
    65
 73
     4
 40
22.0
 49
4.0
 49
-5.0
 49
6.0
 49
-7.0
  0
LTYPE
  2
RAND5
 70
    64
  3
ランダム線5
 72
    65
 73
     4
 40
26.0
 49
5.0
 49
-6.0
 49
7.0
 49
-8.0
  0
LTYPE
  2
LONG1
 70
    64
  3
----------  --  ----------  --  
 72
    65
 73
     4
 40
40.0
 49
32.5
 49
-2.5
 49
2.5
 49
-2.5
  0
LTYPE
  2
LONG2
 70
    64
  3
--------  -  -  --------  -  -  
 72
    65
 73
     6
 40
40.0
 49
30.0
 49
-2.5
 49
1.25
 49
-2.5
 49
1.25
 49
-2.5
  0
LTYPE
  2
LONG3
 70
    64
  3
+++++++++++++++..+++++++++++++++
 72
    65
 73
     2
 40
40.0
 49
37.5
 49
-2.5
  0
LTYPE
  2
LONG4
 70
    64
  3
+++++++++++++++..+++++++++++++++
 72
    65
 73
     2
 40
80.0
 49
75.0
 49
-5.0
  0
LTYPE
  2
LONG5
 70
    64
  3
----------  --  ----------  --  
 72
    65
 73
     4
 40
60.0
 49
37.5
 49
-7.5
 49
7.5
 49
-7.5
  0
LTYPE
  2
dashed
 70
   64
  3
-------   -------------   ------
 72
   65
 73
    2
 40
7.5
 49
6
 49
-1.5
  0
LTYPE
  2
dashed_spaced
 70
   64
  3
----        --------        ----
 72
   65
 73
    2
 40
12
 49
6
 49
-6
  0
LTYPE
  2
long_dashed_dotted
 70
   64
  3
------------- --- --------------
 72
   65
 73
    4
 40
15.25
 49
12
 49
-1.5
 49
0.25
 49
-1.5
  0
LTYPE
  2
long_dashed_double-dotted
 70
   64
  3
----------- --- --- ------------
 72
   65
 73
    6
 40
17
 49
12
 49
-1.5
 49
0.25
 49
-1.5
 49
0.25
 49
-1.5
  0
LTYPE
  2
long_dashed_triplicate-dotted
 70
   64
  3
--------- --- --- --- ----------
 72
   65
 73
    8
 40
18.75
 49
12
 49
-1.5
 49
0.25
 49
-1.5
 49
0.25
 49
-1.5
 49
0.25
 49
-1.5
  0
LTYPE
  2
dotted
 70
   64
  3
   -       -       -       -    
 72
   65
 73
    2
 40
1.75
 49
0.25
 49
-1.5
  0
LTYPE
  2
chain
 70
   64
  3
-------------- -- --------------
 72
   65
 73
    4
 40
18.5
 49
12
 49
-1.5
 49
3.5
 49
-1.5
  0
LTYPE
  2
chain_double_dash
 70
   64
  3
------------ -- -- -------------
 72
   65
 73
    6
 40
23.5
 49
12
 49
-1.5
 49
3.5
 49
-1.5
 49
3.5
 49
-1.5
  0
LTYPE
  2
dashed_dotted
 70
   64
  3
-----------     -     ----------
 72
   65
 73
    4
 40
9.25
 49
6
 49
-1.5
 49
0.25
 49
-1.5
  0
LTYPE
  2
double-dashed_dotted
 70
   64
  3
------   -----------   -   -----
 72
   65
 73
    6
 40
16.75
 49
6
 49
-1.5
 49
6
 49
-1.5
 49
0.25
 49
-1.5
  0
LTYPE
  2
dashed_double-dotted
 70
   64
  3
---------    -    -    ---------
 72
   65
 73
    6
 40
11
 49
6
 49
-1.5
 49
0.25
 49
-1.5
 49
0.25
 49
-1.5
  0
LTYPE
  2
double-dashed_double-dotted
 70
   64
  3
-----   ---------   -   -   ----
 72
   65
 73
    8
 40
18.5
 49
6
 49
-1.5
 49
6
 49
-1.5
 49
0.25
 49
-1.5
 49
0.25
 49
-1.5
  0
LTYPE
  2
dashed_triplicate-dotted
 70
   64
  3
-------    -    -    -    ------
 72
   65
 73
    8
 40
12.75
 49
6
 49
-1.5
 49
0.25
 49
-1.5
 49
0.25
 49
-1.5
 49
0.25
 49
-1.5
  0
LTYPE
  2
double-dashed_triplicate-dotted
 70
   64
  3
-----  ---------  -  -  -  -----
 72
   65
 73
   10
 40
20.25
 49
6
 49
-1.5
 49
6
 49
-1.5
 49
0.25
 49
-1.5
 49
0.25
 49
-1.5
 49
0.25
 49
-1.5
  0
LTYPE
  2
undefined
 70
   64
  3
--------------------------------
 72
   65
 73
    0
 40
0
  0
LTYPE
  2
PLINE2
 70
   64
  3
------     -----------     -----
 72
   65
 73
    2
 40
3
 49
2.1000000000000001
 49
-0.9
  0
LTYPE
  2
PLINE3
 70
   64
  3
------------   ---   -----------
 72
   65
 73
    4
 40
10
 49
7
 49
-1
 49
1
 49
-1
  0
LTYPE
  2
PLINE4
 70
   64
  3
---------   ---   ---   --------
 72
   65
 73
    6
 40
10
 49
5
 49
-1
 49
1
 49
-1
 49
1
 49
-1
  0
LTYPE
  2
PLINE5
 70
   64
  3
------     -----------     -----
 72
   65
 73
    2
 40
5
 49
3.5
 49
-1.5
  0
LTYPE
  2
PLINE6
 70
   64
  3
------------   ---   -----------
 72
   65
 73
    4
 40
15
 49
10.5
 49
-1.5
 49
1.5
 49
-1.5
  0
LTYPE
  2
PLINE7
 70
   64
  3
---------   ---   ---   --------
 72
   65
 73
    6
 40
15
 49
7.5
 49
-1.5
 49
1.5
 49
-1.5
 49
1.5
 49
-1.5
  0
LTYPE
  2
PLINE8
 70
   64
  3
------     -----------     -----
 72
   65
 73
    2
 40
7
 49
4.9000000000000004
 49
-2.1000000000000001
  0
LTYPE
  2
PLINE9
 70
   64
  3
------------   ---   -----------
 72
   65
 73
    4
 40
20
 49
14
 49
-2
 49
2
 49
-2
  0
LTYPE
  2
PLINE10
 70
   64
  3
---------   ---   ---   --------
 72
   65
 73
    6
 40
20
 49
10
 49
-2
 49
2
 49
-2
 49
2
 49
-2
  0
LTYPE
  2
PLINE11
 70
   64
  3
------     -----------     -----
 72
   65
 73
    2
 40
9
 49
6.2999999999999989
 49
-2.7000000000000002
  0
LTYPE
  2
PLINE12
 70
   64
  3
------------   ---   -----------
 72
   65
 73
    4
 40
25
 49
17.5
 49
-2.5
 49
2.5
 49
-2.5
  0
LTYPE
  2
PLINE13
 70
   64
  3
---------   ---   ---   --------
 72
   65
 73
    6
 40
25
 49
12.5
 49
-2.5
 49
2.5
 49
-2.5
 49
2.5
 49
-2.5
  0
LTYPE
  2
PLINE14
 70
   64
  3
------     -----------     -----
 72
   65
 73
    2
 40
11
 49
7.7000000000000002
 49
-3.2999999999999989
  0
LTYPE
  2
PLINE15
 70
   64
  3
------------   ---   -----------
 72
   65
 73
    4
 40
30
 49
21
 49
-3
 49
3
 49
-3
  0
LTYPE
  2
PLINE16
 70
   64
  3
---------   ---   ---   --------
 72
   65
 73
    6
 40
30
 49
15
 49
-3
 49
3
 49
-3
 49
3
 49
-3
  0
ENDTAB
  0
TABLE
  2
STYLE
  5
3
100
AcDbSymbolTable
 70
     1
  0
STYLE
  5
10
100
AcDbSymbolTableRecord
100
AcDbTextStyleTableRecord
  2
STANDARD
 70
     0
 40
0.0
 41
1.0
 50
0.0
 71
     0
 42
0.2
  3
txt
  4
bigfont.shx
  0
STYLE
  5
26
100
AcDbSymbolTableRecord
100
AcDbTextStyleTableRecord
  2
TATEGAKI
 70
    68
 40
0.0
 41
1.0
 50
0.0
 71
     0
 42
1.0
  3
txt
  4
bigfont.shx
  0
ENDTAB
  0
TABLE
  2
LAYER
 70
    5
  0
LAYER
  2
_0-2_寸法
 70
   64
 62
    7
  6
CONTINUOUS
  0
LAYER
  2
_0-3_躯体と製品
 70
   64
 62
    7
  6
CONTINUOUS
  0
LAYER
  2
_0-4_図面枠
 70
   64
 62
    7
  6
CONTINUOUS
  0
LAYER
  2
_0-5_文字-記号
 70
   64
 62
    7
  6
CONTINUOUS
  0
LAYER
  2
ADD_LINE
 70
   64
 62
    7
  6
CONTINUOUS
  0
ENDTAB
  0
ENDSEC
  0
SECTION
  2
BLOCKS
  0
BLOCK
  2
-000-_Open30
 70
   64
 10
0
 20
0
 30
0
  0
LINE
  8
_0-0_0
  6
CONTINUOUS
 62
    7
 10
-2
 20
0.53589838
 11
0
 21
0
  0
LINE
  8
_0-0_0
  6
CONTINUOUS
 62
    7
 10
0
 20
0
 11
-2
 21
-0.53589838
  0
LINE
  8
_0-0_0
  6
CONTINUOUS
 62
    7
 10
0
 20
0
 11
-2
 21
0
  0
ENDBLK
  0
BLOCK
  2
-001-_D4
 70
   64
 10
0
 20
0
 30
0
  0
LINE
  8
_0-2_寸法
  6
CONTINUOUS
 62
    4
 10
1842.5737972826548
 20
378.88481766212522
 11
1826.7893412826552
 21
378.88481766212522
  0
LINE
  8
_0-2_寸法
  6
CONTINUOUS
 62
    4
 10
1834.9334732826553
 20
382.88482366212497
 11
1826.7893412826552
 21
382.88482366212497
  0
LINE
  8
_0-2_寸法
  6
CONTINUOUS
 62
    4
 10
1826.7893412826552
 20
376.88481766212499
 11
1826.7893412826552
 21
374.88481766212499
  0
LINE
  8
_0-2_寸法
  6
CONTINUOUS
 62
    4
 10
1826.7893412826552
 20
384.8848236621252
 11
1826.7893412826552
 21
386.8848236621252
  0
INSERT
  2
-000-_Open30
  8
_0-2_寸法
 10
1826.7893412826552
 20
378.88481766212522
 41
1
 42
1
 50
90
  0
INSERT
  2
-000-_Open30
  8
_0-2_寸法
 10
1826.7893412826552
 20
382.88482366212497
 41
1
 42
1
 50
270
  0
TEXT
  8
_0-2_寸法
 62
    7
 10
1824.7893412826552
 20
378.88482066212538
 40
4
 41
1
 50
90
  1
10
  0
POINT
  8
_0-1_Defpoints
 62
    7
 10
1842.5737972826548
 20
378.88481766212522
  0
POINT
  8
_0-1_Defpoints
 62
    7
 10
1834.9334732826553
 20
382.88482366212497
  0
POINT
  8
_0-1_Defpoints
 62
    7
 10
1826.7893412826552
 20
382.88482366212497
  0
ENDBLK
  0
BLOCK
  2
-002-_D5
 70
   64
 10
0
 20
0
 30
0
  0
LINE
  8
_0-2_寸法
  6
CONTINUOUS
 62
    4
 10
1834.9334732826553
 20
382.88482366212497
 11
1826.7893412826552
 21
382.88482366212497
  0
LINE
  8
_0-2_寸法
  6
CONTINUOUS
 62
    4
 10
1855.673883282655
 20
392.88490766212499
 11
1826.7893412826552
 21
392.88490766212499
  0
LINE
  8
_0-2_寸法
  6
CONTINUOUS
 62
    4
 10
1826.7893412826552
 20
384.8848236621252
 11
1826.7893412826552
 21
390.88490766212499
  0
INSERT
  2
-000-_Open30
  8
_0-2_寸法
 10
1826.7893412826552
 20
382.88482366212497
 41
1
 42
1
 50
270
  0
INSERT
  2
-000-_Open30
  8
_0-2_寸法
 10
1826.7893412826552
 20
392.88490766212499
 41
1
 42
1
 50
90
  0
TEXT
  8
_0-2_寸法
 62
    7
 10
1824.7893412826552
 20
385.88486566212538
 40
4
 41
1
 50
90
  1
25
  0
POINT
  8
_0-1_Defpoints
 62
    7
 10
1834.9334732826553
 20
382.88482366212497
  0
POINT
  8
_0-1_Defpoints
 62
    7
 10
1855.673883282655
 20
392.88490766212499
  0
POINT
  8
_0-1_Defpoints
 62
    7
 10
1826.7893412826552
 20
392.88490766212499
  0
ENDBLK
  0
BLOCK
  2
-003-_D6
 70
   64
 10
0
 20
0
 30
0
  0
LINE
  8
_0-2_寸法
  6
CONTINUOUS
 62
    4
 10
1855.573813282655
 20
393.38483766212499
 11
1855.573813282655
 21
410.33192366212518
  0
LINE
  8
_0-2_寸法
  6
CONTINUOUS
 62
    4
 10
1895.5738712826551
 20
393.2848376621252
 11
1895.5738712826551
 21
410.33192366212518
  0
LINE
  8
_0-2_寸法
  6
CONTINUOUS
 62
    4
 10
1857.573813282655
 20
410.33192366212518
 11
1893.5738712826551
 21
410.33192366212518
  0
INSERT
  2
-000-_Open30
  8
_0-2_寸法
 10
1855.573813282655
 20
410.33192366212518
 41
1
 42
1
 50
180
  0
INSERT
  2
-000-_Open30
  8
_0-2_寸法
 10
1895.5738712826551
 20
410.33192366212518
 41
1
 42
1
 50
0
  0
TEXT
  8
_0-2_寸法
 62
    7
 10
1872.5738422826548
 20
412.33192366212518
 40
4
 41
1
 50
0
  1
100
  0
POINT
  8
_0-1_Defpoints
 62
    7
 10
1855.573813282655
 20
393.38483766212499
  0
POINT
  8
_0-1_Defpoints
 62
    7
 10
1895.5738712826551
 20
393.2848376621252
  0
POINT
  8
_0-1_Defpoints
 62
    7
 10
1895.5738712826551
 20
410.33192366212518
  0
ENDBLK
  0
BLOCK
  2
-004-_D7
 70
   64
 10
0
 20
0
 30
0
  0
LINE
  8
_0-2_寸法
  6
CONTINUOUS
 62
    4
 10
1895.5738712826551
 20
393.2848376621252
 11
1895.5738712826551
 21
410.33192366212518
  0
LINE
  8
_0-2_寸法
  6
CONTINUOUS
 62
    4
 10
1947.5739452826551
 20
393.2848376621252
 11
1947.5739452826551
 21
410.33192366212518
  0
LINE
  8
_0-2_寸法
  6
CONTINUOUS
 62
    4
 10
1897.5738712826551
 20
410.33192366212518
 11
1945.5739452826551
 21
410.33192366212518
  0
INSERT
  2
-000-_Open30
  8
_0-2_寸法
 10
1895.5738712826551
 20
410.33192366212518
 41
1
 42
1
 50
180
  0
INSERT
  2
-000-_Open30
  8
_0-2_寸法
 10
1947.5739452826551
 20
410.33192366212518
 41
1
 42
1
 50
0
  0
TEXT
  8
_0-2_寸法
 62
    7
 10
1918.5739082826551
 20
412.33192366212518
 40
4
 41
1
 50
0
  1
130
  0
POINT
  8
_0-1_Defpoints
 62
    7
 10
1895.5738712826551
 20
393.2848376621252
  0
POINT
  8
_0-1_Defpoints
 62
    7
 10
1947.5739452826551
 20
393.2848376621252
  0
POINT
  8
_0-1_Defpoints
 62
    7
 10
1947.5739452826551
 20
410.33192366212518
  0
ENDBLK
  0
BLOCK
  2
-005-_D8
 70
   64
 10
0
 20
0
 30
0
  0
LINE
  8
_0-2_寸法
  6
CONTINUOUS
 62
    4
 10
1947.5739452826551
 20
393.2848376621252
 11
1947.5739452826551
 21
410.33192366212518
  0
LINE
  8
_0-2_寸法
  6
CONTINUOUS
 62
    4
 10
1987.5740032826552
 20
393.38483766212499
 11
1987.5740032826552
 21
410.33192366212518
  0
LINE
  8
_0-2_寸法
  6
CONTINUOUS
 62
    4
 10
1949.5739452826549
 20
410.33192366212518
 11
1985.5740032826552
 21
410.33192366212518
  0
INSERT
  2
-000-_Open30
  8
_0-2_寸法
 10
1947.5739452826551
 20
410.33192366212518
 41
1
 42
1
 50
180
  0
INSERT
  2
-000-_Open30
  8
_0-2_寸法
 10
1987.5740032826552
 20
410.33192366212518
 41
1
 42
1
 50
0
  0
TEXT
  8
_0-2_寸法
 62
    7
 10
1964.5739742826549
 20
412.33192366212518
 40
4
 41
1
 50
0
  1
100
  0
POINT
  8
_0-1_Defpoints
 62
    7
 10
1947.5739452826551
 20
393.2848376621252
  0
POINT
  8
_0-1_Defpoints
 62
    7
 10
1987.5740032826552
 20
393.38483766212499
  0
POINT
  8
_0-1_Defpoints
 62
    7
 10
1987.5740032826552
 20
410.33192366212518
  0
ENDBLK
  0
BLOCK
  2
-006-_D9
 70
   64
 10
0
 20
0
 30
0
  0
LINE
  8
_0-2_寸法
  6
CONTINUOUS
 62
    4
 10
1855.573813282655
 20
393.38483766212499
 11
1855.573813282655
 21
418.54732366212522
  0
LINE
  8
_0-2_寸法
  6
CONTINUOUS
 62
    4
 10
1987.5740032826552
 20
393.38483766212499
 11
1987.5740032826552
 21
418.54732366212522
  0
LINE
  8
_0-2_寸法
  6
CONTINUOUS
 62
    4
 10
1857.573813282655
 20
418.54732366212522
 11
1985.5740032826552
 21
418.54732366212522
  0
INSERT
  2
-000-_Open30
  8
_0-2_寸法
 10
1855.573813282655
 20
418.54732366212522
 41
1
 42
1
 50
180
  0
INSERT
  2
-000-_Open30
  8
_0-2_寸法
 10
1987.5740032826552
 20
418.54732366212522
 41
1
 42
1
 50
0
  0
TEXT
  8
_0-2_寸法
 62
    7
 10
1918.5739082826551
 20
420.54732366212522
 40
4
 41
1
 50
0
  1
330
  0
POINT
  8
_0-1_Defpoints
 62
    7
 10
1855.573813282655
 20
393.38483766212499
  0
POINT
  8
_0-1_Defpoints
 62
    7
 10
1987.5740032826552
 20
393.38483766212499
  0
POINT
  8
_0-1_Defpoints
 62
    7
 10
1987.5740032826552
 20
418.54732366212522
  0
ENDBLK
  0
BLOCK
  2
-007-_D10
 70
   64
 10
0
 20
0
 30
0
  0
LINE
  8
_0-2_寸法
  6
CONTINUOUS
 62
    4
 10
1851.5738092826548
 20
364.41130366212519
 11
1851.5738092826548
 21
337.48523166212522
  0
LINE
  8
_0-2_寸法
  6
CONTINUOUS
 62
    4
 10
1867.5738312826552
 20
364.41130366212519
 11
1867.5738312826552
 21
337.48523166212522
  0
LINE
  8
_0-2_寸法
  6
CONTINUOUS
 62
    4
 10
1853.5738092826552
 20
337.48523166212522
 11
1865.5738312826552
 21
337.48523166212522
  0
INSERT
  2
-000-_Open30
  8
_0-2_寸法
 10
1851.5738092826548
 20
337.48523166212522
 41
1
 42
1
 50
180
  0
INSERT
  2
-000-_Open30
  8
_0-2_寸法
 10
1867.5738312826552
 20
337.48523166212522
 41
1
 42
1
 50
0
  0
TEXT
  8
_0-2_寸法
 62
    7
 10
1857.5738202826551
 20
339.48523166212522
 40
4
 41
1
 50
0
  1
40
  0
POINT
  8
_0-1_Defpoints
 62
    7
 10
1851.5738092826548
 20
364.41130366212519
  0
POINT
  8
_0-1_Defpoints
 62
    7
 10
1867.5738312826552
 20
364.41130366212519
  0
POINT
  8
_0-1_Defpoints
 62
    7
 10
1867.5738312826552
 20
337.48523166212522
  0
ENDBLK
  0
BLOCK
  2
-008-_D11
 70
   64
 10
0
 20
0
 30
0
  0
LINE
  8
_0-2_寸法
  6
CONTINUOUS
 62
    4
 10
1867.5738312826552
 20
364.41130366212519
 11
1867.5738312826552
 21
337.48523166212522
  0
LINE
  8
_0-2_寸法
  6
CONTINUOUS
 62
    4
 10
1881.5738512826551
 20
350.30864166212501
 11
1881.5738512826551
 21
337.48523166212522
  0
LINE
  8
_0-2_寸法
  6
CONTINUOUS
 62
    4
 10
1869.5738312826552
 20
337.48523166212522
 11
1879.5738512826551
 21
337.48523166212522
  0
INSERT
  2
-000-_Open30
  8
_0-2_寸法
 10
1867.5738312826552
 20
337.48523166212522
 41
1
 42
1
 50
180
  0
INSERT
  2
-000-_Open30
  8
_0-2_寸法
 10
1881.5738512826551
 20
337.48523166212522
 41
1
 42
1
 50
0
  0
TEXT
  8
_0-2_寸法
 62
    7
 10
1872.5738412826549
 20
339.48523166212522
 40
4
 41
1
 50
0
  1
35
  0
POINT
  8
_0-1_Defpoints
 62
    7
 10
1867.5738312826552
 20
364.41130366212519
  0
POINT
  8
_0-1_Defpoints
 62
    7
 10
1881.5738512826551
 20
350.30864166212501
  0
POINT
  8
_0-1_Defpoints
 62
    7
 10
1881.5738512826551
 20
337.48523166212522
  0
ENDBLK
  0
BLOCK
  2
-009-_D12
 70
   64
 10
0
 20
0
 30
0
  0
LINE
  8
_0-2_寸法
  6
CONTINUOUS
 62
    4
 10
1881.5738512826551
 20
350.30864166212501
 11
1881.5738512826551
 21
337.48523166212522
  0
LINE
  8
_0-2_寸法
  6
CONTINUOUS
 62
    4
 10
1961.5739652826551
 20
350.30864166212501
 11
1961.5739652826551
 21
337.48523166212522
  0
LINE
  8
_0-2_寸法
  6
CONTINUOUS
 62
    4
 10
1883.5738512826549
 20
337.48523166212522
 11
1959.5739652826551
 21
337.48523166212522
  0
INSERT
  2
-000-_Open30
  8
_0-2_寸法
 10
1881.5738512826551
 20
337.48523166212522
 41
1
 42
1
 50
180
  0
INSERT
  2
-000-_Open30
  8
_0-2_寸法
 10
1961.5739652826551
 20
337.48523166212522
 41
1
 42
1
 50
0
  0
TEXT
  8
_0-2_寸法
 62
    7
 10
1918.5739082826551
 20
339.48523166212522
 40
4
 41
1
 50
0
  1
200
  0
POINT
  8
_0-1_Defpoints
 62
    7
 10
1881.5738512826551
 20
350.30864166212501
  0
POINT
  8
_0-1_Defpoints
 62
    7
 10
1961.5739652826551
 20
350.30864166212501
  0
POINT
  8
_0-1_Defpoints
 62
    7
 10
1961.5739652826551
 20
337.48523166212522
  0
ENDBLK
  0
BLOCK
  2
-010-_D13
 70
   64
 10
0
 20
0
 30
0
  0
LINE
  8
_0-2_寸法
  6
CONTINUOUS
 62
    4
 10
1961.5739652826551
 20
350.30864166212501
 11
1961.5739652826551
 21
337.48523166212522
  0
LINE
  8
_0-2_寸法
  6
CONTINUOUS
 62
    4
 10
1975.573985282655
 20
364.41130366212519
 11
1975.573985282655
 21
337.48523166212522
  0
LINE
  8
_0-2_寸法
  6
CONTINUOUS
 62
    4
 10
1963.5739652826551
 20
337.48523166212522
 11
1973.573985282655
 21
337.48523166212522
  0
INSERT
  2
-000-_Open30
  8
_0-2_寸法
 10
1961.5739652826551
 20
337.48523166212522
 41
1
 42
1
 50
180
  0
INSERT
  2
-000-_Open30
  8
_0-2_寸法
 10
1975.573985282655
 20
337.48523166212522
 41
1
 42
1
 50
0
  0
TEXT
  8
_0-2_寸法
 62
    7
 10
1966.5739752826548
 20
339.48523166212522
 40
4
 41
1
 50
0
  1
35
  0
POINT
  8
_0-1_Defpoints
 62
    7
 10
1961.5739652826551
 20
350.30864166212501
  0
POINT
  8
_0-1_Defpoints
 62
    7
 10
1975.573985282655
 20
364.41130366212519
  0
POINT
  8
_0-1_Defpoints
 62
    7
 10
1975.573985282655
 20
337.48523166212522
  0
ENDBLK
  0
BLOCK
  2
-011-_D14
 70
   64
 10
0
 20
0
 30
0
  0
LINE
  8
_0-2_寸法
  6
CONTINUOUS
 62
    4
 10
1975.573985282655
 20
364.41130366212519
 11
1975.573985282655
 21
337.48523166212522
  0
LINE
  8
_0-2_寸法
  6
CONTINUOUS
 62
    4
 10
1991.574007282655
 20
364.41130366212519
 11
1991.574007282655
 21
337.48523166212522
  0
LINE
  8
_0-2_寸法
  6
CONTINUOUS
 62
    4
 10
1977.573985282655
 20
337.48523166212522
 11
1989.574007282655
 21
337.48523166212522
  0
INSERT
  2
-000-_Open30
  8
_0-2_寸法
 10
1975.573985282655
 20
337.48523166212522
 41
1
 42
1
 50
180
  0
INSERT
  2
-000-_Open30
  8
_0-2_寸法
 10
1991.574007282655
 20
337.48523166212522
 41
1
 42
1
 50
0
  0
TEXT
  8
_0-2_寸法
 62
    7
 10
1981.5739962826549
 20
339.48523166212522
 40
4
 41
1
 50
0
  1
40
  0
POINT
  8
_0-1_Defpoints
 62
    7
 10
1975.573985282655
 20
364.41130366212519
  0
POINT
  8
_0-1_Defpoints
 62
    7
 10
1991.574007282655
 20
364.41130366212519
  0
POINT
  8
_0-1_Defpoints
 62
    7
 10
1991.574007282655
 20
337.48523166212522
  0
ENDBLK
  0
BLOCK
  2
-012-_D15
 70
   64
 10
0
 20
0
 30
0
  0
LINE
  8
_0-2_寸法
  6
CONTINUOUS
 62
    4
 10
1881.5738512826551
 20
350.30864166212501
 11
1881.5738512826551
 21
346.3873216621252
  0
LINE
  8
_0-2_寸法
  6
CONTINUOUS
 62
    4
 10
1895.5738712826551
 20
382.68482366212498
 11
1895.5738712826551
 21
346.3873216621252
  0
LINE
  8
_0-2_寸法
  6
CONTINUOUS
 62
    4
 10
1883.5738512826549
 20
346.3873216621252
 11
1893.5738712826551
 21
346.3873216621252
  0
INSERT
  2
-000-_Open30
  8
_0-2_寸法
 10
1881.5738512826551
 20
346.3873216621252
 41
1
 42
1
 50
180
  0
INSERT
  2
-000-_Open30
  8
_0-2_寸法
 10
1895.5738712826551
 20
346.3873216621252
 41
1
 42
1
 50
0
  0
TEXT
  8
_0-2_寸法
 62
    7
 10
1886.5738612826549
 20
348.3873216621252
 40
4
 41
1
 50
0
  1
35
  0
POINT
  8
_0-1_Defpoints
 62
    7
 10
1881.5738512826551
 20
350.30864166212501
  0
POINT
  8
_0-1_Defpoints
 62
    7
 10
1895.5738712826551
 20
382.68482366212498
  0
POINT
  8
_0-1_Defpoints
 62
    7
 10
1895.5738712826551
 20
346.3873216621252
  0
ENDBLK
  0
BLOCK
  2
-013-_D16
 70
   64
 10
0
 20
0
 30
0
  0
LINE
  8
_0-2_寸法
  6
CONTINUOUS
 62
    4
 10
1947.5739452826551
 20
382.68482366212498
 11
1947.5739452826551
 21
346.3873216621252
  0
LINE
  8
_0-2_寸法
  6
CONTINUOUS
 62
    4
 10
1961.5739652826551
 20
350.30864166212501
 11
1961.5739652826551
 21
346.3873216621252
  0
LINE
  8
_0-2_寸法
  6
CONTINUOUS
 62
    4
 10
1949.5739452826549
 20
346.3873216621252
 11
1959.5739652826551
 21
346.3873216621252
  0
INSERT
  2
-000-_Open30
  8
_0-2_寸法
 10
1947.5739452826551
 20
346.3873216621252
 41
1
 42
1
 50
180
  0
INSERT
  2
-000-_Open30
  8
_0-2_寸法
 10
1961.5739652826551
 20
346.3873216621252
 41
1
 42
1
 50
0
  0
TEXT
  8
_0-2_寸法
 62
    7
 10
1952.5739552826551
 20
348.3873216621252
 40
4
 41
1
 50
0
  1
35
  0
POINT
  8
_0-1_Defpoints
 62
    7
 10
1947.5739452826551
 20
382.68482366212498
  0
POINT
  8
_0-1_Defpoints
 62
    7
 10
1961.5739652826551
 20
350.30864166212501
  0
POINT
  8
_0-1_Defpoints
 62
    7
 10
1961.5739652826551
 20
346.3873216621252
  0
ENDBLK
  0
BLOCK
  2
-014-_D17
 70
   64
 10
0
 20
0
 30
0
  0
LINE
  8
_0-2_寸法
  6
CONTINUOUS
 62
    4
 10
2149.2222452826541
 20
364.41130366212519
 11
2149.2222452826541
 21
338.22833366212518
  0
LINE
  8
_0-2_寸法
  6
CONTINUOUS
 62
    4
 10
2165.222269282654
 20
364.41130366212519
 11
2165.222269282654
 21
338.22833366212518
  0
LINE
  8
_0-2_寸法
  6
CONTINUOUS
 62
    4
 10
2151.2222452826541
 20
338.22833366212518
 11
2163.222269282654
 21
338.22833366212518
  0
INSERT
  2
-000-_Open30
  8
_0-2_寸法
 10
2149.2222452826541
 20
338.22833366212518
 41
1
 42
1
 50
180
  0
INSERT
  2
-000-_Open30
  8
_0-2_寸法
 10
2165.222269282654
 20
338.22833366212518
 41
1
 42
1
 50
0
  0
TEXT
  8
_0-2_寸法
 62
    7
 10
2155.222257282654
 20
340.22833366212518
 40
4
 41
1
 50
0
  1
40
  0
POINT
  8
_0-1_Defpoints
 62
    7
 10
2149.2222452826541
 20
364.41130366212519
  0
POINT
  8
_0-1_Defpoints
 62
    7
 10
2165.222269282654
 20
364.41130366212519
  0
POINT
  8
_0-1_Defpoints
 62
    7
 10
2165.222269282654
 20
338.22833366212518
  0
ENDBLK
  0
BLOCK
  2
-015-_D18
 70
   64
 10
0
 20
0
 30
0
  0
LINE
  8
_0-2_寸法
  6
CONTINUOUS
 62
    4
 10
2165.222269282654
 20
364.41130366212519
 11
2165.222269282654
 21
338.22833366212518
  0
LINE
  8
_0-2_寸法
  6
CONTINUOUS
 62
    4
 10
2179.2222892826539
 20
342.60398366212519
 11
2179.2222892826539
 21
338.22833366212518
  0
LINE
  8
_0-2_寸法
  6
CONTINUOUS
 62
    4
 10
2167.222269282654
 20
338.22833366212518
 11
2177.2222892826539
 21
338.22833366212518
  0
INSERT
  2
-000-_Open30
  8
_0-2_寸法
 10
2165.222269282654
 20
338.22833366212518
 41
1
 42
1
 50
180
  0
INSERT
  2
-000-_Open30
  8
_0-2_寸法
 10
2179.2222892826539
 20
338.22833366212518
 41
1
 42
1
 50
0
  0
TEXT
  8
_0-2_寸法
 62
    7
 10
2170.2222792826542
 20
340.22833366212518
 40
4
 41
1
 50
0
  1
35
  0
POINT
  8
_0-1_Defpoints
 62
    7
 10
2165.222269282654
 20
364.41130366212519
  0
POINT
  8
_0-1_Defpoints
 62
    7
 10
2179.2222892826539
 20
342.60398366212519
  0
POINT
  8
_0-1_Defpoints
 62
    7
 10
2179.2222892826539
 20
338.22833366212518
  0
ENDBLK
  0
BLOCK
  2
-016-_D19
 70
   64
 10
0
 20
0
 30
0
  0
LINE
  8
_0-2_寸法
  6
CONTINUOUS
 62
    4
 10
2179.2222892826539
 20
342.60398366212519
 11
2179.2222892826539
 21
338.22833366212518
  0
LINE
  8
_0-2_寸法
  6
CONTINUOUS
 62
    4
 10
2259.2224032826539
 20
342.60398366212519
 11
2259.2224032826539
 21
338.22833366212518
  0
LINE
  8
_0-2_寸法
  6
CONTINUOUS
 62
    4
 10
2181.2222892826539
 20
338.22833366212518
 11
2257.2224032826539
 21
338.22833366212518
  0
INSERT
  2
-000-_Open30
  8
_0-2_寸法
 10
2179.2222892826539
 20
338.22833366212518
 41
1
 42
1
 50
180
  0
INSERT
  2
-000-_Open30
  8
_0-2_寸法
 10
2259.2224032826539
 20
338.22833366212518
 41
1
 42
1
 50
0
  0
TEXT
  8
_0-2_寸法
 62
    7
 10
2216.2223462826541
 20
340.22833366212518
 40
4
 41
1
 50
0
  1
200
  0
POINT
  8
_0-1_Defpoints
 62
    7
 10
2179.2222892826539
 20
342.60398366212519
  0
POINT
  8
_0-1_Defpoints
 62
    7
 10
2259.2224032826539
 20
342.60398366212519
  0
POINT
  8
_0-1_Defpoints
 62
    7
 10
2259.2224032826539
 20
338.22833366212518
  0
ENDBLK
  0
BLOCK
  2
-017-_D20
 70
   64
 10
0
 20
0
 30
0
  0
LINE
  8
_0-2_寸法
  6
CONTINUOUS
 62
    4
 10
2193.2223092826539
 20
382.68482366212498
 11
2193.2223092826539
 21
347.02547366212519
  0
LINE
  8
_0-2_寸法
  6
CONTINUOUS
 62
    4
 10
2181.2222892826539
 20
347.02547366212519
 11
2191.2223092826539
 21
347.02547366212519
  0
INSERT
  2
-000-_Open30
  8
_0-2_寸法
 10
2179.2222892826539
 20
347.02547366212519
 41
1
 42
1
 50
180
  0
INSERT
  2
-000-_Open30
  8
_0-2_寸法
 10
2193.2223092826539
 20
347.02547366212519
 41
1
 42
1
 50
0
  0
TEXT
  8
_0-2_寸法
 62
    7
 10
2184.2222992826541
 20
349.02547366212519
 40
4
 41
1
 50
0
  1
35
  0
POINT
  8
_0-1_Defpoints
 62
    7
 10
2179.2222892826539
 20
347.02547366212519
  0
POINT
  8
_0-1_Defpoints
 62
    7
 10
2193.2223092826539
 20
382.68482366212498
  0
POINT
  8
_0-1_Defpoints
 62
    7
 10
2193.2223092826539
 20
347.02547366212519
  0
ENDBLK
  0
BLOCK
  2
-018-_D21
 70
   64
 10
0
 20
0
 30
0
  0
LINE
  8
_0-2_寸法
  6
CONTINUOUS
 62
    4
 10
2180.2222912826542
 20
382.88482366212497
 11
2286.2845352826539
 21
382.88482366212497
  0
LINE
  8
_0-2_寸法
  6
CONTINUOUS
 62
    4
 10
2277.9759232826541
 20
394.0848396621252
 11
2286.2845352826539
 21
394.0848396621252
  0
LINE
  8
_0-2_寸法
  6
CONTINUOUS
 62
    4
 10
2286.2845352826539
 20
384.8848236621252
 11
2286.2845352826539
 21
392.0848396621252
  0
INSERT
  2
-000-_Open30
  8
_0-2_寸法
 10
2286.2845352826539
 20
382.88482366212497
 41
1
 42
1
 50
270
  0
INSERT
  2
-000-_Open30
  8
_0-2_寸法
 10
2286.2845352826539
 20
394.0848396621252
 41
1
 42
1
 50
90
  0
TEXT
  8
_0-2_寸法
 62
    7
 10
2284.2845352826539
 20
386.4848316621256
 40
4
 41
1
 50
90
  1
28
  0
POINT
  8
_0-1_Defpoints
 62
    7
 10
2180.2222912826542
 20
382.88482366212497
  0
POINT
  8
_0-1_Defpoints
 62
    7
 10
2277.9759232826541
 20
394.0848396621252
  0
POINT
  8
_0-1_Defpoints
 62
    7
 10
2286.2845352826539
 20
394.0848396621252
  0
ENDBLK
  0
BLOCK
  2
-019-_D22
 70
   64
 10
0
 20
0
 30
0
  0
LINE
  8
_0-2_寸法
  6
CONTINUOUS
 62
    4
 10
2130.2222192826539
 20
378.88481766212522
 11
2121.1424012826542
 21
378.88481766212522
  0
LINE
  8
_0-2_寸法
  6
CONTINUOUS
 62
    4
 10
2127.0268952826541
 20
382.88482366212497
 11
2121.1424012826542
 21
382.88482366212497
  0
LINE
  8
_0-2_寸法
  6
CONTINUOUS
 62
    4
 10
2121.1424012826542
 20
376.88481766212499
 11
2121.1424012826542
 21
374.88481766212499
  0
LINE
  8
_0-2_寸法
  6
CONTINUOUS
 62
    4
 10
2121.1424012826542
 20
384.8848236621252
 11
2121.1424012826542
 21
386.8848236621252
  0
INSERT
  2
-000-_Open30
  8
_0-2_寸法
 10
2121.1424012826542
 20
378.88481766212522
 41
1
 42
1
 50
90
  0
INSERT
  2
-000-_Open30
  8
_0-2_寸法
 10
2121.1424012826542
 20
382.88482366212497
 41
1
 42
1
 50
270
  0
TEXT
  8
_0-2_寸法
 62
    7
 10
2119.1424012826542
 20
378.88482066212538
 40
4
 41
1
 50
90
  1
10
  0
POINT
  8
_0-1_Defpoints
 62
    7
 10
2130.2222192826539
 20
378.88481766212522
  0
POINT
  8
_0-1_Defpoints
 62
    7
 10
2127.0268952826541
 20
382.88482366212497
  0
POINT
  8
_0-1_Defpoints
 62
    7
 10
2121.1424012826542
 20
382.88482366212497
  0
ENDBLK
  0
BLOCK
  2
-020-_D23
 70
   64
 10
0
 20
0
 30
0
  0
LINE
  8
_0-2_寸法
  6
CONTINUOUS
 62
    4
 10
2127.0268952826541
 20
382.88482366212497
 11
2121.1424012826542
 21
382.88482366212497
  0
LINE
  8
_0-2_寸法
  6
CONTINUOUS
 62
    4
 10
2153.3223212826538
 20
392.88490566212522
 11
2121.1424012826542
 21
392.88490566212522
  0
LINE
  8
_0-2_寸法
  6
CONTINUOUS
 62
    4
 10
2121.1424012826542
 20
384.8848236621252
 11
2121.1424012826542
 21
390.88490566212522
  0
INSERT
  2
-000-_Open30
  8
_0-2_寸法
 10
2121.1424012826542
 20
382.88482366212497
 41
1
 42
1
 50
270
  0
INSERT
  2
-000-_Open30
  8
_0-2_寸法
 10
2121.1424012826542
 20
392.88490566212522
 41
1
 42
1
 50
90
  0
TEXT
  8
_0-2_寸法
 62
    7
 10
2119.1424012826542
 20
385.88486466212538
 40
4
 41
1
 50
90
  1
25
  0
POINT
  8
_0-1_Defpoints
 62
    7
 10
2127.0268952826541
 20
382.88482366212497
  0
POINT
  8
_0-1_Defpoints
 62
    7
 10
2153.3223212826538
 20
392.88490566212522
  0
POINT
  8
_0-1_Defpoints
 62
    7
 10
2121.1424012826542
 20
392.88490566212522
  0
ENDBLK
  0
BLOCK
  2
-021-_D24
 70
   64
 10
0
 20
0
 30
0
  0
LINE
  8
_0-2_寸法
  6
CONTINUOUS
 62
    4
 10
2153.3223212826538
 20
392.88490566212522
 11
2121.1424012826542
 21
392.88490566212522
  0
LINE
  8
_0-2_寸法
  6
CONTINUOUS
 62
    4
 10
2250.4223912826542
 20
416.88487166212519
 11
2121.1424012826542
 21
416.88487166212519
  0
LINE
  8
_0-2_寸法
  6
CONTINUOUS
 62
    4
 10
2121.1424012826542
 20
394.88490566212522
 11
2121.1424012826542
 21
414.88487166212519
  0
INSERT
  2
-000-_Open30
  8
_0-2_寸法
 10
2121.1424012826542
 20
392.88490566212522
 41
1
 42
1
 50
270
  0
INSERT
  2
-000-_Open30
  8
_0-2_寸法
 10
2121.1424012826542
 20
416.88487166212519
 41
1
 42
1
 50
90
  0
TEXT
  8
_0-2_寸法
 62
    7
 10
2119.1424012826542
 20
402.88488866212538
 40
4
 41
1
 50
90
  1
60
  0
POINT
  8
_0-1_Defpoints
 62
    7
 10
2153.3223212826538
 20
392.88490566212522
  0
POINT
  8
_0-1_Defpoints
 62
    7
 10
2250.4223912826542
 20
416.88487166212519
  0
POINT
  8
_0-1_Defpoints
 62
    7
 10
2121.1424012826542
 20
416.88487166212519
  0
ENDBLK
  0
BLOCK
  2
-022-_D25
 70
   64
 10
0
 20
0
 30
0
  0
LINE
  8
_0-2_寸法
  6
CONTINUOUS
 62
    4
 10
2153.2222512826538
 20
393.38483766212499
 11
2153.2222512826538
 21
424.3969576621252
  0
LINE
  8
_0-2_寸法
  6
CONTINUOUS
 62
    4
 10
2193.2223092826539
 20
393.2848376621252
 11
2193.2223092826539
 21
424.3969576621252
  0
LINE
  8
_0-2_寸法
  6
CONTINUOUS
 62
    4
 10
2155.2222512826538
 20
424.3969576621252
 11
2191.2223092826539
 21
424.3969576621252
  0
INSERT
  2
-000-_Open30
  8
_0-2_寸法
 10
2153.2222512826538
 20
424.3969576621252
 41
1
 42
1
 50
180
  0
INSERT
  2
-000-_Open30
  8
_0-2_寸法
 10
2193.2223092826539
 20
424.3969576621252
 41
1
 42
1
 50
0
  0
TEXT
  8
_0-2_寸法
 62
    7
 10
2170.2222802826541
 20
426.3969576621252
 40
4
 41
1
 50
0
  1
100
  0
POINT
  8
_0-1_Defpoints
 62
    7
 10
2153.2222512826538
 20
393.38483766212499
  0
POINT
  8
_0-1_Defpoints
 62
    7
 10
2193.2223092826539
 20
393.2848376621252
  0
POINT
  8
_0-1_Defpoints
 62
    7
 10
2193.2223092826539
 20
424.3969576621252
  0
ENDBLK
  0
BLOCK
  2
-023-_D26
 70
   64
 10
0
 20
0
 30
0
  0
LINE
  8
_0-2_寸法
  6
CONTINUOUS
 62
    4
 10
2193.2223092826539
 20
393.2848376621252
 11
2193.2223092826539
 21
424.3969576621252
  0
LINE
  8
_0-2_寸法
  6
CONTINUOUS
 62
    4
 10
2251.2223932826541
 20
417.6848736621252
 11
2251.2223932826541
 21
424.3969576621252
  0
LINE
  8
_0-2_寸法
  6
CONTINUOUS
 62
    4
 10
2195.2223092826539
 20
424.3969576621252
 11
2249.2223932826541
 21
424.3969576621252
  0
INSERT
  2
-000-_Open30
  8
_0-2_寸法
 10
2193.2223092826539
 20
424.3969576621252
 41
1
 42
1
 50
180
  0
INSERT
  2
-000-_Open30
  8
_0-2_寸法
 10
2251.2223932826541
 20
424.3969576621252
 41
1
 42
1
 50
0
  0
TEXT
  8
_0-2_寸法
 62
    7
 10
2219.222351282654
 20
426.3969576621252
 40
4
 41
1
 50
0
  1
145
  0
POINT
  8
_0-1_Defpoints
 62
    7
 10
2193.2223092826539
 20
393.2848376621252
  0
POINT
  8
_0-1_Defpoints
 62
    7
 10
2251.2223932826541
 20
417.6848736621252
  0
POINT
  8
_0-1_Defpoints
 62
    7
 10
2251.2223932826541
 20
424.3969576621252
  0
ENDBLK
  0
BLOCK
  2
-024-_D27
 70
   64
 10
0
 20
0
 30
0
  0
LINE
  8
_0-2_寸法
  6
CONTINUOUS
 62
    4
 10
2251.2223932826541
 20
417.6848736621252
 11
2251.2223932826541
 21
424.3969576621252
  0
LINE
  8
_0-2_寸法
  6
CONTINUOUS
 62
    4
 10
2259.2224032826539
 20
421.40405366212519
 11
2259.2224032826539
 21
424.3969576621252
  0
LINE
  8
_0-2_寸法
  6
CONTINUOUS
 62
    4
 10
2249.2223932826541
 20
424.3969576621252
 11
2247.2223932826541
 21
424.3969576621252
  0
LINE
  8
_0-2_寸法
  6
CONTINUOUS
 62
    4
 10
2261.2224032826539
 20
424.3969576621252
 11
2263.2224032826539
 21
424.3969576621252
  0
INSERT
  2
-000-_Open30
  8
_0-2_寸法
 10
2251.2223932826541
 20
424.3969576621252
 41
1
 42
1
 50
0
  0
INSERT
  2
-000-_Open30
  8
_0-2_寸法
 10
2259.2224032826539
 20
424.3969576621252
 41
1
 42
1
 50
180
  0
TEXT
  8
_0-2_寸法
 62
    7
 10
2253.222398282654
 20
426.3969576621252
 40
4
 41
1
 50
0
  1
20
  0
POINT
  8
_0-1_Defpoints
 62
    7
 10
2251.2223932826541
 20
417.6848736621252
  0
POINT
  8
_0-1_Defpoints
 62
    7
 10
2259.2224032826539
 20
421.40405366212519
  0
POINT
  8
_0-1_Defpoints
 62
    7
 10
2259.2224032826539
 20
424.3969576621252
  0
ENDBLK
  0
BLOCK
  2
-025-_D28
 70
   64
 10
0
 20
0
 30
0
  0
LINE
  8
_0-2_寸法
  6
CONTINUOUS
 62
    4
 10
2259.2224032826539
 20
424.3969576621252
 11
2259.2224032826539
 21
431.8682316621252
  0
LINE
  8
_0-2_寸法
  6
CONTINUOUS
 62
    4
 10
2153.2222512826538
 20
424.3969576621252
 11
2153.2222512826538
 21
431.8682316621252
  0
LINE
  8
_0-2_寸法
  6
CONTINUOUS
 62
    4
 10
2257.2224032826539
 20
431.8682316621252
 11
2155.2222512826538
 21
431.8682316621252
  0
INSERT
  2
-000-_Open30
  8
_0-2_寸法
 10
2259.2224032826539
 20
431.8682316621252
 41
1
 42
1
 50
0
  0
INSERT
  2
-000-_Open30
  8
_0-2_寸法
 10
2153.2222512826538
 20
431.8682316621252
 41
1
 42
1
 50
180
  0
TEXT
  8
_0-2_寸法
 62
    7
 10
2203.2223272826541
 20
433.8682316621252
 40
4
 41
1
 50
0
  1
265
  0
POINT
  8
_0-1_Defpoints
 62
    7
 10
2259.2224032826539
 20
424.3969576621252
  0
POINT
  8
_0-1_Defpoints
 62
    7
 10
2153.2222512826538
 20
424.3969576621252
  0
POINT
  8
_0-1_Defpoints
 62
    7
 10
2153.2222512826538
 20
431.8682316621252
  0
ENDBLK
  0
ENDSEC
  0
SECTION
  2
ENTITIES
  0
LINE
  8
_0-3_躯体と製品
  6
CONTINUOUS
 62
    3
 10
112.18786250000039
 20
175.92971700000001
 11
114.18786550000027
 21
177.92971999999989
  0
LINE
  8
_0-3_躯体と製品
  6
CONTINUOUS
 62
    3
 10
111.19791250000026
 20
175.92971700000001
 11
113.19791550000025
 21
177.92971999999989
  0
LINE
  8
_0-3_躯体と製品
  6
CONTINUOUS
 62
    2
 10
122.41272750000019
 20
178.12971999999999
 11
104.27831750000041
 21
178.12971999999999
  0
LINE
  8
_0-3_躯体と製品
  6
CONTINUOUS
 62
    2
 10
104.27831750000041
 20
177.92971999999989
 11
122.41272750000019
 21
177.92971999999989
  0
LINE
  8
_0-3_躯体と製品
  6
CONTINUOUS
 62
    2
 10
110.08832650000033
 20
182.32972599999999
 11
129.22835350000025
 21
182.32972599999999
  0
LINE
  8
_0-3_躯体と製品
  6
CONTINUOUS
 62
    2
 10
111.67832850000036
 20
182.92972800000001
 11
114.17833150000024
 21
182.9297269999999
  0
LINE
  8
_0-3_躯体と製品
  6
CONTINUOUS
 62
    2
 10
115.17833350000024
 20
178.62972099999999
 11
110.97832750000032
 21
178.62972099999999
  0
LINE
  8
_0-3_躯体と製品
  6
CONTINUOUS
 62
    2
 10
112.97833050000042
 20
178.22972000000001
 11
113.97833150000019
 21
178.22972000000001
  0
ARC
  8
_0-3_躯体と製品
  6
CONTINUOUS
 62
    2
 10
112.67832950000025
 20
181.92972600000002
 40
0.400001
 50
270
 51
0
  0
LINE
  8
_0-3_躯体と製品
  6
CONTINUOUS
 62
    2
 10
127.4127345000004
 20
177.92971999999989
 11
99.458155500000316
 21
177.92971999999989
  0
LINE
  8
_0-3_躯体と製品
  6
CONTINUOUS
 62
    2
 10
103.2783165000003
 20
175.92971700000001
 11
122.27834350000035
 21
175.92971700000001
  0
TEXT
  8
_0-4_図面枠
 62
    7
 10
81.661136500000225
 20
228.52768600000002
 40
2
 41
0.8
 50
0
  1
◇床－床（２００ＴＴ－Ａ）　Ｓ＝１／５
  0
LINE
  8
_0-4_図面枠
  6
CONTINUOUS
 62
    1
 10
345.46745549999969
 20
241.41628399999999
 11
74.532544500000199
 21
241.41628399999999
  0
LINE
  8
_0-4_図面枠
  6
CONTINUOUS
 62
    1
 10
74.532544500000199
 20
55.58371600000001
 11
345.46745549999969
 21
55.58371600000001
  0
TEXT
  8
_0-4_図面枠
 62
    7
 10
110.11837183333375
 20
125.77712199999991
 40
2
 41
0.8
 50
0
  1
部材名称
  0
TEXT
  8
_0-4_図面枠
 62
    7
 10
97.545041500000366
 20
118.57711700000002
 40
2
 41
0.8
 50
0
  1
ＴＴサイドプレート（Ｃ）
  0
LINE
  8
_0-4_図面枠
  6
CONTINUOUS
 62
    1
 10
188.61170549999974
 20
121.777117
 11
91.945038500000237
 21
121.777117
  0
LINE
  8
_0-4_図面枠
  6
CONTINUOUS
 62
    1
 10
188.61170549999974
 20
128.97711699999999
 11
91.945038500000237
 21
128.97711699999999
  0
LINE
  8
_0-4_図面枠
  6
CONTINUOUS
 62
    1
 10
188.61170549999974
 20
85.777117000000018
 11
91.945038500000237
 21
85.777117000000018
  0
LINE
  8
_0-4_図面枠
  6
CONTINUOUS
 62
    2
 10
188.61170549999974
 20
93.777117000000004
 11
91.945038500000237
 21
93.777117000000004
  0
LINE
  8
_0-4_図面枠
  6
CONTINUOUS
 62
    2
 10
188.61170549999974
 20
97.777117000000004
 11
91.945038500000237
 21
97.777117000000004
  0
LINE
  8
_0-4_図面枠
  6
CONTINUOUS
 62
    2
 10
188.61170549999974
 20
101.777117
 11
91.945038500000237
 21
101.777117
  0
LINE
  8
_0-4_図面枠
  6
CONTINUOUS
 62
    2
 10
188.61170549999974
 20
105.7771169999999
 11
91.945038500000237
 21
105.7771169999999
  0
LINE
  8
_0-4_図面枠
  6
CONTINUOUS
 62
    2
 10
188.61170549999974
 20
109.7771169999999
 11
91.945038500000237
 21
109.7771169999999
  0
LINE
  8
_0-4_図面枠
  6
CONTINUOUS
 62
    2
 10
188.61170549999974
 20
113.777117
 11
91.945038500000237
 21
113.777117
  0
LINE
  8
_0-4_図面枠
  6
CONTINUOUS
 62
    2
 10
188.61170549999974
 20
117.777117
 11
91.945038500000237
 21
117.777117
  0
TEXT
  8
_0-4_図面枠
 62
    7
 10
97.545041500000366
 20
90.577121000000005
 40
2
 41
0.8
 50
0
  1
ステンワッシャー
  0
TEXT
  8
_0-4_図面枠
 62
    7
 10
97.545041500000366
 20
94.577125000000009
 40
2
 41
0.8
 50
0
  1
ステンタッピンねじ
  0
TEXT
  8
_0-4_図面枠
 62
    7
 10
97.545041500000366
 20
98.577125000000009
 40
2
 41
0.8
 50
0
  1
アンカープラグ
  0
TEXT
  8
_0-4_図面枠
 62
    7
 10
97.545041500000366
 20
102.57712499999991
 40
2
 41
0.8
 50
0
  1
ステンドリリングねじ
  0
TEXT
  8
_0-4_図面枠
 62
    7
 10
97.545041500000366
 20
110.57712099999991
 40
2
 41
0.8
 50
0
  1
ＴＴフレーム（Ｃ）
  0
TEXT
  8
_0-4_図面枠
 62
    7
 10
97.545041500000366
 20
114.57712499999991
 40
2
 41
0.8
 50
0
  1
ＴＴセンタープレート（Ｃ）
  0
LINE
  8
_0-4_図面枠
  6
CONTINUOUS
 62
    2
 10
188.61170549999974
 20
89.777117000000004
 11
91.945038500000237
 21
89.777117000000004
  0
LINE
  8
_0-4_図面枠
  6
CONTINUOUS
 62
    1
 10
74.548677500000281
 20
241.41628399999999
 11
74.548677500000281
 21
55.58371600000001
  0
TEXT
  8
_0-4_図面枠
 62
    7
 10
95.106808166667065
 20
86.577120999999906
 40
2
 41
0.8
 50
0
  1
※
  0
LINE
  8
_0-4_図面枠
  6
CONTINUOUS
 62
    1
 10
96.745038500000419
 20
85.777117000000018
 11
96.745038500000419
 21
128.97711699999999
  0
LINE
  8
_0-4_図面枠
  6
CONTINUOUS
 62
    1
 10
91.945038500000237
 20
85.777117000000018
 11
91.945038500000237
 21
128.97711699999999
  0
TEXT
  8
_0-4_図面枠
 62
    7
 10
97.545041500000366
 20
86.577120999999906
 40
2
 41
0.8
 50
0
  1
ブチルテープ
  0
TEXT
  8
_0-4_図面枠
 62
    7
 10
95.106808166667065
 20
98.577125000000009
 40
2
 41
0.8
 50
0
  1
６
  0
TEXT
  8
_0-4_図面枠
 62
    7
 10
95.106808166667065
 20
90.577121000000005
 40
2
 41
0.8
 50
0
  1
８
  0
TEXT
  8
_0-4_図面枠
 62
    7
 10
95.000141500000382
 20
94.577125000000009
 40
2
 41
0.8
 50
0
  1
７
  0
TEXT
  8
_0-4_図面枠
 62
    7
 10
97.545041500000366
 20
106.57712100000001
 40
2
 41
0.8
 50
0
  1
止水補助板
  0
TEXT
  8
_0-4_図面枠
 62
    7
 10
95.000141500000382
 20
106.57712100000001
 40
2
 41
0.8
 50
0
  1
４
  0
TEXT
  8
_0-4_図面枠
 62
    7
 10
95.106808166667065
 20
102.57712499999991
 40
2
 41
0.8
 50
0
  1
５
  0
TEXT
  8
_0-4_図面枠
 62
    7
 10
95.106808166667065
 20
110.57712099999991
 40
2
 41
0.8
 50
0
  1
３
  0
TEXT
  8
_0-4_図面枠
 62
    7
 10
93.400141500000359
 20
118.57711700000002
 40
2
 41
0.8
 50
0
  1
　１
  0
TEXT
  8
_0-4_図面枠
 62
    7
 10
95.106808166667065
 20
114.57712499999991
 40
2
 41
0.8
 50
0
  1
２
  0
LINE
  8
_0-3_躯体と製品
  6
CONTINUOUS
 62
    3
 10
103.2783165000003
 20
176.919667
 11
104.28837050000027
 21
177.92971999999989
  0
LINE
  8
_0-3_躯体と製品
  6
CONTINUOUS
 62
    3
 10
103.27942050000036
 20
175.92971700000001
 11
105.27944050000042
 21
177.92971999999989
  0
LINE
  8
_0-3_躯体と製品
  6
CONTINUOUS
 62
    3
 10
104.26826650000032
 20
175.92971700000001
 11
106.26826950000032
 21
177.92971999999989
  0
LINE
  8
_0-3_躯体と製品
  6
CONTINUOUS
 62
    3
 10
105.25821550000023
 20
175.92971700000001
 11
107.25821850000023
 21
177.92971999999989
  0
LINE
  8
_0-3_躯体と製品
  6
CONTINUOUS
 62
    3
 10
106.24816550000037
 20
175.92971700000001
 11
108.24816850000025
 21
177.92971999999989
  0
LINE
  8
_0-3_躯体と製品
  6
CONTINUOUS
 62
    3
 10
107.23811450000028
 20
175.92971700000001
 11
109.23811750000027
 21
177.92971999999989
  0
LINE
  8
_0-3_躯体と製品
  6
CONTINUOUS
 62
    3
 10
108.2280645000003
 20
175.92971700000001
 11
110.22806750000052
 21
177.92971999999989
  0
LINE
  8
_0-3_躯体と製品
  6
CONTINUOUS
 62
    3
 10
109.21801350000032
 20
175.92971700000001
 11
111.21801650000032
 21
177.92971999999989
  0
LINE
  8
_0-3_躯体と製品
  6
CONTINUOUS
 62
    3
 10
110.20796350000023
 20
175.92971700000001
 11
112.20796650000023
 21
177.92971999999989
  0
LINE
  8
_0-3_躯体と製品
  6
PLINE2
 62
    3
 10
106.27832150000029
 20
177.92971999999989
 11
106.47832150000033
 21
176.92971799999989
  0
LINE
  8
_0-3_躯体と製品
  6
PLINE2
 62
    3
 10
106.47832150000033
 20
177.92971999999989
 11
106.47832150000033
 21
176.3297179999999
  0
LINE
  8
_0-3_躯体と製品
  6
PLINE2
 62
    3
 10
107.27832250000017
 20
176.92971799999989
 11
107.27832250000017
 21
177.92971999999989
  0
LINE
  8
_0-3_躯体と製品
  6
PLINE2
 62
    3
 10
107.07832250000024
 20
177.92971999999989
 11
107.27832250000017
 21
176.92971799999989
  0
LINE
  8
_0-3_躯体と製品
  6
PLINE2
 62
    3
 10
107.47832250000033
 20
177.92971999999989
 11
107.27832250000017
 21
176.92971799999989
  0
LINE
  8
_0-3_躯体と製品
  6
PLINE2
 62
    3
 10
108.2783235000004
 20
177.92971999999989
 11
108.07832350000035
 21
176.92971799999989
  0
LINE
  8
_0-3_躯体と製品
  6
PLINE2
 62
    3
 10
108.07832350000035
 20
177.92971999999989
 11
108.07832350000035
 21
176.3297179999999
  0
LINE
  8
_0-3_躯体と製品
  6
PLINE3
 62
    3
 10
107.27832250000017
 20
169.19296099999991
 11
107.27832250000017
 21
179.93750500000002
  0
LINE
  8
_0-3_躯体と製品
  6
CONTINUOUS
 62
    2
 10
103.2783165000003
 20
177.92971999999989
 11
103.2783165000003
 21
175.92971700000001
  0
LINE
  8
_0-5_文字-記号
  6
CONTINUOUS
 62
    3
 10
100.78416850000019
 20
168.86016800000002
 11
83.790443500000151
 21
168.86016800000002
  0
TEXT
  8
_0-5_文字-記号
 62
    7
 10
80.045764855418724
 20
169.34623113389591
 40
2
 41
0.8
 50
0
  1
ならしモルタル（別途）
  0
LINE
  8
_0-5_文字-記号
  6
CONTINUOUS
 62
    3
 10
103.01977250000016
 20
165.108012
 11
92.205584500000327
 21
165.108012
  0
TEXT
  8
_0-5_文字-記号
 62
    7
 10
88.68827792842967
 20
165.61990056443472
 40
2
 41
0.8
 50
0
  1
千鳥に固定する
  0
LINE
  8
_0-3_躯体と製品
  6
PLINE2
 62
    3
 10
108.35997850000035
 20
170.97374600000001
 11
108.38091350000025
 21
170.57429300000001
  0
LINE
  8
_0-3_躯体と製品
  6
PLINE2
 62
    3
 10
106.85383950000028
 20
170.13820599999991
 11
107.17832250000038
 21
176.3297179999999
  0
LINE
  8
_0-3_躯体と製品
  6
PLINE2
 62
    3
 10
107.7028055000003
 20
170.13820599999991
 11
107.37832250000031
 21
176.3297179999999
  0
LINE
  8
_0-3_躯体と製品
  6
PLINE2
 62
    3
 10
106.19666650000022
 20
170.97374600000001
 11
106.17573150000032
 21
170.57429300000001
  0
LINE
  8
_0-5_文字-記号
  6
CONTINUOUS
 62
    3
 10
105.30804350000039
 20
176.695751
 11
100.78416850000019
 21
168.86016800000002
  0
CIRCLE
  8
_0-5_文字-記号
  6
CONTINUOUS
 62
    3
 10
106.17573150000032
 20
170.57429300000001
 40
0.2
  0
LINE
  8
_0-5_文字-記号
  6
CONTINUOUS
 62
    3
 10
106.17573150000032
 20
170.57429300000001
 11
103.01977250000016
 21
165.108012
  0
LINE
  8
_0-3_躯体と製品
  6
PLINE2
 62
    3
 10
106.8747735000004
 20
170.53765799999991
 11
106.17573150000032
 21
170.57429300000001
  0
LINE
  8
_0-3_躯体と製品
  6
PLINE2
 62
    3
 10
106.17573150000032
 20
170.57429300000001
 11
106.5542495000002
 21
170.15390600000001
  0
LINE
  8
_0-3_躯体と製品
  6
PLINE2
 62
    3
 10
106.5542495000002
 20
170.15390600000001
 11
106.85383950000028
 21
170.13820599999991
  0
LINE
  8
_0-3_躯体と製品
  6
PLINE2
 62
    3
 10
107.68187150000028
 20
170.53765799999991
 11
108.38091350000025
 21
170.57429300000001
  0
LINE
  8
_0-3_躯体と製品
  6
PLINE2
 62
    3
 10
108.38091350000025
 20
170.57429300000001
 11
108.00239550000026
 21
170.15390600000001
  0
LINE
  8
_0-3_躯体と製品
  6
PLINE2
 62
    3
 10
108.00239550000026
 20
170.15390600000001
 11
107.7028055000003
 21
170.13820599999991
  0
CIRCLE
  8
_0-5_文字-記号
  6
CONTINUOUS
 62
    3
 10
105.30804350000039
 20
176.695751
 40
0.2
  0
ARC
  8
_0-3_躯体と製品
  6
PLINE2
 62
    3
 10
105.89529150000033
 20
176.27350899999999
 40
0.08
 50
98.130101999997891
 51
188.29846599999979
  0
LINE
  8
_0-3_躯体と製品
  6
PLINE2
 62
    3
 10
105.88397850000024
 20
176.35270500000001
 11
105.92334250000033
 21
176.358328
  0
ARC
  8
_0-3_躯体と製品
  6
PLINE2
 62
    3
 10
105.93465650000041
 20
176.279132
 40
0.08
 50
8.1301020000014788
 51
98.130101999997905
  0
LINE
  8
_0-3_躯体と製品
  6
PLINE2
 62
    3
 10
106.01385250000033
 20
176.29044599999989
 11
106.20253950000028
 21
174.96964
  0
LINE
  8
_0-3_躯体と製品
  6
PLINE2
 62
    3
 10
107.17832250000038
 20
176.3297179999999
 11
107.27832250000017
 21
176.3297179999999
  0
LINE
  8
_0-3_躯体と製品
  6
PLINE2
 62
    3
 10
107.37832250000031
 20
176.3297179999999
 11
107.27832250000017
 21
176.3297179999999
  0
LINE
  8
_0-3_躯体と製品
  6
PLINE2
 62
    3
 10
106.40601050000032
 20
174.96826999999999
 11
106.3850755000002
 21
174.568817
  0
LINE
  8
_0-3_躯体と製品
  6
PLINE2
 62
    3
 10
106.82639750000021
 20
175.34678699999989
 11
106.80546250000043
 21
174.9473349999999
  0
LINE
  8
_0-3_躯体と製品
  6
PLINE2
 62
    3
 10
106.80546250000043
 20
174.9473349999999
 11
106.40601050000032
 21
174.96826999999999
  0
LINE
  8
_0-3_躯体と製品
  6
PLINE2
 62
    3
 10
106.47832150000033
 20
175.52971600000001
 11
106.82639750000021
 21
175.34678699999989
  0
LINE
  8
_0-3_躯体と製品
  6
PLINE2
 62
    3
 10
108.32857750000039
 20
171.572924
 11
107.93959250000034
 21
171.35226399999999
  0
LINE
  8
_0-3_躯体と製品
  6
PLINE2
 62
    3
 10
107.93959250000034
 20
171.35226399999999
 11
107.96052650000024
 21
170.95281199999999
  0
LINE
  8
_0-3_躯体と製品
  6
PLINE2
 62
    3
 10
107.96052650000024
 20
170.95281199999999
 11
108.35997850000035
 21
170.97374600000001
  0
LINE
  8
_0-3_躯体と製品
  6
PLINE2
 62
    3
 10
108.30764250000027
 20
171.97237699999999
 11
108.32857750000039
 21
171.572924
  0
LINE
  8
_0-3_躯体と製品
  6
PLINE2
 62
    3
 10
108.27624150000031
 20
172.57155499999999
 11
107.88725650000049
 21
172.35089500000001
  0
LINE
  8
_0-3_躯体と製品
  6
PLINE2
 62
    3
 10
107.88725650000049
 20
172.35089500000001
 11
107.90819050000016
 21
171.95144200000001
  0
LINE
  8
_0-3_躯体と製品
  6
PLINE2
 62
    3
 10
107.90819050000016
 20
171.95144200000001
 11
108.30764250000027
 21
171.97237699999999
  0
LINE
  8
_0-3_躯体と製品
  6
PLINE2
 62
    3
 10
108.25530650000042
 20
172.97100800000001
 11
108.27624150000031
 21
172.57155499999999
  0
LINE
  8
_0-3_躯体と製品
  6
PLINE2
 62
    3
 10
108.22390550000034
 20
173.57018600000001
 11
107.83492050000041
 21
173.349526
  0
LINE
  8
_0-3_躯体と製品
  6
PLINE2
 62
    3
 10
107.83492050000041
 20
173.349526
 11
107.85585450000031
 21
172.950073
  0
LINE
  8
_0-3_躯体と製品
  6
PLINE2
 62
    3
 10
107.85585450000031
 20
172.950073
 11
108.25530650000042
 21
172.97100800000001
  0
LINE
  8
_0-3_躯体と製品
  6
PLINE2
 62
    3
 10
108.20297050000033
 20
173.969639
 11
108.22390550000034
 21
173.57018600000001
  0
LINE
  8
_0-3_躯体と製品
  6
PLINE2
 62
    3
 10
108.17156950000026
 20
174.568817
 11
107.78258350000033
 21
174.34815700000001
  0
LINE
  8
_0-3_躯体と製品
  6
PLINE2
 62
    3
 10
107.78258350000033
 20
174.34815700000001
 11
107.80351850000022
 21
173.94870399999999
  0
LINE
  8
_0-3_躯体と製品
  6
PLINE2
 62
    3
 10
107.80351850000022
 20
173.94870399999999
 11
108.20297050000033
 21
173.969639
  0
LINE
  8
_0-3_躯体と製品
  6
PLINE2
 62
    3
 10
108.15063450000025
 20
174.96826999999999
 11
108.17156950000026
 21
174.568817
  0
LINE
  8
_0-3_躯体と製品
  6
PLINE2
 62
    3
 10
107.73024750000025
 20
175.34678699999989
 11
107.75118250000037
 21
174.9473349999999
  0
LINE
  8
_0-3_躯体と製品
  6
PLINE2
 62
    3
 10
107.75118250000037
 20
174.9473349999999
 11
108.15063450000025
 21
174.96826999999999
  0
LINE
  8
_0-3_躯体と製品
  6
PLINE2
 62
    3
 10
107.29018350000024
 20
170.74157099999999
 11
106.90344250000032
 21
171.08470600000001
  0
LINE
  8
_0-3_躯体と製品
  6
PLINE2
 62
    3
 10
107.65221150000025
 20
171.103599
 11
107.27832250000017
 21
170.7297099999999
  0
LINE
  8
_0-3_躯体と製品
  6
PLINE2
 62
    3
 10
108.07832350000035
 20
175.52971600000001
 11
107.73024750000025
 21
175.34678699999989
  0
LINE
  8
_0-3_躯体と製品
  6
PLINE2
 62
    3
 10
106.35367450000035
 20
173.969639
 11
106.01460050000037
 21
174.90123600000001
  0
LINE
  8
_0-3_躯体と製品
  6
PLINE2
 62
    3
 10
106.56651050000028
 20
173.969639
 11
106.20253950000028
 21
174.96964
  0
LINE
  8
_0-3_躯体と製品
  6
PLINE2
 62
    3
 10
108.20297050000033
 20
173.969639
 11
108.54204450000043
 21
174.90123600000001
  0
LINE
  8
_0-3_躯体と製品
  6
PLINE2
 62
    3
 10
107.99013550000041
 20
173.969639
 11
108.35410550000029
 21
174.96964
  0
LINE
  8
_0-3_躯体と製品
  6
PLINE2
 62
    3
 10
106.47832150000033
 20
175.52971600000001
 11
106.47832150000033
 21
176.3297179999999
  0
LINE
  8
_0-3_躯体と製品
  6
PLINE2
 62
    3
 10
108.07832350000035
 20
175.52971600000001
 11
108.07832350000035
 21
176.3297179999999
  0
LINE
  8
_0-3_躯体と製品
  6
PLINE2
 62
    3
 10
108.54204450000043
 20
174.90123600000001
 11
108.74051550000036
 21
176.26196200000001
  0
ARC
  8
_0-3_躯体と製品
  6
PLINE2
 62
    3
 10
108.66135350000025
 20
176.27350899999999
 40
0.08
 50
351.70153400000004
 51
81.869898000002124
  0
LINE
  8
_0-3_躯体と製品
  6
PLINE2
 62
    3
 10
108.67266650000033
 20
176.35270500000001
 11
108.63330150000024
 21
176.358328
  0
ARC
  8
_0-3_躯体と製品
  6
PLINE2
 62
    3
 10
108.62198850000016
 20
176.279132
 40
0.08
 50
81.869898000002095
 51
171.8698979999985
  0
LINE
  8
_0-3_躯体と製品
  6
PLINE2
 62
    3
 10
108.54279250000025
 20
176.29044599999989
 11
108.35410550000029
 21
174.96964
  0
LINE
  8
_0-3_躯体と製品
  6
PLINE2
 62
    3
 10
106.01460050000037
 20
174.90123600000001
 11
105.81612950000033
 21
176.26196200000001
  0
ARC
  8
_0-3_躯体と製品
  6
PLINE2
 62
    3
 10
105.89529150000033
 20
176.27350899999999
 40
0.08
 50
98.130101999997891
 51
188.29846599999979
  0
LINE
  8
_0-3_躯体と製品
  6
PLINE2
 62
    3
 10
105.88397850000024
 20
176.35270500000001
 11
105.92334250000033
 21
176.358328
  0
ARC
  8
_0-3_躯体と製品
  6
PLINE2
 62
    3
 10
105.93465650000041
 20
176.279132
 40
0.08
 50
8.1301020000014788
 51
98.130101999997905
  0
LINE
  8
_0-3_躯体と製品
  6
PLINE2
 62
    3
 10
106.01385250000033
 20
176.29044599999989
 11
106.20253950000028
 21
174.96964
  0
LINE
  8
_0-3_躯体と製品
  6
PLINE2
 62
    3
 10
106.01460050000037
 20
174.90123600000001
 11
105.81612950000033
 21
176.26196200000001
  0
LINE
  8
_0-3_躯体と製品
  6
PLINE2
 62
    3
 10
106.22806750000041
 20
171.572924
 11
106.61705250000034
 21
171.35226399999999
  0
LINE
  8
_0-3_躯体と製品
  6
PLINE2
 62
    3
 10
106.61705250000034
 20
171.35226399999999
 11
106.59611850000033
 21
170.95281199999999
  0
LINE
  8
_0-3_躯体と製品
  6
PLINE2
 62
    3
 10
106.59611850000033
 20
170.95281199999999
 11
106.19666650000022
 21
170.97374600000001
  0
LINE
  8
_0-3_躯体と製品
  6
PLINE2
 62
    3
 10
106.24900250000042
 20
171.97237699999999
 11
106.22806750000041
 21
171.572924
  0
LINE
  8
_0-3_躯体と製品
  6
PLINE2
 62
    3
 10
106.28040350000038
 20
172.57155499999999
 11
106.66938850000031
 21
172.35089500000001
  0
LINE
  8
_0-3_躯体と製品
  6
PLINE2
 62
    3
 10
106.66938850000031
 20
172.35089500000001
 11
106.6484545000003
 21
171.95144200000001
  0
LINE
  8
_0-3_躯体と製品
  6
PLINE2
 62
    3
 10
106.6484545000003
 20
171.95144200000001
 11
106.24900250000042
 21
171.97237699999999
  0
LINE
  8
_0-3_躯体と製品
  6
PLINE2
 62
    3
 10
106.30133850000027
 20
172.97100800000001
 11
106.28040350000038
 21
172.57155499999999
  0
LINE
  8
_0-3_躯体と製品
  6
PLINE2
 62
    3
 10
106.33273950000023
 20
173.57018600000001
 11
106.72172450000039
 21
173.349526
  0
LINE
  8
_0-3_躯体と製品
  6
PLINE2
 62
    3
 10
106.72172450000039
 20
173.349526
 11
106.70079050000015
 21
172.950073
  0
LINE
  8
_0-3_躯体と製品
  6
PLINE2
 62
    3
 10
106.70079050000015
 20
172.950073
 11
106.30133850000027
 21
172.97100800000001
  0
LINE
  8
_0-3_躯体と製品
  6
PLINE2
 62
    3
 10
106.35367450000035
 20
173.969639
 11
106.33273950000023
 21
173.57018600000001
  0
LINE
  8
_0-3_躯体と製品
  6
PLINE2
 62
    3
 10
106.3850755000002
 20
174.568817
 11
106.77406050000036
 21
174.34815700000001
  0
LINE
  8
_0-3_躯体と製品
  6
PLINE2
 62
    3
 10
106.77406050000036
 20
174.34815700000001
 11
106.75312650000023
 21
173.94870399999999
  0
LINE
  8
_0-3_躯体と製品
  6
PLINE2
 62
    3
 10
106.75312650000023
 20
173.94870399999999
 11
106.35367450000035
 21
173.969639
  0
LINE
  8
_0-3_躯体と製品
  6
CONTINUOUS
 62
    2
 10
104.97831850000023
 20
178.22972000000001
 11
105.97832050000034
 21
178.22972000000001
  0
LINE
  8
_0-3_躯体と製品
  6
CONTINUOUS
 62
    2
 10
109.67832550000037
 20
178.62972099999999
 11
104.37831750000032
 21
178.62972099999999
  0
LINE
  8
_0-3_躯体と製品
  6
CONTINUOUS
 62
    2
 10
109.42832550000037
 20
182.82972699999999
 11
99.458155500000316
 21
182.82972699999999
  0
LINE
  8
_0-3_躯体と製品
  6
CONTINUOUS
 62
    3
 10
103.2783165000003
 20
177.909616
 11
103.29842050000025
 21
177.92971999999989
  0
LINE
  8
_0-3_躯体と製品
  6
CONTINUOUS
 62
    2
 10
104.27831750000041
 20
178.12971999999999
 11
104.27831750000041
 21
177.92971999999989
  0
LINE
  8
_0-3_躯体と製品
  6
CONTINUOUS
 62
    2
 10
104.97831850000023
 20
178.12971999999999
 11
104.97831850000023
 21
178.22972000000001
  0
ARC
  8
_0-3_躯体と製品
  6
CONTINUOUS
 62
    2
 10
104.37831750000032
 20
178.22972000000001
 40
0.1
 50
180
 51
270
  0
ARC
  8
_0-3_躯体と製品
  6
CONTINUOUS
 62
    2
 10
104.37831750000032
 20
178.529721
 40
0.1
 50
90
 51
180
  0
LINE
  8
_0-3_躯体と製品
  6
CONTINUOUS
 62
    2
 10
104.27831750000041
 20
178.529721
 11
104.27831750000041
 21
178.22972000000001
  0
LINE
  8
_0-3_躯体と製品
  6
CONTINUOUS
 62
    2
 10
104.97831850000023
 20
178.12971999999999
 11
104.37831750000032
 21
178.12971999999999
  0
LINE
  8
_0-3_躯体と製品
  6
CONTINUOUS
 62
    3
 10
111.17832750000036
 20
181.76972599999999
 11
111.27832750000027
 21
181.871306
  0
LINE
  8
_0-3_躯体と製品
  6
CONTINUOUS
 62
    3
 10
111.97832850000043
 20
182.069727
 11
111.17832750000036
 21
181.76972599999999
  0
LINE
  8
_0-3_躯体と製品
  6
CONTINUOUS
 62
    3
 10
111.27832750000027
 20
181.27130500000001
 11
111.87832850000052
 21
181.496306
  0
LINE
  8
_0-3_躯体と製品
  6
CONTINUOUS
 62
    3
 10
111.87832850000052
 20
181.496306
 11
111.97832850000043
 21
181.46972600000001
  0
LINE
  8
_0-3_躯体と製品
  6
CONTINUOUS
 62
    3
 10
111.97832850000043
 20
181.46972600000001
 11
111.87832850000052
 21
181.368146
  0
LINE
  8
_0-3_躯体と製品
  6
CONTINUOUS
 62
    3
 10
111.87832850000052
 20
181.368146
 11
111.27832750000027
 21
181.143145
  0
LINE
  8
_0-3_躯体と製品
  6
CONTINUOUS
 62
    3
 10
111.27832750000027
 20
181.143145
 11
111.17832750000036
 21
181.169725
  0
LINE
  8
_0-3_躯体と製品
  6
CONTINUOUS
 62
    3
 10
111.17832750000036
 20
181.169725
 11
111.27832750000027
 21
181.27130500000001
  0
LINE
  8
_0-3_躯体と製品
  6
CONTINUOUS
 62
    3
 10
111.97832850000043
 20
181.46972600000001
 11
111.17832750000036
 21
181.169725
  0
LINE
  8
_0-3_躯体と製品
  6
CONTINUOUS
 62
    3
 10
111.97832850000043
 20
182.36972700000001
 11
111.17832750000036
 21
182.36972700000001
  0
LINE
  8
_0-3_躯体と製品
  6
CONTINUOUS
 62
    2
 10
111.17832750000036
 20
182.36972700000001
 11
110.61832650000042
 21
182.92972800000001
  0
LINE
  8
_0-3_躯体と製品
  6
CONTINUOUS
 62
    2
 10
112.53832950000037
 20
182.92972800000001
 11
111.97832850000043
 21
182.36972700000001
  0
LINE
  8
_0-3_躯体と製品
  6
CONTINUOUS
 62
    3
 10
111.87832850000052
 20
181.169725
 11
111.34920750000026
 21
181.169725
  0
LINE
  8
_0-3_躯体と製品
  6
CONTINUOUS
 62
    3
 10
111.27832750000027
 20
181.143145
 11
111.27832750000027
 21
180.6296989999999
  0
LINE
  8
_0-3_躯体と製品
  6
CONTINUOUS
 62
    3
 10
111.27832750000027
 20
180.6296989999999
 11
111.57832850000023
 21
180.32969900000001
  0
LINE
  8
_0-3_躯体と製品
  6
CONTINUOUS
 62
    3
 10
111.57832850000023
 20
180.32969900000001
 11
111.87832850000052
 21
180.6296989999999
  0
LINE
  8
_0-3_躯体と製品
  6
CONTINUOUS
 62
    3
 10
111.87832850000052
 20
180.6296989999999
 11
111.87832850000052
 21
181.169725
  0
LINE
  8
_0-3_躯体と製品
  6
CONTINUOUS
 62
    3
 10
111.87832850000052
 20
181.169725
 11
111.57832850000023
 21
180.32969900000001
  0
LINE
  8
_0-3_躯体と製品
  6
CONTINUOUS
 62
    3
 10
111.27832750000027
 20
180.6296989999999
 11
111.65332850000027
 21
180.6296989999999
  0
LINE
  8
_0-3_躯体と製品
  6
CONTINUOUS
 62
    3
 10
111.87832850000052
 20
181.143145
 11
111.97832850000043
 21
181.169725
  0
LINE
  8
_0-3_躯体と製品
  6
CONTINUOUS
 62
    3
 10
111.97832850000043
 20
181.169725
 11
111.87832850000052
 21
181.27130500000001
  0
LINE
  8
_0-3_躯体と製品
  6
CONTINUOUS
 62
    3
 10
111.27832750000027
 20
181.57130599999991
 11
111.87832850000052
 21
181.7963059999999
  0
LINE
  8
_0-3_躯体と製品
  6
CONTINUOUS
 62
    3
 10
111.87832850000052
 20
181.7963059999999
 11
111.97832850000043
 21
181.76972599999999
  0
LINE
  8
_0-3_躯体と製品
  6
CONTINUOUS
 62
    3
 10
111.97832850000043
 20
181.76972599999999
 11
111.87832850000052
 21
181.66814600000001
  0
LINE
  8
_0-3_躯体と製品
  6
CONTINUOUS
 62
    3
 10
111.87832850000052
 20
181.66814600000001
 11
111.27832750000027
 21
181.4431459999999
  0
LINE
  8
_0-3_躯体と製品
  6
CONTINUOUS
 62
    3
 10
111.27832750000027
 20
181.4431459999999
 11
111.17832750000036
 21
181.46972600000001
  0
LINE
  8
_0-3_躯体と製品
  6
CONTINUOUS
 62
    3
 10
111.17832750000036
 20
181.46972600000001
 11
111.27832750000027
 21
181.57130599999991
  0
LINE
  8
_0-3_躯体と製品
  6
CONTINUOUS
 62
    3
 10
111.97832850000043
 20
181.76972599999999
 11
111.17832750000036
 21
181.46972600000001
  0
LINE
  8
_0-3_躯体と製品
  6
CONTINUOUS
 62
    3
 10
111.27832750000027
 20
181.43222600000001
 11
111.27832750000027
 21
181.27130500000001
  0
LINE
  8
_0-3_躯体と製品
  6
CONTINUOUS
 62
    3
 10
111.87832850000052
 20
181.66814600000001
 11
111.87832850000052
 21
181.496306
  0
LINE
  8
_0-3_躯体と製品
  6
CONTINUOUS
 62
    3
 10
111.87832850000052
 20
181.368146
 11
111.87832850000052
 21
181.169725
  0
LINE
  8
_0-3_躯体と製品
  6
CONTINUOUS
 62
    3
 10
111.27832750000027
 20
182.36972700000001
 11
111.27832750000027
 21
182.1713069999999
  0
LINE
  8
_0-3_躯体と製品
  6
CONTINUOUS
 62
    3
 10
111.87832850000052
 20
182.268147
 11
111.87832850000052
 21
182.09630699999991
  0
LINE
  8
_0-3_躯体と製品
  6
CONTINUOUS
 62
    3
 10
111.27832750000027
 20
182.043147
 11
111.27832750000027
 21
181.871306
  0
LINE
  8
_0-3_躯体と製品
  6
CONTINUOUS
 62
    3
 10
111.87832850000052
 20
181.96814599999999
 11
111.87832850000052
 21
181.7963059999999
  0
LINE
  8
_0-3_躯体と製品
  6
CONTINUOUS
 62
    3
 10
111.27832750000027
 20
181.743146
 11
111.27832750000027
 21
181.57130599999991
  0
LINE
  8
_0-3_躯体と製品
  6
CONTINUOUS
 62
    3
 10
111.27832750000027
 20
182.1713069999999
 11
111.80744850000031
 21
182.36972700000001
  0
LINE
  8
_0-3_躯体と製品
  6
CONTINUOUS
 62
    3
 10
111.97832850000043
 20
182.36972700000001
 11
111.87832850000052
 21
182.268147
  0
LINE
  8
_0-3_躯体と製品
  6
CONTINUOUS
 62
    3
 10
111.87832850000052
 20
182.268147
 11
111.27832750000027
 21
182.043147
  0
LINE
  8
_0-3_躯体と製品
  6
CONTINUOUS
 62
    3
 10
111.27832750000027
 20
182.043147
 11
111.17832750000036
 21
182.069727
  0
LINE
  8
_0-3_躯体と製品
  6
CONTINUOUS
 62
    3
 10
111.17832750000036
 20
182.069727
 11
111.27832750000027
 21
182.1713069999999
  0
LINE
  8
_0-3_躯体と製品
  6
CONTINUOUS
 62
    3
 10
111.97832850000043
 20
182.36972700000001
 11
111.17832750000036
 21
182.069727
  0
LINE
  8
_0-3_躯体と製品
  6
CONTINUOUS
 62
    3
 10
111.27832750000027
 20
181.871306
 11
111.87832850000052
 21
182.09630699999991
  0
LINE
  8
_0-3_躯体と製品
  6
CONTINUOUS
 62
    3
 10
111.87832850000052
 20
182.09630699999991
 11
111.97832850000043
 21
182.069727
  0
LINE
  8
_0-3_躯体と製品
  6
CONTINUOUS
 62
    3
 10
111.97832850000043
 20
182.069727
 11
111.87832850000052
 21
181.96814599999999
  0
LINE
  8
_0-3_躯体と製品
  6
CONTINUOUS
 62
    3
 10
111.87832850000052
 20
181.96814599999999
 11
111.27832750000027
 21
181.743146
  0
LINE
  8
_0-3_躯体と製品
  6
CONTINUOUS
 62
    3
 10
111.27832750000027
 20
181.743146
 11
111.17832750000036
 21
181.76972599999999
  0
ARC
  8
_0-3_躯体と製品
  6
CONTINUOUS
 62
    2
 10
106.97776950000036
 20
178.90397999999999
 40
0.600001
 50
128.61463800000061
 51
177.54107400000063
  0
ARC
  8
_0-3_躯体と製品
  6
CONTINUOUS
 62
    2
 10
107.27832250000017
 20
178.529721
 40
1.0800019999999999
 50
90
 51
128.68218700000079
  0
ARC
  8
_0-3_躯体と製品
  6
CONTINUOUS
 62
    2
 10
107.27832250000017
 20
178.529721
 40
1.0800019999999999
 50
51.148938000002367
 51
90
  0
ARC
  8
_0-3_躯体と製品
  6
CONTINUOUS
 62
    2
 10
107.57887550000032
 20
178.90397999999999
 40
0.600001
 50
2.4589259999993982
 51
51.385361999999361
  0
LINE
  8
_0-3_躯体と製品
  6
CONTINUOUS
 62
    2
 10
109.07832550000023
 20
178.929721
 11
105.47831950000034
 21
178.929721
  0
LINE
  8
_0-3_躯体と製品
  6
CONTINUOUS
 62
    2
 10
105.47831950000034
 20
178.929721
 11
105.47831950000034
 21
178.62972099999999
  0
LINE
  8
_0-3_躯体と製品
  6
CONTINUOUS
 62
    2
 10
109.07832550000023
 20
178.929721
 11
109.07832550000023
 21
178.62972099999999
  0
LINE
  8
_0-3_躯体と製品
  6
CONTINUOUS
 62
    2
 10
110.17832650000025
 20
182.32972599999999
 11
110.67832650000037
 21
182.32972599999999
  0
LINE
  8
_0-3_躯体と製品
  6
CONTINUOUS
 62
    2
 10
109.92832550000026
 20
181.5297249999999
 11
109.72832550000021
 21
181.5297249999999
  0
ARC
  8
_0-3_躯体と製品
  6
CONTINUOUS
 62
    2
 10
109.72832550000021
 20
181.62972500000001
 40
0.1
 50
180
 51
270
  0
LINE
  8
_0-3_躯体と製品
  6
CONTINUOUS
 62
    2
 10
109.6283255000003
 20
182.729727
 11
109.6283255000003
 21
181.62972500000001
  0
ARC
  8
_0-3_躯体と製品
  6
CONTINUOUS
 62
    2
 10
109.92832550000026
 20
181.62972500000001
 40
0.1
 50
270
 51
0
  0
ARC
  8
_0-3_躯体と製品
  6
CONTINUOUS
 62
    2
 10
110.08832650000033
 20
182.26972599999999
 40
0.0599999999999999
 50
90
 51
180
  0
LINE
  8
_0-3_躯体と製品
  6
CONTINUOUS
 62
    2
 10
110.02832550000039
 20
181.62972500000001
 11
110.02832550000039
 21
182.26972599999999
  0
LINE
  8
_0-3_躯体と製品
  6
CONTINUOUS
 62
    2
 10
109.82832550000035
 20
182.9297269999999
 11
109.6283255000003
 21
182.729727
  0
LINE
  8
_0-3_躯体と製品
  6
CONTINUOUS
 62
    2
 10
111.47832850000032
 20
182.92972800000001
 11
109.82836050000037
 21
182.9297619999999
  0
LINE
  8
_0-3_躯体と製品
  6
CONTINUOUS
 62
    2
 10
111.67832850000036
 20
182.92972800000001
 11
111.57832850000023
 21
182.82972800000002
  0
LINE
  8
_0-3_躯体と製品
  6
CONTINUOUS
 62
    2
 10
111.57832850000023
 20
182.82972800000002
 11
111.47832850000032
 21
182.9297269999999
  0
LINE
  8
_0-3_躯体と製品
  6
CONTINUOUS
 62
    3
 10
111.17832750000036
 20
182.369733
 11
111.97832850000043
 21
182.369733
  0
LINE
  8
_0-3_躯体と製品
  6
CONTINUOUS
 62
    3
 10
111.97832850000043
 20
182.369733
 11
112.53832950000037
 21
182.92973399999991
  0
LINE
  8
_0-3_躯体と製品
  6
CONTINUOUS
 62
    3
 10
110.61832650000042
 20
182.92973399999991
 11
111.17832750000036
 21
182.369733
  0
LINE
  8
_0-3_躯体と製品
  6
CONTINUOUS
 62
    2
 10
112.67832950000025
 20
181.5297249999999
 11
110.77832750000039
 21
181.5297249999999
  0
ARC
  8
_0-3_躯体と製品
  6
CONTINUOUS
 62
    2
 10
109.42832550000037
 20
182.6797269999999
 40
0.1499999999999999
 50
0
 51
180
  0
LINE
  8
_0-3_躯体と製品
  6
CONTINUOUS
 62
    2
 10
111.67832850000036
 20
182.02972600000001
 11
111.57832850000023
 21
181.92972600000002
  0
LINE
  8
_0-3_躯体と製品
  6
CONTINUOUS
 62
    2
 10
111.47832850000032
 20
182.02972600000001
 11
111.57832850000023
 21
181.92972600000002
  0
LINE
  8
_0-3_躯体と製品
  6
CONTINUOUS
 62
    2
 10
112.47832950000043
 20
182.32972599999999
 11
112.97833050000042
 21
182.32972599999999
  0
LINE
  8
_0-3_躯体と製品
  6
CONTINUOUS
 62
    2
 10
105.77831950000041
 20
178.62972099999999
 11
105.77831950000041
 21
178.22972000000001
  0
LINE
  8
_0-3_躯体と製品
  6
CONTINUOUS
 62
    2
 10
108.77832450000017
 20
178.62972099999999
 11
108.77832450000017
 21
178.22972000000001
  0
LINE
  8
_0-3_躯体と製品
  6
CONTINUOUS
 62
    2
 10
105.97832050000034
 20
178.22972000000001
 11
105.97832050000034
 21
178.12971999999999
  0
LINE
  8
_0-3_躯体と製品
  6
CONTINUOUS
 62
    2
 10
108.57832350000024
 20
178.12971999999999
 11
108.57832350000024
 21
178.22972000000001
  0
LINE
  8
_0-3_躯体と製品
  6
CONTINUOUS
 62
    2
 10
108.57832350000024
 20
178.22972000000001
 11
109.57832550000035
 21
178.22972000000001
  0
LINE
  8
_0-3_躯体と製品
  6
CONTINUOUS
 62
    2
 10
109.57832550000035
 20
178.22972000000001
 11
109.57832550000035
 21
178.12971999999999
  0
ARC
  8
_0-3_躯体と製品
  6
CONTINUOUS
 62
    2
 10
109.67832550000037
 20
179.029721
 40
0.400001
 50
270
 51
0
  0
LINE
  8
_0-3_躯体と製品
  6
CONTINUOUS
 62
    2
 10
110.17832650000025
 20
182.32972599999999
 11
110.67832650000037
 21
182.32972599999999
  0
LINE
  8
_0-3_躯体と製品
  6
PLINE3
 62
    3
 10
111.57832850000023
 20
183.232213
 11
111.57832850000023
 21
179.97259299999999
  0
ARC
  8
_0-3_躯体と製品
  6
CONTINUOUS
 62
    2
 10
110.97832750000032
 20
179.029721
 40
0.400001
 50
180
 51
270
  0
LINE
  8
_0-3_躯体と製品
  6
CONTINUOUS
 62
    2
 10
110.57832650000023
 20
179.029721
 11
110.57832650000023
 21
181.329725
  0
ARC
  8
_0-3_躯体と製品
  6
CONTINUOUS
 62
    2
 10
109.97832550000032
 20
181.42972499999999
 40
0.1
 50
270
 51
0
  0
LINE
  8
_0-3_躯体と製品
  6
CONTINUOUS
 62
    2
 10
109.97832550000032
 20
181.329725
 11
109.67832550000037
 21
181.329725
  0
LINE
  8
_0-3_躯体と製品
  6
CONTINUOUS
 62
    2
 10
109.3783255000003
 20
181.02972400000002
 11
109.87832550000019
 21
181.02972400000002
  0
ARC
  8
_0-3_躯体と製品
  6
CONTINUOUS
 62
    2
 10
109.87832550000019
 20
180.829724
 40
0.2
 50
0
 51
90
  0
LINE
  8
_0-3_躯体と製品
  6
CONTINUOUS
 62
    2
 10
110.07832650000034
 20
180.829724
 11
110.07832650000034
 21
179.029721
  0
LINE
  8
_0-3_躯体と製品
  6
CONTINUOUS
 62
    2
 10
110.07832650000034
 20
181.42972499999999
 11
110.07832650000034
 21
182.229726
  0
LINE
  8
_0-3_躯体と製品
  6
CONTINUOUS
 62
    2
 10
112.97833050000042
 20
178.12971999999999
 11
112.97833050000042
 21
178.22972000000001
  0
LINE
  8
_0-3_躯体と製品
  6
CONTINUOUS
 62
    2
 10
112.97833050000042
 20
178.12971999999999
 11
109.57832550000035
 21
178.12971999999999
  0
LINE
  8
_0-3_躯体と製品
  6
CONTINUOUS
 62
    2
 10
108.57832350000024
 20
178.12971999999999
 11
105.97832050000034
 21
178.12971999999999
  0
ARC
  8
_0-3_躯体と製品
  6
CONTINUOUS
 62
    2
 10
109.3783255000003
 20
181.12972400000001
 40
0.1
 50
180
 51
270
  0
LINE
  8
_0-3_躯体と製品
  6
CONTINUOUS
 62
    2
 10
109.27832450000028
 20
182.6797269999999
 11
109.27832450000028
 21
181.12972400000001
  0
ARC
  8
_0-3_躯体と製品
  6
CONTINUOUS
 62
    2
 10
109.67832550000037
 20
181.42972499999999
 40
0.1
 50
180
 51
270
  0
LINE
  8
_0-3_躯体と製品
  6
CONTINUOUS
 62
    2
 10
109.57832550000035
 20
182.6797269999999
 11
109.57832550000035
 21
181.42972499999999
  0
LINE
  8
_0-3_躯体と製品
  6
CONTINUOUS
 62
    2
 10
110.77832750000039
 20
182.02972600000001
 11
110.77832750000039
 21
182.229726
  0
LINE
  8
_0-3_躯体と製品
  6
CONTINUOUS
 62
    2
 10
112.37832950000029
 20
182.02972600000001
 11
111.67832850000036
 21
182.02972600000001
  0
LINE
  8
_0-3_躯体と製品
  6
CONTINUOUS
 62
    2
 10
110.77832750000039
 20
182.02972600000001
 11
111.47832850000032
 21
182.02972600000001
  0
LINE
  8
_0-3_躯体と製品
  6
CONTINUOUS
 62
    2
 10
112.37832950000029
 20
182.02972600000001
 11
112.37832950000029
 21
182.229726
  0
ARC
  8
_0-3_躯体と製品
  6
CONTINUOUS
 62
    2
 10
112.47832950000043
 20
182.229726
 40
0.1
 50
90
 51
180
  0
ARC
  8
_0-3_躯体と製品
  6
CONTINUOUS
 62
    2
 10
112.97833050000042
 20
182.229726
 40
0.1
 50
0
 51
90
  0
LINE
  8
_0-3_躯体と製品
  6
CONTINUOUS
 62
    2
 10
112.47832950000043
 20
182.32972599999999
 11
112.97833050000042
 21
182.32972599999999
  0
ARC
  8
_0-3_躯体と製品
  6
CONTINUOUS
 62
    2
 10
110.17832650000025
 20
182.229726
 40
0.1
 50
90
 51
180
  0
ARC
  8
_0-3_躯体と製品
  6
CONTINUOUS
 62
    2
 10
110.67832650000037
 20
182.229726
 40
0.1
 50
0
 51
90
  0
LINE
  8
_0-3_躯体と製品
  6
CONTINUOUS
 62
    2
 10
113.07833050000022
 20
181.92972600000002
 11
113.07833050000022
 21
182.229726
  0
ARC
  8
_0-3_躯体と製品
  6
CONTINUOUS
 62
    2
 10
110.77832750000039
 20
181.329725
 40
0.2
 50
90
 51
180
  0
TEXT
  8
_0-4_図面枠
 62
    7
 10
77.331786500000248
 20
236.398124
 40
2
 41
0.8
 50
0
  1
（アルミ２００タイプ）
  0
LINE
  8
_0-4_図面枠
  6
CONTINUOUS
 62
    1
 10
210.00806649999981
 20
241.41628399999999
 11
210.00806649999981
 21
55.58371600000001
  0
LINE
  8
_0-4_図面枠
  6
CONTINUOUS
 62
    1
 10
345.46745549999969
 20
55.58371600000001
 11
345.46745549999969
 21
241.41628399999999
  0
TEXT
  8
_0-4_図面枠
 62
    7
 10
233.0044184999997
 20
118.57711700000002
 40
2
 41
0.8
 50
0
  1
ＴＴサイドプレート（Ｃ）
  0
LINE
  8
_0-4_図面枠
  6
CONTINUOUS
 62
    1
 10
324.73776149999981
 20
121.777117
 11
227.40442749999988
 21
121.777117
  0
LINE
  8
_0-4_図面枠
  6
CONTINUOUS
 62
    1
 10
324.73776149999981
 20
128.97711699999999
 11
227.40442749999988
 21
128.97711699999999
  0
LINE
  8
_0-4_図面枠
  6
CONTINUOUS
 62
    2
 10
324.73776149999981
 20
77.777117000000004
 11
227.40442749999988
 21
77.777117000000004
  0
TEXT
  8
_0-4_図面枠
 62
    7
 10
233.0044184999997
 20
78.577124999999995
 40
2
 41
0.8
 50
0
  1
ステンワッシャー
  0
TEXT
  8
_0-4_図面枠
 62
    7
 10
233.0044184999997
 20
82.577124999999995
 40
2
 41
0.8
 50
0
  1
ステンタッピンねじ
  0
TEXT
  8
_0-4_図面枠
 62
    7
 10
233.0044184999997
 20
86.577120999999906
 40
2
 41
0.8
 50
0
  1
アンカープラグ
  0
TEXT
  8
_0-4_図面枠
 62
    7
 10
233.0044184999997
 20
90.577121000000005
 40
2
 41
0.8
 50
0
  1
ステンドリリングねじ
  0
LINE
  8
_0-4_図面枠
  6
CONTINUOUS
 62
    1
 10
324.73776149999981
 20
73.777117000000004
 11
227.40442749999988
 21
73.777117000000004
  0
LINE
  8
_0-4_図面枠
  6
CONTINUOUS
 62
    2
 10
324.73776149999981
 20
81.777117000000004
 11
227.40442749999988
 21
81.777117000000004
  0
LINE
  8
_0-4_図面枠
  6
CONTINUOUS
 62
    2
 10
324.73776149999981
 20
85.777117000000018
 11
227.40442749999988
 21
85.777117000000018
  0
LINE
  8
_0-4_図面枠
  6
CONTINUOUS
 62
    2
 10
324.73776149999981
 20
93.777117000000004
 11
227.40442749999988
 21
93.777117000000004
  0
LINE
  8
_0-4_図面枠
  6
CONTINUOUS
 62
    2
 10
324.73776149999981
 20
97.777117000000004
 11
227.40442749999988
 21
97.777117000000004
  0
LINE
  8
_0-4_図面枠
  6
CONTINUOUS
 62
    2
 10
324.73776149999981
 20
101.777117
 11
227.40442749999988
 21
101.777117
  0
LINE
  8
_0-4_図面枠
  6
CONTINUOUS
 62
    2
 10
324.73776149999981
 20
105.7771169999999
 11
227.40442749999988
 21
105.7771169999999
  0
LINE
  8
_0-4_図面枠
  6
CONTINUOUS
 62
    2
 10
324.73776149999981
 20
109.7771169999999
 11
227.40442749999988
 21
109.7771169999999
  0
LINE
  8
_0-4_図面枠
  6
CONTINUOUS
 62
    2
 10
324.73776149999981
 20
113.777117
 11
227.40442749999988
 21
113.777117
  0
LINE
  8
_0-4_図面枠
  6
CONTINUOUS
 62
    2
 10
324.73776149999981
 20
117.777117
 11
227.40442749999988
 21
117.777117
  0
TEXT
  8
_0-4_図面枠
 62
    7
 10
233.0044184999997
 20
94.577125000000009
 40
2
 41
0.8
 50
0
  1
ガスケットＫ
  0
TEXT
  8
_0-4_図面枠
 62
    7
 10
233.0044184999997
 20
102.57712499999991
 40
2
 41
0.8
 50
0
  1
ＴＣ壁フレーム（Ｃ）
  0
TEXT
  8
_0-4_図面枠
 62
    7
 10
233.0044184999997
 20
106.57712100000001
 40
2
 41
0.8
 50
0
  1
ＴＣＮサイドキャップ（Ｃ）Ａ
  0
TEXT
  8
_0-4_図面枠
 62
    7
 10
233.0044184999997
 20
110.57712099999991
 40
2
 41
0.8
 50
0
  1
ＴＴフレーム（Ｃ）
  0
TEXT
  8
_0-4_図面枠
 62
    7
 10
233.0044184999997
 20
114.57712499999991
 40
2
 41
0.8
 50
0
  1
ＴＣセンタープレート（Ｄ）
  0
LINE
  8
_0-4_図面枠
  6
CONTINUOUS
 62
    2
 10
324.73776149999981
 20
89.777117000000004
 11
227.40442749999988
 21
89.777117000000004
  0
TEXT
  8
_0-4_図面枠
 62
    7
 10
227.40442749999988
 20
69.110452000000038
 40
2
 41
0.8
 50
0
  1
注）　ガスケットＫはＴＣサイドキャップ（Ｃ）Ａにセット済み。
  0
TEXT
  8
_0-4_図面枠
 62
    7
 10
233.0044184999997
 20
98.577125000000009
 40
2
 41
0.8
 50
0
  1
止水補助板
  0
TEXT
  8
_0-4_図面枠
 62
    7
 10
233.0044184999997
 20
74.577123
 40
2
 41
0.8
 50
0
  1
ブチルテープ
  0
LINE
  8
_0-4_図面枠
  6
CONTINUOUS
 62
    1
 10
188.61170549999974
 20
85.777117000000018
 11
188.61170549999974
 21
128.97711699999999
  0
LINE
  8
_0-4_図面枠
  6
CONTINUOUS
 62
    1
 10
183.81170549999979
 20
85.777117000000018
 11
183.81170549999979
 21
128.97711699999999
  0
LINE
  8
_0-4_図面枠
  6
CONTINUOUS
 62
    1
 10
177.41170550000027
 20
85.777117000000018
 11
177.41170550000027
 21
128.97711699999999
  0
LINE
  8
_0-4_図面枠
  6
CONTINUOUS
 62
    1
 10
165.41170550000038
 20
85.777117000000018
 11
165.41170550000038
 21
128.97711699999999
  0
LINE
  8
_0-4_図面枠
  6
CONTINUOUS
 62
    1
 10
133.07837250000023
 20
85.777117000000018
 11
133.07837250000023
 21
128.97711699999999
  0
TEXT
  8
_0-4_図面枠
 62
    7
 10
230.6752171666667
 20
86.577120999999906
 40
2
 41
0.8
 50
0
  1
９
  0
LINE
  8
_0-4_図面枠
  6
CONTINUOUS
 62
    1
 10
232.20442749999984
 20
73.777117000000004
 11
232.20442749999984
 21
128.97711699999999
  0
LINE
  8
_0-4_図面枠
  6
CONTINUOUS
 62
    1
 10
227.40442749999988
 20
73.777117000000004
 11
227.40442749999988
 21
128.97711699999999
  0
TEXT
  8
_0-4_図面枠
 62
    7
 10
133.87837350000029
 20
86.577120999999906
 40
2
 41
0.8
 50
0
  1
ｔ１．０×ｗ３０
  0
TEXT
  8
_0-4_図面枠
 62
    7
 10
181.65171049999981
 20
86.577120999999906
 40
2
 41
0.8
 50
0
  1
１
  0
TEXT
  8
_0-4_図面枠
 62
    7
 10
185.46505083333273
 20
86.577120999999906
 40
2
 41
0.8
 50
0
  1
巻
  0
TEXT
  8
_0-4_図面枠
 62
    7
 10
230.6752171666667
 20
74.577123
 40
2
 41
0.8
 50
0
  1
※
  0
TEXT
  8
_0-4_図面枠
 62
    7
 10
228.96855049999976
 20
78.577124999999995
 40
2
 41
0.8
 50
0
  1
１１
  0
TEXT
  8
_0-4_図面枠
 62
    7
 10
228.75521716666685
 20
82.577124999999995
 40
2
 41
0.8
 50
0
  1
１０
  0
TEXT
  8
_0-4_図面枠
 62
    7
 10
167.838373166667
 20
118.57711700000002
 40
2
 41
0.8
 50
0
  1
３０００
  0
TEXT
  8
_0-4_図面枠
 62
    7
 10
167.78503983333371
 20
122.577125
 40
2
 41
0.8
 50
0
  1
（ｍｍ）
  0
TEXT
  8
_0-4_図面枠
 62
    7
 10
168.74503983333375
 20
125.77712199999991
 40
2
 41
0.8
 50
0
  1
定　尺
  0
TEXT
  8
_0-4_図面枠
 62
    7
 10
167.838373166667
 20
106.57712100000001
 40
2
 41
0.8
 50
0
  1
３０６０
  0
TEXT
  8
_0-4_図面枠
 62
    7
 10
167.838373166667
 20
110.57712099999991
 40
2
 41
0.8
 50
0
  1
３０００
  0
TEXT
  8
_0-4_図面枠
 62
    7
 10
167.838373166667
 20
114.57712499999991
 40
2
 41
0.8
 50
0
  1
３０００
  0
TEXT
  8
_0-4_図面枠
 62
    7
 10
133.87837350000029
 20
90.577121000000005
 40
2
 41
0.8
 50
0
  1
１．５×１８×５．５穴
  0
TEXT
  8
_0-4_図面枠
 62
    7
 10
133.87837350000029
 20
94.577125000000009
 40
2
 41
0.8
 50
0
  1
なべ５×５０
  0
TEXT
  8
_0-4_図面枠
 62
    7
 10
133.87837350000029
 20
102.57712499999991
 40
2
 41
0.8
 50
0
  1
皿４×１６
  0
TEXT
  8
_0-4_図面枠
 62
    7
 10
133.87837350000029
 20
98.577125000000009
 40
2
 41
0.8
 50
0
  1
フィッシャープラグ　Ｓ８
  0
TEXT
  8
_0-4_図面枠
 62
    7
 10
133.87837350000029
 20
106.57712100000001
 40
2
 41
0.8
 50
0
  1
ＦＳ４００
  0
TEXT
  8
_0-4_図面枠
 62
    7
 10
142.41170383333372
 20
125.77712199999991
 40
2
 41
0.8
 50
0
  1
規　格
  0
TEXT
  8
_0-4_図面枠
 62
    7
 10
179.51837716666694
 20
98.577125000000009
 40
2
 41
0.8
 50
0
  1
１６
  0
TEXT
  8
_0-4_図面枠
 62
    7
 10
179.51837716666694
 20
90.577121000000005
 40
2
 41
0.8
 50
0
  1
１６
  0
TEXT
  8
_0-4_図面枠
 62
    7
 10
185.46505083333273
 20
90.577121000000005
 40
2
 41
0.8
 50
0
  1
枚
  0
TEXT
  8
_0-4_図面枠
 62
    7
 10
179.51837716666694
 20
94.577125000000009
 40
2
 41
0.8
 50
0
  1
１６
  0
TEXT
  8
_0-4_図面枠
 62
    7
 10
185.46505083333273
 20
94.577125000000009
 40
2
 41
0.8
 50
0
  1
〃
  0
TEXT
  8
_0-4_図面枠
 62
    7
 10
185.46505083333273
 20
98.577125000000009
 40
2
 41
0.8
 50
0
  1
〃
  0
TEXT
  8
_0-4_図面枠
 62
    7
 10
185.46505083333273
 20
106.57712100000001
 40
2
 41
0.8
 50
0
  1
枚
  0
TEXT
  8
_0-4_図面枠
 62
    7
 10
181.65171049999981
 20
106.57712100000001
 40
2
 41
0.8
 50
0
  1
１
  0
TEXT
  8
_0-4_図面枠
 62
    7
 10
179.51837716666694
 20
102.57712499999991
 40
2
 41
0.8
 50
0
  1
１２
  0
TEXT
  8
_0-4_図面枠
 62
    7
 10
185.46505083333273
 20
102.57712499999991
 40
2
 41
0.8
 50
0
  1
本
  0
TEXT
  8
_0-4_図面枠
 62
    7
 10
181.4383771666669
 20
110.57712099999991
 40
2
 41
0.8
 50
0
  1
２
  0
TEXT
  8
_0-4_図面枠
 62
    7
 10
185.46505083333273
 20
110.57712099999991
 40
2
 41
0.8
 50
0
  1
〃
  0
TEXT
  8
_0-4_図面枠
 62
    7
 10
230.6752171666667
 20
98.577125000000009
 40
2
 41
0.8
 50
0
  1
６
  0
TEXT
  8
_0-4_図面枠
 62
    7
 10
230.6752171666667
 20
90.577121000000005
 40
2
 41
0.8
 50
0
  1
８
  0
TEXT
  8
_0-4_図面枠
 62
    7
 10
230.56855049999967
 20
94.577125000000009
 40
2
 41
0.8
 50
0
  1
７
  0
TEXT
  8
_0-4_図面枠
 62
    7
 10
230.56855049999967
 20
106.57712100000001
 40
2
 41
0.8
 50
0
  1
４
  0
TEXT
  8
_0-4_図面枠
 62
    7
 10
230.6752171666667
 20
102.57712499999991
 40
2
 41
0.8
 50
0
  1
５
  0
TEXT
  8
_0-4_図面枠
 62
    7
 10
230.6752171666667
 20
110.57712099999991
 40
2
 41
0.8
 50
0
  1
３
  0
TEXT
  8
_0-4_図面枠
 62
    7
 10
184.33497483333281
 20
125.77712199999991
 40
2
 41
0.8
 50
0
  1
単位
  0
TEXT
  8
_0-4_図面枠
 62
    7
 10
178.95838516666697
 20
125.77712199999991
 40
2
 41
0.8
 50
0
  1
使用
  0
TEXT
  8
_0-4_図面枠
 62
    7
 10
185.46505083333273
 20
118.57711700000002
 40
2
 41
0.8
 50
0
  1
本
  0
TEXT
  8
_0-4_図面枠
 62
    7
 10
181.4383771666669
 20
118.57711700000002
 40
2
 41
0.8
 50
0
  1
２
  0
TEXT
  8
_0-4_図面枠
 62
    7
 10
185.46505083333273
 20
114.57712499999991
 40
2
 41
0.8
 50
0
  1
〃
  0
TEXT
  8
_0-4_図面枠
 62
    7
 10
181.65171049999981
 20
114.57712499999991
 40
2
 41
0.8
 50
0
  1
１
  0
TEXT
  8
_0-4_図面枠
 62
    7
 10
178.90505183333346
 20
122.577125
 40
2
 41
0.8
 50
0
  1
数量
  0
TEXT
  8
_0-4_図面枠
 62
    7
 10
228.96855049999976
 20
118.57711700000002
 40
2
 41
0.8
 50
0
  1
　１
  0
TEXT
  8
_0-4_図面枠
 62
    7
 10
230.6752171666667
 20
114.57712499999991
 40
2
 41
0.8
 50
0
  1
２
  0
TEXT
  8
_0-4_図面枠
 62
    7
 10
321.59108083333285
 20
86.577120999999906
 40
2
 41
0.8
 50
0
  1
〃
  0
TEXT
  8
_0-4_図面枠
 62
    7
 10
315.53777149999974
 20
86.577120999999906
 40
2
 41
0.8
 50
0
  1
１４
  0
LINE
  8
_0-4_図面枠
  6
CONTINUOUS
 62
    1
 10
324.73776149999981
 20
73.777117000000004
 11
324.73776149999981
 21
128.97711699999999
  0
LINE
  8
_0-4_図面枠
  6
CONTINUOUS
 62
    1
 10
319.93776149999985
 20
73.777117000000004
 11
319.93776149999985
 21
128.97711699999999
  0
LINE
  8
_0-4_図面枠
  6
CONTINUOUS
 62
    1
 10
313.53776149999976
 20
73.777117000000004
 11
313.53776149999976
 21
128.97711699999999
  0
LINE
  8
_0-4_図面枠
  6
CONTINUOUS
 62
    1
 10
301.53776149999976
 20
73.777117000000004
 11
301.53776149999976
 21
128.97711699999999
  0
LINE
  8
_0-4_図面枠
  6
CONTINUOUS
 62
    1
 10
269.20442749999984
 20
73.777117000000004
 11
269.20442749999984
 21
128.97711699999999
  0
TEXT
  8
_0-4_図面枠
 62
    7
 10
270.00443449999989
 20
86.577120999999906
 40
2
 41
0.8
 50
0
  1
フィッシャープラグ　Ｓ８
  0
TEXT
  8
_0-4_図面枠
 62
    7
 10
270.00443449999989
 20
74.577123
 40
2
 41
0.8
 50
0
  1
ｔ１．０×ｗ３０
  0
TEXT
  8
_0-4_図面枠
 62
    7
 10
270.00443449999989
 20
78.577124999999995
 40
2
 41
0.8
 50
0
  1
１．５×１８×５．５穴
  0
TEXT
  8
_0-4_図面枠
 62
    7
 10
270.00443449999989
 20
82.577124999999995
 40
2
 41
0.8
 50
0
  1
なべ５×５０
  0
TEXT
  8
_0-4_図面枠
 62
    7
 10
303.96442616666673
 20
74.577123
 40
2
 41
0.8
 50
0
  1
６０００
  0
TEXT
  8
_0-4_図面枠
 62
    7
 10
321.59108083333285
 20
74.577123
 40
2
 41
0.8
 50
0
  1
巻
  0
TEXT
  8
_0-4_図面枠
 62
    7
 10
317.77777149999974
 20
74.577123
 40
2
 41
0.8
 50
0
  1
１
  0
TEXT
  8
_0-4_図面枠
 62
    7
 10
315.53777149999974
 20
78.577124999999995
 40
2
 41
0.8
 50
0
  1
１４
  0
TEXT
  8
_0-4_図面枠
 62
    7
 10
321.59108083333285
 20
78.577124999999995
 40
2
 41
0.8
 50
0
  1
枚
  0
TEXT
  8
_0-4_図面枠
 62
    7
 10
315.53777149999974
 20
82.577124999999995
 40
2
 41
0.8
 50
0
  1
１４
  0
TEXT
  8
_0-4_図面枠
 62
    7
 10
321.59108083333285
 20
82.577124999999995
 40
2
 41
0.8
 50
0
  1
〃
  0
TEXT
  8
_0-4_図面枠
 62
    7
 10
270.00443449999989
 20
98.577125000000009
 40
2
 41
0.8
 50
0
  1
ＦＳ４００
  0
TEXT
  8
_0-4_図面枠
 62
    7
 10
270.00443449999989
 20
90.577121000000005
 40
2
 41
0.8
 50
0
  1
皿４×１６
  0
TEXT
  8
_0-4_図面枠
 62
    7
 10
245.57776383333271
 20
125.777129
 40
2
 41
0.8
 50
0
  1
部材名称
  0
TEXT
  8
_0-4_図面枠
 62
    7
 10
278.53776383333275
 20
125.777129
 40
2
 41
0.8
 50
0
  1
規　格
  0
TEXT
  8
_0-4_図面枠
 62
    7
 10
303.96442616666673
 20
98.577125000000009
 40
2
 41
0.8
 50
0
  1
３１００
  0
TEXT
  8
_0-4_図面枠
 62
    7
 10
321.59108083333285
 20
98.577125000000009
 40
2
 41
0.8
 50
0
  1
枚
  0
TEXT
  8
_0-4_図面枠
 62
    7
 10
317.77777149999974
 20
98.577125000000009
 40
2
 41
0.8
 50
0
  1
１
  0
TEXT
  8
_0-4_図面枠
 62
    7
 10
303.96442616666673
 20
94.577125000000009
 40
2
 41
0.8
 50
0
  1
３０００
  0
TEXT
  8
_0-4_図面枠
 62
    7
 10
317.56443816666683
 20
90.577121000000005
 40
2
 41
0.8
 50
0
  1
６
  0
TEXT
  8
_0-4_図面枠
 62
    7
 10
321.59108083333285
 20
90.577121000000005
 40
2
 41
0.8
 50
0
  1
〃
  0
TEXT
  8
_0-4_図面枠
 62
    7
 10
317.77777149999974
 20
94.577125000000009
 40
2
 41
0.8
 50
0
  1
１
  0
TEXT
  8
_0-4_図面枠
 62
    7
 10
321.59108083333285
 20
94.577125000000009
 40
2
 41
0.8
 50
0
  1
本
  0
TEXT
  8
_0-4_図面枠
 62
    7
 10
303.96442616666673
 20
106.57712100000001
 40
2
 41
0.8
 50
0
  1
３０００
  0
TEXT
  8
_0-4_図面枠
 62
    7
 10
303.96442616666673
 20
102.57712499999991
 40
2
 41
0.8
 50
0
  1
３０００
  0
TEXT
  8
_0-4_図面枠
 62
    7
 10
303.96442616666673
 20
110.57712099999991
 40
2
 41
0.8
 50
0
  1
３０００
  0
TEXT
  8
_0-4_図面枠
 62
    7
 10
317.77777149999974
 20
106.57712100000001
 40
2
 41
0.8
 50
0
  1
１
  0
TEXT
  8
_0-4_図面枠
 62
    7
 10
317.77777149999974
 20
102.57712499999991
 40
2
 41
0.8
 50
0
  1
１
  0
TEXT
  8
_0-4_図面枠
 62
    7
 10
321.59108083333285
 20
102.57712499999991
 40
2
 41
0.8
 50
0
  1
本
  0
TEXT
  8
_0-4_図面枠
 62
    7
 10
317.77777149999974
 20
110.57712099999991
 40
2
 41
0.8
 50
0
  1
１
  0
TEXT
  8
_0-4_図面枠
 62
    7
 10
321.59108083333285
 20
106.57712100000001
 40
2
 41
0.8
 50
0
  1
〃
  0
TEXT
  8
_0-4_図面枠
 62
    7
 10
321.59108083333285
 20
110.57712099999991
 40
2
 41
0.8
 50
0
  1
〃
  0
TEXT
  8
_0-4_図面枠
 62
    7
 10
320.46098983333286
 20
125.777129
 40
2
 41
0.8
 50
0
  1
単位
  0
TEXT
  8
_0-4_図面枠
 62
    7
 10
315.08442316666674
 20
125.777129
 40
2
 41
0.8
 50
0
  1
使用
  0
TEXT
  8
_0-4_図面枠
 62
    7
 10
304.8710928333328
 20
125.777129
 40
2
 41
0.8
 50
0
  1
定　尺
  0
TEXT
  8
_0-4_図面枠
 62
    7
 10
303.96442616666673
 20
118.57711700000002
 40
2
 41
0.8
 50
0
  1
３０００
  0
TEXT
  8
_0-4_図面枠
 62
    7
 10
303.96442616666673
 20
114.57712499999991
 40
2
 41
0.8
 50
0
  1
３０００
  0
TEXT
  8
_0-4_図面枠
 62
    7
 10
303.91109283333276
 20
122.57713200000001
 40
2
 41
0.8
 50
0
  1
（ｍｍ）
  0
TEXT
  8
_0-4_図面枠
 62
    7
 10
321.59108083333285
 20
118.57711700000002
 40
2
 41
0.8
 50
0
  1
本
  0
TEXT
  8
_0-4_図面枠
 62
    7
 10
317.77777149999974
 20
118.57711700000002
 40
2
 41
0.8
 50
0
  1
１
  0
TEXT
  8
_0-4_図面枠
 62
    7
 10
317.77777149999974
 20
114.57712499999991
 40
2
 41
0.8
 50
0
  1
１
  0
TEXT
  8
_0-4_図面枠
 62
    7
 10
321.59108083333285
 20
114.57712499999991
 40
2
 41
0.8
 50
0
  1
〃
  0
TEXT
  8
_0-4_図面枠
 62
    7
 10
315.03108983333368
 20
122.57713200000001
 40
2
 41
0.8
 50
0
  1
数量
  0
LINE
  8
_0-5_文字-記号
  6
CONTINUOUS
 62
    3
 10
248.01047849999986
 20
167.76643200000001
 11
231.01675349999982
 21
167.76643200000001
  0
TEXT
  8
_0-5_文字-記号
 62
    7
 10
228.00464875118769
 20
168.18650679116772
 40
2
 41
0.8
 50
0
  1
ならしモルタル（別途）
  0
TEXT
  8
_0-4_図面枠
 62
    7
 10
216.84827549999977
 20
229.05795999999989
 40
2
 41
0.8
 50
0
  1
◇床コーナー（２００ＴＣ－Ａ）　Ｓ＝１／５
  0
TEXT
  8
_0-4_図面枠
 62
    7
 10
212.57279349999976
 20
236.42913000000001
 40
2
 41
0.8
 50
0
  1
（アルミ２００タイプ）
  0
CIRCLE
  8
_0-5_文字-記号
  6
CONTINUOUS
 62
    3
 10
169.75243950000015
 20
188.7137239999999
 40
1.5000020000000001
  0
CIRCLE
  8
_0-5_文字-記号
  6
CONTINUOUS
 62
    3
 10
150.54331350000018
 20
188.2462789999999
 40
1.5000020000000001
  0
CIRCLE
  8
_0-5_文字-記号
  6
CONTINUOUS
 62
    3
 10
164.23426350000034
 20
188.56535600000001
 40
1.5000020000000001
  0
CIRCLE
  8
_0-5_文字-記号
  6
CONTINUOUS
 62
    3
 10
177.39998250000019
 20
190.48810600000002
 40
1.5000020000000001
  0
LINE
  8
_0-3_躯体と製品
  6
CONTINUOUS
 62
    3
 10
173.35883150000041
 20
175.92971700000001
 11
175.35883450000017
 21
177.92971999999989
  0
LINE
  8
_0-3_躯体と製品
  6
CONTINUOUS
 62
    3
 10
172.36888150000027
 20
175.92971700000001
 11
174.36888450000026
 21
177.92971999999989
  0
LINE
  8
_0-3_躯体と製品
  6
CONTINUOUS
 62
    2
 10
162.14401650000025
 20
178.12971999999999
 11
180.27842650000025
 21
178.12971999999999
  0
LINE
  8
_0-3_躯体と製品
  6
CONTINUOUS
 62
    2
 10
180.27842650000025
 20
177.92971999999989
 11
162.14401650000025
 21
177.92971999999989
  0
LINE
  8
_0-3_躯体と製品
  6
CONTINUOUS
 62
    2
 10
174.37841750000041
 20
182.32972599999999
 11
173.8784175000003
 21
182.32972599999999
  0
LINE
  8
_0-3_躯体と製品
  6
CONTINUOUS
 62
    2
 10
173.07841550000035
 20
182.92972800000001
 11
174.72838350000029
 21
182.9297619999999
  0
LINE
  8
_0-3_躯体と製品
  6
CONTINUOUS
 62
    2
 10
174.46841850000033
 20
182.32972599999999
 11
155.32839050000018
 21
182.32972599999999
  0
LINE
  8
_0-3_躯体と製品
  6
CONTINUOUS
 62
    2
 10
174.37841750000041
 20
182.32972599999999
 11
173.8784175000003
 21
182.32972599999999
  0
LINE
  8
_0-3_躯体と製品
  6
CONTINUOUS
 62
    2
 10
171.57841350000024
 20
178.12971999999999
 11
174.97841850000032
 21
178.12971999999999
  0
LINE
  8
_0-3_躯体と製品
  6
CONTINUOUS
 62
    2
 10
162.27840050000032
 20
177.92971999999989
 11
185.09858849999978
 21
177.92971999999989
  0
LINE
  8
_0-3_躯体と製品
  6
CONTINUOUS
 62
    2
 10
181.27842750000036
 20
175.92971700000001
 11
162.27840050000032
 21
175.92971700000001
  0
LINE
  8
_0-5_文字-記号
  6
CONTINUOUS
 62
    3
 10
172.97841550000032
 20
182.82972800000002
 11
176.64998150000042
 21
189.189066
  0
ARC
  8
_0-3_躯体と製品
  6
CONTINUOUS
 62
    2
 10
142.22837150000021
 20
177.8297199999999
 40
12.650017999999999
 50
187.68803699999989
 51
270.22646800000228
  0
ARC
  8
_0-3_躯体と製品
  6
CONTINUOUS
 62
    2
 10
142.22837150000021
 20
177.92971999999989
 40
12.950018999999999
 50
187.68803699999989
 51
270.22122100000098
  0
ARC
  8
_0-3_躯体と製品
  6
CONTINUOUS
 62
    2
 10
142.32837150000034
 20
177.8297199999999
 40
12.650017999999999
 50
269.77353599999537
 51
352.31196299999999
  0
ARC
  8
_0-3_躯体と製品
  6
CONTINUOUS
 62
    2
 10
142.32837150000034
 20
177.92971999999989
 40
12.950018999999999
 50
269.77878199999952
 51
352.31196299999999
  0
LINE
  8
_0-3_躯体と製品
  6
PLINE3
 62
    3
 10
142.27837250000039
 20
184.220787
 11
142.27837250000039
 21
163.27588299999991
  0
LINE
  8
_0-3_躯体と製品
  6
CONTINUOUS
 62
    2
 10
162.27840050000032
 20
177.92971999999989
 11
162.27840050000032
 21
162.14162999999999
  0
LINE
  8
_0-3_躯体と製品
  6
CONTINUOUS
 62
    2
 10
122.27834350000035
 20
177.92971999999989
 11
122.27834350000035
 21
162.14162999999999
  0
ARC
  8
_0-3_躯体と製品
  6
CONTINUOUS
 62
    2
 10
142.27837250000039
 20
-177.3745439999999
 40
359.30051299999991
 50
86.935958999998505
 51
89.952159999996425
  0
ARC
  8
_0-3_躯体と製品
  6
CONTINUOUS
 62
    2
 10
142.27837250000039
 20
-177.3745439999999
 40
359.94051400000001
 50
89.681635000002657
 51
89.840817999995451
  0
LINE
  8
_0-5_文字-記号
  6
CONTINUOUS
 62
    3
 10
143.1371455000002
 20
165.20558199999999
 11
146.0617335000004
 21
170.271117
  0
LINE
  8
_0-3_躯体と製品
  6
CONTINUOUS
 62
    3
 10
121.09740750000026
 20
175.92971700000001
 11
122.27834350000035
 21
177.1106529999999
  0
LINE
  8
_0-3_躯体と製品
  6
CONTINUOUS
 62
    3
 10
120.10745850000035
 20
175.92971700000001
 11
122.10746050000034
 21
177.92971999999989
  0
LINE
  8
_0-3_躯体と製品
  6
CONTINUOUS
 62
    3
 10
119.11750850000033
 20
175.92971700000001
 11
121.11751150000032
 21
177.92971999999989
  0
LINE
  8
_0-3_躯体と製品
  6
CONTINUOUS
 62
    3
 10
118.12755950000042
 20
175.92971700000001
 11
120.12756250000029
 21
177.92971999999989
  0
LINE
  8
_0-3_躯体と製品
  6
CONTINUOUS
 62
    3
 10
117.13760950000028
 20
175.92971700000001
 11
119.13761250000027
 21
177.92971999999989
  0
LINE
  8
_0-3_躯体と製品
  6
CONTINUOUS
 62
    3
 10
116.14766050000014
 20
175.92971700000001
 11
118.14766350000025
 21
177.92971999999989
  0
LINE
  8
_0-3_躯体と製品
  6
CONTINUOUS
 62
    3
 10
115.15771050000023
 20
175.92971700000001
 11
117.15771350000023
 21
177.92971999999989
  0
LINE
  8
_0-3_躯体と製品
  6
CONTINUOUS
 62
    3
 10
114.16776150000021
 20
175.92971700000001
 11
116.16776450000032
 21
177.92971999999989
  0
LINE
  8
_0-3_躯体と製品
  6
CONTINUOUS
 62
    3
 10
113.17781150000053
 20
175.92971700000001
 11
115.1778145000003
 21
177.92971999999989
  0
ARC
  8
_0-3_躯体と製品
  6
CONTINUOUS
 62
    2
 10
127.4127345000004
 20
175.92971700000001
 40
2.0000029999999991
 50
7.6880369999999543
 51
90
  0
ARC
  8
_0-3_躯体と製品
  6
CONTINUOUS
 62
    2
 10
127.4127345000004
 20
175.8297169999999
 40
2.3000029999999989
 50
7.6880369999999543
 51
90
  0
LINE
  8
_0-3_躯体と製品
  6
PLINE2
 62
    3
 10
114.27833250000026
 20
177.92971999999989
 11
114.47833250000019
 21
176.92971799999989
  0
LINE
  8
_0-3_躯体と製品
  6
PLINE2
 62
    3
 10
114.47833250000019
 20
177.92971999999989
 11
114.47833250000019
 21
176.3297179999999
  0
LINE
  8
_0-3_躯体と製品
  6
PLINE2
 62
    3
 10
115.27833350000037
 20
176.92971799999989
 11
115.27833350000037
 21
177.92971999999989
  0
LINE
  8
_0-3_躯体と製品
  6
PLINE2
 62
    3
 10
115.07833350000033
 20
177.92971999999989
 11
115.27833350000037
 21
176.92971799999989
  0
LINE
  8
_0-3_躯体と製品
  6
PLINE2
 62
    3
 10
115.47833450000041
 20
177.92971999999989
 11
115.27833350000037
 21
176.92971799999989
  0
LINE
  8
_0-3_躯体と製品
  6
PLINE2
 62
    3
 10
116.27833550000037
 20
177.92971999999989
 11
116.07833550000032
 21
176.92971799999989
  0
LINE
  8
_0-3_躯体と製品
  6
PLINE2
 62
    3
 10
116.07833550000032
 20
177.92971999999989
 11
116.07833550000032
 21
176.3297179999999
  0
LINE
  8
_0-3_躯体と製品
  6
PLINE3
 62
    3
 10
115.27833350000037
 20
169.19296099999991
 11
115.27833350000037
 21
179.93750500000002
  0
LINE
  8
_0-3_躯体と製品
  6
PLINE2
 62
    3
 10
115.70281750000015
 20
170.13820599999991
 11
115.37833450000039
 21
176.3297179999999
  0
LINE
  8
_0-3_躯体と製品
  6
PLINE2
 62
    3
 10
116.35999050000032
 20
170.97374600000001
 11
116.38092450000022
 21
170.57429300000001
  0
LINE
  8
_0-3_躯体と製品
  6
PLINE2
 62
    3
 10
114.85385050000025
 20
170.13820599999991
 11
115.17833350000024
 21
176.3297179999999
  0
LINE
  8
_0-3_躯体と製品
  6
PLINE2
 62
    3
 10
114.19667750000042
 20
170.97374600000001
 11
114.17574350000041
 21
170.57429300000001
  0
LINE
  8
_0-3_躯体と製品
  6
PLINE2
 62
    3
 10
116.00240650000035
 20
170.15390600000001
 11
115.70281750000015
 21
170.13820599999991
  0
LINE
  8
_0-3_躯体と製品
  6
PLINE2
 62
    3
 10
114.87478450000026
 20
170.53765799999991
 11
114.17574350000041
 21
170.57429300000001
  0
LINE
  8
_0-3_躯体と製品
  6
PLINE2
 62
    3
 10
114.17574350000041
 20
170.57429300000001
 11
114.55426150000039
 21
170.15390600000001
  0
LINE
  8
_0-3_躯体と製品
  6
PLINE2
 62
    3
 10
114.55426150000039
 20
170.15390600000001
 11
114.85385050000025
 21
170.13820599999991
  0
LINE
  8
_0-3_躯体と製品
  6
PLINE2
 62
    3
 10
115.68188250000014
 20
170.53765799999991
 11
116.38092450000022
 21
170.57429300000001
  0
LINE
  8
_0-3_躯体と製品
  6
PLINE2
 62
    3
 10
116.38092450000022
 20
170.57429300000001
 11
116.00240650000035
 21
170.15390600000001
  0
LINE
  8
_0-3_躯体と製品
  6
PLINE2
 62
    3
 10
116.07833550000032
 20
175.52971600000001
 11
116.07833550000032
 21
176.3297179999999
  0
LINE
  8
_0-3_躯体と製品
  6
PLINE2
 62
    3
 10
116.54205550000017
 20
174.90123600000001
 11
116.74052750000033
 21
176.26196200000001
  0
ARC
  8
_0-3_躯体と製品
  6
PLINE2
 62
    3
 10
116.66136450000033
 20
176.27350899999999
 40
0.08
 50
351.70153400000004
 51
81.869898000002124
  0
LINE
  8
_0-3_躯体と製品
  6
PLINE2
 62
    3
 10
116.6726785000003
 20
176.35270500000001
 11
116.63331350000033
 21
176.358328
  0
ARC
  8
_0-3_躯体と製品
  6
PLINE2
 62
    3
 10
116.62199950000036
 20
176.279132
 40
0.08
 50
81.869898000002095
 51
171.8698979999985
  0
LINE
  8
_0-3_躯体と製品
  6
PLINE2
 62
    3
 10
116.54280350000033
 20
176.29044599999989
 11
116.35411750000037
 21
174.96964
  0
LINE
  8
_0-3_躯体と製品
  6
PLINE2
 62
    3
 10
114.01461250000023
 20
174.90123600000001
 11
113.8161405000003
 21
176.26196200000001
  0
ARC
  8
_0-3_躯体と製品
  6
PLINE2
 62
    3
 10
113.89530350000041
 20
176.27350899999999
 40
0.08
 50
98.130101999997891
 51
188.29846599999979
  0
LINE
  8
_0-3_躯体と製品
  6
PLINE2
 62
    3
 10
113.88398950000033
 20
176.35270500000001
 11
113.9233545000003
 21
176.358328
  0
ARC
  8
_0-3_躯体と製品
  6
PLINE2
 62
    3
 10
113.93466750000039
 20
176.279132
 40
0.08
 50
8.1301020000014788
 51
98.130101999997905
  0
LINE
  8
_0-3_躯体と製品
  6
PLINE2
 62
    3
 10
114.01386450000041
 20
176.29044599999989
 11
114.20255050000026
 21
174.96964
  0
LINE
  8
_0-3_躯体と製品
  6
PLINE2
 62
    3
 10
114.01461250000023
 20
174.90123600000001
 11
113.8161405000003
 21
176.26196200000001
  0
ARC
  8
_0-3_躯体と製品
  6
PLINE2
 62
    3
 10
113.89530350000041
 20
176.27350899999999
 40
0.08
 50
98.130101999997891
 51
188.29846599999979
  0
LINE
  8
_0-3_躯体と製品
  6
PLINE2
 62
    3
 10
113.88398950000033
 20
176.35270500000001
 11
113.9233545000003
 21
176.358328
  0
ARC
  8
_0-3_躯体と製品
  6
PLINE2
 62
    3
 10
113.93466750000039
 20
176.279132
 40
0.08
 50
8.1301020000014788
 51
98.130101999997905
  0
LINE
  8
_0-3_躯体と製品
  6
PLINE2
 62
    3
 10
114.01386450000041
 20
176.29044599999989
 11
114.20255050000026
 21
174.96964
  0
LINE
  8
_0-3_躯体と製品
  6
PLINE2
 62
    3
 10
115.17833350000024
 20
176.3297179999999
 11
115.27833350000037
 21
176.3297179999999
  0
LINE
  8
_0-3_躯体と製品
  6
PLINE2
 62
    3
 10
115.37833450000039
 20
176.3297179999999
 11
115.27833350000037
 21
176.3297179999999
  0
LINE
  8
_0-3_躯体と製品
  6
PLINE2
 62
    3
 10
114.61706450000031
 20
171.35226399999999
 11
114.59612950000053
 21
170.95281199999999
  0
LINE
  8
_0-3_躯体と製品
  6
PLINE2
 62
    3
 10
114.59612950000053
 20
170.95281199999999
 11
114.19667750000042
 21
170.97374600000001
  0
LINE
  8
_0-3_躯体と製品
  6
PLINE2
 62
    3
 10
114.24901350000027
 20
171.97237699999999
 11
114.22807950000026
 21
171.572924
  0
LINE
  8
_0-3_躯体と製品
  6
PLINE2
 62
    3
 10
114.28041550000034
 20
172.57155499999999
 11
114.66940050000039
 21
172.35089500000001
  0
LINE
  8
_0-3_躯体と製品
  6
PLINE2
 62
    3
 10
114.66940050000039
 20
172.35089500000001
 11
114.64846550000038
 21
171.95144200000001
  0
LINE
  8
_0-3_躯体と製品
  6
PLINE2
 62
    3
 10
114.64846550000038
 20
171.95144200000001
 11
114.24901350000027
 21
171.97237699999999
  0
LINE
  8
_0-3_躯体と製品
  6
PLINE2
 62
    3
 10
114.30134950000024
 20
172.97100800000001
 11
114.28041550000034
 21
172.57155499999999
  0
LINE
  8
_0-3_躯体と製品
  6
PLINE2
 62
    3
 10
114.33275150000031
 20
173.57018600000001
 11
114.72173650000025
 21
173.349526
  0
LINE
  8
_0-3_躯体と製品
  6
PLINE2
 62
    3
 10
114.72173650000025
 20
173.349526
 11
114.70080150000035
 21
172.950073
  0
LINE
  8
_0-3_躯体と製品
  6
PLINE2
 62
    3
 10
114.70080150000035
 20
172.950073
 11
114.30134950000024
 21
172.97100800000001
  0
LINE
  8
_0-3_躯体と製品
  6
PLINE2
 62
    3
 10
114.35368550000021
 20
173.969639
 11
114.33275150000031
 21
173.57018600000001
  0
LINE
  8
_0-3_躯体と製品
  6
PLINE2
 62
    3
 10
114.3850875000004
 20
174.568817
 11
114.77407250000033
 21
174.34815700000001
  0
LINE
  8
_0-3_躯体と製品
  6
PLINE2
 62
    3
 10
114.77407250000033
 20
174.34815700000001
 11
114.75313750000032
 21
173.94870399999999
  0
LINE
  8
_0-3_躯体と製品
  6
PLINE2
 62
    3
 10
114.75313750000032
 20
173.94870399999999
 11
114.35368550000021
 21
173.969639
  0
LINE
  8
_0-3_躯体と製品
  6
PLINE2
 62
    3
 10
114.40602150000029
 20
174.96826999999999
 11
114.3850875000004
 21
174.568817
  0
LINE
  8
_0-3_躯体と製品
  6
PLINE2
 62
    3
 10
114.8264085000003
 20
175.34678699999989
 11
114.80547450000029
 21
174.9473349999999
  0
LINE
  8
_0-3_躯体と製品
  6
PLINE2
 62
    3
 10
114.80547450000029
 20
174.9473349999999
 11
114.40602150000029
 21
174.96826999999999
  0
LINE
  8
_0-3_躯体と製品
  6
PLINE2
 62
    3
 10
114.47833250000019
 20
175.52971600000001
 11
114.8264085000003
 21
175.34678699999989
  0
LINE
  8
_0-3_躯体と製品
  6
PLINE2
 62
    3
 10
116.32858850000036
 20
171.572924
 11
115.93960350000043
 21
171.35226399999999
  0
LINE
  8
_0-3_躯体と製品
  6
PLINE2
 62
    3
 10
115.93960350000043
 20
171.35226399999999
 11
115.96053850000021
 21
170.95281199999999
  0
LINE
  8
_0-3_躯体と製品
  6
PLINE2
 62
    3
 10
115.96053850000021
 20
170.95281199999999
 11
116.35999050000032
 21
170.97374600000001
  0
LINE
  8
_0-3_躯体と製品
  6
PLINE2
 62
    3
 10
116.30765450000024
 20
171.97237699999999
 11
116.32858850000036
 21
171.572924
  0
LINE
  8
_0-3_躯体と製品
  6
PLINE2
 62
    3
 10
116.27625250000028
 20
172.57155499999999
 11
115.88726750000023
 21
172.35089500000001
  0
LINE
  8
_0-3_躯体と製品
  6
PLINE2
 62
    3
 10
115.88726750000023
 20
172.35089500000001
 11
115.90820150000025
 21
171.95144200000001
  0
LINE
  8
_0-3_躯体と製品
  6
PLINE2
 62
    3
 10
115.90820150000025
 20
171.95144200000001
 11
116.30765450000024
 21
171.97237699999999
  0
LINE
  8
_0-3_躯体と製品
  6
PLINE2
 62
    3
 10
116.25531850000039
 20
172.97100800000001
 11
116.27625250000028
 21
172.57155499999999
  0
LINE
  8
_0-3_躯体と製品
  6
PLINE2
 62
    3
 10
116.22391650000031
 20
173.57018600000001
 11
115.83493150000015
 21
173.349526
  0
LINE
  8
_0-3_躯体と製品
  6
PLINE2
 62
    3
 10
115.83493150000015
 20
173.349526
 11
115.85586550000039
 21
172.950073
  0
LINE
  8
_0-3_躯体と製品
  6
PLINE2
 62
    3
 10
115.85586550000039
 20
172.950073
 11
116.25531850000039
 21
172.97100800000001
  0
LINE
  8
_0-3_躯体と製品
  6
PLINE2
 62
    3
 10
116.2029825000003
 20
173.969639
 11
116.22391650000031
 21
173.57018600000001
  0
LINE
  8
_0-3_躯体と製品
  6
PLINE2
 62
    3
 10
116.17158050000035
 20
174.568817
 11
115.7825955000003
 21
174.34815700000001
  0
LINE
  8
_0-3_躯体と製品
  6
PLINE2
 62
    3
 10
115.7825955000003
 20
174.34815700000001
 11
115.80352950000042
 21
173.94870399999999
  0
LINE
  8
_0-3_躯体と製品
  6
PLINE2
 62
    3
 10
115.80352950000042
 20
173.94870399999999
 11
116.2029825000003
 21
173.969639
  0
LINE
  8
_0-3_躯体と製品
  6
PLINE2
 62
    3
 10
116.15064650000033
 20
174.96826999999999
 11
116.17158050000035
 21
174.568817
  0
LINE
  8
_0-3_躯体と製品
  6
PLINE2
 62
    3
 10
115.73025950000033
 20
175.34678699999989
 11
115.75119350000034
 21
174.9473349999999
  0
LINE
  8
_0-3_躯体と製品
  6
PLINE2
 62
    3
 10
115.75119350000034
 20
174.9473349999999
 11
116.15064650000033
 21
174.96826999999999
  0
LINE
  8
_0-3_躯体と製品
  6
PLINE2
 62
    3
 10
115.29019550000032
 20
170.74157099999999
 11
114.90345450000052
 21
171.08470600000001
  0
LINE
  8
_0-3_躯体と製品
  6
PLINE2
 62
    3
 10
115.65222350000033
 20
171.103599
 11
115.27833350000037
 21
170.7297099999999
  0
LINE
  8
_0-3_躯体と製品
  6
PLINE2
 62
    3
 10
116.07833550000032
 20
175.52971600000001
 11
115.73025950000033
 21
175.34678699999989
  0
LINE
  8
_0-3_躯体と製品
  6
PLINE2
 62
    3
 10
114.35368550000021
 20
173.969639
 11
114.01461250000023
 21
174.90123600000001
  0
LINE
  8
_0-3_躯体と製品
  6
PLINE2
 62
    3
 10
114.56652150000025
 20
173.969639
 11
114.20255050000026
 21
174.96964
  0
LINE
  8
_0-3_躯体と製品
  6
PLINE2
 62
    3
 10
116.2029825000003
 20
173.969639
 11
116.54205550000017
 21
174.90123600000001
  0
LINE
  8
_0-3_躯体と製品
  6
PLINE2
 62
    3
 10
115.99014650000026
 20
173.969639
 11
116.35411750000037
 21
174.96964
  0
LINE
  8
_0-3_躯体と製品
  6
PLINE2
 62
    3
 10
114.47833250000019
 20
175.52971600000001
 11
114.47833250000019
 21
176.3297179999999
  0
LINE
  8
_0-3_躯体と製品
  6
PLINE2
 62
    3
 10
114.22807950000026
 20
171.572924
 11
114.61706450000031
 21
171.35226399999999
  0
CIRCLE
  8
_0-3_躯体と製品
  6
CONTINUOUS
 62
    3
 10
116.09903750000035
 20
170.76460199999991
 40
0.12
  0
LINE
  8
_0-3_躯体と製品
  6
CONTINUOUS
 62
    3
 10
122.08735750000017
 20
175.92971700000001
 11
122.27834350000035
 21
176.12070399999999
  0
CIRCLE
  8
_0-5_文字-記号
  6
CONTINUOUS
 62
    3
 10
143.1371455000002
 20
165.20558199999999
 40
0.2
  0
ARC
  8
_0-3_躯体と製品
  6
CONTINUOUS
 62
    2
 10
142.27837250000039
 20
-177.3745439999999
 40
359.30051299999991
 50
90.047839999997066
 51
93.064041000001509
  0
LINE
  8
_0-3_躯体と製品
  6
CONTINUOUS
 62
    2
 10
128.67835250000019
 20
180.079723
 11
128.37835250000035
 21
180.079723
  0
ARC
  8
_0-3_躯体と製品
  6
CONTINUOUS
 62
    2
 10
128.97835350000025
 20
181.079724
 40
0.600001
 50
0
 51
180
  0
ARC
  8
_0-3_躯体と製品
  6
CONTINUOUS
 62
    2
 10
142.27837250000039
 20
-177.3745439999999
 40
360.00051400000001
 50
92.126456999998524
 51
93.076585000001359
  0
LINE
  8
_0-3_躯体と製品
  6
CONTINUOUS
 62
    2
 10
127.17835050000042
 20
182.9297269999999
 11
128.92835250000041
 21
182.9297269999999
  0
ARC
  8
_0-3_躯体と製品
  6
CONTINUOUS
 62
    2
 10
128.07835150000028
 20
179.429722
 40
0.600001
 50
270
 51
359.99989699999873
  0
LINE
  8
_0-3_躯体と製品
  6
CONTINUOUS
 62
    2
 10
129.07835350000028
 20
178.12971999999999
 11
117.57833650000032
 21
178.12971999999999
  0
LINE
  8
_0-3_躯体と製品
  6
CONTINUOUS
 62
    2
 10
120.17834050000033
 20
182.86972700000001
 11
121.17834150000033
 21
182.86972700000001
  0
LINE
  8
_0-3_躯体と製品
  6
CONTINUOUS
 62
    2
 10
120.27834050000024
 20
178.82972100000001
 11
128.17835150000042
 21
178.82972100000001
  0
ARC
  8
_0-3_躯体と製品
  6
CONTINUOUS
 62
    2
 10
114.97778150000033
 20
178.90397999999999
 40
0.600001
 50
128.61463800000061
 51
177.54107400000063
  0
ARC
  8
_0-3_躯体と製品
  6
CONTINUOUS
 62
    2
 10
115.27833350000037
 20
178.529721
 40
1.0800019999999999
 50
90
 51
128.68218700000079
  0
ARC
  8
_0-3_躯体と製品
  6
CONTINUOUS
 62
    2
 10
115.27833350000037
 20
178.529721
 40
1.0800019999999999
 50
51.148938000002367
 51
90
  0
ARC
  8
_0-3_躯体と製品
  6
CONTINUOUS
 62
    2
 10
115.57888650000029
 20
178.90397999999999
 40
0.600001
 50
2.4589259999993982
 51
51.385361999999361
  0
LINE
  8
_0-3_躯体と製品
  6
CONTINUOUS
 62
    2
 10
117.07833650000043
 20
178.929721
 11
113.47833150000031
 21
178.929721
  0
LINE
  8
_0-3_躯体と製品
  6
CONTINUOUS
 62
    2
 10
113.47833150000031
 20
178.929721
 11
113.47833150000031
 21
178.62972099999999
  0
LINE
  8
_0-3_躯体と製品
  6
CONTINUOUS
 62
    2
 10
117.07833650000043
 20
178.929721
 11
117.07833650000043
 21
178.62972099999999
  0
LINE
  8
_0-3_躯体と製品
  6
CONTINUOUS
 62
    2
 10
114.17833150000024
 20
182.9297269999999
 11
114.17833150000024
 21
182.86972700000001
  0
LINE
  8
_0-3_躯体と製品
  6
CONTINUOUS
 62
    2
 10
114.17833150000024
 20
182.86972700000001
 11
115.17833350000024
 21
182.86972700000001
  0
LINE
  8
_0-3_躯体と製品
  6
CONTINUOUS
 62
    2
 10
115.17833350000024
 20
182.86972700000001
 11
115.17833350000024
 21
182.9297269999999
  0
LINE
  8
_0-3_躯体と製品
  6
CONTINUOUS
 62
    2
 10
115.17833350000024
 20
182.9297269999999
 11
117.17833650000023
 21
182.9297269999999
  0
LINE
  8
_0-3_躯体と製品
  6
CONTINUOUS
 62
    2
 10
117.17833650000023
 20
182.9297269999999
 11
117.17833650000023
 21
182.86972700000001
  0
LINE
  8
_0-3_躯体と製品
  6
CONTINUOUS
 62
    2
 10
117.17833650000023
 20
182.86972700000001
 11
118.17833750000034
 21
182.86972700000001
  0
LINE
  8
_0-3_躯体と製品
  6
CONTINUOUS
 62
    2
 10
118.17833750000034
 20
182.86972700000001
 11
118.17833750000034
 21
182.9297269999999
  0
LINE
  8
_0-3_躯体と製品
  6
CONTINUOUS
 62
    2
 10
118.17833750000034
 20
182.9297269999999
 11
120.17834050000033
 21
182.9297269999999
  0
LINE
  8
_0-3_躯体と製品
  6
CONTINUOUS
 62
    2
 10
120.17834050000033
 20
182.9297269999999
 11
120.17834050000033
 21
182.86972700000001
  0
LINE
  8
_0-3_躯体と製品
  6
CONTINUOUS
 62
    2
 10
118.77833850000025
 20
178.62972099999999
 11
120.27834050000024
 21
178.82972100000001
  0
LINE
  8
_0-3_躯体と製品
  6
CONTINUOUS
 62
    2
 10
113.77833150000038
 20
178.62972099999999
 11
113.77833150000038
 21
178.22972000000001
  0
LINE
  8
_0-3_躯体と製品
  6
CONTINUOUS
 62
    2
 10
116.77833550000037
 20
178.62972099999999
 11
116.77833550000037
 21
178.22972000000001
  0
LINE
  8
_0-3_躯体と製品
  6
CONTINUOUS
 62
    2
 10
115.37833350000028
 20
178.62972099999999
 11
118.77833850000025
 21
178.62972099999999
  0
LINE
  8
_0-3_躯体と製品
  6
CONTINUOUS
 62
    2
 10
113.97833150000019
 20
178.22972000000001
 11
113.97833150000019
 21
178.12971999999999
  0
LINE
  8
_0-3_躯体と製品
  6
CONTINUOUS
 62
    2
 10
116.57833550000032
 20
178.12971999999999
 11
116.57833550000032
 21
178.22972000000001
  0
LINE
  8
_0-3_躯体と製品
  6
CONTINUOUS
 62
    2
 10
116.57833550000032
 20
178.22972000000001
 11
117.57833650000032
 21
178.22972000000001
  0
LINE
  8
_0-3_躯体と製品
  6
CONTINUOUS
 62
    2
 10
117.57833650000032
 20
178.22972000000001
 11
117.57833650000032
 21
178.12971999999999
  0
LINE
  8
_0-3_躯体と製品
  6
CONTINUOUS
 62
    2
 10
113.97833150000019
 20
178.12971999999999
 11
116.57833550000032
 21
178.12971999999999
  0
LINE
  8
_0-3_躯体と製品
  6
CONTINUOUS
 62
    2
 10
115.37833350000028
 20
178.62972099999999
 11
115.27833350000037
 21
178.529721
  0
LINE
  8
_0-3_躯体と製品
  6
CONTINUOUS
 62
    2
 10
115.17833350000024
 20
178.62972099999999
 11
115.27833350000037
 21
178.529721
  0
LINE
  8
_0-3_躯体と製品
  6
CONTINUOUS
 62
    2
 10
122.41272750000019
 20
177.92971999999989
 11
122.27834350000035
 21
177.92971999999989
  0
LINE
  8
_0-3_躯体と製品
  6
CONTINUOUS
 62
    2
 10
128.37835250000035
 20
180.079723
 11
128.37835250000035
 21
181.079724
  0
LINE
  8
_0-3_躯体と製品
  6
CONTINUOUS
 62
    2
 10
122.57834350000041
 20
181.2072389999999
 11
122.57834350000041
 21
181.707673
  0
ARC
  8
_0-3_躯体と製品
  6
CONTINUOUS
 62
    2
 10
122.87834450000025
 20
181.2072389999999
 40
0.2999999999999999
 50
180
 51
270
  0
LINE
  8
_0-3_躯体と製品
  6
CONTINUOUS
 62
    2
 10
122.97834450000016
 20
180.90723800000001
 11
122.87834450000025
 21
180.90723800000001
  0
LINE
  8
_0-3_躯体と製品
  6
CONTINUOUS
 62
    2
 10
122.97834450000016
 20
180.90723800000001
 11
122.97834450000016
 21
181.31246100000001
  0
ARC
  8
_0-3_躯体と製品
  6
CONTINUOUS
 62
    2
 10
123.07834450000041
 20
181.31246100000001
 40
0.1
 50
93.064041000001495
 51
180
  0
ARC
  8
_0-3_躯体と製品
  6
CONTINUOUS
 62
    2
 10
122.97834450000016
 20
181.707673
 40
0.400001
 50
93.076585000001359
 51
180
  0
LINE
  8
_0-3_躯体と製品
  6
CONTINUOUS
 62
    2
 10
127.17835050000042
 20
182.86972700000001
 11
127.17835050000042
 21
182.9297269999999
  0
LINE
  8
_0-3_躯体と製品
  6
CONTINUOUS
 62
    2
 10
121.17834150000033
 20
182.86972700000001
 11
121.17834150000033
 21
182.9297269999999
  0
LINE
  8
_0-3_躯体と製品
  6
CONTINUOUS
 62
    2
 10
121.17834150000033
 20
182.9297269999999
 11
123.17834450000032
 21
182.9297269999999
  0
LINE
  8
_0-3_躯体と製品
  6
CONTINUOUS
 62
    2
 10
123.17834450000032
 20
182.9297269999999
 11
123.17834450000032
 21
182.86972700000001
  0
LINE
  8
_0-3_躯体と製品
  6
CONTINUOUS
 62
    2
 10
123.17834450000032
 20
182.86972700000001
 11
124.17834650000032
 21
182.86972700000001
  0
LINE
  8
_0-3_躯体と製品
  6
CONTINUOUS
 62
    2
 10
124.17834650000032
 20
182.86972700000001
 11
124.17834650000032
 21
182.9297269999999
  0
LINE
  8
_0-3_躯体と製品
  6
CONTINUOUS
 62
    2
 10
124.17834650000032
 20
182.9297269999999
 11
126.17834950000031
 21
182.9297269999999
  0
LINE
  8
_0-3_躯体と製品
  6
CONTINUOUS
 62
    2
 10
126.17834950000031
 20
182.9297269999999
 11
126.17834950000031
 21
182.86972700000001
  0
LINE
  8
_0-3_躯体と製品
  6
CONTINUOUS
 62
    2
 10
126.17834950000031
 20
182.86972700000001
 11
127.17835050000042
 21
182.86972700000001
  0
ARC
  8
_0-3_躯体と製品
  6
CONTINUOUS
 62
    2
 10
142.27837250000039
 20
-177.3745439999999
 40
360.00051400000001
 50
90.795799999995097
 51
92.107320999996645
  0
LINE
  8
_0-3_躯体と製品
  6
CONTINUOUS
 62
    2
 10
129.57835350000028
 20
180.079723
 11
129.27835350000032
 21
180.079723
  0
LINE
  8
_0-3_躯体と製品
  6
CONTINUOUS
 62
    2
 10
128.67835250000019
 20
181.079724
 11
128.67835350000053
 21
180.479724
  0
LINE
  8
_0-3_躯体と製品
  6
CONTINUOUS
 62
    2
 10
129.27835350000032
 20
181.079724
 11
129.27835350000032
 21
180.479724
  0
ARC
  8
_0-3_躯体と製品
  6
CONTINUOUS
 62
    2
 10
128.97835350000025
 20
181.079724
 40
0.34
 50
0
 51
180
  0
ARC
  8
_0-3_躯体と製品
  6
CONTINUOUS
 62
    2
 10
128.97835450000036
 20
181.079724
 40
0.299999
 50
0
 51
180
  0
LINE
  8
_0-3_躯体と製品
  6
CONTINUOUS
 62
    2
 10
128.67835350000053
 20
180.479724
 11
128.77835350000032
 21
180.479724
  0
LINE
  8
_0-3_躯体と製品
  6
CONTINUOUS
 62
    2
 10
128.77835350000032
 20
180.479724
 11
128.67835250000019
 21
180.079723
  0
LINE
  8
_0-3_躯体と製品
  6
CONTINUOUS
 62
    2
 10
129.27835350000032
 20
180.479724
 11
129.17835350000041
 21
180.479724
  0
LINE
  8
_0-3_躯体と製品
  6
CONTINUOUS
 62
    2
 10
129.17835350000041
 20
180.479724
 11
129.27835350000032
 21
180.079723
  0
LINE
  8
_0-3_躯体と製品
  6
CONTINUOUS
 62
    2
 10
128.67835350000053
 20
180.479724
 11
128.63835350000033
 21
180.479724
  0
LINE
  8
_0-3_躯体と製品
  6
CONTINUOUS
 62
    2
 10
128.63835350000033
 20
180.479724
 11
128.63835250000022
 21
181.079724
  0
LINE
  8
_0-3_躯体と製品
  6
CONTINUOUS
 62
    2
 10
129.27835350000032
 20
180.479724
 11
129.31835350000017
 21
180.479724
  0
LINE
  8
_0-3_躯体と製品
  6
CONTINUOUS
 62
    2
 10
129.31835350000017
 20
180.479724
 11
129.31835350000017
 21
181.079724
  0
LINE
  8
_0-3_躯体と製品
  6
CONTINUOUS
 62
    2
 10
128.92049650000024
 20
182.378062
 11
128.97835350000025
 21
182.32020500000002
  0
LINE
  8
_0-3_躯体と製品
  6
CONTINUOUS
 62
    2
 10
128.97835350000025
 20
182.32020500000002
 11
129.04065050000031
 21
182.38250300000001
  0
LINE
  8
_0-3_躯体と製品
  6
CONTINUOUS
 62
    2
 10
128.92835250000041
 20
182.9297269999999
 11
129.22835350000025
 21
182.629727
  0
LINE
  8
_0-3_躯体と製品
  6
CONTINUOUS
 62
    2
 10
129.22835350000025
 20
182.629727
 11
129.22835350000025
 21
182.32972599999999
  0
LINE
  8
_0-3_躯体と製品
  6
CONTINUOUS
 62
    2
 10
129.57835350000028
 20
181.079724
 11
129.57835350000028
 21
180.079723
  0
LINE
  8
_0-3_躯体と製品
  6
CONTINUOUS
 62
    2
 10
128.67835350000053
 20
180.079723
 11
128.67835250000019
 21
179.42972099999992
  0
ARC
  8
_0-3_躯体と製品
  6
CONTINUOUS
 62
    2
 10
129.07835350000028
 20
178.3297199999999
 40
0.2
 50
270
 51
0
  0
LINE
  8
_0-3_躯体と製品
  6
CONTINUOUS
 62
    2
 10
129.27835350000032
 20
180.079723
 11
129.27835350000032
 21
178.3297199999999
  0
ARC
  8
_0-3_躯体と製品
  6
CONTINUOUS
 62
    2
 10
142.27837250000039
 20
-177.3745439999999
 40
360.00051400000001
 50
90
 51
90.159154999999288
  0
ARC
  8
_0-3_躯体と製品
  6
CONTINUOUS
 62
    2
 10
142.27837250000039
 20
-177.3745439999999
 40
360.00051400000001
 50
90.318311999997306
 51
90.63663300000141
  0
ARC
  8
_0-3_躯体と製品
  6
CONTINUOUS
 62
    2
 10
142.27837250000039
 20
-177.3745439999999
 40
359.94051400000001
 50
90.159181999998069
 51
90.318364999997371
  0
ARC
  8
_0-3_躯体と製品
  6
CONTINUOUS
 62
    2
 10
142.27837250000039
 20
-177.3745439999999
 40
359.94051400000001
 50
90.636738999998499
 51
90.795932999997916
  0
LINE
  8
_0-3_躯体と製品
  6
CONTINUOUS
 62
    2
 10
137.27836450000041
 20
182.5912469999999
 11
137.27836450000041
 21
182.53124
  0
LINE
  8
_0-3_躯体と製品
  6
CONTINUOUS
 62
    2
 10
138.27836650000029
 20
182.603747
 11
138.27836650000029
 21
182.543744
  0
LINE
  8
_0-3_躯体と製品
  6
CONTINUOUS
 62
    2
 10
140.27836950000039
 20
182.62041500000001
 11
140.27836950000039
 21
182.56041400000001
  0
LINE
  8
_0-3_躯体と製品
  6
CONTINUOUS
 62
    2
 10
141.27837050000039
 20
182.564581
 11
141.27837050000039
 21
182.62458100000001
  0
ARC
  8
_0-3_躯体と製品
  6
CONTINUOUS
 62
    2
 10
142.27837250000039
 20
-177.3745439999999
 40
360.00051400000001
 50
89.840845000000712
 51
89.999999999999986
  0
LINE
  8
_0-3_躯体と製品
  6
CONTINUOUS
 62
    2
 10
143.27837350000027
 20
182.564581
 11
143.27837350000027
 21
182.62458100000001
  0
LINE
  8
_0-3_躯体と製品
  6
CONTINUOUS
 62
    2
 10
141.97837150000032
 20
181.92584400000001
 11
141.97837150000032
 21
180.225967
  0
LINE
  8
_0-3_躯体と製品
  6
CONTINUOUS
 62
    2
 10
142.57837250000034
 20
180.225967
 11
142.57837250000034
 21
181.92584400000001
  0
ARC
  8
_0-3_躯体と製品
  6
CONTINUOUS
 62
    2
 10
142.27837250000039
 20
180.225967
 40
0.2999999999999999
 50
180
 51
0
  0
LINE
  8
_0-3_躯体と製品
  6
CONTINUOUS
 62
    3
 10
162.27840050000032
 20
176.72868
 11
163.47944050000024
 21
177.92971999999989
  0
LINE
  8
_0-3_躯体と製品
  6
CONTINUOUS
 62
    3
 10
162.4693865000005
 20
175.92971700000001
 11
164.46938950000026
 21
177.92971999999989
  0
LINE
  8
_0-3_躯体と製品
  6
CONTINUOUS
 62
    3
 10
163.45933650000018
 20
175.92971700000001
 11
165.4593395000004
 21
177.92971999999989
  0
LINE
  8
_0-3_躯体と製品
  6
CONTINUOUS
 62
    3
 10
164.44928550000031
 20
175.92971700000001
 11
166.44928850000031
 21
177.92971999999989
  0
LINE
  8
_0-3_躯体と製品
  6
CONTINUOUS
 62
    3
 10
165.43923550000034
 20
175.92971700000001
 11
167.43923850000033
 21
177.92971999999989
  0
LINE
  8
_0-3_躯体と製品
  6
CONTINUOUS
 62
    3
 10
166.42918450000025
 20
175.92971700000001
 11
168.42918750000024
 21
177.92971999999989
  0
LINE
  8
_0-3_躯体と製品
  6
CONTINUOUS
 62
    3
 10
167.41913450000038
 20
175.92971700000001
 11
169.41913750000026
 21
177.92971999999989
  0
LINE
  8
_0-3_躯体と製品
  6
CONTINUOUS
 62
    3
 10
168.40908350000052
 20
175.92971700000001
 11
170.40908650000029
 21
177.92971999999989
  0
LINE
  8
_0-3_躯体と製品
  6
CONTINUOUS
 62
    3
 10
169.3990335000002
 20
175.92971700000001
 11
171.39903650000042
 21
177.92971999999989
  0
LINE
  8
_0-3_躯体と製品
  6
CONTINUOUS
 62
    3
 10
170.38898250000022
 20
175.92971700000001
 11
172.38898550000033
 21
177.92971999999989
  0
LINE
  8
_0-3_躯体と製品
  6
CONTINUOUS
 62
    3
 10
171.37893250000036
 20
175.92971700000001
 11
173.37893550000035
 21
177.92971999999989
  0
ARC
  8
_0-3_躯体と製品
  6
CONTINUOUS
 62
    2
 10
157.14400950000027
 20
175.92971700000001
 40
2.0000029999999991
 50
90
 51
172.31196299999999
  0
ARC
  8
_0-3_躯体と製品
  6
CONTINUOUS
 62
    2
 10
157.14400950000027
 20
175.8297169999999
 40
2.3000029999999989
 50
90
 51
172.31196299999999
  0
LINE
  8
_0-3_躯体と製品
  6
PLINE2
 62
    3
 10
170.2784115000004
 20
177.92971999999989
 11
170.07841150000024
 21
176.92971799999989
  0
LINE
  8
_0-3_躯体と製品
  6
PLINE2
 62
    3
 10
170.07841150000024
 20
177.92971999999989
 11
170.07841150000024
 21
176.3297179999999
  0
LINE
  8
_0-3_躯体と製品
  6
PLINE2
 62
    3
 10
169.27841050000029
 20
176.92971799999989
 11
169.27841050000029
 21
177.92971999999989
  0
LINE
  8
_0-3_躯体と製品
  6
PLINE2
 62
    3
 10
169.47841050000034
 20
177.92971999999989
 11
169.27841050000029
 21
176.92971799999989
  0
LINE
  8
_0-3_躯体と製品
  6
PLINE2
 62
    3
 10
169.07840950000025
 20
177.92971999999989
 11
169.27841050000029
 21
176.92971799999989
  0
LINE
  8
_0-3_躯体と製品
  6
PLINE2
 62
    3
 10
168.2784085000003
 20
177.92971999999989
 11
168.47840950000023
 21
176.92971799999989
  0
LINE
  8
_0-3_躯体と製品
  6
PLINE2
 62
    3
 10
168.47840950000023
 20
177.92971999999989
 11
168.47840950000023
 21
176.3297179999999
  0
LINE
  8
_0-3_躯体と製品
  6
PLINE3
 62
    3
 10
169.27841050000029
 20
169.19296099999991
 11
169.27841050000029
 21
179.93750500000002
  0
CIRCLE
  8
_0-5_文字-記号
  6
CONTINUOUS
 62
    3
 10
146.81173450000028
 20
171.57015699999999
 40
1.5000020000000001
  0
TEXT
  8
_0-5_文字-記号
 62
    7
 10
146.06507183333349
 20
170.790153
 40
2
 41
0.8
 50
0
  1
４
  0
LINE
  8
_0-3_躯体と製品
  6
PLINE2
 62
    3
 10
168.85392650000051
 20
170.13820599999991
 11
169.17841050000027
 21
176.3297179999999
  0
LINE
  8
_0-3_躯体と製品
  6
PLINE2
 62
    3
 10
168.19675350000034
 20
170.97374600000001
 11
168.17581950000033
 21
170.57429300000001
  0
LINE
  8
_0-3_躯体と製品
  6
PLINE2
 62
    3
 10
169.70289350000019
 20
170.13820599999991
 11
169.3784105000002
 21
176.3297179999999
  0
LINE
  8
_0-3_躯体と製品
  6
PLINE2
 62
    3
 10
170.36006650000024
 20
170.97374600000001
 11
170.38100150000037
 21
170.57429300000001
  0
LINE
  8
_0-3_躯体と製品
  6
PLINE2
 62
    3
 10
168.55433750000032
 20
170.15390600000001
 11
168.85392650000051
 21
170.13820599999991
  0
LINE
  8
_0-3_躯体と製品
  6
PLINE2
 62
    3
 10
169.6819595000004
 20
170.53765799999991
 11
170.38100150000037
 21
170.57429300000001
  0
LINE
  8
_0-3_躯体と製品
  6
PLINE2
 62
    3
 10
170.38100150000037
 20
170.57429300000001
 11
170.00248250000027
 21
170.15390600000001
  0
LINE
  8
_0-3_躯体と製品
  6
PLINE2
 62
    3
 10
170.00248250000027
 20
170.15390600000001
 11
169.70289350000019
 21
170.13820599999991
  0
LINE
  8
_0-3_躯体と製品
  6
PLINE2
 62
    3
 10
168.87486150000029
 20
170.53765799999991
 11
168.17581950000033
 21
170.57429300000001
  0
LINE
  8
_0-3_躯体と製品
  6
PLINE2
 62
    3
 10
168.17581950000033
 20
170.57429300000001
 11
168.55433750000032
 21
170.15390600000001
  0
LINE
  8
_0-3_躯体と製品
  6
PLINE2
 62
    3
 10
168.47840950000023
 20
175.52971600000001
 11
168.47840950000023
 21
176.3297179999999
  0
LINE
  8
_0-3_躯体と製品
  6
PLINE2
 62
    3
 10
168.01468850000037
 20
174.90123600000001
 11
167.81621650000022
 21
176.26196200000001
  0
ARC
  8
_0-3_躯体と製品
  6
PLINE2
 62
    3
 10
167.89537950000033
 20
176.27350899999999
 40
0.08
 50
98.130101999997891
 51
188.29846599999979
  0
LINE
  8
_0-3_躯体と製品
  6
PLINE2
 62
    3
 10
167.88406550000036
 20
176.35270500000001
 11
167.92343050000022
 21
176.358328
  0
ARC
  8
_0-3_躯体と製品
  6
PLINE2
 62
    3
 10
167.93474450000031
 20
176.279132
 40
0.08
 50
8.1301020000014788
 51
98.130101999997905
  0
LINE
  8
_0-3_躯体と製品
  6
PLINE2
 62
    3
 10
168.01394050000033
 20
176.29044599999989
 11
168.2026275000004
 21
174.96964
  0
LINE
  8
_0-3_躯体と製品
  6
PLINE2
 62
    3
 10
170.54213250000032
 20
174.90123600000001
 11
170.74060350000025
 21
176.26196200000001
  0
ARC
  8
_0-3_躯体と製品
  6
PLINE2
 62
    3
 10
170.66144150000036
 20
176.27350899999999
 40
0.08
 50
351.70153400000004
 51
81.869898000002124
  0
LINE
  8
_0-3_躯体と製品
  6
PLINE2
 62
    3
 10
170.67275450000022
 20
176.35270500000001
 11
170.63338950000036
 21
176.358328
  0
ARC
  8
_0-3_躯体と製品
  6
PLINE2
 62
    3
 10
170.62207650000028
 20
176.279132
 40
0.08
 50
81.869898000002095
 51
171.8698979999985
  0
LINE
  8
_0-3_躯体と製品
  6
PLINE2
 62
    3
 10
170.54288050000036
 20
176.29044599999989
 11
170.35419350000018
 21
174.96964
  0
LINE
  8
_0-3_躯体と製品
  6
PLINE2
 62
    3
 10
170.54213250000032
 20
174.90123600000001
 11
170.74060350000025
 21
176.26196200000001
  0
ARC
  8
_0-3_躯体と製品
  6
PLINE2
 62
    3
 10
170.66144150000036
 20
176.27350899999999
 40
0.08
 50
351.70153400000004
 51
81.869898000002124
  0
LINE
  8
_0-3_躯体と製品
  6
PLINE2
 62
    3
 10
170.67275450000022
 20
176.35270500000001
 11
170.63338950000036
 21
176.358328
  0
ARC
  8
_0-3_躯体と製品
  6
PLINE2
 62
    3
 10
170.62207650000028
 20
176.279132
 40
0.08
 50
81.869898000002095
 51
171.8698979999985
  0
LINE
  8
_0-3_躯体と製品
  6
PLINE2
 62
    3
 10
170.54288050000036
 20
176.29044599999989
 11
170.35419350000018
 21
174.96964
  0
LINE
  8
_0-3_躯体と製品
  6
PLINE2
 62
    3
 10
169.3784105000002
 20
176.3297179999999
 11
169.27841050000029
 21
176.3297179999999
  0
LINE
  8
_0-3_躯体と製品
  6
PLINE2
 62
    3
 10
169.17841050000027
 20
176.3297179999999
 11
169.27841050000029
 21
176.3297179999999
  0
LINE
  8
_0-3_躯体と製品
  6
PLINE2
 62
    3
 10
169.93967950000035
 20
171.35226399999999
 11
169.96061450000036
 21
170.95281199999999
  0
LINE
  8
_0-3_躯体と製品
  6
PLINE2
 62
    3
 10
169.96061450000036
 20
170.95281199999999
 11
170.36006650000024
 21
170.97374600000001
  0
LINE
  8
_0-3_躯体と製品
  6
PLINE2
 62
    3
 10
170.30773050000039
 20
171.97237699999999
 11
170.32866450000017
 21
171.572924
  0
LINE
  8
_0-3_躯体と製品
  6
PLINE2
 62
    3
 10
170.27632850000032
 20
172.57155499999999
 11
169.88734350000027
 21
172.35089500000001
  0
LINE
  8
_0-3_躯体と製品
  6
PLINE2
 62
    3
 10
169.88734350000027
 20
172.35089500000001
 11
169.90827850000028
 21
171.95144200000001
  0
LINE
  8
_0-3_躯体と製品
  6
PLINE2
 62
    3
 10
169.90827850000028
 20
171.95144200000001
 11
170.30773050000039
 21
171.97237699999999
  0
LINE
  8
_0-3_躯体と製品
  6
PLINE2
 62
    3
 10
170.25539450000042
 20
172.97100800000001
 11
170.27632850000032
 21
172.57155499999999
  0
LINE
  8
_0-3_躯体と製品
  6
PLINE2
 62
    3
 10
170.22399250000035
 20
173.57018600000001
 11
169.83500750000019
 21
173.349526
  0
LINE
  8
_0-3_躯体と製品
  6
PLINE2
 62
    3
 10
169.83500750000019
 20
173.349526
 11
169.85594250000031
 21
172.950073
  0
LINE
  8
_0-3_躯体と製品
  6
PLINE2
 62
    3
 10
169.85594250000031
 20
172.950073
 11
170.25539450000042
 21
172.97100800000001
  0
LINE
  8
_0-3_躯体と製品
  6
PLINE2
 62
    3
 10
170.20305850000022
 20
173.969639
 11
170.22399250000035
 21
173.57018600000001
  0
LINE
  8
_0-3_躯体と製品
  6
PLINE2
 62
    3
 10
170.17165650000027
 20
174.568817
 11
169.78267150000022
 21
174.34815700000001
  0
LINE
  8
_0-3_躯体と製品
  6
PLINE2
 62
    3
 10
169.78267150000022
 20
174.34815700000001
 11
169.80360650000034
 21
173.94870399999999
  0
LINE
  8
_0-3_躯体と製品
  6
PLINE2
 62
    3
 10
169.80360650000034
 20
173.94870399999999
 11
170.20305850000022
 21
173.969639
  0
LINE
  8
_0-3_躯体と製品
  6
PLINE2
 62
    3
 10
170.15072250000037
 20
174.96826999999999
 11
170.17165650000027
 21
174.568817
  0
LINE
  8
_0-3_躯体と製品
  6
PLINE2
 62
    3
 10
169.73033550000036
 20
175.34678699999989
 11
169.75127050000026
 21
174.9473349999999
  0
LINE
  8
_0-3_躯体と製品
  6
PLINE2
 62
    3
 10
169.75127050000026
 20
174.9473349999999
 11
170.15072250000037
 21
174.96826999999999
  0
LINE
  8
_0-3_躯体と製品
  6
PLINE2
 62
    3
 10
170.07841150000024
 20
175.52971600000001
 11
169.73033550000036
 21
175.34678699999989
  0
LINE
  8
_0-3_躯体と製品
  6
PLINE2
 62
    3
 10
168.22815550000053
 20
171.572924
 11
168.61714050000023
 21
171.35226399999999
  0
LINE
  8
_0-3_躯体と製品
  6
PLINE2
 62
    3
 10
168.61714050000023
 20
171.35226399999999
 11
168.59620650000033
 21
170.95281199999999
  0
LINE
  8
_0-3_躯体と製品
  6
PLINE2
 62
    3
 10
168.59620650000033
 20
170.95281199999999
 11
168.19675350000034
 21
170.97374600000001
  0
LINE
  8
_0-3_躯体と製品
  6
PLINE2
 62
    3
 10
168.24908950000031
 20
171.97237699999999
 11
168.22815550000053
 21
171.572924
  0
LINE
  8
_0-3_躯体と製品
  6
PLINE2
 62
    3
 10
168.28049150000038
 20
172.57155499999999
 11
168.66947650000043
 21
172.35089500000001
  0
LINE
  8
_0-3_躯体と製品
  6
PLINE2
 62
    3
 10
168.66947650000043
 20
172.35089500000001
 11
168.64854250000019
 21
171.95144200000001
  0
LINE
  8
_0-3_躯体と製品
  6
PLINE2
 62
    3
 10
168.64854250000019
 20
171.95144200000001
 11
168.24908950000031
 21
171.97237699999999
  0
LINE
  8
_0-3_躯体と製品
  6
PLINE2
 62
    3
 10
168.30142650000039
 20
172.97100800000001
 11
168.28049150000038
 21
172.57155499999999
  0
LINE
  8
_0-3_躯体と製品
  6
PLINE2
 62
    3
 10
168.33282750000023
 20
173.57018600000001
 11
168.72181250000051
 21
173.349526
  0
LINE
  8
_0-3_躯体と製品
  6
PLINE2
 62
    3
 10
168.72181250000051
 20
173.349526
 11
168.70087850000027
 21
172.950073
  0
LINE
  8
_0-3_躯体と製品
  6
PLINE2
 62
    3
 10
168.70087850000027
 20
172.950073
 11
168.30142650000039
 21
172.97100800000001
  0
LINE
  8
_0-3_躯体と製品
  6
PLINE2
 62
    3
 10
168.35376250000024
 20
173.969639
 11
168.33282750000023
 21
173.57018600000001
  0
LINE
  8
_0-3_躯体と製品
  6
PLINE2
 62
    3
 10
168.38516350000032
 20
174.568817
 11
168.77414850000036
 21
174.34815700000001
  0
LINE
  8
_0-3_躯体と製品
  6
PLINE2
 62
    3
 10
168.77414850000036
 20
174.34815700000001
 11
168.75321450000035
 21
173.94870399999999
  0
LINE
  8
_0-3_躯体と製品
  6
PLINE2
 62
    3
 10
168.75321450000035
 20
173.94870399999999
 11
168.35376250000024
 21
173.969639
  0
LINE
  8
_0-3_躯体と製品
  6
PLINE2
 62
    3
 10
168.40609750000033
 20
174.96826999999999
 11
168.38516350000032
 21
174.568817
  0
LINE
  8
_0-3_躯体と製品
  6
PLINE2
 62
    3
 10
168.82648450000022
 20
175.34678699999989
 11
168.80555050000032
 21
174.9473349999999
  0
LINE
  8
_0-3_躯体と製品
  6
PLINE2
 62
    3
 10
168.80555050000032
 20
174.9473349999999
 11
168.40609750000033
 21
174.96826999999999
  0
LINE
  8
_0-3_躯体と製品
  6
PLINE2
 62
    3
 10
169.26654950000022
 20
170.74157099999999
 11
169.65328950000014
 21
171.08470600000001
  0
LINE
  8
_0-3_躯体と製品
  6
PLINE2
 62
    3
 10
168.90452050000033
 20
171.103599
 11
169.27841050000029
 21
170.7297099999999
  0
LINE
  8
_0-3_躯体と製品
  6
PLINE2
 62
    3
 10
168.47840950000023
 20
175.52971600000001
 11
168.82648450000022
 21
175.34678699999989
  0
LINE
  8
_0-3_躯体と製品
  6
PLINE2
 62
    3
 10
170.20305850000022
 20
173.969639
 11
170.54213250000032
 21
174.90123600000001
  0
LINE
  8
_0-3_躯体と製品
  6
PLINE2
 62
    3
 10
169.99022250000019
 20
173.969639
 11
170.35419350000018
 21
174.96964
  0
LINE
  8
_0-3_躯体と製品
  6
PLINE2
 62
    3
 10
168.35376250000024
 20
173.969639
 11
168.01468850000037
 21
174.90123600000001
  0
LINE
  8
_0-3_躯体と製品
  6
PLINE2
 62
    3
 10
168.5665975000004
 20
173.969639
 11
168.2026275000004
 21
174.96964
  0
LINE
  8
_0-3_躯体と製品
  6
PLINE2
 62
    3
 10
170.07841150000024
 20
175.52971600000001
 11
170.07841150000024
 21
176.3297179999999
  0
LINE
  8
_0-3_躯体と製品
  6
PLINE2
 62
    3
 10
170.32866450000017
 20
171.572924
 11
169.93967950000035
 21
171.35226399999999
  0
CIRCLE
  8
_0-3_躯体と製品
  6
CONTINUOUS
 62
    3
 10
168.45770650000031
 20
170.76460199999991
 40
0.12
  0
ARC
  8
_0-3_躯体と製品
  6
CONTINUOUS
 62
    2
 10
142.27837250000039
 20
-177.3745439999999
 40
360.00051400000001
 50
86.923414999998656
 51
87.87354300000149
  0
LINE
  8
_0-3_躯体と製品
  6
CONTINUOUS
 62
    2
 10
160.37839750000035
 20
182.9297269999999
 11
158.37839550000024
 21
182.9297269999999
  0
LINE
  8
_0-3_躯体と製品
  6
CONTINUOUS
 62
    2
 10
164.27840350000042
 20
178.82972100000001
 11
156.37839250000025
 21
178.82972100000001
  0
LINE
  8
_0-3_躯体と製品
  6
CONTINUOUS
 62
    2
 10
155.47839050000039
 20
178.12971999999999
 11
166.97840750000023
 21
178.12971999999999
  0
LINE
  8
_0-5_文字-記号
  6
CONTINUOUS
 62
    3
 10
158.61339150000026
 20
178.82972100000001
 11
163.48426150000034
 21
187.2663159999999
  0
LINE
  8
_0-5_文字-記号
  6
CONTINUOUS
 62
    3
 10
147.27837950000026
 20
182.5912459999999
 11
149.79331250000052
 21
186.947239
  0
ARC
  8
_0-3_躯体と製品
  6
CONTINUOUS
 62
    2
 10
142.27837250000039
 20
-177.3745439999999
 40
360.00051400000001
 50
87.892679000003369
 51
89.20419999999838
  0
ARC
  8
_0-3_躯体と製品
  6
CONTINUOUS
 62
    2
 10
142.27837250000039
 20
-177.3745439999999
 40
360.00051400000001
 50
89.36336699999859
 51
89.681688000002694
  0
ARC
  8
_0-3_躯体と製品
  6
CONTINUOUS
 62
    2
 10
142.27837250000039
 20
-177.3745439999999
 40
359.94051400000001
 50
89.204067000002098
 51
89.363261000001501
  0
LINE
  8
_0-3_躯体と製品
  6
CONTINUOUS
 62
    2
 10
147.27837950000026
 20
182.5912469999999
 11
147.27837950000026
 21
182.53124
  0
LINE
  8
_0-3_躯体と製品
  6
CONTINUOUS
 62
    2
 10
146.27837750000037
 20
182.603747
 11
146.27837750000037
 21
182.543744
  0
LINE
  8
_0-3_躯体と製品
  6
CONTINUOUS
 62
    2
 10
144.27837450000027
 20
182.62041500000001
 11
144.27837450000027
 21
182.56041400000001
  0
CIRCLE
  8
_0-5_文字-記号
  6
CONTINUOUS
 62
    3
 10
147.27837950000026
 20
182.5912459999999
 40
0.2
  0
LINE
  8
_0-3_躯体と製品
  6
CONTINUOUS
 62
    2
 10
154.97839050000027
 20
180.079723
 11
155.27839050000034
 21
180.079723
  0
LINE
  8
_0-3_躯体と製品
  6
CONTINUOUS
 62
    2
 10
155.87839150000025
 20
180.079723
 11
156.17839150000032
 21
180.079723
  0
LINE
  8
_0-3_躯体と製品
  6
CONTINUOUS
 62
    2
 10
156.17839150000032
 20
180.079723
 11
156.17839150000032
 21
181.079724
  0
LINE
  8
_0-3_躯体と製品
  6
CONTINUOUS
 62
    2
 10
155.87839150000025
 20
181.079724
 11
155.87839050000036
 21
180.479724
  0
LINE
  8
_0-3_躯体と製品
  6
CONTINUOUS
 62
    2
 10
155.27839050000034
 20
181.079724
 11
155.27839050000034
 21
180.479724
  0
ARC
  8
_0-3_躯体と製品
  6
CONTINUOUS
 62
    2
 10
155.57839150000052
 20
181.079724
 40
0.34
 50
0
 51
180
  0
ARC
  8
_0-3_躯体と製品
  6
CONTINUOUS
 62
    2
 10
155.57838950000053
 20
181.079724
 40
0.299999
 50
0
 51
180
  0
ARC
  8
_0-3_躯体と製品
  6
CONTINUOUS
 62
    2
 10
155.57839150000052
 20
181.079724
 40
0.600001
 50
0
 51
180
  0
LINE
  8
_0-3_躯体と製品
  6
CONTINUOUS
 62
    2
 10
155.87839050000036
 20
180.479724
 11
155.77839050000023
 21
180.479724
  0
LINE
  8
_0-3_躯体と製品
  6
CONTINUOUS
 62
    2
 10
155.77839050000023
 20
180.479724
 11
155.87839150000025
 21
180.079723
  0
LINE
  8
_0-3_躯体と製品
  6
CONTINUOUS
 62
    2
 10
155.27839050000034
 20
180.479724
 11
155.37839050000025
 21
180.479724
  0
LINE
  8
_0-3_躯体と製品
  6
CONTINUOUS
 62
    2
 10
155.37839050000025
 20
180.479724
 11
155.27839150000023
 21
180.079723
  0
LINE
  8
_0-3_躯体と製品
  6
CONTINUOUS
 62
    2
 10
155.87839050000036
 20
180.479724
 11
155.91839050000033
 21
180.479724
  0
LINE
  8
_0-3_躯体と製品
  6
CONTINUOUS
 62
    2
 10
155.91839050000033
 20
180.479724
 11
155.91839150000033
 21
181.079724
  0
LINE
  8
_0-3_躯体と製品
  6
CONTINUOUS
 62
    2
 10
155.27839150000023
 20
180.479724
 11
155.23839050000049
 21
180.479724
  0
LINE
  8
_0-3_躯体と製品
  6
CONTINUOUS
 62
    2
 10
155.23839050000049
 20
180.479724
 11
155.23839050000049
 21
181.079724
  0
LINE
  8
_0-3_躯体と製品
  6
CONTINUOUS
 62
    2
 10
155.63624750000042
 20
182.378062
 11
155.57839150000052
 21
182.32020500000002
  0
LINE
  8
_0-3_躯体と製品
  6
CONTINUOUS
 62
    2
 10
155.57839150000052
 20
182.32020500000002
 11
155.51609350000024
 21
182.38250300000001
  0
LINE
  8
_0-3_躯体と製品
  6
CONTINUOUS
 62
    2
 10
155.62839150000025
 20
182.9297269999999
 11
155.32839050000018
 21
182.629727
  0
LINE
  8
_0-3_躯体と製品
  6
CONTINUOUS
 62
    2
 10
155.32839050000018
 20
182.629727
 11
155.32839050000018
 21
182.32972599999999
  0
LINE
  8
_0-3_躯体と製品
  6
CONTINUOUS
 62
    2
 10
157.37839350000024
 20
182.86972700000001
 11
157.37839350000024
 21
182.9297269999999
  0
LINE
  8
_0-3_躯体と製品
  6
CONTINUOUS
 62
    2
 10
157.37839350000024
 20
182.9297269999999
 11
155.62839150000025
 21
182.9297269999999
  0
LINE
  8
_0-3_躯体と製品
  6
CONTINUOUS
 62
    2
 10
154.97839050000027
 20
181.079724
 11
154.97839050000027
 21
180.079723
  0
LINE
  8
_0-3_躯体と製品
  6
CONTINUOUS
 62
    2
 10
158.37839550000024
 20
182.9297269999999
 11
158.37839550000024
 21
182.86972700000001
  0
LINE
  8
_0-3_躯体と製品
  6
CONTINUOUS
 62
    2
 10
158.37839550000024
 20
182.86972700000001
 11
157.37839350000024
 21
182.86972700000001
  0
ARC
  8
_0-3_躯体と製品
  6
CONTINUOUS
 62
    2
 10
156.47839250000038
 20
179.429722
 40
0.600001
 50
180.00010300000119
 51
270
  0
LINE
  8
_0-3_躯体と製品
  6
CONTINUOUS
 62
    2
 10
155.87839050000036
 20
180.079723
 11
155.87839150000025
 21
179.42972099999992
  0
ARC
  8
_0-3_躯体と製品
  6
CONTINUOUS
 62
    2
 10
155.47839050000039
 20
178.3297199999999
 40
0.2
 50
180
 51
270
  0
LINE
  8
_0-3_躯体と製品
  6
CONTINUOUS
 62
    2
 10
155.27839050000034
 20
180.079723
 11
155.27839050000034
 21
178.3297199999999
  0
CIRCLE
  8
_0-5_文字-記号
  6
CONTINUOUS
 62
    3
 10
158.61339150000026
 20
178.82972100000001
 40
0.2
  0
TEXT
  8
_0-5_文字-記号
 62
    7
 10
149.84998816666689
 20
187.46627000000001
 40
2
 41
0.8
 50
0
  1
２
  0
LINE
  8
_0-5_文字-記号
  6
CONTINUOUS
 62
    3
 10
166.37840650000032
 20
182.86972700000001
 11
169.00243850000038
 21
187.41468399999999
  0
LINE
  8
_0-3_躯体と製品
  6
CONTINUOUS
 62
    2
 10
167.37840750000032
 20
182.86972700000001
 11
166.37840650000032
 21
182.86972700000001
  0
LINE
  8
_0-3_躯体と製品
  6
CONTINUOUS
 62
    2
 10
169.17841050000027
 20
178.62972099999999
 11
165.77840550000042
 21
178.62972099999999
  0
LINE
  8
_0-3_躯体と製品
  6
CONTINUOUS
 62
    3
 10
162.27840050000032
 20
177.71862899999991
 11
162.48949050000033
 21
177.92971999999989
  0
LINE
  8
_0-3_躯体と製品
  6
CONTINUOUS
 62
    2
 10
162.14401650000025
 20
177.92971999999989
 11
162.27840050000032
 21
177.92971999999989
  0
LINE
  8
_0-3_躯体と製品
  6
CONTINUOUS
 62
    2
 10
161.97840050000025
 20
181.2072389999999
 11
161.97840050000025
 21
181.707673
  0
ARC
  8
_0-3_躯体と製品
  6
CONTINUOUS
 62
    2
 10
161.67839950000018
 20
181.2072389999999
 40
0.2999999999999999
 50
270
 51
0
  0
LINE
  8
_0-3_躯体と製品
  6
CONTINUOUS
 62
    2
 10
161.5783995000005
 20
180.90723800000001
 11
161.67839950000018
 21
180.90723800000001
  0
LINE
  8
_0-3_躯体と製品
  6
CONTINUOUS
 62
    2
 10
161.5783995000005
 20
180.90723800000001
 11
161.5783995000005
 21
181.31246100000001
  0
ARC
  8
_0-3_躯体と製品
  6
CONTINUOUS
 62
    2
 10
161.47839950000025
 20
181.31246100000001
 40
0.1
 50
0
 51
86.935958999998505
  0
ARC
  8
_0-3_躯体と製品
  6
CONTINUOUS
 62
    2
 10
161.5783995000005
 20
181.707673
 40
0.400001
 50
0
 51
86.923414999998656
  0
LINE
  8
_0-3_躯体と製品
  6
CONTINUOUS
 62
    2
 10
166.37840650000032
 20
182.86972700000001
 11
166.37840650000032
 21
182.9297269999999
  0
LINE
  8
_0-3_躯体と製品
  6
CONTINUOUS
 62
    2
 10
166.37840650000032
 20
182.9297269999999
 11
164.37840350000033
 21
182.9297269999999
  0
LINE
  8
_0-3_躯体と製品
  6
CONTINUOUS
 62
    2
 10
164.37840350000033
 20
182.9297269999999
 11
164.37840350000033
 21
182.86972700000001
  0
LINE
  8
_0-3_躯体と製品
  6
CONTINUOUS
 62
    2
 10
164.37840350000033
 20
182.86972700000001
 11
163.37840250000033
 21
182.86972700000001
  0
LINE
  8
_0-3_躯体と製品
  6
CONTINUOUS
 62
    2
 10
163.37840250000033
 20
182.86972700000001
 11
163.37840250000033
 21
182.9297269999999
  0
LINE
  8
_0-3_躯体と製品
  6
CONTINUOUS
 62
    2
 10
163.37840250000033
 20
182.9297269999999
 11
161.37839950000034
 21
182.9297269999999
  0
LINE
  8
_0-3_躯体と製品
  6
CONTINUOUS
 62
    2
 10
161.37839950000034
 20
182.9297269999999
 11
161.37839950000034
 21
182.86972700000001
  0
LINE
  8
_0-3_躯体と製品
  6
CONTINUOUS
 62
    2
 10
161.37839950000034
 20
182.86972700000001
 11
160.37839750000035
 21
182.86972700000001
  0
LINE
  8
_0-3_躯体と製品
  6
CONTINUOUS
 62
    2
 10
160.37839750000035
 20
182.86972700000001
 11
160.37839750000035
 21
182.9297269999999
  0
LINE
  8
_0-3_躯体と製品
  6
CONTINUOUS
 62
    2
 10
165.77840550000042
 20
178.62972099999999
 11
164.27840350000042
 21
178.82972100000001
  0
CIRCLE
  8
_0-5_文字-記号
  6
CONTINUOUS
 62
    3
 10
166.37840650000032
 20
182.86972700000001
 40
0.2
  0
LINE
  8
_0-3_躯体と製品
  6
CONTINUOUS
 62
    3
 10
173.3784165000003
 20
181.76972599999999
 11
173.27841650000028
 21
181.871306
  0
LINE
  8
_0-3_躯体と製品
  6
CONTINUOUS
 62
    3
 10
172.57841550000023
 20
182.069727
 11
173.3784165000003
 21
181.76972599999999
  0
LINE
  8
_0-3_躯体と製品
  6
CONTINUOUS
 62
    3
 10
173.27841650000028
 20
181.27130500000001
 11
172.67841550000014
 21
181.496306
  0
LINE
  8
_0-3_躯体と製品
  6
CONTINUOUS
 62
    3
 10
172.67841550000014
 20
181.496306
 11
172.57841550000023
 21
181.46972600000001
  0
LINE
  8
_0-3_躯体と製品
  6
CONTINUOUS
 62
    3
 10
172.57841550000023
 20
181.46972600000001
 11
172.67841550000014
 21
181.368146
  0
LINE
  8
_0-3_躯体と製品
  6
CONTINUOUS
 62
    3
 10
172.67841550000014
 20
181.368146
 11
173.27841650000028
 21
181.143145
  0
LINE
  8
_0-3_躯体と製品
  6
CONTINUOUS
 62
    3
 10
173.27841650000028
 20
181.143145
 11
173.3784165000003
 21
181.169725
  0
LINE
  8
_0-3_躯体と製品
  6
CONTINUOUS
 62
    3
 10
173.3784165000003
 20
181.169725
 11
173.27841650000028
 21
181.27130500000001
  0
LINE
  8
_0-3_躯体と製品
  6
CONTINUOUS
 62
    3
 10
172.57841550000023
 20
181.46972600000001
 11
173.3784165000003
 21
181.169725
  0
LINE
  8
_0-3_躯体と製品
  6
CONTINUOUS
 62
    3
 10
172.57841550000023
 20
182.36972700000001
 11
173.3784165000003
 21
182.36972700000001
  0
LINE
  8
_0-3_躯体と製品
  6
CONTINUOUS
 62
    2
 10
173.3784165000003
 20
182.36972700000001
 11
173.93841750000024
 21
182.92972800000001
  0
LINE
  8
_0-3_躯体と製品
  6
CONTINUOUS
 62
    2
 10
172.01841450000029
 20
182.92972800000001
 11
172.57841550000023
 21
182.36972700000001
  0
LINE
  8
_0-3_躯体と製品
  6
CONTINUOUS
 62
    3
 10
172.67841550000014
 20
181.169725
 11
173.2075365000004
 21
181.169725
  0
LINE
  8
_0-3_躯体と製品
  6
CONTINUOUS
 62
    3
 10
173.27841650000028
 20
181.143145
 11
173.27841650000028
 21
180.6296989999999
  0
LINE
  8
_0-3_躯体と製品
  6
CONTINUOUS
 62
    3
 10
173.27841650000028
 20
180.6296989999999
 11
172.97841550000032
 21
180.32969900000001
  0
LINE
  8
_0-3_躯体と製品
  6
CONTINUOUS
 62
    3
 10
172.97841550000032
 20
180.32969900000001
 11
172.67841550000014
 21
180.6296989999999
  0
LINE
  8
_0-3_躯体と製品
  6
CONTINUOUS
 62
    3
 10
172.67841550000014
 20
180.6296989999999
 11
172.67841550000014
 21
181.169725
  0
LINE
  8
_0-3_躯体と製品
  6
CONTINUOUS
 62
    3
 10
172.67841550000014
 20
181.169725
 11
172.97841550000032
 21
180.32969900000001
  0
LINE
  8
_0-3_躯体と製品
  6
CONTINUOUS
 62
    3
 10
173.27841650000028
 20
180.6296989999999
 11
172.90341550000039
 21
180.6296989999999
  0
LINE
  8
_0-3_躯体と製品
  6
CONTINUOUS
 62
    3
 10
172.67841550000014
 20
181.143145
 11
172.57841550000023
 21
181.169725
  0
LINE
  8
_0-3_躯体と製品
  6
CONTINUOUS
 62
    3
 10
172.57841550000023
 20
181.169725
 11
172.67841550000014
 21
181.27130500000001
  0
LINE
  8
_0-3_躯体と製品
  6
CONTINUOUS
 62
    3
 10
173.27841650000028
 20
181.57130599999991
 11
172.67841550000014
 21
181.7963059999999
  0
LINE
  8
_0-3_躯体と製品
  6
CONTINUOUS
 62
    3
 10
172.67841550000014
 20
181.7963059999999
 11
172.57841550000023
 21
181.76972599999999
  0
LINE
  8
_0-3_躯体と製品
  6
CONTINUOUS
 62
    3
 10
172.57841550000023
 20
181.76972599999999
 11
172.67841550000014
 21
181.66814600000001
  0
LINE
  8
_0-3_躯体と製品
  6
CONTINUOUS
 62
    3
 10
172.67841550000014
 20
181.66814600000001
 11
173.27841650000028
 21
181.4431459999999
  0
LINE
  8
_0-3_躯体と製品
  6
CONTINUOUS
 62
    3
 10
173.27841650000028
 20
181.4431459999999
 11
173.3784165000003
 21
181.46972600000001
  0
LINE
  8
_0-3_躯体と製品
  6
CONTINUOUS
 62
    3
 10
173.3784165000003
 20
181.46972600000001
 11
173.27841650000028
 21
181.57130599999991
  0
LINE
  8
_0-3_躯体と製品
  6
CONTINUOUS
 62
    3
 10
172.57841550000023
 20
181.76972599999999
 11
173.3784165000003
 21
181.46972600000001
  0
LINE
  8
_0-3_躯体と製品
  6
CONTINUOUS
 62
    3
 10
173.27841650000028
 20
181.43222600000001
 11
173.27841650000028
 21
181.27130500000001
  0
LINE
  8
_0-3_躯体と製品
  6
CONTINUOUS
 62
    3
 10
172.67841550000014
 20
181.66814600000001
 11
172.67841550000014
 21
181.496306
  0
LINE
  8
_0-3_躯体と製品
  6
CONTINUOUS
 62
    3
 10
172.67841550000014
 20
181.368146
 11
172.67841550000014
 21
181.169725
  0
LINE
  8
_0-3_躯体と製品
  6
CONTINUOUS
 62
    3
 10
173.27841650000028
 20
182.36972700000001
 11
173.27841650000028
 21
182.1713069999999
  0
LINE
  8
_0-3_躯体と製品
  6
CONTINUOUS
 62
    3
 10
172.67841550000014
 20
182.268147
 11
172.67841550000014
 21
182.09630699999991
  0
LINE
  8
_0-3_躯体と製品
  6
CONTINUOUS
 62
    3
 10
173.27841650000028
 20
182.043147
 11
173.27841650000028
 21
181.871306
  0
LINE
  8
_0-3_躯体と製品
  6
CONTINUOUS
 62
    3
 10
172.67841550000014
 20
181.96814599999999
 11
172.67841550000014
 21
181.7963059999999
  0
LINE
  8
_0-3_躯体と製品
  6
CONTINUOUS
 62
    3
 10
173.27841650000028
 20
181.743146
 11
173.27841650000028
 21
181.57130599999991
  0
LINE
  8
_0-3_躯体と製品
  6
CONTINUOUS
 62
    3
 10
173.27841650000028
 20
182.1713069999999
 11
172.74929550000036
 21
182.36972700000001
  0
LINE
  8
_0-3_躯体と製品
  6
CONTINUOUS
 62
    3
 10
172.57841550000023
 20
182.36972700000001
 11
172.67841550000014
 21
182.268147
  0
LINE
  8
_0-3_躯体と製品
  6
CONTINUOUS
 62
    3
 10
172.67841550000014
 20
182.268147
 11
173.27841650000028
 21
182.043147
  0
LINE
  8
_0-3_躯体と製品
  6
CONTINUOUS
 62
    3
 10
173.27841650000028
 20
182.043147
 11
173.3784165000003
 21
182.069727
  0
LINE
  8
_0-3_躯体と製品
  6
CONTINUOUS
 62
    3
 10
173.3784165000003
 20
182.069727
 11
173.27841650000028
 21
182.1713069999999
  0
LINE
  8
_0-3_躯体と製品
  6
CONTINUOUS
 62
    3
 10
172.57841550000023
 20
182.36972700000001
 11
173.3784165000003
 21
182.069727
  0
LINE
  8
_0-3_躯体と製品
  6
CONTINUOUS
 62
    3
 10
173.27841650000028
 20
181.871306
 11
172.67841550000014
 21
182.09630699999991
  0
LINE
  8
_0-3_躯体と製品
  6
CONTINUOUS
 62
    3
 10
172.67841550000014
 20
182.09630699999991
 11
172.57841550000023
 21
182.069727
  0
LINE
  8
_0-3_躯体と製品
  6
CONTINUOUS
 62
    3
 10
172.57841550000023
 20
182.069727
 11
172.67841550000014
 21
181.96814599999999
  0
LINE
  8
_0-3_躯体と製品
  6
CONTINUOUS
 62
    3
 10
172.67841550000014
 20
181.96814599999999
 11
173.27841650000028
 21
181.743146
  0
LINE
  8
_0-3_躯体と製品
  6
CONTINUOUS
 62
    3
 10
173.27841650000028
 20
181.743146
 11
173.3784165000003
 21
181.76972599999999
  0
ARC
  8
_0-3_躯体と製品
  6
CONTINUOUS
 62
    2
 10
169.57896350000033
 20
178.90397999999999
 40
0.600001
 50
2.4589259999993982
 51
51.385361999999361
  0
ARC
  8
_0-3_躯体と製品
  6
CONTINUOUS
 62
    2
 10
169.27841050000029
 20
178.529721
 40
1.0800019999999999
 50
51.31781299999912
 51
90
  0
ARC
  8
_0-3_躯体と製品
  6
CONTINUOUS
 62
    2
 10
169.27841050000029
 20
178.529721
 40
1.0800019999999999
 50
90
 51
128.8510619999976
  0
ARC
  8
_0-3_躯体と製品
  6
CONTINUOUS
 62
    2
 10
168.97785750000037
 20
178.90397999999999
 40
0.600001
 50
128.61463800000061
 51
177.54107400000063
  0
LINE
  8
_0-3_躯体と製品
  6
CONTINUOUS
 62
    2
 10
167.47840750000023
 20
178.929721
 11
171.07841250000024
 21
178.929721
  0
LINE
  8
_0-3_躯体と製品
  6
CONTINUOUS
 62
    2
 10
171.07841250000024
 20
178.929721
 11
171.07841250000024
 21
178.62972099999999
  0
LINE
  8
_0-3_躯体と製品
  6
CONTINUOUS
 62
    2
 10
167.47840750000023
 20
178.929721
 11
167.47840750000023
 21
178.62972099999999
  0
LINE
  8
_0-3_躯体と製品
  6
CONTINUOUS
 62
    2
 10
172.8784155000003
 20
182.92972800000001
 11
172.97841550000032
 21
182.82972800000002
  0
LINE
  8
_0-3_躯体と製品
  6
CONTINUOUS
 62
    2
 10
172.97841550000032
 20
182.82972800000002
 11
173.07841550000035
 21
182.9297269999999
  0
LINE
  8
_0-3_躯体と製品
  6
CONTINUOUS
 62
    2
 10
172.8784155000003
 20
182.92972800000001
 11
170.37841250000042
 21
182.9297269999999
  0
LINE
  8
_0-3_躯体と製品
  6
CONTINUOUS
 62
    2
 10
170.37841250000042
 20
182.9297269999999
 11
170.37841250000042
 21
182.86972700000001
  0
LINE
  8
_0-3_躯体と製品
  6
CONTINUOUS
 62
    2
 10
170.37841250000042
 20
182.86972700000001
 11
169.3784105000002
 21
182.86972700000001
  0
LINE
  8
_0-3_躯体と製品
  6
CONTINUOUS
 62
    2
 10
169.3784105000002
 20
182.86972700000001
 11
169.3784105000002
 21
182.9297269999999
  0
LINE
  8
_0-3_躯体と製品
  6
CONTINUOUS
 62
    2
 10
169.3784105000002
 20
182.9297269999999
 11
167.37840750000032
 21
182.9297269999999
  0
LINE
  8
_0-3_躯体と製品
  6
CONTINUOUS
 62
    2
 10
167.37840750000032
 20
182.9297269999999
 11
167.37840750000032
 21
182.86972700000001
  0
LINE
  8
_0-3_躯体と製品
  6
CONTINUOUS
 62
    3
 10
173.3784165000003
 20
182.369733
 11
172.57841550000023
 21
182.369733
  0
LINE
  8
_0-3_躯体と製品
  6
CONTINUOUS
 62
    3
 10
172.57841550000023
 20
182.369733
 11
172.01841450000029
 21
182.92973399999991
  0
LINE
  8
_0-3_躯体と製品
  6
CONTINUOUS
 62
    3
 10
173.93841750000024
 20
182.92973399999991
 11
173.3784165000003
 21
182.369733
  0
LINE
  8
_0-3_躯体と製品
  6
CONTINUOUS
 62
    2
 10
171.87841450000019
 20
181.5297249999999
 11
173.77841750000027
 21
181.5297249999999
  0
LINE
  8
_0-3_躯体と製品
  6
CONTINUOUS
 62
    2
 10
172.8784155000003
 20
182.02972600000001
 11
172.97841550000032
 21
181.92972600000002
  0
LINE
  8
_0-3_躯体と製品
  6
CONTINUOUS
 62
    2
 10
173.07841650000023
 20
182.02972600000001
 11
172.97841550000032
 21
181.92972600000002
  0
LINE
  8
_0-3_躯体と製品
  6
CONTINUOUS
 62
    2
 10
172.07841450000024
 20
182.32972599999999
 11
171.57841350000024
 21
182.32972599999999
  0
LINE
  8
_0-3_躯体と製品
  6
PLINE3
 62
    3
 10
172.97841550000032
 20
183.232213
 11
172.97841550000032
 21
179.97259299999999
  0
LINE
  8
_0-3_躯体と製品
  6
CONTINUOUS
 62
    2
 10
170.77841250000029
 20
178.62972099999999
 11
170.77841250000029
 21
178.22972000000001
  0
LINE
  8
_0-3_躯体と製品
  6
CONTINUOUS
 62
    2
 10
167.77840850000018
 20
178.62972099999999
 11
167.77840850000018
 21
178.22972000000001
  0
ARC
  8
_0-3_躯体と製品
  6
CONTINUOUS
 62
    2
 10
173.57841650000034
 20
179.029721
 40
0.400001
 50
270
 51
0
  0
LINE
  8
_0-3_躯体と製品
  6
CONTINUOUS
 62
    2
 10
169.3784105000002
 20
178.62972099999999
 11
173.57841650000034
 21
178.62972099999999
  0
LINE
  8
_0-3_躯体と製品
  6
CONTINUOUS
 62
    2
 10
173.97841750000043
 20
179.029721
 11
173.97841750000043
 21
181.329725
  0
LINE
  8
_0-3_躯体と製品
  6
CONTINUOUS
 62
    2
 10
171.57841350000024
 20
178.12971999999999
 11
171.57841350000024
 21
178.22972000000001
  0
LINE
  8
_0-3_躯体と製品
  6
CONTINUOUS
 62
    2
 10
171.57841350000024
 20
178.22972000000001
 11
170.57841250000024
 21
178.22972000000001
  0
LINE
  8
_0-3_躯体と製品
  6
CONTINUOUS
 62
    2
 10
170.57841250000024
 20
178.22972000000001
 11
170.57841250000024
 21
178.12971999999999
  0
LINE
  8
_0-3_躯体と製品
  6
CONTINUOUS
 62
    2
 10
167.97840850000023
 20
178.12971999999999
 11
167.97840850000023
 21
178.22972000000001
  0
LINE
  8
_0-3_躯体と製品
  6
CONTINUOUS
 62
    2
 10
167.97840850000023
 20
178.22972000000001
 11
166.97840750000023
 21
178.22972000000001
  0
LINE
  8
_0-3_躯体と製品
  6
CONTINUOUS
 62
    2
 10
166.97840750000023
 20
178.22972000000001
 11
166.97840750000023
 21
178.12971999999999
  0
LINE
  8
_0-3_躯体と製品
  6
CONTINUOUS
 62
    2
 10
170.57841250000024
 20
178.12971999999999
 11
167.97840850000023
 21
178.12971999999999
  0
LINE
  8
_0-3_躯体と製品
  6
CONTINUOUS
 62
    2
 10
169.17841050000027
 20
178.62972099999999
 11
169.27841050000029
 21
178.529721
  0
LINE
  8
_0-3_躯体と製品
  6
CONTINUOUS
 62
    2
 10
169.3784105000002
 20
178.62972099999999
 11
169.27841050000029
 21
178.529721
  0
LINE
  8
_0-3_躯体と製品
  6
CONTINUOUS
 62
    2
 10
173.77841750000027
 20
182.02972600000001
 11
173.77841750000027
 21
182.229726
  0
LINE
  8
_0-3_躯体と製品
  6
CONTINUOUS
 62
    2
 10
172.17841450000037
 20
182.02972600000001
 11
172.8784155000003
 21
182.02972600000001
  0
LINE
  8
_0-3_躯体と製品
  6
CONTINUOUS
 62
    2
 10
173.77841750000027
 20
182.02972600000001
 11
173.07841650000023
 21
182.02972600000001
  0
LINE
  8
_0-3_躯体と製品
  6
CONTINUOUS
 62
    2
 10
172.17841450000037
 20
182.02972600000001
 11
172.17841450000037
 21
182.229726
  0
ARC
  8
_0-3_躯体と製品
  6
CONTINUOUS
 62
    2
 10
172.07841450000024
 20
182.229726
 40
0.1
 50
0
 51
90
  0
ARC
  8
_0-3_躯体と製品
  6
CONTINUOUS
 62
    2
 10
171.57841350000024
 20
182.229726
 40
0.1
 50
90
 51
180
  0
LINE
  8
_0-3_躯体と製品
  6
CONTINUOUS
 62
    2
 10
172.07841450000024
 20
182.32972599999999
 11
171.57841350000024
 21
182.32972599999999
  0
ARC
  8
_0-3_躯体と製品
  6
CONTINUOUS
 62
    2
 10
173.8784175000003
 20
182.229726
 40
0.1
 50
90
 51
180
  0
LINE
  8
_0-3_躯体と製品
  6
CONTINUOUS
 62
    2
 10
171.47841350000033
 20
181.92972600000002
 11
171.47841350000033
 21
182.229726
  0
ARC
  8
_0-3_躯体と製品
  6
CONTINUOUS
 62
    2
 10
171.87841450000019
 20
181.92972600000002
 40
0.400001
 50
180
 51
270
  0
ARC
  8
_0-3_躯体と製品
  6
CONTINUOUS
 62
    2
 10
173.77841750000027
 20
181.329725
 40
0.2
 50
0
 51
90
  0
CIRCLE
  8
_0-5_文字-記号
  6
CONTINUOUS
 62
    3
 10
172.97841550000032
 20
182.82972800000002
 40
0.2
  0
TEXT
  8
_0-5_文字-記号
 62
    7
 10
163.54092816666696
 20
187.785346
 40
2
 41
0.8
 50
0
  1
３
  0
TEXT
  8
_0-5_文字-記号
 62
    7
 10
169.0057758333337
 20
187.93370699999991
 40
2
 41
0.8
 50
0
  1
１
  0
LINE
  8
_0-3_躯体と製品
  6
CONTINUOUS
 62
    3
 10
179.29852850000043
 20
175.92971700000001
 11
181.27842750000036
 21
177.909616
  0
LINE
  8
_0-3_躯体と製品
  6
CONTINUOUS
 62
    3
 10
178.30857850000029
 20
175.92971700000001
 11
180.30858150000051
 21
177.92971999999989
  0
LINE
  8
_0-3_躯体と製品
  6
CONTINUOUS
 62
    3
 10
177.31862950000016
 20
175.92971700000001
 11
179.31863250000038
 21
177.92971999999989
  0
LINE
  8
_0-3_躯体と製品
  6
CONTINUOUS
 62
    3
 10
176.32867950000036
 20
175.92971700000001
 11
178.32868250000024
 21
177.92971999999989
  0
LINE
  8
_0-3_躯体と製品
  6
CONTINUOUS
 62
    3
 10
175.33873050000034
 20
175.92971700000001
 11
177.33873350000022
 21
177.92971999999989
  0
LINE
  8
_0-3_躯体と製品
  6
CONTINUOUS
 62
    3
 10
174.34878050000032
 20
175.92971700000001
 11
176.34878350000031
 21
177.92971999999989
  0
LINE
  8
_0-3_躯体と製品
  6
PLINE2
 62
    3
 10
178.27842350000026
 20
177.92971999999989
 11
178.07842250000033
 21
176.92971799999989
  0
LINE
  8
_0-3_躯体と製品
  6
PLINE2
 62
    3
 10
178.07842250000033
 20
177.92971999999989
 11
178.07842250000033
 21
176.3297179999999
  0
LINE
  8
_0-3_躯体と製品
  6
PLINE2
 62
    3
 10
177.27842150000026
 20
176.92971799999989
 11
177.27842150000026
 21
177.92971999999989
  0
LINE
  8
_0-3_躯体と製品
  6
PLINE2
 62
    3
 10
177.47842150000042
 20
177.92971999999989
 11
177.27842150000026
 21
176.92971799999989
  0
LINE
  8
_0-3_躯体と製品
  6
PLINE2
 62
    3
 10
177.07842150000033
 20
177.92971999999989
 11
177.27842150000026
 21
176.92971799999989
  0
LINE
  8
_0-3_躯体と製品
  6
PLINE2
 62
    3
 10
176.27842050000027
 20
177.92971999999989
 11
176.47842050000031
 21
176.92971799999989
  0
LINE
  8
_0-3_躯体と製品
  6
PLINE2
 62
    3
 10
176.47842050000031
 20
177.92971999999989
 11
176.47842050000031
 21
176.3297179999999
  0
LINE
  8
_0-3_躯体と製品
  6
PLINE3
 62
    3
 10
177.27842150000026
 20
169.19296099999991
 11
177.27842150000026
 21
179.93750500000002
  0
LINE
  8
_0-3_躯体と製品
  6
CONTINUOUS
 62
    2
 10
181.27842750000036
 20
177.92971999999989
 11
181.27842750000036
 21
175.92971700000001
  0
LINE
  8
_0-5_文字-記号
  6
CONTINUOUS
 62
    3
 10
179.07842450000032
 20
178.929721
 11
184.24598049999975
 21
172.77126799999991
  0
LINE
  8
_0-3_躯体と製品
  6
PLINE2
 62
    3
 10
176.19676550000031
 20
170.97374600000001
 11
176.17583050000019
 21
170.57429300000001
  0
LINE
  8
_0-3_躯体と製品
  6
PLINE2
 62
    3
 10
177.70290550000027
 20
170.13820599999991
 11
177.37842150000029
 21
176.3297179999999
  0
LINE
  8
_0-3_躯体と製品
  6
PLINE2
 62
    3
 10
176.85393850000037
 20
170.13820599999991
 11
177.17842150000035
 21
176.3297179999999
  0
LINE
  8
_0-3_躯体と製品
  6
PLINE2
 62
    3
 10
178.36007850000033
 20
170.97374600000001
 11
178.38101250000034
 21
170.57429300000001
  0
LINE
  8
_0-5_文字-記号
  6
CONTINUOUS
 62
    3
 10
178.36007850000033
 20
170.97374600000001
 11
181.30051050000043
 21
167.46947500000002
  0
CIRCLE
  8
_0-5_文字-記号
  6
CONTINUOUS
 62
    3
 10
185.21016349999979
 20
171.62219999999999
 40
1.5000020000000001
  0
CIRCLE
  8
_0-5_文字-記号
  6
CONTINUOUS
 62
    3
 10
182.26469349999979
 20
166.32040599999999
 40
1.5000020000000001
  0
TEXT
  8
_0-5_文字-記号
 62
    7
 10
181.57135416666677
 20
165.540412
 40
2
 41
0.8
 50
0
  1
６
  0
LINE
  8
_0-3_躯体と製品
  6
PLINE2
 62
    3
 10
177.68197050000026
 20
170.53765799999991
 11
178.38101250000034
 21
170.57429300000001
  0
LINE
  8
_0-3_躯体と製品
  6
PLINE2
 62
    3
 10
178.38101250000034
 20
170.57429300000001
 11
178.00249450000024
 21
170.15390600000001
  0
LINE
  8
_0-3_躯体と製品
  6
PLINE2
 62
    3
 10
178.00249450000024
 20
170.15390600000001
 11
177.70290550000027
 21
170.13820599999991
  0
LINE
  8
_0-3_躯体と製品
  6
PLINE2
 62
    3
 10
176.87487250000015
 20
170.53765799999991
 11
176.17583050000019
 21
170.57429300000001
  0
LINE
  8
_0-3_躯体と製品
  6
PLINE2
 62
    3
 10
176.17583050000019
 20
170.57429300000001
 11
176.55434850000017
 21
170.15390600000001
  0
LINE
  8
_0-3_躯体と製品
  6
PLINE2
 62
    3
 10
176.55434850000017
 20
170.15390600000001
 11
176.85393850000037
 21
170.13820599999991
  0
LINE
  8
_0-3_躯体と製品
  6
CONTINUOUS
 62
    3
 10
180.28847750000023
 20
175.92971700000001
 11
181.27842750000036
 21
176.919667
  0
ARC
  8
_0-3_躯体と製品
  6
PLINE2
 62
    3
 10
178.66145250000022
 20
176.27350899999999
 40
0.08
 50
351.70153400000004
 51
81.869898000002124
  0
LINE
  8
_0-3_躯体と製品
  6
PLINE2
 62
    3
 10
178.67276650000031
 20
176.35270500000001
 11
178.63340150000033
 21
176.358328
  0
ARC
  8
_0-3_躯体と製品
  6
PLINE2
 62
    3
 10
178.62208750000025
 20
176.279132
 40
0.08
 50
81.869898000002095
 51
171.8698979999985
  0
LINE
  8
_0-3_躯体と製品
  6
PLINE2
 62
    3
 10
178.54289150000034
 20
176.29044599999989
 11
178.35420450000038
 21
174.96964
  0
LINE
  8
_0-3_躯体と製品
  6
PLINE2
 62
    3
 10
177.37842150000029
 20
176.3297179999999
 11
177.27842150000026
 21
176.3297179999999
  0
LINE
  8
_0-3_躯体と製品
  6
PLINE2
 62
    3
 10
177.17842150000035
 20
176.3297179999999
 11
177.27842150000026
 21
176.3297179999999
  0
LINE
  8
_0-3_躯体と製品
  6
PLINE2
 62
    3
 10
178.15073350000034
 20
174.96826999999999
 11
178.17166850000024
 21
174.568817
  0
LINE
  8
_0-3_躯体と製品
  6
PLINE2
 62
    3
 10
177.73034750000033
 20
175.34678699999989
 11
177.75128150000023
 21
174.9473349999999
  0
LINE
  8
_0-3_躯体と製品
  6
PLINE2
 62
    3
 10
177.75128150000023
 20
174.9473349999999
 11
178.15073350000034
 21
174.96826999999999
  0
LINE
  8
_0-3_躯体と製品
  6
PLINE2
 62
    3
 10
178.07842250000033
 20
175.52971600000001
 11
177.73034750000033
 21
175.34678699999989
  0
LINE
  8
_0-3_躯体と製品
  6
PLINE2
 62
    3
 10
176.22816650000027
 20
171.572924
 11
176.61715150000032
 21
171.35226399999999
  0
LINE
  8
_0-3_躯体と製品
  6
PLINE2
 62
    3
 10
176.61715150000032
 20
171.35226399999999
 11
176.59621750000042
 21
170.95281199999999
  0
LINE
  8
_0-3_躯体と製品
  6
PLINE2
 62
    3
 10
176.59621750000042
 20
170.95281199999999
 11
176.19676550000031
 21
170.97374600000001
  0
LINE
  8
_0-3_躯体と製品
  6
PLINE2
 62
    3
 10
176.24910150000017
 20
171.97237699999999
 11
176.22816650000027
 21
171.572924
  0
LINE
  8
_0-3_躯体と製品
  6
PLINE2
 62
    3
 10
176.28050350000024
 20
172.57155499999999
 11
176.66948750000017
 21
172.35089500000001
  0
LINE
  8
_0-3_躯体と製品
  6
PLINE2
 62
    3
 10
176.66948750000017
 20
172.35089500000001
 11
176.6485535000005
 21
171.95144200000001
  0
LINE
  8
_0-3_躯体と製品
  6
PLINE2
 62
    3
 10
176.6485535000005
 20
171.95144200000001
 11
176.24910150000017
 21
171.97237699999999
  0
LINE
  8
_0-3_躯体と製品
  6
PLINE2
 62
    3
 10
176.30143750000036
 20
172.97100800000001
 11
176.28050350000024
 21
172.57155499999999
  0
LINE
  8
_0-3_躯体と製品
  6
PLINE2
 62
    3
 10
176.33283950000043
 20
173.57018600000001
 11
176.72182450000037
 21
173.349526
  0
LINE
  8
_0-3_躯体と製品
  6
PLINE2
 62
    3
 10
176.72182450000037
 20
173.349526
 11
176.70088950000036
 21
172.950073
  0
LINE
  8
_0-3_躯体と製品
  6
PLINE2
 62
    3
 10
176.70088950000036
 20
172.950073
 11
176.30143750000036
 21
172.97100800000001
  0
LINE
  8
_0-3_躯体と製品
  6
PLINE2
 62
    3
 10
176.35377350000033
 20
173.969639
 11
176.33283950000043
 21
173.57018600000001
  0
LINE
  8
_0-3_躯体と製品
  6
PLINE2
 62
    3
 10
176.3851745000004
 20
174.568817
 11
176.77416050000022
 21
174.34815700000001
  0
LINE
  8
_0-3_躯体と製品
  6
PLINE2
 62
    3
 10
176.77416050000022
 20
174.34815700000001
 11
176.75322550000033
 21
173.94870399999999
  0
LINE
  8
_0-3_躯体と製品
  6
PLINE2
 62
    3
 10
176.75322550000033
 20
173.94870399999999
 11
176.35377350000033
 21
173.969639
  0
LINE
  8
_0-3_躯体と製品
  6
PLINE2
 62
    3
 10
176.40610950000041
 20
174.96826999999999
 11
176.3851745000004
 21
174.568817
  0
LINE
  8
_0-3_躯体と製品
  6
PLINE2
 62
    3
 10
176.82649650000042
 20
175.34678699999989
 11
176.80556150000029
 21
174.9473349999999
  0
LINE
  8
_0-3_躯体と製品
  6
PLINE2
 62
    3
 10
176.80556150000029
 20
174.9473349999999
 11
176.40610950000041
 21
174.96826999999999
  0
LINE
  8
_0-3_躯体と製品
  6
PLINE2
 62
    3
 10
177.26656050000042
 20
170.74157099999999
 11
177.65330150000034
 21
171.08470600000001
  0
LINE
  8
_0-3_躯体と製品
  6
PLINE2
 62
    3
 10
176.90453250000041
 20
171.103599
 11
177.27842150000026
 21
170.7297099999999
  0
LINE
  8
_0-3_躯体と製品
  6
PLINE2
 62
    3
 10
176.47842050000031
 20
175.52971600000001
 11
176.82649650000042
 21
175.34678699999989
  0
LINE
  8
_0-3_躯体と製品
  6
PLINE2
 62
    3
 10
178.20306950000031
 20
173.969639
 11
178.54214350000029
 21
174.90123600000001
  0
LINE
  8
_0-3_躯体と製品
  6
PLINE2
 62
    3
 10
177.99023350000039
 20
173.969639
 11
178.35420450000038
 21
174.96964
  0
LINE
  8
_0-3_躯体と製品
  6
PLINE2
 62
    3
 10
176.35377350000033
 20
173.969639
 11
176.01469950000023
 21
174.90123600000001
  0
LINE
  8
_0-3_躯体と製品
  6
PLINE2
 62
    3
 10
176.56660950000037
 20
173.969639
 11
176.20263850000038
 21
174.96964
  0
LINE
  8
_0-3_躯体と製品
  6
PLINE2
 62
    3
 10
178.07842250000033
 20
175.52971600000001
 11
178.07842250000033
 21
176.3297179999999
  0
LINE
  8
_0-3_躯体と製品
  6
PLINE2
 62
    3
 10
176.47842050000031
 20
175.52971600000001
 11
176.47842050000031
 21
176.3297179999999
  0
LINE
  8
_0-3_躯体と製品
  6
PLINE2
 62
    3
 10
176.01469950000023
 20
174.90123600000001
 11
175.81622850000031
 21
176.26196200000001
  0
ARC
  8
_0-3_躯体と製品
  6
PLINE2
 62
    3
 10
175.89539050000042
 20
176.27350899999999
 40
0.08
 50
98.130101999997891
 51
188.29846599999979
  0
LINE
  8
_0-3_躯体と製品
  6
PLINE2
 62
    3
 10
175.88407750000033
 20
176.35270500000001
 11
175.92344250000019
 21
176.358328
  0
ARC
  8
_0-3_躯体と製品
  6
PLINE2
 62
    3
 10
175.93475550000028
 20
176.279132
 40
0.08
 50
8.1301020000014788
 51
98.130101999997905
  0
LINE
  8
_0-3_躯体と製品
  6
PLINE2
 62
    3
 10
176.01395150000019
 20
176.29044599999989
 11
176.20263850000038
 21
174.96964
  0
LINE
  8
_0-3_躯体と製品
  6
PLINE2
 62
    3
 10
178.54214350000029
 20
174.90123600000001
 11
178.74061450000033
 21
176.26196200000001
  0
ARC
  8
_0-3_躯体と製品
  6
PLINE2
 62
    3
 10
178.66145250000022
 20
176.27350899999999
 40
0.08
 50
351.70153400000004
 51
81.869898000002124
  0
LINE
  8
_0-3_躯体と製品
  6
PLINE2
 62
    3
 10
178.67276650000031
 20
176.35270500000001
 11
178.63340150000033
 21
176.358328
  0
ARC
  8
_0-3_躯体と製品
  6
PLINE2
 62
    3
 10
178.62208750000025
 20
176.279132
 40
0.08
 50
81.869898000002095
 51
171.8698979999985
  0
LINE
  8
_0-3_躯体と製品
  6
PLINE2
 62
    3
 10
178.54289150000034
 20
176.29044599999989
 11
178.35420450000038
 21
174.96964
  0
LINE
  8
_0-3_躯体と製品
  6
PLINE2
 62
    3
 10
178.54214350000029
 20
174.90123600000001
 11
178.74061450000033
 21
176.26196200000001
  0
LINE
  8
_0-3_躯体と製品
  6
PLINE2
 62
    3
 10
178.32867650000026
 20
171.572924
 11
177.93969150000032
 21
171.35226399999999
  0
LINE
  8
_0-3_躯体と製品
  6
PLINE2
 62
    3
 10
177.93969150000032
 20
171.35226399999999
 11
177.96062550000022
 21
170.95281199999999
  0
LINE
  8
_0-3_躯体と製品
  6
PLINE2
 62
    3
 10
177.96062550000022
 20
170.95281199999999
 11
178.36007850000033
 21
170.97374600000001
  0
LINE
  8
_0-3_躯体と製品
  6
PLINE2
 62
    3
 10
178.30774150000025
 20
171.97237699999999
 11
178.32867650000026
 21
171.572924
  0
LINE
  8
_0-3_躯体と製品
  6
PLINE2
 62
    3
 10
178.27634050000017
 20
172.57155499999999
 11
177.88735550000035
 21
172.35089500000001
  0
LINE
  8
_0-3_躯体と製品
  6
PLINE2
 62
    3
 10
177.88735550000035
 20
172.35089500000001
 11
177.90828950000036
 21
171.95144200000001
  0
LINE
  8
_0-3_躯体と製品
  6
PLINE2
 62
    3
 10
177.90828950000036
 20
171.95144200000001
 11
178.30774150000025
 21
171.97237699999999
  0
LINE
  8
_0-3_躯体と製品
  6
PLINE2
 62
    3
 10
178.25540550000017
 20
172.97100800000001
 11
178.27634050000017
 21
172.57155499999999
  0
LINE
  8
_0-3_躯体と製品
  6
PLINE2
 62
    3
 10
178.22400450000032
 20
173.57018600000001
 11
177.83501950000027
 21
173.349526
  0
LINE
  8
_0-3_躯体と製品
  6
PLINE2
 62
    3
 10
177.83501950000027
 20
173.349526
 11
177.85595350000051
 21
172.950073
  0
LINE
  8
_0-3_躯体と製品
  6
PLINE2
 62
    3
 10
177.85595350000051
 20
172.950073
 11
178.25540550000017
 21
172.97100800000001
  0
LINE
  8
_0-3_躯体と製品
  6
PLINE2
 62
    3
 10
178.20306950000031
 20
173.969639
 11
178.22400450000032
 21
173.57018600000001
  0
LINE
  8
_0-3_躯体と製品
  6
PLINE2
 62
    3
 10
178.17166850000024
 20
174.568817
 11
177.7826835000003
 21
174.34815700000001
  0
LINE
  8
_0-3_躯体と製品
  6
PLINE2
 62
    3
 10
177.7826835000003
 20
174.34815700000001
 11
177.80361750000043
 21
173.94870399999999
  0
LINE
  8
_0-3_躯体と製品
  6
PLINE2
 62
    3
 10
177.80361750000043
 20
173.94870399999999
 11
178.20306950000031
 21
173.969639
  0
CIRCLE
  8
_0-5_文字-記号
  6
CONTINUOUS
 62
    3
 10
178.36007850000033
 20
170.97374600000001
 40
0.2
  0
TEXT
  8
_0-5_文字-記号
 62
    7
 10
184.51683516666674
 20
170.84219300000001
 40
2
 41
0.8
 50
0
  1
８
  0
LINE
  8
_0-5_文字-記号
  6
CONTINUOUS
 62
    3
 10
177.27842150000026
 20
179.609722
 11
180.65607650000038
 21
185.459992
  0
LINE
  8
_0-3_躯体と製品
  6
CONTINUOUS
 62
    2
 10
175.12841850000052
 20
182.82972699999999
 11
185.09858849999978
 21
182.82972699999999
  0
LINE
  8
_0-3_躯体と製品
  6
CONTINUOUS
 62
    2
 10
180.27842650000025
 20
178.12971999999999
 11
180.27842650000025
 21
177.92971999999989
  0
ARC
  8
_0-3_躯体と製品
  6
CONTINUOUS
 62
    2
 10
177.57897450000041
 20
178.90397999999999
 40
0.600001
 50
2.4589259999993982
 51
51.385361999999361
  0
ARC
  8
_0-3_躯体と製品
  6
CONTINUOUS
 62
    2
 10
177.27842150000026
 20
178.529721
 40
1.0800019999999999
 50
51.31781299999912
 51
90
  0
ARC
  8
_0-3_躯体と製品
  6
CONTINUOUS
 62
    2
 10
177.27842150000026
 20
178.529721
 40
1.0800019999999999
 50
90
 51
128.8510619999976
  0
ARC
  8
_0-3_躯体と製品
  6
CONTINUOUS
 62
    2
 10
176.97786850000034
 20
178.90397999999999
 40
0.600001
 50
128.61463800000061
 51
177.54107400000063
  0
LINE
  8
_0-3_躯体と製品
  6
CONTINUOUS
 62
    2
 10
175.47841950000031
 20
178.929721
 11
179.07842450000032
 21
178.929721
  0
LINE
  8
_0-3_躯体と製品
  6
CONTINUOUS
 62
    2
 10
179.07842450000032
 20
178.929721
 11
179.07842450000032
 21
178.62972099999999
  0
LINE
  8
_0-3_躯体と製品
  6
CONTINUOUS
 62
    2
 10
175.47841950000031
 20
178.929721
 11
175.47841950000031
 21
178.62972099999999
  0
LINE
  8
_0-3_躯体と製品
  6
CONTINUOUS
 62
    2
 10
174.62841850000041
 20
181.5297249999999
 11
174.82841850000023
 21
181.5297249999999
  0
ARC
  8
_0-3_躯体と製品
  6
CONTINUOUS
 62
    2
 10
174.82841850000023
 20
181.62972500000001
 40
0.1
 50
270
 51
0
  0
LINE
  8
_0-3_躯体と製品
  6
CONTINUOUS
 62
    2
 10
174.92841850000036
 20
182.729727
 11
174.92841850000036
 21
181.62972500000001
  0
ARC
  8
_0-3_躯体と製品
  6
CONTINUOUS
 62
    2
 10
174.62841850000041
 20
181.62972500000001
 40
0.1
 50
180
 51
270
  0
ARC
  8
_0-3_躯体と製品
  6
CONTINUOUS
 62
    2
 10
174.46841850000033
 20
182.26972599999999
 40
0.0599999999999999
 50
0
 51
90
  0
LINE
  8
_0-3_躯体と製品
  6
CONTINUOUS
 62
    2
 10
174.52841850000027
 20
181.62972500000001
 11
174.52841850000027
 21
182.26972599999999
  0
LINE
  8
_0-3_躯体と製品
  6
CONTINUOUS
 62
    2
 10
174.72841850000032
 20
182.9297269999999
 11
174.92841850000036
 21
182.729727
  0
ARC
  8
_0-3_躯体と製品
  6
CONTINUOUS
 62
    2
 10
175.12841850000052
 20
182.6797269999999
 40
0.1499999999999999
 50
0
 51
180
  0
LINE
  8
_0-3_躯体と製品
  6
CONTINUOUS
 62
    2
 10
178.77842450000048
 20
178.62972099999999
 11
178.77842450000048
 21
178.22972000000001
  0
LINE
  8
_0-3_躯体と製品
  6
CONTINUOUS
 62
    2
 10
175.7784195000005
 20
178.62972099999999
 11
175.7784195000005
 21
178.22972000000001
  0
LINE
  8
_0-3_躯体と製品
  6
CONTINUOUS
 62
    2
 10
179.57842550000032
 20
178.12971999999999
 11
179.57842550000032
 21
178.22972000000001
  0
LINE
  8
_0-3_躯体と製品
  6
CONTINUOUS
 62
    2
 10
179.57842550000032
 20
178.22972000000001
 11
178.57842350000033
 21
178.22972000000001
  0
LINE
  8
_0-3_躯体と製品
  6
CONTINUOUS
 62
    2
 10
178.57842350000033
 20
178.22972000000001
 11
178.57842350000033
 21
178.12971999999999
  0
LINE
  8
_0-3_躯体と製品
  6
CONTINUOUS
 62
    2
 10
175.9784205000002
 20
178.12971999999999
 11
175.9784205000002
 21
178.22972000000001
  0
LINE
  8
_0-3_躯体と製品
  6
CONTINUOUS
 62
    2
 10
175.9784205000002
 20
178.22972000000001
 11
174.97841850000032
 21
178.22972000000001
  0
LINE
  8
_0-3_躯体と製品
  6
CONTINUOUS
 62
    2
 10
174.97841850000032
 20
178.22972000000001
 11
174.97841850000032
 21
178.12971999999999
  0
ARC
  8
_0-3_躯体と製品
  6
CONTINUOUS
 62
    2
 10
180.17842650000034
 20
178.22972000000001
 40
0.1
 50
270
 51
0
  0
ARC
  8
_0-3_躯体と製品
  6
CONTINUOUS
 62
    2
 10
174.87841850000029
 20
179.029721
 40
0.400001
 50
180
 51
270
  0
ARC
  8
_0-3_躯体と製品
  6
CONTINUOUS
 62
    2
 10
180.17842650000034
 20
178.529721
 40
0.1
 50
0
 51
90
  0
LINE
  8
_0-3_躯体と製品
  6
CONTINUOUS
 62
    2
 10
174.87841850000029
 20
178.62972099999999
 11
180.17842650000034
 21
178.62972099999999
  0
LINE
  8
_0-3_躯体と製品
  6
CONTINUOUS
 62
    2
 10
180.27842650000025
 20
178.529721
 11
180.27842650000025
 21
178.22972000000001
  0
ARC
  8
_0-3_躯体と製品
  6
CONTINUOUS
 62
    2
 10
174.57841850000023
 20
181.42972499999999
 40
0.1
 50
180
 51
270
  0
LINE
  8
_0-3_躯体と製品
  6
CONTINUOUS
 62
    2
 10
174.57841850000023
 20
181.329725
 11
174.87841850000029
 21
181.329725
  0
LINE
  8
_0-3_躯体と製品
  6
CONTINUOUS
 62
    2
 10
175.17841950000036
 20
181.02972400000002
 11
174.67841850000025
 21
181.02972400000002
  0
ARC
  8
_0-3_躯体と製品
  6
CONTINUOUS
 62
    2
 10
174.67841850000025
 20
180.829724
 40
0.2
 50
90
 51
180
  0
LINE
  8
_0-3_躯体と製品
  6
CONTINUOUS
 62
    2
 10
174.47841850000043
 20
180.829724
 11
174.47841850000043
 21
179.029721
  0
LINE
  8
_0-3_躯体と製品
  6
CONTINUOUS
 62
    2
 10
174.47841850000043
 20
181.42972499999999
 11
174.47841850000043
 21
182.229726
  0
LINE
  8
_0-3_躯体と製品
  6
CONTINUOUS
 62
    2
 10
175.9784205000002
 20
178.12971999999999
 11
178.57842350000033
 21
178.12971999999999
  0
LINE
  8
_0-3_躯体と製品
  6
CONTINUOUS
 62
    2
 10
179.57842550000032
 20
178.12971999999999
 11
180.17842650000034
 21
178.12971999999999
  0
ARC
  8
_0-3_躯体と製品
  6
CONTINUOUS
 62
    2
 10
175.17841950000036
 20
181.12972400000001
 40
0.1
 50
270
 51
0
  0
LINE
  8
_0-3_躯体と製品
  6
CONTINUOUS
 62
    2
 10
175.27841950000038
 20
182.6797269999999
 11
175.27841950000038
 21
181.12972400000001
  0
ARC
  8
_0-3_躯体と製品
  6
CONTINUOUS
 62
    2
 10
174.87841850000029
 20
181.42972499999999
 40
0.1
 50
270
 51
0
  0
LINE
  8
_0-3_躯体と製品
  6
CONTINUOUS
 62
    2
 10
174.97841850000032
 20
182.6797269999999
 11
174.97841850000032
 21
181.42972499999999
  0
ARC
  8
_0-3_躯体と製品
  6
CONTINUOUS
 62
    2
 10
174.37841750000041
 20
182.229726
 40
0.1
 50
0
 51
90
  0
CIRCLE
  8
_0-5_文字-記号
  6
CONTINUOUS
 62
    3
 10
177.27842150000026
 20
179.609722
 40
0.2
  0
CIRCLE
  8
_0-5_文字-記号
  6
CONTINUOUS
 62
    3
 10
179.07842450000032
 20
178.929721
 40
0.2
  0
CIRCLE
  8
_0-5_文字-記号
  6
CONTINUOUS
 62
    3
 10
181.40607750000026
 20
186.75903199999991
 40
1.5000020000000001
  0
TEXT
  8
_0-5_文字-記号
 62
    7
 10
180.65941683333369
 20
185.979026
 40
2
 41
0.8
 50
0
  1
７
  0
TEXT
  8
_0-5_文字-記号
 62
    7
 10
176.70664616666693
 20
189.7081059999999
 40
2
 41
0.8
 50
0
  1
５
  0
LINE
  8
_0-3_躯体と製品
  6
CONTINUOUS
 62
    2
 10
310.90261949999967
 20
176.63741999999999
 11
310.90261949999967
 21
191.72973999999999
  0
LINE
  8
_0-3_躯体と製品
  6
CONTINUOUS
 62
    2
 10
311.10261949999972
 20
176.63741999999999
 11
311.10261949999972
 21
191.72973999999999
  0
LINE
  8
_0-3_躯体と製品
  6
CONTINUOUS
 62
    2
 10
311.10261949999972
 20
158.28930099999999
 11
311.10261949999972
 21
196.689335
  0
LINE
  8
_0-3_躯体と製品
  6
CONTINUOUS
 62
    2
 10
308.40261549999968
 20
190.82973799999999
 11
308.40261549999968
 21
189.62973699999989
  0
LINE
  8
_0-3_躯体と製品
  6
CONTINUOUS
 62
    2
 10
310.84261949999973
 20
188.42973499999999
 11
310.84261949999973
 21
189.729737
  0
LINE
  8
_0-3_躯体と製品
  6
CONTINUOUS
 62
    2
 10
310.54261849999966
 20
188.98944700000001
 11
310.54262949999975
 21
191.32973899999999
  0
LINE
  8
_0-3_躯体と製品
  6
CONTINUOUS
 62
    2
 10
307.80261449999966
 20
189.42973599999999
 11
307.80261449999966
 21
190.169737
  0
LINE
  8
_0-3_躯体と製品
  6
CONTINUOUS
 62
    2
 10
307.10261449999985
 20
194.82974400000001
 11
307.10261449999985
 21
182.92971500000002
  0
LINE
  8
_0-3_躯体と製品
  6
CONTINUOUS
 62
    2
 10
307.30261449999966
 20
194.6297439999999
 11
307.30261449999966
 21
188.5297349999999
  0
LINE
  8
_0-5_文字-記号
  6
CONTINUOUS
 62
    3
 10
310.54257349999966
 20
188.0070989999999
 11
313.49699749999968
 21
191.52804399999999
  0
CIRCLE
  8
_0-5_文字-記号
  6
CONTINUOUS
 62
    3
 10
313.62949449999974
 20
188.37644399999999
 40
1.5000020000000001
  0
CIRCLE
  8
_0-5_文字-記号
  6
CONTINUOUS
 62
    3
 10
322.06062449999968
 20
188.925704
 40
1.5000020000000001
  0
ARC
  8
_0-3_躯体と製品
  6
CONTINUOUS
 62
    2
 10
291.10259049999968
 20
177.92971999999989
 40
16.000022999999999
 50
199.74992299999934
 51
315.98231700000002
  0
ARC
  8
_0-3_躯体と製品
  6
CONTINUOUS
 62
    2
 10
291.10259049999968
 20
177.92971999999989
 40
15.800022999999999
 50
199.74992299999934
 51
313.76225899999952
  0
ARC
  8
_0-3_躯体と製品
  6
CONTINUOUS
 62
    2
 10
296.10247949999984
 20
-177.3745439999999
 40
359.30051299999991
 50
88.11745000000009
 51
90.000000000000014
  0
ARC
  8
_0-3_躯体と製品
  6
CONTINUOUS
 62
    2
 10
296.10247949999984
 20
-177.3745439999999
 40
360.00051400000001
 50
88.074382000003737
 51
90.000000000000014
  0
LINE
  8
_0-3_躯体と製品
  6
PLINE3
 62
    3
 10
291.10259049999968
 20
184.54340400000001
 11
291.10259049999968
 21
160.88184699999999
  0
LINE
  8
_0-3_躯体と製品
  6
CONTINUOUS
 62
    2
 10
271.10256249999975
 20
158.28930099999999
 11
271.10256249999975
 21
177.92971999999989
  0
LINE
  8
_0-5_文字-記号
  6
CONTINUOUS
 62
    3
 10
286.32121649999976
 20
162.870531
 11
288.40669849999972
 21
166.48269200000001
  0
LINE
  8
_0-5_文字-記号
  6
CONTINUOUS
 62
    3
 10
256.56889249999972
 20
170.968512
 11
251.65676949999988
 21
162.460466
  0
TEXT
  8
_0-5_文字-記号
 62
    7
 10
237.50865858245083
 20
163.01461856017329
 40
2
 41
0.8
 50
0
  1
千鳥に固定する
  0
LINE
  8
_0-5_文字-記号
  6
CONTINUOUS
 62
    3
 10
251.65676949999988
 20
162.460466
 11
240.84258149999982
 21
162.460466
  0
CIRCLE
  8
_0-5_文字-記号
  6
CONTINUOUS
 62
    3
 10
286.32121649999976
 20
162.870531
 40
0.2
  0
LINE
  8
_0-3_躯体と製品
  6
CONTINUOUS
 62
    3
 10
265.16286549999973
 20
175.92971700000001
 11
267.16286849999983
 21
177.92971999999989
  0
LINE
  8
_0-3_躯体と製品
  6
CONTINUOUS
 62
    3
 10
264.17291549999982
 20
175.92971700000001
 11
266.1729184999997
 21
177.92971999999989
  0
LINE
  8
_0-3_躯体と製品
  6
CONTINUOUS
 62
    2
 10
271.99216849999971
 20
178.12971999999999
 11
253.10253649999981
 21
178.12971999999999
  0
LINE
  8
_0-3_躯体と製品
  6
CONTINUOUS
 62
    2
 10
271.99216849999971
 20
177.92971999999989
 11
253.1025374999997
 21
177.92971999999989
  0
LINE
  8
_0-3_躯体と製品
  6
CONTINUOUS
 62
    2
 10
264.20255249999968
 20
178.62972099999999
 11
268.10255849999976
 21
178.62972099999999
  0
LINE
  8
_0-3_躯体と製品
  6
CONTINUOUS
 62
    2
 10
265.40255449999972
 20
178.22972000000001
 11
266.40255549999983
 21
178.22972000000001
  0
LINE
  8
_0-3_躯体と製品
  6
CONTINUOUS
 62
    2
 10
271.10256249999975
 20
177.92971999999989
 11
245.50486549999982
 21
177.92971999999989
  0
LINE
  8
_0-3_躯体と製品
  6
CONTINUOUS
 62
    2
 10
247.10252849999983
 20
175.92971700000001
 11
271.10256249999975
 21
175.92971700000001
  0
LINE
  8
_0-3_躯体と製品
  6
CONTINUOUS
 62
    2
 10
266.00255549999974
 20
182.86972700000001
 11
267.00255649999986
 21
182.86972700000001
  0
LINE
  8
_0-3_躯体と製品
  6
CONTINUOUS
 62
    2
 10
258.91254449999974
 20
182.32972599999999
 11
278.05257249999977
 21
182.32972599999999
  0
LINE
  8
_0-5_文字-記号
  6
CONTINUOUS
 62
    3
 10
266.00255549999974
 20
182.86972700000001
 11
268.09889949999979
 21
186.50070199999999
  0
CIRCLE
  8
_0-5_文字-記号
  6
CONTINUOUS
 62
    3
 10
266.00255549999974
 20
182.86972700000001
 40
0.2
  0
LINE
  8
_0-5_文字-記号
  6
CONTINUOUS
 62
    3
 10
265.20514249999974
 20
170.57429300000001
 11
268.21617649999985
 21
166.985883
  0
LINE
  8
_0-5_文字-記号
  6
CONTINUOUS
 62
    3
 10
265.90255449999972
 20
178.929721
 11
272.25710549999985
 21
171.35666299999991
  0
CIRCLE
  8
_0-5_文字-記号
  6
CONTINUOUS
 62
    3
 10
265.90255449999972
 20
178.929721
 40
0.2
  0
LINE
  8
_0-3_躯体と製品
  6
CONTINUOUS
 62
    3
 10
247.10252849999983
 20
176.6784199999999
 11
248.35382749999985
 21
177.92971999999989
  0
LINE
  8
_0-3_躯体と製品
  6
CONTINUOUS
 62
    3
 10
247.34377449999988
 20
175.92971700000001
 11
249.34377749999976
 21
177.92971999999989
  0
LINE
  8
_0-3_躯体と製品
  6
CONTINUOUS
 62
    3
 10
248.33372449999979
 20
175.92971700000001
 11
250.33372649999978
 21
177.92971999999989
  0
LINE
  8
_0-3_躯体と製品
  6
CONTINUOUS
 62
    3
 10
249.32367349999981
 20
175.92971700000001
 11
251.32367649999969
 21
177.92971999999989
  0
LINE
  8
_0-3_躯体と製品
  6
CONTINUOUS
 62
    3
 10
250.31362349999972
 20
175.92971700000001
 11
252.31362549999972
 21
177.92971999999989
  0
LINE
  8
_0-3_躯体と製品
  6
CONTINUOUS
 62
    3
 10
251.30357249999975
 20
175.92971700000001
 11
253.30357549999985
 21
177.92971999999989
  0
LINE
  8
_0-3_躯体と製品
  6
CONTINUOUS
 62
    3
 10
252.29352249999988
 20
175.92971700000001
 11
254.29352449999988
 21
177.92971999999989
  0
LINE
  8
_0-3_躯体と製品
  6
CONTINUOUS
 62
    3
 10
253.28347149999968
 20
175.92971700000001
 11
255.28347449999978
 21
177.92971999999989
  0
LINE
  8
_0-3_躯体と製品
  6
CONTINUOUS
 62
    3
 10
254.27342149999981
 20
175.92971700000001
 11
256.27342349999981
 21
177.92971999999989
  0
LINE
  8
_0-3_躯体と製品
  6
CONTINUOUS
 62
    3
 10
255.26337049999984
 20
175.92971700000001
 11
257.26337349999972
 21
177.92971999999989
  0
LINE
  8
_0-3_躯体と製品
  6
CONTINUOUS
 62
    3
 10
256.25332049999975
 20
175.92971700000001
 11
258.25332249999974
 21
177.92971999999989
  0
LINE
  8
_0-3_躯体と製品
  6
CONTINUOUS
 62
    3
 10
257.24326949999977
 20
175.92971700000001
 11
259.24327249999988
 21
177.92971999999989
  0
LINE
  8
_0-3_躯体と製品
  6
CONTINUOUS
 62
    3
 10
263.18296649999979
 20
175.92971700000001
 11
265.18296949999967
 21
177.92971999999989
  0
LINE
  8
_0-3_躯体と製品
  6
CONTINUOUS
 62
    3
 10
262.19301649999989
 20
175.92971700000001
 11
264.19301949999976
 21
177.92971999999989
  0
LINE
  8
_0-3_躯体と製品
  6
CONTINUOUS
 62
    3
 10
261.20306749999986
 20
175.92971700000001
 11
263.20307049999974
 21
177.92971999999989
  0
LINE
  8
_0-3_躯体と製品
  6
CONTINUOUS
 62
    3
 10
260.21311749999973
 20
175.92971700000001
 11
262.21312049999983
 21
177.92971999999989
  0
LINE
  8
_0-3_躯体と製品
  6
CONTINUOUS
 62
    3
 10
259.2231684999997
 20
175.92971700000001
 11
261.22317149999981
 21
177.92971999999989
  0
LINE
  8
_0-3_躯体と製品
  6
CONTINUOUS
 62
    3
 10
258.23321849999979
 20
175.92971700000001
 11
260.23322149999967
 21
177.92971999999989
  0
LINE
  8
_0-3_躯体と製品
  6
PLINE3
 62
    3
 10
264.10255249999977
 20
179.36662100000001
 11
264.10255249999977
 21
169.19296099999991
  0
LINE
  8
_0-3_躯体と製品
  6
CONTINUOUS
 62
    2
 10
247.10252849999983
 20
177.92971999999989
 11
247.10252849999983
 21
175.92971700000001
  0
LINE
  8
_0-3_躯体と製品
  6
PLINE2
 62
    3
 10
255.10253949999969
 20
177.92971999999989
 11
255.30253949999974
 21
176.92971799999989
  0
LINE
  8
_0-3_躯体と製品
  6
PLINE2
 62
    3
 10
255.30253949999974
 20
177.92971999999989
 11
255.30253949999974
 21
176.3297179999999
  0
LINE
  8
_0-3_躯体と製品
  6
PLINE2
 62
    3
 10
256.1025404999998
 20
176.92971799999989
 11
256.1025404999998
 21
177.92971999999989
  0
LINE
  8
_0-3_躯体と製品
  6
PLINE2
 62
    3
 10
255.90254049999976
 20
177.92971999999989
 11
256.1025404999998
 21
176.92971799999989
  0
LINE
  8
_0-3_躯体と製品
  6
PLINE2
 62
    3
 10
256.30254049999985
 20
177.92971999999989
 11
256.1025404999998
 21
176.92971799999989
  0
LINE
  8
_0-3_躯体と製品
  6
PLINE2
 62
    3
 10
257.1025424999998
 20
177.92971999999989
 11
256.90254149999987
 21
176.92971799999989
  0
LINE
  8
_0-3_躯体と製品
  6
PLINE2
 62
    3
 10
256.90254149999987
 20
177.92971999999989
 11
256.90254149999987
 21
176.3297179999999
  0
LINE
  8
_0-3_躯体と製品
  6
PLINE2
 62
    3
 10
264.10255249999977
 20
176.92971799999989
 11
264.10255249999977
 21
177.92971999999989
  0
LINE
  8
_0-3_躯体と製品
  6
PLINE2
 62
    3
 10
263.90255149999984
 20
177.92971999999989
 11
264.10255249999977
 21
176.92971799999989
  0
LINE
  8
_0-3_躯体と製品
  6
PLINE2
 62
    3
 10
264.30255249999982
 20
177.92971999999989
 11
264.10255249999977
 21
176.92971799999989
  0
LINE
  8
_0-3_躯体と製品
  6
PLINE2
 62
    3
 10
265.10255349999989
 20
177.92971999999989
 11
264.90255349999984
 21
176.92971799999989
  0
LINE
  8
_0-3_躯体と製品
  6
PLINE2
 62
    3
 10
264.90255349999984
 20
177.92971999999989
 11
264.90255349999984
 21
176.3297179999999
  0
LINE
  8
_0-3_躯体と製品
  6
PLINE3
 62
    3
 10
256.1025404999998
 20
179.919847
 11
256.1025404999998
 21
169.19296099999991
  0
LINE
  8
_0-3_躯体と製品
  6
PLINE2
 62
    3
 10
263.10255049999978
 20
177.92971999999989
 11
263.30255049999982
 21
176.92971799999989
  0
LINE
  8
_0-3_躯体と製品
  6
PLINE2
 62
    3
 10
263.30255049999982
 20
177.92971999999989
 11
263.30255049999982
 21
176.3297179999999
  0
LINE
  8
_0-3_躯体と製品
  6
PLINE3
 62
    3
 10
264.10255249999977
 20
179.919847
 11
264.10255249999977
 21
169.19296099999991
  0
LINE
  8
_0-5_文字-記号
  6
CONTINUOUS
 62
    3
 10
264.10255249999977
 20
179.36662100000001
 11
261.07112649999976
 21
174.116038
  0
LINE
  8
_0-5_文字-記号
  6
CONTINUOUS
 62
    3
 10
253.19110349999983
 20
176.73953800000001
 11
248.01047849999986
 21
167.76643200000001
  0
LINE
  8
_0-3_躯体と製品
  6
PLINE2
 62
    3
 10
255.67805649999968
 20
170.13820599999991
 11
256.00254049999967
 21
176.3297179999999
  0
LINE
  8
_0-3_躯体と製品
  6
PLINE2
 62
    3
 10
256.52702349999981
 20
170.13820599999991
 11
256.20254049999971
 21
176.3297179999999
  0
LINE
  8
_0-3_躯体と製品
  6
PLINE2
 62
    3
 10
255.02088449999974
 20
170.97374600000001
 11
254.99994949999973
 21
170.57429300000001
  0
LINE
  8
_0-3_躯体と製品
  6
PLINE2
 62
    3
 10
257.18419649999987
 20
170.97374600000001
 11
257.20513149999988
 21
170.57429300000001
  0
LINE
  8
_0-3_躯体と製品
  6
PLINE2
 62
    3
 10
263.67806849999988
 20
170.13820599999991
 11
264.00255149999975
 21
176.3297179999999
  0
LINE
  8
_0-3_躯体と製品
  6
PLINE2
 62
    3
 10
264.52703549999978
 20
170.13820599999991
 11
264.20255249999968
 21
176.3297179999999
  0
LINE
  8
_0-3_躯体と製品
  6
PLINE2
 62
    3
 10
263.02089549999982
 20
170.97374600000001
 11
262.9999614999997
 21
170.57429300000001
  0
LINE
  8
_0-3_躯体と製品
  6
PLINE2
 62
    3
 10
265.18420849999984
 20
170.97374600000001
 11
265.20514249999974
 21
170.57429300000001
  0
CIRCLE
  8
_0-5_文字-記号
  6
CONTINUOUS
 62
    3
 10
265.20514249999974
 20
170.57429300000001
 40
0.2
  0
LINE
  8
_0-3_躯体と製品
  6
PLINE2
 62
    3
 10
255.69899149999969
 20
170.53765799999991
 11
254.99994949999973
 21
170.57429300000001
  0
LINE
  8
_0-3_躯体と製品
  6
PLINE2
 62
    3
 10
254.99994949999973
 20
170.57429300000001
 11
255.37846749999972
 21
170.15390600000001
  0
LINE
  8
_0-3_躯体と製品
  6
PLINE2
 62
    3
 10
255.37846749999972
 20
170.15390600000001
 11
255.67805649999968
 21
170.13820599999991
  0
LINE
  8
_0-3_躯体と製品
  6
PLINE2
 62
    3
 10
256.50608949999969
 20
170.53765799999991
 11
257.20513149999988
 21
170.57429300000001
  0
LINE
  8
_0-3_躯体と製品
  6
PLINE2
 62
    3
 10
257.20513149999988
 20
170.57429300000001
 11
256.82661349999967
 21
170.15390600000001
  0
LINE
  8
_0-3_躯体と製品
  6
PLINE2
 62
    3
 10
256.82661349999967
 20
170.15390600000001
 11
256.52702349999981
 21
170.13820599999991
  0
LINE
  8
_0-3_躯体と製品
  6
PLINE2
 62
    3
 10
263.69900249999978
 20
170.53765799999991
 11
262.9999614999997
 21
170.57429300000001
  0
LINE
  8
_0-3_躯体と製品
  6
PLINE2
 62
    3
 10
262.9999614999997
 20
170.57429300000001
 11
263.3784784999998
 21
170.15390600000001
  0
LINE
  8
_0-3_躯体と製品
  6
PLINE2
 62
    3
 10
263.3784784999998
 20
170.15390600000001
 11
263.67806849999988
 21
170.13820599999991
  0
LINE
  8
_0-3_躯体と製品
  6
PLINE2
 62
    3
 10
264.50610049999977
 20
170.53765799999991
 11
265.20514249999974
 21
170.57429300000001
  0
LINE
  8
_0-3_躯体と製品
  6
PLINE2
 62
    3
 10
265.20514249999974
 20
170.57429300000001
 11
264.82662449999975
 21
170.15390600000001
  0
LINE
  8
_0-3_躯体と製品
  6
PLINE2
 62
    3
 10
264.82662449999975
 20
170.15390600000001
 11
264.52703549999978
 21
170.13820599999991
  0
LINE
  8
_0-3_躯体と製品
  6
PLINE2
 62
    3
 10
256.55446649999976
 20
175.34678699999989
 11
256.57540049999989
 21
174.9473349999999
  0
LINE
  8
_0-3_躯体と製品
  6
PLINE2
 62
    3
 10
256.57540049999989
 20
174.9473349999999
 11
256.97485249999977
 21
174.96826899999991
  0
LINE
  8
_0-3_躯体と製品
  6
PLINE2
 62
    3
 10
256.11440149999976
 20
170.74157099999999
 11
255.72766049999973
 21
171.08470500000001
  0
LINE
  8
_0-3_躯体と製品
  6
PLINE2
 62
    3
 10
256.47642949999977
 20
171.103599
 11
256.1025404999998
 21
170.7297099999999
  0
LINE
  8
_0-3_躯体と製品
  6
PLINE2
 62
    3
 10
256.90254149999987
 20
175.52971600000001
 11
256.55446649999976
 21
175.34678699999989
  0
LINE
  8
_0-3_躯体と製品
  6
PLINE2
 62
    3
 10
255.17789249999987
 20
173.969638
 11
254.83881849999989
 21
174.90123600000001
  0
LINE
  8
_0-3_躯体と製品
  6
PLINE2
 62
    3
 10
255.39072749999968
 20
173.969638
 11
255.0267574999998
 21
174.96964
  0
LINE
  8
_0-3_躯体と製品
  6
PLINE2
 62
    3
 10
257.02718849999974
 20
173.969638
 11
257.36626249999972
 21
174.90123600000001
  0
LINE
  8
_0-3_躯体と製品
  6
PLINE2
 62
    3
 10
256.81435249999981
 20
173.969638
 11
257.17832349999981
 21
174.96964
  0
LINE
  8
_0-3_躯体と製品
  6
PLINE2
 62
    3
 10
255.30253949999974
 20
175.52971600000001
 11
255.30253949999974
 21
176.3297179999999
  0
LINE
  8
_0-3_躯体と製品
  6
PLINE2
 62
    3
 10
256.90254149999987
 20
175.52971600000001
 11
256.90254149999987
 21
176.3297179999999
  0
LINE
  8
_0-3_躯体と製品
  6
PLINE2
 62
    3
 10
257.36626249999972
 20
174.90123600000001
 11
257.56473349999987
 21
176.26196200000001
  0
ARC
  8
_0-3_躯体と製品
  6
PLINE2
 62
    3
 10
257.48557149999988
 20
176.27350799999999
 40
0.08
 50
351.70153400000004
 51
81.869898000002124
  0
LINE
  8
_0-3_躯体と製品
  6
PLINE2
 62
    3
 10
257.49688449999985
 20
176.35270400000002
 11
257.45752049999987
 21
176.358328
  0
ARC
  8
_0-3_躯体と製品
  6
PLINE2
 62
    3
 10
257.44620649999979
 20
176.279132
 40
0.08
 50
81.869898000002095
 51
171.8698979999985
  0
LINE
  8
_0-3_躯体と製品
  6
PLINE2
 62
    3
 10
257.36701049999988
 20
176.29044599999989
 11
257.17832349999981
 21
174.96964
  0
LINE
  8
_0-3_躯体と製品
  6
PLINE2
 62
    3
 10
254.83881849999989
 20
174.90123600000001
 11
254.64034749999973
 21
176.26196200000001
  0
ARC
  8
_0-3_躯体と製品
  6
PLINE2
 62
    3
 10
254.71950949999973
 20
176.27350799999999
 40
0.08
 50
98.130101999997891
 51
188.29846599999979
  0
LINE
  8
_0-3_躯体と製品
  6
PLINE2
 62
    3
 10
254.70819549999987
 20
176.35270400000002
 11
254.74756149999985
 21
176.358328
  0
ARC
  8
_0-3_躯体と製品
  6
PLINE2
 62
    3
 10
254.75887449999982
 20
176.279132
 40
0.08
 50
8.1301020000014788
 51
98.130101999997905
  0
LINE
  8
_0-3_躯体と製品
  6
PLINE2
 62
    3
 10
254.83807049999973
 20
176.29044599999989
 11
255.0267574999998
 21
174.96964
  0
LINE
  8
_0-3_躯体と製品
  6
PLINE2
 62
    3
 10
254.83881849999989
 20
174.90123600000001
 11
254.64034749999973
 21
176.26196200000001
  0
ARC
  8
_0-3_躯体と製品
  6
PLINE2
 62
    3
 10
254.71950949999973
 20
176.27350799999999
 40
0.08
 50
98.130101999997891
 51
188.29846599999979
  0
LINE
  8
_0-3_躯体と製品
  6
PLINE2
 62
    3
 10
254.70819549999987
 20
176.35270400000002
 11
254.74756149999985
 21
176.358328
  0
ARC
  8
_0-3_躯体と製品
  6
PLINE2
 62
    3
 10
254.75887449999982
 20
176.279132
 40
0.08
 50
8.1301020000014788
 51
98.130101999997905
  0
LINE
  8
_0-3_躯体と製品
  6
PLINE2
 62
    3
 10
254.83807049999973
 20
176.29044599999989
 11
255.0267574999998
 21
174.96964
  0
LINE
  8
_0-3_躯体と製品
  6
PLINE2
 62
    3
 10
256.00254049999967
 20
176.3297179999999
 11
256.1025404999998
 21
176.3297179999999
  0
LINE
  8
_0-3_躯体と製品
  6
PLINE2
 62
    3
 10
256.20254049999971
 20
176.3297179999999
 11
256.1025404999998
 21
176.3297179999999
  0
LINE
  8
_0-3_躯体と製品
  6
PLINE2
 62
    3
 10
255.0522854999997
 20
171.572924
 11
255.44127049999975
 21
171.35226299999999
  0
LINE
  8
_0-3_躯体と製品
  6
PLINE2
 62
    3
 10
255.44127049999975
 20
171.35226299999999
 11
255.42033649999985
 21
170.952811
  0
LINE
  8
_0-3_躯体と製品
  6
PLINE2
 62
    3
 10
255.42033649999985
 20
170.952811
 11
255.02088449999974
 21
170.97374600000001
  0
LINE
  8
_0-3_躯体と製品
  6
PLINE2
 62
    3
 10
255.07322049999971
 20
171.97237699999999
 11
255.0522854999997
 21
171.572924
  0
LINE
  8
_0-3_躯体と製品
  6
PLINE2
 62
    3
 10
255.10462149999967
 20
172.57155499999999
 11
255.49360649999971
 21
172.35089400000001
  0
LINE
  8
_0-3_躯体と製品
  6
PLINE2
 62
    3
 10
255.49360649999971
 20
172.35089400000001
 11
255.47267249999982
 21
171.95144200000001
  0
LINE
  8
_0-3_躯体と製品
  6
PLINE2
 62
    3
 10
255.47267249999982
 20
171.95144200000001
 11
255.07322049999971
 21
171.97237699999999
  0
LINE
  8
_0-3_躯体と製品
  6
PLINE2
 62
    3
 10
255.12555549999979
 20
172.97100700000001
 11
255.10462149999967
 21
172.57155499999999
  0
LINE
  8
_0-3_躯体と製品
  6
PLINE2
 62
    3
 10
255.15695749999986
 20
173.57018600000001
 11
255.54594249999968
 21
173.349525
  0
LINE
  8
_0-3_躯体と製品
  6
PLINE2
 62
    3
 10
255.54594249999968
 20
173.349525
 11
255.52500849999979
 21
172.950073
  0
LINE
  8
_0-3_躯体と製品
  6
PLINE2
 62
    3
 10
255.52500849999979
 20
172.950073
 11
255.12555549999979
 21
172.97100700000001
  0
LINE
  8
_0-3_躯体と製品
  6
PLINE2
 62
    3
 10
255.17789249999987
 20
173.969638
 11
255.15695749999986
 21
173.57018600000001
  0
LINE
  8
_0-3_躯体と製品
  6
PLINE2
 62
    3
 10
255.20929349999983
 20
174.568817
 11
255.59827949999976
 21
174.3481559999999
  0
LINE
  8
_0-3_躯体と製品
  6
PLINE2
 62
    3
 10
255.59827949999976
 20
174.3481559999999
 11
255.57734449999975
 21
173.94870399999999
  0
LINE
  8
_0-3_躯体と製品
  6
PLINE2
 62
    3
 10
255.57734449999975
 20
173.94870399999999
 11
255.17789249999987
 21
173.969638
  0
LINE
  8
_0-3_躯体と製品
  6
PLINE2
 62
    3
 10
255.23022849999984
 20
174.96826899999991
 11
255.20929349999983
 21
174.568817
  0
LINE
  8
_0-3_躯体と製品
  6
PLINE2
 62
    3
 10
255.65061549999973
 20
175.34678699999989
 11
255.62968049999972
 21
174.9473349999999
  0
LINE
  8
_0-3_躯体と製品
  6
PLINE2
 62
    3
 10
255.62968049999972
 20
174.9473349999999
 11
255.23022849999984
 21
174.96826899999991
  0
LINE
  8
_0-3_躯体と製品
  6
PLINE2
 62
    3
 10
255.30253949999974
 20
175.52971600000001
 11
255.65061549999973
 21
175.34678699999989
  0
LINE
  8
_0-3_躯体と製品
  6
PLINE2
 62
    3
 10
257.15279549999968
 20
171.572924
 11
256.76380949999975
 21
171.35226299999999
  0
LINE
  8
_0-3_躯体と製品
  6
PLINE2
 62
    3
 10
256.76380949999975
 20
171.35226299999999
 11
256.78474449999976
 21
170.952811
  0
LINE
  8
_0-3_躯体と製品
  6
PLINE2
 62
    3
 10
256.78474449999976
 20
170.952811
 11
257.18419649999987
 21
170.97374600000001
  0
LINE
  8
_0-3_躯体と製品
  6
PLINE2
 62
    3
 10
257.13186049999968
 20
171.97237699999999
 11
257.15279549999968
 21
171.572924
  0
LINE
  8
_0-3_躯体と製品
  6
PLINE2
 62
    3
 10
257.10045949999972
 20
172.57155499999999
 11
256.71147449999967
 21
172.35089400000001
  0
LINE
  8
_0-3_躯体と製品
  6
PLINE2
 62
    3
 10
256.71147449999967
 20
172.35089400000001
 11
256.73240849999979
 21
171.95144200000001
  0
LINE
  8
_0-3_躯体と製品
  6
PLINE2
 62
    3
 10
256.73240849999979
 20
171.95144200000001
 11
257.13186049999968
 21
171.97237699999999
  0
LINE
  8
_0-3_躯体と製品
  6
PLINE2
 62
    3
 10
257.07952449999971
 20
172.97100700000001
 11
257.10045949999972
 21
172.57155499999999
  0
LINE
  8
_0-3_躯体と製品
  6
PLINE2
 62
    3
 10
257.04812349999975
 20
173.57018600000001
 11
256.6591384999997
 21
173.349525
  0
LINE
  8
_0-3_躯体と製品
  6
PLINE2
 62
    3
 10
256.6591384999997
 20
173.349525
 11
256.68007249999982
 21
172.950073
  0
LINE
  8
_0-3_躯体と製品
  6
PLINE2
 62
    3
 10
256.68007249999982
 20
172.950073
 11
257.07952449999971
 21
172.97100700000001
  0
LINE
  8
_0-3_躯体と製品
  6
PLINE2
 62
    3
 10
257.02718849999974
 20
173.969638
 11
257.04812349999975
 21
173.57018600000001
  0
LINE
  8
_0-3_躯体と製品
  6
PLINE2
 62
    3
 10
256.99578749999978
 20
174.568817
 11
256.60680249999973
 21
174.3481559999999
  0
LINE
  8
_0-3_躯体と製品
  6
PLINE2
 62
    3
 10
256.60680249999973
 20
174.3481559999999
 11
256.62773649999986
 21
173.94870399999999
  0
LINE
  8
_0-3_躯体と製品
  6
PLINE2
 62
    3
 10
256.62773649999986
 20
173.94870399999999
 11
257.02718849999974
 21
173.969638
  0
LINE
  8
_0-3_躯体と製品
  6
PLINE2
 62
    3
 10
256.97485249999977
 20
174.96826899999991
 11
256.99578749999978
 21
174.568817
  0
CIRCLE
  8
_0-5_文字-記号
  6
CONTINUOUS
 62
    3
 10
253.19110349999983
 20
176.73953800000001
 40
0.2
  0
CIRCLE
  8
_0-5_文字-記号
  6
CONTINUOUS
 62
    3
 10
256.56889249999972
 20
170.968512
 40
0.2
  0
CIRCLE
  8
_0-3_躯体と製品
  6
CONTINUOUS
 62
    3
 10
264.07325749999973
 20
176.08442300000002
 40
0.04
  0
LINE
  8
_0-3_躯体と製品
  6
PLINE2
 62
    3
 10
264.20255249999968
 20
176.3297179999999
 11
264.10255249999977
 21
176.3297179999999
  0
LINE
  8
_0-3_躯体と製品
  6
PLINE2
 62
    3
 10
264.78475549999985
 20
170.952811
 11
265.18420849999984
 21
170.97374600000001
  0
LINE
  8
_0-3_躯体と製品
  6
PLINE2
 62
    3
 10
265.13187249999987
 20
171.97237699999999
 11
265.15280649999977
 21
171.572924
  0
LINE
  8
_0-3_躯体と製品
  6
PLINE2
 62
    3
 10
265.1004704999998
 20
172.57155499999999
 11
264.71148549999975
 21
172.35089400000001
  0
LINE
  8
_0-3_躯体と製品
  6
PLINE2
 62
    3
 10
264.71148549999975
 20
172.35089400000001
 11
264.73241949999988
 21
171.95144200000001
  0
LINE
  8
_0-3_躯体と製品
  6
PLINE2
 62
    3
 10
264.73241949999988
 20
171.95144200000001
 11
265.13187249999987
 21
171.97237699999999
  0
LINE
  8
_0-3_躯体と製品
  6
PLINE2
 62
    3
 10
265.07953649999968
 20
172.97100700000001
 11
265.1004704999998
 21
172.57155499999999
  0
LINE
  8
_0-3_躯体と製品
  6
PLINE2
 62
    3
 10
265.04813449999983
 20
173.57018600000001
 11
264.65914949999978
 21
173.349525
  0
LINE
  8
_0-3_躯体と製品
  6
PLINE2
 62
    3
 10
264.65914949999978
 20
173.349525
 11
264.68008449999979
 21
172.950073
  0
LINE
  8
_0-3_躯体と製品
  6
PLINE2
 62
    3
 10
264.68008449999979
 20
172.950073
 11
265.07953649999968
 21
172.97100700000001
  0
LINE
  8
_0-3_躯体と製品
  6
PLINE2
 62
    3
 10
265.02720049999971
 20
173.969638
 11
265.04813449999983
 21
173.57018600000001
  0
LINE
  8
_0-3_躯体と製品
  6
PLINE2
 62
    3
 10
264.99579849999986
 20
174.568817
 11
264.60681349999982
 21
174.3481559999999
  0
LINE
  8
_0-3_躯体と製品
  6
PLINE2
 62
    3
 10
264.60681349999982
 20
174.3481559999999
 11
264.62774749999971
 21
173.94870399999999
  0
LINE
  8
_0-3_躯体と製品
  6
PLINE2
 62
    3
 10
264.62774749999971
 20
173.94870399999999
 11
265.02720049999971
 21
173.969638
  0
LINE
  8
_0-3_躯体と製品
  6
PLINE2
 62
    3
 10
264.97486449999974
 20
174.96826899999991
 11
264.99579849999986
 21
174.568817
  0
LINE
  8
_0-3_躯体と製品
  6
PLINE2
 62
    3
 10
264.55447749999985
 20
175.34678699999989
 11
264.57541149999975
 21
174.9473349999999
  0
LINE
  8
_0-3_躯体と製品
  6
PLINE2
 62
    3
 10
264.57541149999975
 20
174.9473349999999
 11
264.97486449999974
 21
174.96826899999991
  0
LINE
  8
_0-3_躯体と製品
  6
PLINE2
 62
    3
 10
264.11441349999973
 20
170.74157099999999
 11
263.7276724999997
 21
171.08470500000001
  0
LINE
  8
_0-3_躯体と製品
  6
PLINE2
 62
    3
 10
264.47644149999974
 20
171.103599
 11
264.10255249999977
 21
170.7297099999999
  0
LINE
  8
_0-3_躯体と製品
  6
PLINE2
 62
    3
 10
264.90255349999984
 20
175.52971600000001
 11
264.55447749999985
 21
175.34678699999989
  0
LINE
  8
_0-3_躯体と製品
  6
PLINE2
 62
    3
 10
263.17790349999973
 20
173.969638
 11
262.83882949999975
 21
174.90123600000001
  0
LINE
  8
_0-3_躯体と製品
  6
PLINE2
 62
    3
 10
263.39073949999988
 20
173.969638
 11
263.02676849999989
 21
174.96964
  0
LINE
  8
_0-3_躯体と製品
  6
PLINE2
 62
    3
 10
265.02720049999971
 20
173.969638
 11
265.36627349999981
 21
174.90123600000001
  0
LINE
  8
_0-3_躯体と製品
  6
PLINE2
 62
    3
 10
264.81436449999978
 20
173.969638
 11
265.17833549999978
 21
174.96964
  0
LINE
  8
_0-3_躯体と製品
  6
PLINE2
 62
    3
 10
263.30255049999982
 20
175.52971600000001
 11
263.30255049999982
 21
176.3297179999999
  0
LINE
  8
_0-3_躯体と製品
  6
PLINE2
 62
    3
 10
264.90255349999984
 20
175.52971600000001
 11
264.90255349999984
 21
176.3297179999999
  0
LINE
  8
_0-3_躯体と製品
  6
PLINE2
 62
    3
 10
265.36627349999981
 20
174.90123600000001
 11
265.56474549999984
 21
176.26196200000001
  0
ARC
  8
_0-3_躯体と製品
  6
PLINE2
 62
    3
 10
265.48558249999974
 20
176.27350799999999
 40
0.08
 50
351.70153400000004
 51
81.869898000002124
  0
LINE
  8
_0-3_躯体と製品
  6
PLINE2
 62
    3
 10
265.49689649999982
 20
176.35270400000002
 11
265.45753149999973
 21
176.358328
  0
ARC
  8
_0-3_躯体と製品
  6
PLINE2
 62
    3
 10
265.44621749999988
 20
176.279132
 40
0.08
 50
81.869898000002095
 51
171.8698979999985
  0
LINE
  8
_0-3_躯体と製品
  6
PLINE2
 62
    3
 10
265.36702149999974
 20
176.29044599999989
 11
265.17833549999978
 21
174.96964
  0
LINE
  8
_0-3_躯体と製品
  6
PLINE2
 62
    3
 10
262.83882949999975
 20
174.90123600000001
 11
262.64035849999982
 21
176.26196200000001
  0
ARC
  8
_0-3_躯体と製品
  6
PLINE2
 62
    3
 10
262.7195214999997
 20
176.27350799999999
 40
0.08
 50
98.130101999997891
 51
188.29846599999979
  0
LINE
  8
_0-3_躯体と製品
  6
PLINE2
 62
    3
 10
262.70820749999984
 20
176.35270400000002
 11
262.74757249999971
 21
176.358328
  0
ARC
  8
_0-3_躯体と製品
  6
PLINE2
 62
    3
 10
262.75888649999979
 20
176.279132
 40
0.08
 50
8.1301020000014788
 51
98.130101999997905
  0
LINE
  8
_0-3_躯体と製品
  6
PLINE2
 62
    3
 10
262.8380824999997
 20
176.29044599999989
 11
263.02676849999989
 21
174.96964
  0
LINE
  8
_0-3_躯体と製品
  6
PLINE2
 62
    3
 10
262.83882949999975
 20
174.90123600000001
 11
262.64035849999982
 21
176.26196200000001
  0
ARC
  8
_0-3_躯体と製品
  6
PLINE2
 62
    3
 10
262.7195214999997
 20
176.27350799999999
 40
0.08
 50
98.130101999997891
 51
188.29846599999979
  0
LINE
  8
_0-3_躯体と製品
  6
PLINE2
 62
    3
 10
262.70820749999984
 20
176.35270400000002
 11
262.74757249999971
 21
176.358328
  0
ARC
  8
_0-3_躯体と製品
  6
PLINE2
 62
    3
 10
262.75888649999979
 20
176.279132
 40
0.08
 50
8.1301020000014788
 51
98.130101999997905
  0
LINE
  8
_0-3_躯体と製品
  6
PLINE2
 62
    3
 10
262.8380824999997
 20
176.29044599999989
 11
263.02676849999989
 21
174.96964
  0
LINE
  8
_0-3_躯体と製品
  6
PLINE2
 62
    3
 10
264.00255149999975
 20
176.3297179999999
 11
264.10255249999977
 21
176.3297179999999
  0
LINE
  8
_0-3_躯体と製品
  6
PLINE2
 62
    3
 10
263.05229749999967
 20
171.572924
 11
263.44128249999972
 21
171.35226299999999
  0
LINE
  8
_0-3_躯体と製品
  6
PLINE2
 62
    3
 10
263.44128249999972
 20
171.35226299999999
 11
263.42034749999971
 21
170.952811
  0
LINE
  8
_0-3_躯体と製品
  6
PLINE2
 62
    3
 10
263.42034749999971
 20
170.952811
 11
263.02089549999982
 21
170.97374600000001
  0
LINE
  8
_0-3_躯体と製品
  6
PLINE2
 62
    3
 10
263.07323149999979
 20
171.97237699999999
 11
263.05229749999967
 21
171.572924
  0
LINE
  8
_0-3_躯体と製品
  6
PLINE2
 62
    3
 10
263.10463349999986
 20
172.57155499999999
 11
263.49361849999968
 21
172.35089400000001
  0
LINE
  8
_0-3_躯体と製品
  6
PLINE2
 62
    3
 10
263.49361849999968
 20
172.35089400000001
 11
263.47268349999968
 21
171.95144200000001
  0
LINE
  8
_0-3_躯体と製品
  6
PLINE2
 62
    3
 10
263.47268349999968
 20
171.95144200000001
 11
263.07323149999979
 21
171.97237699999999
  0
LINE
  8
_0-3_躯体と製品
  6
PLINE2
 62
    3
 10
263.12556749999976
 20
172.97100700000001
 11
263.10463349999986
 21
172.57155499999999
  0
LINE
  8
_0-3_躯体と製品
  6
PLINE2
 62
    3
 10
263.15696949999983
 20
173.57018600000001
 11
263.54595449999988
 21
173.349525
  0
LINE
  8
_0-3_躯体と製品
  6
PLINE2
 62
    3
 10
263.54595449999988
 20
173.349525
 11
263.52501949999987
 21
172.950073
  0
LINE
  8
_0-3_躯体と製品
  6
PLINE2
 62
    3
 10
263.52501949999987
 20
172.950073
 11
263.12556749999976
 21
172.97100700000001
  0
LINE
  8
_0-3_躯体と製品
  6
PLINE2
 62
    3
 10
263.17790349999973
 20
173.969638
 11
263.15696949999983
 21
173.57018600000001
  0
LINE
  8
_0-3_躯体と製品
  6
PLINE2
 62
    3
 10
263.2093054999998
 20
174.568817
 11
263.59829049999985
 21
174.3481559999999
  0
LINE
  8
_0-3_躯体と製品
  6
PLINE2
 62
    3
 10
263.59829049999985
 20
174.3481559999999
 11
263.57735649999972
 21
173.94870399999999
  0
LINE
  8
_0-3_躯体と製品
  6
PLINE2
 62
    3
 10
263.57735649999972
 20
173.94870399999999
 11
263.17790349999973
 21
173.969638
  0
LINE
  8
_0-3_躯体と製品
  6
PLINE2
 62
    3
 10
263.2302394999997
 20
174.96826899999991
 11
263.2093054999998
 21
174.568817
  0
LINE
  8
_0-3_躯体と製品
  6
PLINE2
 62
    3
 10
263.65062649999982
 20
175.34678699999989
 11
263.62969249999969
 21
174.9473349999999
  0
LINE
  8
_0-3_躯体と製品
  6
PLINE2
 62
    3
 10
263.62969249999969
 20
174.9473349999999
 11
263.2302394999997
 21
174.96826899999991
  0
LINE
  8
_0-3_躯体と製品
  6
PLINE2
 62
    3
 10
263.30255049999982
 20
175.52971600000001
 11
263.65062649999982
 21
175.34678699999989
  0
LINE
  8
_0-3_躯体と製品
  6
PLINE2
 62
    3
 10
265.15280649999977
 20
171.572924
 11
264.76382149999972
 21
171.35226299999999
  0
LINE
  8
_0-3_躯体と製品
  6
PLINE2
 62
    3
 10
264.76382149999972
 20
171.35226299999999
 11
264.78475549999985
 21
170.952811
  0
CIRCLE
  8
_0-5_文字-記号
  6
CONTINUOUS
 62
    3
 10
260.32112549999988
 20
172.81699800000001
 40
1.5000020000000001
  0
TEXT
  8
_0-5_文字-記号
 62
    7
 10
258.50778116666675
 20
172.037002
 40
2
 41
0.8
 50
0
  1
１０
  0
LINE
  8
_0-3_躯体と製品
  6
CONTINUOUS
 62
    2
 10
258.25254449999989
 20
182.82972699999999
 11
245.50486549999982
 21
182.82972699999999
  0
LINE
  8
_0-3_躯体と製品
  6
CONTINUOUS
 62
    3
 10
247.10252849999983
 20
177.6683699999999
 11
247.36387849999983
 21
177.92971999999989
  0
LINE
  8
_0-3_躯体と製品
  6
PLINE3
 62
    3
 10
260.40254749999986
 20
183.34020599999991
 11
260.40254749999986
 21
179.919847
  0
LINE
  8
_0-5_文字-記号
  6
CONTINUOUS
 62
    3
 10
260.40254749999986
 20
182.369733
 11
262.86406949999969
 21
186.6332139999999
  0
LINE
  8
_0-3_躯体と製品
  6
CONTINUOUS
 62
    2
 10
258.20254349999982
 20
181.02972400000002
 11
258.7025444999997
 21
181.02972400000002
  0
LINE
  8
_0-3_躯体と製品
  6
CONTINUOUS
 62
    2
 10
261.80254949999971
 20
178.12971999999999
 11
258.40254449999975
 21
178.12971999999999
  0
ARC
  8
_0-3_躯体と製品
  6
CONTINUOUS
 62
    2
 10
258.50254449999989
 20
181.42972499999999
 40
0.1
 50
180
 51
270
  0
LINE
  8
_0-3_躯体と製品
  6
CONTINUOUS
 62
    2
 10
258.50254449999989
 20
178.62972099999999
 11
253.20253649999972
 21
178.62972099999999
  0
ARC
  8
_0-3_躯体と製品
  6
CONTINUOUS
 62
    2
 10
258.55254449999984
 20
181.62972500000001
 40
0.1
 50
180
 51
270
  0
LINE
  8
_0-3_躯体と製品
  6
CONTINUOUS
 62
    2
 10
253.1025374999997
 20
178.12971999999999
 11
253.1025374999997
 21
177.92971999999989
  0
LINE
  8
_0-3_躯体と製品
  6
CONTINUOUS
 62
    2
 10
257.40254249999975
 20
178.12971999999999
 11
254.80253949999974
 21
178.12971999999999
  0
LINE
  8
_0-3_躯体と製品
  6
CONTINUOUS
 62
    2
 10
253.80253749999974
 20
178.12971999999999
 11
253.20253649999972
 21
178.12971999999999
  0
ARC
  8
_0-3_躯体と製品
  6
PLINE2
 62
    3
 10
255.80198749999977
 20
178.90397899999999
 40
0.600001
 50
128.61463800000061
 51
177.54107400000063
  0
ARC
  8
_0-3_躯体と製品
  6
PLINE2
 62
    3
 10
256.1025404999998
 20
178.529721
 40
1.0800019999999999
 50
90
 51
128.68218700000079
  0
ARC
  8
_0-3_躯体と製品
  6
PLINE2
 62
    3
 10
256.1025404999998
 20
178.529721
 40
1.0800019999999999
 50
51.148938000002367
 51
90
  0
ARC
  8
_0-3_躯体と製品
  6
PLINE2
 62
    3
 10
256.40309349999984
 20
178.90397899999999
 40
0.600001
 50
2.4589259999993982
 51
51.385361999999361
  0
LINE
  8
_0-3_躯体と製品
  6
PLINE2
 62
    3
 10
257.90254349999987
 20
178.929721
 11
254.30253849999986
 21
178.929721
  0
LINE
  8
_0-3_躯体と製品
  6
PLINE2
 62
    3
 10
254.30253849999986
 20
178.929721
 11
254.30253849999986
 21
178.62972099999999
  0
LINE
  8
_0-3_躯体と製品
  6
PLINE2
 62
    3
 10
257.90254349999987
 20
178.929721
 11
257.90254349999987
 21
178.62972099999999
  0
ARC
  8
_0-3_躯体と製品
  6
CONTINUOUS
 62
    2
 10
258.20254349999982
 20
181.12972400000001
 40
0.1
 50
180
 51
270
  0
LINE
  8
_0-3_躯体と製品
  6
CONTINUOUS
 62
    2
 10
258.10254349999968
 20
182.6797269999999
 11
258.10254349999968
 21
181.12972400000001
  0
LINE
  8
_0-3_躯体と製品
  6
CONTINUOUS
 62
    2
 10
258.40254449999975
 20
182.6797269999999
 11
258.40254449999975
 21
181.42972499999999
  0
ARC
  8
_0-3_躯体と製品
  6
CONTINUOUS
 62
    2
 10
258.25254449999989
 20
182.6797269999999
 40
0.1499999999999999
 50
0
 51
180
  0
LINE
  8
_0-3_躯体と製品
  6
CONTINUOUS
 62
    2
 10
253.80253749999974
 20
178.12971999999999
 11
253.80253749999974
 21
178.22972000000001
  0
LINE
  8
_0-3_躯体と製品
  6
CONTINUOUS
 62
    2
 10
253.80253749999974
 20
178.22972000000001
 11
254.80253949999974
 21
178.22972000000001
  0
LINE
  8
_0-3_躯体と製品
  6
CONTINUOUS
 62
    2
 10
254.80253949999974
 20
178.22972000000001
 11
254.80253949999974
 21
178.12971999999999
  0
LINE
  8
_0-3_躯体と製品
  6
CONTINUOUS
 62
    2
 10
257.40254249999975
 20
178.12971999999999
 11
257.40254249999975
 21
178.22972000000001
  0
LINE
  8
_0-3_躯体と製品
  6
CONTINUOUS
 62
    2
 10
257.40254249999975
 20
178.22972000000001
 11
258.40254449999975
 21
178.22972000000001
  0
LINE
  8
_0-3_躯体と製品
  6
CONTINUOUS
 62
    2
 10
258.40254449999975
 20
178.22972000000001
 11
258.40254449999975
 21
178.12971999999999
  0
ARC
  8
_0-3_躯体と製品
  6
CONTINUOUS
 62
    2
 10
253.20253649999972
 20
178.22972000000001
 40
0.1
 50
180
 51
270
  0
ARC
  8
_0-3_躯体と製品
  6
CONTINUOUS
 62
    2
 10
253.20253649999972
 20
178.529721
 40
0.1
 50
90
 51
180
  0
LINE
  8
_0-3_躯体と製品
  6
CONTINUOUS
 62
    2
 10
253.10253649999981
 20
178.529721
 11
253.10253649999981
 21
178.22972000000001
  0
LINE
  8
_0-3_躯体と製品
  6
CONTINUOUS
 62
    3
 10
260.00254649999988
 20
182.369733
 11
260.80254749999972
 21
182.369733
  0
LINE
  8
_0-3_躯体と製品
  6
CONTINUOUS
 62
    3
 10
260.80254749999972
 20
182.369733
 11
261.36254849999978
 21
182.92973399999991
  0
LINE
  8
_0-3_躯体と製品
  6
CONTINUOUS
 62
    3
 10
259.44254549999982
 20
182.92973399999991
 11
260.00254649999988
 21
182.369733
  0
LINE
  8
_0-3_躯体と製品
  6
CONTINUOUS
 62
    3
 10
260.10254649999979
 20
181.1697309999999
 11
260.63166749999982
 21
181.1697309999999
  0
LINE
  8
_0-3_躯体と製品
  6
CONTINUOUS
 62
    3
 10
260.70254749999981
 20
181.1431509999999
 11
260.70254749999981
 21
180.6196129999999
  0
LINE
  8
_0-3_躯体と製品
  6
CONTINUOUS
 62
    3
 10
260.70254749999981
 20
180.6196129999999
 11
260.40254749999986
 21
180.319613
  0
LINE
  8
_0-3_躯体と製品
  6
CONTINUOUS
 62
    3
 10
260.40254749999986
 20
180.319613
 11
260.10254649999979
 21
180.6196129999999
  0
LINE
  8
_0-3_躯体と製品
  6
CONTINUOUS
 62
    3
 10
260.10254649999979
 20
180.6196129999999
 11
260.10254649999979
 21
181.1697309999999
  0
LINE
  8
_0-3_躯体と製品
  6
CONTINUOUS
 62
    3
 10
260.10254649999979
 20
181.1697309999999
 11
260.40254749999986
 21
180.319613
  0
LINE
  8
_0-3_躯体と製品
  6
CONTINUOUS
 62
    3
 10
260.70254749999981
 20
180.6196129999999
 11
260.32754749999981
 21
180.6196129999999
  0
LINE
  8
_0-3_躯体と製品
  6
CONTINUOUS
 62
    3
 10
260.10254649999979
 20
181.1431509999999
 11
260.00254649999988
 21
181.1697309999999
  0
LINE
  8
_0-3_躯体と製品
  6
CONTINUOUS
 62
    3
 10
260.00254649999988
 20
181.1697309999999
 11
260.10254649999979
 21
181.271311
  0
LINE
  8
_0-3_躯体と製品
  6
CONTINUOUS
 62
    3
 10
260.70254749999981
 20
181.57131200000001
 11
260.10254649999979
 21
181.79631199999992
  0
LINE
  8
_0-3_躯体と製品
  6
CONTINUOUS
 62
    3
 10
260.10254649999979
 20
181.79631199999992
 11
260.00254649999988
 21
181.769732
  0
LINE
  8
_0-3_躯体と製品
  6
CONTINUOUS
 62
    3
 10
260.00254649999988
 20
181.769732
 11
260.10254649999979
 21
181.66815199999991
  0
LINE
  8
_0-3_躯体と製品
  6
CONTINUOUS
 62
    3
 10
260.10254649999979
 20
181.66815199999991
 11
260.70254749999981
 21
181.443152
  0
LINE
  8
_0-3_躯体と製品
  6
CONTINUOUS
 62
    3
 10
260.70254749999981
 20
181.443152
 11
260.80254749999972
 21
181.46973199999999
  0
LINE
  8
_0-3_躯体と製品
  6
CONTINUOUS
 62
    3
 10
260.80254749999972
 20
181.46973199999999
 11
260.70254749999981
 21
181.57131200000001
  0
LINE
  8
_0-3_躯体と製品
  6
CONTINUOUS
 62
    3
 10
260.00254649999988
 20
181.769732
 11
260.80254749999972
 21
181.46973199999999
  0
LINE
  8
_0-3_躯体と製品
  6
CONTINUOUS
 62
    3
 10
260.70254749999981
 20
181.432232
 11
260.70254749999981
 21
181.271311
  0
LINE
  8
_0-3_躯体と製品
  6
CONTINUOUS
 62
    3
 10
260.10254649999979
 20
181.66815199999991
 11
260.10254649999979
 21
181.49631200000002
  0
LINE
  8
_0-3_躯体と製品
  6
CONTINUOUS
 62
    3
 10
260.10254649999979
 20
181.36815200000001
 11
260.10254649999979
 21
181.1697309999999
  0
LINE
  8
_0-3_躯体と製品
  6
CONTINUOUS
 62
    3
 10
260.70254749999981
 20
182.369733
 11
260.70254749999981
 21
182.171313
  0
LINE
  8
_0-3_躯体と製品
  6
CONTINUOUS
 62
    3
 10
260.10254649999979
 20
182.26815300000001
 11
260.10254649999979
 21
182.09631300000001
  0
LINE
  8
_0-3_躯体と製品
  6
CONTINUOUS
 62
    3
 10
260.70254749999981
 20
182.0431529999999
 11
260.70254749999981
 21
181.87131200000002
  0
LINE
  8
_0-3_躯体と製品
  6
CONTINUOUS
 62
    3
 10
260.10254649999979
 20
181.968152
 11
260.10254649999979
 21
181.79631199999992
  0
ARC
  8
_0-3_躯体と製品
  6
CONTINUOUS
 62
    2
 10
259.80254649999983
 20
179.029721
 40
0.400001
 50
180
 51
270
  0
LINE
  8
_0-3_躯体と製品
  6
CONTINUOUS
 62
    2
 10
264.00255249999987
 20
178.62972099999999
 11
259.80254649999983
 21
178.62972099999999
  0
LINE
  8
_0-3_躯体と製品
  6
CONTINUOUS
 62
    2
 10
259.40254549999986
 20
179.029721
 11
259.40254549999986
 21
181.329725
  0
ARC
  8
_0-3_躯体と製品
  6
CONTINUOUS
 62
    2
 10
258.80254449999984
 20
181.42972499999999
 40
0.1
 50
270
 51
0
  0
LINE
  8
_0-3_躯体と製品
  6
CONTINUOUS
 62
    2
 10
258.80254449999984
 20
181.329725
 11
258.50254449999989
 21
181.329725
  0
ARC
  8
_0-3_躯体と製品
  6
CONTINUOUS
 62
    2
 10
258.7025444999997
 20
180.829724
 40
0.2
 50
0
 51
90
  0
LINE
  8
_0-3_躯体と製品
  6
CONTINUOUS
 62
    2
 10
258.90254449999975
 20
180.829724
 11
258.90254449999975
 21
179.029721
  0
LINE
  8
_0-3_躯体と製品
  6
CONTINUOUS
 62
    2
 10
258.90254449999975
 20
181.42972499999999
 11
258.90254449999975
 21
182.229726
  0
LINE
  8
_0-3_躯体と製品
  6
CONTINUOUS
 62
    2
 10
261.80254949999971
 20
178.12971999999999
 11
261.80254949999971
 21
178.22972000000001
  0
LINE
  8
_0-3_躯体と製品
  6
CONTINUOUS
 62
    2
 10
261.80254949999971
 20
178.22972000000001
 11
262.80255049999982
 21
178.22972000000001
  0
LINE
  8
_0-3_躯体と製品
  6
CONTINUOUS
 62
    2
 10
262.80255049999982
 20
178.22972000000001
 11
262.80255049999982
 21
178.12971999999999
  0
LINE
  8
_0-3_躯体と製品
  6
CONTINUOUS
 62
    2
 10
265.40255449999972
 20
178.12971999999999
 11
265.40255449999972
 21
178.22972000000001
  0
LINE
  8
_0-3_躯体と製品
  6
CONTINUOUS
 62
    2
 10
262.80255049999982
 20
178.12971999999999
 11
265.40255449999972
 21
178.12971999999999
  0
LINE
  8
_0-3_躯体と製品
  6
CONTINUOUS
 62
    3
 10
260.70254749999981
 20
181.74315200000001
 11
260.70254749999981
 21
181.57131200000001
  0
LINE
  8
_0-3_躯体と製品
  6
CONTINUOUS
 62
    3
 10
260.70254749999981
 20
182.171313
 11
260.17342649999978
 21
182.369733
  0
LINE
  8
_0-3_躯体と製品
  6
CONTINUOUS
 62
    3
 10
260.00254649999988
 20
182.369733
 11
260.10254649999979
 21
182.26815300000001
  0
LINE
  8
_0-3_躯体と製品
  6
CONTINUOUS
 62
    3
 10
260.10254649999979
 20
182.26815300000001
 11
260.70254749999981
 21
182.0431529999999
  0
LINE
  8
_0-3_躯体と製品
  6
CONTINUOUS
 62
    3
 10
260.70254749999981
 20
182.0431529999999
 11
260.80254749999972
 21
182.06973300000001
  0
LINE
  8
_0-3_躯体と製品
  6
CONTINUOUS
 62
    3
 10
260.80254749999972
 20
182.06973300000001
 11
260.70254749999981
 21
182.171313
  0
LINE
  8
_0-3_躯体と製品
  6
CONTINUOUS
 62
    3
 10
260.00254649999988
 20
182.369733
 11
260.80254749999972
 21
182.06973300000001
  0
LINE
  8
_0-3_躯体と製品
  6
CONTINUOUS
 62
    3
 10
260.70254749999981
 20
181.87131200000002
 11
260.10254649999979
 21
182.09631300000001
  0
LINE
  8
_0-3_躯体と製品
  6
CONTINUOUS
 62
    3
 10
260.10254649999979
 20
182.09631300000001
 11
260.00254649999988
 21
182.06973300000001
  0
LINE
  8
_0-3_躯体と製品
  6
CONTINUOUS
 62
    3
 10
260.00254649999988
 20
182.06973300000001
 11
260.10254649999979
 21
181.968152
  0
LINE
  8
_0-3_躯体と製品
  6
CONTINUOUS
 62
    3
 10
260.10254649999979
 20
181.968152
 11
260.70254749999981
 21
181.74315200000001
  0
LINE
  8
_0-3_躯体と製品
  6
CONTINUOUS
 62
    3
 10
260.70254749999981
 20
181.74315200000001
 11
260.80254749999972
 21
181.769732
  0
LINE
  8
_0-3_躯体と製品
  6
CONTINUOUS
 62
    3
 10
260.80254749999972
 20
181.769732
 11
260.70254749999981
 21
181.87131200000002
  0
LINE
  8
_0-3_躯体と製品
  6
CONTINUOUS
 62
    3
 10
260.00254649999988
 20
182.06973300000001
 11
260.80254749999972
 21
181.769732
  0
LINE
  8
_0-3_躯体と製品
  6
CONTINUOUS
 62
    3
 10
260.70254749999981
 20
181.271311
 11
260.10254649999979
 21
181.49631200000002
  0
LINE
  8
_0-3_躯体と製品
  6
CONTINUOUS
 62
    3
 10
260.10254649999979
 20
181.49631200000002
 11
260.00254649999988
 21
181.46973199999999
  0
LINE
  8
_0-3_躯体と製品
  6
CONTINUOUS
 62
    3
 10
260.00254649999988
 20
181.46973199999999
 11
260.10254649999979
 21
181.36815200000001
  0
LINE
  8
_0-3_躯体と製品
  6
CONTINUOUS
 62
    3
 10
260.10254649999979
 20
181.36815200000001
 11
260.70254749999981
 21
181.1431509999999
  0
LINE
  8
_0-3_躯体と製品
  6
CONTINUOUS
 62
    3
 10
260.70254749999981
 20
181.1431509999999
 11
260.80254749999972
 21
181.1697309999999
  0
LINE
  8
_0-3_躯体と製品
  6
CONTINUOUS
 62
    3
 10
260.80254749999972
 20
181.1697309999999
 11
260.70254749999981
 21
181.271311
  0
LINE
  8
_0-3_躯体と製品
  6
CONTINUOUS
 62
    3
 10
260.00254649999988
 20
181.46973199999999
 11
260.80254749999972
 21
181.1697309999999
  0
ARC
  8
_0-3_躯体と製品
  6
CONTINUOUS
 62
    2
 10
263.80199949999974
 20
178.90397899999999
 40
0.600001
 50
128.61463800000061
 51
177.54107400000063
  0
ARC
  8
_0-3_躯体と製品
  6
CONTINUOUS
 62
    2
 10
264.10255249999977
 20
178.529721
 40
1.0800019999999999
 50
90
 51
128.68218700000079
  0
ARC
  8
_0-3_躯体と製品
  6
CONTINUOUS
 62
    2
 10
264.10255249999977
 20
178.529721
 40
1.0800019999999999
 50
51.148938000002367
 51
90
  0
ARC
  8
_0-3_躯体と製品
  6
CONTINUOUS
 62
    2
 10
264.4031044999997
 20
178.90397899999999
 40
0.600001
 50
2.4589259999993982
 51
51.385361999999361
  0
LINE
  8
_0-3_躯体と製品
  6
CONTINUOUS
 62
    2
 10
265.90255449999972
 20
178.929721
 11
262.30254949999971
 21
178.929721
  0
LINE
  8
_0-3_躯体と製品
  6
CONTINUOUS
 62
    2
 10
262.30254949999971
 20
178.929721
 11
262.30254949999971
 21
178.62972099999999
  0
LINE
  8
_0-3_躯体と製品
  6
CONTINUOUS
 62
    2
 10
265.90255449999972
 20
178.929721
 11
265.90255449999972
 21
178.62972099999999
  0
LINE
  8
_0-3_躯体と製品
  6
CONTINUOUS
 62
    2
 10
260.50254749999976
 20
182.9297269999999
 11
263.00255049999987
 21
182.9297269999999
  0
LINE
  8
_0-3_躯体と製品
  6
CONTINUOUS
 62
    2
 10
263.00255049999987
 20
182.9297269999999
 11
263.00255049999987
 21
182.86972700000001
  0
LINE
  8
_0-3_躯体と製品
  6
CONTINUOUS
 62
    2
 10
263.00255049999987
 20
182.86972700000001
 11
264.00255249999987
 21
182.86972700000001
  0
LINE
  8
_0-3_躯体と製品
  6
CONTINUOUS
 62
    2
 10
264.00255249999987
 20
182.86972700000001
 11
264.00255249999987
 21
182.9297269999999
  0
LINE
  8
_0-3_躯体と製品
  6
CONTINUOUS
 62
    2
 10
264.00255249999987
 20
182.9297269999999
 11
266.00255549999974
 21
182.9297269999999
  0
LINE
  8
_0-3_躯体と製品
  6
CONTINUOUS
 62
    2
 10
266.00255549999974
 20
182.9297269999999
 11
266.00255549999974
 21
182.86972700000001
  0
LINE
  8
_0-3_躯体と製品
  6
CONTINUOUS
 62
    2
 10
264.20255249999968
 20
178.62972099999999
 11
264.10255249999977
 21
178.529721
  0
LINE
  8
_0-3_躯体と製品
  6
CONTINUOUS
 62
    2
 10
264.00255249999987
 20
178.62972099999999
 11
264.10255249999977
 21
178.529721
  0
LINE
  8
_0-3_躯体と製品
  6
CONTINUOUS
 62
    2
 10
259.60254549999968
 20
182.02972600000001
 11
259.60254549999968
 21
182.229726
  0
LINE
  8
_0-3_躯体と製品
  6
CONTINUOUS
 62
    2
 10
261.20254849999969
 20
182.02972600000001
 11
260.50254749999976
 21
182.02972600000001
  0
LINE
  8
_0-3_躯体と製品
  6
CONTINUOUS
 62
    2
 10
259.60254549999968
 20
182.02972600000001
 11
260.30254649999983
 21
182.02972600000001
  0
LINE
  8
_0-3_躯体と製品
  6
CONTINUOUS
 62
    2
 10
261.20254849999969
 20
182.02972600000001
 11
261.20254849999969
 21
182.229726
  0
ARC
  8
_0-3_躯体と製品
  6
CONTINUOUS
 62
    2
 10
261.30254849999983
 20
182.229726
 40
0.1
 50
90
 51
180
  0
ARC
  8
_0-3_躯体と製品
  6
CONTINUOUS
 62
    2
 10
261.80254949999971
 20
182.229726
 40
0.1
 50
0
 51
90
  0
LINE
  8
_0-3_躯体と製品
  6
CONTINUOUS
 62
    2
 10
261.30254849999983
 20
182.32972599999999
 11
261.80254949999971
 21
182.32972599999999
  0
ARC
  8
_0-3_躯体と製品
  6
CONTINUOUS
 62
    2
 10
259.00254549999977
 20
182.229726
 40
0.1
 50
90
 51
180
  0
ARC
  8
_0-3_躯体と製品
  6
CONTINUOUS
 62
    2
 10
259.50254549999977
 20
182.229726
 40
0.1
 50
0
 51
90
  0
LINE
  8
_0-3_躯体と製品
  6
CONTINUOUS
 62
    2
 10
261.90254949999985
 20
181.92972600000002
 11
261.90254949999985
 21
182.229726
  0
ARC
  8
_0-3_躯体と製品
  6
CONTINUOUS
 62
    2
 10
261.50254849999988
 20
181.92972600000002
 40
0.400001
 50
270
 51
0
  0
ARC
  8
_0-3_躯体と製品
  6
CONTINUOUS
 62
    2
 10
259.60254549999968
 20
181.329725
 40
0.2
 50
90
 51
180
  0
LINE
  8
_0-3_躯体と製品
  6
CONTINUOUS
 62
    2
 10
261.50254849999988
 20
181.5297249999999
 11
259.60254549999968
 21
181.5297249999999
  0
LINE
  8
_0-3_躯体と製品
  6
CONTINUOUS
 62
    2
 10
260.50254749999976
 20
182.02972600000001
 11
260.40254749999986
 21
181.92972600000002
  0
LINE
  8
_0-3_躯体と製品
  6
CONTINUOUS
 62
    2
 10
260.30254649999983
 20
182.02972600000001
 11
260.40254749999986
 21
181.92972600000002
  0
LINE
  8
_0-3_躯体と製品
  6
CONTINUOUS
 62
    2
 10
261.30254849999983
 20
182.32972599999999
 11
261.80254949999971
 21
182.32972599999999
  0
ARC
  8
_0-3_躯体と製品
  6
CONTINUOUS
 62
    2
 10
258.50254449999989
 20
179.029721
 40
0.400001
 50
270
 51
0
  0
LINE
  8
_0-3_躯体と製品
  6
CONTINUOUS
 62
    1
 10
259.00254549999977
 20
182.32972599999999
 11
259.50254549999977
 21
182.32972599999999
  0
LINE
  8
_0-3_躯体と製品
  6
CONTINUOUS
 62
    1
 10
259.00254549999977
 20
182.32972599999999
 11
259.50254549999977
 21
182.32972599999999
  0
LINE
  8
_0-3_躯体と製品
  6
CONTINUOUS
 62
    2
 10
258.75254449999989
 20
181.5297249999999
 11
258.55254449999984
 21
181.5297249999999
  0
LINE
  8
_0-3_躯体と製品
  6
CONTINUOUS
 62
    2
 10
258.4525444999997
 20
182.729726
 11
258.4525444999997
 21
181.62972500000001
  0
ARC
  8
_0-3_躯体と製品
  6
CONTINUOUS
 62
    2
 10
258.75254449999989
 20
181.62972500000001
 40
0.1
 50
270
 51
0
  0
ARC
  8
_0-3_躯体と製品
  6
CONTINUOUS
 62
    2
 10
258.91254449999974
 20
182.26972599999999
 40
0.0599999999999999
 50
90
 51
180
  0
LINE
  8
_0-3_躯体と製品
  6
CONTINUOUS
 62
    2
 10
258.85254449999979
 20
181.62972500000001
 11
258.85254449999979
 21
182.26972599999999
  0
LINE
  8
_0-3_躯体と製品
  6
CONTINUOUS
 62
    2
 10
258.65254449999975
 20
182.9297269999999
 11
258.4525444999997
 21
182.729726
  0
LINE
  8
_0-3_躯体と製品
  6
CONTINUOUS
 62
    2
 10
260.30254749999972
 20
182.9297269999999
 11
258.65257949999977
 21
182.92976100000001
  0
LINE
  8
_0-3_躯体と製品
  6
CONTINUOUS
 62
    2
 10
260.50254749999976
 20
182.9297269999999
 11
260.40254749999986
 21
182.82972699999999
  0
LINE
  8
_0-3_躯体と製品
  6
CONTINUOUS
 62
    2
 10
260.40254749999986
 20
182.82972699999999
 11
260.30254749999972
 21
182.9297269999999
  0
CIRCLE
  8
_0-5_文字-記号
  6
CONTINUOUS
 62
    3
 10
260.40254749999986
 20
182.369733
 40
0.2
  0
CIRCLE
  8
_0-5_文字-記号
  6
CONTINUOUS
 62
    3
 10
264.10255249999977
 20
179.36662100000001
 40
0.2
  0
CIRCLE
  8
_0-5_文字-記号
  6
CONTINUOUS
 62
    3
 10
263.6140704999998
 20
187.932254
 40
1.5000020000000001
  0
TEXT
  8
_0-5_文字-記号
 62
    7
 10
262.92073516666687
 20
187.1522589999999
 40
2
 41
0.8
 50
0
  1
８
  0
LINE
  8
_0-3_躯体と製品
  6
CONTINUOUS
 62
    3
 10
269.12266349999982
 20
175.92971700000001
 11
271.10256249999975
 21
177.909616
  0
LINE
  8
_0-3_躯体と製品
  6
CONTINUOUS
 62
    3
 10
268.13271349999968
 20
175.92971700000001
 11
270.13271649999979
 21
177.92971999999989
  0
LINE
  8
_0-3_躯体と製品
  6
CONTINUOUS
 62
    3
 10
267.14276449999988
 20
175.92971700000001
 11
269.14276749999976
 21
177.92971999999989
  0
LINE
  8
_0-3_躯体と製品
  6
CONTINUOUS
 62
    3
 10
266.15281449999975
 20
175.92971700000001
 11
268.15281749999986
 21
177.92971999999989
  0
ARC
  8
_0-3_躯体と製品
  6
CONTINUOUS
 62
    2
 10
271.99216849999971
 20
174.92971600000001
 40
3.0000040000000001
 50
19.74992299999936
 51
90
  0
ARC
  8
_0-3_躯体と製品
  6
CONTINUOUS
 62
    2
 10
271.99216849999971
 20
174.92971600000001
 40
3.2000049999999991
 50
19.74992299999936
 51
90
  0
CIRCLE
  8
_0-5_文字-記号
  6
CONTINUOUS
 62
    3
 10
273.22128749999979
 20
170.207595
 40
1.5000020000000001
  0
TEXT
  8
_0-5_文字-記号
 62
    7
 10
271.51460983333368
 20
169.42758900000001
 40
2
 41
0.8
 50
0
  1
１１
  0
CIRCLE
  8
_0-5_文字-記号
  6
CONTINUOUS
 62
    3
 10
269.18035949999967
 20
165.836815
 40
1.5000020000000001
  0
TEXT
  8
_0-5_文字-記号
 62
    7
 10
268.48703416666672
 20
165.05680799999999
 40
2
 41
0.8
 50
0
  1
９
  0
LINE
  8
_0-3_躯体と製品
  6
CONTINUOUS
 62
    3
 10
270.11261249999984
 20
175.92971700000001
 11
271.10256249999975
 21
176.919667
  0
ARC
  8
_0-3_躯体と製品
  6
CONTINUOUS
 62
    3
 10
270.37784449999981
 20
175.96394099999989
 40
0.04
 50
301.17416799999955
 51
238.82583200000042
  0
CIRCLE
  8
_0-3_躯体と製品
  6
CONTINUOUS
 62
    3
 10
268.67133649999982
 20
176.32538700000001
 40
0.04
  0
CIRCLE
  8
_0-3_躯体と製品
  6
CONTINUOUS
 62
    3
 10
269.87615749999986
 20
176.08442300000002
 40
0.04
  0
LINE
  8
_0-3_躯体と製品
  6
CONTINUOUS
 62
    2
 10
274.81570249999982
 20
175.94346299999989
 11
276.04374549999989
 21
172.52306499999992
  0
LINE
  8
_0-3_躯体と製品
  6
CONTINUOUS
 62
    2
 10
276.23198149999985
 20
172.59064800000002
 11
275.00393749999967
 21
176.01104599999999
  0
TEXT
  8
_0-5_文字-記号
 62
    7
 10
288.46335316666682
 20
167.00173099999989
 40
2
 41
0.8
 50
0
  1
６
  0
CIRCLE
  8
_0-5_文字-記号
  6
CONTINUOUS
 62
    3
 10
289.15669949999983
 20
167.78173200000001
 40
1.5000020000000001
  0
ARC
  8
_0-3_躯体と製品
  6
CONTINUOUS
 62
    2
 10
291.10247249999975
 20
-177.3745439999999
 40
359.30051299999991
 50
90.047839999997066
 51
93.064041000001509
  0
ARC
  8
_0-3_躯体と製品
  6
CONTINUOUS
 62
    2
 10
291.10247249999975
 20
-177.3745439999999
 40
360.00051400000001
 50
90.795799999995097
 51
93.076585000001344
  0
LINE
  8
_0-5_文字-記号
  6
CONTINUOUS
 62
    3
 10
269.10255949999987
 20
178.82972100000001
 11
273.46827649999977
 21
186.39136499999989
  0
LINE
  8
_0-3_躯体と製品
  6
CONTINUOUS
 62
    2
 10
277.90257249999968
 20
178.12971999999999
 11
266.40255549999983
 21
178.12971999999999
  0
LINE
  8
_0-3_躯体と製品
  6
CONTINUOUS
 62
    2
 10
273.00256549999972
 20
182.9297269999999
 11
275.00256749999971
 21
182.9297269999999
  0
LINE
  8
_0-3_躯体と製品
  6
CONTINUOUS
 62
    2
 10
269.10255949999987
 20
178.82972100000001
 11
276.90257049999968
 21
178.82972100000001
  0
LINE
  8
_0-3_躯体と製品
  6
CONTINUOUS
 62
    2
 10
271.40244449999977
 20
181.2072379999999
 11
271.40244449999977
 21
181.707672
  0
ARC
  8
_0-3_躯体と製品
  6
CONTINUOUS
 62
    2
 10
271.70244449999973
 20
181.2072379999999
 40
0.2999999999999999
 50
180
 51
270
  0
LINE
  8
_0-3_躯体と製品
  6
CONTINUOUS
 62
    2
 10
271.80244449999987
 20
180.90723800000001
 11
271.70244449999973
 21
180.90723800000001
  0
LINE
  8
_0-3_躯体と製品
  6
CONTINUOUS
 62
    2
 10
271.80244449999987
 20
180.90723800000001
 11
271.80244449999987
 21
181.31246100000001
  0
ARC
  8
_0-3_躯体と製品
  6
CONTINUOUS
 62
    2
 10
271.90244449999977
 20
181.31246100000001
 40
0.1
 50
93.064041000001495
 51
180
  0
ARC
  8
_0-3_躯体と製品
  6
CONTINUOUS
 62
    2
 10
271.80244449999987
 20
181.707672
 40
0.400001
 50
93.076585000001359
 51
180
  0
LINE
  8
_0-3_躯体と製品
  6
CONTINUOUS
 62
    2
 10
266.40255549999983
 20
178.22972000000001
 11
266.40255549999983
 21
178.12971999999999
  0
CIRCLE
  8
_0-3_躯体と製品
  6
CONTINUOUS
 62
    3
 10
270.37784449999981
 20
177.24908300000001
 40
0.04
  0
CIRCLE
  8
_0-3_躯体と製品
  6
CONTINUOUS
 62
    3
 10
269.55487149999976
 20
177.14868200000001
 40
0.04
  0
CIRCLE
  8
_0-3_躯体と製品
  6
CONTINUOUS
 62
    3
 10
270.29784449999988
 20
177.61052900000001
 40
0.04
  0
LINE
  8
_0-3_躯体と製品
  6
CONTINUOUS
 62
    2
 10
267.00255649999986
 20
182.86972700000001
 11
267.00255649999986
 21
182.9297269999999
  0
LINE
  8
_0-3_躯体と製品
  6
CONTINUOUS
 62
    2
 10
267.00255649999986
 20
182.9297269999999
 11
269.00255949999973
 21
182.9297269999999
  0
LINE
  8
_0-3_躯体と製品
  6
CONTINUOUS
 62
    2
 10
269.00255949999973
 20
182.9297269999999
 11
269.00255949999973
 21
182.86972700000001
  0
LINE
  8
_0-3_躯体と製品
  6
CONTINUOUS
 62
    2
 10
269.00255949999973
 20
182.86972700000001
 11
270.00256049999984
 21
182.86972700000001
  0
LINE
  8
_0-3_躯体と製品
  6
CONTINUOUS
 62
    2
 10
270.00256049999984
 20
182.86972700000001
 11
270.00256049999984
 21
182.9297269999999
  0
LINE
  8
_0-3_躯体と製品
  6
CONTINUOUS
 62
    2
 10
270.00256049999984
 20
182.9297269999999
 11
272.00256349999972
 21
182.9297269999999
  0
LINE
  8
_0-3_躯体と製品
  6
CONTINUOUS
 62
    2
 10
272.00256349999972
 20
182.9297269999999
 11
272.00256349999972
 21
182.86972700000001
  0
LINE
  8
_0-3_躯体と製品
  6
CONTINUOUS
 62
    2
 10
272.00256349999972
 20
182.86972700000001
 11
273.00256549999972
 21
182.86972700000001
  0
LINE
  8
_0-3_躯体と製品
  6
CONTINUOUS
 62
    2
 10
273.00256549999972
 20
182.86972700000001
 11
273.00256549999972
 21
182.9297269999999
  0
LINE
  8
_0-3_躯体と製品
  6
CONTINUOUS
 62
    2
 10
268.10255849999976
 20
178.62972099999999
 11
269.10255949999987
 21
178.82972100000001
  0
CIRCLE
  8
_0-5_文字-記号
  6
CONTINUOUS
 62
    3
 10
269.10255949999987
 20
178.82972100000001
 40
0.2
  0
LINE
  8
_0-3_躯体と製品
  6
CONTINUOUS
 62
    2
 10
278.40257249999968
 20
181.079724
 11
278.40257249999968
 21
180.079723
  0
LINE
  8
_0-3_躯体と製品
  6
CONTINUOUS
 62
    2
 10
278.40257249999968
 20
180.079723
 11
278.10257249999972
 21
180.079723
  0
LINE
  8
_0-3_躯体と製品
  6
CONTINUOUS
 62
    2
 10
277.5025714999997
 20
180.079723
 11
277.20257149999975
 21
180.079723
  0
LINE
  8
_0-3_躯体と製品
  6
CONTINUOUS
 62
    2
 10
277.20257149999975
 20
180.079723
 11
277.20257149999975
 21
181.079724
  0
LINE
  8
_0-3_躯体と製品
  6
CONTINUOUS
 62
    2
 10
277.5025714999997
 20
181.079724
 11
277.50257249999981
 21
180.479724
  0
ARC
  8
_0-3_躯体と製品
  6
CONTINUOUS
 62
    2
 10
276.90257049999968
 20
179.429722
 40
0.600001
 50
270
 51
359.99989699999873
  0
LINE
  8
_0-3_躯体と製品
  6
CONTINUOUS
 62
    2
 10
277.50257249999981
 20
180.079723
 11
277.5025714999997
 21
179.42972099999992
  0
LINE
  8
_0-3_躯体と製品
  6
CONTINUOUS
 62
    2
 10
277.60257249999972
 20
180.479724
 11
277.5025714999997
 21
180.079723
  0
LINE
  8
_0-3_躯体と製品
  6
CONTINUOUS
 62
    2
 10
278.10257249999972
 20
180.479724
 11
278.00257249999981
 21
180.479724
  0
LINE
  8
_0-3_躯体と製品
  6
CONTINUOUS
 62
    2
 10
278.00257249999981
 20
180.479724
 11
278.10257249999972
 21
180.079723
  0
LINE
  8
_0-3_躯体と製品
  6
CONTINUOUS
 62
    2
 10
277.50257249999981
 20
180.479724
 11
277.46257249999985
 21
180.479724
  0
LINE
  8
_0-3_躯体と製品
  6
CONTINUOUS
 62
    2
 10
277.46257249999985
 20
180.479724
 11
277.46257149999974
 21
181.079724
  0
LINE
  8
_0-3_躯体と製品
  6
CONTINUOUS
 62
    2
 10
278.10257249999972
 20
180.479724
 11
278.14257249999969
 21
180.479724
  0
LINE
  8
_0-3_躯体と製品
  6
CONTINUOUS
 62
    2
 10
278.14257249999969
 20
180.479724
 11
278.14257249999969
 21
181.079724
  0
LINE
  8
_0-3_躯体と製品
  6
CONTINUOUS
 62
    2
 10
277.50257249999981
 20
180.479724
 11
277.60257249999972
 21
180.479724
  0
LINE
  8
_0-3_躯体と製品
  6
CONTINUOUS
 62
    2
 10
278.05257249999977
 20
182.629727
 11
278.05257249999977
 21
182.32972599999999
  0
LINE
  8
_0-3_躯体と製品
  6
CONTINUOUS
 62
    2
 10
275.00256749999971
 20
182.9297269999999
 11
275.00256749999971
 21
182.86972700000001
  0
LINE
  8
_0-3_躯体と製品
  6
CONTINUOUS
 62
    2
 10
275.00256749999971
 20
182.86972700000001
 11
276.00256949999971
 21
182.86972700000001
  0
LINE
  8
_0-3_躯体と製品
  6
CONTINUOUS
 62
    2
 10
276.00256949999971
 20
182.86972700000001
 11
276.00256949999971
 21
182.9297269999999
  0
LINE
  8
_0-3_躯体と製品
  6
CONTINUOUS
 62
    2
 10
276.00256949999971
 20
182.9297269999999
 11
277.7525714999997
 21
182.9297269999999
  0
ARC
  8
_0-3_躯体と製品
  6
CONTINUOUS
 62
    2
 10
277.80257149999989
 20
181.079724
 40
0.34
 50
0
 51
180
  0
ARC
  8
_0-3_躯体と製品
  6
CONTINUOUS
 62
    2
 10
277.80257349999988
 20
181.079724
 40
0.299999
 50
0
 51
180
  0
ARC
  8
_0-3_躯体と製品
  6
CONTINUOUS
 62
    2
 10
277.80257149999989
 20
181.079724
 40
0.600001
 50
0
 51
180
  0
ARC
  8
_0-3_躯体と製品
  6
CONTINUOUS
 62
    2
 10
277.90257249999968
 20
178.3297199999999
 40
0.2
 50
270
 51
0
  0
LINE
  8
_0-3_躯体と製品
  6
CONTINUOUS
 62
    2
 10
278.10257249999972
 20
181.079724
 11
278.10257249999972
 21
180.479724
  0
LINE
  8
_0-3_躯体と製品
  6
CONTINUOUS
 62
    2
 10
278.10257249999972
 20
180.079723
 11
278.10257249999972
 21
178.3297199999999
  0
LINE
  8
_0-3_躯体と製品
  6
CONTINUOUS
 62
    2
 10
277.7525714999997
 20
182.9297269999999
 11
278.05257249999977
 21
182.629727
  0
CIRCLE
  8
_0-5_文字-記号
  6
CONTINUOUS
 62
    3
 10
274.21827749999989
 20
187.690404
 40
1.5000020000000001
  0
CIRCLE
  8
_0-5_文字-記号
  6
CONTINUOUS
 62
    3
 10
268.84890049999967
 20
187.79974200000001
 40
1.5000020000000001
  0
TEXT
  8
_0-5_文字-記号
 62
    7
 10
268.1022188333327
 20
187.01973599999991
 40
2
 41
0.8
 50
0
  1
１
  0
TEXT
  8
_0-5_文字-記号
 62
    7
 10
273.52493716666686
 20
186.91040699999991
 40
2
 41
0.8
 50
0
  1
３
  0
LINE
  8
_0-3_躯体と製品
  6
PLINE3
 62
    3
 10
291.10259049999968
 20
183.93209000000002
 11
291.10259049999968
 21
179.82707300000001
  0
LINE
  8
_0-5_文字-記号
  6
CONTINUOUS
 62
    3
 10
283.50552349999975
 20
182.26108099999999
 11
285.2420854999998
 21
185.26889500000001
  0
ARC
  8
_0-3_躯体と製品
  6
CONTINUOUS
 62
    2
 10
291.10247249999975
 20
-177.3745439999999
 40
360.00051400000001
 50
90.318311999997306
 51
90.63663300000141
  0
LINE
  8
_0-3_躯体と製品
  6
CONTINUOUS
 62
    2
 10
287.10246649999976
 20
182.54374299999989
 11
287.10246649999976
 21
182.603747
  0
LINE
  8
_0-3_躯体と製品
  6
CONTINUOUS
 62
    2
 10
286.10246549999988
 20
182.53124
 11
286.10246549999988
 21
182.5912459999999
  0
ARC
  8
_0-3_躯体と製品
  6
CONTINUOUS
 62
    2
 10
291.10247249999975
 20
-177.3745439999999
 40
359.94051400000001
 50
90.636738999998499
 51
90.795932999997916
  0
CIRCLE
  8
_0-5_文字-記号
  6
CONTINUOUS
 62
    3
 10
283.50552349999975
 20
182.26108099999999
 40
0.2
  0
ARC
  8
_0-3_躯体と製品
  6
CONTINUOUS
 62
    2
 10
291.10247249999975
 20
-177.3745439999999
 40
360.00051400000001
 50
90
 51
90.159154999999288
  0
LINE
  8
_0-3_躯体と製品
  6
CONTINUOUS
 62
    2
 10
296.10247949999984
 20
181.92596900000001
 11
291.4024724999997
 21
181.92596900000001
  0
LINE
  8
_0-3_躯体と製品
  6
CONTINUOUS
 62
    2
 10
296.10247949999984
 20
182.62597
 11
296.10247949999984
 21
182.56596999999999
  0
LINE
  8
_0-3_躯体と製品
  6
CONTINUOUS
 62
    2
 10
296.10247949999984
 20
182.56596999999999
 11
295.10247749999985
 21
182.56596999999999
  0
LINE
  8
_0-3_躯体と製品
  6
CONTINUOUS
 62
    2
 10
295.10247749999985
 20
182.56596999999999
 11
295.10247749999985
 21
182.62597
  0
LINE
  8
_0-3_躯体と製品
  6
CONTINUOUS
 62
    2
 10
295.10247749999985
 20
182.62597
 11
293.10247549999985
 21
182.62597
  0
LINE
  8
_0-3_躯体と製品
  6
CONTINUOUS
 62
    2
 10
293.10247549999985
 20
182.62597
 11
293.10247549999985
 21
182.56596999999999
  0
LINE
  8
_0-3_躯体と製品
  6
CONTINUOUS
 62
    2
 10
293.10247549999985
 20
182.56596999999999
 11
292.10247349999986
 21
182.56596999999999
  0
LINE
  8
_0-3_躯体と製品
  6
CONTINUOUS
 62
    2
 10
292.10247349999986
 20
182.56596999999999
 11
292.10247349999986
 21
182.62597
  0
LINE
  8
_0-3_躯体と製品
  6
CONTINUOUS
 62
    2
 10
292.10247349999986
 20
182.62597
 11
291.10247249999975
 21
182.62597
  0
LINE
  8
_0-3_躯体と製品
  6
CONTINUOUS
 62
    2
 10
290.10247049999975
 20
182.62458100000001
 11
290.10247049999975
 21
182.56596999999999
  0
LINE
  8
_0-3_躯体と製品
  6
CONTINUOUS
 62
    2
 10
289.10246949999987
 20
182.56596999999999
 11
289.10246949999987
 21
182.62041400000001
  0
ARC
  8
_0-3_躯体と製品
  6
CONTINUOUS
 62
    2
 10
289.60247049999975
 20
224.50317200000001
 40
41.940182999999998
 50
269.31691699999948
 51
270.68308300000041
  0
ARC
  8
_0-3_躯体と製品
  6
CONTINUOUS
 62
    2
 10
291.10247249999975
 20
180.225966
 40
0.2999999999999999
 50
180
 51
0
  0
LINE
  8
_0-3_躯体と製品
  6
CONTINUOUS
 62
    2
 10
291.4024724999997
 20
180.225966
 11
291.4024724999997
 21
181.92596900000001
  0
LINE
  8
_0-3_躯体と製品
  6
CONTINUOUS
 62
    2
 10
290.80247149999968
 20
180.225966
 11
290.80247149999968
 21
181.92584400000001
  0
CIRCLE
  8
_0-5_文字-記号
  6
CONTINUOUS
 62
    3
 10
285.99208649999969
 20
186.56793500000001
 40
1.5000020000000001
  0
TEXT
  8
_0-5_文字-記号
 62
    7
 10
285.29874116666679
 20
185.78793999999999
 40
2
 41
0.8
 50
0
  1
２
  0
LINE
  8
_0-5_文字-記号
  6
CONTINUOUS
 62
    3
 10
310.24261849999971
 20
181.729725
 11
314.91609849999986
 21
176.160088
  0
LINE
  8
_0-3_躯体と製品
  6
CONTINUOUS
 62
    2
 10
309.73095449999983
 20
173.89299500000001
 11
302.03095449999978
 21
166.51869099999999
  0
LINE
  8
_0-3_躯体と製品
  6
CONTINUOUS
 62
    2
 10
302.60861349999982
 20
166.81161800000001
 11
309.86928849999981
 21
173.74855199999999
  0
ARC
  8
_0-3_躯体と製品
  6
CONTINUOUS
 62
    2
 10
307.10261349999973
 20
176.63741999999999
 40
3.8000050000000001
 50
313.76225899999952
 51
0.0000000000000063
  0
ARC
  8
_0-3_躯体と製品
  6
CONTINUOUS
 62
    2
 10
307.10261349999973
 20
176.63741999999999
 40
4.0000059999999991
 50
313.76225899999952
 51
0.0000000000000063
  0
CIRCLE
  8
_0-5_文字-記号
  6
CONTINUOUS
 62
    3
 10
315.88028149999968
 20
175.01102
 40
1.5000020000000001
  0
TEXT
  8
_0-5_文字-記号
 62
    7
 10
314.17359083333372
 20
174.23102500000002
 40
2
 41
0.8
 50
0
  1
１１
  0
LINE
  8
_0-3_躯体と製品
  6
PLINE2
 62
    3
 10
311.10261949999972
 20
182.52972600000001
 11
312.10262049999983
 21
182.729727
  0
LINE
  8
_0-3_躯体と製品
  6
PLINE2
 62
    3
 10
311.10261949999972
 20
182.729727
 11
312.70262149999985
 21
182.729727
  0
LINE
  8
_0-3_躯体と製品
  6
PLINE2
 62
    3
 10
312.10262049999983
 20
183.52972800000001
 11
311.10261949999972
 21
183.52972800000001
  0
LINE
  8
_0-3_躯体と製品
  6
PLINE2
 62
    3
 10
311.10261949999972
 20
183.32972800000002
 11
312.10262049999983
 21
183.52972800000001
  0
LINE
  8
_0-3_躯体と製品
  6
PLINE2
 62
    3
 10
311.10261949999972
 20
183.72972799999999
 11
312.10262049999983
 21
183.52972800000001
  0
LINE
  8
_0-3_躯体と製品
  6
PLINE2
 62
    3
 10
311.10261949999972
 20
184.52972899999989
 11
312.10262049999983
 21
184.32972900000001
  0
LINE
  8
_0-3_躯体と製品
  6
PLINE2
 62
    3
 10
311.10261949999972
 20
184.32972900000001
 11
312.70262149999985
 21
184.32972900000001
  0
LINE
  8
_0-3_躯体と製品
  6
PLINE3
 62
    3
 10
319.97937949999982
 20
183.52972800000001
 11
309.16590649999966
 21
183.52972800000001
  0
LINE
  8
_0-5_文字-記号
  6
CONTINUOUS
 62
    3
 10
309.56261749999976
 20
183.52972800000001
 11
312.66531149999969
 21
187.22737499999999
  0
LINE
  8
_0-3_躯体と製品
  6
CONTINUOUS
 62
    2
 10
308.70244449999973
 20
183.425971
 11
308.70238949999975
 21
181.82600600000001
  0
LINE
  8
_0-3_躯体と製品
  6
CONTINUOUS
 62
    2
 10
308.30241649999971
 20
183.425971
 11
308.30257349999988
 21
182.52453
  0
LINE
  8
_0-3_躯体と製品
  6
CONTINUOUS
 62
    2
 10
310.24261849999971
 20
185.32973000000001
 11
310.24261849999971
 21
181.729725
  0
LINE
  8
_0-3_躯体と製品
  6
CONTINUOUS
 62
    2
 10
310.54261849999966
 20
179.029721
 11
310.54261849999966
 21
183.82972800000002
  0
ARC
  8
_0-3_躯体と製品
  6
CONTINUOUS
 62
    2
 10
310.6426184999998
 20
183.52972800000001
 40
1.0800019999999999
 50
180
 51
218.6821870000017
  0
LINE
  8
_0-3_躯体と製品
  6
CONTINUOUS
 62
    2
 10
310.90261949999967
 20
182.52972600000001
 11
310.90261949999967
 21
184.52972899999989
  0
LINE
  8
_0-3_躯体と製品
  6
CONTINUOUS
 62
    2
 10
307.30261449999966
 20
183.12971599999992
 11
307.30261449999966
 21
186.32973200000001
  0
ARC
  8
_0-3_躯体と製品
  6
CONTINUOUS
 62
    2
 10
296.10247949999984
 20
-177.3745439999999
 40
360.00051400000001
 50
88.057744999995194
 51
88.057922999997174
  0
ARC
  8
_0-3_躯体と製品
  6
CONTINUOUS
 62
    2
 10
308.50236749999976
 20
181.625968
 40
0.1
 50
90.023278999998695
 51
180.02328000000009
  0
LINE
  8
_0-3_躯体と製品
  6
CONTINUOUS
 62
    2
 10
308.40236749999985
 20
181.62592800000002
 11
308.40284449999967
 21
180.526048
  0
LINE
  8
_0-3_躯体と製品
  6
CONTINUOUS
 62
    2
 10
308.50232649999975
 20
181.72596899999991
 11
308.60242949999974
 21
181.726009
  0
ARC
  8
_0-3_躯体と製品
  6
CONTINUOUS
 62
    2
 10
308.60238949999984
 20
181.826009
 40
0.1
 50
270.02327899999869
 51
359.99802199999851
  0
LINE
  8
_0-3_躯体と製品
  6
CONTINUOUS
 62
    2
 10
308.0028434999997
 20
180.52588600000001
 11
308.00245649999988
 21
181.63209700000002
  0
ARC
  8
_0-3_躯体と製品
  6
CONTINUOUS
 62
    2
 10
308.20284449999986
 20
180.52596700000001
 40
0.2
 50
180.02327899999872
 51
0.0232789999987659
  0
ARC
  8
_0-3_躯体と製品
  6
CONTINUOUS
 62
    2
 10
307.90245649999974
 20
181.63209700000002
 40
0.1
 50
0
 51
88.11745000000009
  0
LINE
  8
_0-3_躯体と製品
  6
CONTINUOUS
 62
    2
 10
310.24261849999971
 20
181.729725
 11
310.54261849999966
 21
181.729725
  0
LINE
  8
_0-3_躯体と製品
  6
CONTINUOUS
 62
    2
 10
310.84261949999973
 20
180.52972400000002
 11
310.84261949999973
 21
182.52972600000001
  0
LINE
  8
_0-3_躯体と製品
  6
CONTINUOUS
 62
    2
 10
310.90261949999967
 20
180.52972400000002
 11
310.90261949999967
 21
178.3297199999999
  0
ARC
  8
_0-3_躯体と製品
  6
CONTINUOUS
 62
    2
 10
308.10261649999984
 20
179.029721
 40
0.400001
 50
180
 51
270
  0
LINE
  8
_0-3_躯体と製品
  6
CONTINUOUS
 62
    2
 10
310.1426184999998
 20
178.62972099999999
 11
308.10261649999984
 21
178.62972099999999
  0
ARC
  8
_0-3_躯体と製品
  6
CONTINUOUS
 62
    2
 10
310.70261849999974
 20
178.3297199999999
 40
0.2
 50
270
 51
0
  0
ARC
  8
_0-3_躯体と製品
  6
CONTINUOUS
 62
    2
 10
310.1426184999998
 20
179.029721
 40
0.400001
 50
270
 51
0
  0
LINE
  8
_0-3_躯体と製品
  6
CONTINUOUS
 62
    2
 10
310.70261849999974
 20
178.12971999999999
 11
307.30261449999966
 21
178.12971999999999
  0
ARC
  8
_0-3_躯体と製品
  6
CONTINUOUS
 62
    2
 10
308.2025914999997
 20
182.52261799999991
 40
0.1
 50
268.07438200000371
 51
1.0953809999986777
  0
ARC
  8
_0-3_躯体と製品
  6
CONTINUOUS
 62
    2
 10
310.26836049999974
 20
183.229175
 40
0.600001
 50
218.61463800000206
 51
267.54107399999708
  0
LINE
  8
_0-3_躯体と製品
  6
CONTINUOUS
 62
    2
 10
310.90261949999967
 20
182.52972600000001
 11
310.84261949999973
 21
182.52972600000001
  0
LINE
  8
_0-3_躯体と製品
  6
CONTINUOUS
 62
    2
 10
310.84261949999973
 20
180.52972400000002
 11
310.90261949999967
 21
180.52972400000002
  0
LINE
  8
_0-3_躯体と製品
  6
CONTINUOUS
 62
    2
 10
306.80261349999978
 20
181.079724
 11
306.80261349999978
 21
180.079723
  0
LINE
  8
_0-3_躯体と製品
  6
CONTINUOUS
 62
    2
 10
306.80261349999978
 20
180.079723
 11
307.10261449999985
 21
180.079723
  0
LINE
  8
_0-3_躯体と製品
  6
CONTINUOUS
 62
    2
 10
307.70261549999987
 20
180.079723
 11
308.00261549999982
 21
180.079723
  0
LINE
  8
_0-3_躯体と製品
  6
CONTINUOUS
 62
    2
 10
308.00261549999982
 20
180.079723
 11
308.00261549999982
 21
181.079724
  0
LINE
  8
_0-3_躯体と製品
  6
CONTINUOUS
 62
    2
 10
307.70261549999987
 20
181.079724
 11
307.70261349999987
 21
180.479724
  0
LINE
  8
_0-3_躯体と製品
  6
CONTINUOUS
 62
    2
 10
307.70261349999987
 20
180.079723
 11
307.70261549999987
 21
179.029721
  0
ARC
  8
_0-3_躯体と製品
  6
CONTINUOUS
 62
    2
 10
307.30261449999966
 20
178.3297199999999
 40
0.2
 50
180
 51
270
  0
LINE
  8
_0-3_躯体と製品
  6
CONTINUOUS
 62
    2
 10
307.10261449999985
 20
181.079724
 11
307.10261449999985
 21
180.479724
  0
LINE
  8
_0-3_躯体と製品
  6
CONTINUOUS
 62
    2
 10
307.10261449999985
 20
180.079723
 11
307.10261449999985
 21
178.3297199999999
  0
ARC
  8
_0-3_躯体と製品
  6
CONTINUOUS
 62
    2
 10
307.4026144999998
 20
181.079724
 40
0.34
 50
0
 51
180
  0
ARC
  8
_0-3_躯体と製品
  6
CONTINUOUS
 62
    2
 10
307.40261349999969
 20
181.079724
 40
0.299999
 50
0
 51
180
  0
ARC
  8
_0-3_躯体と製品
  6
CONTINUOUS
 62
    2
 10
307.4026144999998
 20
181.079724
 40
0.600001
 50
0
 51
180
  0
LINE
  8
_0-3_躯体と製品
  6
CONTINUOUS
 62
    2
 10
307.70261349999987
 20
180.479724
 11
307.60261349999973
 21
180.479724
  0
LINE
  8
_0-3_躯体と製品
  6
CONTINUOUS
 62
    2
 10
307.60261349999973
 20
180.479724
 11
307.70261549999987
 21
180.079723
  0
LINE
  8
_0-3_躯体と製品
  6
CONTINUOUS
 62
    2
 10
307.10261449999985
 20
180.479724
 11
307.20261449999975
 21
180.479724
  0
LINE
  8
_0-3_躯体と製品
  6
CONTINUOUS
 62
    2
 10
307.20261449999975
 20
180.479724
 11
307.10261449999985
 21
180.079723
  0
LINE
  8
_0-3_躯体と製品
  6
CONTINUOUS
 62
    2
 10
307.70261349999987
 20
180.479724
 11
307.74261349999983
 21
180.479724
  0
LINE
  8
_0-3_躯体と製品
  6
CONTINUOUS
 62
    2
 10
307.74261349999983
 20
180.479724
 11
307.74261549999983
 21
181.079724
  0
LINE
  8
_0-3_躯体と製品
  6
CONTINUOUS
 62
    2
 10
307.10261449999985
 20
180.479724
 11
307.06261449999988
 21
180.479724
  0
LINE
  8
_0-3_躯体と製品
  6
CONTINUOUS
 62
    2
 10
307.06261449999988
 20
180.479724
 11
307.06261449999988
 21
181.079724
  0
LINE
  8
_0-3_躯体と製品
  6
CONTINUOUS
 62
    2
 10
307.20261449999975
 20
182.82971499999991
 11
308.00261549999982
 21
182.82972599999999
  0
ARC
  8
_0-3_躯体と製品
  6
CONTINUOUS
 62
    2
 10
307.4026144999998
 20
183.12971599999992
 40
0.1
 50
180
 51
270
  0
LINE
  8
_0-3_躯体と製品
  6
CONTINUOUS
 62
    2
 10
307.4026144999998
 20
183.02971600000001
 11
308.00261549999982
 21
183.02971600000001
  0
ARC
  8
_0-3_躯体と製品
  6
CONTINUOUS
 62
    2
 10
307.20261449999975
 20
182.92971500000002
 40
0.1
 50
180
 51
270
  0
ARC
  8
_0-3_躯体と製品
  6
CONTINUOUS
 62
    2
 10
308.00261549999982
 20
182.92971500000002
 40
0.1
 50
270
 51
90
  0
CIRCLE
  8
_0-5_文字-記号
  6
CONTINUOUS
 62
    3
 10
310.24261849999971
 20
181.729725
 40
0.2
  0
ARC
  8
_0-3_躯体と製品
  6
CONTINUOUS
 62
    2
 10
308.50241749999986
 20
183.425971
 40
0.2
 50
0
 51
180
  0
ARC
  8
_0-3_躯体と製品
  6
CONTINUOUS
 62
    2
 10
310.26836049999974
 20
183.83028100000001
 40
0.600001
 50
92.45892600000272
 51
141.3853619999978
  0
LINE
  8
_0-3_躯体と製品
  6
CONTINUOUS
 62
    2
 10
310.24261849999971
 20
185.32973000000001
 11
310.54261849999966
 21
185.32973000000001
  0
ARC
  8
_0-3_躯体と製品
  6
CONTINUOUS
 62
    2
 10
308.20261549999987
 20
189.01497900000001
 40
0.1
 50
180
 51
257.21094599999913
  0
ARC
  8
_0-3_躯体と製品
  6
CONTINUOUS
 62
    2
 10
308.20261549999987
 20
189.5297359999999
 40
0.1
 50
90
 51
180
  0
LINE
  8
_0-3_躯体と製品
  6
CONTINUOUS
 62
    2
 10
308.10261549999973
 20
189.01497900000001
 11
308.10261549999973
 21
189.5297359999999
  0
ARC
  8
_0-3_躯体と製品
  6
CONTINUOUS
 62
    2
 10
310.6426184999998
 20
183.52972800000001
 40
1.0800019999999999
 50
141.1489380000009
 51
180
  0
LINE
  8
_0-3_躯体と製品
  6
CONTINUOUS
 62
    2
 10
307.80261449999966
 20
189.42973599999999
 11
307.50261449999971
 21
189.42973599999999
  0
LINE
  8
_0-3_躯体と製品
  6
CONTINUOUS
 62
    2
 10
310.60261549999973
 20
183.52972800000001
 11
310.54261549999978
 21
183.58972800000001
  0
LINE
  8
_0-3_躯体と製品
  6
CONTINUOUS
 62
    2
 10
310.60261549999973
 20
183.52972800000001
 11
310.54261849999966
 21
183.469731
  0
LINE
  8
_0-3_躯体と製品
  6
CONTINUOUS
 62
    2
 10
310.90261949999967
 20
186.42973199999992
 11
310.84261949999973
 21
186.42973199999992
  0
LINE
  8
_0-3_躯体と製品
  6
CONTINUOUS
 62
    2
 10
310.84261949999973
 20
186.42973199999992
 11
310.84261949999973
 21
184.52972899999989
  0
LINE
  8
_0-3_躯体と製品
  6
CONTINUOUS
 62
    2
 10
310.84261949999973
 20
184.52972899999989
 11
310.90261949999967
 21
184.52972899999989
  0
LINE
  8
_0-3_躯体と製品
  6
CONTINUOUS
 62
    2
 10
310.90261949999967
 20
188.42973499999999
 11
310.84261949999973
 21
188.42973499999999
  0
LINE
  8
_0-3_躯体と製品
  6
CONTINUOUS
 62
    2
 10
310.90261949999967
 20
188.42973499999999
 11
310.84261949999973
 21
188.42973499999999
  0
LINE
  8
_0-3_躯体と製品
  6
CONTINUOUS
 62
    2
 10
308.40261549999968
 20
189.62973699999989
 11
308.20261549999987
 21
189.62973699999989
  0
LINE
  8
_0-3_躯体と製品
  6
CONTINUOUS
 62
    2
 10
309.30261749999977
 20
188.42973499999999
 11
307.40261549999968
 21
188.42973499999999
  0
ARC
  8
_0-3_躯体と製品
  6
CONTINUOUS
 62
    2
 10
307.4026144999998
 20
186.72973200000001
 40
0.1
 50
180
 51
270
  0
LINE
  8
_0-3_躯体と製品
  6
CONTINUOUS
 62
    2
 10
309.60261749999972
 20
186.6297319999999
 11
307.4026144999998
 21
186.6297319999999
  0
ARC
  8
_0-3_躯体と製品
  6
CONTINUOUS
 62
    2
 10
307.40261549999968
 20
186.32973200000001
 40
0.1
 50
90
 51
180
  0
LINE
  8
_0-3_躯体と製品
  6
CONTINUOUS
 62
    2
 10
309.30261749999977
 20
186.42973199999992
 11
307.40261549999968
 21
186.42973199999992
  0
ARC
  8
_0-3_躯体と製品
  6
CONTINUOUS
 62
    2
 10
309.60261749999972
 20
186.529732
 40
0.1
 50
290.15087400000476
 51
90.000000000000057
  0
LINE
  8
_0-3_躯体と製品
  6
CONTINUOUS
 62
    2
 10
309.63706749999983
 20
186.43585300000001
 11
309.30261749999977
 21
186.32973200000001
  0
LINE
  8
_0-3_躯体と製品
  6
CONTINUOUS
 62
    2
 10
309.30261749999977
 20
186.32973200000001
 11
309.30261749999977
 21
186.42973199999992
  0
LINE
  8
_0-3_躯体と製品
  6
CONTINUOUS
 62
    2
 10
309.30261749999977
 20
188.42973499999999
 11
309.30261749999977
 21
188.5297349999999
  0
ARC
  8
_0-3_躯体と製品
  6
CONTINUOUS
 62
    2
 10
309.60261749999972
 20
188.329735
 40
0.1
 50
270
 51
69.849125999995252
  0
LINE
  8
_0-3_躯体と製品
  6
CONTINUOUS
 62
    2
 10
309.63706749999983
 20
188.42361400000001
 11
309.30261749999977
 21
188.5297349999999
  0
LINE
  8
_0-3_躯体と製品
  6
CONTINUOUS
 62
    2
 10
310.90261949999967
 20
186.42973199999992
 11
310.90261949999967
 21
188.42973499999999
  0
LINE
  8
_0-3_躯体と製品
  6
CONTINUOUS
 62
    2
 10
310.54261749999978
 20
186.32973200000001
 11
310.54261749999978
 21
188.5297349999999
  0
ARC
  8
_0-3_躯体と製品
  6
CONTINUOUS
 62
    2
 10
310.44261849999975
 20
185.92973099999989
 40
0.1
 50
0
 51
90
  0
LINE
  8
_0-3_躯体と製品
  6
CONTINUOUS
 62
    2
 10
310.54261849999966
 20
185.92973099999989
 11
310.54261549999978
 21
183.58972800000001
  0
ARC
  8
_0-3_躯体と製品
  6
CONTINUOUS
 62
    2
 10
310.44261849999975
 20
188.98973599999999
 40
0.1
 50
270
 51
0
  0
ARC
  8
_0-3_躯体と製品
  6
CONTINUOUS
 62
    2
 10
310.44261749999987
 20
188.5297349999999
 40
0.1
 50
0
 51
90
  0
LINE
  8
_0-3_躯体と製品
  6
CONTINUOUS
 62
    2
 10
309.30261649999989
 20
188.62973500000001
 11
310.44261749999987
 21
188.62973500000001
  0
LINE
  8
_0-3_躯体と製品
  6
CONTINUOUS
 62
    2
 10
308.90261649999979
 20
188.62973500000001
 11
308.30261549999977
 21
188.62973500000001
  0
LINE
  8
_0-3_躯体と製品
  6
CONTINUOUS
 62
    2
 10
308.90261649999979
 20
188.62973500000001
 11
309.30261649999989
 21
188.42973499999999
  0
LINE
  8
_0-3_躯体と製品
  6
CONTINUOUS
 62
    2
 10
308.30261549999977
 20
188.88973599999991
 11
310.44261849999975
 21
188.88973599999991
  0
ARC
  8
_0-3_躯体と製品
  6
CONTINUOUS
 62
    2
 10
310.44261749999987
 20
186.32973200000001
 40
0.1
 50
270
 51
0
  0
LINE
  8
_0-3_躯体と製品
  6
CONTINUOUS
 62
    2
 10
309.30261649999989
 20
186.22973200000001
 11
310.44261749999987
 21
186.22973200000001
  0
LINE
  8
_0-3_躯体と製品
  6
CONTINUOUS
 62
    2
 10
308.90261649999979
 20
186.22973200000001
 11
308.30261549999977
 21
186.22973200000001
  0
LINE
  8
_0-3_躯体と製品
  6
CONTINUOUS
 62
    2
 10
309.30261649999989
 20
186.42973199999992
 11
309.30261649999989
 21
186.22973200000001
  0
LINE
  8
_0-3_躯体と製品
  6
CONTINUOUS
 62
    2
 10
308.90261649999979
 20
186.22973200000001
 11
309.30261649999989
 21
186.42973199999992
  0
LINE
  8
_0-3_躯体と製品
  6
CONTINUOUS
 62
    2
 10
308.30261549999977
 20
186.029731
 11
310.44261849999975
 21
186.029731
  0
LINE
  8
_0-3_躯体と製品
  6
CONTINUOUS
 62
    2
 10
309.30261649999989
 20
188.42973499999999
 11
309.30261649999989
 21
188.62973500000001
  0
LINE
  8
_0-3_躯体と製品
  6
CONTINUOUS
 62
    2
 10
308.30261549999977
 20
186.22973200000001
 11
307.44959749999975
 21
186.04017200000001
  0
ARC
  8
_0-3_躯体と製品
  6
CONTINUOUS
 62
    2
 10
307.46261349999986
 20
185.9816009999999
 40
0.0599999999999999
 50
102.5288079999994
 51
180
  0
ARC
  8
_0-3_躯体と製品
  6
CONTINUOUS
 62
    2
 10
307.46261349999986
 20
185.90058300000001
 40
0.0599999999999999
 50
180
 51
282.78905400000082
  0
LINE
  8
_0-3_躯体と製品
  6
CONTINUOUS
 62
    2
 10
307.40261349999969
 20
185.9816009999999
 11
307.40261349999969
 21
185.90058300000001
  0
LINE
  8
_0-3_躯体と製品
  6
CONTINUOUS
 62
    2
 10
308.30261549999977
 20
186.029731
 11
307.47589549999975
 21
185.842072
  0
ARC
  8
_0-3_躯体と製品
  6
CONTINUOUS
 62
    2
 10
307.50261449999971
 20
188.909952
 40
0.1
 50
180
 51
257.47119200000049
  0
LINE
  8
_0-3_躯体と製品
  6
CONTINUOUS
 62
    2
 10
308.30261549999977
 20
188.62973500000001
 11
307.48092149999979
 21
188.81233399999991
  0
LINE
  8
_0-3_躯体と製品
  6
CONTINUOUS
 62
    2
 10
308.30261549999977
 20
188.88973599999991
 11
308.18047849999971
 21
188.91746000000001
  0
ARC
  8
_0-3_躯体と製品
  6
CONTINUOUS
 62
    2
 10
307.50261449999971
 20
189.329736
 40
0.1
 50
90
 51
180
  0
LINE
  8
_0-3_躯体と製品
  6
CONTINUOUS
 62
    2
 10
307.4026144999998
 20
189.329736
 11
307.4026144999998
 21
188.909952
  0
LINE
  8
_0-3_躯体と製品
  6
PLINE3
 62
    3
 10
306.51563349999969
 20
187.42973299999991
 11
311.6151484999998
 21
187.42973299999991
  0
LINE
  8
_0-3_躯体と製品
  6
CONTINUOUS
 62
    2
 10
309.30261749999977
 20
188.5297349999999
 11
309.30261749999977
 21
188.42973499999999
  0
LINE
  8
_0-3_躯体と製品
  6
CONTINUOUS
 62
    2
 10
307.30261449999966
 20
188.1297339999999
 11
307.30261449999966
 21
186.72973200000001
  0
ARC
  8
_0-3_躯体と製品
  6
CONTINUOUS
 62
    2
 10
307.4026144999998
 20
188.1297339999999
 40
0.1
 50
90
 51
180
  0
LINE
  8
_0-3_躯体と製品
  6
CONTINUOUS
 62
    2
 10
309.60261749999972
 20
188.22973500000001
 11
307.4026144999998
 21
188.22973500000001
  0
ARC
  8
_0-3_躯体と製品
  6
CONTINUOUS
 62
    2
 10
307.40261549999968
 20
188.5297349999999
 40
0.1
 50
180
 51
270
  0
CIRCLE
  8
_0-5_文字-記号
  6
CONTINUOUS
 62
    3
 10
310.54257349999966
 20
188.0070989999999
 40
0.2
  0
CIRCLE
  8
_0-5_文字-記号
  6
CONTINUOUS
 62
    3
 10
309.56261749999976
 20
183.52972800000001
 40
0.2
  0
LINE
  8
_0-3_躯体と製品
  6
PLINE2
 62
    3
 10
318.29076849999979
 20
183.54158900000002
 11
317.94763349999971
 21
183.15484800000002
  0
LINE
  8
_0-3_躯体と製品
  6
PLINE2
 62
    3
 10
318.89413349999973
 20
183.10524399999991
 11
312.70262149999985
 21
183.42972800000001
  0
LINE
  8
_0-3_躯体と製品
  6
PLINE2
 62
    3
 10
315.06270049999966
 20
182.60507899999999
 11
314.13110349999988
 21
182.26600599999989
  0
LINE
  8
_0-3_躯体と製品
  6
PLINE2
 62
    3
 10
315.06270049999966
 20
182.81791499999991
 11
314.06269949999978
 21
182.45394400000001
  0
LINE
  8
_0-3_躯体と製品
  6
PLINE2
 62
    3
 10
318.49468149999984
 20
183.12617900000001
 11
318.45804649999968
 21
182.42713700000002
  0
LINE
  8
_0-3_躯体と製品
  6
PLINE2
 62
    3
 10
318.45804649999968
 20
182.42713700000002
 11
318.8784334999998
 21
182.805655
  0
LINE
  8
_0-3_躯体と製品
  6
PLINE2
 62
    3
 10
318.8784334999998
 20
182.805655
 11
318.89413349999973
 21
183.10524399999991
  0
LINE
  8
_0-3_躯体と製品
  6
PLINE2
 62
    3
 10
313.50262249999969
 20
182.729727
 11
312.70262149999985
 21
182.729727
  0
LINE
  8
_0-3_躯体と製品
  6
PLINE2
 62
    3
 10
314.13110349999988
 20
182.26600599999989
 11
312.77037749999977
 21
182.06753499999999
  0
ARC
  8
_0-3_躯体と製品
  6
PLINE2
 62
    3
 10
312.7588304999997
 20
182.14669700000002
 40
0.08
 50
188.13010200000139
 51
278.29846600000332
  0
LINE
  8
_0-3_躯体と製品
  6
PLINE2
 62
    3
 10
312.67963449999979
 20
182.13538299999999
 11
312.67401149999978
 21
182.17474799999999
  0
ARC
  8
_0-3_躯体と製品
  6
PLINE2
 62
    3
 10
312.75320749999969
 20
182.18606199999999
 40
0.08
 50
98.130101999997891
 51
188.13010200000139
  0
LINE
  8
_0-3_躯体と製品
  6
PLINE2
 62
    3
 10
312.74189349999983
 20
182.26525800000002
 11
314.06269949999978
 21
182.45394400000001
  0
LINE
  8
_0-3_躯体と製品
  6
PLINE2
 62
    3
 10
314.13110349999988
 20
182.26600599999989
 11
312.77037749999977
 21
182.06753499999999
  0
ARC
  8
_0-3_躯体と製品
  6
PLINE2
 62
    3
 10
312.7588304999997
 20
182.14669700000002
 40
0.08
 50
188.13010200000139
 51
278.29846600000332
  0
LINE
  8
_0-3_躯体と製品
  6
PLINE2
 62
    3
 10
312.67963449999979
 20
182.13538299999999
 11
312.67401149999978
 21
182.17474799999999
  0
ARC
  8
_0-3_躯体と製品
  6
PLINE2
 62
    3
 10
312.75320749999969
 20
182.18606199999999
 40
0.08
 50
98.130101999997891
 51
188.13010200000139
  0
LINE
  8
_0-3_躯体と製品
  6
PLINE2
 62
    3
 10
312.74189349999983
 20
182.26525800000002
 11
314.06269949999978
 21
182.45394400000001
  0
LINE
  8
_0-3_躯体と製品
  6
PLINE2
 62
    3
 10
318.05859349999969
 20
182.448071
 11
318.45804649999968
 21
182.42713700000002
  0
LINE
  8
_0-3_躯体と製品
  6
PLINE2
 62
    3
 10
317.45941549999975
 20
182.47947300000001
 11
317.6800754999997
 21
182.868458
  0
LINE
  8
_0-3_躯体と製品
  6
PLINE2
 62
    3
 10
317.6800754999997
 20
182.868458
 11
318.0795284999997
 21
182.84752399999999
  0
LINE
  8
_0-3_躯体と製品
  6
PLINE2
 62
    3
 10
318.0795284999997
 20
182.84752399999999
 11
318.05859349999969
 21
182.448071
  0
LINE
  8
_0-3_躯体と製品
  6
PLINE2
 62
    3
 10
317.05996249999976
 20
182.500407
 11
317.45941549999975
 21
182.47947300000001
  0
LINE
  8
_0-3_躯体と製品
  6
PLINE2
 62
    3
 10
316.46078449999982
 20
182.5318089999999
 11
316.68144449999977
 21
182.920794
  0
LINE
  8
_0-3_躯体と製品
  6
PLINE2
 62
    3
 10
316.68144449999977
 20
182.920794
 11
317.08089749999976
 21
182.89985999999999
  0
LINE
  8
_0-3_躯体と製品
  6
PLINE2
 62
    3
 10
317.08089749999976
 20
182.89985999999999
 11
317.05996249999976
 21
182.500407
  0
LINE
  8
_0-3_躯体と製品
  6
PLINE2
 62
    3
 10
316.06133149999982
 20
182.55274299999999
 11
316.46078449999982
 21
182.5318089999999
  0
LINE
  8
_0-3_躯体と製品
  6
PLINE2
 62
    3
 10
315.46215349999989
 20
182.58414499999989
 11
315.68281349999984
 21
182.97313
  0
LINE
  8
_0-3_躯体と製品
  6
PLINE2
 62
    3
 10
315.68281349999984
 20
182.97313
 11
316.08226649999983
 21
182.95219600000001
  0
LINE
  8
_0-3_躯体と製品
  6
PLINE2
 62
    3
 10
316.08226649999983
 20
182.95219600000001
 11
316.06133149999982
 21
182.55274299999999
  0
LINE
  8
_0-3_躯体と製品
  6
PLINE2
 62
    3
 10
315.06270049999966
 20
182.60507899999999
 11
315.46215349999989
 21
182.58414499999989
  0
LINE
  8
_0-3_躯体と製品
  6
PLINE2
 62
    3
 10
314.46352249999973
 20
182.636481
 11
314.68418249999968
 21
183.02546599999999
  0
LINE
  8
_0-3_躯体と製品
  6
PLINE2
 62
    3
 10
314.68418249999968
 20
183.02546599999999
 11
315.08363549999967
 21
183.00453200000001
  0
LINE
  8
_0-3_躯体と製品
  6
PLINE2
 62
    3
 10
315.08363549999967
 20
183.00453200000001
 11
315.06270049999966
 21
182.60507899999999
  0
LINE
  8
_0-3_躯体と製品
  6
PLINE2
 62
    3
 10
314.06406949999973
 20
182.65741500000001
 11
314.46352249999973
 21
182.636481
  0
LINE
  8
_0-3_躯体と製品
  6
PLINE2
 62
    3
 10
313.68555249999986
 20
183.07780199999999
 11
314.08500449999974
 21
183.05686800000001
  0
LINE
  8
_0-3_躯体と製品
  6
PLINE2
 62
    3
 10
314.08500449999974
 20
183.05686800000001
 11
314.06406949999973
 21
182.65741500000001
  0
LINE
  8
_0-3_躯体と製品
  6
PLINE2
 62
    3
 10
313.50262249999969
 20
182.729727
 11
313.68555249999986
 21
183.07780199999999
  0
LINE
  8
_0-5_文字-記号
  6
CONTINUOUS
 62
    3
 10
318.45804649999968
 20
184.632319
 11
321.09644149999986
 21
187.776636
  0
LINE
  8
_0-3_躯体と製品
  6
PLINE2
 62
    3
 10
315.06270049999966
 20
184.454376
 11
315.46215349999989
 21
184.47530999999989
  0
LINE
  8
_0-3_躯体と製品
  6
PLINE2
 62
    3
 10
314.46352249999973
 20
184.4229739999999
 11
314.68418249999968
 21
184.03398899999999
  0
LINE
  8
_0-3_躯体と製品
  6
PLINE2
 62
    3
 10
314.68418249999968
 20
184.03398899999999
 11
315.08363549999967
 21
184.054923
  0
LINE
  8
_0-3_躯体と製品
  6
PLINE2
 62
    3
 10
315.08363549999967
 20
184.054923
 11
315.06270049999966
 21
184.454376
  0
LINE
  8
_0-3_躯体と製品
  6
PLINE2
 62
    3
 10
314.06406949999973
 20
184.40204
 11
314.46352249999973
 21
184.4229739999999
  0
LINE
  8
_0-3_躯体と製品
  6
PLINE2
 62
    3
 10
313.68555249999986
 20
183.98165299999999
 11
314.08500449999974
 21
184.00258799999989
  0
LINE
  8
_0-3_躯体と製品
  6
PLINE2
 62
    3
 10
314.08500449999974
 20
184.00258799999989
 11
314.06406949999973
 21
184.40204
  0
LINE
  8
_0-3_躯体と製品
  6
PLINE2
 62
    3
 10
317.92874049999978
 20
183.903617
 11
318.30262949999974
 21
183.52972800000001
  0
LINE
  8
_0-3_躯体と製品
  6
PLINE2
 62
    3
 10
313.50262249999969
 20
184.32972900000001
 11
313.68555249999986
 21
183.98165299999999
  0
LINE
  8
_0-3_躯体と製品
  6
PLINE2
 62
    3
 10
315.06270049999966
 20
184.454376
 11
314.13110349999988
 21
184.79345000000001
  0
LINE
  8
_0-3_躯体と製品
  6
PLINE2
 62
    3
 10
315.06270049999966
 20
184.24154000000001
 11
314.06269949999978
 21
184.60551100000001
  0
LINE
  8
_0-3_躯体と製品
  6
PLINE2
 62
    3
 10
318.49468149999984
 20
183.93327699999989
 11
318.45804649999968
 21
184.632319
  0
LINE
  8
_0-3_躯体と製品
  6
PLINE2
 62
    3
 10
318.45804649999968
 20
184.632319
 11
318.8784334999998
 21
184.25380100000001
  0
LINE
  8
_0-3_躯体と製品
  6
PLINE2
 62
    3
 10
318.8784334999998
 20
184.25380100000001
 11
318.89413349999973
 21
183.95421100000002
  0
LINE
  8
_0-3_躯体と製品
  6
PLINE2
 62
    3
 10
318.89413349999973
 20
183.95421100000002
 11
312.70262149999985
 21
183.629728
  0
LINE
  8
_0-3_躯体と製品
  6
PLINE2
 62
    3
 10
313.50262249999969
 20
184.32972900000001
 11
312.70262149999985
 21
184.32972900000001
  0
LINE
  8
_0-3_躯体と製品
  6
PLINE2
 62
    3
 10
314.13110349999988
 20
184.79345000000001
 11
312.77037749999977
 21
184.99192099999999
  0
ARC
  8
_0-3_躯体と製品
  6
PLINE2
 62
    3
 10
312.7588304999997
 20
184.91275899999999
 40
0.08
 50
81.701533999996656
 51
171.8698979999985
  0
LINE
  8
_0-3_躯体と製品
  6
PLINE2
 62
    3
 10
312.67963449999979
 20
184.924072
 11
312.67401149999978
 21
184.88470699999999
  0
ARC
  8
_0-3_躯体と製品
  6
PLINE2
 62
    3
 10
312.75320749999969
 20
184.87339299999991
 40
0.08
 50
171.8698979999985
 51
261.86989800000208
  0
LINE
  8
_0-3_躯体と製品
  6
PLINE2
 62
    3
 10
312.74189349999983
 20
184.794197
 11
314.06269949999978
 21
184.60551100000001
  0
LINE
  8
_0-3_躯体と製品
  6
PLINE2
 62
    3
 10
312.70262149999985
 20
183.42972800000001
 11
312.70262149999985
 21
183.52972800000001
  0
LINE
  8
_0-3_躯体と製品
  6
PLINE2
 62
    3
 10
312.70262149999985
 20
183.629728
 11
312.70262149999985
 21
183.52972800000001
  0
LINE
  8
_0-3_躯体と製品
  6
PLINE2
 62
    3
 10
318.05859349999969
 20
184.61138400000002
 11
318.45804649999968
 21
184.632319
  0
LINE
  8
_0-3_躯体と製品
  6
PLINE2
 62
    3
 10
317.45941549999975
 20
184.579983
 11
317.6800754999997
 21
184.19099700000001
  0
LINE
  8
_0-3_躯体と製品
  6
PLINE2
 62
    3
 10
317.6800754999997
 20
184.19099700000001
 11
318.0795284999997
 21
184.21193199999999
  0
LINE
  8
_0-3_躯体と製品
  6
PLINE2
 62
    3
 10
318.0795284999997
 20
184.21193199999999
 11
318.05859349999969
 21
184.61138400000002
  0
LINE
  8
_0-3_躯体と製品
  6
PLINE2
 62
    3
 10
317.05996249999976
 20
184.5590479999999
 11
317.45941549999975
 21
184.579983
  0
LINE
  8
_0-3_躯体と製品
  6
PLINE2
 62
    3
 10
316.46078449999982
 20
184.527647
 11
316.68144449999977
 21
184.1386609999999
  0
LINE
  8
_0-3_躯体と製品
  6
PLINE2
 62
    3
 10
316.68144449999977
 20
184.1386609999999
 11
317.08089749999976
 21
184.15959599999991
  0
LINE
  8
_0-3_躯体と製品
  6
PLINE2
 62
    3
 10
317.08089749999976
 20
184.15959599999991
 11
317.05996249999976
 21
184.5590479999999
  0
LINE
  8
_0-3_躯体と製品
  6
PLINE2
 62
    3
 10
316.06133149999982
 20
184.50671199999999
 11
316.46078449999982
 21
184.527647
  0
LINE
  8
_0-3_躯体と製品
  6
PLINE2
 62
    3
 10
315.46215349999989
 20
184.47530999999989
 11
315.68281349999984
 21
184.08632500000002
  0
LINE
  8
_0-3_躯体と製品
  6
PLINE2
 62
    3
 10
315.68281349999984
 20
184.08632500000002
 11
316.08226649999983
 21
184.10726
  0
LINE
  8
_0-3_躯体と製品
  6
PLINE2
 62
    3
 10
316.08226649999983
 20
184.10726
 11
316.06133149999982
 21
184.50671199999999
  0
TEXT
  8
_0-5_文字-記号
 62
    7
 10
311.8161621666668
 20
187.596442
 40
2
 41
0.8
 50
0
  1
１０
  0
CIRCLE
  8
_0-5_文字-記号
  6
CONTINUOUS
 62
    3
 10
318.45804649999968
 20
184.632319
 40
0.2
  0
TEXT
  8
_0-5_文字-記号
 62
    7
 10
321.36728316666677
 20
188.14569800000001
 40
2
 41
0.8
 50
0
  1
９
  0
LINE
  8
_0-5_文字-記号
  6
CONTINUOUS
 62
    3
 10
310.50091249999969
 20
194.72453899999999
 11
313.52715849999981
 21
198.33107799999999
  0
ARC
  8
_0-3_躯体と製品
  6
CONTINUOUS
 62
    2
 10
309.74710449999975
 20
193.089742
 40
0.0599999999999999
 50
180
 51
270
  0
ARC
  8
_0-3_躯体と製品
  6
CONTINUOUS
 62
    2
 10
309.68710349999969
 20
193.029741
 40
0.2
 50
180
 51
270
  0
LINE
  8
_0-3_躯体と製品
  6
CONTINUOUS
 62
    2
 10
310.90261949999967
 20
191.72973999999999
 11
311.10261949999972
 21
191.72973999999999
  0
ARC
  8
_0-3_躯体と製品
  6
CONTINUOUS
 62
    2
 10
310.56037549999974
 20
194.38750100000001
 40
0.3422429999999999
 50
0
 51
180
  0
ARC
  8
_0-3_躯体と製品
  6
CONTINUOUS
 62
    2
 10
310.56037549999974
 20
194.38750100000001
 40
0.5422439999999999
 50
0
 51
180
  0
LINE
  8
_0-3_躯体と製品
  6
CONTINUOUS
 62
    2
 10
310.90261949999967
 20
194.38750100000001
 11
310.90261949999967
 21
192.80647400000001
  0
ARC
  8
_0-3_躯体と製品
  6
CONTINUOUS
 62
    2
 10
310.80261949999976
 20
192.80647400000001
 40
0.1
 50
285.00000000000114
 51
0.0000000000000254
  0
LINE
  8
_0-3_躯体と製品
  6
CONTINUOUS
 62
    2
 10
310.65696849999972
 20
192.66391899999991
 11
310.82850149999967
 21
192.709881
  0
LINE
  8
_0-3_躯体と製品
  6
CONTINUOUS
 62
    2
 10
310.70873249999977
 20
192.47073399999999
 11
310.88026449999984
 21
192.516696
  0
LINE
  8
_0-3_躯体と製品
  6
CONTINUOUS
 62
    2
 10
311.10261949999972
 20
194.38750100000001
 11
311.10261949999972
 21
192.80647400000001
  0
ARC
  8
_0-3_躯体と製品
  6
CONTINUOUS
 62
    2
 10
310.68285049999986
 20
192.56732700000001
 40
0.1
 50
105.00000000000109
 51
285.00000000000108
  0
ARC
  8
_0-3_躯体と製品
  6
CONTINUOUS
 62
    2
 10
310.80261949999976
 20
192.80647400000001
 40
0.2999999999999999
 50
285.00000000000114
 51
0.0000000000000254
  0
LINE
  8
_0-3_躯体と製品
  6
CONTINUOUS
 62
    2
 10
309.48710349999988
 20
193.029741
 11
309.48710349999988
 21
194.32974300000001
  0
LINE
  8
_0-3_躯体と製品
  6
CONTINUOUS
 62
    2
 10
309.68710349999969
 20
193.089742
 11
309.68710349999969
 21
194.32974300000001
  0
ARC
  8
_0-3_躯体と製品
  6
CONTINUOUS
 62
    2
 10
309.58710349999978
 20
194.32974300000001
 40
0.1
 50
0
 51
180
  0
LINE
  8
_0-3_躯体と製品
  6
CONTINUOUS
 62
    2
 10
309.95813249999969
 20
193.029741
 11
309.74710449999975
 21
193.029741
  0
ARC
  8
_0-3_躯体と製品
  6
CONTINUOUS
 62
    2
 10
309.95813249999969
 20
193.089742
 40
0.0599999999999999
 50
270
 51
0
  0
LINE
  8
_0-3_躯体と製品
  6
CONTINUOUS
 62
    2
 10
310.01813249999987
 20
194.38631699999999
 11
310.01813249999987
 21
193.089742
  0
ARC
  8
_0-3_躯体と製品
  6
CONTINUOUS
 62
    2
 10
310.01813249999987
 20
193.029741
 40
0.2
 50
270
 51
0
  0
LINE
  8
_0-3_躯体と製品
  6
CONTINUOUS
 62
    2
 10
310.21813349999979
 20
194.38631699999999
 11
310.21813249999968
 21
193.029741
  0
LINE
  8
_0-3_躯体と製品
  6
CONTINUOUS
 62
    2
 10
310.01813249999987
 20
192.82974100000001
 11
309.68710349999969
 21
192.82974100000001
  0
LINE
  8
_0-3_躯体と製品
  6
CONTINUOUS
 62
    2
 10
308.10261549999973
 20
191.32973899999999
 11
308.10261549999973
 21
190.92973800000001
  0
LINE
  8
_0-3_躯体と製品
  6
CONTINUOUS
 62
    2
 10
307.80261449999966
 20
191.02973899999989
 11
307.80261449999966
 21
190.28973799999991
  0
LINE
  8
_0-3_躯体と製品
  6
CONTINUOUS
 62
    2
 10
310.84261949999973
 20
189.729737
 11
310.90261949999967
 21
189.729737
  0
ARC
  8
_0-3_躯体と製品
  6
CONTINUOUS
 62
    2
 10
308.20261549999987
 20
190.92973800000001
 40
0.1
 50
180
 51
270
  0
LINE
  8
_0-3_躯体と製品
  6
CONTINUOUS
 62
    2
 10
308.40261549999968
 20
190.82973799999999
 11
308.20261549999987
 21
190.82973799999999
  0
ARC
  8
_0-3_躯体と製品
  6
CONTINUOUS
 62
    2
 10
308.20261549999987
 20
191.32973899999999
 40
0.1
 50
90
 51
180
  0
LINE
  8
_0-3_躯体と製品
  6
CONTINUOUS
 62
    2
 10
310.44263049999972
 20
191.42973900000001
 11
308.20261549999987
 21
191.42973900000001
  0
LINE
  8
_0-3_躯体と製品
  6
CONTINUOUS
 62
    2
 10
307.86261449999984
 20
190.229737
 11
307.80261449999966
 21
190.28973799999991
  0
LINE
  8
_0-3_躯体と製品
  6
CONTINUOUS
 62
    2
 10
307.86261449999984
 20
190.229737
 11
307.80261449999966
 21
190.169737
  0
ARC
  8
_0-3_躯体と製品
  6
CONTINUOUS
 62
    2
 10
310.70261849999974
 20
191.52973899999989
 40
0.2
 50
0
 51
90
  0
LINE
  8
_0-3_躯体と製品
  6
CONTINUOUS
 62
    2
 10
310.90261949999967
 20
191.52973899999989
 11
310.90261949999967
 21
189.729737
  0
LINE
  8
_0-3_躯体と製品
  6
CONTINUOUS
 62
    2
 10
310.70261849999974
 20
191.72973999999999
 11
307.50261449999971
 21
191.72973999999999
  0
ARC
  8
_0-3_躯体と製品
  6
CONTINUOUS
 62
    2
 10
310.44263049999972
 20
191.32973899999999
 40
0.1
 50
0
 51
90
  0
ARC
  8
_0-3_躯体と製品
  6
CONTINUOUS
 62
    2
 10
307.50261449999971
 20
191.62973899999992
 40
0.1
 50
90
 51
180
  0
LINE
  8
_0-3_躯体と製品
  6
CONTINUOUS
 62
    2
 10
307.4026144999998
 20
191.62973899999992
 11
307.4026144999998
 21
191.12973899999992
  0
ARC
  8
_0-3_躯体と製品
  6
CONTINUOUS
 62
    2
 10
307.50261449999971
 20
191.12973899999992
 40
0.1
 50
180
 51
270
  0
LINE
  8
_0-3_躯体と製品
  6
CONTINUOUS
 62
    2
 10
307.80261449999966
 20
191.02973899999989
 11
307.50261449999971
 21
191.02973899999989
  0
ARC
  8
_0-3_躯体と製品
  6
CONTINUOUS
 62
    2
 10
309.80261849999988
 20
194.72974400000001
 40
0.2
 50
0
 51
90
  0
LINE
  8
_0-3_躯体と製品
  6
CONTINUOUS
 62
    2
 10
310.0026184999997
 20
193.17974199999989
 11
310.0026184999997
 21
194.72974400000001
  0
ARC
  8
_0-3_躯体と製品
  6
CONTINUOUS
 62
    2
 10
309.60261749999972
 20
194.6297439999999
 40
0.1
 50
0
 51
90
  0
LINE
  8
_0-3_躯体と製品
  6
CONTINUOUS
 62
    2
 10
309.70261749999986
 20
193.17974199999989
 11
309.70261749999986
 21
194.6297439999999
  0
ARC
  8
_0-3_躯体と製品
  6
CONTINUOUS
 62
    2
 10
309.85261849999983
 20
193.17974199999989
 40
0.1499999999999999
 50
180
 51
0
  0
ARC
  8
_0-3_躯体と製品
  6
CONTINUOUS
 62
    2
 10
307.20261449999975
 20
194.82974400000001
 40
0.1
 50
90
 51
180
  0
ARC
  8
_0-3_躯体と製品
  6
CONTINUOUS
 62
    2
 10
307.4026144999998
 20
194.6297439999999
 40
0.1
 50
90
 51
180
  0
LINE
  8
_0-3_躯体と製品
  6
CONTINUOUS
 62
    2
 10
309.60261749999972
 20
194.72974400000001
 11
307.4026144999998
 21
194.72974400000001
  0
LINE
  8
_0-3_躯体と製品
  6
CONTINUOUS
 62
    2
 10
307.20261449999975
 20
194.929744
 11
309.80261849999988
 21
194.929744
  0
CIRCLE
  8
_0-5_文字-記号
  6
CONTINUOUS
 62
    3
 10
310.50091249999969
 20
194.72453899999999
 40
0.2
  0
CIRCLE
  8
_0-5_文字-記号
  6
CONTINUOUS
 62
    3
 10
314.46118049999973
 20
192.67711299999991
 40
1.5000020000000001
  0
TEXT
  8
_0-5_文字-記号
 62
    7
 10
313.7678421666667
 20
191.89711700000001
 40
2
 41
0.8
 50
0
  1
５
  0
CIRCLE
  8
_0-5_文字-記号
  6
CONTINUOUS
 62
    3
 10
314.49134149999986
 20
199.48014599999991
 40
1.5000020000000001
  0
TEXT
  8
_0-5_文字-記号
 62
    7
 10
313.7446908333327
 20
198.70014099999992
 40
2
 41
0.8
 50
0
  1
７
  0
INSERT
  2
-001-_D4
  8
_0-2_寸法
 10
-818.50858214132722
 20
-13.512691831062597
 41
0.5
 42
0.5
 50
0
  0
INSERT
  2
-002-_D5
  8
_0-2_寸法
 10
-818.50858214132722
 20
-13.512691831062597
 41
0.5
 42
0.5
 50
0
  0
INSERT
  2
-003-_D6
  8
_0-2_寸法
 10
-818.50858214132722
 20
-13.512691831062597
 41
0.5
 42
0.5
 50
0
  0
INSERT
  2
-004-_D7
  8
_0-2_寸法
 10
-818.50858214132722
 20
-13.512691831062597
 41
0.5
 42
0.5
 50
0
  0
INSERT
  2
-005-_D8
  8
_0-2_寸法
 10
-818.50858214132722
 20
-13.512691831062597
 41
0.5
 42
0.5
 50
0
  0
INSERT
  2
-006-_D9
  8
_0-2_寸法
 10
-818.50858214132722
 20
-13.512691831062597
 41
0.5
 42
0.5
 50
0
  0
INSERT
  2
-007-_D10
  8
_0-2_寸法
 10
-818.50858214132722
 20
-13.512691831062597
 41
0.5
 42
0.5
 50
0
  0
INSERT
  2
-008-_D11
  8
_0-2_寸法
 10
-818.50858214132722
 20
-13.512691831062597
 41
0.5
 42
0.5
 50
0
  0
INSERT
  2
-009-_D12
  8
_0-2_寸法
 10
-818.50858214132722
 20
-13.512691831062597
 41
0.5
 42
0.5
 50
0
  0
INSERT
  2
-010-_D13
  8
_0-2_寸法
 10
-818.50858214132722
 20
-13.512691831062597
 41
0.5
 42
0.5
 50
0
  0
INSERT
  2
-011-_D14
  8
_0-2_寸法
 10
-818.50858214132722
 20
-13.512691831062597
 41
0.5
 42
0.5
 50
0
  0
INSERT
  2
-012-_D15
  8
_0-2_寸法
 10
-818.50858214132722
 20
-13.512691831062597
 41
0.5
 42
0.5
 50
0
  0
INSERT
  2
-013-_D16
  8
_0-2_寸法
 10
-818.50858214132722
 20
-13.512691831062597
 41
0.5
 42
0.5
 50
0
  0
INSERT
  2
-014-_D17
  8
_0-2_寸法
 10
-818.50858214132722
 20
-13.512691831062597
 41
0.5
 42
0.5
 50
0
  0
INSERT
  2
-015-_D18
  8
_0-2_寸法
 10
-818.50858214132722
 20
-13.512691831062597
 41
0.5
 42
0.5
 50
0
  0
INSERT
  2
-016-_D19
  8
_0-2_寸法
 10
-818.50858214132722
 20
-13.512691831062597
 41
0.5
 42
0.5
 50
0
  0
INSERT
  2
-017-_D20
  8
_0-2_寸法
 10
-818.50858214132722
 20
-13.512691831062597
 41
0.5
 42
0.5
 50
0
  0
INSERT
  2
-018-_D21
  8
_0-2_寸法
 10
-818.50858214132722
 20
-13.512691831062597
 41
0.5
 42
0.5
 50
0
  0
INSERT
  2
-019-_D22
  8
_0-2_寸法
 10
-818.50858214132722
 20
-13.512691831062597
 41
0.5
 42
0.5
 50
0
  0
INSERT
  2
-020-_D23
  8
_0-2_寸法
 10
-818.50858214132722
 20
-13.512691831062597
 41
0.5
 42
0.5
 50
0
  0
INSERT
  2
-021-_D24
  8
_0-2_寸法
 10
-818.50858214132722
 20
-13.512691831062597
 41
0.5
 42
0.5
 50
0
  0
INSERT
  2
-022-_D25
  8
_0-2_寸法
 10
-818.50858214132722
 20
-13.512691831062597
 41
0.5
 42
0.5
 50
0
  0
INSERT
  2
-023-_D26
  8
_0-2_寸法
 10
-818.50858214132722
 20
-13.512691831062597
 41
0.5
 42
0.5
 50
0
  0
INSERT
  2
-024-_D27
  8
_0-2_寸法
 10
-818.50858214132722
 20
-13.512691831062597
 41
0.5
 42
0.5
 50
0
  0
INSERT
  2
-025-_D28
  8
_0-2_寸法
 10
-818.50858214132722
 20
-13.512691831062597
 41
0.5
 42
0.5
 50
0
  0
ENDSEC
  0
EOF
