  0
SECTION
  2
HEADER
  9
$ACADVER
  1
AC1009
  9
$INSBASE
 10
0
 20
0
 30
0
  9
$EXTMIN
 10
0
 20
0
  9
$EXTMAX
 10
420
 20
297
  9
$LIMMIN
 10
0
 20
0
  9
$LIMMAX
 10
420
 20
297
  9
$LTSCALE
 40
1
  0
ENDSEC
  0
SECTION
  2
TABLES
  0
TABLE
  2
LTYPE
 70
     9
  0
LTYPE
  2
CONTINUOUS
 70
    64
  3
実線
 72
    65
 73
     0
 40
0.0
  0
LTYPE
  2
DASHED1
 70
    64
  3
--  --  --  --  --  --  --  --  
 72
    65
 73
     2
 40
2.5
 49
1.25
 49
-1.25
  0
LTYPE
  2
DASHED2
 70
    64
  3
----    ----    ----    ----    
 72
    65
 73
     2
 40
5.0
 49
2.5
 49
-2.5
  0
LTYPE
  2
DASHED3
 70
    64
  3
------  ------  ------  ------  
 72
    65
 73
     2
 40
5.0
 49
3.75
 49
-1.25
  0
LTYPE
  2
CENTER1
 70
    64
  3
----- - ----- - ----- - ----- - 
 72
    65
 73
     4
 40
10.0
 49
6.25
 49
-1.25
 49
1.25
 49
-1.25
  0
LTYPE
  2
CENTER2
 70
    64
  3
----------  --  ----------  --  
 72
    65
 73
     4
 40
20.0
 49
12.5
 49
-2.5
 49
2.5
 49
-2.5
  0
LTYPE
  2
PHANTOM1
 70
    64
  3
--- - - --- - - --- - - --- - - 
 72
    65
 73
     6
 40
10.0
 49
3.25
 49
-1.25
 49
1.25
 49
-1.25
 49
1.25
 49
-1.25
  0
LTYPE
  2
PHANTOM2
 70
    64
  3
--------  -  -  --------  -  -  
 72
    65
 73
     6
 40
20.0
 49
10.0
 49
-2.5
 49
1.25
 49
-2.5
 49
1.25
 49
-2.5
  0
LTYPE
  2
DOT
 70
    64
  3
-   -   -   -   -   -   -   -   
 72
    65
 73
     2
 40
2.5
 49
0.625
 49
-1.875
  0
LTYPE
  2
DUMMY
 70
    64
  3
ダミー
 72
    65
 73
     0
 40
0.0
  0
LTYPE
  2
RAND1
 70
    64
  3
ランダム線1
 72
    65
 73
     4
 40
10.0
 49
1.0
 49
-2.0
 49
3.0
 49
-4.0
  0
LTYPE
  2
RAND2
 70
    64
  3
ランダム線2
 72
    65
 73
     4
 40
14.0
 49
2.0
 49
-3.0
 49
4.0
 49
-5.0
  0
LTYPE
  2
RAND3
 70
    64
  3
ランダム線3
 72
    65
 73
     4
 40
18.0
 49
3.0
 49
-4.0
 49
5.0
 49
-6.0
  0
LTYPE
  2
RAND4
 70
    64
  3
ランダム線4
 72
    65
 73
     4
 40
22.0
 49
4.0
 49
-5.0
 49
6.0
 49
-7.0
  0
LTYPE
  2
RAND5
 70
    64
  3
ランダム線5
 72
    65
 73
     4
 40
26.0
 49
5.0
 49
-6.0
 49
7.0
 49
-8.0
  0
LTYPE
  2
LONG1
 70
    64
  3
----------  --  ----------  --  
 72
    65
 73
     4
 40
40.0
 49
32.5
 49
-2.5
 49
2.5
 49
-2.5
  0
LTYPE
  2
LONG2
 70
    64
  3
--------  -  -  --------  -  -  
 72
    65
 73
     6
 40
40.0
 49
30.0
 49
-2.5
 49
1.25
 49
-2.5
 49
1.25
 49
-2.5
  0
LTYPE
  2
LONG3
 70
    64
  3
+++++++++++++++..+++++++++++++++
 72
    65
 73
     2
 40
40.0
 49
37.5
 49
-2.5
  0
LTYPE
  2
LONG4
 70
    64
  3
+++++++++++++++..+++++++++++++++
 72
    65
 73
     2
 40
80.0
 49
75.0
 49
-5.0
  0
LTYPE
  2
LONG5
 70
    64
  3
----------  --  ----------  --  
 72
    65
 73
     4
 40
60.0
 49
37.5
 49
-7.5
 49
7.5
 49
-7.5
  0
LTYPE
  2
dashed
 70
   64
  3
-------   -------------   ------
 72
   65
 73
    2
 40
7.5
 49
6
 49
-1.5
  0
LTYPE
  2
dashed_spaced
 70
   64
  3
----        --------        ----
 72
   65
 73
    2
 40
12
 49
6
 49
-6
  0
LTYPE
  2
long_dashed_dotted
 70
   64
  3
------------- --- --------------
 72
   65
 73
    4
 40
15.25
 49
12
 49
-1.5
 49
0.25
 49
-1.5
  0
LTYPE
  2
long_dashed_double-dotted
 70
   64
  3
----------- --- --- ------------
 72
   65
 73
    6
 40
17
 49
12
 49
-1.5
 49
0.25
 49
-1.5
 49
0.25
 49
-1.5
  0
LTYPE
  2
long_dashed_triplicate-dotted
 70
   64
  3
--------- --- --- --- ----------
 72
   65
 73
    8
 40
18.75
 49
12
 49
-1.5
 49
0.25
 49
-1.5
 49
0.25
 49
-1.5
 49
0.25
 49
-1.5
  0
LTYPE
  2
dotted
 70
   64
  3
   -       -       -       -    
 72
   65
 73
    2
 40
1.75
 49
0.25
 49
-1.5
  0
LTYPE
  2
chain
 70
   64
  3
-------------- -- --------------
 72
   65
 73
    4
 40
18.5
 49
12
 49
-1.5
 49
3.5
 49
-1.5
  0
LTYPE
  2
chain_double_dash
 70
   64
  3
------------ -- -- -------------
 72
   65
 73
    6
 40
23.5
 49
12
 49
-1.5
 49
3.5
 49
-1.5
 49
3.5
 49
-1.5
  0
LTYPE
  2
dashed_dotted
 70
   64
  3
-----------     -     ----------
 72
   65
 73
    4
 40
9.25
 49
6
 49
-1.5
 49
0.25
 49
-1.5
  0
LTYPE
  2
double-dashed_dotted
 70
   64
  3
------   -----------   -   -----
 72
   65
 73
    6
 40
16.75
 49
6
 49
-1.5
 49
6
 49
-1.5
 49
0.25
 49
-1.5
  0
LTYPE
  2
dashed_double-dotted
 70
   64
  3
---------    -    -    ---------
 72
   65
 73
    6
 40
11
 49
6
 49
-1.5
 49
0.25
 49
-1.5
 49
0.25
 49
-1.5
  0
LTYPE
  2
double-dashed_double-dotted
 70
   64
  3
-----   ---------   -   -   ----
 72
   65
 73
    8
 40
18.5
 49
6
 49
-1.5
 49
6
 49
-1.5
 49
0.25
 49
-1.5
 49
0.25
 49
-1.5
  0
LTYPE
  2
dashed_triplicate-dotted
 70
   64
  3
-------    -    -    -    ------
 72
   65
 73
    8
 40
12.75
 49
6
 49
-1.5
 49
0.25
 49
-1.5
 49
0.25
 49
-1.5
 49
0.25
 49
-1.5
  0
LTYPE
  2
double-dashed_triplicate-dotted
 70
   64
  3
-----  ---------  -  -  -  -----
 72
   65
 73
   10
 40
20.25
 49
6
 49
-1.5
 49
6
 49
-1.5
 49
0.25
 49
-1.5
 49
0.25
 49
-1.5
 49
0.25
 49
-1.5
  0
LTYPE
  2
undefined
 70
   64
  3
--------------------------------
 72
   65
 73
    0
 40
0
  0
LTYPE
  2
PLINE2
 70
   64
  3
------     -----------     -----
 72
   65
 73
    2
 40
3
 49
2.1000000000000001
 49
-0.9
  0
LTYPE
  2
PLINE3
 70
   64
  3
------------   ---   -----------
 72
   65
 73
    4
 40
10
 49
7
 49
-1
 49
1
 49
-1
  0
LTYPE
  2
PLINE4
 70
   64
  3
---------   ---   ---   --------
 72
   65
 73
    6
 40
10
 49
5
 49
-1
 49
1
 49
-1
 49
1
 49
-1
  0
LTYPE
  2
PLINE5
 70
   64
  3
------     -----------     -----
 72
   65
 73
    2
 40
5
 49
3.5
 49
-1.5
  0
LTYPE
  2
PLINE6
 70
   64
  3
------------   ---   -----------
 72
   65
 73
    4
 40
15
 49
10.5
 49
-1.5
 49
1.5
 49
-1.5
  0
LTYPE
  2
PLINE7
 70
   64
  3
---------   ---   ---   --------
 72
   65
 73
    6
 40
15
 49
7.5
 49
-1.5
 49
1.5
 49
-1.5
 49
1.5
 49
-1.5
  0
LTYPE
  2
PLINE8
 70
   64
  3
------     -----------     -----
 72
   65
 73
    2
 40
7
 49
4.9000000000000004
 49
-2.1000000000000001
  0
LTYPE
  2
PLINE9
 70
   64
  3
------------   ---   -----------
 72
   65
 73
    4
 40
20
 49
14
 49
-2
 49
2
 49
-2
  0
LTYPE
  2
PLINE10
 70
   64
  3
---------   ---   ---   --------
 72
   65
 73
    6
 40
20
 49
10
 49
-2
 49
2
 49
-2
 49
2
 49
-2
  0
LTYPE
  2
PLINE11
 70
   64
  3
------     -----------     -----
 72
   65
 73
    2
 40
9
 49
6.2999999999999989
 49
-2.7000000000000002
  0
LTYPE
  2
PLINE12
 70
   64
  3
------------   ---   -----------
 72
   65
 73
    4
 40
25
 49
17.5
 49
-2.5
 49
2.5
 49
-2.5
  0
LTYPE
  2
PLINE13
 70
   64
  3
---------   ---   ---   --------
 72
   65
 73
    6
 40
25
 49
12.5
 49
-2.5
 49
2.5
 49
-2.5
 49
2.5
 49
-2.5
  0
LTYPE
  2
PLINE14
 70
   64
  3
------     -----------     -----
 72
   65
 73
    2
 40
11
 49
7.7000000000000002
 49
-3.2999999999999989
  0
LTYPE
  2
PLINE15
 70
   64
  3
------------   ---   -----------
 72
   65
 73
    4
 40
30
 49
21
 49
-3
 49
3
 49
-3
  0
LTYPE
  2
PLINE16
 70
   64
  3
---------   ---   ---   --------
 72
   65
 73
    6
 40
30
 49
15
 49
-3
 49
3
 49
-3
 49
3
 49
-3
  0
ENDTAB
  0
TABLE
  2
STYLE
  5
3
100
AcDbSymbolTable
 70
     1
  0
STYLE
  5
10
100
AcDbSymbolTableRecord
100
AcDbTextStyleTableRecord
  2
STANDARD
 70
     0
 40
0.0
 41
1.0
 50
0.0
 71
     0
 42
0.2
  3
txt
  4
bigfont.shx
  0
STYLE
  5
26
100
AcDbSymbolTableRecord
100
AcDbTextStyleTableRecord
  2
TATEGAKI
 70
    68
 40
0.0
 41
1.0
 50
0.0
 71
     0
 42
1.0
  3
txt
  4
bigfont.shx
  0
ENDTAB
  0
TABLE
  2
LAYER
 70
    5
  0
LAYER
  2
_0-2_寸法
 70
   64
 62
    7
  6
CONTINUOUS
  0
LAYER
  2
_0-3_躯体と製品
 70
   64
 62
    7
  6
CONTINUOUS
  0
LAYER
  2
_0-4_図面枠
 70
   64
 62
    7
  6
CONTINUOUS
  0
LAYER
  2
_0-5_文字-記号
 70
   64
 62
    7
  6
CONTINUOUS
  0
LAYER
  2
ADD_LINE
 70
   64
 62
    7
  6
CONTINUOUS
  0
ENDTAB
  0
ENDSEC
  0
SECTION
  2
BLOCKS
  0
BLOCK
  2
-000-_Open30
 70
   64
 10
0
 20
0
 30
0
  0
LINE
  8
_0-0_0
  6
CONTINUOUS
 62
    7
 10
-2
 20
0.53589838
 11
0
 21
0
  0
LINE
  8
_0-0_0
  6
CONTINUOUS
 62
    7
 10
0
 20
0
 11
-2
 21
-0.53589838
  0
LINE
  8
_0-0_0
  6
CONTINUOUS
 62
    7
 10
0
 20
0
 11
-2
 21
0
  0
ENDBLK
  0
BLOCK
  2
-001-_D4
 70
   64
 10
0
 20
0
 30
0
  0
LINE
  8
_0-2_寸法
  6
CONTINUOUS
 62
    4
 10
1414.195573365866
 20
368.15540076355182
 11
1398.4111413658659
 21
368.15540076355182
  0
LINE
  8
_0-2_寸法
  6
CONTINUOUS
 62
    4
 10
1406.555261365866
 20
372.15540076355182
 11
1398.4111413658659
 21
372.15540076355182
  0
LINE
  8
_0-2_寸法
  6
CONTINUOUS
 62
    4
 10
1398.4111413658659
 20
366.15540076355182
 11
1398.4111413658659
 21
364.15540076355182
  0
LINE
  8
_0-2_寸法
  6
CONTINUOUS
 62
    4
 10
1398.4111413658659
 20
374.15540076355182
 11
1398.4111413658659
 21
376.15540076355182
  0
INSERT
  2
-000-_Open30
  8
_0-2_寸法
 10
1398.4111413658659
 20
368.15540076355182
 41
1
 42
1
 50
90
  0
INSERT
  2
-000-_Open30
  8
_0-2_寸法
 10
1398.4111413658659
 20
372.15540076355182
 41
1
 42
1
 50
270
  0
TEXT
  8
_0-2_寸法
 62
    7
 10
1396.4111413658659
 20
368.155400763552
 40
4
 41
1
 50
90
  1
10
  0
POINT
  8
_0-1_Defpoints
 62
    7
 10
1414.195573365866
 20
368.15540076355182
  0
POINT
  8
_0-1_Defpoints
 62
    7
 10
1406.555261365866
 20
372.15540076355182
  0
POINT
  8
_0-1_Defpoints
 62
    7
 10
1398.4111413658659
 20
372.15540076355182
  0
ENDBLK
  0
BLOCK
  2
-002-_D5
 70
   64
 10
0
 20
0
 30
0
  0
LINE
  8
_0-2_寸法
  6
CONTINUOUS
 62
    4
 10
1406.555261365866
 20
372.15540076355182
 11
1398.4111413658659
 21
372.15540076355182
  0
LINE
  8
_0-2_寸法
  6
CONTINUOUS
 62
    4
 10
1427.295641365866
 20
382.15547076355182
 11
1398.4111413658659
 21
382.15547076355182
  0
LINE
  8
_0-2_寸法
  6
CONTINUOUS
 62
    4
 10
1398.4111413658659
 20
374.15540076355182
 11
1398.4111413658659
 21
380.15547076355182
  0
INSERT
  2
-000-_Open30
  8
_0-2_寸法
 10
1398.4111413658659
 20
372.15540076355182
 41
1
 42
1
 50
270
  0
INSERT
  2
-000-_Open30
  8
_0-2_寸法
 10
1398.4111413658659
 20
382.15547076355182
 41
1
 42
1
 50
90
  0
TEXT
  8
_0-2_寸法
 62
    7
 10
1396.4111413658659
 20
375.15543576355202
 40
4
 41
1
 50
90
  1
25
  0
POINT
  8
_0-1_Defpoints
 62
    7
 10
1406.555261365866
 20
372.15540076355182
  0
POINT
  8
_0-1_Defpoints
 62
    7
 10
1427.295641365866
 20
382.15547076355182
  0
POINT
  8
_0-1_Defpoints
 62
    7
 10
1398.4111413658659
 20
382.15547076355182
  0
ENDBLK
  0
BLOCK
  2
-003-_D6
 70
   64
 10
0
 20
0
 30
0
  0
LINE
  8
_0-2_寸法
  6
CONTINUOUS
 62
    4
 10
1427.1955713658663
 20
382.65540076355182
 11
1427.1955713658663
 21
399.60246076355179
  0
LINE
  8
_0-2_寸法
  6
CONTINUOUS
 62
    4
 10
1467.1955713658663
 20
382.5554007635518
 11
1467.1955713658663
 21
399.60246076355179
  0
LINE
  8
_0-2_寸法
  6
CONTINUOUS
 62
    4
 10
1429.1955713658663
 20
399.60246076355179
 11
1465.1955713658663
 21
399.60246076355179
  0
INSERT
  2
-000-_Open30
  8
_0-2_寸法
 10
1427.1955713658663
 20
399.60246076355179
 41
1
 42
1
 50
180
  0
INSERT
  2
-000-_Open30
  8
_0-2_寸法
 10
1467.1955713658663
 20
399.60246076355179
 41
1
 42
1
 50
0
  0
TEXT
  8
_0-2_寸法
 62
    7
 10
1444.1955713658663
 20
401.60246076355179
 40
4
 41
1
 50
0
  1
100
  0
POINT
  8
_0-1_Defpoints
 62
    7
 10
1427.1955713658663
 20
382.65540076355182
  0
POINT
  8
_0-1_Defpoints
 62
    7
 10
1467.1955713658663
 20
382.5554007635518
  0
POINT
  8
_0-1_Defpoints
 62
    7
 10
1467.1955713658663
 20
399.60246076355179
  0
ENDBLK
  0
BLOCK
  2
-004-_D7
 70
   64
 10
0
 20
0
 30
0
  0
LINE
  8
_0-2_寸法
  6
CONTINUOUS
 62
    4
 10
1467.1955713658663
 20
382.5554007635518
 11
1467.1955713658663
 21
399.60246076355179
  0
LINE
  8
_0-2_寸法
  6
CONTINUOUS
 62
    4
 10
1519.1955713658663
 20
382.5554007635518
 11
1519.1955713658663
 21
399.60246076355179
  0
LINE
  8
_0-2_寸法
  6
CONTINUOUS
 62
    4
 10
1469.1955713658663
 20
399.60246076355179
 11
1517.1955713658663
 21
399.60246076355179
  0
INSERT
  2
-000-_Open30
  8
_0-2_寸法
 10
1467.1955713658663
 20
399.60246076355179
 41
1
 42
1
 50
180
  0
INSERT
  2
-000-_Open30
  8
_0-2_寸法
 10
1519.1955713658663
 20
399.60246076355179
 41
1
 42
1
 50
0
  0
TEXT
  8
_0-2_寸法
 62
    7
 10
1490.1955713658663
 20
401.60246076355179
 40
4
 41
1
 50
0
  1
130
  0
POINT
  8
_0-1_Defpoints
 62
    7
 10
1467.1955713658663
 20
382.5554007635518
  0
POINT
  8
_0-1_Defpoints
 62
    7
 10
1519.1955713658663
 20
382.5554007635518
  0
POINT
  8
_0-1_Defpoints
 62
    7
 10
1519.1955713658663
 20
399.60246076355179
  0
ENDBLK
  0
BLOCK
  2
-005-_D8
 70
   64
 10
0
 20
0
 30
0
  0
LINE
  8
_0-2_寸法
  6
CONTINUOUS
 62
    4
 10
1519.1955713658663
 20
382.5554007635518
 11
1519.1955713658663
 21
399.60246076355179
  0
LINE
  8
_0-2_寸法
  6
CONTINUOUS
 62
    4
 10
1559.1955713658663
 20
382.65540076355182
 11
1559.1955713658663
 21
399.60246076355179
  0
LINE
  8
_0-2_寸法
  6
CONTINUOUS
 62
    4
 10
1521.1955713658663
 20
399.60246076355179
 11
1557.1955713658663
 21
399.60246076355179
  0
INSERT
  2
-000-_Open30
  8
_0-2_寸法
 10
1519.1955713658663
 20
399.60246076355179
 41
1
 42
1
 50
180
  0
INSERT
  2
-000-_Open30
  8
_0-2_寸法
 10
1559.1955713658663
 20
399.60246076355179
 41
1
 42
1
 50
0
  0
TEXT
  8
_0-2_寸法
 62
    7
 10
1536.1955713658663
 20
401.60246076355179
 40
4
 41
1
 50
0
  1
100
  0
POINT
  8
_0-1_Defpoints
 62
    7
 10
1519.1955713658663
 20
382.5554007635518
  0
POINT
  8
_0-1_Defpoints
 62
    7
 10
1559.1955713658663
 20
382.65540076355182
  0
POINT
  8
_0-1_Defpoints
 62
    7
 10
1559.1955713658663
 20
399.60246076355179
  0
ENDBLK
  0
BLOCK
  2
-006-_D9
 70
   64
 10
0
 20
0
 30
0
  0
LINE
  8
_0-2_寸法
  6
CONTINUOUS
 62
    4
 10
1559.1955713658663
 20
382.65540076355182
 11
1559.1955713658663
 21
407.8178507635518
  0
LINE
  8
_0-2_寸法
  6
CONTINUOUS
 62
    4
 10
1427.1955713658663
 20
382.65540076355182
 11
1427.1955713658663
 21
407.8178507635518
  0
LINE
  8
_0-2_寸法
  6
CONTINUOUS
 62
    4
 10
1557.1955713658663
 20
407.8178507635518
 11
1429.1955713658663
 21
407.8178507635518
  0
INSERT
  2
-000-_Open30
  8
_0-2_寸法
 10
1559.1955713658663
 20
407.8178507635518
 41
1
 42
1
 50
0
  0
INSERT
  2
-000-_Open30
  8
_0-2_寸法
 10
1427.1955713658663
 20
407.8178507635518
 41
1
 42
1
 50
180
  0
TEXT
  8
_0-2_寸法
 62
    7
 10
1490.1955713658663
 20
409.8178507635518
 40
4
 41
1
 50
0
  1
330
  0
POINT
  8
_0-1_Defpoints
 62
    7
 10
1559.1955713658663
 20
382.65540076355182
  0
POINT
  8
_0-1_Defpoints
 62
    7
 10
1427.1955713658663
 20
382.65540076355182
  0
POINT
  8
_0-1_Defpoints
 62
    7
 10
1427.1955713658663
 20
407.8178507635518
  0
ENDBLK
  0
BLOCK
  2
-007-_D10
 70
   64
 10
0
 20
0
 30
0
  0
LINE
  8
_0-2_寸法
  6
CONTINUOUS
 62
    4
 10
1423.195573365866
 20
353.68190676355181
 11
1423.195573365866
 21
326.75587476355179
  0
LINE
  8
_0-2_寸法
  6
CONTINUOUS
 62
    4
 10
1439.195573365866
 20
353.68190676355181
 11
1439.195573365866
 21
326.75587476355179
  0
LINE
  8
_0-2_寸法
  6
CONTINUOUS
 62
    4
 10
1425.195573365866
 20
326.75587476355179
 11
1437.195573365866
 21
326.75587476355179
  0
INSERT
  2
-000-_Open30
  8
_0-2_寸法
 10
1423.195573365866
 20
326.75587476355179
 41
1
 42
1
 50
180
  0
INSERT
  2
-000-_Open30
  8
_0-2_寸法
 10
1439.195573365866
 20
326.75587476355179
 41
1
 42
1
 50
0
  0
TEXT
  8
_0-2_寸法
 62
    7
 10
1429.195573365866
 20
328.75587476355179
 40
4
 41
1
 50
0
  1
40
  0
POINT
  8
_0-1_Defpoints
 62
    7
 10
1423.195573365866
 20
353.68190676355181
  0
POINT
  8
_0-1_Defpoints
 62
    7
 10
1439.195573365866
 20
353.68190676355181
  0
POINT
  8
_0-1_Defpoints
 62
    7
 10
1439.195573365866
 20
326.75587476355179
  0
ENDBLK
  0
BLOCK
  2
-008-_D11
 70
   64
 10
0
 20
0
 30
0
  0
LINE
  8
_0-2_寸法
  6
CONTINUOUS
 62
    4
 10
1439.195573365866
 20
353.68190676355181
 11
1439.195573365866
 21
326.75587476355179
  0
LINE
  8
_0-2_寸法
  6
CONTINUOUS
 62
    4
 10
1463.195573365866
 20
339.57926476355181
 11
1463.195573365866
 21
326.75587476355179
  0
LINE
  8
_0-2_寸法
  6
CONTINUOUS
 62
    4
 10
1441.1955733658658
 20
326.75587476355179
 11
1461.195573365866
 21
326.75587476355179
  0
INSERT
  2
-000-_Open30
  8
_0-2_寸法
 10
1439.195573365866
 20
326.75587476355179
 41
1
 42
1
 50
180
  0
INSERT
  2
-000-_Open30
  8
_0-2_寸法
 10
1463.195573365866
 20
326.75587476355179
 41
1
 42
1
 50
0
  0
TEXT
  8
_0-2_寸法
 62
    7
 10
1449.195573365866
 20
328.75587476355179
 40
4
 41
1
 50
0
  1
60
  0
POINT
  8
_0-1_Defpoints
 62
    7
 10
1439.195573365866
 20
353.68190676355181
  0
POINT
  8
_0-1_Defpoints
 62
    7
 10
1463.195573365866
 20
339.57926476355181
  0
POINT
  8
_0-1_Defpoints
 62
    7
 10
1463.195573365866
 20
326.75587476355179
  0
ENDBLK
  0
BLOCK
  2
-009-_D12
 70
   64
 10
0
 20
0
 30
0
  0
LINE
  8
_0-2_寸法
  6
CONTINUOUS
 62
    4
 10
1463.195573365866
 20
339.57926476355181
 11
1463.195573365866
 21
335.65795076355181
  0
LINE
  8
_0-2_寸法
  6
CONTINUOUS
 62
    4
 10
1467.1955713658663
 20
371.95540076355178
 11
1467.1955713658663
 21
335.65795076355181
  0
LINE
  8
_0-2_寸法
  6
CONTINUOUS
 62
    4
 10
1461.195573365866
 20
335.65795076355181
 11
1459.195573365866
 21
335.65795076355181
  0
LINE
  8
_0-2_寸法
  6
CONTINUOUS
 62
    4
 10
1469.1955713658663
 20
335.65795076355181
 11
1471.1955713658663
 21
335.65795076355181
  0
INSERT
  2
-000-_Open30
  8
_0-2_寸法
 10
1463.195573365866
 20
335.65795076355181
 41
1
 42
1
 50
0
  0
INSERT
  2
-000-_Open30
  8
_0-2_寸法
 10
1467.1955713658663
 20
335.65795076355181
 41
1
 42
1
 50
180
  0
TEXT
  8
_0-2_寸法
 62
    7
 10
1463.1955723658659
 20
337.65795076355181
 40
4
 41
1
 50
0
  1
10
  0
POINT
  8
_0-1_Defpoints
 62
    7
 10
1463.195573365866
 20
339.57926476355181
  0
POINT
  8
_0-1_Defpoints
 62
    7
 10
1467.1955713658663
 20
371.95540076355178
  0
POINT
  8
_0-1_Defpoints
 62
    7
 10
1467.1955713658663
 20
335.65795076355181
  0
ENDBLK
  0
BLOCK
  2
-010-_D13
 70
   64
 10
0
 20
0
 30
0
  0
LINE
  8
_0-2_寸法
  6
CONTINUOUS
 62
    4
 10
1463.195573365866
 20
339.57926476355181
 11
1463.195573365866
 21
326.75587476355179
  0
LINE
  8
_0-2_寸法
  6
CONTINUOUS
 62
    4
 10
1523.1955713658663
 20
339.57926476355181
 11
1523.1955713658663
 21
326.75587476355179
  0
LINE
  8
_0-2_寸法
  6
CONTINUOUS
 62
    4
 10
1465.195573365866
 20
326.75587476355179
 11
1521.1955713658663
 21
326.75587476355179
  0
INSERT
  2
-000-_Open30
  8
_0-2_寸法
 10
1463.195573365866
 20
326.75587476355179
 41
1
 42
1
 50
180
  0
INSERT
  2
-000-_Open30
  8
_0-2_寸法
 10
1523.1955713658663
 20
326.75587476355179
 41
1
 42
1
 50
0
  0
TEXT
  8
_0-2_寸法
 62
    7
 10
1490.1955723658662
 20
328.75587476355179
 40
4
 41
1
 50
0
  1
150
  0
POINT
  8
_0-1_Defpoints
 62
    7
 10
1463.195573365866
 20
339.57926476355181
  0
POINT
  8
_0-1_Defpoints
 62
    7
 10
1523.1955713658663
 20
339.57926476355181
  0
POINT
  8
_0-1_Defpoints
 62
    7
 10
1523.1955713658663
 20
326.75587476355179
  0
ENDBLK
  0
BLOCK
  2
-011-_D14
 70
   64
 10
0
 20
0
 30
0
  0
LINE
  8
_0-2_寸法
  6
CONTINUOUS
 62
    4
 10
1519.1955713658663
 20
371.95540076355178
 11
1519.1955713658663
 21
335.65795076355181
  0
LINE
  8
_0-2_寸法
  6
CONTINUOUS
 62
    4
 10
1523.1955713658663
 20
339.57926476355181
 11
1523.1955713658663
 21
335.65795076355181
  0
LINE
  8
_0-2_寸法
  6
CONTINUOUS
 62
    4
 10
1517.1955713658663
 20
335.65795076355181
 11
1515.1955713658663
 21
335.65795076355181
  0
LINE
  8
_0-2_寸法
  6
CONTINUOUS
 62
    4
 10
1525.1955713658663
 20
335.65795076355181
 11
1527.1955713658663
 21
335.65795076355181
  0
INSERT
  2
-000-_Open30
  8
_0-2_寸法
 10
1519.1955713658663
 20
335.65795076355181
 41
1
 42
1
 50
0
  0
INSERT
  2
-000-_Open30
  8
_0-2_寸法
 10
1523.1955713658663
 20
335.65795076355181
 41
1
 42
1
 50
180
  0
TEXT
  8
_0-2_寸法
 62
    7
 10
1519.1955713658663
 20
337.65795076355181
 40
4
 41
1
 50
0
  1
10
  0
POINT
  8
_0-1_Defpoints
 62
    7
 10
1519.1955713658663
 20
371.95540076355178
  0
POINT
  8
_0-1_Defpoints
 62
    7
 10
1523.1955713658663
 20
339.57926476355181
  0
POINT
  8
_0-1_Defpoints
 62
    7
 10
1523.1955713658663
 20
335.65795076355181
  0
ENDBLK
  0
BLOCK
  2
-012-_D15
 70
   64
 10
0
 20
0
 30
0
  0
LINE
  8
_0-2_寸法
  6
CONTINUOUS
 62
    4
 10
1523.1955713658663
 20
339.57926476355181
 11
1523.1955713658663
 21
326.75587476355179
  0
LINE
  8
_0-2_寸法
  6
CONTINUOUS
 62
    4
 10
1547.1955713658663
 20
353.68190676355181
 11
1547.1955713658663
 21
326.75587476355179
  0
LINE
  8
_0-2_寸法
  6
CONTINUOUS
 62
    4
 10
1525.1955713658663
 20
326.75587476355179
 11
1545.1955713658663
 21
326.75587476355179
  0
INSERT
  2
-000-_Open30
  8
_0-2_寸法
 10
1523.1955713658663
 20
326.75587476355179
 41
1
 42
1
 50
180
  0
INSERT
  2
-000-_Open30
  8
_0-2_寸法
 10
1547.1955713658663
 20
326.75587476355179
 41
1
 42
1
 50
0
  0
TEXT
  8
_0-2_寸法
 62
    7
 10
1533.1955713658663
 20
328.75587476355179
 40
4
 41
1
 50
0
  1
60
  0
POINT
  8
_0-1_Defpoints
 62
    7
 10
1523.1955713658663
 20
339.57926476355181
  0
POINT
  8
_0-1_Defpoints
 62
    7
 10
1547.1955713658663
 20
353.68190676355181
  0
POINT
  8
_0-1_Defpoints
 62
    7
 10
1547.1955713658663
 20
326.75587476355179
  0
ENDBLK
  0
BLOCK
  2
-013-_D16
 70
   64
 10
0
 20
0
 30
0
  0
LINE
  8
_0-2_寸法
  6
CONTINUOUS
 62
    4
 10
1547.1955713658663
 20
353.68190676355181
 11
1547.1955713658663
 21
326.75587476355179
  0
LINE
  8
_0-2_寸法
  6
CONTINUOUS
 62
    4
 10
1563.1955713658663
 20
353.68190676355181
 11
1563.1955713658663
 21
326.75587476355179
  0
LINE
  8
_0-2_寸法
  6
CONTINUOUS
 62
    4
 10
1549.1955713658663
 20
326.75587476355179
 11
1561.1955713658663
 21
326.75587476355179
  0
INSERT
  2
-000-_Open30
  8
_0-2_寸法
 10
1547.1955713658663
 20
326.75587476355179
 41
1
 42
1
 50
180
  0
INSERT
  2
-000-_Open30
  8
_0-2_寸法
 10
1563.1955713658663
 20
326.75587476355179
 41
1
 42
1
 50
0
  0
TEXT
  8
_0-2_寸法
 62
    7
 10
1553.1955713658663
 20
328.75587476355179
 40
4
 41
1
 50
0
  1
40
  0
POINT
  8
_0-1_Defpoints
 62
    7
 10
1547.1955713658663
 20
353.68190676355181
  0
POINT
  8
_0-1_Defpoints
 62
    7
 10
1563.1955713658663
 20
353.68190676355181
  0
POINT
  8
_0-1_Defpoints
 62
    7
 10
1563.1955713658663
 20
326.75587476355179
  0
ENDBLK
  0
BLOCK
  2
-014-_D17
 70
   64
 10
0
 20
0
 30
0
  0
LINE
  8
_0-2_寸法
  6
CONTINUOUS
 62
    4
 10
1723.3440853658662
 20
353.68190676355181
 11
1723.3440853658662
 21
334.05132276355181
  0
LINE
  8
_0-2_寸法
  6
CONTINUOUS
 62
    4
 10
1739.3440853658662
 20
353.68190676355181
 11
1739.3440853658662
 21
334.05132276355181
  0
LINE
  8
_0-2_寸法
  6
CONTINUOUS
 62
    4
 10
1725.3440853658662
 20
334.05132276355181
 11
1737.3440853658665
 21
334.05132276355181
  0
INSERT
  2
-000-_Open30
  8
_0-2_寸法
 10
1723.3440853658662
 20
334.05132276355181
 41
1
 42
1
 50
180
  0
INSERT
  2
-000-_Open30
  8
_0-2_寸法
 10
1739.3440853658662
 20
334.05132276355181
 41
1
 42
1
 50
0
  0
TEXT
  8
_0-2_寸法
 62
    7
 10
1729.344085365866
 20
336.05132276355181
 40
4
 41
1
 50
0
  1
40
  0
POINT
  8
_0-1_Defpoints
 62
    7
 10
1723.3440853658662
 20
353.68190676355181
  0
POINT
  8
_0-1_Defpoints
 62
    7
 10
1739.3440853658662
 20
353.68190676355181
  0
POINT
  8
_0-1_Defpoints
 62
    7
 10
1739.3440853658662
 20
334.05132276355181
  0
ENDBLK
  0
BLOCK
  2
-015-_D18
 70
   64
 10
0
 20
0
 30
0
  0
LINE
  8
_0-2_寸法
  6
CONTINUOUS
 62
    4
 10
1739.3440853658662
 20
353.68190676355181
 11
1739.3440853658662
 21
334.05132276355181
  0
LINE
  8
_0-2_寸法
  6
CONTINUOUS
 62
    4
 10
1763.3440853658662
 20
338.67073676355182
 11
1763.3440853658662
 21
334.05132276355181
  0
LINE
  8
_0-2_寸法
  6
CONTINUOUS
 62
    4
 10
1741.3440853658662
 20
334.05132276355181
 11
1761.3440853658662
 21
334.05132276355181
  0
INSERT
  2
-000-_Open30
  8
_0-2_寸法
 10
1739.3440853658662
 20
334.05132276355181
 41
1
 42
1
 50
180
  0
INSERT
  2
-000-_Open30
  8
_0-2_寸法
 10
1763.3440853658662
 20
334.05132276355181
 41
1
 42
1
 50
0
  0
TEXT
  8
_0-2_寸法
 62
    7
 10
1749.344085365866
 20
336.05132276355181
 40
4
 41
1
 50
0
  1
60
  0
POINT
  8
_0-1_Defpoints
 62
    7
 10
1739.3440853658662
 20
353.68190676355181
  0
POINT
  8
_0-1_Defpoints
 62
    7
 10
1763.3440853658662
 20
338.67073676355182
  0
POINT
  8
_0-1_Defpoints
 62
    7
 10
1763.3440853658662
 20
334.05132276355181
  0
ENDBLK
  0
BLOCK
  2
-016-_D19
 70
   64
 10
0
 20
0
 30
0
  0
LINE
  8
_0-2_寸法
  6
CONTINUOUS
 62
    4
 10
1763.3440853658662
 20
338.67073676355182
 11
1763.3440853658662
 21
334.05132276355181
  0
LINE
  8
_0-2_寸法
  6
CONTINUOUS
 62
    4
 10
1823.3440853658662
 20
338.67073676355182
 11
1823.3440853658662
 21
334.05132276355181
  0
LINE
  8
_0-2_寸法
  6
CONTINUOUS
 62
    4
 10
1765.344085365866
 20
334.05132276355181
 11
1821.3440853658665
 21
334.05132276355181
  0
INSERT
  2
-000-_Open30
  8
_0-2_寸法
 10
1763.3440853658662
 20
334.05132276355181
 41
1
 42
1
 50
180
  0
INSERT
  2
-000-_Open30
  8
_0-2_寸法
 10
1823.3440853658662
 20
334.05132276355181
 41
1
 42
1
 50
0
  0
TEXT
  8
_0-2_寸法
 62
    7
 10
1790.3440853658662
 20
336.05132276355181
 40
4
 41
1
 50
0
  1
150
  0
POINT
  8
_0-1_Defpoints
 62
    7
 10
1763.3440853658662
 20
338.67073676355182
  0
POINT
  8
_0-1_Defpoints
 62
    7
 10
1823.3440853658662
 20
338.67073676355182
  0
POINT
  8
_0-1_Defpoints
 62
    7
 10
1823.3440853658662
 20
334.05132276355181
  0
ENDBLK
  0
BLOCK
  2
-017-_D20
 70
   64
 10
0
 20
0
 30
0
  0
LINE
  8
_0-2_寸法
  6
CONTINUOUS
 62
    4
 10
1767.344085365866
 20
371.95540076355178
 11
1767.344085365866
 21
345.20978876355178
  0
LINE
  8
_0-2_寸法
  6
CONTINUOUS
 62
    4
 10
1761.3440853658662
 20
345.20978876355178
 11
1759.3440853658662
 21
345.20978876355178
  0
LINE
  8
_0-2_寸法
  6
CONTINUOUS
 62
    4
 10
1769.3440853658665
 20
345.20978876355178
 11
1771.3440853658665
 21
345.20978876355178
  0
INSERT
  2
-000-_Open30
  8
_0-2_寸法
 10
1763.3440853658662
 20
345.20978876355178
 41
1
 42
1
 50
0
  0
INSERT
  2
-000-_Open30
  8
_0-2_寸法
 10
1767.344085365866
 20
345.20978876355178
 41
1
 42
1
 50
180
  0
TEXT
  8
_0-2_寸法
 62
    7
 10
1763.344085365866
 20
347.20978876355178
 40
4
 41
1
 50
0
  1
10
  0
POINT
  8
_0-1_Defpoints
 62
    7
 10
1763.3440853658662
 20
345.20978876355178
  0
POINT
  8
_0-1_Defpoints
 62
    7
 10
1767.344085365866
 20
371.95540076355178
  0
POINT
  8
_0-1_Defpoints
 62
    7
 10
1767.344085365866
 20
345.20978876355178
  0
ENDBLK
  0
BLOCK
  2
-018-_D21
 70
   64
 10
0
 20
0
 30
0
  0
LINE
  8
_0-2_寸法
  6
CONTINUOUS
 62
    4
 10
1764.6128533658659
 20
372.15540076355182
 11
1850.4061793658659
 21
372.15540076355182
  0
LINE
  8
_0-2_寸法
  6
CONTINUOUS
 62
    4
 10
1842.0975793658663
 20
383.35540076355181
 11
1850.4061793658659
 21
383.35540076355181
  0
LINE
  8
_0-2_寸法
  6
CONTINUOUS
 62
    4
 10
1850.4061793658659
 20
374.15540076355182
 11
1850.4061793658659
 21
381.35540076355181
  0
INSERT
  2
-000-_Open30
  8
_0-2_寸法
 10
1850.4061793658659
 20
372.15540076355182
 41
1
 42
1
 50
270
  0
INSERT
  2
-000-_Open30
  8
_0-2_寸法
 10
1850.4061793658659
 20
383.35540076355181
 41
1
 42
1
 50
90
  0
TEXT
  8
_0-2_寸法
 62
    7
 10
1848.4061793658659
 20
375.75540076355202
 40
4
 41
1
 50
90
  1
28
  0
POINT
  8
_0-1_Defpoints
 62
    7
 10
1764.6128533658659
 20
372.15540076355182
  0
POINT
  8
_0-1_Defpoints
 62
    7
 10
1842.0975793658663
 20
383.35540076355181
  0
POINT
  8
_0-1_Defpoints
 62
    7
 10
1850.4061793658659
 20
383.35540076355181
  0
ENDBLK
  0
BLOCK
  2
-019-_D22
 70
   64
 10
0
 20
0
 30
0
  0
LINE
  8
_0-2_寸法
  6
CONTINUOUS
 62
    4
 10
1714.3440853658662
 20
368.15540076355182
 11
1698.144609365866
 21
368.15540076355182
  0
LINE
  8
_0-2_寸法
  6
CONTINUOUS
 62
    4
 10
1705.3297353658661
 20
372.15540076355182
 11
1698.144609365866
 21
372.15540076355182
  0
LINE
  8
_0-2_寸法
  6
CONTINUOUS
 62
    4
 10
1698.144609365866
 20
366.15540076355182
 11
1698.144609365866
 21
364.15540076355182
  0
LINE
  8
_0-2_寸法
  6
CONTINUOUS
 62
    4
 10
1698.144609365866
 20
374.15540076355182
 11
1698.144609365866
 21
376.15540076355182
  0
INSERT
  2
-000-_Open30
  8
_0-2_寸法
 10
1698.144609365866
 20
368.15540076355182
 41
1
 42
1
 50
90
  0
INSERT
  2
-000-_Open30
  8
_0-2_寸法
 10
1698.144609365866
 20
372.15540076355182
 41
1
 42
1
 50
270
  0
TEXT
  8
_0-2_寸法
 62
    7
 10
1696.1446093658662
 20
368.155400763552
 40
4
 41
1
 50
90
  1
10
  0
POINT
  8
_0-1_Defpoints
 62
    7
 10
1714.3440853658662
 20
368.15540076355182
  0
POINT
  8
_0-1_Defpoints
 62
    7
 10
1705.3297353658661
 20
372.15540076355182
  0
POINT
  8
_0-1_Defpoints
 62
    7
 10
1698.144609365866
 20
372.15540076355182
  0
ENDBLK
  0
BLOCK
  2
-020-_D23
 70
   64
 10
0
 20
0
 30
0
  0
LINE
  8
_0-2_寸法
  6
CONTINUOUS
 62
    4
 10
1705.3297353658661
 20
372.15540076355182
 11
1698.144609365866
 21
372.15540076355182
  0
LINE
  8
_0-2_寸法
  6
CONTINUOUS
 62
    4
 10
1727.444155365866
 20
382.15546876355182
 11
1698.144609365866
 21
382.15546876355182
  0
LINE
  8
_0-2_寸法
  6
CONTINUOUS
 62
    4
 10
1698.144609365866
 20
374.15540076355182
 11
1698.144609365866
 21
380.15546876355182
  0
INSERT
  2
-000-_Open30
  8
_0-2_寸法
 10
1698.144609365866
 20
372.15540076355182
 41
1
 42
1
 50
270
  0
INSERT
  2
-000-_Open30
  8
_0-2_寸法
 10
1698.144609365866
 20
382.15546876355182
 41
1
 42
1
 50
90
  0
TEXT
  8
_0-2_寸法
 62
    7
 10
1696.1446093658662
 20
375.15543476355202
 40
4
 41
1
 50
90
  1
25
  0
POINT
  8
_0-1_Defpoints
 62
    7
 10
1705.3297353658661
 20
372.15540076355182
  0
POINT
  8
_0-1_Defpoints
 62
    7
 10
1727.444155365866
 20
382.15546876355182
  0
POINT
  8
_0-1_Defpoints
 62
    7
 10
1698.144609365866
 20
382.15546876355182
  0
ENDBLK
  0
BLOCK
  2
-021-_D24
 70
   64
 10
0
 20
0
 30
0
  0
LINE
  8
_0-2_寸法
  6
CONTINUOUS
 62
    4
 10
1727.444155365866
 20
382.15546876355182
 11
1698.144609365866
 21
382.15546876355182
  0
LINE
  8
_0-2_寸法
  6
CONTINUOUS
 62
    4
 10
1814.5440873658663
 20
406.15546876355182
 11
1698.144609365866
 21
406.15546876355182
  0
LINE
  8
_0-2_寸法
  6
CONTINUOUS
 62
    4
 10
1698.144609365866
 20
384.15546876355182
 11
1698.144609365866
 21
404.15546876355182
  0
INSERT
  2
-000-_Open30
  8
_0-2_寸法
 10
1698.144609365866
 20
382.15546876355182
 41
1
 42
1
 50
270
  0
INSERT
  2
-000-_Open30
  8
_0-2_寸法
 10
1698.144609365866
 20
406.15546876355182
 41
1
 42
1
 50
90
  0
TEXT
  8
_0-2_寸法
 62
    7
 10
1696.1446093658662
 20
392.15546876355199
 40
4
 41
1
 50
90
  1
60
  0
POINT
  8
_0-1_Defpoints
 62
    7
 10
1727.444155365866
 20
382.15546876355182
  0
POINT
  8
_0-1_Defpoints
 62
    7
 10
1814.5440873658663
 20
406.15546876355182
  0
POINT
  8
_0-1_Defpoints
 62
    7
 10
1698.144609365866
 20
406.15546876355182
  0
ENDBLK
  0
BLOCK
  2
-022-_D25
 70
   64
 10
0
 20
0
 30
0
  0
LINE
  8
_0-2_寸法
  6
CONTINUOUS
 62
    4
 10
1727.3440853658662
 20
382.65540076355182
 11
1727.3440853658662
 21
412.04861076355178
  0
LINE
  8
_0-2_寸法
  6
CONTINUOUS
 62
    4
 10
1767.344085365866
 20
382.5554007635518
 11
1767.344085365866
 21
412.04861076355178
  0
LINE
  8
_0-2_寸法
  6
CONTINUOUS
 62
    4
 10
1729.3440853658662
 20
412.04861076355178
 11
1765.344085365866
 21
412.04861076355178
  0
INSERT
  2
-000-_Open30
  8
_0-2_寸法
 10
1727.3440853658662
 20
412.04861076355178
 41
1
 42
1
 50
180
  0
INSERT
  2
-000-_Open30
  8
_0-2_寸法
 10
1767.344085365866
 20
412.04861076355178
 41
1
 42
1
 50
0
  0
TEXT
  8
_0-2_寸法
 62
    7
 10
1744.3440853658662
 20
414.04861076355178
 40
4
 41
1
 50
0
  1
100
  0
POINT
  8
_0-1_Defpoints
 62
    7
 10
1727.3440853658662
 20
382.65540076355182
  0
POINT
  8
_0-1_Defpoints
 62
    7
 10
1767.344085365866
 20
382.5554007635518
  0
POINT
  8
_0-1_Defpoints
 62
    7
 10
1767.344085365866
 20
412.04861076355178
  0
ENDBLK
  0
BLOCK
  2
-023-_D26
 70
   64
 10
0
 20
0
 30
0
  0
LINE
  8
_0-2_寸法
  6
CONTINUOUS
 62
    4
 10
1767.344085365866
 20
382.5554007635518
 11
1767.344085365866
 21
412.04861076355178
  0
LINE
  8
_0-2_寸法
  6
CONTINUOUS
 62
    4
 10
1815.3440873658662
 20
406.95546876355178
 11
1815.3440873658662
 21
412.04861076355178
  0
LINE
  8
_0-2_寸法
  6
CONTINUOUS
 62
    4
 10
1769.3440853658665
 20
412.04861076355178
 11
1813.3440873658662
 21
412.04861076355178
  0
INSERT
  2
-000-_Open30
  8
_0-2_寸法
 10
1767.344085365866
 20
412.04861076355178
 41
1
 42
1
 50
180
  0
INSERT
  2
-000-_Open30
  8
_0-2_寸法
 10
1815.3440873658662
 20
412.04861076355178
 41
1
 42
1
 50
0
  0
TEXT
  8
_0-2_寸法
 62
    7
 10
1788.3440863658659
 20
414.04861076355178
 40
4
 41
1
 50
0
  1
120
  0
POINT
  8
_0-1_Defpoints
 62
    7
 10
1767.344085365866
 20
382.5554007635518
  0
POINT
  8
_0-1_Defpoints
 62
    7
 10
1815.3440873658662
 20
406.95546876355178
  0
POINT
  8
_0-1_Defpoints
 62
    7
 10
1815.3440873658662
 20
412.04861076355178
  0
ENDBLK
  0
BLOCK
  2
-024-_D27
 70
   64
 10
0
 20
0
 30
0
  0
LINE
  8
_0-2_寸法
  6
CONTINUOUS
 62
    4
 10
1815.3440873658662
 20
406.95546876355178
 11
1815.3440873658662
 21
412.04861076355178
  0
LINE
  8
_0-2_寸法
  6
CONTINUOUS
 62
    4
 10
1823.3440853658662
 20
409.85814076355177
 11
1823.3440853658662
 21
412.04861076355178
  0
LINE
  8
_0-2_寸法
  6
CONTINUOUS
 62
    4
 10
1813.3440873658662
 20
412.04861076355178
 11
1811.3440873658665
 21
412.04861076355178
  0
LINE
  8
_0-2_寸法
  6
CONTINUOUS
 62
    4
 10
1825.3440853658662
 20
412.04861076355178
 11
1827.3440853658662
 21
412.04861076355178
  0
INSERT
  2
-000-_Open30
  8
_0-2_寸法
 10
1815.3440873658662
 20
412.04861076355178
 41
1
 42
1
 50
0
  0
INSERT
  2
-000-_Open30
  8
_0-2_寸法
 10
1823.3440853658662
 20
412.04861076355178
 41
1
 42
1
 50
180
  0
TEXT
  8
_0-2_寸法
 62
    7
 10
1817.3440863658659
 20
414.04861076355178
 40
4
 41
1
 50
0
  1
20
  0
POINT
  8
_0-1_Defpoints
 62
    7
 10
1815.3440873658662
 20
406.95546876355178
  0
POINT
  8
_0-1_Defpoints
 62
    7
 10
1823.3440853658662
 20
409.85814076355177
  0
POINT
  8
_0-1_Defpoints
 62
    7
 10
1823.3440853658662
 20
412.04861076355178
  0
ENDBLK
  0
BLOCK
  2
-025-_D28
 70
   64
 10
0
 20
0
 30
0
  0
LINE
  8
_0-2_寸法
  6
CONTINUOUS
 62
    4
 10
1823.3440853658662
 20
409.85814076355177
 11
1823.3440853658662
 21
418.97096876355181
  0
LINE
  8
_0-2_寸法
  6
CONTINUOUS
 62
    4
 10
1727.3440853658662
 20
382.65540076355182
 11
1727.3440853658662
 21
418.97096876355181
  0
LINE
  8
_0-2_寸法
  6
CONTINUOUS
 62
    4
 10
1821.3440853658665
 20
418.97096876355181
 11
1729.3440853658662
 21
418.97096876355181
  0
INSERT
  2
-000-_Open30
  8
_0-2_寸法
 10
1823.3440853658662
 20
418.97096876355181
 41
1
 42
1
 50
0
  0
INSERT
  2
-000-_Open30
  8
_0-2_寸法
 10
1727.3440853658662
 20
418.97096876355181
 41
1
 42
1
 50
180
  0
TEXT
  8
_0-2_寸法
 62
    7
 10
1772.3440853658662
 20
420.97096876355181
 40
4
 41
1
 50
0
  1
240
  0
POINT
  8
_0-1_Defpoints
 62
    7
 10
1823.3440853658662
 20
409.85814076355177
  0
POINT
  8
_0-1_Defpoints
 62
    7
 10
1727.3440853658662
 20
382.65540076355182
  0
POINT
  8
_0-1_Defpoints
 62
    7
 10
1727.3440853658662
 20
418.97096876355181
  0
ENDBLK
  0
ENDSEC
  0
SECTION
  2
ENTITIES
  0
ARC
  8
_0-3_躯体と製品
  6
CONTINUOUS
 62
    2
 10
145.23649950000004
 20
-178.78821299999993
 40
359.2999999999999
 50
86.935958999998505
 51
89.952159999996425
  0
ARC
  8
_0-3_躯体と製品
  6
CONTINUOUS
 62
    2
 10
145.23649950000004
 20
-178.78821299999993
 40
360
 50
89.36336699999859
 51
89.681688000002694
  0
ARC
  8
_0-3_躯体と製品
  6
CONTINUOUS
 62
    2
 10
145.28649949999999
 20
176.41554299999999
 40
12.65
 50
269.77353599999537
 51
352.31196299999999
  0
ARC
  8
_0-3_躯体と製品
  6
CONTINUOUS
 62
    2
 10
145.28649949999999
 20
176.51554300000001
 40
12.94999999999999
 50
269.77878199999952
 51
352.31196299999999
  0
LINE
  8
_0-5_文字-記号
  6
CONTINUOUS
 62
    3
 10
146.09527249999996
 20
163.79142400000001
 11
149.01985549999995
 21
168.85695100000001
  0
TEXT
  8
_0-4_図面枠
 62
    7
 10
135.87837349999995
 20
86.57712100000002
 40
2
 41
0.8
 50
0
  1
ｔ１．０×ｗ３０
  0
LINE
  8
_0-4_図面枠
  6
CONTINUOUS
 62
    1
 10
345.46745550000014
 20
241.41628399999999
 11
74.532544499999858
 21
241.41628399999999
  0
LINE
  8
_0-4_図面枠
  6
CONTINUOUS
 62
    1
 10
74.532544499999858
 20
55.58371600000001
 11
345.46745550000014
 21
55.58371600000001
  0
TEXT
  8
_0-4_図面枠
 62
    7
 10
144.41170383333326
 20
125.77712199999999
 40
2
 41
0.8
 50
0
  1
規　格
  0
LINE
  8
_0-4_図面枠
  6
CONTINUOUS
 62
    1
 10
190.61170549999986
 20
121.777117
 11
93.94503850000001
 21
121.777117
  0
LINE
  8
_0-4_図面枠
  6
CONTINUOUS
 62
    1
 10
190.61170549999986
 20
128.97711699999999
 11
93.94503850000001
 21
128.97711699999999
  0
LINE
  8
_0-4_図面枠
  6
CONTINUOUS
 62
    1
 10
190.61170549999986
 20
85.777117000000018
 11
93.94503850000001
 21
85.777117000000018
  0
LINE
  8
_0-4_図面枠
  6
CONTINUOUS
 62
    2
 10
190.61170549999986
 20
93.77711699999999
 11
93.94503850000001
 21
93.77711699999999
  0
LINE
  8
_0-4_図面枠
  6
CONTINUOUS
 62
    2
 10
190.61170549999986
 20
97.77711699999999
 11
93.94503850000001
 21
97.77711699999999
  0
LINE
  8
_0-4_図面枠
  6
CONTINUOUS
 62
    2
 10
190.61170549999986
 20
101.77711699999999
 11
93.94503850000001
 21
101.77711699999999
  0
LINE
  8
_0-4_図面枠
  6
CONTINUOUS
 62
    2
 10
190.61170549999986
 20
105.77711699999999
 11
93.94503850000001
 21
105.77711699999999
  0
LINE
  8
_0-4_図面枠
  6
CONTINUOUS
 62
    2
 10
190.61170549999986
 20
109.77711699999999
 11
93.94503850000001
 21
109.77711699999999
  0
LINE
  8
_0-4_図面枠
  6
CONTINUOUS
 62
    2
 10
190.61170549999986
 20
113.77711699999999
 11
93.94503850000001
 21
113.77711699999999
  0
LINE
  8
_0-4_図面枠
  6
CONTINUOUS
 62
    2
 10
190.61170549999986
 20
117.77711699999999
 11
93.94503850000001
 21
117.77711699999999
  0
TEXT
  8
_0-4_図面枠
 62
    7
 10
135.87837349999995
 20
90.577120999999991
 40
2
 41
0.8
 50
0
  1
１．５×１８×５．５穴
  0
TEXT
  8
_0-4_図面枠
 62
    7
 10
135.87837349999995
 20
94.577124999999995
 40
2
 41
0.8
 50
0
  1
なべ５×５０
  0
LINE
  8
_0-4_図面枠
  6
CONTINUOUS
 62
    2
 10
190.61170549999986
 20
89.777117000000018
 11
93.94503850000001
 21
89.777117000000018
  0
TEXT
  8
_0-4_図面枠
 62
    7
 10
135.87837349999995
 20
98.577124999999995
 40
2
 41
0.8
 50
0
  1
フィッシャープラグ　Ｓ８
  0
LINE
  8
_0-4_図面枠
  6
CONTINUOUS
 62
    1
 10
74.54867749999994
 20
241.41628399999999
 11
74.54867749999994
 21
55.58371600000001
  0
TEXT
  8
_0-4_図面枠
 62
    7
 10
97.106808166666724
 20
102.577125
 40
2
 41
0.8
 50
0
  1
５
  0
TEXT
  8
_0-4_図面枠
 62
    7
 10
135.87837349999995
 20
102.577125
 40
2
 41
0.8
 50
0
  1
皿４×１６
  0
TEXT
  8
_0-4_図面枠
 62
    7
 10
99.545037500000035
 20
102.577125
 40
2
 41
0.8
 50
0
  1
ステンドリリングねじ
  0
LINE
  8
_0-4_図面枠
  6
CONTINUOUS
 62
    1
 10
135.0783725
 20
85.777117000000018
 11
135.0783725
 21
128.97711699999999
  0
LINE
  8
_0-4_図面枠
  6
CONTINUOUS
 62
    1
 10
98.745038499999851
 20
85.777117000000018
 11
98.745038499999851
 21
128.97711699999999
  0
LINE
  8
_0-4_図面枠
  6
CONTINUOUS
 62
    1
 10
93.94503850000001
 20
85.777117000000018
 11
93.94503850000001
 21
128.97711699999999
  0
TEXT
  8
_0-4_図面枠
 62
    7
 10
99.545037500000035
 20
90.577120999999991
 40
2
 41
0.8
 50
0
  1
ステンワッシャー
  0
TEXT
  8
_0-4_図面枠
 62
    7
 10
99.545037500000035
 20
94.577124999999995
 40
2
 41
0.8
 50
0
  1
ステンタッピンねじ
  0
TEXT
  8
_0-4_図面枠
 62
    7
 10
97.106808166666724
 20
90.577120999999991
 40
2
 41
0.8
 50
0
  1
８
  0
TEXT
  8
_0-4_図面枠
 62
    7
 10
99.545037500000035
 20
86.57712100000002
 40
2
 41
0.8
 50
0
  1
ブチルテープ
  0
TEXT
  8
_0-4_図面枠
 62
    7
 10
97.106808166666724
 20
86.57712100000002
 40
2
 41
0.8
 50
0
  1
※
  0
TEXT
  8
_0-4_図面枠
 62
    7
 10
99.545037500000035
 20
98.577124999999995
 40
2
 41
0.8
 50
0
  1
アンカープラグ
  0
TEXT
  8
_0-4_図面枠
 62
    7
 10
97.000141500000041
 20
94.577124999999995
 40
2
 41
0.8
 50
0
  1
７
  0
TEXT
  8
_0-4_図面枠
 62
    7
 10
97.106808166666724
 20
98.577124999999995
 40
2
 41
0.8
 50
0
  1
６
  0
TEXT
  8
_0-4_図面枠
 62
    7
 10
112.1183718333333
 20
125.77712199999999
 40
2
 41
0.8
 50
0
  1
部材名称
  0
TEXT
  8
_0-4_図面枠
 62
    7
 10
99.545037500000035
 20
118.57711699999999
 40
2
 41
0.8
 50
0
  1
ＴＴサイドプレート（Ｃ）
  0
TEXT
  8
_0-4_図面枠
 62
    7
 10
99.545037500000035
 20
110.57712099999999
 40
2
 41
0.8
 50
0
  1
ＴＴフレーム（Ｃ）
  0
TEXT
  8
_0-4_図面枠
 62
    7
 10
99.545037500000035
 20
114.5771249999999
 40
2
 41
0.8
 50
0
  1
ＴＴセンタープレート（Ｃ）
  0
TEXT
  8
_0-4_図面枠
 62
    7
 10
97.106808166666724
 20
114.5771249999999
 40
2
 41
0.8
 50
0
  1
２
  0
TEXT
  8
_0-4_図面枠
 62
    7
 10
99.545037500000035
 20
106.57712099999999
 40
2
 41
0.8
 50
0
  1
止水補助板
  0
TEXT
  8
_0-4_図面枠
 62
    7
 10
97.000141500000041
 20
106.57712099999999
 40
2
 41
0.8
 50
0
  1
４
  0
TEXT
  8
_0-4_図面枠
 62
    7
 10
97.106808166666724
 20
110.57712099999999
 40
2
 41
0.8
 50
0
  1
３
  0
TEXT
  8
_0-4_図面枠
 62
    7
 10
95.400141500000018
 20
118.57711699999999
 40
2
 41
0.8
 50
0
  1
　１
  0
TEXT
  8
_0-4_図面枠
 62
    7
 10
135.87837349999995
 20
106.57712099999999
 40
2
 41
0.8
 50
0
  1
ＦＳ４００
  0
TEXT
  8
_0-4_図面枠
 62
    7
 10
81.661136499999884
 20
228.52768599999999
 40
2
 41
0.8
 50
0
  1
◇床－床（１５０ＴＴ－Ａ）　Ｓ＝１／５
  0
LINE
  8
_0-3_躯体と製品
  6
CONTINUOUS
 62
    2
 10
125.53649949999988
 20
179.793057
 11
125.53649949999988
 21
180.29349099999999
  0
LINE
  8
_0-3_躯体と製品
  6
CONTINUOUS
 62
    2
 10
125.93649949999997
 20
179.49305699999999
 11
125.93649949999997
 21
179.898279
  0
LINE
  8
_0-3_躯体と製品
  6
PLINE3
 62
    3
 10
114.53649949999999
 20
181.818028
 11
114.53649949999999
 21
178.558413
  0
LINE
  8
_0-3_躯体と製品
  6
CONTINUOUS
 62
    2
 10
113.53649949999999
 20
177.615543
 11
113.53649949999999
 21
179.91554299999999
  0
LINE
  8
_0-3_躯体と製品
  6
CONTINUOUS
 62
    2
 10
112.23649950000004
 20
181.26554300000001
 11
112.23649950000004
 21
179.715543
  0
LINE
  8
_0-3_躯体と製品
  6
CONTINUOUS
 62
    2
 10
144.93649949999985
 20
180.511661
 11
144.93649949999985
 21
178.81178700000001
  0
LINE
  8
_0-3_躯体と製品
  6
CONTINUOUS
 62
    2
 10
145.53649949999988
 20
178.81178700000001
 11
145.53649949999988
 21
180.511661
  0
LINE
  8
_0-3_躯体と製品
  6
PLINE3
 62
    3
 10
145.23649950000004
 20
182.806601
 11
145.23649950000004
 21
161.861727
  0
LINE
  8
_0-3_躯体と製品
  6
CONTINUOUS
 62
    3
 10
114.83649949999995
 20
179.95396399999998
 11
114.23649950000004
 21
179.72896399999999
  0
LINE
  8
_0-3_躯体と製品
  6
CONTINUOUS
 62
    3
 10
114.13649950000001
 20
179.75554399999999
 11
114.23649950000004
 21
179.857124
  0
LINE
  8
_0-3_躯体と製品
  6
CONTINUOUS
 62
    3
 10
114.93649949999985
 20
180.055544
 11
114.13649950000001
 21
179.75554399999999
  0
LINE
  8
_0-3_躯体と製品
  6
CONTINUOUS
 62
    3
 10
114.93649949999985
 20
179.75554399999999
 11
114.83649949999995
 21
179.857124
  0
LINE
  8
_0-3_躯体と製品
  6
CONTINUOUS
 62
    3
 10
114.83649949999995
 20
179.95396399999998
 11
114.83649949999995
 21
179.75554399999999
  0
ARC
  8
_0-3_躯体と製品
  6
CONTINUOUS
 62
    2
 10
131.93649949999985
 20
179.66554299999999
 40
0.34
 50
0
 51
180
  0
ARC
  8
_0-3_躯体と製品
  6
CONTINUOUS
 62
    2
 10
131.93650149999985
 20
179.66554299999999
 40
0.2999979999999999
 50
0
 51
180
  0
ARC
  8
_0-3_躯体と製品
  6
CONTINUOUS
 62
    2
 10
131.93649949999985
 20
179.66554299999999
 40
0.5999999999999999
 50
0
 51
180
  0
LINE
  8
_0-3_躯体と製品
  6
CONTINUOUS
 62
    3
 10
116.13599550000004
 20
174.51554300000001
 11
118.13599550000004
 21
176.51554300000001
  0
LINE
  8
_0-3_躯体と製品
  6
CONTINUOUS
 62
    2
 10
118.13649950000001
 20
177.215543
 11
113.93649949999985
 21
177.215543
  0
LINE
  8
_0-3_躯体と製品
  6
CONTINUOUS
 62
    2
 10
115.93649949999985
 20
176.81554299999999
 11
116.93649949999997
 21
176.81554299999999
  0
LINE
  8
_0-3_躯体と製品
  6
CONTINUOUS
 62
    2
 10
130.23650049999992
 20
176.51554300000001
 11
102.41634449999981
 21
176.51554300000001
  0
LINE
  8
_0-3_躯体と製品
  6
CONTINUOUS
 62
    2
 10
106.23650049999992
 20
174.51554300000001
 11
130.23650049999992
 21
174.51554300000001
  0
LINE
  8
_0-3_躯体と製品
  6
CONTINUOUS
 62
    2
 10
130.37088349999988
 20
176.715543
 11
107.23649950000004
 21
176.715543
  0
LINE
  8
_0-3_躯体と製品
  6
CONTINUOUS
 62
    2
 10
107.23649950000004
 20
176.51554300000001
 11
130.37088349999988
 21
176.51554300000001
  0
ARC
  8
_0-3_躯体と製品
  6
PLINE2
 62
    3
 10
116.85347149999996
 20
174.85933399999999
 40
0.08
 50
98.130102000004356
 51
188.29846599999979
  0
ARC
  8
_0-3_躯体と製品
  6
PLINE2
 62
    3
 10
116.85347149999996
 20
174.85933399999999
 40
0.08
 50
98.130102000004356
 51
188.29846599999979
  0
LINE
  8
_0-3_躯体と製品
  6
CONTINUOUS
 62
    2
 10
120.03650049999987
 20
177.51554300000001
 11
116.43650049999985
 21
177.51554300000001
  0
LINE
  8
_0-5_文字-記号
  6
CONTINUOUS
 62
    3
 10
109.13391049999996
 20
169.16012699999999
 11
105.9779565
 21
163.69385299999999
  0
LINE
  8
_0-5_文字-記号
  6
CONTINUOUS
 62
    3
 10
105.9779565
 20
163.69385299999999
 11
95.163783500000022
 21
163.69385299999999
  0
TEXT
  8
_0-5_文字-記号
 62
    7
 10
95.163781500000027
 20
164.19384700000001
 40
2
 41
0.8
 50
0
  1
千鳥に固定する
  0
LINE
  8
_0-5_文字-記号
  6
CONTINUOUS
 62
    3
 10
103.74235550000003
 20
167.44600499999999
 11
86.74865449999993
 21
167.44600499999999
  0
TEXT
  8
_0-5_文字-記号
 62
    7
 10
86.748652499999935
 20
167.945998
 40
2
 41
0.8
 50
0
  1
ならしモルタル（別途）
  0
LINE
  8
_0-3_躯体と製品
  6
PLINE2
 62
    3
 10
109.36418949999995
 20
173.55409699999998
 11
109.34325449999994
 21
173.15464499999999
  0
LINE
  8
_0-3_躯体と製品
  6
PLINE2
 62
    3
 10
111.1088115
 20
173.55409699999998
 11
111.12974550000001
 21
173.15464499999999
  0
LINE
  8
_0-3_躯体と製品
  6
PLINE2
 62
    3
 10
109.52468850000002
 20
172.55546699999999
 11
109.16071850000003
 21
173.55546699999999
  0
LINE
  8
_0-3_躯体と製品
  6
PLINE2
 62
    3
 10
110.94831150000005
 20
172.55546699999999
 11
111.31228149999993
 21
173.55546699999999
  0
LINE
  8
_0-3_躯体と製品
  6
PLINE2
 62
    3
 10
109.81201750000002
 20
168.72404
 11
110.13650050000001
 21
174.91554299999999
  0
LINE
  8
_0-3_躯体と製品
  6
PLINE2
 62
    3
 10
110.66098250000005
 20
168.72404
 11
110.33650050000006
 21
174.91554299999999
  0
LINE
  8
_0-3_躯体と製品
  6
PLINE2
 62
    3
 10
111.50022050000007
 20
173.48706300000001
 11
111.69869149999988
 21
174.84778800000001
  0
LINE
  8
_0-3_躯体と製品
  6
PLINE2
 62
    3
 10
108.9727805
 20
173.48706300000001
 11
108.77430849999985
 21
174.84778800000001
  0
LINE
  8
_0-3_躯体と製品
  6
PLINE2
 62
    3
 10
108.9727805
 20
173.48706300000001
 11
108.77430849999985
 21
174.84778800000001
  0
LINE
  8
_0-3_躯体と製品
  6
PLINE3
 62
    3
 10
110.23650049999992
 20
167.778796
 11
110.23650049999992
 21
178.523325
  0
LINE
  8
_0-5_文字-記号
  6
CONTINUOUS
 62
    3
 10
108.26622450000002
 20
175.281576
 11
103.74235550000003
 21
167.44600499999999
  0
LINE
  8
_0-3_躯体と製品
  6
PLINE2
 62
    3
 10
109.31185349999998
 20
172.55546699999999
 11
108.9727805
 21
173.48706300000001
  0
CIRCLE
  8
_0-5_文字-記号
  6
CONTINUOUS
 62
    3
 10
109.13391049999996
 20
169.16012699999999
 40
0.2
  0
LINE
  8
_0-3_躯体と製品
  6
PLINE2
 62
    3
 10
111.31815449999999
 20
169.55957899999999
 11
111.33908949999989
 21
169.16012699999999
  0
LINE
  8
_0-3_躯体と製品
  6
PLINE2
 62
    3
 10
111.28675350000003
 20
170.15875700000001
 11
110.89776849999987
 21
169.938096
  0
LINE
  8
_0-3_躯体と製品
  6
PLINE2
 62
    3
 10
110.89776849999987
 20
169.938096
 11
110.91870349999999
 21
169.538645
  0
LINE
  8
_0-3_躯体と製品
  6
PLINE2
 62
    3
 10
110.91870349999999
 20
169.538645
 11
111.31815449999999
 21
169.55957899999999
  0
LINE
  8
_0-3_躯体と製品
  6
PLINE2
 62
    3
 10
111.26581850000002
 20
170.55820800000001
 11
111.28675350000003
 21
170.15875700000001
  0
LINE
  8
_0-3_躯体と製品
  6
PLINE2
 62
    3
 10
111.23441750000006
 20
171.157386
 11
110.84543250000002
 21
170.93672599999999
  0
LINE
  8
_0-3_躯体と製品
  6
PLINE2
 62
    3
 10
110.84543250000002
 20
170.93672599999999
 11
110.86636750000002
 21
170.537274
  0
LINE
  8
_0-3_躯体と製品
  6
PLINE2
 62
    3
 10
110.86636750000002
 20
170.537274
 11
111.26581850000002
 21
170.55820800000001
  0
LINE
  8
_0-3_躯体と製品
  6
PLINE2
 62
    3
 10
111.21348250000005
 20
171.556838
 11
111.23441750000006
 21
171.157386
  0
LINE
  8
_0-3_躯体と製品
  6
PLINE2
 62
    3
 10
111.18208149999998
 20
172.15601599999999
 11
110.79309650000005
 21
171.93535499999999
  0
LINE
  8
_0-3_躯体と製品
  6
PLINE2
 62
    3
 10
110.79309650000005
 20
171.93535499999999
 11
110.81403150000006
 21
171.53590299999999
  0
LINE
  8
_0-3_躯体と製品
  6
PLINE2
 62
    3
 10
110.81403150000006
 20
171.53590299999999
 11
111.21348250000005
 21
171.556838
  0
LINE
  8
_0-3_躯体と製品
  6
PLINE2
 62
    3
 10
111.16114649999986
 20
172.55546699999999
 11
111.18208149999998
 21
172.15601599999999
  0
LINE
  8
_0-3_躯体と製品
  6
PLINE2
 62
    3
 10
111.12974550000001
 20
173.15464499999999
 11
110.74076049999985
 21
172.93398500000001
  0
LINE
  8
_0-3_躯体と製品
  6
PLINE2
 62
    3
 10
110.74076049999985
 20
172.93398500000001
 11
110.76169549999986
 21
172.53453299999998
  0
LINE
  8
_0-3_躯体と製品
  6
PLINE2
 62
    3
 10
110.76169549999986
 20
172.53453299999998
 11
111.16114649999986
 21
172.55546699999999
  0
LINE
  8
_0-3_躯体と製品
  6
PLINE2
 62
    3
 10
110.24836149999999
 20
169.327404
 11
109.86162049999996
 21
169.67053899999999
  0
LINE
  8
_0-3_躯体と製品
  6
PLINE2
 62
    3
 10
110.6103885
 20
169.68943199999998
 11
110.23650049999992
 21
169.31554299999999
  0
LINE
  8
_0-3_躯体と製品
  6
PLINE2
 62
    3
 10
111.16114649999986
 20
172.55546699999999
 11
111.50022050000007
 21
173.48706300000001
  0
LINE
  8
_0-3_躯体と製品
  6
PLINE2
 62
    3
 10
109.83295150000004
 20
169.123492
 11
109.13391049999996
 21
169.16012699999999
  0
LINE
  8
_0-3_躯体と製品
  6
PLINE2
 62
    3
 10
109.13391049999996
 20
169.16012699999999
 11
109.51242849999994
 21
168.73974100000001
  0
LINE
  8
_0-3_躯体と製品
  6
PLINE2
 62
    3
 10
109.51242849999994
 20
168.73974100000001
 11
109.81201750000002
 21
168.72404
  0
LINE
  8
_0-3_躯体と製品
  6
PLINE2
 62
    3
 10
110.64004849999992
 20
169.123492
 11
111.33908949999989
 21
169.16012699999999
  0
LINE
  8
_0-3_躯体と製品
  6
PLINE2
 62
    3
 10
111.33908949999989
 20
169.16012699999999
 11
110.96057250000001
 21
168.73974100000001
  0
LINE
  8
_0-3_躯体と製品
  6
PLINE2
 62
    3
 10
110.96057250000001
 20
168.73974100000001
 11
110.66098250000005
 21
168.72404
  0
LINE
  8
_0-3_躯体と製品
  6
PLINE2
 62
    3
 10
109.15484549999985
 20
169.55957899999999
 11
109.13391049999996
 21
169.16012699999999
  0
LINE
  8
_0-3_躯体と製品
  6
PLINE2
 62
    3
 10
109.18624649999992
 20
170.15875700000001
 11
109.57523149999997
 21
169.938096
  0
LINE
  8
_0-3_躯体と製品
  6
PLINE2
 62
    3
 10
109.57523149999997
 20
169.938096
 11
109.55429649999985
 21
169.538645
  0
LINE
  8
_0-3_躯体と製品
  6
PLINE2
 62
    3
 10
109.55429649999985
 20
169.538645
 11
109.15484549999985
 21
169.55957899999999
  0
LINE
  8
_0-3_躯体と製品
  6
PLINE2
 62
    3
 10
109.20718149999993
 20
170.55820800000001
 11
109.18624649999992
 21
170.15875700000001
  0
LINE
  8
_0-3_躯体と製品
  6
PLINE2
 62
    3
 10
109.23858249999989
 20
171.157386
 11
109.62756749999994
 21
170.93672599999999
  0
LINE
  8
_0-3_躯体と製品
  6
PLINE2
 62
    3
 10
109.62756749999994
 20
170.93672599999999
 11
109.60663249999993
 21
170.537274
  0
LINE
  8
_0-3_躯体と製品
  6
PLINE2
 62
    3
 10
109.60663249999993
 20
170.537274
 11
109.20718149999993
 21
170.55820800000001
  0
LINE
  8
_0-3_躯体と製品
  6
PLINE2
 62
    3
 10
109.25951750000002
 20
171.556838
 11
109.23858249999989
 21
171.157386
  0
LINE
  8
_0-3_躯体と製品
  6
PLINE2
 62
    3
 10
109.29091849999986
 20
172.15601599999999
 11
109.67990350000002
 21
171.93535499999999
  0
LINE
  8
_0-3_躯体と製品
  6
PLINE2
 62
    3
 10
109.67990350000002
 20
171.93535499999999
 11
109.65896850000001
 21
171.53590299999999
  0
LINE
  8
_0-3_躯体と製品
  6
PLINE2
 62
    3
 10
109.65896850000001
 20
171.53590299999999
 11
109.25951750000002
 21
171.556838
  0
LINE
  8
_0-3_躯体と製品
  6
PLINE2
 62
    3
 10
109.31185349999998
 20
172.55546699999999
 11
109.29091849999986
 21
172.15601599999999
  0
LINE
  8
_0-3_躯体と製品
  6
PLINE2
 62
    3
 10
109.34325449999994
 20
173.15464499999999
 11
109.73223949999988
 21
172.93398500000001
  0
LINE
  8
_0-3_躯体と製品
  6
PLINE2
 62
    3
 10
109.73223949999988
 20
172.93398500000001
 11
109.71130449999998
 21
172.53453299999998
  0
LINE
  8
_0-3_躯体と製品
  6
PLINE2
 62
    3
 10
109.71130449999998
 20
172.53453299999998
 11
109.31185349999998
 21
172.55546699999999
  0
LINE
  8
_0-3_躯体と製品
  6
CONTINUOUS
 62
    3
 10
107.65071349999994
 20
174.51554300000001
 11
109.65071349999994
 21
176.51554300000001
  0
LINE
  8
_0-3_躯体と製品
  6
CONTINUOUS
 62
    3
 10
109.06492750000007
 20
174.51554300000001
 11
111.06492749999995
 21
176.51554300000001
  0
LINE
  8
_0-3_躯体と製品
  6
CONTINUOUS
 62
    2
 10
112.63649950000001
 20
177.215543
 11
107.33649949999995
 21
177.215543
  0
LINE
  8
_0-3_躯体と製品
  6
CONTINUOUS
 62
    2
 10
111.53649949999988
 20
176.715543
 11
108.93649949999997
 21
176.715543
  0
LINE
  8
_0-3_躯体と製品
  6
PLINE2
 62
    3
 10
108.97203249999995
 20
174.876271
 11
109.16071850000003
 21
173.55546699999999
  0
LINE
  8
_0-3_躯体と製品
  6
CONTINUOUS
 62
    2
 10
112.03650049999987
 20
177.51554300000001
 11
108.43650049999997
 21
177.51554300000001
  0
LINE
  8
_0-3_躯体と製品
  6
PLINE2
 62
    3
 10
108.97203249999995
 20
174.876271
 11
109.16071850000003
 21
173.55546699999999
  0
LINE
  8
_0-3_躯体と製品
  6
CONTINUOUS
 62
    3
 10
106.23650049999992
 20
175.929757
 11
106.82228650000002
 21
176.51554300000001
  0
LINE
  8
_0-3_躯体と製品
  6
CONTINUOUS
 62
    3
 10
106.23759150000001
 20
174.51554300000001
 11
108.23760849999996
 21
176.51554300000001
  0
LINE
  8
_0-3_躯体と製品
  6
CONTINUOUS
 62
    2
 10
108.73649950000004
 20
177.215543
 11
108.73649950000004
 21
176.81554299999999
  0
LINE
  8
_0-3_躯体と製品
  6
CONTINUOUS
 62
    2
 10
107.93649949999985
 20
176.715543
 11
107.93649949999985
 21
176.81554299999999
  0
LINE
  8
_0-3_躯体と製品
  6
CONTINUOUS
 62
    2
 10
107.93649949999985
 20
176.81554299999999
 11
108.93649949999997
 21
176.81554299999999
  0
LINE
  8
_0-3_躯体と製品
  6
CONTINUOUS
 62
    2
 10
108.93649949999997
 20
176.81554299999999
 11
108.93649949999997
 21
176.715543
  0
ARC
  8
_0-3_躯体と製品
  6
CONTINUOUS
 62
    2
 10
107.33649949999995
 20
176.81554299999999
 40
0.1
 50
180
 51
270
  0
ARC
  8
_0-3_躯体と製品
  6
CONTINUOUS
 62
    2
 10
107.33649949999995
 20
177.115543
 40
0.1
 50
90
 51
180
  0
LINE
  8
_0-3_躯体と製品
  6
CONTINUOUS
 62
    2
 10
107.23649950000004
 20
177.115543
 11
107.23649950000004
 21
176.81554299999999
  0
LINE
  8
_0-3_躯体と製品
  6
CONTINUOUS
 62
    2
 10
107.93649949999985
 20
176.715543
 11
107.33649949999995
 21
176.715543
  0
LINE
  8
_0-3_躯体と製品
  6
CONTINUOUS
 62
    2
 10
106.23650049999992
 20
176.51554300000001
 11
106.23650049999992
 21
174.51554300000001
  0
LINE
  8
_0-3_躯体と製品
  6
CONTINUOUS
 62
    2
 10
107.23649950000004
 20
176.715543
 11
107.23649950000004
 21
176.51554300000001
  0
ARC
  8
_0-3_躯体と製品
  6
PLINE2
 62
    3
 10
108.85347149999996
 20
174.85933399999999
 40
0.08
 50
98.130102000004356
 51
188.29846599999979
  0
LINE
  8
_0-3_躯体と製品
  6
PLINE2
 62
    3
 10
108.84215749999987
 20
174.93852999999999
 11
108.88152249999996
 21
174.944154
  0
ARC
  8
_0-3_躯体と製品
  6
PLINE2
 62
    3
 10
108.89283649999993
 20
174.864958
 40
0.08
 50
8.1301020000006723
 51
98.130102000004356
  0
LINE
  8
_0-3_躯体と製品
  6
CONTINUOUS
 62
    2
 10
108.43650049999997
 20
177.51554300000001
 11
108.43650049999997
 21
177.215543
  0
ARC
  8
_0-3_躯体と製品
  6
PLINE2
 62
    3
 10
108.85347149999996
 20
174.85933399999999
 40
0.08
 50
98.130102000004356
 51
188.29846599999979
  0
LINE
  8
_0-3_躯体と製品
  6
PLINE2
 62
    3
 10
108.84215749999987
 20
174.93852999999999
 11
108.88152249999996
 21
174.944154
  0
ARC
  8
_0-3_躯体と製品
  6
PLINE2
 62
    3
 10
108.89283649999993
 20
174.864958
 40
0.08
 50
8.1301020000006723
 51
98.130102000004356
  0
CIRCLE
  8
_0-5_文字-記号
  6
CONTINUOUS
 62
    3
 10
108.26622450000002
 20
175.281576
 40
0.2
  0
LINE
  8
_0-3_躯体と製品
  6
CONTINUOUS
 62
    3
 10
110.47914049999997
 20
174.51554300000001
 11
112.47914049999986
 21
176.51554300000001
  0
LINE
  8
_0-3_躯体と製品
  6
CONTINUOUS
 62
    3
 10
111.89335449999987
 20
174.51554300000001
 11
113.89335449999999
 21
176.51554300000001
  0
LINE
  8
_0-3_躯体と製品
  6
CONTINUOUS
 62
    3
 10
113.3075675
 20
174.51554300000001
 11
115.30756749999989
 21
176.51554300000001
  0
LINE
  8
_0-3_躯体と製品
  6
CONTINUOUS
 62
    3
 10
114.72178150000002
 20
174.51554300000001
 11
116.72178150000002
 21
176.51554300000001
  0
LINE
  8
_0-3_躯体と製品
  6
CONTINUOUS
 62
    2
 10
111.73649950000004
 20
177.215543
 11
111.73649950000004
 21
176.81554299999999
  0
LINE
  8
_0-3_躯体と製品
  6
CONTINUOUS
 62
    2
 10
111.53649949999988
 20
176.715543
 11
111.53649949999988
 21
176.81554299999999
  0
LINE
  8
_0-3_躯体と製品
  6
CONTINUOUS
 62
    2
 10
111.53649949999988
 20
176.81554299999999
 11
112.53649949999988
 21
176.81554299999999
  0
LINE
  8
_0-3_躯体と製品
  6
CONTINUOUS
 62
    2
 10
112.53649949999988
 20
176.81554299999999
 11
112.53649949999988
 21
176.715543
  0
ARC
  8
_0-3_躯体と製品
  6
CONTINUOUS
 62
    2
 10
112.63649950000001
 20
177.615543
 40
0.4
 50
270
 51
0
  0
LINE
  8
_0-3_躯体と製品
  6
CONTINUOUS
 62
    2
 10
116.73649950000004
 20
177.215543
 11
116.73649950000004
 21
176.81554299999999
  0
ARC
  8
_0-3_躯体と製品
  6
CONTINUOUS
 62
    2
 10
113.93649949999985
 20
177.615543
 40
0.4
 50
180
 51
270
  0
LINE
  8
_0-3_躯体と製品
  6
CONTINUOUS
 62
    2
 10
112.33649949999995
 20
179.615543
 11
112.83649949999995
 21
179.615543
  0
ARC
  8
_0-3_躯体と製品
  6
CONTINUOUS
 62
    2
 10
112.83649949999995
 20
179.41554299999999
 40
0.2
 50
0
 51
90
  0
LINE
  8
_0-3_躯体と製品
  6
CONTINUOUS
 62
    2
 10
113.03649949999988
 20
179.41554299999999
 11
113.03649949999988
 21
177.615543
  0
LINE
  8
_0-3_躯体と製品
  6
CONTINUOUS
 62
    2
 10
115.93649949999985
 20
176.715543
 11
115.93649949999985
 21
176.81554299999999
  0
LINE
  8
_0-3_躯体と製品
  6
CONTINUOUS
 62
    2
 10
115.93649949999985
 20
176.715543
 11
112.53649949999988
 21
176.715543
  0
ARC
  8
_0-3_躯体と製品
  6
CONTINUOUS
 62
    2
 10
112.33649949999995
 20
179.715543
 40
0.1
 50
180
 51
270
  0
LINE
  8
_0-3_躯体と製品
  6
CONTINUOUS
 62
    3
 10
114.23649950000004
 20
179.72896399999999
 11
114.13649950000001
 21
179.75554399999999
  0
LINE
  8
_0-3_躯体と製品
  6
CONTINUOUS
 62
    3
 10
114.83649949999995
 20
179.75554399999999
 11
114.30737950000002
 21
179.75554399999999
  0
LINE
  8
_0-3_躯体と製品
  6
CONTINUOUS
 62
    3
 10
114.23649950000004
 20
179.72896399999999
 11
114.23649950000004
 21
179.215518
  0
LINE
  8
_0-3_躯体と製品
  6
CONTINUOUS
 62
    3
 10
114.23649950000004
 20
179.215518
 11
114.53649949999999
 21
178.91551799999999
  0
LINE
  8
_0-3_躯体と製品
  6
CONTINUOUS
 62
    3
 10
114.53649949999999
 20
178.91551799999999
 11
114.83649949999995
 21
179.215518
  0
LINE
  8
_0-3_躯体と製品
  6
CONTINUOUS
 62
    3
 10
114.83649949999995
 20
179.215518
 11
114.83649949999995
 21
179.75554399999999
  0
LINE
  8
_0-3_躯体と製品
  6
CONTINUOUS
 62
    3
 10
114.83649949999995
 20
179.75554399999999
 11
114.53649949999999
 21
178.91551799999999
  0
LINE
  8
_0-3_躯体と製品
  6
CONTINUOUS
 62
    3
 10
114.23649950000004
 20
179.215518
 11
114.61149950000004
 21
179.215518
  0
LINE
  8
_0-3_躯体と製品
  6
CONTINUOUS
 62
    3
 10
114.83649949999995
 20
179.72896399999999
 11
114.93649949999985
 21
179.75554399999999
  0
LINE
  8
_0-3_躯体と製品
  6
PLINE2
 62
    3
 10
109.23650049999992
 20
176.51554300000001
 11
109.43650049999985
 21
175.51554300000001
  0
LINE
  8
_0-3_躯体と製品
  6
PLINE2
 62
    3
 10
109.43650049999985
 20
176.51554300000001
 11
109.43650049999985
 21
174.91554299999999
  0
LINE
  8
_0-3_躯体と製品
  6
PLINE2
 62
    3
 10
110.13650050000001
 20
174.91554299999999
 11
110.23650049999992
 21
174.91554299999999
  0
LINE
  8
_0-3_躯体と製品
  6
PLINE2
 62
    3
 10
110.23650049999992
 20
175.51554300000001
 11
110.23650049999992
 21
176.51554300000001
  0
LINE
  8
_0-3_躯体と製品
  6
PLINE2
 62
    3
 10
110.03650049999999
 20
176.51554300000001
 11
110.23650049999992
 21
175.51554300000001
  0
LINE
  8
_0-3_躯体と製品
  6
PLINE2
 62
    3
 10
110.43650049999985
 20
176.51554300000001
 11
110.23650049999992
 21
175.51554300000001
  0
LINE
  8
_0-3_躯体と製品
  6
PLINE2
 62
    3
 10
111.23650049999992
 20
176.51554300000001
 11
111.03650049999987
 21
175.51554300000001
  0
LINE
  8
_0-3_躯体と製品
  6
PLINE2
 62
    3
 10
111.03650049999987
 20
176.51554300000001
 11
111.03650049999987
 21
174.91554299999999
  0
LINE
  8
_0-3_躯体と製品
  6
PLINE2
 62
    3
 10
110.33650050000006
 20
174.91554299999999
 11
110.23650049999992
 21
174.91554299999999
  0
ARC
  8
_0-3_躯体と製品
  6
CONTINUOUS
 62
    2
 10
109.93594749999988
 20
177.489801
 40
0.5999999999999999
 50
128.61463800000061
 51
177.54107399999972
  0
ARC
  8
_0-3_躯体と製品
  6
CONTINUOUS
 62
    2
 10
110.23650049999992
 20
177.115543
 40
1.0800000000000001
 50
90
 51
128.68218700000079
  0
ARC
  8
_0-3_躯体と製品
  6
CONTINUOUS
 62
    2
 10
110.23650049999992
 20
177.115543
 40
1.0800000000000001
 50
51.148938000002367
 51
90
  0
ARC
  8
_0-3_躯体と製品
  6
CONTINUOUS
 62
    2
 10
110.53705250000007
 20
177.489801
 40
0.5999999999999999
 50
2.4589260000002127
 51
51.385361999999361
  0
LINE
  8
_0-3_躯体と製品
  6
CONTINUOUS
 62
    2
 10
112.03650049999987
 20
177.51554300000001
 11
112.03650049999987
 21
177.215543
  0
LINE
  8
_0-3_躯体と製品
  6
PLINE2
 62
    3
 10
109.78457549999996
 20
173.932614
 11
109.76364049999995
 21
173.533163
  0
LINE
  8
_0-3_躯体と製品
  6
PLINE2
 62
    3
 10
109.76364049999995
 20
173.533163
 11
109.36418949999995
 21
173.55409699999998
  0
LINE
  8
_0-3_躯体と製品
  6
PLINE2
 62
    3
 10
109.43650049999985
 20
174.115543
 11
109.78457549999996
 21
173.932614
  0
LINE
  8
_0-3_躯体と製品
  6
PLINE2
 62
    3
 10
110.6884245
 20
173.932614
 11
110.70935950000001
 21
173.533163
  0
LINE
  8
_0-3_躯体と製品
  6
PLINE2
 62
    3
 10
110.70935950000001
 20
173.533163
 11
111.1088115
 21
173.55409699999998
  0
LINE
  8
_0-3_躯体と製品
  6
PLINE2
 62
    3
 10
111.03650049999987
 20
174.115543
 11
110.6884245
 21
173.932614
  0
LINE
  8
_0-3_躯体と製品
  6
PLINE2
 62
    3
 10
109.43650049999985
 20
174.115543
 11
109.43650049999985
 21
174.91554299999999
  0
LINE
  8
_0-3_躯体と製品
  6
PLINE2
 62
    3
 10
111.03650049999987
 20
174.115543
 11
111.03650049999987
 21
174.91554299999999
  0
ARC
  8
_0-3_躯体と製品
  6
PLINE2
 62
    3
 10
111.6195285
 20
174.85933399999999
 40
0.08
 50
351.70153400000004
 51
81.8698979999957
  0
LINE
  8
_0-3_躯体と製品
  6
PLINE2
 62
    3
 10
111.63084249999986
 20
174.93852999999999
 11
111.59147749999988
 21
174.944154
  0
ARC
  8
_0-3_躯体と製品
  6
PLINE2
 62
    3
 10
111.58016450000002
 20
174.864958
 40
0.08
 50
81.869897999995629
 51
171.8698979999993
  0
LINE
  8
_0-3_躯体と製品
  6
PLINE2
 62
    3
 10
111.5009685
 20
174.876271
 11
111.31228149999993
 21
173.55546699999999
  0
LINE
  8
_0-3_躯体と製品
  6
CONTINUOUS
 62
    2
 10
116.43650049999985
 20
177.51554300000001
 11
116.43650049999985
 21
177.215543
  0
LINE
  8
_0-3_躯体と製品
  6
CONTINUOUS
 62
    2
 10
130.23650049999992
 20
176.51554300000001
 11
130.23650049999992
 21
160.727475
  0
ARC
  8
_0-3_躯体と製品
  6
CONTINUOUS
 62
    2
 10
145.18649949999985
 20
176.41554299999999
 40
12.65
 50
187.68803699999989
 51
270.22646800000228
  0
ARC
  8
_0-3_躯体と製品
  6
CONTINUOUS
 62
    2
 10
145.18649949999985
 20
176.51554300000001
 40
12.94999999999999
 50
187.68803699999989
 51
270.22122100000098
  0
CIRCLE
  8
_0-5_文字-記号
  6
CONTINUOUS
 62
    3
 10
146.09527249999996
 20
163.79142400000001
 40
0.2
  0
ARC
  8
_0-3_躯体と製品
  6
CONTINUOUS
 62
    2
 10
132.03649949999999
 20
176.91554299999999
 40
0.2
 50
270
 51
0
  0
ARC
  8
_0-3_躯体と製品
  6
CONTINUOUS
 62
    2
 10
130.37088349999988
 20
174.51554300000001
 40
2
 50
7.6880369999999543
 51
90
  0
ARC
  8
_0-3_躯体と製品
  6
CONTINUOUS
 62
    2
 10
130.37088349999988
 20
174.41554299999999
 40
2.2999999999999989
 50
7.6880369999999543
 51
90
  0
LINE
  8
_0-3_躯体と製品
  6
PLINE2
 62
    3
 10
118.66098250000005
 20
168.72404
 11
118.33650050000006
 21
174.91554299999999
  0
LINE
  8
_0-3_躯体と製品
  6
PLINE2
 62
    3
 10
119.50022049999995
 20
173.48706300000001
 11
119.69869149999988
 21
174.84778800000001
  0
LINE
  8
_0-3_躯体と製品
  6
PLINE2
 62
    3
 10
116.97278049999989
 20
173.48706300000001
 11
116.77430849999985
 21
174.84778800000001
  0
LINE
  8
_0-3_躯体と製品
  6
PLINE2
 62
    3
 10
116.97278049999989
 20
173.48706300000001
 11
116.77430849999985
 21
174.84778800000001
  0
LINE
  8
_0-3_躯体と製品
  6
PLINE2
 62
    3
 10
117.36418949999995
 20
173.55409699999998
 11
117.34325449999994
 21
173.15464499999999
  0
LINE
  8
_0-3_躯体と製品
  6
PLINE2
 62
    3
 10
119.1088115
 20
173.55409699999998
 11
119.12974550000001
 21
173.15464499999999
  0
LINE
  8
_0-3_躯体と製品
  6
PLINE2
 62
    3
 10
117.52468850000002
 20
172.55546699999999
 11
117.16071850000003
 21
173.55546699999999
  0
LINE
  8
_0-3_躯体と製品
  6
PLINE2
 62
    3
 10
118.94831150000005
 20
172.55546699999999
 11
119.31228149999993
 21
173.55546699999999
  0
LINE
  8
_0-3_躯体と製品
  6
PLINE2
 62
    3
 10
117.81201750000002
 20
168.72404
 11
118.13650050000001
 21
174.91554299999999
  0
LINE
  8
_0-3_躯体と製品
  6
PLINE3
 62
    3
 10
118.23650049999992
 20
167.778796
 11
118.23650049999992
 21
178.523325
  0
CIRCLE
  8
_0-3_躯体と製品
  6
CONTINUOUS
 62
    3
 10
119.05720250000002
 20
169.350435
 40
0.12
  0
LINE
  8
_0-3_躯体と製品
  6
PLINE2
 62
    3
 10
118.96057250000001
 20
168.73974100000001
 11
118.66098250000005
 21
168.72404
  0
LINE
  8
_0-3_躯体と製品
  6
PLINE2
 62
    3
 10
117.57523149999997
 20
169.938096
 11
117.55429649999985
 21
169.538645
  0
LINE
  8
_0-3_躯体と製品
  6
PLINE2
 62
    3
 10
117.55429649999985
 20
169.538645
 11
117.15484549999985
 21
169.55957899999999
  0
LINE
  8
_0-3_躯体と製品
  6
PLINE2
 62
    3
 10
117.20718149999993
 20
170.55820800000001
 11
117.18624649999992
 21
170.15875700000001
  0
LINE
  8
_0-3_躯体と製品
  6
PLINE2
 62
    3
 10
117.23858249999989
 20
171.157386
 11
117.62756749999994
 21
170.93672599999999
  0
LINE
  8
_0-3_躯体と製品
  6
PLINE2
 62
    3
 10
117.62756749999994
 20
170.93672599999999
 11
117.60663249999993
 21
170.537274
  0
LINE
  8
_0-3_躯体と製品
  6
PLINE2
 62
    3
 10
117.60663249999993
 20
170.537274
 11
117.20718149999993
 21
170.55820800000001
  0
LINE
  8
_0-3_躯体と製品
  6
PLINE2
 62
    3
 10
117.25951750000002
 20
171.556838
 11
117.23858249999989
 21
171.157386
  0
LINE
  8
_0-3_躯体と製品
  6
PLINE2
 62
    3
 10
117.29091849999986
 20
172.15601599999999
 11
117.67990350000002
 21
171.93535499999999
  0
LINE
  8
_0-3_躯体と製品
  6
PLINE2
 62
    3
 10
117.67990350000002
 20
171.93535499999999
 11
117.65896850000001
 21
171.53590299999999
  0
LINE
  8
_0-3_躯体と製品
  6
PLINE2
 62
    3
 10
117.65896850000001
 20
171.53590299999999
 11
117.25951750000002
 21
171.556838
  0
LINE
  8
_0-3_躯体と製品
  6
PLINE2
 62
    3
 10
117.31185349999998
 20
172.55546699999999
 11
117.29091849999986
 21
172.15601599999999
  0
LINE
  8
_0-3_躯体と製品
  6
PLINE2
 62
    3
 10
117.34325449999994
 20
173.15464499999999
 11
117.73223949999988
 21
172.93398500000001
  0
LINE
  8
_0-3_躯体と製品
  6
PLINE2
 62
    3
 10
117.73223949999988
 20
172.93398500000001
 11
117.71130449999998
 21
172.53453299999998
  0
LINE
  8
_0-3_躯体と製品
  6
PLINE2
 62
    3
 10
117.71130449999998
 20
172.53453299999998
 11
117.31185349999998
 21
172.55546699999999
  0
LINE
  8
_0-3_躯体と製品
  6
PLINE2
 62
    3
 10
119.31815449999999
 20
169.55957899999999
 11
119.3390895
 21
169.16012699999999
  0
LINE
  8
_0-3_躯体と製品
  6
PLINE2
 62
    3
 10
119.28675350000003
 20
170.15875700000001
 11
118.89776849999987
 21
169.938096
  0
LINE
  8
_0-3_躯体と製品
  6
PLINE2
 62
    3
 10
118.89776849999987
 20
169.938096
 11
118.91870349999999
 21
169.538645
  0
LINE
  8
_0-3_躯体と製品
  6
PLINE2
 62
    3
 10
118.91870349999999
 20
169.538645
 11
119.31815449999999
 21
169.55957899999999
  0
LINE
  8
_0-3_躯体と製品
  6
PLINE2
 62
    3
 10
119.26581850000002
 20
170.55820800000001
 11
119.28675350000003
 21
170.15875700000001
  0
LINE
  8
_0-3_躯体と製品
  6
PLINE2
 62
    3
 10
119.23441750000006
 20
171.157386
 11
118.84543250000002
 21
170.93672599999999
  0
LINE
  8
_0-3_躯体と製品
  6
PLINE2
 62
    3
 10
118.84543250000002
 20
170.93672599999999
 11
118.86636750000002
 21
170.537274
  0
LINE
  8
_0-3_躯体と製品
  6
PLINE2
 62
    3
 10
118.86636750000002
 20
170.537274
 11
119.26581850000002
 21
170.55820800000001
  0
LINE
  8
_0-3_躯体と製品
  6
PLINE2
 62
    3
 10
119.21348250000005
 20
171.556838
 11
119.23441750000006
 21
171.157386
  0
LINE
  8
_0-3_躯体と製品
  6
PLINE2
 62
    3
 10
119.18208149999987
 20
172.15601599999999
 11
118.79309650000005
 21
171.93535499999999
  0
LINE
  8
_0-3_躯体と製品
  6
PLINE2
 62
    3
 10
118.79309650000005
 20
171.93535499999999
 11
118.81403150000006
 21
171.53590299999999
  0
LINE
  8
_0-3_躯体と製品
  6
PLINE2
 62
    3
 10
118.81403150000006
 20
171.53590299999999
 11
119.21348250000005
 21
171.556838
  0
LINE
  8
_0-3_躯体と製品
  6
PLINE2
 62
    3
 10
119.16114649999997
 20
172.55546699999999
 11
119.18208149999987
 21
172.15601599999999
  0
LINE
  8
_0-3_躯体と製品
  6
PLINE2
 62
    3
 10
119.12974550000001
 20
173.15464499999999
 11
118.74076049999985
 21
172.93398500000001
  0
LINE
  8
_0-3_躯体と製品
  6
PLINE2
 62
    3
 10
118.74076049999985
 20
172.93398500000001
 11
118.76169549999986
 21
172.53453299999998
  0
LINE
  8
_0-3_躯体と製品
  6
PLINE2
 62
    3
 10
118.76169549999986
 20
172.53453299999998
 11
119.16114649999997
 21
172.55546699999999
  0
LINE
  8
_0-3_躯体と製品
  6
PLINE2
 62
    3
 10
118.24836149999999
 20
169.327404
 11
117.86162049999996
 21
169.67053899999999
  0
LINE
  8
_0-3_躯体と製品
  6
PLINE2
 62
    3
 10
118.6103885
 20
169.68943199999998
 11
118.23650049999992
 21
169.31554299999999
  0
LINE
  8
_0-3_躯体と製品
  6
PLINE2
 62
    3
 10
117.31185349999998
 20
172.55546699999999
 11
116.97278049999989
 21
173.48706300000001
  0
LINE
  8
_0-3_躯体と製品
  6
PLINE2
 62
    3
 10
119.16114649999997
 20
172.55546699999999
 11
119.50022049999995
 21
173.48706300000001
  0
LINE
  8
_0-3_躯体と製品
  6
PLINE2
 62
    3
 10
117.83295150000004
 20
169.123492
 11
117.13391049999996
 21
169.16012699999999
  0
LINE
  8
_0-3_躯体と製品
  6
PLINE2
 62
    3
 10
117.13391049999996
 20
169.16012699999999
 11
117.51242849999994
 21
168.73974100000001
  0
LINE
  8
_0-3_躯体と製品
  6
PLINE2
 62
    3
 10
117.51242849999994
 20
168.73974100000001
 11
117.81201750000002
 21
168.72404
  0
LINE
  8
_0-3_躯体と製品
  6
PLINE2
 62
    3
 10
118.64004849999981
 20
169.123492
 11
119.3390895
 21
169.16012699999999
  0
LINE
  8
_0-3_躯体と製品
  6
PLINE2
 62
    3
 10
119.3390895
 20
169.16012699999999
 11
118.96057250000001
 21
168.73974100000001
  0
LINE
  8
_0-3_躯体と製品
  6
PLINE2
 62
    3
 10
117.15484549999985
 20
169.55957899999999
 11
117.13391049999996
 21
169.16012699999999
  0
LINE
  8
_0-3_躯体と製品
  6
PLINE2
 62
    3
 10
117.18624649999992
 20
170.15875700000001
 11
117.57523149999997
 21
169.938096
  0
LINE
  8
_0-3_躯体と製品
  6
CONTINUOUS
 62
    3
 10
123.20706250000001
 20
174.51554300000001
 11
125.20706250000001
 21
176.51554300000001
  0
LINE
  8
_0-3_躯体と製品
  6
CONTINUOUS
 62
    2
 10
123.23649950000004
 20
177.41554299999999
 11
131.13649950000001
 21
177.41554299999999
  0
LINE
  8
_0-3_躯体と製品
  6
CONTINUOUS
 62
    2
 10
132.03649949999999
 20
176.715543
 11
120.53649949999988
 21
176.715543
  0
LINE
  8
_0-3_躯体と製品
  6
CONTINUOUS
 62
    3
 10
121.79284949999999
 20
174.51554300000001
 11
123.79284949999987
 21
176.51554300000001
  0
LINE
  8
_0-3_躯体と製品
  6
CONTINUOUS
 62
    3
 10
120.37863549999986
 20
174.51554300000001
 11
122.37863549999997
 21
176.51554300000001
  0
LINE
  8
_0-3_躯体と製品
  6
CONTINUOUS
 62
    3
 10
118.96442249999996
 20
174.51554300000001
 11
120.96442249999996
 21
176.51554300000001
  0
LINE
  8
_0-3_躯体と製品
  6
CONTINUOUS
 62
    3
 10
117.55020850000005
 20
174.51554300000001
 11
119.55020850000005
 21
176.51554300000001
  0
LINE
  8
_0-3_躯体と製品
  6
CONTINUOUS
 62
    2
 10
121.73649950000004
 20
177.215543
 11
123.23649950000004
 21
177.41554299999999
  0
LINE
  8
_0-3_躯体と製品
  6
CONTINUOUS
 62
    2
 10
119.73649950000004
 20
177.215543
 11
119.73649950000004
 21
176.81554299999999
  0
LINE
  8
_0-3_躯体と製品
  6
CONTINUOUS
 62
    2
 10
118.33649949999995
 20
177.215543
 11
121.73649950000004
 21
177.215543
  0
LINE
  8
_0-3_躯体と製品
  6
CONTINUOUS
 62
    2
 10
116.93649949999997
 20
176.81554299999999
 11
116.93649949999997
 21
176.715543
  0
LINE
  8
_0-3_躯体と製品
  6
CONTINUOUS
 62
    2
 10
119.53649949999999
 20
176.715543
 11
119.53649949999999
 21
176.81554299999999
  0
LINE
  8
_0-3_躯体と製品
  6
CONTINUOUS
 62
    2
 10
119.53649949999999
 20
176.81554299999999
 11
120.53649949999988
 21
176.81554299999999
  0
LINE
  8
_0-3_躯体と製品
  6
CONTINUOUS
 62
    2
 10
120.53649949999988
 20
176.81554299999999
 11
120.53649949999988
 21
176.715543
  0
LINE
  8
_0-3_躯体と製品
  6
CONTINUOUS
 62
    2
 10
116.93649949999997
 20
176.715543
 11
119.53649949999999
 21
176.715543
  0
LINE
  8
_0-3_躯体と製品
  6
CONTINUOUS
 62
    2
 10
118.33649949999995
 20
177.215543
 11
118.23649950000004
 21
177.115543
  0
LINE
  8
_0-3_躯体と製品
  6
CONTINUOUS
 62
    2
 10
118.13649950000001
 20
177.215543
 11
118.23649950000004
 21
177.115543
  0
LINE
  8
_0-3_躯体と製品
  6
PLINE2
 62
    3
 10
119.03650049999999
 20
174.115543
 11
119.03650049999999
 21
174.91554299999999
  0
ARC
  8
_0-3_躯体と製品
  6
PLINE2
 62
    3
 10
119.6195285
 20
174.85933399999999
 40
0.08
 50
351.70153400000004
 51
81.8698979999957
  0
LINE
  8
_0-3_躯体と製品
  6
PLINE2
 62
    3
 10
119.63084249999986
 20
174.93852999999999
 11
119.5914775
 21
174.944154
  0
ARC
  8
_0-3_躯体と製品
  6
PLINE2
 62
    3
 10
119.58016450000002
 20
174.864958
 40
0.08
 50
81.869897999995629
 51
171.8698979999993
  0
LINE
  8
_0-3_躯体と製品
  6
PLINE2
 62
    3
 10
119.5009685
 20
174.876271
 11
119.31228149999993
 21
173.55546699999999
  0
LINE
  8
_0-3_躯体と製品
  6
PLINE2
 62
    3
 10
116.84215749999987
 20
174.93852999999999
 11
116.88152249999996
 21
174.944154
  0
ARC
  8
_0-3_躯体と製品
  6
PLINE2
 62
    3
 10
116.89283649999993
 20
174.864958
 40
0.08
 50
8.1301020000006723
 51
98.130102000004356
  0
LINE
  8
_0-3_躯体と製品
  6
PLINE2
 62
    3
 10
116.97203249999995
 20
174.876271
 11
117.16071850000003
 21
173.55546699999999
  0
LINE
  8
_0-3_躯体と製品
  6
PLINE2
 62
    3
 10
116.84215749999987
 20
174.93852999999999
 11
116.88152249999996
 21
174.944154
  0
ARC
  8
_0-3_躯体と製品
  6
PLINE2
 62
    3
 10
116.89283649999993
 20
174.864958
 40
0.08
 50
8.1301020000006723
 51
98.130102000004356
  0
LINE
  8
_0-3_躯体と製品
  6
PLINE2
 62
    3
 10
116.97203249999995
 20
174.876271
 11
117.16071850000003
 21
173.55546699999999
  0
LINE
  8
_0-3_躯体と製品
  6
PLINE2
 62
    3
 10
117.23650049999992
 20
176.51554300000001
 11
117.43650049999997
 21
175.51554300000001
  0
LINE
  8
_0-3_躯体と製品
  6
PLINE2
 62
    3
 10
117.43650049999997
 20
176.51554300000001
 11
117.43650049999997
 21
174.91554299999999
  0
LINE
  8
_0-3_躯体と製品
  6
PLINE2
 62
    3
 10
118.13650050000001
 20
174.91554299999999
 11
118.23650049999992
 21
174.91554299999999
  0
LINE
  8
_0-3_躯体と製品
  6
PLINE2
 62
    3
 10
118.23650049999992
 20
175.51554300000001
 11
118.23650049999992
 21
176.51554300000001
  0
LINE
  8
_0-3_躯体と製品
  6
PLINE2
 62
    3
 10
118.03650049999999
 20
176.51554300000001
 11
118.23650049999992
 21
175.51554300000001
  0
LINE
  8
_0-3_躯体と製品
  6
PLINE2
 62
    3
 10
118.43650049999985
 20
176.51554300000001
 11
118.23650049999992
 21
175.51554300000001
  0
LINE
  8
_0-3_躯体と製品
  6
PLINE2
 62
    3
 10
119.23650049999981
 20
176.51554300000001
 11
119.03650049999999
 21
175.51554300000001
  0
LINE
  8
_0-3_躯体と製品
  6
PLINE2
 62
    3
 10
119.03650049999999
 20
176.51554300000001
 11
119.03650049999999
 21
174.91554299999999
  0
LINE
  8
_0-3_躯体と製品
  6
PLINE2
 62
    3
 10
118.33650050000006
 20
174.91554299999999
 11
118.23650049999992
 21
174.91554299999999
  0
ARC
  8
_0-3_躯体と製品
  6
CONTINUOUS
 62
    2
 10
117.93594749999988
 20
177.489801
 40
0.5999999999999999
 50
128.61463800000061
 51
177.54107399999972
  0
ARC
  8
_0-3_躯体と製品
  6
CONTINUOUS
 62
    2
 10
118.23650049999992
 20
177.115543
 40
1.0800000000000001
 50
90
 51
128.68218700000079
  0
ARC
  8
_0-3_躯体と製品
  6
CONTINUOUS
 62
    2
 10
118.23650049999992
 20
177.115543
 40
1.0800000000000001
 50
51.148938000002367
 51
90
  0
ARC
  8
_0-3_躯体と製品
  6
CONTINUOUS
 62
    2
 10
118.53705250000007
 20
177.489801
 40
0.5999999999999999
 50
2.4589260000002127
 51
51.385361999999361
  0
LINE
  8
_0-3_躯体と製品
  6
CONTINUOUS
 62
    2
 10
120.03650049999987
 20
177.51554300000001
 11
120.03650049999987
 21
177.215543
  0
LINE
  8
_0-3_躯体と製品
  6
PLINE2
 62
    3
 10
117.78457549999996
 20
173.932614
 11
117.76364049999995
 21
173.533163
  0
LINE
  8
_0-3_躯体と製品
  6
PLINE2
 62
    3
 10
117.76364049999995
 20
173.533163
 11
117.36418949999995
 21
173.55409699999998
  0
LINE
  8
_0-3_躯体と製品
  6
PLINE2
 62
    3
 10
117.43650049999997
 20
174.115543
 11
117.78457549999996
 21
173.932614
  0
LINE
  8
_0-3_躯体と製品
  6
PLINE2
 62
    3
 10
118.6884245
 20
173.932614
 11
118.70935950000001
 21
173.533163
  0
LINE
  8
_0-3_躯体と製品
  6
PLINE2
 62
    3
 10
118.70935950000001
 20
173.533163
 11
119.1088115
 21
173.55409699999998
  0
LINE
  8
_0-3_躯体と製品
  6
PLINE2
 62
    3
 10
119.03650049999999
 20
174.115543
 11
118.6884245
 21
173.932614
  0
LINE
  8
_0-3_躯体と製品
  6
PLINE2
 62
    3
 10
117.43650049999997
 20
174.115543
 11
117.43650049999997
 21
174.91554299999999
  0
LINE
  8
_0-3_躯体と製品
  6
CONTINUOUS
 62
    3
 10
128.86391749999996
 20
174.51554300000001
 11
130.23650049999992
 21
175.888126
  0
LINE
  8
_0-3_躯体と製品
  6
CONTINUOUS
 62
    3
 10
127.44970349999994
 20
174.51554300000001
 11
129.44970349999994
 21
176.51554300000001
  0
LINE
  8
_0-3_躯体と製品
  6
CONTINUOUS
 62
    3
 10
126.03548950000004
 20
174.51554300000001
 11
128.03548950000004
 21
176.51554300000001
  0
LINE
  8
_0-3_躯体と製品
  6
CONTINUOUS
 62
    3
 10
124.62127650000002
 20
174.51554300000001
 11
126.62127650000002
 21
176.51554300000001
  0
LINE
  8
_0-3_躯体と製品
  6
CONTINUOUS
 62
    2
 10
131.63650050000001
 20
179.06554299999999
 11
131.73650049999981
 21
179.06554299999999
  0
LINE
  8
_0-3_躯体と製品
  6
CONTINUOUS
 62
    2
 10
131.73650049999981
 20
179.06554299999999
 11
131.63649950000001
 21
178.66554299999999
  0
LINE
  8
_0-3_躯体と製品
  6
CONTINUOUS
 62
    2
 10
131.63650050000001
 20
179.06554299999999
 11
131.59650050000005
 21
179.06554299999999
  0
LINE
  8
_0-3_躯体と製品
  6
CONTINUOUS
 62
    2
 10
131.59650050000005
 20
179.06554299999999
 11
131.59649949999994
 21
179.66554299999999
  0
ARC
  8
_0-3_躯体と製品
  6
CONTINUOUS
 62
    2
 10
125.83649949999995
 20
179.793057
 40
0.2999999999999999
 50
180
 51
270
  0
LINE
  8
_0-3_躯体と製品
  6
CONTINUOUS
 62
    2
 10
125.93649949999997
 20
179.49305699999999
 11
125.83649949999995
 21
179.49305699999999
  0
ARC
  8
_0-3_躯体と製品
  6
CONTINUOUS
 62
    2
 10
131.03649949999999
 20
178.01554300000001
 40
0.5999999999999999
 50
270
 51
359.99989699999952
  0
LINE
  8
_0-3_躯体と製品
  6
CONTINUOUS
 62
    2
 10
131.63650050000001
 20
178.66554299999999
 11
131.63649950000001
 21
178.01554199999998
  0
LINE
  8
_0-3_躯体と製品
  6
CONTINUOUS
 62
    2
 10
130.37088349999988
 20
176.51554300000001
 11
130.23650049999992
 21
176.51554300000001
  0
LINE
  8
_0-3_躯体と製品
  6
CONTINUOUS
 62
    2
 10
131.63649950000001
 20
178.66554299999999
 11
131.33649949999995
 21
178.66554299999999
  0
LINE
  8
_0-3_躯体と製品
  6
CONTINUOUS
 62
    2
 10
131.33649949999995
 20
178.66554299999999
 11
131.33649949999995
 21
179.66554299999999
  0
LINE
  8
_0-3_躯体と製品
  6
CONTINUOUS
 62
    2
 10
131.63649950000001
 20
179.66554299999999
 11
131.63650050000001
 21
179.06554299999999
  0
LINE
  8
_0-3_躯体と製品
  6
CONTINUOUS
 62
    2
 10
132.23649950000004
 20
179.06554299999999
 11
132.13649950000001
 21
179.06554299999999
  0
LINE
  8
_0-3_躯体と製品
  6
CONTINUOUS
 62
    2
 10
132.13649950000001
 20
179.06554299999999
 11
132.23649950000004
 21
178.66554299999999
  0
LINE
  8
_0-3_躯体と製品
  6
CONTINUOUS
 62
    2
 10
132.23649950000004
 20
179.06554299999999
 11
132.27649949999989
 21
179.06554299999999
  0
LINE
  8
_0-3_躯体と製品
  6
CONTINUOUS
 62
    2
 10
132.27649949999989
 20
179.06554299999999
 11
132.27649949999989
 21
179.66554299999999
  0
LINE
  8
_0-3_躯体と製品
  6
CONTINUOUS
 62
    2
 10
132.53649949999988
 20
179.66554299999999
 11
132.53649949999988
 21
178.66554299999999
  0
LINE
  8
_0-3_躯体と製品
  6
CONTINUOUS
 62
    2
 10
132.23649950000004
 20
178.66554299999999
 11
132.23649950000004
 21
176.91554299999999
  0
LINE
  8
_0-3_躯体と製品
  6
CONTINUOUS
 62
    2
 10
132.53649949999988
 20
178.66554299999999
 11
132.23649950000004
 21
178.66554299999999
  0
LINE
  8
_0-3_躯体と製品
  6
CONTINUOUS
 62
    2
 10
132.23649950000004
 20
179.66554299999999
 11
132.23649950000004
 21
179.06554299999999
  0
ARC
  8
_0-3_躯体と製品
  6
CONTINUOUS
 62
    2
 10
145.23649950000004
 20
178.81178700000001
 40
0.2999999999999999
 50
180
 51
0
  0
LINE
  8
_0-3_躯体と製品
  6
CONTINUOUS
 62
    2
 10
113.04649949999998
 20
180.91554299999999
 11
132.18649949999997
 21
180.91554299999999
  0
LINE
  8
_0-3_躯体と製品
  6
CONTINUOUS
 62
    2
 10
114.63649950000001
 20
181.51554400000001
 11
117.1364994999999
 21
181.51554300000001
  0
LINE
  8
_0-3_躯体と製品
  6
CONTINUOUS
 62
    2
 10
112.38649950000001
 20
181.41554299999999
 11
102.41634449999981
 21
181.41554299999999
  0
LINE
  8
_0-3_躯体と製品
  6
CONTINUOUS
 62
    2
 10
113.1364994999999
 20
180.91554299999999
 11
113.6364994999999
 21
180.91554299999999
  0
LINE
  8
_0-3_躯体と製品
  6
CONTINUOUS
 62
    2
 10
112.88649950000001
 20
180.115543
 11
112.68649949999985
 21
180.115543
  0
ARC
  8
_0-3_躯体と製品
  6
CONTINUOUS
 62
    2
 10
112.68649949999985
 20
180.215543
 40
0.1
 50
180
 51
270
  0
LINE
  8
_0-3_躯体と製品
  6
CONTINUOUS
 62
    2
 10
112.58649949999995
 20
181.31554299999999
 11
112.58649949999995
 21
180.215543
  0
ARC
  8
_0-3_躯体と製品
  6
CONTINUOUS
 62
    2
 10
112.88649950000001
 20
180.215543
 40
0.1
 50
270
 51
0
  0
ARC
  8
_0-3_躯体と製品
  6
CONTINUOUS
 62
    2
 10
113.04649949999998
 20
180.85554299999998
 40
0.0599999999999999
 50
90
 51
180
  0
LINE
  8
_0-3_躯体と製品
  6
CONTINUOUS
 62
    2
 10
112.98649950000004
 20
180.215543
 11
112.98649950000004
 21
180.85554299999998
  0
LINE
  8
_0-3_躯体と製品
  6
CONTINUOUS
 62
    2
 10
112.78649949999999
 20
181.51554300000001
 11
112.58649949999995
 21
181.31554299999999
  0
LINE
  8
_0-3_躯体と製品
  6
CONTINUOUS
 62
    2
 10
114.43650049999985
 20
181.51554400000001
 11
112.78653450000002
 21
181.515578
  0
LINE
  8
_0-3_躯体と製品
  6
CONTINUOUS
 62
    2
 10
114.63649950000001
 20
181.51554400000001
 11
114.53649949999999
 21
181.41554399999998
  0
LINE
  8
_0-3_躯体と製品
  6
CONTINUOUS
 62
    2
 10
114.53649949999999
 20
181.41554399999998
 11
114.43650049999985
 21
181.51554300000001
  0
LINE
  8
_0-3_躯体と製品
  6
CONTINUOUS
 62
    3
 10
114.13649950000001
 20
180.95554999999999
 11
114.93649949999985
 21
180.95554999999999
  0
LINE
  8
_0-3_躯体と製品
  6
CONTINUOUS
 62
    3
 10
114.93649949999985
 20
180.95554999999999
 11
115.49649950000003
 21
181.51554999999999
  0
LINE
  8
_0-3_躯体と製品
  6
CONTINUOUS
 62
    3
 10
113.57649949999995
 20
181.51554999999999
 11
114.13649950000001
 21
180.95554999999999
  0
LINE
  8
_0-3_躯体と製品
  6
CONTINUOUS
 62
    2
 10
115.63649950000001
 20
180.115543
 11
113.73649950000004
 21
180.115543
  0
ARC
  8
_0-3_躯体と製品
  6
CONTINUOUS
 62
    2
 10
112.38649950000001
 20
181.26554300000001
 40
0.1499999999999999
 50
0
 51
180
  0
LINE
  8
_0-3_躯体と製品
  6
CONTINUOUS
 62
    2
 10
114.63649950000001
 20
180.615543
 11
114.53649949999999
 21
180.51554300000001
  0
LINE
  8
_0-3_躯体と製品
  6
CONTINUOUS
 62
    2
 10
114.43649949999985
 20
180.615543
 11
114.53649949999999
 21
180.51554300000001
  0
LINE
  8
_0-3_躯体と製品
  6
CONTINUOUS
 62
    2
 10
115.43649949999985
 20
180.91554299999999
 11
115.93649949999985
 21
180.91554299999999
  0
LINE
  8
_0-3_躯体と製品
  6
CONTINUOUS
 62
    2
 10
113.1364994999999
 20
180.91554299999999
 11
113.6364994999999
 21
180.91554299999999
  0
ARC
  8
_0-3_躯体と製品
  6
CONTINUOUS
 62
    2
 10
112.93649949999997
 20
180.01554300000001
 40
0.1
 50
270
 51
0
  0
LINE
  8
_0-3_躯体と製品
  6
CONTINUOUS
 62
    2
 10
112.93649949999997
 20
179.91554299999999
 11
112.63649950000001
 21
179.91554299999999
  0
LINE
  8
_0-3_躯体と製品
  6
CONTINUOUS
 62
    2
 10
113.03649949999988
 20
180.01554300000001
 11
113.03649949999988
 21
180.81554299999999
  0
ARC
  8
_0-3_躯体と製品
  6
CONTINUOUS
 62
    2
 10
112.63649950000001
 20
180.01554300000001
 40
0.1
 50
180
 51
270
  0
LINE
  8
_0-3_躯体と製品
  6
CONTINUOUS
 62
    2
 10
112.53649949999988
 20
181.26554300000001
 11
112.53649949999988
 21
180.01554300000001
  0
LINE
  8
_0-3_躯体と製品
  6
CONTINUOUS
 62
    2
 10
113.73649950000004
 20
180.615543
 11
113.73649950000004
 21
180.81554299999999
  0
LINE
  8
_0-3_躯体と製品
  6
CONTINUOUS
 62
    2
 10
115.33649949999995
 20
180.615543
 11
114.63649950000001
 21
180.615543
  0
LINE
  8
_0-3_躯体と製品
  6
CONTINUOUS
 62
    2
 10
113.73649950000004
 20
180.615543
 11
114.43649949999985
 21
180.615543
  0
LINE
  8
_0-3_躯体と製品
  6
CONTINUOUS
 62
    2
 10
115.33649949999995
 20
180.615543
 11
115.33649949999995
 21
180.81554299999999
  0
ARC
  8
_0-3_躯体と製品
  6
CONTINUOUS
 62
    2
 10
115.43649949999985
 20
180.81554299999999
 40
0.1
 50
90
 51
180
  0
ARC
  8
_0-3_躯体と製品
  6
CONTINUOUS
 62
    2
 10
115.93649949999985
 20
180.81554299999999
 40
0.1
 50
0
 51
90
  0
LINE
  8
_0-3_躯体と製品
  6
CONTINUOUS
 62
    2
 10
115.43649949999985
 20
180.91554299999999
 11
115.93649949999985
 21
180.91554299999999
  0
ARC
  8
_0-3_躯体と製品
  6
CONTINUOUS
 62
    2
 10
113.1364994999999
 20
180.81554299999999
 40
0.1
 50
90
 51
180
  0
ARC
  8
_0-3_躯体と製品
  6
CONTINUOUS
 62
    2
 10
113.6364994999999
 20
180.81554299999999
 40
0.1
 50
0
 51
90
  0
LINE
  8
_0-3_躯体と製品
  6
CONTINUOUS
 62
    2
 10
116.03649949999988
 20
180.51554300000001
 11
116.03649949999988
 21
180.81554299999999
  0
ARC
  8
_0-3_躯体と製品
  6
CONTINUOUS
 62
    2
 10
115.63649950000001
 20
180.51554300000001
 40
0.4
 50
270
 51
0
  0
ARC
  8
_0-3_躯体と製品
  6
CONTINUOUS
 62
    2
 10
113.73649950000004
 20
179.91554299999999
 40
0.2
 50
90
 51
180
  0
LINE
  8
_0-3_躯体と製品
  6
CONTINUOUS
 62
    3
 10
114.13649950000001
 20
180.35554400000001
 11
114.23649950000004
 21
180.45712399999999
  0
LINE
  8
_0-3_躯体と製品
  6
CONTINUOUS
 62
    3
 10
114.93649949999985
 20
180.65554399999999
 11
114.13649950000001
 21
180.35554400000001
  0
LINE
  8
_0-3_躯体と製品
  6
CONTINUOUS
 62
    3
 10
114.23649950000004
 20
179.857124
 11
114.83649949999995
 21
180.08212399999999
  0
LINE
  8
_0-3_躯体と製品
  6
CONTINUOUS
 62
    3
 10
114.83649949999995
 20
180.08212399999999
 11
114.93649949999985
 21
180.055544
  0
LINE
  8
_0-3_躯体と製品
  6
CONTINUOUS
 62
    3
 10
114.93649949999985
 20
180.055544
 11
114.83649949999995
 21
179.95396399999998
  0
LINE
  8
_0-3_躯体と製品
  6
CONTINUOUS
 62
    3
 10
114.93649949999985
 20
180.955544
 11
114.13649950000001
 21
180.955544
  0
LINE
  8
_0-3_躯体と製品
  6
CONTINUOUS
 62
    2
 10
114.13649950000001
 20
180.955544
 11
113.57649949999995
 21
181.51554400000001
  0
LINE
  8
_0-3_躯体と製品
  6
CONTINUOUS
 62
    2
 10
115.49649950000003
 20
181.51554400000001
 11
114.93649949999985
 21
180.955544
  0
LINE
  8
_0-3_躯体と製品
  6
CONTINUOUS
 62
    3
 10
114.23649950000004
 20
180.15712399999998
 11
114.83649949999995
 21
180.382124
  0
LINE
  8
_0-3_躯体と製品
  6
CONTINUOUS
 62
    3
 10
114.83649949999995
 20
180.382124
 11
114.93649949999985
 21
180.35554400000001
  0
LINE
  8
_0-3_躯体と製品
  6
CONTINUOUS
 62
    3
 10
114.93649949999985
 20
180.35554400000001
 11
114.83649949999995
 21
180.253964
  0
LINE
  8
_0-3_躯体と製品
  6
CONTINUOUS
 62
    3
 10
114.83649949999995
 20
180.253964
 11
114.23649950000004
 21
180.028964
  0
LINE
  8
_0-3_躯体と製品
  6
CONTINUOUS
 62
    3
 10
114.23649950000004
 20
180.028964
 11
114.13649950000001
 21
180.055544
  0
LINE
  8
_0-3_躯体と製品
  6
CONTINUOUS
 62
    3
 10
114.13649950000001
 20
180.055544
 11
114.23649950000004
 21
180.15712399999998
  0
LINE
  8
_0-3_躯体と製品
  6
CONTINUOUS
 62
    3
 10
114.93649949999985
 20
180.35554400000001
 11
114.13649950000001
 21
180.055544
  0
LINE
  8
_0-3_躯体と製品
  6
CONTINUOUS
 62
    3
 10
114.23649950000004
 20
180.018044
 11
114.23649950000004
 21
179.857124
  0
LINE
  8
_0-3_躯体と製品
  6
CONTINUOUS
 62
    3
 10
114.83649949999995
 20
180.253964
 11
114.83649949999995
 21
180.08212399999999
  0
LINE
  8
_0-3_躯体と製品
  6
CONTINUOUS
 62
    3
 10
114.23649950000004
 20
180.955544
 11
114.23649950000004
 21
180.757124
  0
LINE
  8
_0-3_躯体と製品
  6
CONTINUOUS
 62
    3
 10
114.83649949999995
 20
180.85396399999999
 11
114.83649949999995
 21
180.68212399999999
  0
LINE
  8
_0-3_躯体と製品
  6
CONTINUOUS
 62
    3
 10
114.23649950000004
 20
180.628964
 11
114.23649950000004
 21
180.45712399999999
  0
LINE
  8
_0-3_躯体と製品
  6
CONTINUOUS
 62
    3
 10
114.83649949999995
 20
180.55396400000001
 11
114.83649949999995
 21
180.382124
  0
LINE
  8
_0-3_躯体と製品
  6
CONTINUOUS
 62
    3
 10
114.23649950000004
 20
180.32896399999998
 11
114.23649950000004
 21
180.15712399999998
  0
LINE
  8
_0-3_躯体と製品
  6
CONTINUOUS
 62
    3
 10
114.23649950000004
 20
180.757124
 11
114.76561949999996
 21
180.955544
  0
LINE
  8
_0-3_躯体と製品
  6
CONTINUOUS
 62
    3
 10
114.93649949999985
 20
180.955544
 11
114.83649949999995
 21
180.85396399999999
  0
LINE
  8
_0-3_躯体と製品
  6
CONTINUOUS
 62
    3
 10
114.83649949999995
 20
180.85396399999999
 11
114.23649950000004
 21
180.628964
  0
LINE
  8
_0-3_躯体と製品
  6
CONTINUOUS
 62
    3
 10
114.23649950000004
 20
180.628964
 11
114.13649950000001
 21
180.65554399999999
  0
LINE
  8
_0-3_躯体と製品
  6
CONTINUOUS
 62
    3
 10
114.13649950000001
 20
180.65554399999999
 11
114.23649950000004
 21
180.757124
  0
LINE
  8
_0-3_躯体と製品
  6
CONTINUOUS
 62
    3
 10
114.93649949999985
 20
180.955544
 11
114.13649950000001
 21
180.65554399999999
  0
LINE
  8
_0-3_躯体と製品
  6
CONTINUOUS
 62
    3
 10
114.23649950000004
 20
180.45712399999999
 11
114.83649949999995
 21
180.68212399999999
  0
LINE
  8
_0-3_躯体と製品
  6
CONTINUOUS
 62
    3
 10
114.83649949999995
 20
180.68212399999999
 11
114.93649949999985
 21
180.65554399999999
  0
LINE
  8
_0-3_躯体と製品
  6
CONTINUOUS
 62
    3
 10
114.93649949999985
 20
180.65554399999999
 11
114.83649949999995
 21
180.55396400000001
  0
LINE
  8
_0-3_躯体と製品
  6
CONTINUOUS
 62
    3
 10
114.83649949999995
 20
180.55396400000001
 11
114.23649950000004
 21
180.32896399999998
  0
LINE
  8
_0-3_躯体と製品
  6
CONTINUOUS
 62
    3
 10
114.23649950000004
 20
180.32896399999998
 11
114.13649950000001
 21
180.35554400000001
  0
LINE
  8
_0-3_躯体と製品
  6
CONTINUOUS
 62
    2
 10
131.8864994999999
 20
181.51554300000001
 11
132.18649949999997
 21
181.215543
  0
ARC
  8
_0-3_躯体と製品
  6
CONTINUOUS
 62
    2
 10
145.23649950000004
 20
-178.78821299999993
 40
359.2999999999999
 50
90.047839999997066
 51
93.064041000001509
  0
ARC
  8
_0-3_躯体と製品
  6
CONTINUOUS
 62
    2
 10
145.23649950000004
 20
-178.78821299999993
 40
360
 50
90.795799999995097
 51
92.107321000003125
  0
LINE
  8
_0-3_躯体と製品
  6
CONTINUOUS
 62
    2
 10
124.13649950000001
 20
181.51554300000001
 11
126.1364994999999
 21
181.51554300000001
  0
LINE
  8
_0-3_躯体と製品
  6
CONTINUOUS
 62
    2
 10
117.1364994999999
 20
181.51554300000001
 11
117.1364994999999
 21
181.45554300000001
  0
LINE
  8
_0-3_躯体と製品
  6
CONTINUOUS
 62
    2
 10
117.1364994999999
 20
181.45554300000001
 11
118.13649950000001
 21
181.45554300000001
  0
LINE
  8
_0-3_躯体と製品
  6
CONTINUOUS
 62
    2
 10
118.13649950000001
 20
181.45554300000001
 11
118.13649950000001
 21
181.51554300000001
  0
LINE
  8
_0-3_躯体と製品
  6
CONTINUOUS
 62
    2
 10
118.13649950000001
 20
181.51554300000001
 11
120.13649950000001
 21
181.51554300000001
  0
LINE
  8
_0-3_躯体と製品
  6
CONTINUOUS
 62
    2
 10
120.13649950000001
 20
181.51554300000001
 11
120.13649950000001
 21
181.45554300000001
  0
LINE
  8
_0-3_躯体と製品
  6
CONTINUOUS
 62
    2
 10
120.13649950000001
 20
181.45554300000001
 11
121.13649950000001
 21
181.45554300000001
  0
LINE
  8
_0-3_躯体と製品
  6
CONTINUOUS
 62
    2
 10
121.13649950000001
 20
181.45554300000001
 11
121.13649950000001
 21
181.51554300000001
  0
LINE
  8
_0-3_躯体と製品
  6
CONTINUOUS
 62
    2
 10
121.13649950000001
 20
181.51554300000001
 11
123.13649950000001
 21
181.51554300000001
  0
LINE
  8
_0-3_躯体と製品
  6
CONTINUOUS
 62
    2
 10
123.13649950000001
 20
181.51554300000001
 11
123.13649950000001
 21
181.45554300000001
  0
LINE
  8
_0-3_躯体と製品
  6
CONTINUOUS
 62
    2
 10
123.13649950000001
 20
181.45554300000001
 11
124.13649950000001
 21
181.45554300000001
  0
LINE
  8
_0-3_躯体と製品
  6
CONTINUOUS
 62
    2
 10
124.13649950000001
 20
181.45554300000001
 11
124.13649950000001
 21
181.51554300000001
  0
LINE
  8
_0-3_躯体と製品
  6
CONTINUOUS
 62
    2
 10
131.87864349999995
 20
180.96387899999999
 11
131.93649949999985
 21
180.90602200000001
  0
LINE
  8
_0-3_躯体と製品
  6
CONTINUOUS
 62
    2
 10
131.93649949999985
 20
180.90602200000001
 11
131.99879750000002
 21
180.96832000000001
  0
ARC
  8
_0-3_躯体と製品
  6
CONTINUOUS
 62
    2
 10
126.03649949999999
 20
179.898279
 40
0.1
 50
93.064041000001495
 51
180
  0
ARC
  8
_0-3_躯体と製品
  6
CONTINUOUS
 62
    2
 10
145.23649950000004
 20
-178.78821299999993
 40
360
 50
92.126456999998524
 51
93.076585000001359
  0
ARC
  8
_0-3_躯体と製品
  6
CONTINUOUS
 62
    2
 10
125.93649949999997
 20
180.29349099999999
 40
0.4
 50
93.076585000001359
 51
180
  0
LINE
  8
_0-3_躯体と製品
  6
CONTINUOUS
 62
    2
 10
130.1364994999999
 20
181.45554300000001
 11
130.1364994999999
 21
181.51554300000001
  0
LINE
  8
_0-3_躯体と製品
  6
CONTINUOUS
 62
    2
 10
130.1364994999999
 20
181.51554300000001
 11
131.8864994999999
 21
181.51554300000001
  0
LINE
  8
_0-3_躯体と製品
  6
CONTINUOUS
 62
    2
 10
126.1364994999999
 20
181.51554300000001
 11
126.1364994999999
 21
181.45554300000001
  0
LINE
  8
_0-3_躯体と製品
  6
CONTINUOUS
 62
    2
 10
126.1364994999999
 20
181.45554300000001
 11
127.13649950000001
 21
181.45554300000001
  0
LINE
  8
_0-3_躯体と製品
  6
CONTINUOUS
 62
    2
 10
127.13649950000001
 20
181.45554300000001
 11
127.13649950000001
 21
181.51554300000001
  0
LINE
  8
_0-3_躯体と製品
  6
CONTINUOUS
 62
    2
 10
127.13649950000001
 20
181.51554300000001
 11
129.13649950000001
 21
181.51554300000001
  0
LINE
  8
_0-3_躯体と製品
  6
CONTINUOUS
 62
    2
 10
129.13649950000001
 20
181.51554300000001
 11
129.13649950000001
 21
181.45554300000001
  0
LINE
  8
_0-3_躯体と製品
  6
CONTINUOUS
 62
    2
 10
129.13649950000001
 20
181.45554300000001
 11
130.1364994999999
 21
181.45554300000001
  0
LINE
  8
_0-3_躯体と製品
  6
CONTINUOUS
 62
    2
 10
132.18649949999997
 20
181.215543
 11
132.18649949999997
 21
180.91554299999999
  0
ARC
  8
_0-3_躯体と製品
  6
CONTINUOUS
 62
    2
 10
145.23649950000004
 20
-178.78821299999993
 40
360
 50
90
 51
90.159154999999288
  0
ARC
  8
_0-3_躯体と製品
  6
CONTINUOUS
 62
    2
 10
145.23649950000004
 20
-178.78821299999993
 40
360
 50
90.318311999997306
 51
90.63663300000141
  0
ARC
  8
_0-3_躯体と製品
  6
CONTINUOUS
 62
    2
 10
145.23649950000004
 20
-178.78821299999993
 40
359.94
 50
90.159181999998069
 51
90.318365000003865
  0
ARC
  8
_0-3_躯体と製品
  6
CONTINUOUS
 62
    2
 10
145.23649950000004
 20
-178.78821299999993
 40
359.94
 50
90.636738999998499
 51
90.795933000004425
  0
LINE
  8
_0-3_躯体と製品
  6
CONTINUOUS
 62
    2
 10
140.23649950000004
 20
181.177063
 11
140.23649950000004
 21
181.11705699999999
  0
LINE
  8
_0-3_躯体と製品
  6
CONTINUOUS
 62
    2
 10
141.23649950000004
 20
181.18956399999999
 11
141.23649950000004
 21
181.12956
  0
LINE
  8
_0-3_躯体と製品
  6
CONTINUOUS
 62
    2
 10
143.23649950000004
 20
181.20623099999989
 11
143.23649950000004
 21
181.14623
  0
LINE
  8
_0-3_躯体と製品
  6
CONTINUOUS
 62
    2
 10
144.23649950000004
 20
181.150397
 11
144.23649950000004
 21
181.210398
  0
ARC
  8
_0-3_躯体と製品
  6
CONTINUOUS
 62
    2
 10
145.23649950000004
 20
-178.78821299999993
 40
360
 50
89.840845000000712
 51
89.999999999999986
  0
ARC
  8
_0-3_躯体と製品
  6
CONTINUOUS
 62
    2
 10
145.23649950000004
 20
-178.78821299999993
 40
359.94
 50
89.681634999996135
 51
89.840817999995451
  0
LINE
  8
_0-3_躯体と製品
  6
CONTINUOUS
 62
    2
 10
147.23649950000004
 20
181.20623099999989
 11
147.23649950000004
 21
181.14623
  0
LINE
  8
_0-3_躯体と製品
  6
CONTINUOUS
 62
    2
 10
146.23649950000004
 20
181.150397
 11
146.23649950000004
 21
181.210398
  0
TEXT
  8
_0-4_図面枠
 62
    7
 10
77.331786500000021
 20
236.398124
 40
2
 41
0.8
 50
0
  1
（アルミ１５０タイプ）
  0
LINE
  8
_0-4_図面枠
  6
CONTINUOUS
 62
    1
 10
210.00806650000004
 20
241.41628399999999
 11
210.00806650000004
 21
55.58371600000001
  0
LINE
  8
_0-4_図面枠
  6
CONTINUOUS
 62
    1
 10
345.46745550000014
 20
55.58371600000001
 11
345.46745550000014
 21
241.41628399999999
  0
LINE
  8
_0-4_図面枠
  6
CONTINUOUS
 62
    1
 10
326.4044275
 20
121.777117
 11
229.07109449999984
 21
121.777117
  0
LINE
  8
_0-4_図面枠
  6
CONTINUOUS
 62
    1
 10
326.4044275
 20
128.97711699999999
 11
229.07109449999984
 21
128.97711699999999
  0
LINE
  8
_0-4_図面枠
  6
CONTINUOUS
 62
    2
 10
326.4044275
 20
77.777117000000032
 11
229.07109449999984
 21
77.777117000000032
  0
LINE
  8
_0-4_図面枠
  6
CONTINUOUS
 62
    1
 10
326.4044275
 20
73.777117000000018
 11
229.07109449999984
 21
73.777117000000018
  0
LINE
  8
_0-4_図面枠
  6
CONTINUOUS
 62
    2
 10
326.4044275
 20
81.777117000000004
 11
229.07109449999984
 21
81.777117000000004
  0
LINE
  8
_0-4_図面枠
  6
CONTINUOUS
 62
    2
 10
326.4044275
 20
85.777117000000018
 11
229.07109449999984
 21
85.777117000000018
  0
LINE
  8
_0-4_図面枠
  6
CONTINUOUS
 62
    2
 10
326.4044275
 20
93.77711699999999
 11
229.07109449999984
 21
93.77711699999999
  0
LINE
  8
_0-4_図面枠
  6
CONTINUOUS
 62
    2
 10
326.4044275
 20
97.77711699999999
 11
229.07109449999984
 21
97.77711699999999
  0
LINE
  8
_0-4_図面枠
  6
CONTINUOUS
 62
    2
 10
326.4044275
 20
101.77711699999999
 11
229.07109449999984
 21
101.77711699999999
  0
LINE
  8
_0-4_図面枠
  6
CONTINUOUS
 62
    2
 10
326.4044275
 20
105.77711699999999
 11
229.07109449999984
 21
105.77711699999999
  0
LINE
  8
_0-4_図面枠
  6
CONTINUOUS
 62
    2
 10
326.4044275
 20
109.77711699999999
 11
229.07109449999984
 21
109.77711699999999
  0
LINE
  8
_0-4_図面枠
  6
CONTINUOUS
 62
    2
 10
326.4044275
 20
113.77711699999999
 11
229.07109449999984
 21
113.77711699999999
  0
LINE
  8
_0-4_図面枠
  6
CONTINUOUS
 62
    2
 10
326.4044275
 20
117.77711699999999
 11
229.07109449999984
 21
117.77711699999999
  0
LINE
  8
_0-4_図面枠
  6
CONTINUOUS
 62
    2
 10
326.4044275
 20
89.777117000000018
 11
229.07109449999984
 21
89.777117000000018
  0
TEXT
  8
_0-4_図面枠
 62
    7
 10
229.07109949999995
 20
69.110452000000009
 40
2
 41
0.8
 50
0
  1
注）　ガスケットＫはＴＣサイドキャップ（Ｃ）Ａにセット済み。
  0
LINE
  8
_0-4_図面枠
  6
CONTINUOUS
 62
    1
 10
233.87109449999991
 20
73.777117000000018
 11
233.87109449999991
 21
128.97711699999999
  0
LINE
  8
_0-4_図面枠
  6
CONTINUOUS
 62
    1
 10
229.07109449999984
 20
73.777117000000018
 11
229.07109449999984
 21
128.97711699999999
  0
TEXT
  8
_0-4_図面枠
 62
    7
 10
234.67109049999999
 20
74.577123000000014
 40
2
 41
0.8
 50
0
  1
ブチルテープ
  0
TEXT
  8
_0-4_図面枠
 62
    7
 10
232.34187316666669
 20
74.577123000000014
 40
2
 41
0.8
 50
0
  1
※
  0
TEXT
  8
_0-4_図面枠
 62
    7
 10
187.46505083333329
 20
102.577125
 40
2
 41
0.8
 50
0
  1
本
  0
TEXT
  8
_0-4_図面枠
 62
    7
 10
181.51837716666671
 20
102.577125
 40
2
 41
0.8
 50
0
  1
１２
  0
LINE
  8
_0-4_図面枠
  6
CONTINUOUS
 62
    1
 10
190.61170549999986
 20
85.777117000000018
 11
190.61170549999986
 21
128.97711699999999
  0
LINE
  8
_0-4_図面枠
  6
CONTINUOUS
 62
    1
 10
185.81170550000002
 20
85.777117000000018
 11
185.81170550000002
 21
128.97711699999999
  0
LINE
  8
_0-4_図面枠
  6
CONTINUOUS
 62
    1
 10
179.41170549999993
 20
85.777117000000018
 11
179.41170549999993
 21
128.97711699999999
  0
LINE
  8
_0-4_図面枠
  6
CONTINUOUS
 62
    1
 10
167.41170549999993
 20
85.777117000000018
 11
167.41170549999993
 21
128.97711699999999
  0
TEXT
  8
_0-4_図面枠
 62
    7
 10
187.46505083333329
 20
90.577120999999991
 40
2
 41
0.8
 50
0
  1
枚
  0
TEXT
  8
_0-4_図面枠
 62
    7
 10
181.51837716666671
 20
90.577120999999991
 40
2
 41
0.8
 50
0
  1
１６
  0
TEXT
  8
_0-4_図面枠
 62
    7
 10
183.65171050000004
 20
86.57712100000002
 40
2
 41
0.8
 50
0
  1
１
  0
TEXT
  8
_0-4_図面枠
 62
    7
 10
187.46505083333329
 20
86.57712100000002
 40
2
 41
0.8
 50
0
  1
巻
  0
TEXT
  8
_0-4_図面枠
 62
    7
 10
181.51837716666671
 20
94.577124999999995
 40
2
 41
0.8
 50
0
  1
１６
  0
TEXT
  8
_0-4_図面枠
 62
    7
 10
187.46505083333329
 20
94.577124999999995
 40
2
 41
0.8
 50
0
  1
〃
  0
TEXT
  8
_0-4_図面枠
 62
    7
 10
181.51837716666671
 20
98.577124999999995
 40
2
 41
0.8
 50
0
  1
１６
  0
TEXT
  8
_0-4_図面枠
 62
    7
 10
187.46505083333329
 20
98.577124999999995
 40
2
 41
0.8
 50
0
  1
〃
  0
TEXT
  8
_0-4_図面枠
 62
    7
 10
169.83837316666666
 20
114.5771249999999
 40
2
 41
0.8
 50
0
  1
３０００
  0
TEXT
  8
_0-4_図面枠
 62
    7
 10
169.83837316666666
 20
106.57712099999999
 40
2
 41
0.8
 50
0
  1
３０６０
  0
TEXT
  8
_0-4_図面枠
 62
    7
 10
169.83837316666666
 20
110.57712099999999
 40
2
 41
0.8
 50
0
  1
３０００
  0
TEXT
  8
_0-4_図面枠
 62
    7
 10
169.78503983333326
 20
122.577125
 40
2
 41
0.8
 50
0
  1
（ｍｍ）
  0
TEXT
  8
_0-4_図面枠
 62
    7
 10
169.83837316666666
 20
118.57711699999999
 40
2
 41
0.8
 50
0
  1
３０００
  0
TEXT
  8
_0-4_図面枠
 62
    7
 10
170.74503983333341
 20
125.77712199999999
 40
2
 41
0.8
 50
0
  1
定　尺
  0
TEXT
  8
_0-4_図面枠
 62
    7
 10
187.46505083333329
 20
114.5771249999999
 40
2
 41
0.8
 50
0
  1
〃
  0
TEXT
  8
_0-4_図面枠
 62
    7
 10
183.65171050000004
 20
114.5771249999999
 40
2
 41
0.8
 50
0
  1
１
  0
TEXT
  8
_0-4_図面枠
 62
    7
 10
183.65171050000004
 20
106.57712099999999
 40
2
 41
0.8
 50
0
  1
１
  0
TEXT
  8
_0-4_図面枠
 62
    7
 10
187.46505083333329
 20
106.57712099999999
 40
2
 41
0.8
 50
0
  1
枚
  0
TEXT
  8
_0-4_図面枠
 62
    7
 10
183.43837716666667
 20
110.57712099999999
 40
2
 41
0.8
 50
0
  1
２
  0
TEXT
  8
_0-4_図面枠
 62
    7
 10
187.46505083333329
 20
110.57712099999999
 40
2
 41
0.8
 50
0
  1
〃
  0
TEXT
  8
_0-4_図面枠
 62
    7
 10
180.90504383333325
 20
122.577125
 40
2
 41
0.8
 50
0
  1
数量
  0
TEXT
  8
_0-4_図面枠
 62
    7
 10
183.43837716666667
 20
118.57711699999999
 40
2
 41
0.8
 50
0
  1
２
  0
TEXT
  8
_0-4_図面枠
 62
    7
 10
187.46505083333329
 20
118.57711699999999
 40
2
 41
0.8
 50
0
  1
本
  0
TEXT
  8
_0-4_図面枠
 62
    7
 10
180.95837716666676
 20
125.77712199999999
 40
2
 41
0.8
 50
0
  1
使用
  0
TEXT
  8
_0-4_図面枠
 62
    7
 10
186.33497483333326
 20
125.77712199999999
 40
2
 41
0.8
 50
0
  1
単位
  0
TEXT
  8
_0-4_図面枠
 62
    7
 10
232.34187316666669
 20
102.577125
 40
2
 41
0.8
 50
0
  1
５
  0
TEXT
  8
_0-4_図面枠
 62
    7
 10
234.67109049999999
 20
102.577125
 40
2
 41
0.8
 50
0
  1
ＴＣ壁フレーム（Ｃ）
  0
TEXT
  8
_0-4_図面枠
 62
    7
 10
234.67109049999999
 20
98.577124999999995
 40
2
 41
0.8
 50
0
  1
止水補助板
  0
TEXT
  8
_0-4_図面枠
 62
    7
 10
234.67109049999999
 20
78.577125000000024
 40
2
 41
0.8
 50
0
  1
ステンワッシャー
  0
TEXT
  8
_0-4_図面枠
 62
    7
 10
234.67109049999999
 20
82.577125000000009
 40
2
 41
0.8
 50
0
  1
ステンタッピンねじ
  0
TEXT
  8
_0-4_図面枠
 62
    7
 10
234.67109049999999
 20
86.57712100000002
 40
2
 41
0.8
 50
0
  1
アンカープラグ
  0
TEXT
  8
_0-4_図面枠
 62
    7
 10
234.67109049999999
 20
90.577120999999991
 40
2
 41
0.8
 50
0
  1
ステンドリリングねじ
  0
TEXT
  8
_0-4_図面枠
 62
    7
 10
234.67109049999999
 20
94.577124999999995
 40
2
 41
0.8
 50
0
  1
ガスケットＫ
  0
TEXT
  8
_0-4_図面枠
 62
    7
 10
232.34187316666669
 20
90.577120999999991
 40
2
 41
0.8
 50
0
  1
８
  0
TEXT
  8
_0-4_図面枠
 62
    7
 10
230.42187316666661
 20
82.577125000000009
 40
2
 41
0.8
 50
0
  1
１０
  0
TEXT
  8
_0-4_図面枠
 62
    7
 10
230.63520649999987
 20
78.577125000000024
 40
2
 41
0.8
 50
0
  1
１１
  0
TEXT
  8
_0-4_図面枠
 62
    7
 10
232.34187316666669
 20
86.57712100000002
 40
2
 41
0.8
 50
0
  1
９
  0
TEXT
  8
_0-4_図面枠
 62
    7
 10
232.23520649999989
 20
94.577124999999995
 40
2
 41
0.8
 50
0
  1
７
  0
TEXT
  8
_0-4_図面枠
 62
    7
 10
232.34187316666669
 20
98.577124999999995
 40
2
 41
0.8
 50
0
  1
６
  0
TEXT
  8
_0-4_図面枠
 62
    7
 10
234.67109049999999
 20
118.57711699999999
 40
2
 41
0.8
 50
0
  1
ＴＴサイドプレート（Ｃ）
  0
TEXT
  8
_0-4_図面枠
 62
    7
 10
234.67109049999999
 20
106.57712099999999
 40
2
 41
0.8
 50
0
  1
ＴＣＮサイドキャップ（Ｃ）Ａ
  0
TEXT
  8
_0-4_図面枠
 62
    7
 10
234.67109049999999
 20
110.57712099999999
 40
2
 41
0.8
 50
0
  1
ＴＴフレーム（Ｃ）
  0
TEXT
  8
_0-4_図面枠
 62
    7
 10
234.67109049999999
 20
114.5771249999999
 40
2
 41
0.8
 50
0
  1
ＴＣセンタープレート（Ｃ）
  0
TEXT
  8
_0-4_図面枠
 62
    7
 10
232.34187316666669
 20
114.5771249999999
 40
2
 41
0.8
 50
0
  1
２
  0
TEXT
  8
_0-4_図面枠
 62
    7
 10
232.23520649999989
 20
106.57712099999999
 40
2
 41
0.8
 50
0
  1
４
  0
TEXT
  8
_0-4_図面枠
 62
    7
 10
232.34187316666669
 20
110.57712099999999
 40
2
 41
0.8
 50
0
  1
３
  0
TEXT
  8
_0-4_図面枠
 62
    7
 10
230.63520649999987
 20
118.57711699999999
 40
2
 41
0.8
 50
0
  1
　１
  0
TEXT
  8
_0-4_図面枠
 62
    7
 10
247.24443583333323
 20
125.777129
 40
2
 41
0.8
 50
0
  1
部材名称
  0
LINE
  8
_0-4_図面枠
  6
CONTINUOUS
 62
    1
 10
326.4044275
 20
73.777117000000018
 11
326.4044275
 21
128.97711699999999
  0
LINE
  8
_0-4_図面枠
  6
CONTINUOUS
 62
    1
 10
321.60442749999982
 20
73.777117000000018
 11
321.60442749999982
 21
128.97711699999999
  0
LINE
  8
_0-4_図面枠
  6
CONTINUOUS
 62
    1
 10
315.20442749999995
 20
73.777117000000018
 11
315.20442749999995
 21
128.97711699999999
  0
LINE
  8
_0-4_図面枠
  6
CONTINUOUS
 62
    1
 10
303.20442749999995
 20
73.777117000000018
 11
303.20442749999995
 21
128.97711699999999
  0
LINE
  8
_0-4_図面枠
  6
CONTINUOUS
 62
    1
 10
270.87109450000003
 20
73.777117000000018
 11
270.87109450000003
 21
128.97711699999999
  0
TEXT
  8
_0-4_図面枠
 62
    7
 10
271.67109049999988
 20
74.577123000000014
 40
2
 41
0.8
 50
0
  1
ｔ１．０×ｗ３０
  0
TEXT
  8
_0-4_図面枠
 62
    7
 10
305.63109716666645
 20
74.577123000000014
 40
2
 41
0.8
 50
0
  1
６０００
  0
TEXT
  8
_0-4_図面枠
 62
    7
 10
323.25776783333345
 20
74.577123000000014
 40
2
 41
0.8
 50
0
  1
巻
  0
TEXT
  8
_0-4_図面枠
 62
    7
 10
319.44442749999985
 20
74.577123000000014
 40
2
 41
0.8
 50
0
  1
１
  0
TEXT
  8
_0-4_図面枠
 62
    7
 10
323.25776783333345
 20
102.577125
 40
2
 41
0.8
 50
0
  1
本
  0
TEXT
  8
_0-4_図面枠
 62
    7
 10
319.44442749999985
 20
102.577125
 40
2
 41
0.8
 50
0
  1
１
  0
TEXT
  8
_0-4_図面枠
 62
    7
 10
305.63109716666645
 20
102.577125
 40
2
 41
0.8
 50
0
  1
３０００
  0
TEXT
  8
_0-4_図面枠
 62
    7
 10
271.67109049999988
 20
90.577120999999991
 40
2
 41
0.8
 50
0
  1
皿４×１６
  0
TEXT
  8
_0-4_図面枠
 62
    7
 10
271.67109049999988
 20
78.577125000000024
 40
2
 41
0.8
 50
0
  1
１．５×１８×５．５穴
  0
TEXT
  8
_0-4_図面枠
 62
    7
 10
271.67109049999988
 20
86.57712100000002
 40
2
 41
0.8
 50
0
  1
フィッシャープラグ　Ｓ８
  0
TEXT
  8
_0-4_図面枠
 62
    7
 10
271.67109049999988
 20
82.577125000000009
 40
2
 41
0.8
 50
0
  1
なべ５×５０
  0
TEXT
  8
_0-4_図面枠
 62
    7
 10
271.67109049999988
 20
98.577124999999995
 40
2
 41
0.8
 50
0
  1
ＦＳ４００
  0
TEXT
  8
_0-4_図面枠
 62
    7
 10
319.23109416666671
 20
90.577120999999991
 40
2
 41
0.8
 50
0
  1
６
  0
TEXT
  8
_0-4_図面枠
 62
    7
 10
317.20442749999995
 20
82.577125000000009
 40
2
 41
0.8
 50
0
  1
１４
  0
TEXT
  8
_0-4_図面枠
 62
    7
 10
323.25776783333345
 20
78.577125000000024
 40
2
 41
0.8
 50
0
  1
枚
  0
TEXT
  8
_0-4_図面枠
 62
    7
 10
317.20442749999995
 20
78.577125000000024
 40
2
 41
0.8
 50
0
  1
１４
  0
TEXT
  8
_0-4_図面枠
 62
    7
 10
323.25776783333345
 20
82.577125000000009
 40
2
 41
0.8
 50
0
  1
〃
  0
TEXT
  8
_0-4_図面枠
 62
    7
 10
317.20442749999995
 20
86.57712100000002
 40
2
 41
0.8
 50
0
  1
１４
  0
TEXT
  8
_0-4_図面枠
 62
    7
 10
323.25776783333345
 20
86.57712100000002
 40
2
 41
0.8
 50
0
  1
〃
  0
TEXT
  8
_0-4_図面枠
 62
    7
 10
305.63109716666645
 20
94.577124999999995
 40
2
 41
0.8
 50
0
  1
３０００
  0
TEXT
  8
_0-4_図面枠
 62
    7
 10
305.63109716666645
 20
98.577124999999995
 40
2
 41
0.8
 50
0
  1
３１００
  0
TEXT
  8
_0-4_図面枠
 62
    7
 10
323.25776783333345
 20
94.577124999999995
 40
2
 41
0.8
 50
0
  1
本
  0
TEXT
  8
_0-4_図面枠
 62
    7
 10
319.44442749999985
 20
94.577124999999995
 40
2
 41
0.8
 50
0
  1
１
  0
TEXT
  8
_0-4_図面枠
 62
    7
 10
323.25776783333345
 20
90.577120999999991
 40
2
 41
0.8
 50
0
  1
〃
  0
TEXT
  8
_0-4_図面枠
 62
    7
 10
323.25776783333345
 20
98.577124999999995
 40
2
 41
0.8
 50
0
  1
枚
  0
TEXT
  8
_0-4_図面枠
 62
    7
 10
319.44442749999985
 20
98.577124999999995
 40
2
 41
0.8
 50
0
  1
１
  0
TEXT
  8
_0-4_図面枠
 62
    7
 10
280.20443583333326
 20
125.777129
 40
2
 41
0.8
 50
0
  1
規　格
  0
TEXT
  8
_0-4_図面枠
 62
    7
 10
323.25776783333345
 20
114.5771249999999
 40
2
 41
0.8
 50
0
  1
〃
  0
TEXT
  8
_0-4_図面枠
 62
    7
 10
319.44442749999985
 20
114.5771249999999
 40
2
 41
0.8
 50
0
  1
１
  0
TEXT
  8
_0-4_図面枠
 62
    7
 10
305.63109716666645
 20
114.5771249999999
 40
2
 41
0.8
 50
0
  1
３０００
  0
TEXT
  8
_0-4_図面枠
 62
    7
 10
305.63109716666645
 20
106.57712099999999
 40
2
 41
0.8
 50
0
  1
３０００
  0
TEXT
  8
_0-4_図面枠
 62
    7
 10
305.63109716666645
 20
110.57712099999999
 40
2
 41
0.8
 50
0
  1
３０００
  0
TEXT
  8
_0-4_図面枠
 62
    7
 10
319.44442749999985
 20
106.57712099999999
 40
2
 41
0.8
 50
0
  1
１
  0
TEXT
  8
_0-4_図面枠
 62
    7
 10
323.25776783333345
 20
106.57712099999999
 40
2
 41
0.8
 50
0
  1
〃
  0
TEXT
  8
_0-4_図面枠
 62
    7
 10
319.44442749999985
 20
110.57712099999999
 40
2
 41
0.8
 50
0
  1
１
  0
TEXT
  8
_0-4_図面枠
 62
    7
 10
323.25776783333345
 20
110.57712099999999
 40
2
 41
0.8
 50
0
  1
〃
  0
TEXT
  8
_0-4_図面枠
 62
    7
 10
305.57776383333317
 20
122.57713200000001
 40
2
 41
0.8
 50
0
  1
（ｍｍ）
  0
TEXT
  8
_0-4_図面枠
 62
    7
 10
305.63109716666645
 20
118.57711699999999
 40
2
 41
0.8
 50
0
  1
３０００
  0
TEXT
  8
_0-4_図面枠
 62
    7
 10
306.53776383333332
 20
125.777129
 40
2
 41
0.8
 50
0
  1
定　尺
  0
TEXT
  8
_0-4_図面枠
 62
    7
 10
316.69776083333329
 20
122.57713200000001
 40
2
 41
0.8
 50
0
  1
数量
  0
TEXT
  8
_0-4_図面枠
 62
    7
 10
323.25776783333345
 20
118.57711699999999
 40
2
 41
0.8
 50
0
  1
本
  0
TEXT
  8
_0-4_図面枠
 62
    7
 10
319.44442749999985
 20
118.57711699999999
 40
2
 41
0.8
 50
0
  1
１
  0
TEXT
  8
_0-4_図面枠
 62
    7
 10
322.12767683333334
 20
125.777129
 40
2
 41
0.8
 50
0
  1
単位
  0
TEXT
  8
_0-4_図面枠
 62
    7
 10
316.75109416666669
 20
125.777129
 40
2
 41
0.8
 50
0
  1
使用
  0
TEXT
  8
_0-4_図面枠
 62
    7
 10
216.8482755
 20
229.05796000000001
 40
2
 41
0.8
 50
0
  1
◇床コーナー（１５０ＴＣ－Ａ）　Ｓ＝１／５
  0
LINE
  8
_0-3_躯体と製品
  6
CONTINUOUS
 62
    3
 10
268.99704850000001
 20
174.51554300000001
 11
270.99704850000001
 21
176.51554300000001
  0
LINE
  8
_0-3_躯体と製品
  6
CONTINUOUS
 62
    2
 10
280.44514049999998
 20
176.51554300000001
 11
257.31075750000002
 21
176.51554300000001
  0
LINE
  8
_0-3_躯体と製品
  6
CONTINUOUS
 62
    2
 10
280.44514049999998
 20
176.715543
 11
257.31075750000002
 21
176.715543
  0
LINE
  8
_0-3_躯体と製品
  6
PLINE2
 62
    3
 10
269.57447649999995
 20
173.48706300000001
 11
269.77294749999987
 21
174.84778800000001
  0
ARC
  8
_0-3_躯体と製品
  6
PLINE2
 62
    3
 10
269.69378549999999
 20
174.85933399999999
 40
0.08
 50
351.70153400000004
 51
81.8698979999957
  0
LINE
  8
_0-3_躯体と製品
  6
CONTINUOUS
 62
    2
 10
270.11075649999987
 20
177.51554300000001
 11
266.51075649999996
 21
177.51554300000001
  0
LINE
  8
_0-3_躯体と製品
  6
CONTINUOUS
 62
    2
 10
263.12075649999986
 20
180.91554299999999
 11
282.26075649999996
 21
180.91554299999999
  0
LINE
  8
_0-3_躯体と製品
  6
CONTINUOUS
 62
    2
 10
268.21075649999989
 20
181.51554300000001
 11
270.21075650000012
 21
181.51554300000001
  0
LINE
  8
_0-3_躯体と製品
  6
CONTINUOUS
 62
    2
 10
268.41075650000005
 20
177.215543
 11
272.31075650000002
 21
177.215543
  0
LINE
  8
_0-3_躯体と製品
  6
CONTINUOUS
 62
    2
 10
269.61075649999998
 20
176.81554299999999
 11
270.61075649999998
 21
176.81554299999999
  0
LINE
  8
_0-3_躯体と製品
  6
CONTINUOUS
 62
    2
 10
251.80358149999995
 20
176.51554300000001
 11
280.31075650000002
 21
176.51554300000001
  0
LINE
  8
_0-3_躯体と製品
  6
CONTINUOUS
 62
    2
 10
256.31075649999991
 20
174.51554300000001
 11
280.31075650000002
 21
174.51554300000001
  0
LINE
  8
_0-5_文字-記号
  6
CONTINUOUS
 62
    3
 10
269.41334549999988
 20
169.16012699999999
 11
272.42437449999989
 21
165.57172199999999
  0
LINE
  8
_0-3_躯体と製品
  6
CONTINUOUS
 62
    3
 10
264.31075649999991
 20
179.95397
 11
264.31075649999991
 21
179.75555
  0
LINE
  8
_0-3_躯体と製品
  6
CONTINUOUS
 62
    3
 10
264.31075649999991
 20
179.95397
 11
264.91075650000005
 21
179.72897
  0
LINE
  8
_0-3_躯体と製品
  6
CONTINUOUS
 62
    3
 10
265.01075650000007
 20
179.75555
 11
264.91075650000005
 21
179.85712999999998
  0
LINE
  8
_0-3_躯体と製品
  6
CONTINUOUS
 62
    3
 10
264.2107565
 20
180.05554999999998
 11
265.01075650000007
 21
179.75555
  0
LINE
  8
_0-3_躯体と製品
  6
CONTINUOUS
 62
    3
 10
264.2107565
 20
179.75555
 11
264.31075649999991
 21
179.85712999999998
  0
ARC
  8
_0-3_躯体と製品
  6
CONTINUOUS
 62
    2
 10
158.53649949999988
 20
179.66554299999999
 40
0.34
 50
0
 51
180
  0
ARC
  8
_0-3_躯体と製品
  6
CONTINUOUS
 62
    2
 10
158.53649849999988
 20
179.66554299999999
 40
0.2999979999999999
 50
0
 51
180
  0
ARC
  8
_0-3_躯体と製品
  6
CONTINUOUS
 62
    2
 10
158.53649949999988
 20
179.66554299999999
 40
0.5999999999999999
 50
0
 51
180
  0
LINE
  8
_0-3_躯体と製品
  6
CONTINUOUS
 62
    2
 10
164.93649949999985
 20
179.793057
 11
164.93649949999985
 21
180.29349099999999
  0
LINE
  8
_0-3_躯体と製品
  6
CONTINUOUS
 62
    2
 10
164.53649949999999
 20
179.49305699999999
 11
164.53649949999999
 21
179.898279
  0
LINE
  8
_0-3_躯体と製品
  6
PLINE3
 62
    3
 10
175.93649949999997
 20
181.818028
 11
175.93649949999997
 21
178.558413
  0
LINE
  8
_0-3_躯体と製品
  6
CONTINUOUS
 62
    2
 10
176.93649949999985
 20
177.615543
 11
176.93649949999985
 21
179.91554299999999
  0
LINE
  8
_0-3_躯体と製品
  6
CONTINUOUS
 62
    2
 10
178.23649950000004
 20
181.26554300000001
 11
178.23649950000004
 21
179.715543
  0
LINE
  8
_0-3_躯体と製品
  6
PLINE3
 62
    3
 10
264.61075649999998
 20
181.92602099999999
 11
264.61075649999998
 21
178.30403699999999
  0
LINE
  8
_0-3_躯体と製品
  6
CONTINUOUS
 62
    2
 10
263.61075649999998
 20
177.615543
 11
263.61075649999998
 21
179.91554299999999
  0
LINE
  8
_0-3_躯体と製品
  6
CONTINUOUS
 62
    2
 10
262.31075650000002
 20
181.26554300000001
 11
262.31075650000002
 21
179.715543
  0
LINE
  8
_0-3_躯体と製品
  6
CONTINUOUS
 62
    3
 10
175.6364994999999
 20
179.95396399999998
 11
176.23649950000004
 21
179.72896399999999
  0
LINE
  8
_0-3_躯体と製品
  6
CONTINUOUS
 62
    3
 10
176.33649949999995
 20
179.75554399999999
 11
176.23649950000004
 21
179.857124
  0
LINE
  8
_0-3_躯体と製品
  6
CONTINUOUS
 62
    3
 10
175.53649949999999
 20
180.055544
 11
176.33649949999995
 21
179.75554399999999
  0
LINE
  8
_0-3_躯体と製品
  6
CONTINUOUS
 62
    3
 10
175.53649949999999
 20
179.75554399999999
 11
175.6364994999999
 21
179.857124
  0
LINE
  8
_0-3_躯体と製品
  6
CONTINUOUS
 62
    3
 10
175.6364994999999
 20
179.95396399999998
 11
175.6364994999999
 21
179.75554399999999
  0
LINE
  8
_0-5_文字-記号
  6
CONTINUOUS
 62
    3
 10
161.57149649999997
 20
177.41554299999999
 11
166.44235950000007
 21
185.852125
  0
LINE
  8
_0-5_文字-記号
  6
CONTINUOUS
 62
    3
 10
180.23649950000004
 20
178.19554299999999
 11
183.61414949999994
 21
184.045804
  0
LINE
  8
_0-3_躯体と製品
  6
CONTINUOUS
 62
    3
 10
177.16543149999995
 20
174.51554300000001
 11
179.16543150000007
 21
176.51554300000001
  0
LINE
  8
_0-3_躯体と製品
  6
CONTINUOUS
 62
    2
 10
178.93649949999985
 20
176.81554299999999
 11
177.93649949999985
 21
176.81554299999999
  0
LINE
  8
_0-3_躯体と製品
  6
CONTINUOUS
 62
    2
 10
177.83649949999995
 20
177.215543
 11
183.13649950000001
 21
177.215543
  0
LINE
  8
_0-3_躯体と製品
  6
CONTINUOUS
 62
    2
 10
178.13649950000001
 20
179.615543
 11
177.63649950000001
 21
179.615543
  0
LINE
  8
_0-3_躯体と製品
  6
CONTINUOUS
 62
    2
 10
160.23649950000004
 20
176.51554300000001
 11
188.05665550000003
 21
176.51554300000001
  0
LINE
  8
_0-3_躯体と製品
  6
CONTINUOUS
 62
    2
 10
184.23649950000004
 20
174.51554300000001
 11
160.23649950000004
 21
174.51554300000001
  0
LINE
  8
_0-3_躯体と製品
  6
CONTINUOUS
 62
    2
 10
160.10211649999985
 20
176.715543
 11
183.23649950000004
 21
176.715543
  0
LINE
  8
_0-3_躯体と製品
  6
CONTINUOUS
 62
    2
 10
183.23649950000004
 20
176.51554300000001
 11
160.10211649999985
 21
176.51554300000001
  0
LINE
  8
_0-3_躯体と製品
  6
CONTINUOUS
 62
    2
 10
160.23649950000004
 20
176.51554300000001
 11
160.23649950000004
 21
160.727475
  0
LINE
  8
_0-3_躯体と製品
  6
CONTINUOUS
 62
    3
 10
161.6090825
 20
174.51554300000001
 11
163.60908249999989
 21
176.51554300000001
  0
LINE
  8
_0-3_躯体と製品
  6
CONTINUOUS
 62
    2
 10
167.23649950000004
 20
177.41554299999999
 11
159.33649949999995
 21
177.41554299999999
  0
LINE
  8
_0-3_躯体と製品
  6
CONTINUOUS
 62
    2
 10
158.43649949999997
 20
176.715543
 11
169.93649949999985
 21
176.715543
  0
CIRCLE
  8
_0-5_文字-記号
  6
CONTINUOUS
 62
    3
 10
149.76985549999995
 20
170.15598900000001
 40
1.5
  0
TEXT
  8
_0-5_文字-記号
 62
    7
 10
149.02318683333317
 20
169.375991
 40
2
 41
0.8
 50
0
  1
４
  0
LINE
  8
_0-3_躯体と製品
  6
CONTINUOUS
 62
    3
 10
160.23649950000004
 20
175.97138699999999
 11
160.78065549999985
 21
176.51554300000001
  0
LINE
  8
_0-3_躯体と製品
  6
CONTINUOUS
 62
    3
 10
160.23649950000004
 20
174.557174
 11
162.19486849999998
 21
176.51554300000001
  0
LINE
  8
_0-3_躯体と製品
  6
CONTINUOUS
 62
    2
 10
157.93649949999985
 20
178.66554299999999
 11
158.23649950000004
 21
178.66554299999999
  0
LINE
  8
_0-3_躯体と製品
  6
CONTINUOUS
 62
    2
 10
158.83649949999995
 20
178.66554299999999
 11
159.1364994999999
 21
178.66554299999999
  0
LINE
  8
_0-3_躯体と製品
  6
CONTINUOUS
 62
    2
 10
159.1364994999999
 20
178.66554299999999
 11
159.1364994999999
 21
179.66554299999999
  0
LINE
  8
_0-3_躯体と製品
  6
CONTINUOUS
 62
    2
 10
158.83649949999995
 20
179.66554299999999
 11
158.83649849999995
 21
179.06554299999999
  0
LINE
  8
_0-3_躯体と製品
  6
CONTINUOUS
 62
    2
 10
158.23649950000004
 20
179.66554299999999
 11
158.23649950000004
 21
179.06554299999999
  0
LINE
  8
_0-3_躯体と製品
  6
CONTINUOUS
 62
    2
 10
158.83649849999995
 20
179.06554299999999
 11
158.73649849999993
 21
179.06554299999999
  0
LINE
  8
_0-3_躯体と製品
  6
CONTINUOUS
 62
    2
 10
158.73649849999993
 20
179.06554299999999
 11
158.83649949999995
 21
178.66554299999999
  0
LINE
  8
_0-3_躯体と製品
  6
CONTINUOUS
 62
    2
 10
158.23649950000004
 20
179.06554299999999
 11
158.33649949999995
 21
179.06554299999999
  0
LINE
  8
_0-3_躯体と製品
  6
CONTINUOUS
 62
    2
 10
158.33649949999995
 20
179.06554299999999
 11
158.23650049999992
 21
178.66554299999999
  0
LINE
  8
_0-3_躯体と製品
  6
CONTINUOUS
 62
    2
 10
158.83649849999995
 20
179.06554299999999
 11
158.87649850000003
 21
179.06554299999999
  0
LINE
  8
_0-3_躯体と製品
  6
CONTINUOUS
 62
    2
 10
158.87649850000003
 20
179.06554299999999
 11
158.87649950000002
 21
179.66554299999999
  0
LINE
  8
_0-3_躯体と製品
  6
CONTINUOUS
 62
    2
 10
158.23650049999992
 20
179.06554299999999
 11
158.19649949999996
 21
179.06554299999999
  0
LINE
  8
_0-3_躯体と製品
  6
CONTINUOUS
 62
    2
 10
158.19649949999996
 20
179.06554299999999
 11
158.19649949999996
 21
179.66554299999999
  0
LINE
  8
_0-3_躯体と製品
  6
CONTINUOUS
 62
    2
 10
157.93649949999985
 20
179.66554299999999
 11
157.93649949999985
 21
178.66554299999999
  0
ARC
  8
_0-3_躯体と製品
  6
CONTINUOUS
 62
    2
 10
159.43649949999997
 20
178.01554300000001
 40
0.5999999999999999
 50
180.0001029999996
 51
270
  0
LINE
  8
_0-3_躯体と製品
  6
CONTINUOUS
 62
    2
 10
158.83649849999995
 20
178.66554299999999
 11
158.83649949999995
 21
178.01554199999998
  0
ARC
  8
_0-3_躯体と製品
  6
CONTINUOUS
 62
    2
 10
158.43649949999997
 20
176.91554299999999
 40
0.2
 50
180
 51
270
  0
LINE
  8
_0-3_躯体と製品
  6
CONTINUOUS
 62
    2
 10
158.23649950000004
 20
178.66554299999999
 11
158.23649950000004
 21
176.91554299999999
  0
ARC
  8
_0-3_躯体と製品
  6
CONTINUOUS
 62
    2
 10
160.10211649999985
 20
174.51554300000001
 40
2
 50
90
 51
172.31196299999999
  0
ARC
  8
_0-3_躯体と製品
  6
CONTINUOUS
 62
    2
 10
160.10211649999985
 20
174.41554299999999
 40
2.2999999999999989
 50
90
 51
172.31196299999999
  0
LINE
  8
_0-3_躯体と製品
  6
CONTINUOUS
 62
    2
 10
160.10211649999985
 20
176.51554300000001
 11
160.23649950000004
 21
176.51554300000001
  0
CIRCLE
  8
_0-5_文字-記号
  6
CONTINUOUS
 62
    3
 10
161.57149649999997
 20
177.41554299999999
 40
0.2
  0
LINE
  8
_0-3_躯体と製品
  6
PLINE2
 62
    3
 10
173.1088105
 20
173.55409699999998
 11
173.12974450000002
 21
173.15464499999999
  0
LINE
  8
_0-3_躯体と製品
  6
PLINE2
 62
    3
 10
171.36418849999995
 20
173.55409699999998
 11
171.34325349999995
 21
173.15464499999999
  0
LINE
  8
_0-3_躯体と製品
  6
PLINE2
 62
    3
 10
172.94831049999993
 20
172.55546699999999
 11
173.31228050000004
 21
173.55546699999999
  0
LINE
  8
_0-3_躯体と製品
  6
PLINE2
 62
    3
 10
171.52468750000003
 20
172.55546699999999
 11
171.16071749999992
 21
173.55546699999999
  0
LINE
  8
_0-3_躯体と製品
  6
PLINE2
 62
    3
 10
172.66098250000005
 20
168.72404
 11
172.33649949999995
 21
174.91554299999999
  0
LINE
  8
_0-3_躯体と製品
  6
PLINE3
 62
    3
 10
172.23649950000004
 20
167.778796
 11
172.23649950000004
 21
178.523325
  0
LINE
  8
_0-3_躯体と製品
  6
PLINE2
 62
    3
 10
171.81201650000003
 20
168.72404
 11
172.13649950000001
 21
174.91554299999999
  0
LINE
  8
_0-3_躯体と製品
  6
PLINE2
 62
    3
 10
170.97277949999989
 20
173.48706300000001
 11
170.77430849999985
 21
174.84778800000001
  0
LINE
  8
_0-3_躯体と製品
  6
PLINE2
 62
    3
 10
173.50021949999984
 20
173.48706300000001
 11
173.69869049999988
 21
174.84778800000001
  0
LINE
  8
_0-3_躯体と製品
  6
PLINE2
 62
    3
 10
173.50021949999984
 20
173.48706300000001
 11
173.69869049999988
 21
174.84778800000001
  0
LINE
  8
_0-3_躯体と製品
  6
PLINE2
 62
    3
 10
172.89776849999998
 20
169.938096
 11
172.91870249999999
 21
169.538645
  0
LINE
  8
_0-3_躯体と製品
  6
PLINE2
 62
    3
 10
172.91870249999999
 20
169.538645
 11
173.31815449999999
 21
169.55957899999999
  0
LINE
  8
_0-3_躯体と製品
  6
PLINE2
 62
    3
 10
173.26581850000002
 20
170.55820800000001
 11
173.28675250000003
 21
170.15875700000001
  0
LINE
  8
_0-3_躯体と製品
  6
PLINE2
 62
    3
 10
173.23441649999995
 20
171.157386
 11
172.84543250000002
 21
170.93672599999999
  0
LINE
  8
_0-3_躯体と製品
  6
PLINE2
 62
    3
 10
172.84543250000002
 20
170.93672599999999
 11
172.8663664999998
 21
170.537274
  0
LINE
  8
_0-3_躯体と製品
  6
PLINE2
 62
    3
 10
172.8663664999998
 20
170.537274
 11
173.26581850000002
 21
170.55820800000001
  0
LINE
  8
_0-3_躯体と製品
  6
PLINE2
 62
    3
 10
173.21348250000005
 20
171.556838
 11
173.23441649999995
 21
171.157386
  0
LINE
  8
_0-3_躯体と製品
  6
PLINE2
 62
    3
 10
173.18208049999987
 20
172.15601599999999
 11
172.79309650000005
 21
171.93535499999999
  0
LINE
  8
_0-3_躯体と製品
  6
PLINE2
 62
    3
 10
172.79309650000005
 20
171.93535499999999
 11
172.81403049999994
 21
171.53590299999999
  0
LINE
  8
_0-3_躯体と製品
  6
PLINE2
 62
    3
 10
172.81403049999994
 20
171.53590299999999
 11
173.21348250000005
 21
171.556838
  0
LINE
  8
_0-3_躯体と製品
  6
PLINE2
 62
    3
 10
173.16114649999997
 20
172.55546699999999
 11
173.18208049999987
 21
172.15601599999999
  0
LINE
  8
_0-3_躯体と製品
  6
PLINE2
 62
    3
 10
173.12974450000002
 20
173.15464499999999
 11
172.74076050000008
 21
172.93398500000001
  0
LINE
  8
_0-3_躯体と製品
  6
PLINE2
 62
    3
 10
172.74076050000008
 20
172.93398500000001
 11
172.76169449999998
 21
172.53453299999998
  0
LINE
  8
_0-3_躯体と製品
  6
PLINE2
 62
    3
 10
172.76169449999998
 20
172.53453299999998
 11
173.16114649999997
 21
172.55546699999999
  0
LINE
  8
_0-3_躯体と製品
  6
PLINE2
 62
    3
 10
171.15484449999985
 20
169.55957899999999
 11
171.13391049999996
 21
169.16012699999999
  0
LINE
  8
_0-3_躯体と製品
  6
PLINE2
 62
    3
 10
171.18624649999992
 20
170.15875700000001
 11
171.57523049999998
 21
169.938096
  0
LINE
  8
_0-3_躯体と製品
  6
PLINE2
 62
    3
 10
171.57523049999998
 20
169.938096
 11
171.55429649999985
 21
169.538645
  0
LINE
  8
_0-3_躯体と製品
  6
PLINE2
 62
    3
 10
171.55429649999985
 20
169.538645
 11
171.15484449999985
 21
169.55957899999999
  0
LINE
  8
_0-3_躯体と製品
  6
PLINE2
 62
    3
 10
171.20718050000005
 20
170.55820800000001
 11
171.18624649999992
 21
170.15875700000001
  0
LINE
  8
_0-3_躯体と製品
  6
PLINE2
 62
    3
 10
171.23858249999989
 20
171.157386
 11
171.62756650000006
 21
170.93672599999999
  0
LINE
  8
_0-3_躯体と製品
  6
PLINE2
 62
    3
 10
171.62756650000006
 20
170.93672599999999
 11
171.60663249999993
 21
170.537274
  0
LINE
  8
_0-3_躯体と製品
  6
PLINE2
 62
    3
 10
171.60663249999993
 20
170.537274
 11
171.20718050000005
 21
170.55820800000001
  0
LINE
  8
_0-3_躯体と製品
  6
PLINE2
 62
    3
 10
171.25951650000002
 20
171.556838
 11
171.23858249999989
 21
171.157386
  0
LINE
  8
_0-3_躯体と製品
  6
PLINE2
 62
    3
 10
171.29091849999986
 20
172.15601599999999
 11
171.67990250000003
 21
171.93535499999999
  0
LINE
  8
_0-3_躯体と製品
  6
PLINE2
 62
    3
 10
171.67990250000003
 20
171.93535499999999
 11
171.65896850000001
 21
171.53590299999999
  0
LINE
  8
_0-3_躯体と製品
  6
PLINE2
 62
    3
 10
171.65896850000001
 20
171.53590299999999
 11
171.25951650000002
 21
171.556838
  0
LINE
  8
_0-3_躯体と製品
  6
PLINE2
 62
    3
 10
171.31185249999999
 20
172.55546699999999
 11
171.29091849999986
 21
172.15601599999999
  0
LINE
  8
_0-3_躯体と製品
  6
PLINE2
 62
    3
 10
171.34325349999995
 20
173.15464499999999
 11
171.73223849999988
 21
172.93398500000001
  0
LINE
  8
_0-3_躯体と製品
  6
PLINE2
 62
    3
 10
171.73223849999988
 20
172.93398500000001
 11
171.71130449999998
 21
172.53453299999998
  0
LINE
  8
_0-3_躯体と製品
  6
PLINE2
 62
    3
 10
171.71130449999998
 20
172.53453299999998
 11
171.31185249999999
 21
172.55546699999999
  0
LINE
  8
_0-3_躯体と製品
  6
PLINE2
 62
    3
 10
172.22463849999986
 20
169.327404
 11
172.6113785
 21
169.67053899999999
  0
LINE
  8
_0-3_躯体と製品
  6
PLINE2
 62
    3
 10
171.86261049999996
 20
169.68943199999998
 11
172.23649950000004
 21
169.31554299999999
  0
LINE
  8
_0-3_躯体と製品
  6
PLINE2
 62
    3
 10
173.16114649999997
 20
172.55546699999999
 11
173.50021949999984
 21
173.48706300000001
  0
LINE
  8
_0-3_躯体と製品
  6
PLINE2
 62
    3
 10
171.31185249999999
 20
172.55546699999999
 11
170.97277949999989
 21
173.48706300000001
  0
LINE
  8
_0-3_躯体と製品
  6
PLINE2
 62
    3
 10
172.64004750000004
 20
169.123492
 11
173.3390885
 21
169.16012699999999
  0
LINE
  8
_0-3_躯体と製品
  6
PLINE2
 62
    3
 10
173.3390885
 20
169.16012699999999
 11
172.96057050000002
 21
168.73974100000001
  0
LINE
  8
_0-3_躯体と製品
  6
PLINE2
 62
    3
 10
172.96057050000002
 20
168.73974100000001
 11
172.66098250000005
 21
168.72404
  0
LINE
  8
_0-3_躯体と製品
  6
PLINE2
 62
    3
 10
171.83295049999992
 20
169.123492
 11
171.13391049999996
 21
169.16012699999999
  0
LINE
  8
_0-3_躯体と製品
  6
PLINE2
 62
    3
 10
171.13391049999996
 20
169.16012699999999
 11
171.51242749999994
 21
168.73974100000001
  0
LINE
  8
_0-3_躯体と製品
  6
PLINE2
 62
    3
 10
173.31815449999999
 20
169.55957899999999
 11
173.3390885
 21
169.16012699999999
  0
LINE
  8
_0-3_躯体と製品
  6
PLINE2
 62
    3
 10
173.28675250000003
 20
170.15875700000001
 11
172.89776849999998
 21
169.938096
  0
CIRCLE
  8
_0-3_躯体と製品
  6
CONTINUOUS
 62
    3
 10
171.41579649999994
 20
169.350435
 40
0.12
  0
LINE
  8
_0-3_躯体と製品
  6
PLINE2
 62
    3
 10
171.51242749999994
 20
168.73974100000001
 11
171.81201650000003
 21
168.72404
  0
LINE
  8
_0-3_躯体と製品
  6
CONTINUOUS
 62
    3
 10
168.68015049999985
 20
174.51554300000001
 11
170.68015049999997
 21
176.51554300000001
  0
LINE
  8
_0-3_躯体と製品
  6
CONTINUOUS
 62
    3
 10
170.09436349999999
 20
174.51554300000001
 11
172.09436349999987
 21
176.51554300000001
  0
LINE
  8
_0-3_躯体と製品
  6
CONTINUOUS
 62
    2
 10
172.13649950000001
 20
177.215543
 11
168.73649950000004
 21
177.215543
  0
LINE
  8
_0-3_躯体と製品
  6
CONTINUOUS
 62
    2
 10
170.93649949999997
 20
176.81554299999999
 11
169.93649949999985
 21
176.81554299999999
  0
LINE
  8
_0-3_躯体と製品
  6
CONTINUOUS
 62
    3
 10
163.02329550000002
 20
174.51554300000001
 11
165.02329550000002
 21
176.51554300000001
  0
LINE
  8
_0-3_躯体と製品
  6
CONTINUOUS
 62
    3
 10
164.43750950000003
 20
174.51554300000001
 11
166.43750950000003
 21
176.51554300000001
  0
LINE
  8
_0-3_躯体と製品
  6
CONTINUOUS
 62
    3
 10
165.85172250000005
 20
174.51554300000001
 11
167.85172250000005
 21
176.51554300000001
  0
LINE
  8
_0-3_躯体と製品
  6
CONTINUOUS
 62
    3
 10
167.26593649999995
 20
174.51554300000001
 11
169.26593649999995
 21
176.51554300000001
  0
ARC
  8
_0-3_躯体と製品
  6
CONTINUOUS
 62
    2
 10
164.63649950000001
 20
179.793057
 40
0.2999999999999999
 50
270
 51
0
  0
LINE
  8
_0-3_躯体と製品
  6
CONTINUOUS
 62
    2
 10
164.53649949999999
 20
179.49305699999999
 11
164.63649950000001
 21
179.49305699999999
  0
LINE
  8
_0-3_躯体と製品
  6
CONTINUOUS
 62
    2
 10
168.73649950000004
 20
177.215543
 11
167.23649950000004
 21
177.41554299999999
  0
LINE
  8
_0-3_躯体と製品
  6
CONTINUOUS
 62
    2
 10
169.93649949999985
 20
176.81554299999999
 11
169.93649949999985
 21
176.715543
  0
LINE
  8
_0-3_躯体と製品
  6
CONTINUOUS
 62
    3
 10
175.75121749999994
 20
174.51554300000001
 11
177.75121749999994
 21
176.51554300000001
  0
LINE
  8
_0-3_躯体と製品
  6
CONTINUOUS
 62
    3
 10
174.33700450000003
 20
174.51554300000001
 11
176.33700450000003
 21
176.51554300000001
  0
LINE
  8
_0-3_躯体と製品
  6
CONTINUOUS
 62
    3
 10
172.92279050000002
 20
174.51554300000001
 11
174.92279050000002
 21
176.51554300000001
  0
LINE
  8
_0-3_躯体と製品
  6
CONTINUOUS
 62
    3
 10
171.5085775
 20
174.51554300000001
 11
173.5085775
 21
176.51554300000001
  0
LINE
  8
_0-3_躯体と製品
  6
PLINE2
 62
    3
 10
172.03649949999999
 20
176.51554300000001
 11
172.23649950000004
 21
175.51554300000001
  0
LINE
  8
_0-3_躯体と製品
  6
PLINE2
 62
    3
 10
171.23649950000004
 20
176.51554300000001
 11
171.43649949999997
 21
175.51554300000001
  0
LINE
  8
_0-3_躯体と製品
  6
PLINE2
 62
    3
 10
171.43649949999997
 20
176.51554300000001
 11
171.43649949999997
 21
174.91554299999999
  0
LINE
  8
_0-3_躯体と製品
  6
PLINE2
 62
    3
 10
172.13649950000001
 20
174.91554299999999
 11
172.23649950000004
 21
174.91554299999999
  0
ARC
  8
_0-3_躯体と製品
  6
CONTINUOUS
 62
    2
 10
172.53705149999985
 20
177.489801
 40
0.5999999999999999
 50
2.4589260000002127
 51
51.385361999999361
  0
ARC
  8
_0-3_躯体と製品
  6
CONTINUOUS
 62
    2
 10
172.23649950000004
 20
177.115543
 40
1.0800000000000001
 50
51.31781299999912
 51
90
  0
ARC
  8
_0-3_躯体と製品
  6
CONTINUOUS
 62
    2
 10
172.23649950000004
 20
177.115543
 40
1.0800000000000001
 50
90
 51
128.8510619999976
  0
ARC
  8
_0-3_躯体と製品
  6
CONTINUOUS
 62
    2
 10
171.93594649999989
 20
177.489801
 40
0.5999999999999999
 50
128.61463800000061
 51
177.54107399999972
  0
LINE
  8
_0-3_躯体と製品
  6
CONTINUOUS
 62
    2
 10
170.43649949999985
 20
177.51554300000001
 11
174.03649949999988
 21
177.51554300000001
  0
LINE
  8
_0-3_躯体と製品
  6
CONTINUOUS
 62
    2
 10
174.03649949999988
 20
177.51554300000001
 11
174.03649949999988
 21
177.215543
  0
LINE
  8
_0-3_躯体と製品
  6
CONTINUOUS
 62
    2
 10
170.43649949999985
 20
177.51554300000001
 11
170.43649949999985
 21
177.215543
  0
LINE
  8
_0-3_躯体と製品
  6
PLINE2
 62
    3
 10
172.6884245
 20
173.932614
 11
172.70935850000001
 21
173.533163
  0
LINE
  8
_0-3_躯体と製品
  6
PLINE2
 62
    3
 10
172.70935850000001
 20
173.533163
 11
173.1088105
 21
173.55409699999998
  0
LINE
  8
_0-3_躯体と製品
  6
PLINE2
 62
    3
 10
173.03649949999999
 20
174.115543
 11
172.6884245
 21
173.932614
  0
LINE
  8
_0-3_躯体と製品
  6
PLINE2
 62
    3
 10
171.78457449999985
 20
173.932614
 11
171.76364050000007
 21
173.533163
  0
LINE
  8
_0-3_躯体と製品
  6
PLINE2
 62
    3
 10
171.76364050000007
 20
173.533163
 11
171.36418849999995
 21
173.55409699999998
  0
LINE
  8
_0-3_躯体と製品
  6
PLINE2
 62
    3
 10
171.43649949999997
 20
174.115543
 11
171.78457449999985
 21
173.932614
  0
LINE
  8
_0-3_躯体と製品
  6
PLINE2
 62
    3
 10
173.03649949999999
 20
174.115543
 11
173.03649949999999
 21
174.91554299999999
  0
LINE
  8
_0-3_躯体と製品
  6
CONTINUOUS
 62
    2
 10
177.93649949999985
 20
176.81554299999999
 11
177.93649949999985
 21
176.715543
  0
ARC
  8
_0-3_躯体と製品
  6
CONTINUOUS
 62
    2
 10
177.83649949999995
 20
177.615543
 40
0.4
 50
180
 51
270
  0
LINE
  8
_0-3_躯体と製品
  6
CONTINUOUS
 62
    2
 10
173.73649950000004
 20
177.215543
 11
173.73649950000004
 21
176.81554299999999
  0
LINE
  8
_0-3_躯体と製品
  6
CONTINUOUS
 62
    2
 10
170.73649950000004
 20
177.215543
 11
170.73649950000004
 21
176.81554299999999
  0
ARC
  8
_0-3_躯体と製品
  6
CONTINUOUS
 62
    2
 10
176.53649949999999
 20
177.615543
 40
0.4
 50
270
 51
0
  0
LINE
  8
_0-3_躯体と製品
  6
CONTINUOUS
 62
    2
 10
172.33649949999995
 20
177.215543
 11
176.53649949999999
 21
177.215543
  0
ARC
  8
_0-3_躯体と製品
  6
CONTINUOUS
 62
    2
 10
177.63649950000001
 20
179.41554299999999
 40
0.2
 50
90
 51
180
  0
LINE
  8
_0-3_躯体と製品
  6
CONTINUOUS
 62
    2
 10
177.43649949999985
 20
179.41554299999999
 11
177.43649949999985
 21
177.615543
  0
LINE
  8
_0-3_躯体と製品
  6
CONTINUOUS
 62
    2
 10
174.53649949999988
 20
176.715543
 11
174.53649949999988
 21
176.81554299999999
  0
LINE
  8
_0-3_躯体と製品
  6
CONTINUOUS
 62
    2
 10
174.53649949999988
 20
176.81554299999999
 11
173.53649949999999
 21
176.81554299999999
  0
LINE
  8
_0-3_躯体と製品
  6
CONTINUOUS
 62
    2
 10
173.53649949999999
 20
176.81554299999999
 11
173.53649949999999
 21
176.715543
  0
LINE
  8
_0-3_躯体と製品
  6
CONTINUOUS
 62
    2
 10
170.93649949999997
 20
176.715543
 11
170.93649949999997
 21
176.81554299999999
  0
LINE
  8
_0-3_躯体と製品
  6
CONTINUOUS
 62
    2
 10
174.53649949999988
 20
176.715543
 11
177.93649949999985
 21
176.715543
  0
LINE
  8
_0-3_躯体と製品
  6
CONTINUOUS
 62
    2
 10
173.53649949999999
 20
176.715543
 11
170.93649949999997
 21
176.715543
  0
LINE
  8
_0-3_躯体と製品
  6
CONTINUOUS
 62
    2
 10
172.13649950000001
 20
177.215543
 11
172.23649950000004
 21
177.115543
  0
LINE
  8
_0-3_躯体と製品
  6
CONTINUOUS
 62
    2
 10
172.33649949999995
 20
177.215543
 11
172.23649950000004
 21
177.115543
  0
LINE
  8
_0-3_躯体と製品
  6
CONTINUOUS
 62
    3
 10
176.23649950000004
 20
179.72896399999999
 11
176.33649949999995
 21
179.75554399999999
  0
LINE
  8
_0-3_躯体と製品
  6
CONTINUOUS
 62
    3
 10
175.6364994999999
 20
179.75554399999999
 11
176.16561950000005
 21
179.75554399999999
  0
LINE
  8
_0-3_躯体と製品
  6
CONTINUOUS
 62
    3
 10
176.23649950000004
 20
179.72896399999999
 11
176.23649950000004
 21
179.215518
  0
LINE
  8
_0-3_躯体と製品
  6
CONTINUOUS
 62
    3
 10
176.23649950000004
 20
179.215518
 11
175.93649949999997
 21
178.91551799999999
  0
LINE
  8
_0-3_躯体と製品
  6
CONTINUOUS
 62
    3
 10
175.93649949999997
 20
178.91551799999999
 11
175.6364994999999
 21
179.215518
  0
LINE
  8
_0-3_躯体と製品
  6
CONTINUOUS
 62
    3
 10
175.6364994999999
 20
179.215518
 11
175.6364994999999
 21
179.75554399999999
  0
LINE
  8
_0-3_躯体と製品
  6
CONTINUOUS
 62
    3
 10
175.6364994999999
 20
179.75554399999999
 11
175.93649949999997
 21
178.91551799999999
  0
LINE
  8
_0-3_躯体と製品
  6
CONTINUOUS
 62
    3
 10
176.23649950000004
 20
179.215518
 11
175.86149950000004
 21
179.215518
  0
LINE
  8
_0-3_躯体と製品
  6
CONTINUOUS
 62
    3
 10
175.6364994999999
 20
179.72896399999999
 11
175.53649949999999
 21
179.75554399999999
  0
LINE
  8
_0-3_躯体と製品
  6
PLINE2
 62
    3
 10
171.43649949999997
 20
174.115543
 11
171.43649949999997
 21
174.91554299999999
  0
ARC
  8
_0-3_躯体と製品
  6
PLINE2
 62
    3
 10
170.85347049999984
 20
174.85933399999999
 40
0.08
 50
98.130102000004356
 51
188.29846599999979
  0
LINE
  8
_0-3_躯体と製品
  6
PLINE2
 62
    3
 10
170.84215649999987
 20
174.93852999999999
 11
170.88152149999996
 21
174.944154
  0
ARC
  8
_0-3_躯体と製品
  6
PLINE2
 62
    3
 10
170.89283550000005
 20
174.864958
 40
0.08
 50
8.1301020000006723
 51
98.130102000004356
  0
LINE
  8
_0-3_躯体と製品
  6
PLINE2
 62
    3
 10
170.97203149999984
 20
174.876271
 11
171.16071749999992
 21
173.55546699999999
  0
ARC
  8
_0-3_躯体と製品
  6
PLINE2
 62
    3
 10
173.6195285
 20
174.85933399999999
 40
0.08
 50
351.70153400000004
 51
81.8698979999957
  0
LINE
  8
_0-3_躯体と製品
  6
PLINE2
 62
    3
 10
173.63084149999986
 20
174.93852999999999
 11
173.5914765
 21
174.944154
  0
ARC
  8
_0-3_躯体と製品
  6
PLINE2
 62
    3
 10
173.58016350000003
 20
174.864958
 40
0.08
 50
81.869897999995629
 51
171.8698979999993
  0
LINE
  8
_0-3_躯体と製品
  6
PLINE2
 62
    3
 10
173.5009675
 20
174.876271
 11
173.31228050000004
 21
173.55546699999999
  0
ARC
  8
_0-3_躯体と製品
  6
PLINE2
 62
    3
 10
173.6195285
 20
174.85933399999999
 40
0.08
 50
351.70153400000004
 51
81.8698979999957
  0
LINE
  8
_0-3_躯体と製品
  6
PLINE2
 62
    3
 10
173.63084149999986
 20
174.93852999999999
 11
173.5914765
 21
174.944154
  0
ARC
  8
_0-3_躯体と製品
  6
PLINE2
 62
    3
 10
173.58016350000003
 20
174.864958
 40
0.08
 50
81.869897999995629
 51
171.8698979999993
  0
LINE
  8
_0-3_躯体と製品
  6
PLINE2
 62
    3
 10
173.5009675
 20
174.876271
 11
173.31228050000004
 21
173.55546699999999
  0
LINE
  8
_0-3_躯体と製品
  6
PLINE2
 62
    3
 10
173.23649950000004
 20
176.51554300000001
 11
173.03649949999999
 21
175.51554300000001
  0
LINE
  8
_0-3_躯体と製品
  6
PLINE2
 62
    3
 10
173.03649949999999
 20
176.51554300000001
 11
173.03649949999999
 21
174.91554299999999
  0
LINE
  8
_0-3_躯体と製品
  6
PLINE2
 62
    3
 10
172.33649949999995
 20
174.91554299999999
 11
172.23649950000004
 21
174.91554299999999
  0
LINE
  8
_0-3_躯体と製品
  6
PLINE2
 62
    3
 10
172.23649950000004
 20
175.51554300000001
 11
172.23649950000004
 21
176.51554300000001
  0
LINE
  8
_0-3_躯体と製品
  6
PLINE2
 62
    3
 10
172.43649949999985
 20
176.51554300000001
 11
172.23649950000004
 21
175.51554300000001
  0
LINE
  8
_0-5_文字-記号
  6
CONTINUOUS
 62
    3
 10
181.31815449999988
 20
169.55957899999999
 11
184.25858249999999
 21
166.05531299999998
  0
CIRCLE
  8
_0-5_文字-記号
  6
CONTINUOUS
 62
    3
 10
185.22276450000004
 20
164.90624599999998
 40
1.5
  0
TEXT
  8
_0-5_文字-記号
 62
    7
 10
184.52943116666665
 20
164.12624299999999
 40
2
 41
0.8
 50
0
  1
６
  0
LINE
  8
_0-3_躯体と製品
  6
PLINE3
 62
    3
 10
180.23649950000004
 20
167.778796
 11
180.23649950000004
 21
178.523325
  0
LINE
  8
_0-3_躯体と製品
  6
PLINE2
 62
    3
 10
181.1088105
 20
173.55409699999998
 11
181.12974450000002
 21
173.15464499999999
  0
LINE
  8
_0-3_躯体と製品
  6
PLINE2
 62
    3
 10
179.36418849999995
 20
173.55409699999998
 11
179.34325349999995
 21
173.15464499999999
  0
LINE
  8
_0-3_躯体と製品
  6
PLINE2
 62
    3
 10
180.94831049999993
 20
172.55546699999999
 11
181.31228050000004
 21
173.55546699999999
  0
LINE
  8
_0-3_躯体と製品
  6
PLINE2
 62
    3
 10
179.52468750000003
 20
172.55546699999999
 11
179.16071749999992
 21
173.55546699999999
  0
LINE
  8
_0-3_躯体と製品
  6
PLINE2
 62
    3
 10
180.66098250000005
 20
168.72404
 11
180.33649949999995
 21
174.91554299999999
  0
LINE
  8
_0-3_躯体と製品
  6
PLINE2
 62
    3
 10
179.81201650000003
 20
168.72404
 11
180.1364994999999
 21
174.91554299999999
  0
LINE
  8
_0-3_躯体と製品
  6
PLINE2
 62
    3
 10
178.97277949999989
 20
173.48706300000001
 11
178.77430849999985
 21
174.84778800000001
  0
LINE
  8
_0-3_躯体と製品
  6
PLINE2
 62
    3
 10
181.50021949999984
 20
173.48706300000001
 11
181.6986905
 21
174.84778800000001
  0
LINE
  8
_0-3_躯体と製品
  6
PLINE2
 62
    3
 10
181.50021949999984
 20
173.48706300000001
 11
181.6986905
 21
174.84778800000001
  0
LINE
  8
_0-5_文字-記号
  6
CONTINUOUS
 62
    3
 10
182.03649949999999
 20
177.51554300000001
 11
187.2040475
 21
171.35709800000001
  0
LINE
  8
_0-3_躯体と製品
  6
PLINE2
 62
    3
 10
181.31815449999988
 20
169.55957899999999
 11
181.3390885
 21
169.16012699999999
  0
LINE
  8
_0-3_躯体と製品
  6
PLINE2
 62
    3
 10
181.28675250000003
 20
170.15875700000001
 11
180.89776849999998
 21
169.938096
  0
LINE
  8
_0-3_躯体と製品
  6
PLINE2
 62
    3
 10
180.89776849999998
 20
169.938096
 11
180.91870249999988
 21
169.538645
  0
LINE
  8
_0-3_躯体と製品
  6
PLINE2
 62
    3
 10
180.91870249999988
 20
169.538645
 11
181.31815449999988
 21
169.55957899999999
  0
LINE
  8
_0-3_躯体と製品
  6
PLINE2
 62
    3
 10
181.26581850000002
 20
170.55820800000001
 11
181.28675250000003
 21
170.15875700000001
  0
LINE
  8
_0-3_躯体と製品
  6
PLINE2
 62
    3
 10
181.23441649999995
 20
171.157386
 11
180.84543250000002
 21
170.93672599999999
  0
LINE
  8
_0-3_躯体と製品
  6
PLINE2
 62
    3
 10
180.84543250000002
 20
170.93672599999999
 11
180.8663664999998
 21
170.537274
  0
LINE
  8
_0-3_躯体と製品
  6
PLINE2
 62
    3
 10
180.8663664999998
 20
170.537274
 11
181.26581850000002
 21
170.55820800000001
  0
LINE
  8
_0-3_躯体と製品
  6
PLINE2
 62
    3
 10
181.21348250000005
 20
171.556838
 11
181.23441649999995
 21
171.157386
  0
LINE
  8
_0-3_躯体と製品
  6
PLINE2
 62
    3
 10
181.18208049999987
 20
172.15601599999999
 11
180.79309650000005
 21
171.93535499999999
  0
LINE
  8
_0-3_躯体と製品
  6
PLINE2
 62
    3
 10
180.79309650000005
 20
171.93535499999999
 11
180.81403049999994
 21
171.53590299999999
  0
LINE
  8
_0-3_躯体と製品
  6
PLINE2
 62
    3
 10
180.81403049999994
 20
171.53590299999999
 11
181.21348250000005
 21
171.556838
  0
LINE
  8
_0-3_躯体と製品
  6
PLINE2
 62
    3
 10
181.16114649999997
 20
172.55546699999999
 11
181.18208049999987
 21
172.15601599999999
  0
LINE
  8
_0-3_躯体と製品
  6
PLINE2
 62
    3
 10
181.12974450000002
 20
173.15464499999999
 11
180.74076050000008
 21
172.93398500000001
  0
LINE
  8
_0-3_躯体と製品
  6
PLINE2
 62
    3
 10
180.74076050000008
 20
172.93398500000001
 11
180.76169449999998
 21
172.53453299999998
  0
LINE
  8
_0-3_躯体と製品
  6
PLINE2
 62
    3
 10
180.76169449999998
 20
172.53453299999998
 11
181.16114649999997
 21
172.55546699999999
  0
LINE
  8
_0-3_躯体と製品
  6
PLINE2
 62
    3
 10
179.15484449999985
 20
169.55957899999999
 11
179.13391049999996
 21
169.16012699999999
  0
LINE
  8
_0-3_躯体と製品
  6
PLINE2
 62
    3
 10
179.18624649999992
 20
170.15875700000001
 11
179.57523049999998
 21
169.938096
  0
LINE
  8
_0-3_躯体と製品
  6
PLINE2
 62
    3
 10
179.57523049999998
 20
169.938096
 11
179.55429649999985
 21
169.538645
  0
LINE
  8
_0-3_躯体と製品
  6
PLINE2
 62
    3
 10
179.55429649999985
 20
169.538645
 11
179.15484449999985
 21
169.55957899999999
  0
LINE
  8
_0-3_躯体と製品
  6
PLINE2
 62
    3
 10
179.20718050000005
 20
170.55820800000001
 11
179.18624649999992
 21
170.15875700000001
  0
LINE
  8
_0-3_躯体と製品
  6
PLINE2
 62
    3
 10
179.23858249999989
 20
171.157386
 11
179.62756650000006
 21
170.93672599999999
  0
LINE
  8
_0-3_躯体と製品
  6
PLINE2
 62
    3
 10
179.62756650000006
 20
170.93672599999999
 11
179.60663249999993
 21
170.537274
  0
LINE
  8
_0-3_躯体と製品
  6
PLINE2
 62
    3
 10
179.60663249999993
 20
170.537274
 11
179.20718050000005
 21
170.55820800000001
  0
LINE
  8
_0-3_躯体と製品
  6
PLINE2
 62
    3
 10
179.25951650000002
 20
171.556838
 11
179.23858249999989
 21
171.157386
  0
LINE
  8
_0-3_躯体と製品
  6
PLINE2
 62
    3
 10
179.29091849999986
 20
172.15601599999999
 11
179.67990250000003
 21
171.93535499999999
  0
LINE
  8
_0-3_躯体と製品
  6
PLINE2
 62
    3
 10
179.67990250000003
 20
171.93535499999999
 11
179.65896850000001
 21
171.53590299999999
  0
LINE
  8
_0-3_躯体と製品
  6
PLINE2
 62
    3
 10
179.65896850000001
 20
171.53590299999999
 11
179.25951650000002
 21
171.556838
  0
LINE
  8
_0-3_躯体と製品
  6
PLINE2
 62
    3
 10
179.31185249999999
 20
172.55546699999999
 11
179.29091849999986
 21
172.15601599999999
  0
LINE
  8
_0-3_躯体と製品
  6
PLINE2
 62
    3
 10
179.34325349999995
 20
173.15464499999999
 11
179.73223849999988
 21
172.93398500000001
  0
LINE
  8
_0-3_躯体と製品
  6
PLINE2
 62
    3
 10
179.73223849999988
 20
172.93398500000001
 11
179.71130449999998
 21
172.53453299999998
  0
LINE
  8
_0-3_躯体と製品
  6
PLINE2
 62
    3
 10
179.71130449999998
 20
172.53453299999998
 11
179.31185249999999
 21
172.55546699999999
  0
LINE
  8
_0-3_躯体と製品
  6
PLINE2
 62
    3
 10
180.22463849999986
 20
169.327404
 11
180.6113785
 21
169.67053899999999
  0
LINE
  8
_0-3_躯体と製品
  6
PLINE2
 62
    3
 10
179.86261049999996
 20
169.68943199999998
 11
180.23649950000004
 21
169.31554299999999
  0
LINE
  8
_0-3_躯体と製品
  6
PLINE2
 62
    3
 10
181.16114649999997
 20
172.55546699999999
 11
181.50021949999984
 21
173.48706300000001
  0
LINE
  8
_0-3_躯体と製品
  6
PLINE2
 62
    3
 10
179.31185249999999
 20
172.55546699999999
 11
178.97277949999989
 21
173.48706300000001
  0
LINE
  8
_0-3_躯体と製品
  6
PLINE2
 62
    3
 10
180.64004750000004
 20
169.123492
 11
181.3390885
 21
169.16012699999999
  0
LINE
  8
_0-3_躯体と製品
  6
PLINE2
 62
    3
 10
181.3390885
 20
169.16012699999999
 11
180.96057050000002
 21
168.73974100000001
  0
LINE
  8
_0-3_躯体と製品
  6
PLINE2
 62
    3
 10
180.96057050000002
 20
168.73974100000001
 11
180.66098250000005
 21
168.72404
  0
LINE
  8
_0-3_躯体と製品
  6
PLINE2
 62
    3
 10
179.83295049999992
 20
169.123492
 11
179.13391049999996
 21
169.16012699999999
  0
LINE
  8
_0-3_躯体と製品
  6
PLINE2
 62
    3
 10
179.13391049999996
 20
169.16012699999999
 11
179.51242749999994
 21
168.73974100000001
  0
LINE
  8
_0-3_躯体と製品
  6
PLINE2
 62
    3
 10
179.51242749999994
 20
168.73974100000001
 11
179.81201650000003
 21
168.72404
  0
CIRCLE
  8
_0-5_文字-記号
  6
CONTINUOUS
 62
    3
 10
181.31815449999988
 20
169.55957899999999
 40
0.2
  0
CIRCLE
  8
_0-5_文字-記号
  6
CONTINUOUS
 62
    3
 10
188.16822950000005
 20
170.208032
 40
1.5
  0
TEXT
  8
_0-5_文字-記号
 62
    7
 10
187.47490416666665
 20
169.428023
 40
2
 41
0.8
 50
0
  1
８
  0
LINE
  8
_0-3_躯体と製品
  6
CONTINUOUS
 62
    3
 10
182.82228550000002
 20
174.51554300000001
 11
184.23649950000004
 21
175.929757
  0
LINE
  8
_0-3_躯体と製品
  6
CONTINUOUS
 62
    3
 10
181.40807249999989
 20
174.51554300000001
 11
183.4080725
 21
176.51554300000001
  0
LINE
  8
_0-3_躯体と製品
  6
CONTINUOUS
 62
    3
 10
179.99385849999999
 20
174.51554300000001
 11
181.99385849999987
 21
176.51554300000001
  0
LINE
  8
_0-3_躯体と製品
  6
CONTINUOUS
 62
    3
 10
178.57964549999986
 20
174.51554300000001
 11
180.57964549999997
 21
176.51554300000001
  0
LINE
  8
_0-3_躯体と製品
  6
CONTINUOUS
 62
    2
 10
181.73649950000004
 20
177.215543
 11
181.73649950000004
 21
176.81554299999999
  0
LINE
  8
_0-3_躯体と製品
  6
CONTINUOUS
 62
    2
 10
178.73649950000004
 20
177.215543
 11
178.73649950000004
 21
176.81554299999999
  0
LINE
  8
_0-3_躯体と製品
  6
CONTINUOUS
 62
    2
 10
182.53649949999988
 20
176.715543
 11
182.53649949999988
 21
176.81554299999999
  0
LINE
  8
_0-3_躯体と製品
  6
CONTINUOUS
 62
    2
 10
182.53649949999988
 20
176.81554299999999
 11
181.53649949999999
 21
176.81554299999999
  0
LINE
  8
_0-3_躯体と製品
  6
CONTINUOUS
 62
    2
 10
181.53649949999999
 20
176.81554299999999
 11
181.53649949999999
 21
176.715543
  0
LINE
  8
_0-3_躯体と製品
  6
CONTINUOUS
 62
    2
 10
178.93649949999985
 20
176.715543
 11
178.93649949999985
 21
176.81554299999999
  0
ARC
  8
_0-3_躯体と製品
  6
CONTINUOUS
 62
    2
 10
183.13649950000001
 20
176.81554299999999
 40
0.1
 50
270
 51
0
  0
ARC
  8
_0-3_躯体と製品
  6
CONTINUOUS
 62
    2
 10
183.13649950000001
 20
177.115543
 40
0.1
 50
0
 51
90
  0
LINE
  8
_0-3_躯体と製品
  6
CONTINUOUS
 62
    2
 10
183.23649950000004
 20
177.115543
 11
183.23649950000004
 21
176.81554299999999
  0
LINE
  8
_0-3_躯体と製品
  6
CONTINUOUS
 62
    2
 10
178.93649949999985
 20
176.715543
 11
181.53649949999999
 21
176.715543
  0
LINE
  8
_0-3_躯体と製品
  6
CONTINUOUS
 62
    2
 10
182.53649949999988
 20
176.715543
 11
183.13649950000001
 21
176.715543
  0
ARC
  8
_0-3_躯体と製品
  6
CONTINUOUS
 62
    2
 10
178.13649950000001
 20
179.715543
 40
0.1
 50
270
 51
0
  0
LINE
  8
_0-3_躯体と製品
  6
CONTINUOUS
 62
    2
 10
184.23649950000004
 20
176.51554300000001
 11
184.23649950000004
 21
174.51554300000001
  0
LINE
  8
_0-3_躯体と製品
  6
CONTINUOUS
 62
    2
 10
183.23649950000004
 20
176.715543
 11
183.23649950000004
 21
176.51554300000001
  0
ARC
  8
_0-3_躯体と製品
  6
PLINE2
 62
    3
 10
181.61952849999989
 20
174.85933399999999
 40
0.08
 50
351.70153400000004
 51
81.8698979999957
  0
LINE
  8
_0-3_躯体と製品
  6
PLINE2
 62
    3
 10
181.63084149999986
 20
174.93852999999999
 11
181.5914765
 21
174.944154
  0
ARC
  8
_0-3_躯体と製品
  6
PLINE2
 62
    3
 10
181.58016350000003
 20
174.864958
 40
0.08
 50
81.869897999995629
 51
171.8698979999993
  0
LINE
  8
_0-3_躯体と製品
  6
PLINE2
 62
    3
 10
181.5009675
 20
174.876271
 11
181.31228050000004
 21
173.55546699999999
  0
LINE
  8
_0-3_躯体と製品
  6
PLINE2
 62
    3
 10
181.23649950000004
 20
176.51554300000001
 11
181.03649949999999
 21
175.51554300000001
  0
LINE
  8
_0-3_躯体と製品
  6
PLINE2
 62
    3
 10
181.03649949999999
 20
176.51554300000001
 11
181.03649949999999
 21
174.91554299999999
  0
LINE
  8
_0-3_躯体と製品
  6
PLINE2
 62
    3
 10
180.33649949999995
 20
174.91554299999999
 11
180.23649950000004
 21
174.91554299999999
  0
LINE
  8
_0-3_躯体と製品
  6
PLINE2
 62
    3
 10
180.23649950000004
 20
175.51554300000001
 11
180.23649950000004
 21
176.51554300000001
  0
LINE
  8
_0-3_躯体と製品
  6
PLINE2
 62
    3
 10
180.43649949999985
 20
176.51554300000001
 11
180.23649950000004
 21
175.51554300000001
  0
LINE
  8
_0-3_躯体と製品
  6
PLINE2
 62
    3
 10
180.03649949999999
 20
176.51554300000001
 11
180.23649950000004
 21
175.51554300000001
  0
LINE
  8
_0-3_躯体と製品
  6
PLINE2
 62
    3
 10
179.23649950000004
 20
176.51554300000001
 11
179.43649949999997
 21
175.51554300000001
  0
LINE
  8
_0-3_躯体と製品
  6
PLINE2
 62
    3
 10
179.43649949999997
 20
176.51554300000001
 11
179.43649949999997
 21
174.91554299999999
  0
LINE
  8
_0-3_躯体と製品
  6
PLINE2
 62
    3
 10
180.1364994999999
 20
174.91554299999999
 11
180.23649950000004
 21
174.91554299999999
  0
ARC
  8
_0-3_躯体と製品
  6
CONTINUOUS
 62
    2
 10
180.53705149999985
 20
177.489801
 40
0.5999999999999999
 50
2.4589260000002127
 51
51.385361999999361
  0
ARC
  8
_0-3_躯体と製品
  6
CONTINUOUS
 62
    2
 10
180.23649950000004
 20
177.115543
 40
1.0800000000000001
 50
51.31781299999912
 51
90
  0
ARC
  8
_0-3_躯体と製品
  6
CONTINUOUS
 62
    2
 10
180.23649950000004
 20
177.115543
 40
1.0800000000000001
 50
90
 51
128.8510619999976
  0
ARC
  8
_0-3_躯体と製品
  6
CONTINUOUS
 62
    2
 10
179.93594649999989
 20
177.489801
 40
0.5999999999999999
 50
128.61463800000061
 51
177.54107399999972
  0
LINE
  8
_0-3_躯体と製品
  6
CONTINUOUS
 62
    2
 10
178.43649949999985
 20
177.51554300000001
 11
182.03649949999999
 21
177.51554300000001
  0
LINE
  8
_0-3_躯体と製品
  6
CONTINUOUS
 62
    2
 10
182.03649949999999
 20
177.51554300000001
 11
182.03649949999999
 21
177.215543
  0
LINE
  8
_0-3_躯体と製品
  6
CONTINUOUS
 62
    2
 10
178.43649949999985
 20
177.51554300000001
 11
178.43649949999985
 21
177.215543
  0
LINE
  8
_0-3_躯体と製品
  6
PLINE2
 62
    3
 10
180.68842449999988
 20
173.932614
 11
180.70935850000001
 21
173.533163
  0
LINE
  8
_0-3_躯体と製品
  6
PLINE2
 62
    3
 10
180.70935850000001
 20
173.533163
 11
181.1088105
 21
173.55409699999998
  0
LINE
  8
_0-3_躯体と製品
  6
PLINE2
 62
    3
 10
181.03649949999999
 20
174.115543
 11
180.68842449999988
 21
173.932614
  0
LINE
  8
_0-3_躯体と製品
  6
PLINE2
 62
    3
 10
179.78457449999985
 20
173.932614
 11
179.76364050000007
 21
173.533163
  0
LINE
  8
_0-3_躯体と製品
  6
PLINE2
 62
    3
 10
179.76364050000007
 20
173.533163
 11
179.36418849999995
 21
173.55409699999998
  0
LINE
  8
_0-3_躯体と製品
  6
PLINE2
 62
    3
 10
179.43649949999997
 20
174.115543
 11
179.78457449999985
 21
173.932614
  0
LINE
  8
_0-3_躯体と製品
  6
PLINE2
 62
    3
 10
181.03649949999999
 20
174.115543
 11
181.03649949999999
 21
174.91554299999999
  0
LINE
  8
_0-3_躯体と製品
  6
PLINE2
 62
    3
 10
179.43649949999997
 20
174.115543
 11
179.43649949999997
 21
174.91554299999999
  0
ARC
  8
_0-3_躯体と製品
  6
PLINE2
 62
    3
 10
178.85347049999984
 20
174.85933399999999
 40
0.08
 50
98.130102000004356
 51
188.29846599999979
  0
LINE
  8
_0-3_躯体と製品
  6
PLINE2
 62
    3
 10
178.84215649999987
 20
174.93852999999999
 11
178.88152149999985
 21
174.944154
  0
ARC
  8
_0-3_躯体と製品
  6
PLINE2
 62
    3
 10
178.89283550000005
 20
174.864958
 40
0.08
 50
8.1301020000006723
 51
98.130102000004356
  0
LINE
  8
_0-3_躯体と製品
  6
PLINE2
 62
    3
 10
178.97203149999996
 20
174.876271
 11
179.16071749999992
 21
173.55546699999999
  0
ARC
  8
_0-3_躯体と製品
  6
PLINE2
 62
    3
 10
181.61952849999989
 20
174.85933399999999
 40
0.08
 50
351.70153400000004
 51
81.8698979999957
  0
LINE
  8
_0-3_躯体と製品
  6
PLINE2
 62
    3
 10
181.63084149999986
 20
174.93852999999999
 11
181.5914765
 21
174.944154
  0
ARC
  8
_0-3_躯体と製品
  6
PLINE2
 62
    3
 10
181.58016350000003
 20
174.864958
 40
0.08
 50
81.869897999995629
 51
171.8698979999993
  0
LINE
  8
_0-3_躯体と製品
  6
PLINE2
 62
    3
 10
181.5009675
 20
174.876271
 11
181.31228050000004
 21
173.55546699999999
  0
CIRCLE
  8
_0-5_文字-記号
  6
CONTINUOUS
 62
    3
 10
180.23649950000004
 20
178.19554299999999
 40
0.2
  0
CIRCLE
  8
_0-5_文字-記号
  6
CONTINUOUS
 62
    3
 10
182.03649949999999
 20
177.51554300000001
 40
0.2
  0
LINE
  8
_0-5_文字-記号
  6
CONTINUOUS
 62
    3
 10
252.34808250000003
 20
166.336569
 11
235.35438150000004
 21
166.336569
  0
TEXT
  8
_0-5_文字-記号
 62
    7
 10
235.35437950000005
 20
166.836578
 40
2
 41
0.8
 50
0
  1
ならしモルタル（別途）
  0
LINE
  8
_0-5_文字-記号
  6
CONTINUOUS
 62
    3
 10
257.52870050000001
 20
175.309662
 11
252.34808250000003
 21
166.336569
  0
LINE
  8
_0-5_文字-記号
  6
CONTINUOUS
 62
    3
 10
259.62855349999995
 20
169.53864400000001
 11
254.71643749999998
 21
161.03061099999999
  0
LINE
  8
_0-5_文字-記号
  6
CONTINUOUS
 62
    3
 10
254.71643749999998
 20
161.03061099999999
 11
243.9022645
 21
161.03061099999999
  0
TEXT
  8
_0-5_文字-記号
 62
    7
 10
243.9022614999999
 20
161.53060099999999
 40
2
 41
0.8
 50
0
  1
千鳥に固定する
  0
LINE
  8
_0-3_躯体と製品
  6
PLINE2
 62
    3
 10
259.04703649999999
 20
173.48706300000001
 11
258.84856549999995
 21
174.84778800000001
  0
LINE
  8
_0-3_躯体と製品
  6
PLINE2
 62
    3
 10
259.04703649999999
 20
173.48706300000001
 11
258.84856549999995
 21
174.84778800000001
  0
LINE
  8
_0-3_躯体と製品
  6
PLINE2
 62
    3
 10
259.43844549999994
 20
173.55409699999998
 11
259.41751050000005
 21
173.15464499999999
  0
LINE
  8
_0-3_躯体と製品
  6
PLINE2
 62
    3
 10
261.18306749999999
 20
173.55409699999998
 11
261.2040015
 21
173.15464499999999
  0
LINE
  8
_0-3_躯体と製品
  6
PLINE2
 62
    3
 10
259.5989444999999
 20
172.55546699999999
 11
259.23497450000002
 21
173.55546699999999
  0
LINE
  8
_0-3_躯体と製品
  6
PLINE2
 62
    3
 10
261.02256749999992
 20
172.55546699999999
 11
261.38653850000014
 21
173.55546699999999
  0
LINE
  8
_0-3_躯体と製品
  6
PLINE2
 62
    3
 10
259.8862734999999
 20
168.72404
 11
260.21075649999989
 21
174.91554299999999
  0
LINE
  8
_0-3_躯体と製品
  6
PLINE2
 62
    3
 10
260.73523950000003
 20
168.72404
 11
260.41075650000005
 21
174.91554299999999
  0
LINE
  8
_0-3_躯体と製品
  6
PLINE2
 62
    3
 10
261.57447649999995
 20
173.48706300000001
 11
261.77294749999987
 21
174.84778800000001
  0
LINE
  8
_0-3_躯体と製品
  6
PLINE2
 62
    3
 10
267.5989444999999
 20
172.55546699999999
 11
267.23497450000002
 21
173.55546699999999
  0
LINE
  8
_0-3_躯体と製品
  6
PLINE2
 62
    3
 10
269.02256749999992
 20
172.55546699999999
 11
269.38653850000014
 21
173.55546699999999
  0
LINE
  8
_0-3_躯体と製品
  6
PLINE2
 62
    3
 10
267.8862734999999
 20
168.72404
 11
268.21075649999989
 21
174.91554299999999
  0
LINE
  8
_0-3_躯体と製品
  6
PLINE2
 62
    3
 10
268.73523950000003
 20
168.72404
 11
268.41075650000005
 21
174.91554299999999
  0
LINE
  8
_0-3_躯体と製品
  6
PLINE2
 62
    3
 10
267.04703649999999
 20
173.48706300000001
 11
266.84856549999995
 21
174.84778800000001
  0
LINE
  8
_0-3_躯体と製品
  6
PLINE2
 62
    3
 10
267.04703649999999
 20
173.48706300000001
 11
266.84856549999995
 21
174.84778800000001
  0
LINE
  8
_0-3_躯体と製品
  6
PLINE3
 62
    3
 10
260.31075650000002
 20
167.778796
 11
260.31075650000002
 21
178.91555099999999
  0
LINE
  8
_0-3_躯体と製品
  6
PLINE3
 62
    3
 10
268.31075650000002
 20
167.778796
 11
268.31075650000002
 21
178.91555099999999
  0
LINE
  8
_0-3_躯体と製品
  6
PLINE2
 62
    3
 10
267.43844549999994
 20
173.55409699999998
 11
267.41751050000005
 21
173.15464499999999
  0
LINE
  8
_0-3_躯体と製品
  6
PLINE2
 62
    3
 10
269.18306749999999
 20
173.55409699999998
 11
269.2040015
 21
173.15464499999999
  0
LINE
  8
_0-3_躯体と製品
  6
PLINE3
 62
    3
 10
268.31075650000002
 20
177.95244199999999
 11
268.31075650000002
 21
167.778796
  0
LINE
  8
_0-5_文字-記号
  6
CONTINUOUS
 62
    3
 10
268.31075650000002
 20
177.95244199999999
 11
265.2793355
 21
172.70186699999999
  0
LINE
  8
_0-3_躯体と製品
  6
PLINE2
 62
    3
 10
259.70182350000005
 20
170.93672599999999
 11
259.68088949999992
 21
170.537274
  0
LINE
  8
_0-3_躯体と製品
  6
PLINE2
 62
    3
 10
259.68088949999992
 20
170.537274
 11
259.28143750000004
 21
170.55820800000001
  0
LINE
  8
_0-3_躯体と製品
  6
PLINE2
 62
    3
 10
259.33377350000012
 20
171.556838
 11
259.31283949999988
 21
171.157386
  0
LINE
  8
_0-3_躯体と製品
  6
PLINE2
 62
    3
 10
259.36517449999985
 20
172.156015
 11
259.7541594999999
 21
171.93535499999999
  0
LINE
  8
_0-3_躯体と製品
  6
PLINE2
 62
    3
 10
259.7541594999999
 20
171.93535499999999
 11
259.7332255
 21
171.53590299999999
  0
LINE
  8
_0-3_躯体と製品
  6
PLINE2
 62
    3
 10
259.7332255
 20
171.53590299999999
 11
259.33377350000012
 21
171.556838
  0
LINE
  8
_0-3_躯体と製品
  6
PLINE2
 62
    3
 10
259.38610949999998
 20
172.55546699999999
 11
259.36517449999985
 21
172.156015
  0
LINE
  8
_0-3_躯体と製品
  6
PLINE2
 62
    3
 10
259.41751050000005
 20
173.15464499999999
 11
259.80649549999998
 21
172.93398500000001
  0
LINE
  8
_0-3_躯体と製品
  6
PLINE2
 62
    3
 10
259.80649549999998
 20
172.93398500000001
 11
259.78556149999986
 21
172.53453299999998
  0
LINE
  8
_0-3_躯体と製品
  6
PLINE2
 62
    3
 10
259.78556149999986
 20
172.53453299999998
 11
259.38610949999998
 21
172.55546699999999
  0
LINE
  8
_0-3_躯体と製品
  6
PLINE2
 62
    3
 10
261.39241149999998
 20
169.55957899999999
 11
261.41334549999988
 21
169.16012699999999
  0
LINE
  8
_0-3_躯体と製品
  6
PLINE2
 62
    3
 10
261.36100950000002
 20
170.15875599999998
 11
260.97202449999997
 21
169.938096
  0
LINE
  8
_0-3_躯体と製品
  6
PLINE2
 62
    3
 10
260.97202449999997
 20
169.938096
 11
260.99295949999987
 21
169.53864400000001
  0
LINE
  8
_0-3_躯体と製品
  6
PLINE2
 62
    3
 10
260.99295949999987
 20
169.53864400000001
 11
261.39241149999998
 21
169.55957899999999
  0
LINE
  8
_0-3_躯体と製品
  6
PLINE2
 62
    3
 10
261.3400754999999
 20
170.55820800000001
 11
261.36100950000002
 21
170.15875599999998
  0
LINE
  8
_0-3_躯体と製品
  6
PLINE2
 62
    3
 10
261.30867350000005
 20
171.157386
 11
260.9196895
 21
170.93672599999999
  0
LINE
  8
_0-3_躯体と製品
  6
PLINE2
 62
    3
 10
260.9196895
 20
170.93672599999999
 11
260.94062350000002
 21
170.537274
  0
LINE
  8
_0-3_躯体と製品
  6
PLINE2
 62
    3
 10
260.94062350000002
 20
170.537274
 11
261.3400754999999
 21
170.55820800000001
  0
LINE
  8
_0-3_躯体と製品
  6
PLINE2
 62
    3
 10
261.28773950000004
 20
171.556838
 11
261.30867350000005
 21
171.157386
  0
LINE
  8
_0-3_躯体と製品
  6
PLINE2
 62
    3
 10
261.25633749999986
 20
172.156015
 11
260.86735350000004
 21
171.93535499999999
  0
LINE
  8
_0-3_躯体と製品
  6
PLINE2
 62
    3
 10
260.86735350000004
 20
171.93535499999999
 11
260.88828749999993
 21
171.53590299999999
  0
LINE
  8
_0-3_躯体と製品
  6
PLINE2
 62
    3
 10
260.88828749999993
 20
171.53590299999999
 11
261.28773950000004
 21
171.556838
  0
LINE
  8
_0-3_躯体と製品
  6
PLINE2
 62
    3
 10
261.23540349999985
 20
172.55546699999999
 11
261.25633749999986
 21
172.156015
  0
LINE
  8
_0-3_躯体と製品
  6
PLINE2
 62
    3
 10
261.2040015
 20
173.15464499999999
 11
260.81501749999995
 21
172.93398500000001
  0
LINE
  8
_0-3_躯体と製品
  6
PLINE2
 62
    3
 10
260.81501749999995
 20
172.93398500000001
 11
260.83595149999996
 21
172.53453299999998
  0
LINE
  8
_0-3_躯体と製品
  6
PLINE2
 62
    3
 10
260.83595149999996
 20
172.53453299999998
 11
261.23540349999985
 21
172.55546699999999
  0
LINE
  8
_0-3_躯体と製品
  6
PLINE2
 62
    3
 10
260.32261749999998
 20
169.327404
 11
259.93587750000006
 21
169.67053799999999
  0
LINE
  8
_0-3_躯体と製品
  6
PLINE2
 62
    3
 10
260.68464549999999
 20
169.68943199999998
 11
260.31075650000002
 21
169.31554299999999
  0
LINE
  8
_0-3_躯体と製品
  6
PLINE2
 62
    3
 10
259.38610949999998
 20
172.55546699999999
 11
259.04703649999999
 21
173.48706300000001
  0
LINE
  8
_0-3_躯体と製品
  6
PLINE2
 62
    3
 10
261.23540349999985
 20
172.55546699999999
 11
261.57447649999995
 21
173.48706300000001
  0
LINE
  8
_0-3_躯体と製品
  6
PLINE2
 62
    3
 10
259.90720750000014
 20
169.123492
 11
259.20816749999994
 21
169.16012699999999
  0
LINE
  8
_0-3_躯体と製品
  6
PLINE2
 62
    3
 10
259.20816749999994
 20
169.16012699999999
 11
259.58668450000005
 21
168.73974100000001
  0
LINE
  8
_0-3_躯体と製品
  6
PLINE2
 62
    3
 10
259.58668450000005
 20
168.73974100000001
 11
259.8862734999999
 21
168.72404
  0
LINE
  8
_0-3_躯体と製品
  6
PLINE2
 62
    3
 10
260.71430449999991
 20
169.123492
 11
261.41334549999988
 21
169.16012699999999
  0
LINE
  8
_0-3_躯体と製品
  6
PLINE2
 62
    3
 10
261.41334549999988
 20
169.16012699999999
 11
261.03482849999989
 21
168.73974100000001
  0
LINE
  8
_0-3_躯体と製品
  6
PLINE2
 62
    3
 10
261.03482849999989
 20
168.73974100000001
 11
260.73523950000003
 21
168.72404
  0
LINE
  8
_0-3_躯体と製品
  6
PLINE2
 62
    3
 10
259.22910149999996
 20
169.55957899999999
 11
259.20816749999994
 21
169.16012699999999
  0
LINE
  8
_0-3_躯体と製品
  6
PLINE2
 62
    3
 10
259.26050350000003
 20
170.15875599999998
 11
259.64948749999996
 21
169.938096
  0
LINE
  8
_0-3_躯体と製品
  6
PLINE2
 62
    3
 10
259.64948749999996
 20
169.938096
 11
259.62855349999995
 21
169.53864400000001
  0
LINE
  8
_0-3_躯体と製品
  6
PLINE2
 62
    3
 10
259.62855349999995
 20
169.53864400000001
 11
259.22910149999996
 21
169.55957899999999
  0
LINE
  8
_0-3_躯体と製品
  6
PLINE2
 62
    3
 10
259.28143750000004
 20
170.55820800000001
 11
259.26050350000003
 21
170.15875599999998
  0
LINE
  8
_0-3_躯体と製品
  6
PLINE2
 62
    3
 10
259.31283949999988
 20
171.157386
 11
259.70182350000005
 21
170.93672599999999
  0
CIRCLE
  8
_0-5_文字-記号
  6
CONTINUOUS
 62
    3
 10
259.62855349999995
 20
169.53864400000001
 40
0.2
  0
LINE
  8
_0-3_躯体と製品
  6
PLINE2
 62
    3
 10
269.23540349999985
 20
172.55546699999999
 11
269.57447649999995
 21
173.48706300000001
  0
LINE
  8
_0-3_躯体と製品
  6
PLINE2
 62
    3
 10
267.90720750000014
 20
169.123492
 11
267.20816749999994
 21
169.16012699999999
  0
LINE
  8
_0-3_躯体と製品
  6
PLINE2
 62
    3
 10
267.20816749999994
 20
169.16012699999999
 11
267.58668450000005
 21
168.73974100000001
  0
LINE
  8
_0-3_躯体と製品
  6
PLINE2
 62
    3
 10
267.58668450000005
 20
168.73974100000001
 11
267.8862734999999
 21
168.72404
  0
LINE
  8
_0-3_躯体と製品
  6
PLINE2
 62
    3
 10
268.71430449999991
 20
169.123492
 11
269.41334549999988
 21
169.16012699999999
  0
LINE
  8
_0-3_躯体と製品
  6
PLINE2
 62
    3
 10
269.41334549999988
 20
169.16012699999999
 11
269.03482849999989
 21
168.73974100000001
  0
LINE
  8
_0-3_躯体と製品
  6
PLINE2
 62
    3
 10
269.03482849999989
 20
168.73974100000001
 11
268.73523950000003
 21
168.72404
  0
LINE
  8
_0-3_躯体と製品
  6
PLINE2
 62
    3
 10
267.22910149999996
 20
169.55957899999999
 11
267.20816749999994
 21
169.16012699999999
  0
LINE
  8
_0-3_躯体と製品
  6
PLINE2
 62
    3
 10
267.26050350000003
 20
170.15875599999998
 11
267.64948749999996
 21
169.938096
  0
LINE
  8
_0-3_躯体と製品
  6
PLINE2
 62
    3
 10
267.64948749999996
 20
169.938096
 11
267.62855349999995
 21
169.53864400000001
  0
LINE
  8
_0-3_躯体と製品
  6
PLINE2
 62
    3
 10
267.62855349999995
 20
169.53864400000001
 11
267.22910149999996
 21
169.55957899999999
  0
LINE
  8
_0-3_躯体と製品
  6
PLINE2
 62
    3
 10
267.28143750000004
 20
170.55820800000001
 11
267.26050350000003
 21
170.15875599999998
  0
LINE
  8
_0-3_躯体と製品
  6
PLINE2
 62
    3
 10
267.31283949999988
 20
171.157386
 11
267.70182350000005
 21
170.93672599999999
  0
LINE
  8
_0-3_躯体と製品
  6
PLINE2
 62
    3
 10
267.70182350000005
 20
170.93672599999999
 11
267.68088949999992
 21
170.537274
  0
LINE
  8
_0-3_躯体と製品
  6
PLINE2
 62
    3
 10
267.68088949999992
 20
170.537274
 11
267.28143750000004
 21
170.55820800000001
  0
LINE
  8
_0-3_躯体と製品
  6
PLINE2
 62
    3
 10
267.33377350000012
 20
171.556838
 11
267.31283949999988
 21
171.157386
  0
LINE
  8
_0-3_躯体と製品
  6
PLINE2
 62
    3
 10
267.36517449999985
 20
172.156015
 11
267.7541594999999
 21
171.93535499999999
  0
LINE
  8
_0-3_躯体と製品
  6
PLINE2
 62
    3
 10
267.7541594999999
 20
171.93535499999999
 11
267.7332255
 21
171.53590299999999
  0
LINE
  8
_0-3_躯体と製品
  6
PLINE2
 62
    3
 10
267.7332255
 20
171.53590299999999
 11
267.33377350000012
 21
171.556838
  0
LINE
  8
_0-3_躯体と製品
  6
PLINE2
 62
    3
 10
267.38610949999998
 20
172.55546699999999
 11
267.36517449999985
 21
172.156015
  0
LINE
  8
_0-3_躯体と製品
  6
PLINE2
 62
    3
 10
267.41751050000005
 20
173.15464499999999
 11
267.80649549999998
 21
172.93398500000001
  0
LINE
  8
_0-3_躯体と製品
  6
PLINE2
 62
    3
 10
267.80649549999998
 20
172.93398500000001
 11
267.78556149999986
 21
172.53453299999998
  0
LINE
  8
_0-3_躯体と製品
  6
PLINE2
 62
    3
 10
267.78556149999986
 20
172.53453299999998
 11
267.38610949999998
 21
172.55546699999999
  0
LINE
  8
_0-3_躯体と製品
  6
PLINE2
 62
    3
 10
269.39241149999998
 20
169.55957899999999
 11
269.41334549999988
 21
169.16012699999999
  0
LINE
  8
_0-3_躯体と製品
  6
PLINE2
 62
    3
 10
269.36100950000014
 20
170.15875599999998
 11
268.97202449999997
 21
169.938096
  0
LINE
  8
_0-3_躯体と製品
  6
PLINE2
 62
    3
 10
268.97202449999997
 20
169.938096
 11
268.99295949999987
 21
169.53864400000001
  0
LINE
  8
_0-3_躯体と製品
  6
PLINE2
 62
    3
 10
268.99295949999987
 20
169.53864400000001
 11
269.39241149999998
 21
169.55957899999999
  0
LINE
  8
_0-3_躯体と製品
  6
PLINE2
 62
    3
 10
269.3400754999999
 20
170.55820800000001
 11
269.36100950000014
 21
170.15875599999998
  0
LINE
  8
_0-3_躯体と製品
  6
PLINE2
 62
    3
 10
269.30867350000005
 20
171.157386
 11
268.9196895
 21
170.93672599999999
  0
LINE
  8
_0-3_躯体と製品
  6
PLINE2
 62
    3
 10
268.9196895
 20
170.93672599999999
 11
268.94062350000002
 21
170.537274
  0
LINE
  8
_0-3_躯体と製品
  6
PLINE2
 62
    3
 10
268.94062350000002
 20
170.537274
 11
269.3400754999999
 21
170.55820800000001
  0
LINE
  8
_0-3_躯体と製品
  6
PLINE2
 62
    3
 10
269.28773950000004
 20
171.556838
 11
269.30867350000005
 21
171.157386
  0
LINE
  8
_0-3_躯体と製品
  6
PLINE2
 62
    3
 10
269.25633749999986
 20
172.156015
 11
268.86735350000004
 21
171.93535499999999
  0
LINE
  8
_0-3_躯体と製品
  6
PLINE2
 62
    3
 10
268.86735350000004
 20
171.93535499999999
 11
268.88828749999993
 21
171.53590299999999
  0
LINE
  8
_0-3_躯体と製品
  6
PLINE2
 62
    3
 10
268.88828749999993
 20
171.53590299999999
 11
269.28773950000004
 21
171.556838
  0
LINE
  8
_0-3_躯体と製品
  6
PLINE2
 62
    3
 10
269.23540349999985
 20
172.55546699999999
 11
269.25633749999986
 21
172.156015
  0
LINE
  8
_0-3_躯体と製品
  6
PLINE2
 62
    3
 10
269.2040015
 20
173.15464499999999
 11
268.81501749999995
 21
172.93398500000001
  0
LINE
  8
_0-3_躯体と製品
  6
PLINE2
 62
    3
 10
268.81501749999995
 20
172.93398500000001
 11
268.83595149999985
 21
172.53453299999998
  0
LINE
  8
_0-3_躯体と製品
  6
PLINE2
 62
    3
 10
268.83595149999985
 20
172.53453299999998
 11
269.23540349999985
 21
172.55546699999999
  0
LINE
  8
_0-3_躯体と製品
  6
PLINE2
 62
    3
 10
268.32261749999998
 20
169.327404
 11
267.93587750000006
 21
169.67053799999999
  0
LINE
  8
_0-3_躯体と製品
  6
PLINE2
 62
    3
 10
268.68464549999999
 20
169.68943199999998
 11
268.31075650000002
 21
169.31554299999999
  0
LINE
  8
_0-3_躯体と製品
  6
PLINE2
 62
    3
 10
267.38610949999998
 20
172.55546699999999
 11
267.04703649999999
 21
173.48706300000001
  0
CIRCLE
  8
_0-5_文字-記号
  6
CONTINUOUS
 62
    3
 10
269.41334549999988
 20
169.16012699999999
 40
0.2
  0
CIRCLE
  8
_0-5_文字-記号
  6
CONTINUOUS
 62
    3
 10
264.5293355
 20
171.402829
 40
1.5
  0
TEXT
  8
_0-5_文字-記号
 62
    7
 10
262.71600316666661
 20
170.62282500000001
 40
2
 41
0.8
 50
0
  1
１０
  0
LINE
  8
_0-3_躯体と製品
  6
CONTINUOUS
 62
    3
 10
260.51176650000002
 20
174.51554300000001
 11
262.51176650000002
 21
176.51554300000001
  0
LINE
  8
_0-3_躯体と製品
  6
CONTINUOUS
 62
    3
 10
261.92598050000015
 20
174.51554300000001
 11
263.92598050000004
 21
176.51554300000001
  0
LINE
  8
_0-3_躯体と製品
  6
PLINE2
 62
    3
 10
262.11075649999987
 20
177.51554300000001
 11
258.51075649999996
 21
177.51554300000001
  0
LINE
  8
_0-3_躯体と製品
  6
CONTINUOUS
 62
    2
 10
261.61075649999998
 20
176.81554299999999
 11
262.61075649999998
 21
176.81554299999999
  0
LINE
  8
_0-3_躯体と製品
  6
CONTINUOUS
 62
    2
 10
262.71075649999989
 20
177.215543
 11
257.41075649999993
 21
177.215543
  0
LINE
  8
_0-3_躯体と製品
  6
CONTINUOUS
 62
    3
 10
256.31075649999991
 20
175.97138699999999
 11
256.85491249999995
 21
176.51554300000001
  0
LINE
  8
_0-3_躯体と製品
  6
CONTINUOUS
 62
    3
 10
256.31075649999991
 20
174.557174
 11
258.26912649999986
 21
176.51554300000001
  0
LINE
  8
_0-3_躯体と製品
  6
CONTINUOUS
 62
    3
 10
257.68333949999999
 20
174.51554300000001
 11
259.68333949999987
 21
176.51554300000001
  0
LINE
  8
_0-3_躯体と製品
  6
CONTINUOUS
 62
    3
 10
259.0975535
 20
174.51554300000001
 11
261.0975535
 21
176.51554300000001
  0
LINE
  8
_0-3_躯体と製品
  6
CONTINUOUS
 62
    2
 10
257.31075750000002
 20
176.715543
 11
257.31075750000002
 21
176.51554300000001
  0
ARC
  8
_0-3_躯体と製品
  6
PLINE2
 62
    3
 10
261.69378549999999
 20
174.85933399999999
 40
0.08
 50
351.70153400000004
 51
81.8698979999957
  0
LINE
  8
_0-3_躯体と製品
  6
PLINE2
 62
    3
 10
261.70509849999985
 20
174.93852999999999
 11
261.66573449999999
 21
174.944153
  0
ARC
  8
_0-3_躯体と製品
  6
PLINE2
 62
    3
 10
261.65442050000001
 20
174.864958
 40
0.08
 50
81.869897999995629
 51
171.8698979999993
  0
LINE
  8
_0-3_躯体と製品
  6
PLINE2
 62
    3
 10
261.57522449999999
 20
174.876271
 11
261.38653850000014
 21
173.55546699999999
  0
ARC
  8
_0-3_躯体と製品
  6
PLINE2
 62
    3
 10
258.92772749999995
 20
174.85933399999999
 40
0.08
 50
98.130102000004356
 51
188.29846599999979
  0
ARC
  8
_0-3_躯体と製品
  6
PLINE2
 62
    3
 10
258.96709250000004
 20
174.864958
 40
0.08
 50
8.1301020000006723
 51
98.130102000004356
  0
LINE
  8
_0-3_躯体と製品
  6
PLINE2
 62
    3
 10
259.04628849999995
 20
174.876271
 11
259.23497450000002
 21
173.55546699999999
  0
ARC
  8
_0-3_躯体と製品
  6
PLINE2
 62
    3
 10
258.92772749999995
 20
174.85933399999999
 40
0.08
 50
98.130102000004356
 51
188.29846599999979
  0
ARC
  8
_0-3_躯体と製品
  6
PLINE2
 62
    3
 10
258.96709250000004
 20
174.864958
 40
0.08
 50
8.1301020000006723
 51
98.130102000004356
  0
LINE
  8
_0-3_躯体と製品
  6
PLINE2
 62
    3
 10
259.04628849999995
 20
174.876271
 11
259.23497450000002
 21
173.55546699999999
  0
LINE
  8
_0-3_躯体と製品
  6
PLINE2
 62
    3
 10
259.31075650000014
 20
176.51554300000001
 11
259.51075650000007
 21
175.51554300000001
  0
LINE
  8
_0-3_躯体と製品
  6
PLINE2
 62
    3
 10
259.51075650000007
 20
176.51554300000001
 11
259.51075650000007
 21
174.91554299999999
  0
LINE
  8
_0-3_躯体と製品
  6
PLINE2
 62
    3
 10
260.21075649999989
 20
174.91554299999999
 11
260.31075650000002
 21
174.91554299999999
  0
LINE
  8
_0-3_躯体と製品
  6
PLINE2
 62
    3
 10
260.31075650000002
 20
175.51554300000001
 11
260.31075650000002
 21
176.51554300000001
  0
LINE
  8
_0-3_躯体と製品
  6
PLINE2
 62
    3
 10
260.11075649999998
 20
176.51554300000001
 11
260.31075650000002
 21
175.51554300000001
  0
LINE
  8
_0-3_躯体と製品
  6
PLINE2
 62
    3
 10
260.51075650000007
 20
176.51554300000001
 11
260.31075650000002
 21
175.51554300000001
  0
LINE
  8
_0-3_躯体と製品
  6
PLINE2
 62
    3
 10
261.31075650000002
 20
176.51554300000001
 11
261.11075649999987
 21
175.51554300000001
  0
LINE
  8
_0-3_躯体と製品
  6
PLINE2
 62
    3
 10
261.11075649999987
 20
176.51554300000001
 11
261.11075649999987
 21
174.91554299999999
  0
LINE
  8
_0-3_躯体と製品
  6
PLINE2
 62
    3
 10
260.41075650000005
 20
174.91554299999999
 11
260.31075650000002
 21
174.91554299999999
  0
ARC
  8
_0-3_躯体と製品
  6
PLINE2
 62
    3
 10
260.01020449999999
 20
177.489801
 40
0.5999999999999999
 50
128.61463800000061
 51
177.54107399999972
  0
ARC
  8
_0-3_躯体と製品
  6
PLINE2
 62
    3
 10
260.31075650000002
 20
177.115543
 40
1.0800000000000001
 50
90
 51
128.68218700000079
  0
ARC
  8
_0-3_躯体と製品
  6
PLINE2
 62
    3
 10
260.31075650000002
 20
177.115543
 40
1.0800000000000001
 50
51.148938000002367
 51
90
  0
ARC
  8
_0-3_躯体と製品
  6
PLINE2
 62
    3
 10
260.61130849999995
 20
177.489801
 40
0.5999999999999999
 50
2.4589260000002127
 51
51.385361999999361
  0
LINE
  8
_0-3_躯体と製品
  6
PLINE2
 62
    3
 10
258.51075649999996
 20
177.51554300000001
 11
258.51075649999996
 21
177.215543
  0
LINE
  8
_0-3_躯体と製品
  6
PLINE2
 62
    3
 10
259.85883149999995
 20
173.932614
 11
259.83789749999994
 21
173.533163
  0
LINE
  8
_0-3_躯体と製品
  6
PLINE2
 62
    3
 10
259.83789749999994
 20
173.533163
 11
259.43844549999994
 21
173.55409699999998
  0
LINE
  8
_0-3_躯体と製品
  6
PLINE2
 62
    3
 10
259.51075650000007
 20
174.115543
 11
259.85883149999995
 21
173.932614
  0
LINE
  8
_0-3_躯体と製品
  6
PLINE2
 62
    3
 10
260.76268149999999
 20
173.932614
 11
260.78361549999988
 21
173.533163
  0
LINE
  8
_0-3_躯体と製品
  6
PLINE2
 62
    3
 10
260.78361549999988
 20
173.533163
 11
261.18306749999999
 21
173.55409699999998
  0
LINE
  8
_0-3_躯体と製品
  6
PLINE2
 62
    3
 10
261.11075649999987
 20
174.115543
 11
260.76268149999999
 21
173.932614
  0
LINE
  8
_0-3_躯体と製品
  6
PLINE2
 62
    3
 10
259.51075650000007
 20
174.115543
 11
259.51075650000007
 21
174.91554299999999
  0
LINE
  8
_0-3_躯体と製品
  6
PLINE2
 62
    3
 10
261.11075649999987
 20
174.115543
 11
261.11075649999987
 21
174.91554299999999
  0
LINE
  8
_0-3_躯体と製品
  6
CONTINUOUS
 62
    2
 10
258.01075650000007
 20
176.715543
 11
258.01075650000007
 21
176.81554299999999
  0
LINE
  8
_0-3_躯体と製品
  6
CONTINUOUS
 62
    2
 10
258.01075650000007
 20
176.81554299999999
 11
259.01075649999996
 21
176.81554299999999
  0
LINE
  8
_0-3_躯体と製品
  6
CONTINUOUS
 62
    2
 10
259.01075649999996
 20
176.81554299999999
 11
259.01075649999996
 21
176.715543
  0
LINE
  8
_0-3_躯体と製品
  6
CONTINUOUS
 62
    2
 10
261.61075649999998
 20
176.715543
 11
261.61075649999998
 21
176.81554299999999
  0
ARC
  8
_0-3_躯体と製品
  6
CONTINUOUS
 62
    2
 10
257.41075649999993
 20
176.81554299999999
 40
0.1
 50
180
 51
270
  0
ARC
  8
_0-3_躯体と製品
  6
CONTINUOUS
 62
    2
 10
257.41075649999993
 20
177.115543
 40
0.1
 50
90
 51
180
  0
LINE
  8
_0-3_躯体と製品
  6
CONTINUOUS
 62
    2
 10
257.31075649999991
 20
177.115543
 11
257.31075649999991
 21
176.81554299999999
  0
LINE
  8
_0-3_躯体と製品
  6
CONTINUOUS
 62
    2
 10
261.61075649999998
 20
176.715543
 11
259.01075649999996
 21
176.715543
  0
LINE
  8
_0-3_躯体と製品
  6
CONTINUOUS
 62
    2
 10
258.01075650000007
 20
176.715543
 11
257.41075649999993
 21
176.715543
  0
LINE
  8
_0-3_躯体と製品
  6
CONTINUOUS
 62
    2
 10
256.31075649999991
 20
176.51554300000001
 11
256.31075649999991
 21
174.51554300000001
  0
CIRCLE
  8
_0-5_文字-記号
  6
CONTINUOUS
 62
    3
 10
257.52870050000001
 20
175.309662
 40
0.2
  0
LINE
  8
_0-3_躯体と製品
  6
CONTINUOUS
 62
    3
 10
263.34019449999994
 20
174.51554300000001
 11
265.34019450000005
 21
176.51554300000001
  0
LINE
  8
_0-3_躯体と製品
  6
CONTINUOUS
 62
    3
 10
264.75440750000007
 20
174.51554300000001
 11
266.75440749999996
 21
176.51554300000001
  0
LINE
  8
_0-3_躯体と製品
  6
CONTINUOUS
 62
    3
 10
266.16862149999997
 20
174.51554300000001
 11
268.16862149999986
 21
176.51554300000001
  0
LINE
  8
_0-3_躯体と製品
  6
CONTINUOUS
 62
    3
 10
267.58283449999988
 20
174.51554300000001
 11
269.58283449999988
 21
176.51554300000001
  0
LINE
  8
_0-3_躯体と製品
  6
CONTINUOUS
 62
    3
 10
264.91075650000005
 20
179.72897
 11
265.01075650000007
 21
179.75555
  0
LINE
  8
_0-3_躯体と製品
  6
PLINE2
 62
    3
 10
262.11075649999987
 20
177.51554300000001
 11
262.11075649999987
 21
177.215543
  0
LINE
  8
_0-3_躯体と製品
  6
CONTINUOUS
 62
    3
 10
264.31075649999991
 20
179.75555
 11
264.83987649999995
 21
179.75555
  0
LINE
  8
_0-3_躯体と製品
  6
CONTINUOUS
 62
    3
 10
264.91075650000005
 20
179.72897
 11
264.91075650000005
 21
179.215551
  0
LINE
  8
_0-3_躯体と製品
  6
CONTINUOUS
 62
    3
 10
264.91075650000005
 20
179.215551
 11
264.61075649999998
 21
178.91555099999999
  0
LINE
  8
_0-3_躯体と製品
  6
CONTINUOUS
 62
    3
 10
264.61075649999998
 20
178.91555099999999
 11
264.31075649999991
 21
179.215551
  0
LINE
  8
_0-3_躯体と製品
  6
CONTINUOUS
 62
    3
 10
264.31075649999991
 20
179.215551
 11
264.31075649999991
 21
179.75555
  0
LINE
  8
_0-3_躯体と製品
  6
CONTINUOUS
 62
    3
 10
264.31075649999991
 20
179.75555
 11
264.61075649999998
 21
178.91555099999999
  0
LINE
  8
_0-3_躯体と製品
  6
CONTINUOUS
 62
    3
 10
264.91075650000005
 20
179.215551
 11
264.53575650000005
 21
179.215551
  0
LINE
  8
_0-3_躯体と製品
  6
CONTINUOUS
 62
    3
 10
264.31075649999991
 20
179.72897
 11
264.2107565
 21
179.75555
  0
LINE
  8
_0-3_躯体と製品
  6
PLINE2
 62
    3
 10
267.51075650000007
 20
174.115543
 11
267.51075650000007
 21
174.91554299999999
  0
LINE
  8
_0-3_躯体と製品
  6
PLINE2
 62
    3
 10
269.11075649999998
 20
174.115543
 11
269.11075649999998
 21
174.91554299999999
  0
LINE
  8
_0-3_躯体と製品
  6
PLINE2
 62
    3
 10
269.70509849999985
 20
174.93852999999999
 11
269.66573449999999
 21
174.944153
  0
ARC
  8
_0-3_躯体と製品
  6
PLINE2
 62
    3
 10
269.65442050000001
 20
174.864958
 40
0.08
 50
81.869897999995629
 51
171.8698979999993
  0
LINE
  8
_0-3_躯体と製品
  6
PLINE2
 62
    3
 10
269.57522449999999
 20
174.876271
 11
269.38653850000014
 21
173.55546699999999
  0
ARC
  8
_0-3_躯体と製品
  6
PLINE2
 62
    3
 10
266.92772749999995
 20
174.85933399999999
 40
0.08
 50
98.130102000004356
 51
188.29846599999979
  0
LINE
  8
_0-3_躯体と製品
  6
PLINE2
 62
    3
 10
266.91641449999997
 20
174.93852999999999
 11
266.95577849999995
 21
174.944153
  0
ARC
  8
_0-3_躯体と製品
  6
PLINE2
 62
    3
 10
266.96709250000004
 20
174.864958
 40
0.08
 50
8.1301020000006723
 51
98.130102000004356
  0
LINE
  8
_0-3_躯体と製品
  6
PLINE2
 62
    3
 10
267.04628849999995
 20
174.876271
 11
267.23497450000002
 21
173.55546699999999
  0
ARC
  8
_0-3_躯体と製品
  6
PLINE2
 62
    3
 10
266.92772749999995
 20
174.85933399999999
 40
0.08
 50
98.130102000004356
 51
188.29846599999979
  0
LINE
  8
_0-3_躯体と製品
  6
PLINE2
 62
    3
 10
266.91641449999997
 20
174.93852999999999
 11
266.95577849999995
 21
174.944153
  0
ARC
  8
_0-3_躯体と製品
  6
PLINE2
 62
    3
 10
266.96709250000004
 20
174.864958
 40
0.08
 50
8.1301020000006723
 51
98.130102000004356
  0
LINE
  8
_0-3_躯体と製品
  6
PLINE2
 62
    3
 10
267.04628849999995
 20
174.876271
 11
267.23497450000002
 21
173.55546699999999
  0
LINE
  8
_0-3_躯体と製品
  6
PLINE2
 62
    3
 10
267.31075650000014
 20
176.51554300000001
 11
267.51075650000007
 21
175.51554300000001
  0
LINE
  8
_0-3_躯体と製品
  6
PLINE2
 62
    3
 10
267.51075650000007
 20
176.51554300000001
 11
267.51075650000007
 21
174.91554299999999
  0
LINE
  8
_0-3_躯体と製品
  6
PLINE2
 62
    3
 10
268.21075649999989
 20
174.91554299999999
 11
268.31075650000002
 21
174.91554299999999
  0
LINE
  8
_0-3_躯体と製品
  6
PLINE2
 62
    3
 10
268.31075650000002
 20
175.51554300000001
 11
268.31075650000002
 21
176.51554300000001
  0
LINE
  8
_0-3_躯体と製品
  6
PLINE2
 62
    3
 10
268.11075649999998
 20
176.51554300000001
 11
268.31075650000002
 21
175.51554300000001
  0
LINE
  8
_0-3_躯体と製品
  6
PLINE2
 62
    3
 10
268.51075650000007
 20
176.51554300000001
 11
268.31075650000002
 21
175.51554300000001
  0
LINE
  8
_0-3_躯体と製品
  6
PLINE2
 62
    3
 10
269.31075650000002
 20
176.51554300000001
 11
269.11075649999998
 21
175.51554300000001
  0
LINE
  8
_0-3_躯体と製品
  6
PLINE2
 62
    3
 10
269.11075649999998
 20
176.51554300000001
 11
269.11075649999998
 21
174.91554299999999
  0
LINE
  8
_0-3_躯体と製品
  6
PLINE2
 62
    3
 10
268.41075650000005
 20
174.91554299999999
 11
268.31075650000002
 21
174.91554299999999
  0
ARC
  8
_0-3_躯体と製品
  6
CONTINUOUS
 62
    2
 10
268.01020449999999
 20
177.489801
 40
0.5999999999999999
 50
128.61463800000061
 51
177.54107399999972
  0
ARC
  8
_0-3_躯体と製品
  6
CONTINUOUS
 62
    2
 10
268.31075650000002
 20
177.115543
 40
1.0800000000000001
 50
90
 51
128.68218700000079
  0
ARC
  8
_0-3_躯体と製品
  6
CONTINUOUS
 62
    2
 10
268.31075650000002
 20
177.115543
 40
1.0800000000000001
 50
51.148938000002367
 51
90
  0
ARC
  8
_0-3_躯体と製品
  6
CONTINUOUS
 62
    2
 10
268.61130849999995
 20
177.489801
 40
0.5999999999999999
 50
2.4589260000002127
 51
51.385361999999361
  0
LINE
  8
_0-3_躯体と製品
  6
CONTINUOUS
 62
    2
 10
266.51075649999996
 20
177.51554300000001
 11
266.51075649999996
 21
177.215543
  0
LINE
  8
_0-3_躯体と製品
  6
PLINE2
 62
    3
 10
267.85883149999995
 20
173.932614
 11
267.83789749999994
 21
173.533163
  0
LINE
  8
_0-3_躯体と製品
  6
PLINE2
 62
    3
 10
267.83789749999994
 20
173.533163
 11
267.43844549999994
 21
173.55409699999998
  0
LINE
  8
_0-3_躯体と製品
  6
PLINE2
 62
    3
 10
267.51075650000007
 20
174.115543
 11
267.85883149999995
 21
173.932614
  0
LINE
  8
_0-3_躯体と製品
  6
PLINE2
 62
    3
 10
268.76268149999999
 20
173.932614
 11
268.7836155
 21
173.533163
  0
LINE
  8
_0-3_躯体と製品
  6
PLINE2
 62
    3
 10
268.7836155
 20
173.533163
 11
269.18306749999999
 21
173.55409699999998
  0
LINE
  8
_0-3_躯体と製品
  6
PLINE2
 62
    3
 10
269.11075649999998
 20
174.115543
 11
268.76268149999999
 21
173.932614
  0
LINE
  8
_0-3_躯体と製品
  6
CONTINUOUS
 62
    2
 10
262.61075649999998
 20
176.81554299999999
 11
262.61075649999998
 21
176.715543
  0
ARC
  8
_0-3_躯体と製品
  6
CONTINUOUS
 62
    2
 10
262.71075649999989
 20
177.615543
 40
0.4
 50
270
 51
0
  0
ARC
  8
_0-3_躯体と製品
  6
CONTINUOUS
 62
    2
 10
264.01075650000007
 20
177.615543
 40
0.4
 50
180
 51
270
  0
LINE
  8
_0-3_躯体と製品
  6
CONTINUOUS
 62
    2
 10
268.21075649999989
 20
177.215543
 11
264.01075650000007
 21
177.215543
  0
LINE
  8
_0-3_躯体と製品
  6
CONTINUOUS
 62
    2
 10
262.41075649999993
 20
179.615543
 11
262.91075649999982
 21
179.615543
  0
ARC
  8
_0-3_躯体と製品
  6
CONTINUOUS
 62
    2
 10
262.91075649999982
 20
179.41554299999999
 40
0.2
 50
0
 51
90
  0
LINE
  8
_0-3_躯体と製品
  6
CONTINUOUS
 62
    2
 10
263.11075649999987
 20
179.41554299999999
 11
263.11075649999987
 21
177.615543
  0
LINE
  8
_0-3_躯体と製品
  6
CONTINUOUS
 62
    2
 10
266.01075650000007
 20
176.715543
 11
266.01075650000007
 21
176.81554299999999
  0
LINE
  8
_0-3_躯体と製品
  6
CONTINUOUS
 62
    2
 10
266.01075650000007
 20
176.81554299999999
 11
267.01075649999996
 21
176.81554299999999
  0
LINE
  8
_0-3_躯体と製品
  6
CONTINUOUS
 62
    2
 10
267.01075649999996
 20
176.81554299999999
 11
267.01075649999996
 21
176.715543
  0
LINE
  8
_0-3_躯体と製品
  6
CONTINUOUS
 62
    2
 10
269.61075649999998
 20
176.715543
 11
269.61075649999998
 21
176.81554299999999
  0
LINE
  8
_0-3_躯体と製品
  6
CONTINUOUS
 62
    2
 10
266.01075650000007
 20
176.715543
 11
262.61075649999998
 21
176.715543
  0
LINE
  8
_0-3_躯体と製品
  6
CONTINUOUS
 62
    2
 10
267.01075649999996
 20
176.715543
 11
269.61075649999998
 21
176.715543
  0
LINE
  8
_0-3_躯体と製品
  6
CONTINUOUS
 62
    2
 10
268.41075650000005
 20
177.215543
 11
268.31075650000002
 21
177.115543
  0
LINE
  8
_0-3_躯体と製品
  6
CONTINUOUS
 62
    2
 10
268.21075649999989
 20
177.215543
 11
268.31075650000002
 21
177.115543
  0
ARC
  8
_0-3_躯体と製品
  6
CONTINUOUS
 62
    2
 10
262.41075649999993
 20
179.715543
 40
0.1
 50
180
 51
270
  0
CIRCLE
  8
_0-5_文字-記号
  6
CONTINUOUS
 62
    3
 10
268.31075650000002
 20
177.95244199999999
 40
0.2
  0
ARC
  8
_0-3_躯体と製品
  6
CONTINUOUS
 62
    2
 10
178.08649949999995
 20
181.26554300000001
 40
0.1499999999999999
 50
0
 51
180
  0
ARC
  8
_0-3_躯体と製品
  6
CONTINUOUS
 62
    2
 10
177.83649949999995
 20
180.01554300000001
 40
0.1
 50
270
 51
0
  0
LINE
  8
_0-5_文字-記号
  6
CONTINUOUS
 62
    3
 10
175.93649949999997
 20
181.41554399999998
 11
179.60806049999985
 21
187.77487299999999
  0
ARC
  8
_0-3_躯体と製品
  6
CONTINUOUS
 62
    2
 10
145.23649950000004
 20
-178.78821299999993
 40
360
 50
86.923414999998656
 51
87.87354300000149
  0
LINE
  8
_0-3_躯体と製品
  6
CONTINUOUS
 62
    2
 10
177.42649949999986
 20
180.91554299999999
 11
158.28649949999999
 21
180.91554299999999
  0
LINE
  8
_0-3_躯体と製品
  6
CONTINUOUS
 62
    2
 10
163.33649949999995
 20
181.51554300000001
 11
161.33649949999995
 21
181.51554300000001
  0
CIRCLE
  8
_0-5_文字-記号
  6
CONTINUOUS
 62
    3
 10
153.50142949999986
 20
186.832087
 40
1.5
  0
TEXT
  8
_0-5_文字-記号
 62
    7
 10
152.80809516666659
 20
186.05206999999999
 40
2
 41
0.8
 50
0
  1
２
  0
ARC
  8
_0-3_躯体と製品
  6
CONTINUOUS
 62
    2
 10
145.23649950000004
 20
-178.78821299999993
 40
360
 50
87.892678999996889
 51
89.20419999999838
  0
ARC
  8
_0-3_躯体と製品
  6
CONTINUOUS
 62
    2
 10
145.23649950000004
 20
-178.78821299999993
 40
359.94
 50
89.20406699999559
 51
89.363261000001501
  0
LINE
  8
_0-3_躯体と製品
  6
CONTINUOUS
 62
    2
 10
150.23649950000004
 20
181.177063
 11
150.23649950000004
 21
181.11705699999999
  0
LINE
  8
_0-3_躯体と製品
  6
CONTINUOUS
 62
    2
 10
149.23649950000004
 20
181.18956399999999
 11
149.23649950000004
 21
181.12956
  0
LINE
  8
_0-5_文字-記号
  6
CONTINUOUS
 62
    3
 10
150.23649950000004
 20
181.177063
 11
152.75142949999997
 21
185.53304900000001
  0
CIRCLE
  8
_0-5_文字-記号
  6
CONTINUOUS
 62
    3
 10
150.23649950000004
 20
181.177063
 40
0.2
  0
LINE
  8
_0-3_躯体と製品
  6
CONTINUOUS
 62
    2
 10
158.59435649999989
 20
180.96387899999999
 11
158.53649949999988
 21
180.90602200000001
  0
LINE
  8
_0-3_躯体と製品
  6
CONTINUOUS
 62
    2
 10
158.53649949999988
 20
180.90602200000001
 11
158.47420250000005
 21
180.96832000000001
  0
LINE
  8
_0-3_躯体と製品
  6
CONTINUOUS
 62
    2
 10
158.58649949999995
 20
181.51554300000001
 11
158.28649949999999
 21
181.215543
  0
LINE
  8
_0-3_躯体と製品
  6
CONTINUOUS
 62
    2
 10
158.28649949999999
 20
181.215543
 11
158.28649949999999
 21
180.91554299999999
  0
LINE
  8
_0-3_躯体と製品
  6
CONTINUOUS
 62
    2
 10
160.33649949999995
 20
181.45554300000001
 11
160.33649949999995
 21
181.51554300000001
  0
LINE
  8
_0-3_躯体と製品
  6
CONTINUOUS
 62
    2
 10
160.33649949999995
 20
181.51554300000001
 11
158.58649949999995
 21
181.51554300000001
  0
LINE
  8
_0-3_躯体と製品
  6
CONTINUOUS
 62
    2
 10
161.33649949999995
 20
181.51554300000001
 11
161.33649949999995
 21
181.45554300000001
  0
LINE
  8
_0-3_躯体と製品
  6
CONTINUOUS
 62
    2
 10
161.33649949999995
 20
181.45554300000001
 11
160.33649949999995
 21
181.45554300000001
  0
CIRCLE
  8
_0-5_文字-記号
  6
CONTINUOUS
 62
    3
 10
172.71052850000001
 20
187.299532
 40
1.5
  0
CIRCLE
  8
_0-5_文字-記号
  6
CONTINUOUS
 62
    3
 10
167.19235949999995
 20
187.15116399999999
 40
1.5
  0
LINE
  8
_0-3_躯体と製品
  6
CONTINUOUS
 62
    2
 10
170.33649949999995
 20
181.45554300000001
 11
169.33649949999995
 21
181.45554300000001
  0
LINE
  8
_0-5_文字-記号
  6
CONTINUOUS
 62
    3
 10
169.33649949999995
 20
181.45554300000001
 11
171.9605284999999
 21
186.00049300000001
  0
ARC
  8
_0-3_躯体と製品
  6
CONTINUOUS
 62
    2
 10
164.43649949999985
 20
179.898279
 40
0.1
 50
0
 51
86.935958999998505
  0
ARC
  8
_0-3_躯体と製品
  6
CONTINUOUS
 62
    2
 10
164.53649949999999
 20
180.29349099999999
 40
0.4
 50
0
 51
86.923414999998656
  0
LINE
  8
_0-3_躯体と製品
  6
CONTINUOUS
 62
    2
 10
169.33649949999995
 20
181.45554300000001
 11
169.33649949999995
 21
181.51554300000001
  0
LINE
  8
_0-3_躯体と製品
  6
CONTINUOUS
 62
    2
 10
169.33649949999995
 20
181.51554300000001
 11
167.33649949999995
 21
181.51554300000001
  0
LINE
  8
_0-3_躯体と製品
  6
CONTINUOUS
 62
    2
 10
167.33649949999995
 20
181.51554300000001
 11
167.33649949999995
 21
181.45554300000001
  0
LINE
  8
_0-3_躯体と製品
  6
CONTINUOUS
 62
    2
 10
167.33649949999995
 20
181.45554300000001
 11
166.33649949999995
 21
181.45554300000001
  0
LINE
  8
_0-3_躯体と製品
  6
CONTINUOUS
 62
    2
 10
166.33649949999995
 20
181.45554300000001
 11
166.33649949999995
 21
181.51554300000001
  0
LINE
  8
_0-3_躯体と製品
  6
CONTINUOUS
 62
    2
 10
166.33649949999995
 20
181.51554300000001
 11
164.33649949999995
 21
181.51554300000001
  0
LINE
  8
_0-3_躯体と製品
  6
CONTINUOUS
 62
    2
 10
164.33649949999995
 20
181.51554300000001
 11
164.33649949999995
 21
181.45554300000001
  0
LINE
  8
_0-3_躯体と製品
  6
CONTINUOUS
 62
    2
 10
164.33649949999995
 20
181.45554300000001
 11
163.33649949999995
 21
181.45554300000001
  0
LINE
  8
_0-3_躯体と製品
  6
CONTINUOUS
 62
    2
 10
163.33649949999995
 20
181.45554300000001
 11
163.33649949999995
 21
181.51554300000001
  0
CIRCLE
  8
_0-5_文字-記号
  6
CONTINUOUS
 62
    3
 10
169.33649949999995
 20
181.45554300000001
 40
0.2
  0
LINE
  8
_0-3_躯体と製品
  6
CONTINUOUS
 62
    2
 10
177.33649949999995
 20
180.91554299999999
 11
176.83649949999995
 21
180.91554299999999
  0
LINE
  8
_0-3_躯体と製品
  6
CONTINUOUS
 62
    2
 10
177.58649949999995
 20
180.115543
 11
177.78649949999999
 21
180.115543
  0
ARC
  8
_0-3_躯体と製品
  6
CONTINUOUS
 62
    2
 10
177.78649949999999
 20
180.215543
 40
0.1
 50
270
 51
0
  0
LINE
  8
_0-3_躯体と製品
  6
CONTINUOUS
 62
    2
 10
177.8864994999999
 20
181.31554299999999
 11
177.8864994999999
 21
180.215543
  0
ARC
  8
_0-3_躯体と製品
  6
CONTINUOUS
 62
    2
 10
177.58649949999995
 20
180.215543
 40
0.1
 50
180
 51
270
  0
ARC
  8
_0-3_躯体と製品
  6
CONTINUOUS
 62
    2
 10
177.42649949999986
 20
180.85554299999998
 40
0.0599999999999999
 50
0
 51
90
  0
LINE
  8
_0-3_躯体と製品
  6
CONTINUOUS
 62
    2
 10
177.48649950000004
 20
180.215543
 11
177.48649950000004
 21
180.85554299999998
  0
LINE
  8
_0-3_躯体と製品
  6
CONTINUOUS
 62
    2
 10
177.68649949999997
 20
181.51554300000001
 11
177.8864994999999
 21
181.31554299999999
  0
LINE
  8
_0-3_躯体と製品
  6
CONTINUOUS
 62
    2
 10
176.03649849999999
 20
181.51554400000001
 11
177.68646450000006
 21
181.515578
  0
LINE
  8
_0-3_躯体と製品
  6
CONTINUOUS
 62
    2
 10
175.83649949999995
 20
181.51554400000001
 11
175.93649949999997
 21
181.41554399999998
  0
LINE
  8
_0-3_躯体と製品
  6
CONTINUOUS
 62
    2
 10
175.93649949999997
 20
181.41554399999998
 11
176.03649849999999
 21
181.51554300000001
  0
LINE
  8
_0-3_躯体と製品
  6
CONTINUOUS
 62
    2
 10
175.83649949999995
 20
181.51554400000001
 11
173.33649949999995
 21
181.51554300000001
  0
LINE
  8
_0-3_躯体と製品
  6
CONTINUOUS
 62
    2
 10
173.33649949999995
 20
181.51554300000001
 11
173.33649949999995
 21
181.45554300000001
  0
LINE
  8
_0-3_躯体と製品
  6
CONTINUOUS
 62
    2
 10
173.33649949999995
 20
181.45554300000001
 11
172.33649949999995
 21
181.45554300000001
  0
LINE
  8
_0-3_躯体と製品
  6
CONTINUOUS
 62
    2
 10
172.33649949999995
 20
181.45554300000001
 11
172.33649949999995
 21
181.51554300000001
  0
LINE
  8
_0-3_躯体と製品
  6
CONTINUOUS
 62
    2
 10
172.33649949999995
 20
181.51554300000001
 11
170.33649949999995
 21
181.51554300000001
  0
LINE
  8
_0-3_躯体と製品
  6
CONTINUOUS
 62
    2
 10
170.33649949999995
 20
181.51554300000001
 11
170.33649949999995
 21
181.45554300000001
  0
LINE
  8
_0-3_躯体と製品
  6
CONTINUOUS
 62
    3
 10
176.33649949999995
 20
180.95554999999999
 11
175.53649949999999
 21
180.95554999999999
  0
LINE
  8
_0-3_躯体と製品
  6
CONTINUOUS
 62
    3
 10
175.53649949999999
 20
180.95554999999999
 11
174.97649950000005
 21
181.51554999999999
  0
LINE
  8
_0-3_躯体と製品
  6
CONTINUOUS
 62
    3
 10
176.89649949999989
 20
181.51554999999999
 11
176.33649949999995
 21
180.95554999999999
  0
LINE
  8
_0-3_躯体と製品
  6
CONTINUOUS
 62
    2
 10
174.83649949999995
 20
180.115543
 11
176.73649950000004
 21
180.115543
  0
LINE
  8
_0-3_躯体と製品
  6
CONTINUOUS
 62
    2
 10
175.83649949999995
 20
180.615543
 11
175.93649949999997
 21
180.51554300000001
  0
LINE
  8
_0-3_躯体と製品
  6
CONTINUOUS
 62
    2
 10
176.03649949999999
 20
180.615543
 11
175.93649949999997
 21
180.51554300000001
  0
LINE
  8
_0-3_躯体と製品
  6
CONTINUOUS
 62
    2
 10
175.03649949999988
 20
180.91554299999999
 11
174.53649949999988
 21
180.91554299999999
  0
LINE
  8
_0-3_躯体と製品
  6
CONTINUOUS
 62
    2
 10
177.33649949999995
 20
180.91554299999999
 11
176.83649949999995
 21
180.91554299999999
  0
ARC
  8
_0-3_躯体と製品
  6
CONTINUOUS
 62
    2
 10
177.53649949999999
 20
180.01554300000001
 40
0.1
 50
180
 51
270
  0
LINE
  8
_0-3_躯体と製品
  6
CONTINUOUS
 62
    2
 10
177.53649949999999
 20
179.91554299999999
 11
177.83649949999995
 21
179.91554299999999
  0
LINE
  8
_0-3_躯体と製品
  6
CONTINUOUS
 62
    2
 10
177.43649949999985
 20
180.01554300000001
 11
177.43649949999985
 21
180.81554299999999
  0
LINE
  8
_0-3_躯体と製品
  6
CONTINUOUS
 62
    2
 10
177.93649949999985
 20
181.26554300000001
 11
177.93649949999985
 21
180.01554300000001
  0
LINE
  8
_0-3_躯体と製品
  6
CONTINUOUS
 62
    2
 10
176.73649950000004
 20
180.615543
 11
176.73649950000004
 21
180.81554299999999
  0
LINE
  8
_0-3_躯体と製品
  6
CONTINUOUS
 62
    2
 10
175.13649950000001
 20
180.615543
 11
175.83649949999995
 21
180.615543
  0
LINE
  8
_0-3_躯体と製品
  6
CONTINUOUS
 62
    2
 10
176.73649950000004
 20
180.615543
 11
176.03649949999999
 21
180.615543
  0
LINE
  8
_0-3_躯体と製品
  6
CONTINUOUS
 62
    2
 10
175.13649950000001
 20
180.615543
 11
175.13649950000001
 21
180.81554299999999
  0
ARC
  8
_0-3_躯体と製品
  6
CONTINUOUS
 62
    2
 10
175.03649949999988
 20
180.81554299999999
 40
0.1
 50
0
 51
90
  0
ARC
  8
_0-3_躯体と製品
  6
CONTINUOUS
 62
    2
 10
174.53649949999988
 20
180.81554299999999
 40
0.1
 50
90
 51
180
  0
LINE
  8
_0-3_躯体と製品
  6
CONTINUOUS
 62
    2
 10
175.03649949999988
 20
180.91554299999999
 11
174.53649949999988
 21
180.91554299999999
  0
ARC
  8
_0-3_躯体と製品
  6
CONTINUOUS
 62
    2
 10
177.33649949999995
 20
180.81554299999999
 40
0.1
 50
0
 51
90
  0
ARC
  8
_0-3_躯体と製品
  6
CONTINUOUS
 62
    2
 10
176.83649949999995
 20
180.81554299999999
 40
0.1
 50
90
 51
180
  0
LINE
  8
_0-3_躯体と製品
  6
CONTINUOUS
 62
    2
 10
174.43649949999985
 20
180.51554300000001
 11
174.43649949999985
 21
180.81554299999999
  0
ARC
  8
_0-3_躯体と製品
  6
CONTINUOUS
 62
    2
 10
174.83649949999995
 20
180.51554300000001
 40
0.4
 50
180
 51
270
  0
ARC
  8
_0-3_躯体と製品
  6
CONTINUOUS
 62
    2
 10
176.73649950000004
 20
179.91554299999999
 40
0.2
 50
0
 51
90
  0
LINE
  8
_0-3_躯体と製品
  6
CONTINUOUS
 62
    3
 10
176.33649949999995
 20
180.35554400000001
 11
176.23649950000004
 21
180.45712399999999
  0
LINE
  8
_0-3_躯体と製品
  6
CONTINUOUS
 62
    3
 10
175.53649949999999
 20
180.65554399999999
 11
176.33649949999995
 21
180.35554400000001
  0
LINE
  8
_0-3_躯体と製品
  6
CONTINUOUS
 62
    3
 10
176.23649950000004
 20
179.857124
 11
175.6364994999999
 21
180.08212399999999
  0
LINE
  8
_0-3_躯体と製品
  6
CONTINUOUS
 62
    3
 10
175.6364994999999
 20
180.08212399999999
 11
175.53649949999999
 21
180.055544
  0
LINE
  8
_0-3_躯体と製品
  6
CONTINUOUS
 62
    3
 10
175.53649949999999
 20
180.055544
 11
175.6364994999999
 21
179.95396399999998
  0
LINE
  8
_0-3_躯体と製品
  6
CONTINUOUS
 62
    3
 10
175.53649949999999
 20
180.955544
 11
176.33649949999995
 21
180.955544
  0
LINE
  8
_0-3_躯体と製品
  6
CONTINUOUS
 62
    2
 10
176.33649949999995
 20
180.955544
 11
176.89649949999989
 21
181.51554400000001
  0
LINE
  8
_0-3_躯体と製品
  6
CONTINUOUS
 62
    2
 10
174.97649950000005
 20
181.51554400000001
 11
175.53649949999999
 21
180.955544
  0
LINE
  8
_0-3_躯体と製品
  6
CONTINUOUS
 62
    3
 10
176.23649950000004
 20
180.15712399999998
 11
175.6364994999999
 21
180.382124
  0
LINE
  8
_0-3_躯体と製品
  6
CONTINUOUS
 62
    3
 10
175.6364994999999
 20
180.382124
 11
175.53649949999999
 21
180.35554400000001
  0
LINE
  8
_0-3_躯体と製品
  6
CONTINUOUS
 62
    3
 10
175.53649949999999
 20
180.35554400000001
 11
175.6364994999999
 21
180.253964
  0
LINE
  8
_0-3_躯体と製品
  6
CONTINUOUS
 62
    3
 10
175.6364994999999
 20
180.253964
 11
176.23649950000004
 21
180.028964
  0
LINE
  8
_0-3_躯体と製品
  6
CONTINUOUS
 62
    3
 10
176.23649950000004
 20
180.028964
 11
176.33649949999995
 21
180.055544
  0
LINE
  8
_0-3_躯体と製品
  6
CONTINUOUS
 62
    3
 10
176.33649949999995
 20
180.055544
 11
176.23649950000004
 21
180.15712399999998
  0
LINE
  8
_0-3_躯体と製品
  6
CONTINUOUS
 62
    3
 10
175.53649949999999
 20
180.35554400000001
 11
176.33649949999995
 21
180.055544
  0
LINE
  8
_0-3_躯体と製品
  6
CONTINUOUS
 62
    3
 10
176.23649950000004
 20
180.018044
 11
176.23649950000004
 21
179.857124
  0
LINE
  8
_0-3_躯体と製品
  6
CONTINUOUS
 62
    3
 10
175.6364994999999
 20
180.253964
 11
175.6364994999999
 21
180.08212399999999
  0
LINE
  8
_0-3_躯体と製品
  6
CONTINUOUS
 62
    3
 10
176.23649950000004
 20
180.955544
 11
176.23649950000004
 21
180.757124
  0
LINE
  8
_0-3_躯体と製品
  6
CONTINUOUS
 62
    3
 10
175.6364994999999
 20
180.85396399999999
 11
175.6364994999999
 21
180.68212399999999
  0
LINE
  8
_0-3_躯体と製品
  6
CONTINUOUS
 62
    3
 10
176.23649950000004
 20
180.628964
 11
176.23649950000004
 21
180.45712399999999
  0
LINE
  8
_0-3_躯体と製品
  6
CONTINUOUS
 62
    3
 10
175.6364994999999
 20
180.55396400000001
 11
175.6364994999999
 21
180.382124
  0
LINE
  8
_0-3_躯体と製品
  6
CONTINUOUS
 62
    3
 10
176.23649950000004
 20
180.32896399999998
 11
176.23649950000004
 21
180.15712399999998
  0
LINE
  8
_0-3_躯体と製品
  6
CONTINUOUS
 62
    3
 10
176.23649950000004
 20
180.757124
 11
175.70737949999989
 21
180.955544
  0
LINE
  8
_0-3_躯体と製品
  6
CONTINUOUS
 62
    3
 10
175.53649949999999
 20
180.955544
 11
175.6364994999999
 21
180.85396399999999
  0
LINE
  8
_0-3_躯体と製品
  6
CONTINUOUS
 62
    3
 10
175.6364994999999
 20
180.85396399999999
 11
176.23649950000004
 21
180.628964
  0
LINE
  8
_0-3_躯体と製品
  6
CONTINUOUS
 62
    3
 10
176.23649950000004
 20
180.628964
 11
176.33649949999995
 21
180.65554399999999
  0
LINE
  8
_0-3_躯体と製品
  6
CONTINUOUS
 62
    3
 10
176.33649949999995
 20
180.65554399999999
 11
176.23649950000004
 21
180.757124
  0
LINE
  8
_0-3_躯体と製品
  6
CONTINUOUS
 62
    3
 10
175.53649949999999
 20
180.955544
 11
176.33649949999995
 21
180.65554399999999
  0
LINE
  8
_0-3_躯体と製品
  6
CONTINUOUS
 62
    3
 10
176.23649950000004
 20
180.45712399999999
 11
175.6364994999999
 21
180.68212399999999
  0
LINE
  8
_0-3_躯体と製品
  6
CONTINUOUS
 62
    3
 10
175.6364994999999
 20
180.68212399999999
 11
175.53649949999999
 21
180.65554399999999
  0
LINE
  8
_0-3_躯体と製品
  6
CONTINUOUS
 62
    3
 10
175.53649949999999
 20
180.65554399999999
 11
175.6364994999999
 21
180.55396400000001
  0
LINE
  8
_0-3_躯体と製品
  6
CONTINUOUS
 62
    3
 10
175.6364994999999
 20
180.55396400000001
 11
176.23649950000004
 21
180.32896399999998
  0
LINE
  8
_0-3_躯体と製品
  6
CONTINUOUS
 62
    3
 10
176.23649950000004
 20
180.32896399999998
 11
176.33649949999995
 21
180.35554400000001
  0
CIRCLE
  8
_0-5_文字-記号
  6
CONTINUOUS
 62
    3
 10
175.93649949999997
 20
181.41554399999998
 40
0.2
  0
TEXT
  8
_0-5_文字-記号
 62
    7
 10
166.49902816666668
 20
186.371162
 40
2
 41
0.8
 50
0
  1
３
  0
TEXT
  8
_0-5_文字-記号
 62
    7
 10
171.96385283333325
 20
186.51953799999998
 40
2
 41
0.8
 50
0
  1
１
  0
CIRCLE
  8
_0-5_文字-記号
  6
CONTINUOUS
 62
    3
 10
184.36414949999994
 20
185.344842
 40
1.5
  0
LINE
  8
_0-3_躯体と製品
  6
CONTINUOUS
 62
    2
 10
178.08649949999995
 20
181.41554299999999
 11
188.05665550000003
 21
181.41554299999999
  0
TEXT
  8
_0-5_文字-記号
 62
    7
 10
183.61748583333326
 20
184.564841
 40
2
 41
0.8
 50
0
  1
７
  0
CIRCLE
  8
_0-5_文字-記号
  6
CONTINUOUS
 62
    3
 10
180.35806049999997
 20
189.07391100000001
 40
1.5
  0
TEXT
  8
_0-5_文字-記号
 62
    7
 10
179.66472316666659
 20
188.29392200000001
 40
2
 41
0.8
 50
0
  1
５
  0
LINE
  8
_0-3_躯体と製品
  6
CONTINUOUS
 62
    2
 10
262.46075749999989
 20
181.41554299999999
 11
251.80358149999995
 21
181.41554299999999
  0
CIRCLE
  8
_0-5_文字-記号
  6
CONTINUOUS
 62
    3
 10
267.82227549999993
 20
186.51806299999998
 40
1.5
  0
TEXT
  8
_0-5_文字-記号
 62
    7
 10
267.12894116666666
 20
185.73805899999999
 40
2
 41
0.8
 50
0
  1
８
  0
LINE
  8
_0-3_躯体と製品
  6
CONTINUOUS
 62
    3
 10
264.31075649999991
 20
180.38212999999999
 11
264.2107565
 21
180.35554999999999
  0
LINE
  8
_0-3_躯体と製品
  6
CONTINUOUS
 62
    3
 10
264.2107565
 20
180.35554999999999
 11
264.31075649999991
 21
180.25397000000001
  0
LINE
  8
_0-3_躯体と製品
  6
CONTINUOUS
 62
    3
 10
264.31075649999991
 20
180.25397000000001
 11
264.91075650000005
 21
180.02896999999999
  0
LINE
  8
_0-3_躯体と製品
  6
CONTINUOUS
 62
    3
 10
264.91075650000005
 20
180.02896999999999
 11
265.01075650000007
 21
180.05554999999998
  0
LINE
  8
_0-3_躯体と製品
  6
CONTINUOUS
 62
    3
 10
265.01075650000007
 20
180.05554999999998
 11
264.91075650000005
 21
180.15713
  0
LINE
  8
_0-3_躯体と製品
  6
CONTINUOUS
 62
    3
 10
264.2107565
 20
180.35554999999999
 11
265.01075650000007
 21
180.05554999999998
  0
LINE
  8
_0-3_躯体と製品
  6
CONTINUOUS
 62
    3
 10
264.91075650000005
 20
180.01804999999999
 11
264.91075650000005
 21
179.85712999999998
  0
LINE
  8
_0-3_躯体と製品
  6
CONTINUOUS
 62
    3
 10
264.31075649999991
 20
180.25397000000001
 11
264.31075649999991
 21
180.08213000000001
  0
LINE
  8
_0-3_躯体と製品
  6
CONTINUOUS
 62
    3
 10
264.91075650000005
 20
180.95554999999999
 11
264.91075650000005
 21
180.75712999999999
  0
LINE
  8
_0-3_躯体と製品
  6
CONTINUOUS
 62
    3
 10
264.31075649999991
 20
180.85397
 11
264.31075649999991
 21
180.68213
  0
LINE
  8
_0-3_躯体と製品
  6
CONTINUOUS
 62
    3
 10
264.91075650000005
 20
180.62897000000001
 11
264.91075650000005
 21
180.45713000000001
  0
LINE
  8
_0-3_躯体と製品
  6
CONTINUOUS
 62
    3
 10
264.31075649999991
 20
180.55396999999999
 11
264.31075649999991
 21
180.38212999999999
  0
LINE
  8
_0-3_躯体と製品
  6
CONTINUOUS
 62
    3
 10
264.91075650000005
 20
180.32897
 11
264.91075650000005
 21
180.15713
  0
LINE
  8
_0-3_躯体と製品
  6
CONTINUOUS
 62
    3
 10
264.91075650000005
 20
180.75712999999999
 11
264.3816364999999
 21
180.95554999999999
  0
LINE
  8
_0-3_躯体と製品
  6
CONTINUOUS
 62
    3
 10
264.2107565
 20
180.95554999999999
 11
264.31075649999991
 21
180.85397
  0
LINE
  8
_0-3_躯体と製品
  6
CONTINUOUS
 62
    3
 10
264.31075649999991
 20
180.85397
 11
264.91075650000005
 21
180.62897000000001
  0
LINE
  8
_0-3_躯体と製品
  6
CONTINUOUS
 62
    3
 10
264.91075650000005
 20
180.62897000000001
 11
265.01075650000007
 21
180.65555000000001
  0
LINE
  8
_0-3_躯体と製品
  6
CONTINUOUS
 62
    3
 10
265.01075650000007
 20
180.65555000000001
 11
264.91075650000005
 21
180.75712999999999
  0
LINE
  8
_0-3_躯体と製品
  6
CONTINUOUS
 62
    3
 10
264.2107565
 20
180.95554999999999
 11
265.01075650000007
 21
180.65555000000001
  0
LINE
  8
_0-3_躯体と製品
  6
CONTINUOUS
 62
    3
 10
264.91075650000005
 20
180.45713000000001
 11
264.31075649999991
 21
180.68213
  0
LINE
  8
_0-3_躯体と製品
  6
CONTINUOUS
 62
    3
 10
264.31075649999991
 20
180.68213
 11
264.2107565
 21
180.65555000000001
  0
LINE
  8
_0-3_躯体と製品
  6
CONTINUOUS
 62
    3
 10
264.2107565
 20
180.65555000000001
 11
264.31075649999991
 21
180.55396999999999
  0
LINE
  8
_0-3_躯体と製品
  6
CONTINUOUS
 62
    3
 10
264.31075649999991
 20
180.55396999999999
 11
264.91075650000005
 21
180.32897
  0
LINE
  8
_0-3_躯体と製品
  6
CONTINUOUS
 62
    3
 10
264.91075650000005
 20
180.32897
 11
265.01075650000007
 21
180.35554999999999
  0
LINE
  8
_0-3_躯体と製品
  6
CONTINUOUS
 62
    3
 10
265.01075650000007
 20
180.35554999999999
 11
264.91075650000005
 21
180.45713000000001
  0
LINE
  8
_0-3_躯体と製品
  6
CONTINUOUS
 62
    3
 10
264.2107565
 20
180.65555000000001
 11
265.01075650000007
 21
180.35554999999999
  0
LINE
  8
_0-3_躯体と製品
  6
CONTINUOUS
 62
    3
 10
264.91075650000005
 20
179.85712999999998
 11
264.31075649999991
 21
180.08213000000001
  0
LINE
  8
_0-3_躯体と製品
  6
CONTINUOUS
 62
    3
 10
264.31075649999991
 20
180.08213000000001
 11
264.2107565
 21
180.05554999999998
  0
LINE
  8
_0-3_躯体と製品
  6
CONTINUOUS
 62
    3
 10
264.2107565
 20
180.05554999999998
 11
264.31075649999991
 21
179.95397
  0
LINE
  8
_0-3_躯体と製品
  6
CONTINUOUS
 62
    3
 10
264.2107565
 20
180.95554999999999
 11
265.01075650000007
 21
180.95554999999999
  0
LINE
  8
_0-3_躯体と製品
  6
CONTINUOUS
 62
    3
 10
265.01075650000007
 20
180.95554999999999
 11
265.57075650000002
 21
181.51554999999999
  0
LINE
  8
_0-3_躯体と製品
  6
CONTINUOUS
 62
    3
 10
263.65075649999994
 20
181.51554999999999
 11
264.2107565
 21
180.95554999999999
  0
LINE
  8
_0-3_躯体と製品
  6
CONTINUOUS
 62
    3
 10
264.91075650000005
 20
180.15713
 11
264.31075649999991
 21
180.38212999999999
  0
ARC
  8
_0-3_躯体と製品
  6
CONTINUOUS
 62
    2
 10
263.81075650000002
 20
179.91554299999999
 40
0.2
 50
90
 51
180
  0
LINE
  8
_0-3_躯体と製品
  6
CONTINUOUS
 62
    2
 10
265.71075650000012
 20
180.115543
 11
263.81075650000002
 21
180.115543
  0
ARC
  8
_0-3_躯体と製品
  6
CONTINUOUS
 62
    2
 10
262.4607565
 20
181.26554300000001
 40
0.1499999999999999
 50
0
 51
180
  0
LINE
  8
_0-3_躯体と製品
  6
CONTINUOUS
 62
    2
 10
264.71075649999989
 20
180.615543
 11
264.61075649999998
 21
180.51554300000001
  0
LINE
  8
_0-3_躯体と製品
  6
CONTINUOUS
 62
    2
 10
264.51075649999996
 20
180.615543
 11
264.61075649999998
 21
180.51554300000001
  0
LINE
  8
_0-3_躯体と製品
  6
CONTINUOUS
 62
    2
 10
265.51075649999996
 20
180.91554299999999
 11
266.01075650000007
 21
180.91554299999999
  0
LINE
  8
_0-3_躯体と製品
  6
CONTINUOUS
 62
    1
 10
263.2107565
 20
180.91554299999999
 11
263.71075649999989
 21
180.91554299999999
  0
LINE
  8
_0-3_躯体と製品
  6
CONTINUOUS
 62
    1
 10
263.2107565
 20
180.91554299999999
 11
263.71075649999989
 21
180.91554299999999
  0
LINE
  8
_0-3_躯体と製品
  6
CONTINUOUS
 62
    2
 10
262.96075649999989
 20
180.115543
 11
262.76075649999996
 21
180.115543
  0
ARC
  8
_0-3_躯体と製品
  6
CONTINUOUS
 62
    2
 10
262.76075649999996
 20
180.215543
 40
0.1
 50
180
 51
270
  0
LINE
  8
_0-3_躯体と製品
  6
CONTINUOUS
 62
    2
 10
262.66075649999993
 20
181.31554299999999
 11
262.66075649999993
 21
180.215543
  0
ARC
  8
_0-3_躯体と製品
  6
CONTINUOUS
 62
    2
 10
262.96075649999989
 20
180.215543
 40
0.1
 50
270
 51
0
  0
ARC
  8
_0-3_躯体と製品
  6
CONTINUOUS
 62
    2
 10
263.12075649999986
 20
180.85554299999998
 40
0.0599999999999999
 50
90
 51
180
  0
LINE
  8
_0-3_躯体と製品
  6
CONTINUOUS
 62
    2
 10
263.06075650000002
 20
180.215543
 11
263.06075650000002
 21
180.85554299999998
  0
LINE
  8
_0-3_躯体と製品
  6
CONTINUOUS
 62
    2
 10
262.86075649999998
 20
181.51554300000001
 11
262.66075649999993
 21
181.31554299999999
  0
LINE
  8
_0-3_躯体と製品
  6
CONTINUOUS
 62
    2
 10
264.51075749999995
 20
181.51554400000001
 11
262.8607915
 21
181.51557700000001
  0
LINE
  8
_0-3_躯体と製品
  6
CONTINUOUS
 62
    2
 10
264.71075649999989
 20
181.51554400000001
 11
264.61075649999998
 21
181.41554399999998
  0
LINE
  8
_0-3_躯体と製品
  6
CONTINUOUS
 62
    2
 10
264.61075649999998
 20
181.41554399999998
 11
264.51075749999995
 21
181.51554300000001
  0
LINE
  8
_0-3_躯体と製品
  6
CONTINUOUS
 62
    2
 10
264.71075649999989
 20
181.51554400000001
 11
267.21075649999989
 21
181.51554300000001
  0
LINE
  8
_0-3_躯体と製品
  6
CONTINUOUS
 62
    2
 10
267.21075649999989
 20
181.51554300000001
 11
267.21075649999989
 21
181.45554300000001
  0
LINE
  8
_0-3_躯体と製品
  6
CONTINUOUS
 62
    2
 10
267.21075649999989
 20
181.45554300000001
 11
268.21075649999989
 21
181.45554300000001
  0
LINE
  8
_0-3_躯体と製品
  6
CONTINUOUS
 62
    2
 10
268.21075649999989
 20
181.45554300000001
 11
268.21075649999989
 21
181.51554300000001
  0
ARC
  8
_0-3_躯体と製品
  6
CONTINUOUS
 62
    2
 10
263.01075649999996
 20
180.01554300000001
 40
0.1
 50
270
 51
0
  0
LINE
  8
_0-3_躯体と製品
  6
CONTINUOUS
 62
    2
 10
263.01075649999996
 20
179.91554299999999
 11
262.71075649999989
 21
179.91554299999999
  0
LINE
  8
_0-3_躯体と製品
  6
CONTINUOUS
 62
    2
 10
263.11075649999987
 20
180.01554300000001
 11
263.11075649999987
 21
180.81554299999999
  0
ARC
  8
_0-3_躯体と製品
  6
CONTINUOUS
 62
    2
 10
262.71075649999989
 20
180.01554300000001
 40
0.1
 50
180
 51
270
  0
LINE
  8
_0-3_躯体と製品
  6
CONTINUOUS
 62
    2
 10
262.61075649999998
 20
181.26554300000001
 11
262.61075649999998
 21
180.01554300000001
  0
LINE
  8
_0-3_躯体と製品
  6
CONTINUOUS
 62
    2
 10
263.81075650000002
 20
180.615543
 11
263.81075650000002
 21
180.81554299999999
  0
LINE
  8
_0-3_躯体と製品
  6
CONTINUOUS
 62
    2
 10
265.41075649999993
 20
180.615543
 11
264.71075649999989
 21
180.615543
  0
LINE
  8
_0-3_躯体と製品
  6
CONTINUOUS
 62
    2
 10
263.81075650000002
 20
180.615543
 11
264.51075649999996
 21
180.615543
  0
LINE
  8
_0-3_躯体と製品
  6
CONTINUOUS
 62
    2
 10
265.41075649999993
 20
180.615543
 11
265.41075649999993
 21
180.81554299999999
  0
ARC
  8
_0-3_躯体と製品
  6
CONTINUOUS
 62
    2
 10
265.51075649999996
 20
180.81554299999999
 40
0.1
 50
90
 51
180
  0
ARC
  8
_0-3_躯体と製品
  6
CONTINUOUS
 62
    2
 10
266.01075650000007
 20
180.81554299999999
 40
0.1
 50
0
 51
90
  0
LINE
  8
_0-3_躯体と製品
  6
CONTINUOUS
 62
    2
 10
265.51075649999996
 20
180.91554299999999
 11
266.01075650000007
 21
180.91554299999999
  0
ARC
  8
_0-3_躯体と製品
  6
CONTINUOUS
 62
    2
 10
263.2107565
 20
180.81554299999999
 40
0.1
 50
90
 51
180
  0
ARC
  8
_0-3_躯体と製品
  6
CONTINUOUS
 62
    2
 10
263.71075649999989
 20
180.81554299999999
 40
0.1
 50
0
 51
90
  0
LINE
  8
_0-3_躯体と製品
  6
CONTINUOUS
 62
    2
 10
266.11075649999998
 20
180.51554300000001
 11
266.11075649999998
 21
180.81554299999999
  0
ARC
  8
_0-3_躯体と製品
  6
CONTINUOUS
 62
    2
 10
265.71075650000012
 20
180.51554300000001
 40
0.4
 50
270
 51
0
  0
LINE
  8
_0-5_文字-記号
  6
CONTINUOUS
 62
    3
 10
264.61075649999998
 20
180.95554999999999
 11
267.07227549999982
 21
185.21902499999999
  0
CIRCLE
  8
_0-5_文字-記号
  6
CONTINUOUS
 62
    3
 10
264.61075649999998
 20
180.95554999999999
 40
0.2
  0
LINE
  8
_0-3_躯体と製品
  6
CONTINUOUS
 62
    2
 10
310.11075649999998
 20
175.92135400000001
 11
310.11075649999998
 21
190.31554299999999
  0
LINE
  8
_0-3_躯体と製品
  6
CONTINUOUS
 62
    2
 10
310.31075650000002
 20
175.91096199999998
 11
310.31075650000002
 21
190.31554299999999
  0
LINE
  8
_0-3_躯体と製品
  6
CONTINUOUS
 62
    2
 10
307.61044049999987
 20
180.21174600000001
 11
307.61091850000003
 21
179.11186799999999
  0
LINE
  8
_0-3_躯体と製品
  6
CONTINUOUS
 62
    2
 10
307.21091849999993
 20
179.11170599999988
 11
307.21076049999988
 21
180.211285
  0
LINE
  8
_0-3_躯体と製品
  6
CONTINUOUS
 62
    2
 10
295.61076049999997
 20
180.511661
 11
295.61076049999997
 21
178.81178700000001
  0
LINE
  8
_0-3_躯体と製品
  6
CONTINUOUS
 62
    2
 10
295.01076049999995
 20
178.81178700000001
 11
295.01076049999995
 21
180.511661
  0
LINE
  8
_0-3_躯体と製品
  6
PLINE3
 62
    3
 10
295.31075650000002
 20
182.517774
 11
295.31075650000002
 21
178.41276199999999
  0
LINE
  8
_0-3_躯体と製品
  6
CONTINUOUS
 62
    2
 10
275.61076049999986
 20
179.793057
 11
275.61076049999986
 21
180.29348999999999
  0
LINE
  8
_0-3_躯体と製品
  6
CONTINUOUS
 62
    2
 10
276.01076049999983
 20
179.49305699999999
 11
276.01076049999983
 21
179.898279
  0
ARC
  8
_0-3_躯体と製品
  6
CONTINUOUS
 62
    2
 10
306.61075749999998
 20
179.66554299999999
 40
0.34
 50
0
 51
180
  0
ARC
  8
_0-3_躯体と製品
  6
CONTINUOUS
 62
    2
 10
306.61075549999987
 20
179.66554299999999
 40
0.2999979999999999
 50
0
 51
180
  0
ARC
  8
_0-3_躯体と製品
  6
CONTINUOUS
 62
    2
 10
306.61075749999998
 20
179.66554299999999
 40
0.5999999999999999
 50
0
 51
180
  0
LINE
  8
_0-3_躯体と製品
  6
CONTINUOUS
 62
    2
 10
310.05075649999992
 20
179.115543
 11
310.05075649999992
 21
181.115543
  0
LINE
  8
_0-3_躯体と製品
  6
CONTINUOUS
 62
    2
 10
309.75075649999985
 20
177.615543
 11
309.75075649999985
 21
182.41554299999999
  0
ARC
  8
_0-3_躯体と製品
  6
CONTINUOUS
 62
    2
 10
282.01075649999996
 20
179.66554299999999
 40
0.34
 50
0
 51
180
  0
ARC
  8
_0-3_躯体と製品
  6
CONTINUOUS
 62
    2
 10
282.01075849999995
 20
179.66554299999999
 40
0.2999979999999999
 50
0
 51
180
  0
ARC
  8
_0-3_躯体と製品
  6
CONTINUOUS
 62
    2
 10
282.01075649999996
 20
179.66554299999999
 40
0.5999999999999999
 50
0
 51
180
  0
LINE
  8
_0-3_躯体と製品
  6
PLINE3
 62
    3
 10
295.31075650000002
 20
184.81171699999999
 11
295.31075650000002
 21
161.07157699999999
  0
LINE
  8
_0-3_躯体と製品
  6
CONTINUOUS
 62
    2
 10
310.31075650000002
 20
160.273211
 11
310.31075650000002
 21
194.86691299999998
  0
LINE
  8
_0-5_文字-記号
  6
CONTINUOUS
 62
    3
 10
309.4507564999999
 20
180.31554299999999
 11
314.12423050000007
 21
174.745914
  0
LINE
  8
_0-5_文字-記号
  6
CONTINUOUS
 62
    3
 10
273.31075649999991
 20
177.41554299999999
 11
277.67646749999994
 21
184.97717599999999
  0
ARC
  8
_0-3_躯体と製品
  6
CONTINUOUS
 62
    2
 10
295.36075649999987
 20
176.41554299999999
 40
12.65
 50
270
 51
321.44653799999782
  0
ARC
  8
_0-3_躯体と製品
  6
CONTINUOUS
 62
    2
 10
295.36075649999987
 20
176.51554300000001
 40
12.94999999999999
 50
269.55757000000119
 51
321.53686899999991
  0
ARC
  8
_0-3_躯体と製品
  6
CONTINUOUS
 62
    2
 10
295.26075649999996
 20
176.41554299999999
 40
12.65
 50
187.68803699999989
 51
270
  0
ARC
  8
_0-3_躯体と製品
  6
CONTINUOUS
 62
    2
 10
295.26075649999996
 20
176.51554300000001
 40
12.94999999999999
 50
187.68803699999989
 51
270
  0
LINE
  8
_0-3_躯体と製品
  6
CONTINUOUS
 62
    2
 10
280.31075650000002
 20
160.273211
 11
280.31075650000002
 21
176.51554300000001
  0
LINE
  8
_0-5_文字-記号
  6
CONTINUOUS
 62
    3
 10
288.95471349999991
 20
165.449399
 11
291.04019249999988
 21
169.061555
  0
CIRCLE
  8
_0-5_文字-記号
  6
CONTINUOUS
 62
    3
 10
273.38855650000005
 20
164.4226559999999
 40
1.5
  0
TEXT
  8
_0-5_文字-記号
 62
    7
 10
272.69522516666666
 20
163.64264599999998
 40
2
 41
0.8
 50
0
  1
９
  0
CIRCLE
  8
_0-5_文字-記号
  6
CONTINUOUS
 62
    3
 10
288.95471349999991
 20
165.449399
 40
0.2
  0
LINE
  8
_0-5_文字-記号
  6
CONTINUOUS
 62
    3
 10
270.11075649999987
 20
177.51554300000001
 11
273.64430049999999
 21
173.304429
  0
CIRCLE
  8
_0-5_文字-記号
  6
CONTINUOUS
 62
    3
 10
274.60848150000004
 20
172.15536299999999
 40
1.5
  0
TEXT
  8
_0-5_文字-記号
 62
    7
 10
272.9018168333331
 20
171.37536499999999
 40
2
 41
0.8
 50
0
  1
１１
  0
LINE
  8
_0-3_躯体と製品
  6
CONTINUOUS
 62
    3
 10
276.06811649999997
 20
174.51554300000001
 11
278.06811649999986
 21
176.51554300000001
  0
LINE
  8
_0-3_躯体と製品
  6
CONTINUOUS
 62
    2
 10
273.31075649999991
 20
177.41554299999999
 11
281.11075649999987
 21
177.41554299999999
  0
LINE
  8
_0-3_躯体と製品
  6
CONTINUOUS
 62
    2
 10
282.11075649999998
 20
176.715543
 11
270.61075649999998
 21
176.715543
  0
LINE
  8
_0-3_躯体と製品
  6
CONTINUOUS
 62
    3
 10
274.65390249999984
 20
174.51554300000001
 11
276.65390249999984
 21
176.51554300000001
  0
LINE
  8
_0-3_躯体と製品
  6
CONTINUOUS
 62
    3
 10
273.23968949999994
 20
174.51554300000001
 11
275.23968949999994
 21
176.51554300000001
  0
LINE
  8
_0-3_躯体と製品
  6
CONTINUOUS
 62
    3
 10
271.82547550000004
 20
174.51554300000001
 11
273.82547550000004
 21
176.51554300000001
  0
LINE
  8
_0-3_躯体と製品
  6
CONTINUOUS
 62
    3
 10
270.41126150000002
 20
174.51554300000001
 11
272.41126149999991
 21
176.51554300000001
  0
ARC
  8
_0-3_躯体と製品
  6
CONTINUOUS
 62
    2
 10
275.91076049999992
 20
179.793057
 40
0.2999999999999999
 50
180
 51
270
  0
LINE
  8
_0-3_躯体と製品
  6
CONTINUOUS
 62
    2
 10
276.01076049999983
 20
179.49305699999999
 11
275.91076049999992
 21
179.49305699999999
  0
LINE
  8
_0-3_躯体と製品
  6
CONTINUOUS
 62
    2
 10
270.11075649999987
 20
177.51554300000001
 11
270.11075649999987
 21
177.215543
  0
LINE
  8
_0-3_躯体と製品
  6
CONTINUOUS
 62
    2
 10
272.31075650000002
 20
177.215543
 11
273.31075649999991
 21
177.41554299999999
  0
LINE
  8
_0-3_躯体と製品
  6
CONTINUOUS
 62
    2
 10
270.61075649999998
 20
176.81554299999999
 11
270.61075649999998
 21
176.715543
  0
CIRCLE
  8
_0-5_文字-記号
  6
CONTINUOUS
 62
    3
 10
270.11075649999987
 20
177.51554300000001
 40
0.2
  0
CIRCLE
  8
_0-5_文字-記号
  6
CONTINUOUS
 62
    3
 10
273.31075649999991
 20
177.41554299999999
 40
0.2
  0
LINE
  8
_0-3_躯体と製品
  6
CONTINUOUS
 62
    3
 10
278.89654350000001
 20
174.51554300000001
 11
280.31075650000002
 21
175.929757
  0
LINE
  8
_0-3_躯体と製品
  6
CONTINUOUS
 62
    3
 10
277.48232949999988
 20
174.51554300000001
 11
279.48232949999988
 21
176.51554300000001
  0
ARC
  8
_0-3_躯体と製品
  6
CONTINUOUS
 62
    2
 10
280.44514049999998
 20
174.51554300000001
 40
2
 50
7.6880369999999543
 51
90
  0
ARC
  8
_0-3_躯体と製品
  6
CONTINUOUS
 62
    2
 10
280.44514049999998
 20
174.41554299999999
 40
2.2999999999999989
 50
7.6880369999999543
 51
90
  0
LINE
  8
_0-3_躯体と製品
  6
CONTINUOUS
 62
    2
 10
281.71075849999988
 20
179.06554299999999
 11
281.81075850000002
 21
179.06554299999999
  0
LINE
  8
_0-3_躯体と製品
  6
CONTINUOUS
 62
    2
 10
281.81075850000002
 20
179.06554299999999
 11
281.71075649999989
 21
178.66554299999999
  0
LINE
  8
_0-3_躯体と製品
  6
CONTINUOUS
 62
    2
 10
282.31075649999991
 20
179.06554299999999
 11
282.2107565
 21
179.06554299999999
  0
LINE
  8
_0-3_躯体と製品
  6
CONTINUOUS
 62
    2
 10
282.2107565
 20
179.06554299999999
 11
282.31075649999991
 21
178.66554299999999
  0
LINE
  8
_0-3_躯体と製品
  6
CONTINUOUS
 62
    2
 10
281.71075849999988
 20
179.06554299999999
 11
281.67075850000003
 21
179.06554299999999
  0
LINE
  8
_0-3_躯体と製品
  6
CONTINUOUS
 62
    2
 10
281.67075850000003
 20
179.06554299999999
 11
281.67075649999981
 21
179.66554299999999
  0
LINE
  8
_0-3_躯体と製品
  6
CONTINUOUS
 62
    2
 10
282.31075649999991
 20
179.06554299999999
 11
282.35075649999999
 21
179.06554299999999
  0
LINE
  8
_0-3_躯体と製品
  6
CONTINUOUS
 62
    2
 10
282.35075649999999
 20
179.06554299999999
 11
282.35075649999999
 21
179.66554299999999
  0
LINE
  8
_0-3_躯体と製品
  6
CONTINUOUS
 62
    2
 10
282.61075649999987
 20
179.66554299999999
 11
282.61075649999987
 21
178.66554299999999
  0
LINE
  8
_0-3_躯体と製品
  6
CONTINUOUS
 62
    2
 10
282.61075649999987
 20
178.66554299999999
 11
282.31075649999991
 21
178.66554299999999
  0
LINE
  8
_0-3_躯体と製品
  6
CONTINUOUS
 62
    2
 10
281.71075649999989
 20
178.66554299999999
 11
281.41075649999993
 21
178.66554299999999
  0
LINE
  8
_0-3_躯体と製品
  6
CONTINUOUS
 62
    2
 10
281.41075649999993
 20
178.66554299999999
 11
281.41075649999993
 21
179.66554299999999
  0
LINE
  8
_0-3_躯体と製品
  6
CONTINUOUS
 62
    2
 10
281.71075649999989
 20
179.66554299999999
 11
281.71075849999988
 21
179.06554299999999
  0
ARC
  8
_0-3_躯体と製品
  6
CONTINUOUS
 62
    2
 10
281.11075649999987
 20
178.01554300000001
 40
0.5999999999999999
 50
270
 51
359.99989699999952
  0
LINE
  8
_0-3_躯体と製品
  6
CONTINUOUS
 62
    2
 10
281.71075849999988
 20
178.66554299999999
 11
281.71075649999989
 21
178.01554199999998
  0
ARC
  8
_0-3_躯体と製品
  6
CONTINUOUS
 62
    2
 10
282.11075649999998
 20
176.91554299999999
 40
0.2
 50
270
 51
0
  0
LINE
  8
_0-3_躯体と製品
  6
CONTINUOUS
 62
    2
 10
282.31075649999991
 20
179.66554299999999
 11
282.31075649999991
 21
179.06554299999999
  0
LINE
  8
_0-3_躯体と製品
  6
CONTINUOUS
 62
    2
 10
282.31075649999991
 20
178.66554299999999
 11
282.31075649999991
 21
176.91554299999999
  0
CIRCLE
  8
_0-5_文字-記号
  6
CONTINUOUS
 62
    3
 10
291.79019249999988
 20
170.36059299999999
 40
1.5
  0
TEXT
  8
_0-5_文字-記号
 62
    7
 10
291.09685216666662
 20
169.58058800000001
 40
2
 41
0.8
 50
0
  1
６
  0
ARC
  8
_0-3_躯体と製品
  6
CONTINUOUS
 62
    2
 10
295.31076050000001
 20
178.81178700000001
 40
0.2999999999999999
 50
180
 51
0
  0
CIRCLE
  8
_0-5_文字-記号
  6
CONTINUOUS
 62
    3
 10
315.08841150000001
 20
173.596847
 40
1.5
  0
TEXT
  8
_0-5_文字-記号
 62
    7
 10
313.38173683333321
 20
172.81683999999998
 40
2
 41
0.8
 50
0
  1
１１
  0
LINE
  8
_0-3_躯体と製品
  6
CONTINUOUS
 62
    2
 10
305.25339749999989
 20
168.531499
 11
309.27463850000004
 21
173.54324399999999
  0
ARC
  8
_0-3_躯体と製品
  6
CONTINUOUS
 62
    2
 10
306.31075649999991
 20
175.92135400000001
 40
3.7999999999999989
 50
321.25772199999921
 51
0
  0
ARC
  8
_0-3_躯体と製品
  6
CONTINUOUS
 62
    2
 10
306.31075649999991
 20
175.91096199999998
 40
4
 50
321.53686899999991
 51
0
  0
LINE
  8
_0-3_躯体と製品
  6
CONTINUOUS
 62
    2
 10
305.50071749999995
 20
168.46050199999999
 11
309.44279149999988
 21
173.42291800000001
  0
LINE
  8
_0-3_躯体と製品
  6
CONTINUOUS
 62
    2
 10
309.35075649999999
 20
177.215543
 11
307.31075849999991
 21
177.215543
  0
LINE
  8
_0-3_躯体と製品
  6
CONTINUOUS
 62
    2
 10
309.91075649999993
 20
176.715543
 11
306.51075749999995
 21
176.715543
  0
ARC
  8
_0-3_躯体と製品
  6
CONTINUOUS
 62
    2
 10
307.41091849999987
 20
179.11178699999999
 40
0.2
 50
180.02327900000031
 51
0.0232790000003689
  0
LINE
  8
_0-3_躯体と製品
  6
CONTINUOUS
 62
    2
 10
306.91075650000005
 20
178.66554299999999
 11
306.91075849999993
 21
177.615542
  0
ARC
  8
_0-3_躯体と製品
  6
CONTINUOUS
 62
    2
 10
306.51075749999995
 20
176.91554299999999
 40
0.2
 50
180
 51
270
  0
LINE
  8
_0-3_躯体と製品
  6
CONTINUOUS
 62
    2
 10
306.31075750000002
 20
179.66554299999999
 11
306.31075750000002
 21
179.06554299999999
  0
LINE
  8
_0-3_躯体と製品
  6
CONTINUOUS
 62
    2
 10
306.31075750000002
 20
178.66554299999999
 11
306.31075750000002
 21
176.91554299999999
  0
LINE
  8
_0-3_躯体と製品
  6
CONTINUOUS
 62
    2
 10
306.91075650000005
 20
179.06554299999999
 11
306.81075650000002
 21
179.06554299999999
  0
LINE
  8
_0-3_躯体と製品
  6
CONTINUOUS
 62
    2
 10
306.81075650000002
 20
179.06554299999999
 11
306.91075750000005
 21
178.66554299999999
  0
LINE
  8
_0-3_躯体と製品
  6
CONTINUOUS
 62
    2
 10
306.31075750000002
 20
179.06554299999999
 11
306.41075750000005
 21
179.06554299999999
  0
LINE
  8
_0-3_躯体と製品
  6
CONTINUOUS
 62
    2
 10
306.41075750000005
 20
179.06554299999999
 11
306.31075750000002
 21
178.66554299999999
  0
LINE
  8
_0-3_躯体と製品
  6
CONTINUOUS
 62
    2
 10
306.91075650000005
 20
179.06554299999999
 11
306.95075650000001
 21
179.06554299999999
  0
LINE
  8
_0-3_躯体と製品
  6
CONTINUOUS
 62
    2
 10
306.95075650000001
 20
179.06554299999999
 11
306.95075750000001
 21
179.66554299999999
  0
LINE
  8
_0-3_躯体と製品
  6
CONTINUOUS
 62
    2
 10
306.31075750000002
 20
179.06554299999999
 11
306.27075749999995
 21
179.06554299999999
  0
LINE
  8
_0-3_躯体と製品
  6
CONTINUOUS
 62
    2
 10
306.27075749999995
 20
179.06554299999999
 11
306.27075749999995
 21
179.66554299999999
  0
ARC
  8
_0-3_躯体と製品
  6
CONTINUOUS
 62
    2
 10
307.31075849999991
 20
177.615543
 40
0.4
 50
180
 51
270
  0
LINE
  8
_0-3_躯体と製品
  6
CONTINUOUS
 62
    2
 10
306.01075749999995
 20
179.66554299999999
 11
306.01075749999995
 21
178.66554299999999
  0
LINE
  8
_0-3_躯体と製品
  6
CONTINUOUS
 62
    2
 10
306.01075749999995
 20
178.66554299999999
 11
306.31075750000002
 21
178.66554299999999
  0
LINE
  8
_0-3_躯体と製品
  6
CONTINUOUS
 62
    2
 10
306.91075750000005
 20
178.66554299999999
 11
307.21075750000011
 21
178.66554299999999
  0
LINE
  8
_0-3_躯体と製品
  6
CONTINUOUS
 62
    2
 10
307.21075750000011
 20
178.66554299999999
 11
307.21075750000011
 21
179.66554299999999
  0
LINE
  8
_0-3_躯体と製品
  6
CONTINUOUS
 62
    2
 10
306.91075750000005
 20
179.66554299999999
 11
306.91075650000005
 21
179.06554299999999
  0
LINE
  8
_0-3_躯体と製品
  6
CONTINUOUS
 62
    2
 10
310.05075649999992
 20
179.115543
 11
310.11075649999998
 21
179.115543
  0
LINE
  8
_0-3_躯体と製品
  6
CONTINUOUS
 62
    2
 10
310.11075649999998
 20
179.115543
 11
310.11075649999998
 21
176.91554299999999
  0
ARC
  8
_0-3_躯体と製品
  6
CONTINUOUS
 62
    2
 10
309.91075649999993
 20
176.91554299999999
 40
0.2
 50
270
 51
0
  0
ARC
  8
_0-3_躯体と製品
  6
CONTINUOUS
 62
    2
 10
309.35075649999999
 20
177.615543
 40
0.4
 50
270
 51
0
  0
ARC
  8
_0-3_躯体と製品
  6
CONTINUOUS
 62
    2
 10
295.31076050000001
 20
-178.78821299999993
 40
360
 50
88.074431000000303
 51
89.20419999999838
  0
ARC
  8
_0-3_躯体と製品
  6
CONTINUOUS
 62
    2
 10
295.31076050000001
 20
-178.78821299999993
 40
359.2999999999999
 50
88.117440999995651
 51
89.952159999996425
  0
ARC
  8
_0-3_躯体と製品
  6
CONTINUOUS
 62
    2
 10
295.31076050000001
 20
-178.78821299999993
 40
360
 50
90.795799999995097
 51
93.076585000001344
  0
ARC
  8
_0-3_躯体と製品
  6
CONTINUOUS
 62
    2
 10
295.31076050000001
 20
-178.78821299999993
 40
359.2999999999999
 50
90.047839999997066
 51
93.064041000001509
  0
CIRCLE
  8
_0-5_文字-記号
  6
CONTINUOUS
 62
    3
 10
273.05709850000005
 20
186.38555199999999
 40
1.5
  0
TEXT
  8
_0-5_文字-記号
 62
    7
 10
272.31044083333325
 20
185.60555199999999
 40
2
 41
0.8
 50
0
  1
１
  0
CIRCLE
  8
_0-5_文字-記号
  6
CONTINUOUS
 62
    3
 10
278.42646749999994
 20
186.27621399999998
 40
1.5
  0
TEXT
  8
_0-5_文字-記号
 62
    7
 10
277.73312816666646
 20
185.496207
 40
2
 41
0.8
 50
0
  1
３
  0
LINE
  8
_0-3_躯体と製品
  6
CONTINUOUS
 62
    2
 10
277.21075649999989
 20
181.51554300000001
 11
279.2107565
 21
181.51554300000001
  0
ARC
  8
_0-3_躯体と製品
  6
CONTINUOUS
 62
    2
 10
276.11076049999997
 20
179.898279
 40
0.1
 50
93.064041000001495
 51
180
  0
ARC
  8
_0-3_躯体と製品
  6
CONTINUOUS
 62
    2
 10
276.01076049999983
 20
180.29348999999999
 40
0.4
 50
93.076585000001359
 51
180
  0
LINE
  8
_0-3_躯体と製品
  6
CONTINUOUS
 62
    2
 10
270.21075650000012
 20
181.51554300000001
 11
270.21075650000012
 21
181.45554300000001
  0
LINE
  8
_0-3_躯体と製品
  6
CONTINUOUS
 62
    2
 10
270.21075650000012
 20
181.45554300000001
 11
271.2107565
 21
181.45554300000001
  0
LINE
  8
_0-3_躯体と製品
  6
CONTINUOUS
 62
    2
 10
271.2107565
 20
181.45554300000001
 11
271.2107565
 21
181.51554300000001
  0
LINE
  8
_0-3_躯体と製品
  6
CONTINUOUS
 62
    2
 10
271.2107565
 20
181.51554300000001
 11
273.2107565
 21
181.51554300000001
  0
LINE
  8
_0-3_躯体と製品
  6
CONTINUOUS
 62
    2
 10
273.2107565
 20
181.51554300000001
 11
273.2107565
 21
181.45554300000001
  0
LINE
  8
_0-3_躯体と製品
  6
CONTINUOUS
 62
    2
 10
273.2107565
 20
181.45554300000001
 11
274.2107565
 21
181.45554300000001
  0
LINE
  8
_0-3_躯体と製品
  6
CONTINUOUS
 62
    2
 10
274.2107565
 20
181.45554300000001
 11
274.2107565
 21
181.51554300000001
  0
LINE
  8
_0-3_躯体と製品
  6
CONTINUOUS
 62
    2
 10
274.2107565
 20
181.51554300000001
 11
276.21075649999989
 21
181.51554300000001
  0
LINE
  8
_0-3_躯体と製品
  6
CONTINUOUS
 62
    2
 10
276.21075649999989
 20
181.51554300000001
 11
276.21075649999989
 21
181.45554300000001
  0
LINE
  8
_0-3_躯体と製品
  6
CONTINUOUS
 62
    2
 10
276.21075649999989
 20
181.45554300000001
 11
277.21075649999989
 21
181.45554300000001
  0
LINE
  8
_0-3_躯体と製品
  6
CONTINUOUS
 62
    2
 10
277.21075649999989
 20
181.45554300000001
 11
277.21075649999989
 21
181.51554300000001
  0
LINE
  8
_0-5_文字-記号
  6
CONTINUOUS
 62
    3
 10
270.21075650000012
 20
181.45554300000001
 11
272.30709850000005
 21
185.086513
  0
CIRCLE
  8
_0-5_文字-記号
  6
CONTINUOUS
 62
    3
 10
270.21075650000012
 20
181.45554300000001
 40
0.2
  0
LINE
  8
_0-3_躯体と製品
  6
CONTINUOUS
 62
    2
 10
280.2107565
 20
181.45554300000001
 11
280.2107565
 21
181.51554300000001
  0
LINE
  8
_0-3_躯体と製品
  6
CONTINUOUS
 62
    2
 10
280.2107565
 20
181.51554300000001
 11
281.9607565
 21
181.51554300000001
  0
LINE
  8
_0-3_躯体と製品
  6
CONTINUOUS
 62
    2
 10
281.9607565
 20
181.51554300000001
 11
282.26075649999996
 21
181.215543
  0
LINE
  8
_0-3_躯体と製品
  6
CONTINUOUS
 62
    2
 10
282.26075649999996
 20
181.215543
 11
282.26075649999996
 21
180.91554299999999
  0
LINE
  8
_0-3_躯体と製品
  6
CONTINUOUS
 62
    2
 10
279.2107565
 20
181.51554300000001
 11
279.2107565
 21
181.45554300000001
  0
LINE
  8
_0-3_躯体と製品
  6
CONTINUOUS
 62
    2
 10
279.2107565
 20
181.45554300000001
 11
280.2107565
 21
181.45554300000001
  0
CIRCLE
  8
_0-3_躯体と製品
  6
CONTINUOUS
 62
    3
 10
281.76819150000006
 20
181.14994799999999
 40
0.12
  0
CIRCLE
  8
_0-5_文字-記号
  6
CONTINUOUS
 62
    3
 10
290.2002594999999
 20
185.15374599999998
 40
1.5
  0
ARC
  8
_0-3_躯体と製品
  6
CONTINUOUS
 62
    2
 10
295.31076050000001
 20
-178.78821299999993
 40
360
 50
90.318311999997306
 51
90.63663300000141
  0
ARC
  8
_0-3_躯体と製品
  6
CONTINUOUS
 62
    2
 10
295.31076050000001
 20
-178.78821299999993
 40
359.94
 50
90.636738999998499
 51
90.795933000004425
  0
LINE
  8
_0-3_躯体と製品
  6
CONTINUOUS
 62
    2
 10
290.3107604999999
 20
181.177063
 11
290.3107604999999
 21
181.11705699999999
  0
LINE
  8
_0-3_躯体と製品
  6
CONTINUOUS
 62
    2
 10
291.31076050000013
 20
181.18956399999999
 11
291.31076050000013
 21
181.12956
  0
CIRCLE
  8
_0-3_躯体と製品
  6
CONTINUOUS
 62
    3
 10
287.59370049999995
 20
180.84689900000001
 40
0.12
  0
LINE
  8
_0-5_文字-記号
  6
CONTINUOUS
 62
    3
 10
287.71370049999996
 20
180.84689900000001
 11
289.45025950000013
 21
183.85470799999999
  0
CIRCLE
  8
_0-5_文字-記号
  6
CONTINUOUS
 62
    3
 10
287.71370049999996
 20
180.84689900000001
 40
0.2
  0
TEXT
  8
_0-5_文字-記号
 62
    7
 10
289.50693216666662
 20
184.37374
 40
2
 41
0.8
 50
0
  1
２
  0
ARC
  8
_0-3_躯体と製品
  6
CONTINUOUS
 62
    2
 10
295.31076050000001
 20
-178.78821299999993
 40
360
 50
89.840845000000712
 51
89.999999999999986
  0
ARC
  8
_0-3_躯体と製品
  6
CONTINUOUS
 62
    2
 10
295.31076050000001
 20
-178.78821299999993
 40
360
 50
89.36336699999859
 51
89.681688000002694
  0
ARC
  8
_0-3_躯体と製品
  6
CONTINUOUS
 62
    2
 10
295.31076050000001
 20
-178.78821299999993
 40
359.94
 50
89.681634999996135
 51
89.840817999995451
  0
ARC
  8
_0-3_躯体と製品
  6
CONTINUOUS
 62
    2
 10
295.31076050000001
 20
-178.78821299999993
 40
359.94
 50
89.20406699999559
 51
89.363261000001501
  0
LINE
  8
_0-3_躯体と製品
  6
CONTINUOUS
 62
    2
 10
300.31076050000001
 20
181.177063
 11
300.31076050000001
 21
181.11705699999999
  0
LINE
  8
_0-3_躯体と製品
  6
CONTINUOUS
 62
    2
 10
299.31076050000013
 20
181.18956399999999
 11
299.31076050000013
 21
181.12956
  0
LINE
  8
_0-3_躯体と製品
  6
CONTINUOUS
 62
    2
 10
297.3107604999999
 20
181.20623099999989
 11
297.3107604999999
 21
181.14623
  0
LINE
  8
_0-3_躯体と製品
  6
CONTINUOUS
 62
    2
 10
296.31076050000001
 20
181.150397
 11
296.31076050000001
 21
181.210398
  0
ARC
  8
_0-3_躯体と製品
  6
CONTINUOUS
 62
    2
 10
295.31076050000001
 20
-178.78821299999993
 40
360
 50
90
 51
90.159154999999288
  0
ARC
  8
_0-3_躯体と製品
  6
CONTINUOUS
 62
    2
 10
295.31076050000001
 20
-178.78821299999993
 40
359.94
 50
90.159181999998069
 51
90.318365000003865
  0
LINE
  8
_0-3_躯体と製品
  6
CONTINUOUS
 62
    2
 10
293.31076050000001
 20
181.20623099999989
 11
293.31076050000001
 21
181.14623
  0
LINE
  8
_0-3_躯体と製品
  6
CONTINUOUS
 62
    2
 10
294.31076050000001
 20
181.150397
 11
294.31076050000001
 21
181.210398
  0
LINE
  8
_0-3_躯体と製品
  6
CONTINUOUS
 62
    2
 10
310.11075649999998
 20
192.97333499999999
 11
310.11075649999998
 21
191.39231000000001
  0
LINE
  8
_0-3_躯体と製品
  6
CONTINUOUS
 62
    2
 10
310.31075650000002
 20
192.97333499999999
 11
310.31075650000002
 21
191.39231000000001
  0
LINE
  8
_0-3_躯体と製品
  6
CONTINUOUS
 62
    2
 10
308.69524350000006
 20
191.51557700000001
 11
308.69524350000006
 21
192.81557699999999
  0
LINE
  8
_0-3_躯体と製品
  6
CONTINUOUS
 62
    2
 10
308.89524349999999
 20
191.57557700000001
 11
308.89524349999999
 21
192.81557699999999
  0
LINE
  8
_0-3_躯体と製品
  6
CONTINUOUS
 62
    2
 10
309.22627150000005
 20
192.97333499999999
 11
309.22627150000005
 21
191.57557700000001
  0
LINE
  8
_0-3_躯体と製品
  6
CONTINUOUS
 62
    2
 10
309.42627149999987
 20
192.97333499999999
 11
309.42627149999987
 21
191.51557700000001
  0
LINE
  8
_0-3_躯体と製品
  6
CONTINUOUS
 62
    2
 10
309.2107575
 20
191.66557699999998
 11
309.2107575
 21
193.31557699999999
  0
LINE
  8
_0-3_躯体と製品
  6
CONTINUOUS
 62
    2
 10
308.91075750000005
 20
191.66557699999998
 11
308.91075750000005
 21
193.215577
  0
LINE
  8
_0-3_躯体と製品
  6
CONTINUOUS
 62
    2
 10
306.31075750000002
 20
193.41557699999998
 11
306.31075750000002
 21
181.51553100000001
  0
LINE
  8
_0-3_躯体と製品
  6
CONTINUOUS
 62
    2
 10
306.51075749999995
 20
193.215577
 11
306.51075749999995
 21
187.115543
  0
CIRCLE
  8
_0-5_文字-記号
  6
CONTINUOUS
 62
    3
 10
313.66931350000004
 20
191.26291499999999
 40
1.5
  0
LINE
  8
_0-3_躯体と製品
  6
PLINE2
 62
    3
 10
318.10226050000006
 20
181.69105999999999
 11
311.91075649999993
 21
182.01554300000001
  0
LINE
  8
_0-3_躯体と製品
  6
PLINE2
 62
    3
 10
318.10226050000006
 20
182.54002599999998
 11
311.91075649999993
 21
182.215543
  0
LINE
  8
_0-3_躯体と製品
  6
PLINE2
 62
    3
 10
315.26946249999992
 20
181.13855999999998
 11
315.66891350000014
 21
181.117626
  0
LINE
  8
_0-3_躯体と製品
  6
PLINE2
 62
    3
 10
315.26946249999992
 20
183.09252599999999
 11
315.66891350000014
 21
183.11346
  0
LINE
  8
_0-3_躯体と製品
  6
PLINE3
 62
    3
 10
319.18750350000005
 20
182.115543
 11
308.37404649999996
 21
182.115543
  0
LINE
  8
_0-3_躯体と製品
  6
CONTINUOUS
 62
    2
 10
310.11075649999998
 20
185.01554300000001
 11
310.11075649999998
 21
187.01554300000001
  0
LINE
  8
_0-3_躯体と製品
  6
CONTINUOUS
 62
    2
 10
309.75075549999997
 20
184.91554299999999
 11
309.75075649999985
 21
187.115543
  0
LINE
  8
_0-3_躯体と製品
  6
CONTINUOUS
 62
    2
 10
306.51075749999995
 20
186.715543
 11
306.51075749999995
 21
185.31554299999999
  0
CIRCLE
  8
_0-5_文字-記号
  6
CONTINUOUS
 62
    3
 10
312.83762849999982
 20
186.96225200000001
 40
1.5
  0
LINE
  8
_0-5_文字-記号
  6
CONTINUOUS
 62
    3
 10
306.31075750000002
 20
183.491096
 11
303.55174549999992
 21
186.77915899999999
  0
LINE
  8
_0-3_躯体と製品
  6
CONTINUOUS
 62
    2
 10
308.11075649999998
 20
184.81554299999999
 11
307.51075649999996
 21
184.81554299999999
  0
LINE
  8
_0-3_躯体と製品
  6
CONTINUOUS
 62
    2
 10
307.51075649999996
 20
184.615543
 11
309.65075650000006
 21
184.615543
  0
LINE
  8
_0-3_躯体と製品
  6
PLINE3
 62
    3
 10
305.72377749999987
 20
186.01554300000001
 11
310.82328549999988
 21
186.01554300000001
  0
LINE
  8
_0-3_躯体と製品
  6
CONTINUOUS
 62
    2
 10
308.81075750000014
 20
185.215543
 11
306.61075749999998
 21
185.215543
  0
LINE
  8
_0-3_躯体と製品
  6
CONTINUOUS
 62
    2
 10
308.51075749999995
 20
185.01554300000001
 11
306.61075749999998
 21
185.01554300000001
  0
ARC
  8
_0-3_躯体と製品
  6
CONTINUOUS
 62
    2
 10
307.7104405
 20
180.21178599999999
 40
0.1
 50
90.023278999998695
 51
180.02328000000009
  0
LINE
  8
_0-3_躯体と製品
  6
CONTINUOUS
 62
    2
 10
307.71040049999988
 20
180.31178599999998
 11
307.81050249999987
 21
180.31182699999999
  0
ARC
  8
_0-3_躯体と製品
  6
CONTINUOUS
 62
    2
 10
307.81046249999997
 20
180.41182699999999
 40
0.1
 50
270.02327899999869
 51
359.99802200000011
  0
LINE
  8
_0-3_躯体と製品
  6
CONTINUOUS
 62
    2
 10
307.91051849999997
 20
182.011786
 11
307.91046249999999
 21
180.411823
  0
LINE
  8
_0-3_躯体と製品
  6
CONTINUOUS
 62
    2
 10
307.51066649999996
 20
181.101664
 11
307.51049049999995
 21
182.011786
  0
ARC
  8
_0-3_躯体と製品
  6
CONTINUOUS
 62
    2
 10
307.71049049999988
 20
182.011787
 40
0.2
 50
0
 51
180
  0
ARC
  8
_0-3_躯体と製品
  6
CONTINUOUS
 62
    2
 10
307.11076049999997
 20
180.211285
 40
0.1
 50
0
 51
88.085531000001438
  0
ARC
  8
_0-3_躯体と製品
  6
CONTINUOUS
 62
    2
 10
307.41060349999998
 20
181.101664
 40
0.1
 50
268.04258199999811
 51
0.0000000000000127
  0
LINE
  8
_0-3_躯体と製品
  6
CONTINUOUS
 62
    2
 10
307.51075649999996
 20
184.81554299999999
 11
306.65774050000005
 21
184.62598399999999
  0
ARC
  8
_0-3_躯体と製品
  6
CONTINUOUS
 62
    2
 10
306.67075649999981
 20
184.56741299999999
 40
0.0599999999999999
 50
102.5288079999994
 51
180
  0
ARC
  8
_0-3_躯体と製品
  6
CONTINUOUS
 62
    2
 10
306.67075649999981
 20
184.48639499999999
 40
0.0599999999999999
 50
180
 51
282.78905400000082
  0
LINE
  8
_0-3_躯体と製品
  6
CONTINUOUS
 62
    2
 10
306.61075649999998
 20
184.56741299999999
 11
306.61075649999998
 21
184.48639499999999
  0
LINE
  8
_0-3_躯体と製品
  6
CONTINUOUS
 62
    2
 10
307.51075649999996
 20
184.615543
 11
306.68403850000016
 21
184.42788300000001
  0
LINE
  8
_0-3_躯体と製品
  6
CONTINUOUS
 62
    2
 10
306.51075749999995
 20
181.715531
 11
306.51075749999995
 21
184.91554299999999
  0
LINE
  8
_0-3_躯体と製品
  6
CONTINUOUS
 62
    2
 10
306.41075750000005
 20
181.41553099999999
 11
307.21075750000011
 21
181.41554199999999
  0
ARC
  8
_0-3_躯体と製品
  6
CONTINUOUS
 62
    2
 10
306.61075749999998
 20
181.715531
 40
0.1
 50
180
 51
270
  0
LINE
  8
_0-3_躯体と製品
  6
CONTINUOUS
 62
    2
 10
306.61075749999998
 20
181.615531
 11
307.21075750000011
 21
181.615531
  0
ARC
  8
_0-3_躯体と製品
  6
CONTINUOUS
 62
    2
 10
306.41075750000005
 20
181.51553100000001
 40
0.1
 50
180
 51
270
  0
ARC
  8
_0-3_躯体と製品
  6
CONTINUOUS
 62
    2
 10
307.21075750000011
 20
181.51553100000001
 40
0.1
 50
270
 51
90
  0
ARC
  8
_0-3_躯体と製品
  6
CONTINUOUS
 62
    2
 10
306.61075749999998
 20
185.31554299999999
 40
0.1
 50
180
 51
270
  0
ARC
  8
_0-3_躯体と製品
  6
CONTINUOUS
 62
    2
 10
306.61075749999998
 20
184.91554299999999
 40
0.1
 50
90
 51
180
  0
CIRCLE
  8
_0-5_文字-記号
  6
CONTINUOUS
 62
    3
 10
306.31075750000002
 20
183.491096
 40
0.2
  0
LINE
  8
_0-3_躯体と製品
  6
PLINE2
 62
    3
 10
314.27083249999987
 20
183.04019
 11
313.33923649999986
 21
183.3792629999999
  0
LINE
  8
_0-3_躯体と製品
  6
PLINE2
 62
    3
 10
314.27083249999987
 20
182.82735399999999
 11
313.27083249999998
 21
183.19132500000001
  0
LINE
  8
_0-3_躯体と製品
  6
PLINE2
 62
    3
 10
312.71075649999989
 20
181.31554299999999
 11
311.91075649999993
 21
181.31554299999999
  0
LINE
  8
_0-3_躯体と製品
  6
PLINE2
 62
    3
 10
312.71075649999989
 20
182.91554299999999
 11
311.91075649999993
 21
182.91554299999999
  0
LINE
  8
_0-3_躯体と製品
  6
PLINE2
 62
    3
 10
313.33923649999986
 20
183.3792629999999
 11
311.97851249999997
 21
183.57773399999999
  0
ARC
  8
_0-3_躯体と製品
  6
PLINE2
 62
    3
 10
311.9669654999999
 20
183.498572
 40
0.08
 50
81.701534000003107
 51
171.8698979999993
  0
LINE
  8
_0-3_躯体と製品
  6
PLINE2
 62
    3
 10
311.88776949999999
 20
183.509885
 11
311.88214649999998
 21
183.47052099999999
  0
ARC
  8
_0-3_躯体と製品
  6
PLINE2
 62
    3
 10
311.96134249999989
 20
183.45920699999999
 40
0.08
 50
171.8698979999993
 51
261.8698979999956
  0
LINE
  8
_0-3_躯体と製品
  6
PLINE2
 62
    3
 10
311.95002849999992
 20
183.380011
 11
313.27083249999998
 21
183.19132500000001
  0
LINE
  8
_0-3_躯体と製品
  6
PLINE2
 62
    3
 10
313.33923649999986
 20
180.851823
 11
311.97851249999997
 21
180.65335199999998
  0
ARC
  8
_0-3_躯体と製品
  6
PLINE2
 62
    3
 10
311.9669654999999
 20
180.73251400000001
 40
0.08
 50
188.13010200000059
 51
278.29846599999678
  0
LINE
  8
_0-3_躯体と製品
  6
PLINE2
 62
    3
 10
311.88776949999999
 20
180.72120100000001
 11
311.88214649999998
 21
180.76056499999999
  0
ARC
  8
_0-3_躯体と製品
  6
PLINE2
 62
    3
 10
311.96134249999989
 20
180.77187899999998
 40
0.08
 50
98.130102000004356
 51
188.13010200000062
  0
LINE
  8
_0-3_躯体と製品
  6
PLINE2
 62
    3
 10
311.95002849999992
 20
180.85107500000001
 11
313.27083249999998
 21
181.039761
  0
LINE
  8
_0-3_躯体と製品
  6
PLINE2
 62
    3
 10
313.33923649999986
 20
180.851823
 11
311.97851249999997
 21
180.65335199999998
  0
ARC
  8
_0-3_躯体と製品
  6
PLINE2
 62
    3
 10
311.9669654999999
 20
180.73251400000001
 40
0.08
 50
188.13010200000059
 51
278.29846599999678
  0
LINE
  8
_0-3_躯体と製品
  6
PLINE2
 62
    3
 10
311.88776949999999
 20
180.72120100000001
 11
311.88214649999998
 21
180.76056499999999
  0
ARC
  8
_0-3_躯体と製品
  6
PLINE2
 62
    3
 10
311.96134249999989
 20
180.77187899999998
 40
0.08
 50
98.130102000004356
 51
188.13010200000062
  0
LINE
  8
_0-3_躯体と製品
  6
PLINE2
 62
    3
 10
311.95002849999992
 20
180.85107500000001
 11
313.27083249999998
 21
181.039761
  0
LINE
  8
_0-3_躯体と製品
  6
PLINE2
 62
    3
 10
310.31075650000002
 20
181.115543
 11
311.31075650000002
 21
181.31554299999999
  0
LINE
  8
_0-3_躯体と製品
  6
PLINE2
 62
    3
 10
310.31075650000002
 20
181.31554299999999
 11
311.91075649999993
 21
181.31554299999999
  0
LINE
  8
_0-3_躯体と製品
  6
PLINE2
 62
    3
 10
311.91075649999993
 20
182.01554300000001
 11
311.91075649999993
 21
182.115543
  0
LINE
  8
_0-3_躯体と製品
  6
PLINE2
 62
    3
 10
311.31075650000002
 20
182.115543
 11
310.31075650000002
 21
182.115543
  0
LINE
  8
_0-3_躯体と製品
  6
PLINE2
 62
    3
 10
310.31075650000002
 20
181.91554299999999
 11
311.31075650000002
 21
182.115543
  0
LINE
  8
_0-3_躯体と製品
  6
PLINE2
 62
    3
 10
310.31075650000002
 20
182.31554299999999
 11
311.31075650000002
 21
182.115543
  0
LINE
  8
_0-3_躯体と製品
  6
PLINE2
 62
    3
 10
310.31075650000002
 20
183.115543
 11
311.31075650000002
 21
182.91554299999999
  0
LINE
  8
_0-3_躯体と製品
  6
PLINE2
 62
    3
 10
310.31075650000002
 20
182.91554299999999
 11
311.91075649999993
 21
182.91554299999999
  0
LINE
  8
_0-3_躯体と製品
  6
PLINE2
 62
    3
 10
311.91075649999993
 20
182.215543
 11
311.91075649999993
 21
182.115543
  0
ARC
  8
_0-3_躯体と製品
  6
CONTINUOUS
 62
    2
 10
309.47649850000005
 20
181.81499099999999
 40
0.5999999999999999
 50
218.61463800000152
 51
267.54107399999708
  0
ARC
  8
_0-3_躯体と製品
  6
CONTINUOUS
 62
    2
 10
309.85075649999999
 20
182.115543
 40
1.0800000000000001
 50
180
 51
218.6821870000017
  0
ARC
  8
_0-3_躯体と製品
  6
CONTINUOUS
 62
    2
 10
309.85075649999999
 20
182.115543
 40
1.0800000000000001
 50
141.1489380000009
 51
180
  0
ARC
  8
_0-3_躯体と製品
  6
CONTINUOUS
 62
    2
 10
309.47649850000005
 20
182.41609499999998
 40
0.5999999999999999
 50
92.458925999996254
 51
141.38536199999839
  0
LINE
  8
_0-3_躯体と製品
  6
CONTINUOUS
 62
    2
 10
309.4507564999999
 20
183.91554299999999
 11
309.4507564999999
 21
180.31554299999999
  0
LINE
  8
_0-3_躯体と製品
  6
CONTINUOUS
 62
    2
 10
309.4507564999999
 20
180.31554299999999
 11
309.75075649999985
 21
180.31554299999999
  0
LINE
  8
_0-3_躯体と製品
  6
CONTINUOUS
 62
    2
 10
309.4507564999999
 20
183.91554299999999
 11
309.75075649999985
 21
183.91554299999999
  0
LINE
  8
_0-3_躯体と製品
  6
CONTINUOUS
 62
    2
 10
310.11075649999998
 20
181.115543
 11
310.05075649999992
 21
181.115543
  0
LINE
  8
_0-3_躯体と製品
  6
PLINE2
 62
    3
 10
314.67028449999998
 20
181.169962
 11
314.89094449999993
 21
181.55894599999999
  0
LINE
  8
_0-3_躯体と製品
  6
PLINE2
 62
    3
 10
314.89094449999993
 20
181.55894599999999
 11
315.29039650000004
 21
181.53801200000001
  0
LINE
  8
_0-3_躯体と製品
  6
PLINE2
 62
    3
 10
315.29039650000004
 20
181.53801200000001
 11
315.26946249999992
 21
181.13855999999998
  0
LINE
  8
_0-3_躯体と製品
  6
PLINE2
 62
    3
 10
314.27083249999987
 20
181.19089600000001
 11
314.67028449999998
 21
181.169962
  0
LINE
  8
_0-3_躯体と製品
  6
PLINE2
 62
    3
 10
313.67165449999993
 20
181.222297
 11
313.8923145
 21
181.61128199999999
  0
LINE
  8
_0-3_躯体と製品
  6
PLINE2
 62
    3
 10
313.8923145
 20
181.61128199999999
 11
314.29176649999988
 21
181.59034800000001
  0
LINE
  8
_0-3_躯体と製品
  6
PLINE2
 62
    3
 10
314.29176649999988
 20
181.59034800000001
 11
314.27083249999987
 21
181.19089600000001
  0
LINE
  8
_0-3_躯体と製品
  6
PLINE2
 62
    3
 10
313.27220250000005
 20
181.24323200000001
 11
313.67165449999993
 21
181.222297
  0
LINE
  8
_0-3_躯体と製品
  6
PLINE2
 62
    3
 10
312.89368549999995
 20
181.66361799999999
 11
313.29313749999983
 21
181.642684
  0
LINE
  8
_0-3_躯体と製品
  6
PLINE2
 62
    3
 10
313.29313749999983
 20
181.642684
 11
313.27220250000005
 21
181.24323200000001
  0
LINE
  8
_0-3_躯体と製品
  6
PLINE2
 62
    3
 10
312.71075649999989
 20
181.31554299999999
 11
312.89368549999995
 21
181.66361799999999
  0
LINE
  8
_0-3_躯体と製品
  6
PLINE2
 62
    3
 10
314.67028449999998
 20
183.06112400000001
 11
314.89094449999993
 21
182.67213999999998
  0
LINE
  8
_0-3_躯体と製品
  6
PLINE2
 62
    3
 10
314.89094449999993
 20
182.67213999999998
 11
315.29039650000004
 21
182.693074
  0
LINE
  8
_0-3_躯体と製品
  6
PLINE2
 62
    3
 10
315.29039650000004
 20
182.693074
 11
315.26946249999992
 21
183.09252599999999
  0
LINE
  8
_0-3_躯体と製品
  6
PLINE2
 62
    3
 10
314.27083249999987
 20
183.04019
 11
314.67028449999998
 21
183.06112400000001
  0
LINE
  8
_0-3_躯体と製品
  6
PLINE2
 62
    3
 10
313.67165449999993
 20
183.00878800000001
 11
313.8923145
 21
182.61980399999999
  0
LINE
  8
_0-3_躯体と製品
  6
PLINE2
 62
    3
 10
313.8923145
 20
182.61980399999999
 11
314.29176649999988
 21
182.640738
  0
LINE
  8
_0-3_躯体と製品
  6
PLINE2
 62
    3
 10
314.29176649999988
 20
182.640738
 11
314.27083249999987
 21
183.04019
  0
LINE
  8
_0-3_躯体と製品
  6
PLINE2
 62
    3
 10
313.27220250000005
 20
182.987854
 11
313.67165449999993
 21
183.00878800000001
  0
LINE
  8
_0-3_躯体と製品
  6
PLINE2
 62
    3
 10
312.89368549999995
 20
182.56746799999999
 11
313.29313749999983
 21
182.588402
  0
LINE
  8
_0-3_躯体と製品
  6
PLINE2
 62
    3
 10
313.29313749999983
 20
182.588402
 11
313.27220250000005
 21
182.987854
  0
LINE
  8
_0-3_躯体と製品
  6
PLINE2
 62
    3
 10
312.71075649999989
 20
182.91554299999999
 11
312.89368549999995
 21
182.56746799999999
  0
LINE
  8
_0-3_躯体と製品
  6
PLINE2
 62
    3
 10
314.27083249999987
 20
181.19089600000001
 11
313.33923649999986
 21
180.851823
  0
LINE
  8
_0-3_躯体と製品
  6
PLINE2
 62
    3
 10
314.27083249999987
 20
181.40373099999999
 11
313.27083249999998
 21
181.039761
  0
LINE
  8
_0-3_躯体と製品
  6
CONTINUOUS
 62
    2
 10
310.11075649999998
 20
181.115543
 11
310.11075649999998
 21
183.115543
  0
ARC
  8
_0-3_躯体と製品
  6
CONTINUOUS
 62
    2
 10
309.65075650000006
 20
184.51554300000001
 40
0.1
 50
0
 51
90
  0
LINE
  8
_0-3_躯体と製品
  6
CONTINUOUS
 62
    2
 10
309.75075649999985
 20
184.51554300000001
 11
309.75075349999997
 21
182.175543
  0
ARC
  8
_0-3_躯体と製品
  6
CONTINUOUS
 62
    2
 10
309.65075550000006
 20
184.91554299999999
 40
0.1
 50
270
 51
0
  0
LINE
  8
_0-3_躯体と製品
  6
CONTINUOUS
 62
    2
 10
308.51075649999996
 20
184.81554299999999
 11
309.65075550000006
 21
184.81554299999999
  0
LINE
  8
_0-3_躯体と製品
  6
CONTINUOUS
 62
    2
 10
308.51075649999996
 20
185.01554300000001
 11
308.51075649999996
 21
184.81554299999999
  0
LINE
  8
_0-3_躯体と製品
  6
CONTINUOUS
 62
    2
 10
308.11075649999998
 20
184.81554299999999
 11
308.51075649999996
 21
185.01554300000001
  0
LINE
  8
_0-3_躯体と製品
  6
CONTINUOUS
 62
    2
 10
309.81075350000015
 20
182.115543
 11
309.75075349999997
 21
182.175543
  0
LINE
  8
_0-3_躯体と製品
  6
CONTINUOUS
 62
    2
 10
309.81075350000015
 20
182.115543
 11
309.75075649999985
 21
182.05554599999999
  0
LINE
  8
_0-3_躯体と製品
  6
CONTINUOUS
 62
    2
 10
310.11075649999998
 20
185.01554300000001
 11
310.05075649999992
 21
185.01554300000001
  0
LINE
  8
_0-3_躯体と製品
  6
CONTINUOUS
 62
    2
 10
310.05075649999992
 20
185.01554300000001
 11
310.05075649999992
 21
183.115543
  0
LINE
  8
_0-3_躯体と製品
  6
CONTINUOUS
 62
    2
 10
310.05075649999992
 20
183.115543
 11
310.11075649999998
 21
183.115543
  0
ARC
  8
_0-3_躯体と製品
  6
CONTINUOUS
 62
    2
 10
308.81075750000014
 20
185.115543
 40
0.1
 50
290.15087400000476
 51
90.000000000000057
  0
LINE
  8
_0-3_躯体と製品
  6
CONTINUOUS
 62
    2
 10
308.84520650000002
 20
185.02166399999999
 11
308.51075749999995
 21
184.91554299999999
  0
LINE
  8
_0-3_躯体と製品
  6
CONTINUOUS
 62
    2
 10
308.51075749999995
 20
184.91554299999999
 11
308.51075749999995
 21
185.01554300000001
  0
LINE
  8
_0-5_文字-記号
  6
CONTINUOUS
 62
    3
 10
308.77075649999995
 20
182.115543
 11
311.87344649999989
 21
185.813185
  0
CIRCLE
  8
_0-5_文字-記号
  6
CONTINUOUS
 62
    3
 10
308.77075649999995
 20
182.115543
 40
0.2
  0
CIRCLE
  8
_0-5_文字-記号
  6
CONTINUOUS
 62
    3
 10
309.4507564999999
 20
180.31554299999999
 40
0.2
  0
LINE
  8
_0-3_躯体と製品
  6
CONTINUOUS
 62
    2
 10
309.65076850000014
 20
190.01554300000001
 11
307.41075649999993
 21
190.01554300000001
  0
LINE
  8
_0-3_躯体と製品
  6
CONTINUOUS
 62
    2
 10
309.91075649999993
 20
190.31554299999999
 11
306.71075649999989
 21
190.31554299999999
  0
LINE
  8
_0-3_躯体と製品
  6
CONTINUOUS
 62
    2
 10
308.11075649999998
 20
187.215543
 11
307.51075649999996
 21
187.215543
  0
LINE
  8
_0-3_躯体と製品
  6
CONTINUOUS
 62
    2
 10
307.51075649999996
 20
187.47554299999999
 11
309.65075650000006
 21
187.47554299999999
  0
LINE
  8
_0-3_躯体と製品
  6
CONTINUOUS
 62
    2
 10
308.81075750000014
 20
186.81554299999999
 11
306.61075749999998
 21
186.81554299999999
  0
LINE
  8
_0-3_躯体と製品
  6
CONTINUOUS
 62
    2
 10
308.51075749999995
 20
187.01554300000001
 11
306.61075749999998
 21
187.01554300000001
  0
ARC
  8
_0-3_躯体と製品
  6
CONTINUOUS
 62
    2
 10
307.41075649999993
 20
189.51554300000001
 40
0.1
 50
180
 51
270
  0
LINE
  8
_0-3_躯体と製品
  6
CONTINUOUS
 62
    2
 10
307.61075649999987
 20
189.41554299999999
 11
307.41075649999993
 21
189.41554299999999
  0
ARC
  8
_0-3_躯体と製品
  6
CONTINUOUS
 62
    2
 10
307.41075649999993
 20
189.91554299999999
 40
0.1
 50
90
 51
180
  0
LINE
  8
_0-3_躯体と製品
  6
CONTINUOUS
 62
    2
 10
307.61075649999987
 20
188.215543
 11
307.41075649999993
 21
188.215543
  0
LINE
  8
_0-3_躯体と製品
  6
CONTINUOUS
 62
    2
 10
307.0707564999999
 20
188.81554299999999
 11
307.01075649999996
 21
188.75554299999999
  0
ARC
  8
_0-3_躯体と製品
  6
CONTINUOUS
 62
    2
 10
306.71075649999989
 20
187.49575999999999
 40
0.1
 50
180
 51
257.47119200000049
  0
LINE
  8
_0-3_躯体と製品
  6
CONTINUOUS
 62
    2
 10
307.51075649999996
 20
187.215543
 11
306.68906349999997
 21
187.39814100000001
  0
LINE
  8
_0-3_躯体と製品
  6
CONTINUOUS
 62
    2
 10
307.51075649999996
 20
187.47554299999999
 11
307.38862049999989
 21
187.50326699999999
  0
ARC
  8
_0-3_躯体と製品
  6
CONTINUOUS
 62
    2
 10
306.71075649999989
 20
187.91554299999999
 40
0.1
 50
90
 51
180
  0
LINE
  8
_0-3_躯体と製品
  6
CONTINUOUS
 62
    2
 10
306.61075649999998
 20
187.91554299999999
 11
306.61075649999998
 21
187.49575999999999
  0
ARC
  8
_0-3_躯体と製品
  6
CONTINUOUS
 62
    2
 10
306.71075649999989
 20
190.215543
 40
0.1
 50
90
 51
180
  0
LINE
  8
_0-3_躯体と製品
  6
CONTINUOUS
 62
    2
 10
306.61075649999998
 20
190.215543
 11
306.61075649999998
 21
189.715543
  0
ARC
  8
_0-3_躯体と製品
  6
CONTINUOUS
 62
    2
 10
306.71075649999989
 20
189.715543
 40
0.1
 50
180
 51
270
  0
LINE
  8
_0-3_躯体と製品
  6
CONTINUOUS
 62
    2
 10
307.01075649999996
 20
189.615543
 11
306.71075649999989
 21
189.615543
  0
LINE
  8
_0-3_躯体と製品
  6
CONTINUOUS
 62
    2
 10
307.01075649999996
 20
188.01554300000001
 11
307.01075649999996
 21
188.75554299999999
  0
LINE
  8
_0-3_躯体と製品
  6
CONTINUOUS
 62
    2
 10
307.01075649999996
 20
189.615543
 11
307.01075649999996
 21
188.87554299999999
  0
LINE
  8
_0-3_躯体と製品
  6
CONTINUOUS
 62
    2
 10
307.01075649999996
 20
188.01554300000001
 11
306.71075649999989
 21
188.01554300000001
  0
LINE
  8
_0-3_躯体と製品
  6
CONTINUOUS
 62
    2
 10
307.61075649999987
 20
189.41554299999999
 11
307.61075649999987
 21
188.215543
  0
ARC
  8
_0-3_躯体と製品
  6
CONTINUOUS
 62
    2
 10
306.61075749999998
 20
186.715543
 40
0.1
 50
90
 51
180
  0
ARC
  8
_0-3_躯体と製品
  6
CONTINUOUS
 62
    2
 10
306.61075749999998
 20
187.115543
 40
0.1
 50
180
 51
270
  0
LINE
  8
_0-3_躯体と製品
  6
CONTINUOUS
 62
    2
 10
307.0707564999999
 20
188.81554299999999
 11
307.01075649999996
 21
188.87554299999999
  0
ARC
  8
_0-3_躯体と製品
  6
CONTINUOUS
 62
    2
 10
307.41075649999993
 20
187.600786
 40
0.1
 50
180
 51
257.21094599999913
  0
ARC
  8
_0-3_躯体と製品
  6
CONTINUOUS
 62
    2
 10
307.41075649999993
 20
188.115543
 40
0.1
 50
90
 51
180
  0
LINE
  8
_0-3_躯体と製品
  6
CONTINUOUS
 62
    2
 10
307.31075649999991
 20
187.600786
 11
307.31075649999991
 21
188.115543
  0
LINE
  8
_0-3_躯体と製品
  6
CONTINUOUS
 62
    2
 10
307.31075649999991
 20
189.91554299999999
 11
307.31075649999991
 21
189.51554300000001
  0
CIRCLE
  8
_0-5_文字-記号
  6
CONTINUOUS
 62
    3
 10
302.58756349999999
 20
187.928225
 40
1.5
  0
TEXT
  8
_0-5_文字-記号
 62
    7
 10
301.84089683333332
 20
187.14823100000001
 40
2
 41
0.8
 50
0
  1
４
  0
LINE
  8
_0-3_躯体と製品
  6
CONTINUOUS
 62
    2
 10
310.11075649999998
 20
190.31554299999999
 11
310.31075650000002
 21
190.31554299999999
  0
ARC
  8
_0-3_躯体と製品
  6
CONTINUOUS
 62
    2
 10
310.01075649999984
 20
191.39231000000001
 40
0.1
 50
285.00000000000114
 51
0.0000000000000254
  0
LINE
  8
_0-3_躯体と製品
  6
CONTINUOUS
 62
    2
 10
309.86510649999991
 20
191.24975599999999
 11
310.03663849999987
 21
191.295717
  0
LINE
  8
_0-3_躯体と製品
  6
CONTINUOUS
 62
    2
 10
309.91687049999985
 20
191.05657099999999
 11
310.08840249999992
 21
191.10253299999999
  0
ARC
  8
_0-3_躯体と製品
  6
CONTINUOUS
 62
    2
 10
309.89098850000005
 20
191.15316300000001
 40
0.1
 50
105.00000000000109
 51
285.00000000000108
  0
ARC
  8
_0-3_躯体と製品
  6
CONTINUOUS
 62
    2
 10
310.01075649999984
 20
191.39231000000001
 40
0.2999999999999999
 50
285.00000000000114
 51
0.0000000000000254
  0
LINE
  8
_0-3_躯体と製品
  6
CONTINUOUS
 62
    2
 10
309.16627149999999
 20
191.51557700000001
 11
308.95524350000005
 21
191.51557700000001
  0
ARC
  8
_0-3_躯体と製品
  6
CONTINUOUS
 62
    2
 10
309.16627149999999
 20
191.57557700000001
 40
0.0599999999999999
 50
270
 51
0
  0
ARC
  8
_0-3_躯体と製品
  6
CONTINUOUS
 62
    2
 10
309.22627150000005
 20
191.51557700000001
 40
0.2
 50
270
 51
0
  0
LINE
  8
_0-3_躯体と製品
  6
CONTINUOUS
 62
    2
 10
309.22627150000005
 20
191.31557699999999
 11
308.89524349999999
 21
191.31557699999999
  0
ARC
  8
_0-3_躯体と製品
  6
CONTINUOUS
 62
    2
 10
308.95524350000005
 20
191.57557700000001
 40
0.0599999999999999
 50
180
 51
270
  0
ARC
  8
_0-3_躯体と製品
  6
CONTINUOUS
 62
    2
 10
308.89524349999999
 20
191.51557700000001
 40
0.2
 50
180
 51
270
  0
ARC
  8
_0-3_躯体と製品
  6
CONTINUOUS
 62
    2
 10
309.91075649999993
 20
190.115543
 40
0.2
 50
0
 51
90
  0
LINE
  8
_0-3_躯体と製品
  6
CONTINUOUS
 62
    2
 10
310.11075649999998
 20
190.115543
 11
310.11075649999998
 21
188.31554299999999
  0
ARC
  8
_0-3_躯体と製品
  6
CONTINUOUS
 62
    2
 10
309.65075650000006
 20
187.57554299999998
 40
0.1
 50
270
 51
0
  0
ARC
  8
_0-3_躯体と製品
  6
CONTINUOUS
 62
    2
 10
309.65076850000014
 20
189.91554299999999
 40
0.1
 50
0
 51
90
  0
LINE
  8
_0-3_躯体と製品
  6
CONTINUOUS
 62
    2
 10
309.75075649999985
 20
187.575255
 11
309.75076850000005
 21
189.91554299999999
  0
ARC
  8
_0-3_躯体と製品
  6
CONTINUOUS
 62
    2
 10
309.65075650000006
 20
187.115543
 40
0.1
 50
0
 51
90
  0
LINE
  8
_0-3_躯体と製品
  6
CONTINUOUS
 62
    2
 10
308.51075649999996
 20
187.215543
 11
309.65075650000006
 21
187.215543
  0
LINE
  8
_0-3_躯体と製品
  6
CONTINUOUS
 62
    2
 10
308.11075649999998
 20
187.215543
 11
308.51075649999996
 21
187.01554300000001
  0
LINE
  8
_0-3_躯体と製品
  6
CONTINUOUS
 62
    2
 10
308.51075649999996
 20
187.01554300000001
 11
308.51075649999996
 21
187.215543
  0
LINE
  8
_0-3_躯体と製品
  6
CONTINUOUS
 62
    2
 10
310.11075649999998
 20
187.01554300000001
 11
310.05075649999992
 21
187.01554300000001
  0
LINE
  8
_0-3_躯体と製品
  6
CONTINUOUS
 62
    2
 10
310.11075649999998
 20
187.01554300000001
 11
310.05075649999992
 21
187.01554300000001
  0
LINE
  8
_0-3_躯体と製品
  6
CONTINUOUS
 62
    2
 10
310.05075649999992
 20
187.01554300000001
 11
310.05075649999992
 21
188.31554299999999
  0
LINE
  8
_0-3_躯体と製品
  6
CONTINUOUS
 62
    2
 10
310.05075649999992
 20
188.31554299999999
 11
310.11075649999998
 21
188.31554299999999
  0
ARC
  8
_0-3_躯体と製品
  6
CONTINUOUS
 62
    2
 10
309.06075750000002
 20
191.66557699999998
 40
0.1499999999999999
 50
180
 51
0
  0
LINE
  8
_0-3_躯体と製品
  6
CONTINUOUS
 62
    2
 10
308.51075749999995
 20
187.115543
 11
308.51075749999995
 21
187.01554300000001
  0
LINE
  8
_0-3_躯体と製品
  6
CONTINUOUS
 62
    2
 10
308.51075749999995
 20
187.01554300000001
 11
308.51075749999995
 21
187.115543
  0
ARC
  8
_0-3_躯体と製品
  6
CONTINUOUS
 62
    2
 10
308.81075750000014
 20
186.91554299999999
 40
0.1
 50
270
 51
69.849125999995252
  0
LINE
  8
_0-3_躯体と製品
  6
CONTINUOUS
 62
    2
 10
308.84520650000002
 20
187.009422
 11
308.51075749999995
 21
187.115543
  0
CIRCLE
  8
_0-3_躯体と製品
  6
CONTINUOUS
 62
    3
 10
309.75071149999985
 20
186.592907
 40
0.2
  0
TEXT
  8
_0-5_文字-記号
 62
    7
 10
311.02429116666644
 20
186.18225799999999
 40
2
 41
0.8
 50
0
  1
１０
  0
LINE
  8
_0-5_文字-記号
  6
CONTINUOUS
 62
    3
 10
309.75071149999985
 20
186.592907
 11
312.70513149999988
 21
190.11384799999999
  0
TEXT
  8
_0-5_文字-記号
 62
    7
 10
312.97598716666664
 20
190.48291699999999
 40
2
 41
0.8
 50
0
  1
５
  0
LINE
  8
_0-5_文字-記号
  6
CONTINUOUS
 62
    3
 10
317.6661724999999
 20
183.218132
 11
320.30456449999997
 21
186.36244500000001
  0
CIRCLE
  8
_0-5_文字-記号
  6
CONTINUOUS
 62
    3
 10
321.26874650000002
 20
187.51151199999998
 40
1.5
  0
LINE
  8
_0-3_躯体と製品
  6
PLINE2
 62
    3
 10
317.70280849999995
 20
181.711995
 11
317.6661724999999
 21
181.01295400000001
  0
LINE
  8
_0-3_躯体と製品
  6
PLINE2
 62
    3
 10
317.6661724999999
 20
181.01295400000001
 11
318.08655950000002
 21
181.391471
  0
LINE
  8
_0-3_躯体と製品
  6
PLINE2
 62
    3
 10
318.08655950000002
 20
181.391471
 11
318.10226050000006
 21
181.69105999999999
  0
LINE
  8
_0-3_躯体と製品
  6
PLINE2
 62
    3
 10
317.70280849999995
 20
182.519091
 11
317.6661724999999
 21
183.218132
  0
LINE
  8
_0-3_躯体と製品
  6
PLINE2
 62
    3
 10
317.6661724999999
 20
183.218132
 11
318.08655950000002
 21
182.83961500000001
  0
LINE
  8
_0-3_躯体と製品
  6
PLINE2
 62
    3
 10
318.08655950000002
 20
182.83961500000001
 11
318.10226050000006
 21
182.54002599999998
  0
LINE
  8
_0-3_躯体と製品
  6
PLINE2
 62
    3
 10
317.26672150000013
 20
181.03388799999999
 11
317.6661724999999
 21
181.01295400000001
  0
LINE
  8
_0-3_躯体と製品
  6
PLINE2
 62
    3
 10
316.66754349999985
 20
181.06529
 11
316.88820349999992
 21
181.454274
  0
LINE
  8
_0-3_躯体と製品
  6
PLINE2
 62
    3
 10
316.88820349999992
 20
181.454274
 11
317.28765550000003
 21
181.43333999999999
  0
LINE
  8
_0-3_躯体と製品
  6
PLINE2
 62
    3
 10
317.28765550000003
 20
181.43333999999999
 11
317.26672150000013
 21
181.03388799999999
  0
LINE
  8
_0-3_躯体と製品
  6
PLINE2
 62
    3
 10
316.26809149999985
 20
181.08622399999999
 11
316.66754349999985
 21
181.06529
  0
LINE
  8
_0-3_躯体と製品
  6
PLINE2
 62
    3
 10
315.66891350000014
 20
181.117626
 11
315.88957449999987
 21
181.50660999999999
  0
LINE
  8
_0-3_躯体と製品
  6
PLINE2
 62
    3
 10
315.88957449999987
 20
181.50660999999999
 11
316.28902649999998
 21
181.48567599999998
  0
LINE
  8
_0-3_躯体と製品
  6
PLINE2
 62
    3
 10
316.28902649999998
 20
181.48567599999998
 11
316.26809149999985
 21
181.08622399999999
  0
LINE
  8
_0-3_躯体と製品
  6
PLINE2
 62
    3
 10
317.26672150000013
 20
183.19719799999999
 11
317.6661724999999
 21
183.218132
  0
LINE
  8
_0-3_躯体と製品
  6
PLINE2
 62
    3
 10
316.66754349999985
 20
183.165796
 11
316.88820349999992
 21
182.77681200000001
  0
LINE
  8
_0-3_躯体と製品
  6
PLINE2
 62
    3
 10
316.88820349999992
 20
182.77681200000001
 11
317.28765550000003
 21
182.79774599999999
  0
LINE
  8
_0-3_躯体と製品
  6
PLINE2
 62
    3
 10
317.28765550000003
 20
182.79774599999999
 11
317.26672150000013
 21
183.19719799999999
  0
LINE
  8
_0-3_躯体と製品
  6
PLINE2
 62
    3
 10
316.26809149999985
 20
183.14486199999999
 11
316.66754349999985
 21
183.165796
  0
LINE
  8
_0-3_躯体と製品
  6
PLINE2
 62
    3
 10
315.66891350000014
 20
183.11346
 11
315.88957449999987
 21
182.72447600000001
  0
LINE
  8
_0-3_躯体と製品
  6
PLINE2
 62
    3
 10
315.88957449999987
 20
182.72447600000001
 11
316.28902649999998
 21
182.74540999999999
  0
LINE
  8
_0-3_躯体と製品
  6
PLINE2
 62
    3
 10
316.28902649999998
 20
182.74540999999999
 11
316.26809149999985
 21
183.14486199999999
  0
LINE
  8
_0-3_躯体と製品
  6
PLINE2
 62
    3
 10
317.4988955
 20
182.12740399999998
 11
317.15576149999993
 21
181.74066400000001
  0
LINE
  8
_0-3_躯体と製品
  6
PLINE2
 62
    3
 10
317.13686849999988
 20
182.48943199999999
 11
317.51075649999996
 21
182.115543
  0
CIRCLE
  8
_0-5_文字-記号
  6
CONTINUOUS
 62
    3
 10
317.6661724999999
 20
183.218132
 40
0.2
  0
TEXT
  8
_0-5_文字-記号
 62
    7
 10
320.57541316666664
 20
186.73149799999999
 40
2
 41
0.8
 50
0
  1
９
  0
CIRCLE
  8
_0-5_文字-記号
  6
CONTINUOUS
 62
    3
 10
313.69950649999987
 20
198.065979
 40
1.5
  0
LINE
  8
_0-3_躯体と製品
  6
CONTINUOUS
 62
    2
 10
308.81075750000014
 20
193.31557699999999
 11
306.61075749999998
 21
193.31557699999999
  0
LINE
  8
_0-3_躯体と製品
  6
CONTINUOUS
 62
    2
 10
306.41075750000005
 20
193.51557700000001
 11
309.01075749999995
 21
193.51557700000001
  0
ARC
  8
_0-3_躯体と製品
  6
CONTINUOUS
 62
    2
 10
306.41075750000005
 20
193.41557699999998
 40
0.1
 50
90
 51
180
  0
ARC
  8
_0-3_躯体と製品
  6
CONTINUOUS
 62
    2
 10
306.61075749999998
 20
193.215577
 40
0.1
 50
90
 51
180
  0
ARC
  8
_0-3_躯体と製品
  6
CONTINUOUS
 62
    2
 10
309.76851450000004
 20
192.97333499999999
 40
0.3422429999999999
 50
0
 51
180
  0
ARC
  8
_0-3_躯体と製品
  6
CONTINUOUS
 62
    2
 10
309.76851450000004
 20
192.97333499999999
 40
0.5422430000000001
 50
0
 51
180
  0
ARC
  8
_0-3_躯体と製品
  6
CONTINUOUS
 62
    2
 10
308.79524349999997
 20
192.81557699999999
 40
0.1
 50
0
 51
180
  0
ARC
  8
_0-3_躯体と製品
  6
CONTINUOUS
 62
    2
 10
309.01075749999995
 20
193.31557699999999
 40
0.2
 50
0
 51
90
  0
ARC
  8
_0-3_躯体と製品
  6
CONTINUOUS
 62
    2
 10
308.81075750000014
 20
193.215577
 40
0.1
 50
0
 51
90
  0
LINE
  8
_0-5_文字-記号
  6
CONTINUOUS
 62
    3
 10
309.70908450000002
 20
193.31037799999999
 11
312.73532549999993
 21
196.916912
  0
CIRCLE
  8
_0-5_文字-記号
  6
CONTINUOUS
 62
    3
 10
309.70908450000002
 20
193.31037799999999
 40
0.2
  0
TEXT
  8
_0-5_文字-記号
 62
    7
 10
312.95283583333332
 20
197.28597199999999
 40
2
 41
0.8
 50
0
  1
７
  0
TEXT
  8
_0-4_図面枠
 62
    7
 10
212.57279349999988
 20
236.42912999999999
 40
2
 41
0.8
 50
0
  1
（アルミ１５０タイプ）
  0
INSERT
  2
-001-_D4
  8
_0-2_寸法
 10
-601.3612861829331
 20
-9.5621573817759042
 41
0.5
 42
0.5
 50
0
  0
INSERT
  2
-002-_D5
  8
_0-2_寸法
 10
-601.3612861829331
 20
-9.5621573817759042
 41
0.5
 42
0.5
 50
0
  0
INSERT
  2
-003-_D6
  8
_0-2_寸法
 10
-601.3612861829331
 20
-9.5621573817759042
 41
0.5
 42
0.5
 50
0
  0
INSERT
  2
-004-_D7
  8
_0-2_寸法
 10
-601.3612861829331
 20
-9.5621573817759042
 41
0.5
 42
0.5
 50
0
  0
INSERT
  2
-005-_D8
  8
_0-2_寸法
 10
-601.3612861829331
 20
-9.5621573817759042
 41
0.5
 42
0.5
 50
0
  0
INSERT
  2
-006-_D9
  8
_0-2_寸法
 10
-601.3612861829331
 20
-9.5621573817759042
 41
0.5
 42
0.5
 50
0
  0
INSERT
  2
-007-_D10
  8
_0-2_寸法
 10
-601.3612861829331
 20
-9.5621573817759042
 41
0.5
 42
0.5
 50
0
  0
INSERT
  2
-008-_D11
  8
_0-2_寸法
 10
-601.3612861829331
 20
-9.5621573817759042
 41
0.5
 42
0.5
 50
0
  0
INSERT
  2
-009-_D12
  8
_0-2_寸法
 10
-601.3612861829331
 20
-9.5621573817759042
 41
0.5
 42
0.5
 50
0
  0
INSERT
  2
-010-_D13
  8
_0-2_寸法
 10
-601.3612861829331
 20
-9.5621573817759042
 41
0.5
 42
0.5
 50
0
  0
INSERT
  2
-011-_D14
  8
_0-2_寸法
 10
-601.3612861829331
 20
-9.5621573817759042
 41
0.5
 42
0.5
 50
0
  0
INSERT
  2
-012-_D15
  8
_0-2_寸法
 10
-601.3612861829331
 20
-9.5621573817759042
 41
0.5
 42
0.5
 50
0
  0
INSERT
  2
-013-_D16
  8
_0-2_寸法
 10
-601.3612861829331
 20
-9.5621573817759042
 41
0.5
 42
0.5
 50
0
  0
INSERT
  2
-014-_D17
  8
_0-2_寸法
 10
-601.3612861829331
 20
-9.5621573817759042
 41
0.5
 42
0.5
 50
0
  0
INSERT
  2
-015-_D18
  8
_0-2_寸法
 10
-601.3612861829331
 20
-9.5621573817759042
 41
0.5
 42
0.5
 50
0
  0
INSERT
  2
-016-_D19
  8
_0-2_寸法
 10
-601.3612861829331
 20
-9.5621573817759042
 41
0.5
 42
0.5
 50
0
  0
INSERT
  2
-017-_D20
  8
_0-2_寸法
 10
-601.3612861829331
 20
-9.5621573817759042
 41
0.5
 42
0.5
 50
0
  0
INSERT
  2
-018-_D21
  8
_0-2_寸法
 10
-601.3612861829331
 20
-9.5621573817759042
 41
0.5
 42
0.5
 50
0
  0
INSERT
  2
-019-_D22
  8
_0-2_寸法
 10
-601.3612861829331
 20
-9.5621573817759042
 41
0.5
 42
0.5
 50
0
  0
INSERT
  2
-020-_D23
  8
_0-2_寸法
 10
-601.3612861829331
 20
-9.5621573817759042
 41
0.5
 42
0.5
 50
0
  0
INSERT
  2
-021-_D24
  8
_0-2_寸法
 10
-601.3612861829331
 20
-9.5621573817759042
 41
0.5
 42
0.5
 50
0
  0
INSERT
  2
-022-_D25
  8
_0-2_寸法
 10
-601.3612861829331
 20
-9.5621573817759042
 41
0.5
 42
0.5
 50
0
  0
INSERT
  2
-023-_D26
  8
_0-2_寸法
 10
-601.3612861829331
 20
-9.5621573817759042
 41
0.5
 42
0.5
 50
0
  0
INSERT
  2
-024-_D27
  8
_0-2_寸法
 10
-601.3612861829331
 20
-9.5621573817759042
 41
0.5
 42
0.5
 50
0
  0
INSERT
  2
-025-_D28
  8
_0-2_寸法
 10
-601.3612861829331
 20
-9.5621573817759042
 41
0.5
 42
0.5
 50
0
  0
ENDSEC
  0
EOF
