  0
SECTION
  2
HEADER
  9
$ACADVER
  1
AC1009
  9
$INSBASE
 10
0
 20
0
 30
0
  9
$EXTMIN
 10
0
 20
0
  9
$EXTMAX
 10
420
 20
297
  9
$LIMMIN
 10
0
 20
0
  9
$LIMMAX
 10
420
 20
297
  9
$LTSCALE
 40
1
  0
ENDSEC
  0
SECTION
  2
TABLES
  0
TABLE
  2
LTYPE
 70
     9
  0
LTYPE
  2
CONTINUOUS
 70
    64
  3
実線
 72
    65
 73
     0
 40
0.0
  0
LTYPE
  2
DASHED1
 70
    64
  3
--  --  --  --  --  --  --  --  
 72
    65
 73
     2
 40
2.5
 49
1.25
 49
-1.25
  0
LTYPE
  2
DASHED2
 70
    64
  3
----    ----    ----    ----    
 72
    65
 73
     2
 40
5.0
 49
2.5
 49
-2.5
  0
LTYPE
  2
DASHED3
 70
    64
  3
------  ------  ------  ------  
 72
    65
 73
     2
 40
5.0
 49
3.75
 49
-1.25
  0
LTYPE
  2
CENTER1
 70
    64
  3
----- - ----- - ----- - ----- - 
 72
    65
 73
     4
 40
10.0
 49
6.25
 49
-1.25
 49
1.25
 49
-1.25
  0
LTYPE
  2
CENTER2
 70
    64
  3
----------  --  ----------  --  
 72
    65
 73
     4
 40
20.0
 49
12.5
 49
-2.5
 49
2.5
 49
-2.5
  0
LTYPE
  2
PHANTOM1
 70
    64
  3
--- - - --- - - --- - - --- - - 
 72
    65
 73
     6
 40
10.0
 49
3.25
 49
-1.25
 49
1.25
 49
-1.25
 49
1.25
 49
-1.25
  0
LTYPE
  2
PHANTOM2
 70
    64
  3
--------  -  -  --------  -  -  
 72
    65
 73
     6
 40
20.0
 49
10.0
 49
-2.5
 49
1.25
 49
-2.5
 49
1.25
 49
-2.5
  0
LTYPE
  2
DOT
 70
    64
  3
-   -   -   -   -   -   -   -   
 72
    65
 73
     2
 40
2.5
 49
0.625
 49
-1.875
  0
LTYPE
  2
DUMMY
 70
    64
  3
ダミー
 72
    65
 73
     0
 40
0.0
  0
LTYPE
  2
RAND1
 70
    64
  3
ランダム線1
 72
    65
 73
     4
 40
10.0
 49
1.0
 49
-2.0
 49
3.0
 49
-4.0
  0
LTYPE
  2
RAND2
 70
    64
  3
ランダム線2
 72
    65
 73
     4
 40
14.0
 49
2.0
 49
-3.0
 49
4.0
 49
-5.0
  0
LTYPE
  2
RAND3
 70
    64
  3
ランダム線3
 72
    65
 73
     4
 40
18.0
 49
3.0
 49
-4.0
 49
5.0
 49
-6.0
  0
LTYPE
  2
RAND4
 70
    64
  3
ランダム線4
 72
    65
 73
     4
 40
22.0
 49
4.0
 49
-5.0
 49
6.0
 49
-7.0
  0
LTYPE
  2
RAND5
 70
    64
  3
ランダム線5
 72
    65
 73
     4
 40
26.0
 49
5.0
 49
-6.0
 49
7.0
 49
-8.0
  0
LTYPE
  2
LONG1
 70
    64
  3
----------  --  ----------  --  
 72
    65
 73
     4
 40
40.0
 49
32.5
 49
-2.5
 49
2.5
 49
-2.5
  0
LTYPE
  2
LONG2
 70
    64
  3
--------  -  -  --------  -  -  
 72
    65
 73
     6
 40
40.0
 49
30.0
 49
-2.5
 49
1.25
 49
-2.5
 49
1.25
 49
-2.5
  0
LTYPE
  2
LONG3
 70
    64
  3
+++++++++++++++..+++++++++++++++
 72
    65
 73
     2
 40
40.0
 49
37.5
 49
-2.5
  0
LTYPE
  2
LONG4
 70
    64
  3
+++++++++++++++..+++++++++++++++
 72
    65
 73
     2
 40
80.0
 49
75.0
 49
-5.0
  0
LTYPE
  2
LONG5
 70
    64
  3
----------  --  ----------  --  
 72
    65
 73
     4
 40
60.0
 49
37.5
 49
-7.5
 49
7.5
 49
-7.5
  0
LTYPE
  2
dashed
 70
   64
  3
-------   -------------   ------
 72
   65
 73
    2
 40
7.5
 49
6
 49
-1.5
  0
LTYPE
  2
dashed_spaced
 70
   64
  3
----        --------        ----
 72
   65
 73
    2
 40
12
 49
6
 49
-6
  0
LTYPE
  2
long_dashed_dotted
 70
   64
  3
------------- --- --------------
 72
   65
 73
    4
 40
15.25
 49
12
 49
-1.5
 49
0.25
 49
-1.5
  0
LTYPE
  2
long_dashed_double-dotted
 70
   64
  3
----------- --- --- ------------
 72
   65
 73
    6
 40
17
 49
12
 49
-1.5
 49
0.25
 49
-1.5
 49
0.25
 49
-1.5
  0
LTYPE
  2
long_dashed_triplicate-dotted
 70
   64
  3
--------- --- --- --- ----------
 72
   65
 73
    8
 40
18.75
 49
12
 49
-1.5
 49
0.25
 49
-1.5
 49
0.25
 49
-1.5
 49
0.25
 49
-1.5
  0
LTYPE
  2
dotted
 70
   64
  3
   -       -       -       -    
 72
   65
 73
    2
 40
1.75
 49
0.25
 49
-1.5
  0
LTYPE
  2
chain
 70
   64
  3
-------------- -- --------------
 72
   65
 73
    4
 40
18.5
 49
12
 49
-1.5
 49
3.5
 49
-1.5
  0
LTYPE
  2
chain_double_dash
 70
   64
  3
------------ -- -- -------------
 72
   65
 73
    6
 40
23.5
 49
12
 49
-1.5
 49
3.5
 49
-1.5
 49
3.5
 49
-1.5
  0
LTYPE
  2
dashed_dotted
 70
   64
  3
-----------     -     ----------
 72
   65
 73
    4
 40
9.25
 49
6
 49
-1.5
 49
0.25
 49
-1.5
  0
LTYPE
  2
double-dashed_dotted
 70
   64
  3
------   -----------   -   -----
 72
   65
 73
    6
 40
16.75
 49
6
 49
-1.5
 49
6
 49
-1.5
 49
0.25
 49
-1.5
  0
LTYPE
  2
dashed_double-dotted
 70
   64
  3
---------    -    -    ---------
 72
   65
 73
    6
 40
11
 49
6
 49
-1.5
 49
0.25
 49
-1.5
 49
0.25
 49
-1.5
  0
LTYPE
  2
double-dashed_double-dotted
 70
   64
  3
-----   ---------   -   -   ----
 72
   65
 73
    8
 40
18.5
 49
6
 49
-1.5
 49
6
 49
-1.5
 49
0.25
 49
-1.5
 49
0.25
 49
-1.5
  0
LTYPE
  2
dashed_triplicate-dotted
 70
   64
  3
-------    -    -    -    ------
 72
   65
 73
    8
 40
12.75
 49
6
 49
-1.5
 49
0.25
 49
-1.5
 49
0.25
 49
-1.5
 49
0.25
 49
-1.5
  0
LTYPE
  2
double-dashed_triplicate-dotted
 70
   64
  3
-----  ---------  -  -  -  -----
 72
   65
 73
   10
 40
20.25
 49
6
 49
-1.5
 49
6
 49
-1.5
 49
0.25
 49
-1.5
 49
0.25
 49
-1.5
 49
0.25
 49
-1.5
  0
LTYPE
  2
undefined
 70
   64
  3
--------------------------------
 72
   65
 73
    0
 40
0
  0
LTYPE
  2
PLINE2
 70
   64
  3
------     -----------     -----
 72
   65
 73
    2
 40
3
 49
2.1000000000000001
 49
-0.9
  0
LTYPE
  2
PLINE3
 70
   64
  3
------------   ---   -----------
 72
   65
 73
    4
 40
10
 49
7
 49
-1
 49
1
 49
-1
  0
LTYPE
  2
PLINE4
 70
   64
  3
---------   ---   ---   --------
 72
   65
 73
    6
 40
10
 49
5
 49
-1
 49
1
 49
-1
 49
1
 49
-1
  0
LTYPE
  2
PLINE5
 70
   64
  3
------     -----------     -----
 72
   65
 73
    2
 40
5
 49
3.5
 49
-1.5
  0
LTYPE
  2
PLINE6
 70
   64
  3
------------   ---   -----------
 72
   65
 73
    4
 40
15
 49
10.5
 49
-1.5
 49
1.5
 49
-1.5
  0
LTYPE
  2
PLINE7
 70
   64
  3
---------   ---   ---   --------
 72
   65
 73
    6
 40
15
 49
7.5
 49
-1.5
 49
1.5
 49
-1.5
 49
1.5
 49
-1.5
  0
LTYPE
  2
PLINE8
 70
   64
  3
------     -----------     -----
 72
   65
 73
    2
 40
7
 49
4.9000000000000004
 49
-2.1000000000000001
  0
LTYPE
  2
PLINE9
 70
   64
  3
------------   ---   -----------
 72
   65
 73
    4
 40
20
 49
14
 49
-2
 49
2
 49
-2
  0
LTYPE
  2
PLINE10
 70
   64
  3
---------   ---   ---   --------
 72
   65
 73
    6
 40
20
 49
10
 49
-2
 49
2
 49
-2
 49
2
 49
-2
  0
LTYPE
  2
PLINE11
 70
   64
  3
------     -----------     -----
 72
   65
 73
    2
 40
9
 49
6.2999999999999989
 49
-2.7000000000000002
  0
LTYPE
  2
PLINE12
 70
   64
  3
------------   ---   -----------
 72
   65
 73
    4
 40
25
 49
17.5
 49
-2.5
 49
2.5
 49
-2.5
  0
LTYPE
  2
PLINE13
 70
   64
  3
---------   ---   ---   --------
 72
   65
 73
    6
 40
25
 49
12.5
 49
-2.5
 49
2.5
 49
-2.5
 49
2.5
 49
-2.5
  0
LTYPE
  2
PLINE14
 70
   64
  3
------     -----------     -----
 72
   65
 73
    2
 40
11
 49
7.7000000000000002
 49
-3.2999999999999989
  0
LTYPE
  2
PLINE15
 70
   64
  3
------------   ---   -----------
 72
   65
 73
    4
 40
30
 49
21
 49
-3
 49
3
 49
-3
  0
LTYPE
  2
PLINE16
 70
   64
  3
---------   ---   ---   --------
 72
   65
 73
    6
 40
30
 49
15
 49
-3
 49
3
 49
-3
 49
3
 49
-3
  0
LTYPE
  2
CENTER
 70
   64
  3
--------------- - --------------
 72
   65
 73
    4
 40
23
 49
20
 49
-1
 49
1
 49
-1
  0
ENDTAB
  0
TABLE
  2
STYLE
  5
3
100
AcDbSymbolTable
 70
     1
  0
STYLE
  5
10
100
AcDbSymbolTableRecord
100
AcDbTextStyleTableRecord
  2
STANDARD
 70
     0
 40
0.0
 41
1.0
 50
0.0
 71
     0
 42
0.2
  3
txt
  4
bigfont.shx
  0
STYLE
  5
26
100
AcDbSymbolTableRecord
100
AcDbTextStyleTableRecord
  2
TATEGAKI
 70
    68
 40
0.0
 41
1.0
 50
0.0
 71
     0
 42
1.0
  3
txt
  4
bigfont.shx
  0
ENDTAB
  0
TABLE
  2
LAYER
 70
    5
  0
LAYER
  2
_0-2_寸法
 70
   64
 62
    7
  6
CONTINUOUS
  0
LAYER
  2
_0-3_躯体と製品
 70
   64
 62
    7
  6
CONTINUOUS
  0
LAYER
  2
_0-4_図面枠
 70
   64
 62
    7
  6
CONTINUOUS
  0
LAYER
  2
_0-5_文字-記号
 70
   64
 62
    7
  6
CONTINUOUS
  0
LAYER
  2
ADD_LINE
 70
   64
 62
    7
  6
CONTINUOUS
  0
ENDTAB
  0
ENDSEC
  0
SECTION
  2
BLOCKS
  0
BLOCK
  2
-000-_Open30
 70
   64
 10
0
 20
0
 30
0
  0
LINE
  8
_0-0_0
  6
CONTINUOUS
 62
    7
 10
-0.3333333333333333
 20
0.0893163966666666
 11
0
 21
0
  0
LINE
  8
_0-0_0
  6
CONTINUOUS
 62
    7
 10
0
 20
0
 11
-0.3333333333333333
 21
-0.0893163966666666
  0
LINE
  8
_0-0_0
  6
CONTINUOUS
 62
    7
 10
0
 20
0
 11
-0.3333333333333333
 21
0
  0
ENDBLK
  0
BLOCK
  2
-001-_D4
 70
   64
 10
0
 20
0
 30
0
  0
LINE
  8
_0-2_寸法
  6
CONTINUOUS
 62
    4
 10
590.24752112631836
 20
28.231100030422795
 11
586.91418779298499
 21
28.231100030422795
  0
LINE
  8
_0-2_寸法
  6
CONTINUOUS
 62
    4
 10
590.24752112631836
 20
34.89776669708943
 11
586.91418779298499
 21
34.89776669708943
  0
LINE
  8
_0-2_寸法
  6
CONTINUOUS
 62
    4
 10
586.91418779298499
 20
28.564433363756127
 11
586.91418779298499
 21
34.564433363756102
  0
INSERT
  2
-000-_Open30
  8
_0-2_寸法
 10
586.91418779298499
 20
28.231100030422795
 41
1
 42
1
 50
270
  0
INSERT
  2
-000-_Open30
  8
_0-2_寸法
 10
586.91418779298499
 20
34.89776669708943
 41
1
 42
1
 50
90
  0
TEXT
  8
_0-2_寸法
 62
    7
 10
586.58085445965173
 20
31.231100030422891
 40
0.6666666666666666
 41
1
 50
90
  1
20
  0
POINT
  8
_0-1_Defpoints
 62
    7
 10
590.24752112631836
 20
28.231100030422795
  0
POINT
  8
_0-1_Defpoints
 62
    7
 10
590.24752112631836
 20
34.89776669708943
  0
POINT
  8
_0-1_Defpoints
 62
    7
 10
586.91418779298499
 20
34.89776669708943
  0
ENDBLK
  0
BLOCK
  2
-002-_D5
 70
   64
 10
0
 20
0
 30
0
  0
LINE
  8
_0-2_寸法
  6
CONTINUOUS
 62
    4
 10
593.58085445965173
 20
36.564433363756102
 11
593.58085445965173
 21
41.564433363756102
  0
LINE
  8
_0-2_寸法
  6
CONTINUOUS
 62
    4
 10
598.91418779298499
 20
38.231100030422766
 11
598.91418779298499
 21
41.564433363756102
  0
LINE
  8
_0-2_寸法
  6
CONTINUOUS
 62
    4
 10
593.91418779298499
 20
41.564433363756102
 11
598.58085445965173
 21
41.564433363756102
  0
INSERT
  2
-000-_Open30
  8
_0-2_寸法
 10
593.58085445965173
 20
41.564433363756102
 41
1
 42
1
 50
180
  0
INSERT
  2
-000-_Open30
  8
_0-2_寸法
 10
598.91418779298499
 20
41.564433363756102
 41
1
 42
1
 50
0
  0
TEXT
  8
_0-2_寸法
 62
    7
 10
595.91418779298499
 20
41.89776669708943
 40
0.6666666666666666
 41
1
 50
0
  1
16
  0
POINT
  8
_0-1_Defpoints
 62
    7
 10
593.58085445965173
 20
36.564433363756102
  0
POINT
  8
_0-1_Defpoints
 62
    7
 10
598.91418779298499
 20
38.231100030422766
  0
POINT
  8
_0-1_Defpoints
 62
    7
 10
598.91418779298499
 20
41.564433363756102
  0
ENDBLK
  0
BLOCK
  2
-003-_D6
 70
   64
 10
0
 20
0
 30
0
  0
LINE
  8
_0-2_寸法
  6
CONTINUOUS
 62
    4
 10
605.24752112631836
 20
9.064433363756164
 11
605.24752112631836
 21
-11.768899969577168
  0
LINE
  8
_0-2_寸法
  6
CONTINUOUS
 62
    4
 10
623.58085445965173
 20
-8.4355666362438324
 11
623.58085445965173
 21
-11.768899969577168
  0
LINE
  8
_0-2_寸法
  6
CONTINUOUS
 62
    4
 10
605.58085445965173
 20
-11.768899969577168
 11
623.24752112631836
 21
-11.768899969577168
  0
INSERT
  2
-000-_Open30
  8
_0-2_寸法
 10
605.24752112631836
 20
-11.768899969577168
 41
1
 42
1
 50
180
  0
INSERT
  2
-000-_Open30
  8
_0-2_寸法
 10
623.58085445965173
 20
-11.768899969577168
 41
1
 42
1
 50
0
  0
TEXT
  8
_0-2_寸法
 62
    7
 10
614.08085445965162
 20
-11.435566636243834
 40
0.6666666666666666
 41
1
 50
0
  1
55
  0
POINT
  8
_0-1_Defpoints
 62
    7
 10
605.24752112631836
 20
9.064433363756164
  0
POINT
  8
_0-1_Defpoints
 62
    7
 10
623.58085445965173
 20
-8.4355666362438324
  0
POINT
  8
_0-1_Defpoints
 62
    7
 10
623.58085445965173
 20
-11.768899969577168
  0
ENDBLK
  0
BLOCK
  2
-004-_D7
 70
   64
 10
0
 20
0
 30
0
  0
LINE
  8
_0-2_寸法
  6
CONTINUOUS
 62
    4
 10
623.58085445965173
 20
-8.4355666362438324
 11
623.58085445965173
 21
-11.768899969577168
  0
LINE
  8
_0-2_寸法
  6
CONTINUOUS
 62
    4
 10
673.58085445965173
 20
-8.4355666362438324
 11
673.58085445965173
 21
-11.768899969577168
  0
LINE
  8
_0-2_寸法
  6
CONTINUOUS
 62
    4
 10
623.91418779298499
 20
-11.768899969577168
 11
673.24752112631836
 21
-11.768899969577168
  0
INSERT
  2
-000-_Open30
  8
_0-2_寸法
 10
623.58085445965173
 20
-11.768899969577168
 41
1
 42
1
 50
180
  0
INSERT
  2
-000-_Open30
  8
_0-2_寸法
 10
673.58085445965173
 20
-11.768899969577168
 41
1
 42
1
 50
0
  0
TEXT
  8
_0-2_寸法
 62
    7
 10
648.08085445965196
 20
-11.435566636243834
 40
0.6666666666666666
 41
1
 50
0
  1
150
  0
POINT
  8
_0-1_Defpoints
 62
    7
 10
623.58085445965173
 20
-8.4355666362438324
  0
POINT
  8
_0-1_Defpoints
 62
    7
 10
673.58085445965173
 20
-8.4355666362438324
  0
POINT
  8
_0-1_Defpoints
 62
    7
 10
673.58085445965173
 20
-11.768899969577168
  0
ENDBLK
  0
BLOCK
  2
-005-_D8
 70
   64
 10
0
 20
0
 30
0
  0
LINE
  8
_0-2_寸法
  6
CONTINUOUS
 62
    4
 10
673.58085445965173
 20
-8.4355666362438324
 11
673.58085445965173
 21
-11.768899969577168
  0
LINE
  8
_0-2_寸法
  6
CONTINUOUS
 62
    4
 10
691.91418779298499
 20
9.064433363756164
 11
691.91418779298499
 21
-11.768899969577168
  0
LINE
  8
_0-2_寸法
  6
CONTINUOUS
 62
    4
 10
673.91418779298499
 20
-11.768899969577168
 11
691.58085445965207
 21
-11.768899969577168
  0
INSERT
  2
-000-_Open30
  8
_0-2_寸法
 10
673.58085445965173
 20
-11.768899969577168
 41
1
 42
1
 50
180
  0
INSERT
  2
-000-_Open30
  8
_0-2_寸法
 10
691.91418779298499
 20
-11.768899969577168
 41
1
 42
1
 50
0
  0
TEXT
  8
_0-2_寸法
 62
    7
 10
682.41418779298488
 20
-11.435566636243834
 40
0.6666666666666666
 41
1
 50
0
  1
55
  0
POINT
  8
_0-1_Defpoints
 62
    7
 10
673.58085445965173
 20
-8.4355666362438324
  0
POINT
  8
_0-1_Defpoints
 62
    7
 10
691.91418779298499
 20
9.064433363756164
  0
POINT
  8
_0-1_Defpoints
 62
    7
 10
691.91418779298499
 20
-11.768899969577168
  0
ENDBLK
  0
BLOCK
  2
-006-_D9
 70
   64
 10
0
 20
0
 30
0
  0
LINE
  8
_0-2_寸法
  6
CONTINUOUS
 62
    4
 10
615.24752112631836
 20
33.231100030422795
 11
615.24752112631836
 21
41.564433363756102
  0
LINE
  8
_0-2_寸法
  6
CONTINUOUS
 62
    4
 10
681.91418779298533
 20
33.231100030422795
 11
681.91418779298533
 21
41.564433363756102
  0
LINE
  8
_0-2_寸法
  6
CONTINUOUS
 62
    4
 10
615.58085445965173
 20
41.564433363756102
 11
681.58085445965173
 21
41.564433363756102
  0
INSERT
  2
-000-_Open30
  8
_0-2_寸法
 10
615.24752112631836
 20
41.564433363756102
 41
1
 42
1
 50
180
  0
INSERT
  2
-000-_Open30
  8
_0-2_寸法
 10
681.91418779298533
 20
41.564433363756102
 41
1
 42
1
 50
0
  0
TEXT
  8
_0-2_寸法
 62
    7
 10
648.08085445965196
 20
41.89776669708943
 40
0.6666666666666666
 41
1
 50
0
  1
200
  0
POINT
  8
_0-1_Defpoints
 62
    7
 10
615.24752112631836
 20
33.231100030422795
  0
POINT
  8
_0-1_Defpoints
 62
    7
 10
681.91418779298533
 20
33.231100030422795
  0
POINT
  8
_0-1_Defpoints
 62
    7
 10
681.91418779298533
 20
41.564433363756102
  0
ENDBLK
  0
BLOCK
  2
-007-_D10
 70
   64
 10
0
 20
0
 30
0
  0
LINE
  8
_0-2_寸法
  6
CONTINUOUS
 62
    4
 10
698.24752112631825
 20
38.231100030422766
 11
698.24752112631825
 21
41.564433363756102
  0
LINE
  8
_0-2_寸法
  6
CONTINUOUS
 62
    4
 10
703.58085445965162
 20
36.564433363756102
 11
703.58085445965162
 21
41.564433363756102
  0
LINE
  8
_0-2_寸法
  6
CONTINUOUS
 62
    4
 10
698.58085445965162
 20
41.564433363756102
 11
703.2475211263187
 21
41.564433363756102
  0
INSERT
  2
-000-_Open30
  8
_0-2_寸法
 10
698.24752112631825
 20
41.564433363756102
 41
1
 42
1
 50
180
  0
INSERT
  2
-000-_Open30
  8
_0-2_寸法
 10
703.58085445965162
 20
41.564433363756102
 41
1
 42
1
 50
0
  0
TEXT
  8
_0-2_寸法
 62
    7
 10
700.58085445965207
 20
41.89776669708943
 40
0.6666666666666666
 41
1
 50
0
  1
16
  0
POINT
  8
_0-1_Defpoints
 62
    7
 10
698.24752112631825
 20
38.231100030422766
  0
POINT
  8
_0-1_Defpoints
 62
    7
 10
703.58085445965162
 20
36.564433363756102
  0
POINT
  8
_0-1_Defpoints
 62
    7
 10
703.58085445965162
 20
41.564433363756102
  0
ENDBLK
  0
BLOCK
  2
-008-_D11
 70
   64
 10
0
 20
0
 30
0
  0
LINE
  8
_0-2_寸法
  6
CONTINUOUS
 62
    4
 10
668.58085445965196
 20
36.564433363756102
 11
668.58085445965196
 21
48.231100030422766
  0
LINE
  8
_0-2_寸法
  6
CONTINUOUS
 62
    4
 10
703.58085445965162
 20
36.564433363756102
 11
703.58085445965162
 21
48.231100030422766
  0
LINE
  8
_0-2_寸法
  6
CONTINUOUS
 62
    4
 10
668.91418779298499
 20
48.231100030422766
 11
703.2475211263187
 21
48.231100030422766
  0
INSERT
  2
-000-_Open30
  8
_0-2_寸法
 10
668.58085445965196
 20
48.231100030422766
 41
1
 42
1
 50
180
  0
INSERT
  2
-000-_Open30
  8
_0-2_寸法
 10
703.58085445965162
 20
48.231100030422766
 41
1
 42
1
 50
0
  0
TEXT
  8
_0-2_寸法
 62
    7
 10
685.58085445965162
 20
48.564433363756137
 40
0.6666666666666666
 41
1
 50
0
  1
105
  0
POINT
  8
_0-1_Defpoints
 62
    7
 10
668.58085445965196
 20
36.564433363756102
  0
POINT
  8
_0-1_Defpoints
 62
    7
 10
703.58085445965162
 20
36.564433363756102
  0
POINT
  8
_0-1_Defpoints
 62
    7
 10
703.58085445965162
 20
48.231100030422766
  0
ENDBLK
  0
BLOCK
  2
-009-_D12
 70
   64
 10
0
 20
0
 30
0
  0
LINE
  8
_0-2_寸法
  6
CONTINUOUS
 62
    4
 10
628.58085445965173
 20
36.564433363756102
 11
628.58085445965173
 21
48.231100030422766
  0
LINE
  8
_0-2_寸法
  6
CONTINUOUS
 62
    4
 10
668.58085445965196
 20
36.564433363756102
 11
668.58085445965196
 21
48.231100030422766
  0
LINE
  8
_0-2_寸法
  6
CONTINUOUS
 62
    4
 10
628.91418779298499
 20
48.231100030422766
 11
668.24752112631836
 21
48.231100030422766
  0
INSERT
  2
-000-_Open30
  8
_0-2_寸法
 10
628.58085445965173
 20
48.231100030422766
 41
1
 42
1
 50
180
  0
INSERT
  2
-000-_Open30
  8
_0-2_寸法
 10
668.58085445965196
 20
48.231100030422766
 41
1
 42
1
 50
0
  0
TEXT
  8
_0-2_寸法
 62
    7
 10
648.08085445965196
 20
48.564433363756137
 40
0.6666666666666666
 41
1
 50
0
  1
120
  0
POINT
  8
_0-1_Defpoints
 62
    7
 10
628.58085445965173
 20
36.564433363756102
  0
POINT
  8
_0-1_Defpoints
 62
    7
 10
668.58085445965196
 20
36.564433363756102
  0
POINT
  8
_0-1_Defpoints
 62
    7
 10
668.58085445965196
 20
48.231100030422766
  0
ENDBLK
  0
BLOCK
  2
-010-_D13
 70
   64
 10
0
 20
0
 30
0
  0
LINE
  8
_0-2_寸法
  6
CONTINUOUS
 62
    4
 10
593.58085445965173
 20
36.564433363756102
 11
593.58085445965173
 21
48.231100030422766
  0
LINE
  8
_0-2_寸法
  6
CONTINUOUS
 62
    4
 10
628.58085445965173
 20
36.564433363756102
 11
628.58085445965173
 21
48.231100030422766
  0
LINE
  8
_0-2_寸法
  6
CONTINUOUS
 62
    4
 10
593.91418779298499
 20
48.231100030422766
 11
628.2475211263187
 21
48.231100030422766
  0
INSERT
  2
-000-_Open30
  8
_0-2_寸法
 10
593.58085445965173
 20
48.231100030422766
 41
1
 42
1
 50
180
  0
INSERT
  2
-000-_Open30
  8
_0-2_寸法
 10
628.58085445965173
 20
48.231100030422766
 41
1
 42
1
 50
0
  0
TEXT
  8
_0-2_寸法
 62
    7
 10
610.58085445965196
 20
48.564433363756137
 40
0.6666666666666666
 41
1
 50
0
  1
105
  0
POINT
  8
_0-1_Defpoints
 62
    7
 10
593.58085445965173
 20
36.564433363756102
  0
POINT
  8
_0-1_Defpoints
 62
    7
 10
628.58085445965173
 20
36.564433363756102
  0
POINT
  8
_0-1_Defpoints
 62
    7
 10
628.58085445965173
 20
48.231100030422766
  0
ENDBLK
  0
BLOCK
  2
-011-_D14
 70
   64
 10
0
 20
0
 30
0
  0
LINE
  8
_0-2_寸法
  6
CONTINUOUS
 62
    4
 10
593.58085445965173
 20
36.564433363756102
 11
593.58085445965173
 21
54.89776669708943
  0
LINE
  8
_0-2_寸法
  6
CONTINUOUS
 62
    4
 10
703.58085445965162
 20
36.564433363756102
 11
703.58085445965162
 21
54.89776669708943
  0
LINE
  8
_0-2_寸法
  6
CONTINUOUS
 62
    4
 10
593.91418779298499
 20
54.89776669708943
 11
703.2475211263187
 21
54.89776669708943
  0
INSERT
  2
-000-_Open30
  8
_0-2_寸法
 10
593.58085445965173
 20
54.89776669708943
 41
1
 42
1
 50
180
  0
INSERT
  2
-000-_Open30
  8
_0-2_寸法
 10
703.58085445965162
 20
54.89776669708943
 41
1
 42
1
 50
0
  0
TEXT
  8
_0-2_寸法
 62
    7
 10
648.08085445965196
 20
55.231100030422766
 40
0.6666666666666666
 41
1
 50
0
  1
330
  0
POINT
  8
_0-1_Defpoints
 62
    7
 10
593.58085445965173
 20
36.564433363756102
  0
POINT
  8
_0-1_Defpoints
 62
    7
 10
703.58085445965162
 20
36.564433363756102
  0
POINT
  8
_0-1_Defpoints
 62
    7
 10
703.58085445965162
 20
54.89776669708943
  0
ENDBLK
  0
BLOCK
  2
-012-_D15
 70
   64
 10
0
 20
0
 30
0
  0
LINE
  8
_0-2_寸法
  6
CONTINUOUS
 62
    4
 10
817.56332600992403
 20
10.605635826751231
 11
817.56332600992403
 21
-10.227697506582084
  0
LINE
  8
_0-2_寸法
  6
CONTINUOUS
 62
    4
 10
827.56332600992357
 20
-6.8943641732487499
 11
827.56332600992357
 21
-10.227697506582084
  0
LINE
  8
_0-2_寸法
  6
CONTINUOUS
 62
    4
 10
817.89665934325694
 20
-10.227697506582084
 11
827.22999267659077
 21
-10.227697506582084
  0
INSERT
  2
-000-_Open30
  8
_0-2_寸法
 10
817.56332600992403
 20
-10.227697506582084
 41
1
 42
1
 50
180
  0
INSERT
  2
-000-_Open30
  8
_0-2_寸法
 10
827.56332600992357
 20
-10.227697506582084
 41
1
 42
1
 50
0
  0
TEXT
  8
_0-2_寸法
 62
    7
 10
822.2299926765902
 20
-9.8943641732487499
 40
0.6666666666666666
 41
1
 50
0
  1
30
  0
POINT
  8
_0-1_Defpoints
 62
    7
 10
817.56332600992403
 20
10.605635826751231
  0
POINT
  8
_0-1_Defpoints
 62
    7
 10
827.56332600992357
 20
-6.8943641732487499
  0
POINT
  8
_0-1_Defpoints
 62
    7
 10
827.56332600992357
 20
-10.227697506582084
  0
ENDBLK
  0
BLOCK
  2
-013-_D16
 70
   64
 10
0
 20
0
 30
0
  0
LINE
  8
_0-2_寸法
  6
CONTINUOUS
 62
    4
 10
827.56332600992357
 20
-6.8943641732487499
 11
827.56332600992357
 21
-10.227697506582084
  0
LINE
  8
_0-2_寸法
  6
CONTINUOUS
 62
    4
 10
894.22999267659077
 20
-6.8943641732487499
 11
894.22999267659077
 21
-10.227697506582084
  0
LINE
  8
_0-2_寸法
  6
CONTINUOUS
 62
    4
 10
827.89665934325694
 20
-10.227697506582084
 11
893.89665934325694
 21
-10.227697506582084
  0
INSERT
  2
-000-_Open30
  8
_0-2_寸法
 10
827.56332600992357
 20
-10.227697506582084
 41
1
 42
1
 50
180
  0
INSERT
  2
-000-_Open30
  8
_0-2_寸法
 10
894.22999267659077
 20
-10.227697506582084
 41
1
 42
1
 50
0
  0
TEXT
  8
_0-2_寸法
 62
    7
 10
860.3966593432574
 20
-9.8943641732487499
 40
0.6666666666666666
 41
1
 50
0
  1
200
  0
POINT
  8
_0-1_Defpoints
 62
    7
 10
827.56332600992357
 20
-6.8943641732487499
  0
POINT
  8
_0-1_Defpoints
 62
    7
 10
894.22999267659077
 20
-6.8943641732487499
  0
POINT
  8
_0-1_Defpoints
 62
    7
 10
894.22999267659077
 20
-10.227697506582084
  0
ENDBLK
  0
BLOCK
  2
-014-_D17
 70
   64
 10
0
 20
0
 30
0
  0
LINE
  8
_0-2_寸法
  6
CONTINUOUS
 62
    4
 10
894.22999267659077
 20
-6.8943641732487499
 11
894.22999267659077
 21
-10.227697506582084
  0
LINE
  8
_0-2_寸法
  6
CONTINUOUS
 62
    4
 10
904.22999267659031
 20
10.605635826751231
 11
904.22999267659031
 21
-10.227697506582084
  0
LINE
  8
_0-2_寸法
  6
CONTINUOUS
 62
    4
 10
894.56332600992403
 20
-10.227697506582084
 11
903.8966593432574
 21
-10.227697506582084
  0
INSERT
  2
-000-_Open30
  8
_0-2_寸法
 10
894.22999267659077
 20
-10.227697506582084
 41
1
 42
1
 50
180
  0
INSERT
  2
-000-_Open30
  8
_0-2_寸法
 10
904.22999267659031
 20
-10.227697506582084
 41
1
 42
1
 50
0
  0
TEXT
  8
_0-2_寸法
 62
    7
 10
898.89665934325694
 20
-9.8943641732487499
 40
0.6666666666666666
 41
1
 50
0
  1
30
  0
POINT
  8
_0-1_Defpoints
 62
    7
 10
894.22999267659077
 20
-6.8943641732487499
  0
POINT
  8
_0-1_Defpoints
 62
    7
 10
904.22999267659031
 20
10.605635826751231
  0
POINT
  8
_0-1_Defpoints
 62
    7
 10
904.22999267659031
 20
-10.227697506582084
  0
ENDBLK
  0
BLOCK
  2
-015-_D18
 70
   64
 10
0
 20
0
 30
0
  0
LINE
  8
_0-2_寸法
  6
CONTINUOUS
 62
    4
 10
802.56332600992403
 20
36.438969160084532
 11
799.22999267659077
 21
36.438969160084568
  0
LINE
  8
_0-2_寸法
  6
CONTINUOUS
 62
    4
 10
799.22999267659077
 20
36.105635826751232
 11
799.22999267659077
 21
30.105635826751225
  0
INSERT
  2
-000-_Open30
  8
_0-2_寸法
 10
799.22999267659077
 20
36.438969160084568
 41
1
 42
1
 50
90
  0
INSERT
  2
-000-_Open30
  8
_0-2_寸法
 10
799.22999267659077
 20
29.772302493417897
 41
1
 42
1
 50
270
  0
TEXT
  8
_0-2_寸法
 62
    7
 10
798.89665934325694
 20
32.772302493418032
 40
0.6666666666666666
 41
1
 50
90
  1
20
  0
POINT
  8
_0-1_Defpoints
 62
    7
 10
802.56332600992403
 20
36.438969160084532
  0
POINT
  8
_0-1_Defpoints
 62
    7
 10
799.22999267659077
 20
29.772302493417897
  0
POINT
  8
_0-1_Defpoints
 62
    7
 10
799.22999267659077
 20
29.772302493417897
  0
ENDBLK
  0
BLOCK
  2
-016-_D19
 70
   64
 10
0
 20
0
 30
0
  0
LINE
  8
_0-2_寸法
  6
CONTINUOUS
 62
    4
 10
805.8966593432574
 20
38.105635826751204
 11
805.8966593432574
 21
43.105635826751204
  0
LINE
  8
_0-2_寸法
  6
CONTINUOUS
 62
    4
 10
811.22999267659077
 20
39.772302493417868
 11
811.22999267659077
 21
43.105635826751204
  0
LINE
  8
_0-2_寸法
  6
CONTINUOUS
 62
    4
 10
806.22999267659031
 20
43.105635826751204
 11
810.8966593432574
 21
43.105635826751204
  0
INSERT
  2
-000-_Open30
  8
_0-2_寸法
 10
805.8966593432574
 20
43.105635826751204
 41
1
 42
1
 50
180
  0
INSERT
  2
-000-_Open30
  8
_0-2_寸法
 10
811.22999267659077
 20
43.105635826751204
 41
1
 42
1
 50
0
  0
TEXT
  8
_0-2_寸法
 62
    7
 10
808.22999267659065
 20
43.438969160084532
 40
0.6666666666666666
 41
1
 50
0
  1
16
  0
POINT
  8
_0-1_Defpoints
 62
    7
 10
805.8966593432574
 20
38.105635826751204
  0
POINT
  8
_0-1_Defpoints
 62
    7
 10
811.22999267659077
 20
39.772302493417868
  0
POINT
  8
_0-1_Defpoints
 62
    7
 10
811.22999267659077
 20
43.105635826751204
  0
ENDBLK
  0
BLOCK
  2
-017-_D20
 70
   64
 10
0
 20
0
 30
0
  0
LINE
  8
_0-2_寸法
  6
CONTINUOUS
 62
    4
 10
805.8966593432574
 20
38.105635826751204
 11
805.8966593432574
 21
49.772302493417897
  0
LINE
  8
_0-2_寸法
  6
CONTINUOUS
 62
    4
 10
840.8966593432574
 20
38.105635826751204
 11
840.8966593432574
 21
49.772302493417897
  0
LINE
  8
_0-2_寸法
  6
CONTINUOUS
 62
    4
 10
806.22999267659031
 20
49.772302493417897
 11
840.56332600992403
 21
49.772302493417897
  0
INSERT
  2
-000-_Open30
  8
_0-2_寸法
 10
805.8966593432574
 20
49.772302493417897
 41
1
 42
1
 50
180
  0
INSERT
  2
-000-_Open30
  8
_0-2_寸法
 10
840.8966593432574
 20
49.772302493417897
 41
1
 42
1
 50
0
  0
TEXT
  8
_0-2_寸法
 62
    7
 10
822.8966593432574
 20
50.105635826751225
 40
0.6666666666666666
 41
1
 50
0
  1
105
  0
POINT
  8
_0-1_Defpoints
 62
    7
 10
805.8966593432574
 20
38.105635826751204
  0
POINT
  8
_0-1_Defpoints
 62
    7
 10
840.8966593432574
 20
38.105635826751204
  0
POINT
  8
_0-1_Defpoints
 62
    7
 10
840.8966593432574
 20
49.772302493417897
  0
ENDBLK
  0
BLOCK
  2
-018-_D21
 70
   64
 10
0
 20
0
 30
0
  0
LINE
  8
_0-2_寸法
  6
CONTINUOUS
 62
    4
 10
840.8966593432574
 20
38.105635826751204
 11
840.8966593432574
 21
49.772302493417897
  0
LINE
  8
_0-2_寸法
  6
CONTINUOUS
 62
    4
 10
880.89665934325694
 20
38.105635826751204
 11
880.89665934325694
 21
49.772302493417897
  0
LINE
  8
_0-2_寸法
  6
CONTINUOUS
 62
    4
 10
841.22999267659031
 20
49.772302493417897
 11
880.56332600992403
 21
49.772302493417897
  0
INSERT
  2
-000-_Open30
  8
_0-2_寸法
 10
840.8966593432574
 20
49.772302493417897
 41
1
 42
1
 50
180
  0
INSERT
  2
-000-_Open30
  8
_0-2_寸法
 10
880.89665934325694
 20
49.772302493417897
 41
1
 42
1
 50
0
  0
TEXT
  8
_0-2_寸法
 62
    7
 10
860.3966593432574
 20
50.105635826751225
 40
0.6666666666666666
 41
1
 50
0
  1
120
  0
POINT
  8
_0-1_Defpoints
 62
    7
 10
840.8966593432574
 20
38.105635826751204
  0
POINT
  8
_0-1_Defpoints
 62
    7
 10
880.89665934325694
 20
38.105635826751204
  0
POINT
  8
_0-1_Defpoints
 62
    7
 10
880.89665934325694
 20
49.772302493417897
  0
ENDBLK
  0
BLOCK
  2
-019-_D22
 70
   64
 10
0
 20
0
 30
0
  0
LINE
  8
_0-2_寸法
  6
CONTINUOUS
 62
    4
 10
880.89665934325694
 20
38.105635826751204
 11
880.89665934325694
 21
49.772302493417897
  0
LINE
  8
_0-2_寸法
  6
CONTINUOUS
 62
    4
 10
915.89665934325694
 20
38.105635826751204
 11
915.89665934325694
 21
49.772302493417897
  0
LINE
  8
_0-2_寸法
  6
CONTINUOUS
 62
    4
 10
881.22999267659077
 20
49.772302493417897
 11
915.56332600992357
 21
49.772302493417897
  0
INSERT
  2
-000-_Open30
  8
_0-2_寸法
 10
880.89665934325694
 20
49.772302493417897
 41
1
 42
1
 50
180
  0
INSERT
  2
-000-_Open30
  8
_0-2_寸法
 10
915.89665934325694
 20
49.772302493417897
 41
1
 42
1
 50
0
  0
TEXT
  8
_0-2_寸法
 62
    7
 10
897.89665934325694
 20
50.105635826751225
 40
0.6666666666666666
 41
1
 50
0
  1
105
  0
POINT
  8
_0-1_Defpoints
 62
    7
 10
880.89665934325694
 20
38.105635826751204
  0
POINT
  8
_0-1_Defpoints
 62
    7
 10
915.89665934325694
 20
38.105635826751204
  0
POINT
  8
_0-1_Defpoints
 62
    7
 10
915.89665934325694
 20
49.772302493417897
  0
ENDBLK
  0
BLOCK
  2
-020-_D23
 70
   64
 10
0
 20
0
 30
0
  0
LINE
  8
_0-2_寸法
  6
CONTINUOUS
 62
    4
 10
915.89665934325694
 20
38.105635826751204
 11
915.89665934325694
 21
56.438969160084497
  0
LINE
  8
_0-2_寸法
  6
CONTINUOUS
 62
    4
 10
805.8966593432574
 20
38.105635826751204
 11
805.8966593432574
 21
56.438969160084497
  0
LINE
  8
_0-2_寸法
  6
CONTINUOUS
 62
    4
 10
915.56332600992357
 20
56.438969160084497
 11
806.22999267659031
 21
56.438969160084497
  0
INSERT
  2
-000-_Open30
  8
_0-2_寸法
 10
915.89665934325694
 20
56.438969160084497
 41
1
 42
1
 50
0
  0
INSERT
  2
-000-_Open30
  8
_0-2_寸法
 10
805.8966593432574
 20
56.438969160084497
 41
1
 42
1
 50
180
  0
TEXT
  8
_0-2_寸法
 62
    7
 10
860.3966593432574
 20
56.772302493417826
 40
0.6666666666666666
 41
1
 50
0
  1
330
  0
POINT
  8
_0-1_Defpoints
 62
    7
 10
915.89665934325694
 20
38.105635826751204
  0
POINT
  8
_0-1_Defpoints
 62
    7
 10
805.8966593432574
 20
38.105635826751204
  0
POINT
  8
_0-1_Defpoints
 62
    7
 10
805.8966593432574
 20
56.438969160084497
  0
ENDBLK
  0
BLOCK
  2
-021-_D24
 70
   64
 10
0
 20
0
 30
0
  0
LINE
  8
_0-2_寸法
  6
CONTINUOUS
 62
    4
 10
827.56332600992357
 20
34.772302493417868
 11
827.56332600992357
 21
43.105635826751204
  0
LINE
  8
_0-2_寸法
  6
CONTINUOUS
 62
    4
 10
894.22999267659077
 20
34.772302493417868
 11
894.22999267659077
 21
43.105635826751204
  0
LINE
  8
_0-2_寸法
  6
CONTINUOUS
 62
    4
 10
827.89665934325694
 20
43.105635826751204
 11
893.89665934325694
 21
43.105635826751204
  0
INSERT
  2
-000-_Open30
  8
_0-2_寸法
 10
827.56332600992357
 20
43.105635826751204
 41
1
 42
1
 50
180
  0
INSERT
  2
-000-_Open30
  8
_0-2_寸法
 10
894.22999267659077
 20
43.105635826751204
 41
1
 42
1
 50
0
  0
TEXT
  8
_0-2_寸法
 62
    7
 10
860.3966593432574
 20
43.438969160084532
 40
0.6666666666666666
 41
1
 50
0
  1
200
  0
POINT
  8
_0-1_Defpoints
 62
    7
 10
827.56332600992357
 20
34.772302493417868
  0
POINT
  8
_0-1_Defpoints
 62
    7
 10
894.22999267659077
 20
34.772302493417868
  0
POINT
  8
_0-1_Defpoints
 62
    7
 10
894.22999267659077
 20
43.105635826751204
  0
ENDBLK
  0
BLOCK
  2
-022-_D25
 70
   64
 10
0
 20
0
 30
0
  0
LINE
  8
_0-2_寸法
  6
CONTINUOUS
 62
    4
 10
910.56332600992357
 20
39.772302493417868
 11
910.56332600992357
 21
43.105635826751204
  0
LINE
  8
_0-2_寸法
  6
CONTINUOUS
 62
    4
 10
915.89665934325694
 20
38.105635826751204
 11
915.89665934325694
 21
43.105635826751204
  0
LINE
  8
_0-2_寸法
  6
CONTINUOUS
 62
    4
 10
910.89665934325694
 20
43.105635826751204
 11
915.56332600992357
 21
43.105635826751204
  0
INSERT
  2
-000-_Open30
  8
_0-2_寸法
 10
910.56332600992357
 20
43.105635826751204
 41
1
 42
1
 50
180
  0
INSERT
  2
-000-_Open30
  8
_0-2_寸法
 10
915.89665934325694
 20
43.105635826751204
 41
1
 42
1
 50
0
  0
TEXT
  8
_0-2_寸法
 62
    7
 10
912.89665934325694
 20
43.438969160084532
 40
0.6666666666666666
 41
1
 50
0
  1
16
  0
POINT
  8
_0-1_Defpoints
 62
    7
 10
910.56332600992357
 20
39.772302493417868
  0
POINT
  8
_0-1_Defpoints
 62
    7
 10
915.89665934325694
 20
38.105635826751204
  0
POINT
  8
_0-1_Defpoints
 62
    7
 10
915.89665934325694
 20
43.105635826751204
  0
ENDBLK
  0
ENDSEC
  0
SECTION
  2
ENTITIES
  0
LINE
  8
_0-4_図面枠
  6
CONTINUOUS
 62
    7
 10
791.98082508779771
 20
550.49577341979875
 11
-371.98082508779726
 21
550.49577341979875
  0
LINE
  8
_0-4_図面枠
  6
DASHED1
 62
    7
 10
-346.24725999400221
 20
162.00422658020125
 11
770.08809260373755
 21
162.00422658020125
  0
LINE
  8
_0-4_図面枠
  6
CONTINUOUS
 62
    7
 10
-371.98082508779726
 20
-253.49577341979875
 11
791.98082508779771
 21
-253.49577341979875
  0
LINE
  8
_0-4_図面枠
  6
CONTINUOUS
 62
    7
 10
-371.98082508779726
 20
550.49577341979875
 11
-371.98082508779726
 21
-253.49577341979875
  0
TEXT
  8
_0-4_図面枠
 62
    7
 10
-259.2940872729082
 20
-212.78212881501884
 40
6
 41
0.8000000000000001
 50
0
  1
注）　ガスケットＳＨはＳＳＨサイドプレート（Ｃ）Ａにセット済み。
  0
TEXT
  8
_0-4_図面枠
 62
    7
 10
-254.4927079790782
 20
27.97274720418585
 40
6
 41
0.8000000000000003
 50
0
  1
ＳＳＨサイドプレート（Ｃ）Ａ
  0
TEXT
  8
_0-4_図面枠
 62
    7
 10
-262.02032908779734
 20
6.9868750802013437
 40
6
 41
0.8000000000000001
 50
0
  1
ＳＳＨセンタープレート（Ｃ）Ａ
  0
TEXT
  8
_0-4_図面枠
 62
    7
 10
-260.38082508779735
 20
-81.895773419798729
 40
6
 41
0.7999999999999994
 50
0
  1
ステンセットシルタップ
  0
TEXT
  8
_0-4_図面枠
 62
    7
 10
-260.38082508779735
 20
-135.89577341979873
 40
6
 41
0.8000000000000001
 50
0
  1
サイドプレートジョイントカバー
  0
TEXT
  8
_0-4_図面枠
 62
    7
 10
-260.11510161467231
 20
-153.36646993180767
 40
6
 41
0.7999999999999997
 50
0
  1
センタープレートジョイントカバー
  0
TEXT
  8
_0-5_文字-記号
 62
    7
 10
-290.38180732999717
 20
135.04390898060126
 40
6.0000000000000009
 41
0.8
 50
0
  1
（落下防止ワイヤー）
  0
LINE
  8
_0-4_図面枠
  6
CONTINUOUS
 62
    7
 10
144.46917491220256
 20
26.104226580201242
 11
-281.98082508779726
 21
26.104226580201242
  0
LINE
  8
_0-3_躯体と製品
  6
CONTINUOUS
 62
    7
 10
-117.04246932999718
 20
121.13266198060136
 11
-206.99746932999733
 21
121.13266198060136
  0
LINE
  8
_0-3_躯体と製品
  6
CONTINUOUS
 62
    7
 10
-117.04246932999718
 20
122.13216198060125
 11
-206.99746932999733
 21
122.13216198060125
  0
LINE
  8
_0-4_図面枠
  6
CONTINUOUS
 62
    7
 10
144.46917491220256
 20
-189.89577341979873
 11
-281.98082508779726
 21
-189.89577341979873
  0
LINE
  8
_0-4_図面枠
  6
CONTINUOUS
 62
    7
 10
144.46917491220256
 20
-171.89577341979873
 11
-281.98082508779726
 21
-171.89577341979873
  0
LINE
  8
_0-4_図面枠
  6
CONTINUOUS
 62
    7
 10
144.46917491220256
 20
-153.89577341979873
 11
-281.98082508779726
 21
-153.89577341979873
  0
LINE
  8
_0-4_図面枠
  6
CONTINUOUS
 62
    7
 10
144.46917491220256
 20
-135.89577341979873
 11
-281.98082508779726
 21
-135.89577341979873
  0
LINE
  8
_0-4_図面枠
  6
CONTINUOUS
 62
    7
 10
144.46917491220256
 20
76.504226580201248
 11
-281.98082508779726
 21
76.504226580201248
  0
LINE
  8
_0-4_図面枠
  6
CONTINUOUS
 62
    7
 10
144.46917491220256
 20
-45.895773419798729
 11
-281.98082508779726
 21
-45.895773419798729
  0
LINE
  8
_0-4_図面枠
  6
CONTINUOUS
 62
    7
 10
144.46917491220256
 20
-27.895773419798729
 11
-281.98082508779726
 21
-27.895773419798729
  0
LINE
  8
_0-4_図面枠
  6
CONTINUOUS
 62
    7
 10
144.46917491220256
 20
-9.895773419798644
 11
-281.98082508779726
 21
-9.895773419798644
  0
LINE
  8
_0-4_図面枠
  6
CONTINUOUS
 62
    7
 10
144.46917491220256
 20
8.104226580201356
 11
-281.98082508779726
 21
8.104226580201356
  0
LINE
  8
_0-4_図面枠
  6
CONTINUOUS
 62
    7
 10
144.46917491220256
 20
44.104226580201356
 11
-281.98082508779726
 21
44.104226580201356
  0
LINE
  8
_0-4_図面枠
  6
CONTINUOUS
 62
    7
 10
144.46917491220256
 20
-63.895773419798729
 11
-281.98082508779726
 21
-63.895773419798729
  0
LINE
  8
_0-4_図面枠
  6
CONTINUOUS
 62
    7
 10
144.46917491220256
 20
-99.895773419798729
 11
-281.98082508779726
 21
-99.895773419798729
  0
LINE
  8
_0-4_図面枠
  6
CONTINUOUS
 62
    7
 10
144.46917491220256
 20
-81.895773419798729
 11
-281.98082508779726
 21
-81.895773419798729
  0
LINE
  8
_0-4_図面枠
  6
CONTINUOUS
 62
    7
 10
144.46917491220256
 20
-117.89577341979873
 11
-281.98082508779726
 21
-117.89577341979873
  0
LINE
  8
_0-4_図面枠
  6
CONTINUOUS
 62
    7
 10
-260.38082508779735
 20
-189.89577341979873
 11
-260.38082508779735
 21
76.504226580201248
  0
LINE
  8
_0-4_図面枠
  6
CONTINUOUS
 62
    7
 10
-281.98082508779726
 20
-189.89577341979873
 11
-281.98082508779726
 21
76.504226580201248
  0
TEXT
  8
_0-4_図面枠
 62
    7
 10
-260.38082508779735
 20
-189.89577341979873
 40
6
 41
0.8000000000000001
 50
0
  1
落下防止ワイヤー
  0
TEXT
  8
_0-4_図面枠
 62
    7
 10
-260.38082508779735
 20
-171.89577341979873
 40
6
 41
0.7999999999999992
 50
0
  1
ブチルテープ
  0
TEXT
  8
_0-4_図面枠
 62
    7
 10
-260.38082508779735
 20
-117.89577341979873
 40
6
 41
0.8000000000000001
 50
0
  1
ガスケットＳＨ
  0
TEXT
  8
_0-4_図面枠
 62
    7
 10
-276.02032908779734
 20
-173.01310691979876
 40
6
 41
0.7999999999999952
 50
0
  1
※
  0
TEXT
  8
_0-4_図面枠
 62
    7
 10
-276.02032908779734
 20
-191.01309041979863
 40
6
 41
0.7999999999999952
 50
0
  1
※
  0
TEXT
  8
_0-4_図面枠
 62
    7
 10
-276.02032908779734
 20
-155.01310691979876
 40
6
 41
0.7999999999999952
 50
0
  1
※
  0
TEXT
  8
_0-4_図面枠
 62
    7
 10
-276.02032908779734
 20
-137.01310691979876
 40
6
 41
0.7999999999999952
 50
0
  1
※
  0
TEXT
  8
_0-4_図面枠
 62
    7
 10
-276.02032908779734
 20
-119.01310691979876
 40
6
 41
0.7999999999999952
 50
0
  1
９
  0
TEXT
  8
_0-4_図面枠
 62
    7
 10
-290.84600834665025
 20
26.600924548805864
 40
6
 41
0.8000000000000048
 50
0
  1
　１
  0
TEXT
  8
_0-4_図面枠
 62
    7
 10
-260.38082508779735
 20
-9.895773419798644
 40
6
 41
0.8000000000000001
 50
0
  1
ＳＳＨフレーム（Ｃ）
  0
TEXT
  8
_0-4_図面枠
 62
    7
 10
-260.38082508779735
 20
-27.895773419798729
 40
6
 41
0.8000000000000001
 50
0
  1
止水補助板
  0
TEXT
  8
_0-4_図面枠
 62
    7
 10
-260.38082508779735
 20
-45.895773419798729
 40
6
 41
0.8000000000000001
 50
0
  1
アンカープラグ
  0
TEXT
  8
_0-4_図面枠
 62
    7
 10
-260.38082508779735
 20
-63.895773419798729
 40
6
 41
0.8000000000000006
 50
0
  1
ステンタッピンねじ
  0
TEXT
  8
_0-4_図面枠
 62
    7
 10
-260.38082508779735
 20
-99.895773419798729
 40
6
 41
0.8000000000000001
 50
0
  1
ステンワッシャー
  0
TEXT
  8
_0-4_図面枠
 62
    7
 10
-276.02032908779734
 20
-47.013090419798743
 40
6
 41
0.7999999999999952
 50
0
  1
５
  0
TEXT
  8
_0-4_図面枠
 62
    7
 10
-276.02032908779734
 20
-101.01310691979876
 40
6
 41
0.7999999999999952
 50
0
  1
８
  0
TEXT
  8
_0-4_図面枠
 62
    7
 10
-276.02032908779734
 20
-83.013106919798759
 40
6
 41
0.7999999999999952
 50
0
  1
７
  0
TEXT
  8
_0-4_図面枠
 62
    7
 10
-276.02032908779734
 20
-65.013090419798743
 40
6
 41
0.7999999999999952
 50
0
  1
６
  0
TEXT
  8
_0-4_図面枠
 62
    7
 10
-276.02032908779734
 20
-11.013124919798742
 40
6
 41
0.7999999999999952
 50
0
  1
３
  0
TEXT
  8
_0-4_図面枠
 62
    7
 10
-276.02032908779734
 20
-29.013124919798656
 40
6
 41
0.7999999999999952
 50
0
  1
４
  0
TEXT
  8
_0-4_図面枠
 62
    7
 10
-276.02032908779734
 20
6.9868750802013437
 40
6
 41
0.7999999999999952
 50
0
  1
２
  0
TEXT
  8
_0-4_図面枠
 62
    7
 10
-220.20777108779725
 20
57.304258080201265
 40
6
 41
0.8000000000000012
 50
0
  1
部材名称
  0
LINE
  8
_0-3_躯体と製品
  6
CONTINUOUS
 62
    7
 10
-206.99746932999733
 20
123.13166198060135
 11
-204.97909432999722
 21
123.13166198060135
  0
ARC
  8
_0-3_躯体と製品
  6
CONTINUOUS
 62
    7
 10
-231.98496932999615
 20
121.63241198060126
 40
4.9974999999999987
 50
79.898790000005874
 51
283.04079499999443
  0
LINE
  8
_0-3_躯体と製品
  6
CONTINUOUS
 62
    7
 10
-231.10847032999732
 20
126.55244798060136
 11
-211.99496932999728
 21
123.14739798060135
  0
ARC
  8
_0-3_躯体と製品
  6
CONTINUOUS
 62
    7
 10
-231.98496932999615
 20
121.63241198060126
 40
3.9980000000000002
 50
79.898790000005874
 51
283.04079499999443
  0
LINE
  8
_0-3_躯体と製品
  6
CONTINUOUS
 62
    7
 10
-231.2837703299972
 20
125.56843998060135
 11
-211.99496932999728
 21
122.13216198060125
  0
LINE
  8
_0-3_躯体と製品
  6
CONTINUOUS
 62
    7
 10
-212.05954232999716
 20
122.14366498060136
 11
-231.08284232999722
 21
117.73752098060136
  0
LINE
  8
_0-3_躯体と製品
  6
CONTINUOUS
 62
    7
 10
-230.85731032999729
 20
116.76379898060135
 11
-211.99496932999728
 21
121.13266198060136
  0
LINE
  8
_0-3_躯体と製品
  6
CONTINUOUS
 62
    7
 10
-211.99496932999728
 20
123.93126198060136
 11
-211.99496932999728
 21
120.33306198060126
  0
LINE
  8
_0-3_躯体と製品
  6
CONTINUOUS
 62
    7
 10
-206.99746932999733
 20
123.93126198060136
 11
-211.99496932999728
 21
123.93126198060136
  0
LINE
  8
_0-3_躯体と製品
  6
CONTINUOUS
 62
    7
 10
-206.99746932999733
 20
120.33306198060126
 11
-206.99746932999733
 21
123.93126198060136
  0
LINE
  8
_0-3_躯体と製品
  6
CONTINUOUS
 62
    7
 10
-211.99496932999728
 20
120.33306198060126
 11
-206.99746932999733
 21
120.33306198060126
  0
LINE
  8
_0-3_躯体と製品
  6
CONTINUOUS
 62
    7
 10
-203.47984432999715
 20
123.93126198060136
 11
-203.47984432999715
 21
123.63141198060136
  0
LINE
  8
_0-3_躯体と製品
  6
CONTINUOUS
 62
    7
 10
-204.47934432999728
 20
123.93126198060136
 11
-203.47984432999715
 21
123.93126198060136
  0
LINE
  8
_0-3_躯体と製品
  6
CONTINUOUS
 62
    7
 10
-204.47934432999728
 20
123.93126198060136
 11
-204.47934432999728
 21
123.63141198060136
  0
ARC
  8
_0-3_躯体と製品
  6
CONTINUOUS
 62
    7
 10
-204.97909432999722
 20
123.63141198060136
 40
0.49975
 50
270
 51
0
  0
ARC
  8
_0-3_躯体と製品
  6
CONTINUOUS
 62
    7
 10
-204.97909432999722
 20
123.63141198060136
 40
1.4992499999999991
 50
270
 51
0
  0
LINE
  8
_0-4_図面枠
  6
CONTINUOUS
 62
    7
 10
41.869174912203562
 20
-189.89577341979873
 11
41.869174912203562
 21
76.504226580201248
  0
LINE
  8
_0-4_図面枠
  6
CONTINUOUS
 62
    7
 10
38.869174912203562
 20
-189.89577341979873
 11
38.869174912203562
 21
76.504226580201248
  0
LINE
  8
_0-4_図面枠
  6
CONTINUOUS
 62
    7
 10
122.86917491220265
 20
-189.89577341979873
 11
122.86917491220265
 21
76.504226580201248
  0
LINE
  8
_0-4_図面枠
  6
CONTINUOUS
 62
    7
 10
86.869174912203562
 20
-189.89577341979873
 11
86.869174912203562
 21
76.504226580201248
  0
LINE
  8
_0-4_図面枠
  6
CONTINUOUS
 62
    7
 10
144.46917491220256
 20
-189.89577341979873
 11
144.46917491220256
 21
76.504226580201248
  0
LINE
  8
_0-4_図面枠
  6
CONTINUOUS
 62
    7
 10
-89.380825087797348
 20
-189.89577341979873
 11
-89.380825087797348
 21
76.504226580201248
  0
TEXT
  8
_0-4_図面枠
 62
    7
 10
-89.380825087797348
 20
-171.89577341979873
 40
6
 41
0.7999999999999997
 50
0
  1
ｔ１．０×ｗ３０
  0
TEXT
  8
_0-4_図面枠
 62
    7
 10
-83.524702328332296
 20
-152.33709973963187
 40
6
 41
0.8000000000000003
 50
0
  1
外ジョイント材
  0
TEXT
  8
_0-4_図面枠
 62
    7
 10
-83.524702328332296
 20
-136.01279218226034
 40
6
 41
0.8000000000000003
 50
0
  1
外ジョイント材
  0
TEXT
  8
_0-4_図面枠
 62
    7
 10
101.2998394122028
 20
-172.94576441979876
 40
6
 41
0.7999999999999988
 50
0
  1
１
  0
TEXT
  8
_0-4_図面枠
 62
    7
 10
41.869174912203562
 20
-171.89577341979873
 40
6
 41
0.7999999999999997
 50
0
  1
６０００
  0
TEXT
  8
_0-4_図面枠
 62
    7
 10
101.2998394122028
 20
-190.94576441979876
 40
6
 41
0.7999999999999988
 50
0
  1
２
  0
TEXT
  8
_0-4_図面枠
 62
    7
 10
41.869174912203562
 20
-117.89577341979873
 40
6
 41
0.7999999999999997
 50
0
  1
３１００
  0
TEXT
  8
_0-4_図面枠
 62
    7
 10
101.2998394122028
 20
-154.94578091979872
 40
6
 41
0.7999999999999988
 50
0
  1
１
  0
TEXT
  8
_0-4_図面枠
 62
    7
 10
101.2998394122028
 20
-136.94576441979876
 40
6
 41
0.7999999999999988
 50
0
  1
２
  0
TEXT
  8
_0-4_図面枠
 62
    7
 10
101.2998394122028
 20
-118.94574791979886
 40
6
 41
0.7999999999999988
 50
0
  1
２
  0
TEXT
  8
_0-4_図面枠
 62
    7
 10
124.23454991220297
 20
-173.09574491979873
 40
6
 41
0.8000000000000012
 50
0
  1
巻
  0
TEXT
  8
_0-4_図面枠
 62
    7
 10
124.23454991220297
 20
-191.09574491979885
 40
6
 41
0.8000000000000012
 50
0
  1
本
  0
TEXT
  8
_0-4_図面枠
 62
    7
 10
124.23454991220297
 20
-137.09576141979886
 40
6
 41
0.8000000000000012
 50
0
  1
個
  0
TEXT
  8
_0-4_図面枠
 62
    7
 10
124.23454991220297
 20
-155.09576141979886
 40
6
 41
0.8000000000000012
 50
0
  1
〃
  0
TEXT
  8
_0-4_図面枠
 62
    7
 10
124.23454991220297
 20
-119.09574491979885
 40
6
 41
0.8000000000000012
 50
0
  1
本
  0
TEXT
  8
_0-4_図面枠
 62
    7
 10
-87.297542446502348
 20
-101.09574491979885
 40
6
 41
0.7999999999999998
 50
0
  1
１．５×１８×５．５穴
  0
TEXT
  8
_0-4_図面枠
 62
    7
 10
-87.297576946502204
 20
-47.095761419798748
 40
6
 41
0.8000000000000002
 50
0
  1
フィッシャープラグＳ８
  0
TEXT
  8
_0-4_図面枠
 62
    7
 10
-89.380825087797348
 20
-81.895773419798729
 40
6
 41
0.8000000000000012
 50
0
  1
４×１３
  0
TEXT
  8
_0-4_図面枠
 62
    7
 10
-89.380825087797348
 20
-63.895773419798729
 40
6
 41
0.7999999999999992
 50
0
  1
なべ５×５０
  0
TEXT
  8
_0-4_図面枠
 62
    7
 10
-89.380825087797348
 20
-27.895773419798729
 40
6
 41
0.8000000000000001
 50
0
  1
ＦＳ４００
  0
LINE
  8
_0-3_躯体と製品
  6
CONTINUOUS
 62
    7
 10
-107.04746932999728
 20
121.13266198060136
 11
-17.092469329997357
 21
121.13266198060136
  0
LINE
  8
_0-3_躯体と製品
  6
CONTINUOUS
 62
    7
 10
-107.04746932999728
 20
122.13216198060125
 11
-17.092469329997357
 21
122.13216198060125
  0
TEXT
  8
_0-4_図面枠
 62
    7
 10
-59.868644587797235
 20
57.304258080201265
 40
6
 41
0.7999999999999992
 50
0
  1
規　格
  0
ARC
  8
_0-3_躯体と製品
  6
CONTINUOUS
 62
    7
 10
-19.110844329996326
 20
123.63141198060136
 40
0.49975
 50
180
 51
270
  0
ARC
  8
_0-3_躯体と製品
  6
CONTINUOUS
 62
    7
 10
-19.110844329996326
 20
123.63141198060136
 40
1.4992499999999991
 50
180
 51
270
  0
LINE
  8
_0-3_躯体と製品
  6
CONTINUOUS
 62
    7
 10
-20.61009432999731
 20
123.93126198060136
 11
-20.61009432999731
 21
123.63141198060136
  0
LINE
  8
_0-3_躯体と製品
  6
CONTINUOUS
 62
    7
 10
-19.610594329997184
 20
123.93126198060136
 11
-20.61009432999731
 21
123.93126198060136
  0
LINE
  8
_0-3_躯体と製品
  6
CONTINUOUS
 62
    7
 10
-19.610594329997184
 20
123.93126198060136
 11
-19.610594329997184
 21
123.63141198060136
  0
ARC
  8
_0-3_躯体と製品
  6
CONTINUOUS
 62
    7
 10
7.8950306700037345
 20
121.63241198060126
 40
4.9974999999999987
 50
256.95920500000551
 51
108.02159900000154
  0
LINE
  8
_0-3_躯体と製品
  6
CONTINUOUS
 62
    7
 10
7.0185316700026306
 20
126.55244798060136
 11
-12.094969329997184
 21
123.14739798060135
  0
LINE
  8
_0-3_躯体と製品
  6
CONTINUOUS
 62
    7
 10
7.1938306700028534
 20
125.56843998060135
 11
-12.094969329997184
 21
122.13216198060125
  0
LINE
  8
_0-3_躯体と製品
  6
CONTINUOUS
 62
    7
 10
-12.030396329997302
 20
122.14366498060136
 11
6.9929026700026498
 21
117.73752098060136
  0
LINE
  8
_0-3_躯体と製品
  6
CONTINUOUS
 62
    7
 10
6.7673706700027196
 20
116.76379898060135
 11
-12.094969329997184
 21
121.13266198060136
  0
LINE
  8
_0-3_躯体と製品
  6
CONTINUOUS
 62
    7
 10
-17.092469329997357
 20
123.13166198060135
 11
-19.110844329996326
 21
123.13166198060135
  0
LINE
  8
_0-3_躯体と製品
  6
CONTINUOUS
 62
    7
 10
-12.094969329997184
 20
123.93126198060136
 11
-12.094969329997184
 21
120.33306198060126
  0
LINE
  8
_0-3_躯体と製品
  6
CONTINUOUS
 62
    7
 10
-17.092469329997357
 20
123.93126198060136
 11
-12.094969329997184
 21
123.93126198060136
  0
LINE
  8
_0-3_躯体と製品
  6
CONTINUOUS
 62
    7
 10
-17.092469329997357
 20
120.33306198060126
 11
-17.092469329997357
 21
123.93126198060136
  0
LINE
  8
_0-3_躯体と製品
  6
CONTINUOUS
 62
    7
 10
-12.094969329997184
 20
120.33306198060126
 11
-17.092469329997357
 21
120.33306198060126
  0
ARC
  8
_0-3_躯体と製品
  6
CONTINUOUS
 62
    7
 10
7.8950306700037345
 20
121.63241198060126
 40
3.9980000000000002
 50
256.95920500000551
 51
110.01038099999663
  0
TEXT
  8
_0-4_図面枠
 62
    7
 10
124.23454991220297
 20
24.904238580201252
 40
6
 41
0.8000000000000012
 50
0
  1
本
  0
TEXT
  8
_0-4_図面枠
 62
    7
 10
101.2998394122028
 20
25.054201080201267
 40
6
 41
0.7999999999999988
 50
0
  1
２
  0
TEXT
  8
_0-4_図面枠
 62
    7
 10
41.869174912203562
 20
26.104226580201242
 40
6
 41
0.7999999999999997
 50
0
  1
３０００
  0
TEXT
  8
_0-4_図面枠
 62
    7
 10
93.38287638154361
 20
-45.262779990259844
 40
6
 41
0.8000000000000001
 50
0
  1
１２
  0
TEXT
  8
_0-4_図面枠
 62
    7
 10
94.044857822782888
 20
-98.765989890057767
 40
6
 41
0.8000000000000012
 50
0
  1
１２
  0
TEXT
  8
_0-4_図面枠
 62
    7
 10
94.044857822782888
 20
-80.766040890057752
 40
6
 41
0.8000000000000012
 50
0
  1
１６
  0
TEXT
  8
_0-4_図面枠
 62
    7
 10
94.044857822782888
 20
-62.766022890057627
 40
6
 41
0.8000000000000012
 50
0
  1
１２
  0
TEXT
  8
_0-4_図面枠
 62
    7
 10
41.869174912203562
 20
-27.895773419798729
 40
6
 41
0.7999999999999997
 50
0
  1
３１００
  0
TEXT
  8
_0-4_図面枠
 62
    7
 10
41.869174912203562
 20
-9.895773419798644
 40
6
 41
0.7999999999999997
 50
0
  1
３０００
  0
TEXT
  8
_0-4_図面枠
 62
    7
 10
41.869174912203562
 20
8.104226580201356
 40
6
 41
0.7999999999999997
 50
0
  1
３０００
  0
TEXT
  8
_0-4_図面枠
 62
    7
 10
101.2998394122028
 20
-10.945798919798733
 40
6
 41
0.7999999999999988
 50
0
  1
２
  0
TEXT
  8
_0-4_図面枠
 62
    7
 10
101.2998394122028
 20
-28.945764419798763
 40
6
 41
0.7999999999999988
 50
0
  1
１
  0
TEXT
  8
_0-4_図面枠
 62
    7
 10
101.2998394122028
 20
7.0542355802013503
 40
6
 41
0.7999999999999988
 50
0
  1
１
  0
TEXT
  8
_0-4_図面枠
 62
    7
 10
124.23454991220297
 20
-47.095795919798832
 40
6
 41
0.8000000000000012
 50
0
  1
本
  0
TEXT
  8
_0-4_図面枠
 62
    7
 10
124.23454991220297
 20
-101.09574491979885
 40
6
 41
0.8000000000000012
 50
0
  1
枚
  0
TEXT
  8
_0-4_図面枠
 62
    7
 10
124.23454991220297
 20
-83.09577941979876
 40
6
 41
0.8000000000000012
 50
0
  1
〃
  0
TEXT
  8
_0-4_図面枠
 62
    7
 10
124.23454991220297
 20
-65.095761419798748
 40
6
 41
0.8000000000000012
 50
0
  1
〃
  0
TEXT
  8
_0-4_図面枠
 62
    7
 10
124.23454991220297
 20
-11.095761419798635
 40
6
 41
0.8000000000000012
 50
0
  1
〃
  0
TEXT
  8
_0-4_図面枠
 62
    7
 10
124.23454991220297
 20
-29.095761419798635
 40
6
 41
0.8000000000000012
 50
0
  1
枚
  0
TEXT
  8
_0-4_図面枠
 62
    7
 10
124.23454991220297
 20
6.9042385802012518
 40
6
 41
0.8000000000000012
 50
0
  1
〃
  0
TEXT
  8
_0-4_図面枠
 62
    7
 10
41.135074255329528
 20
45.120530396436948
 40
6
 41
0.7999999999999997
 50
0
  1
（ｍｍ）
  0
TEXT
  8
_0-4_図面枠
 62
    7
 10
47.994187532229716
 20
58.838756950237865
 40
6
 41
0.7999999999999992
 50
0
  1
定　尺
  0
TEXT
  8
_0-4_図面枠
 62
    7
 10
93.950246487462664
 20
60.210579605617852
 40
6
 41
0.8000000000000001
 50
0
  1
使用
  0
TEXT
  8
_0-4_図面枠
 62
    7
 10
94.636157815152728
 20
45.120530396436948
 40
6
 41
0.8000000000000001
 50
0
  1
数量
  0
TEXT
  8
_0-4_図面枠
 62
    7
 10
128.93172419965595
 20
69.127426865588347
 40
6
 41
0.7999999999999997
 50
-90
  1
単位
  0
TEXT
  8
_0-4_図面枠
 62
    7
 10
-336.48597913244134
 20
493.34666104048256
 40
6
 41
0.7999999999999998
 50
0
  1
◇外壁－外壁（１５０ＳＳＨ－Ａ）　Ｓ＝１／３
  0
LINE
  8
_0-3_躯体と製品
  6
CONTINUOUS
 62
    3
 10
-220.80462616899717
 20
328.34330026549884
 11
-140.13271116899728
 21
328.34330026549884
  0
LINE
  8
_0-3_躯体と製品
  6
CONTINUOUS
 62
    3
 10
-220.80462616899717
 20
329.34330026549884
 11
-140.13271116899728
 21
329.34330026549884
  0
LINE
  8
_0-3_躯体と製品
  6
CONTINUOUS
 62
    3
 10
-214.50462616899722
 20
346.84330026549873
 11
-135.70462616899727
 21
346.84330026549873
  0
LINE
  8
_0-3_躯体と製品
  6
CONTINUOUS
 62
    3
 10
-230.30462616899717
 20
348.34330026549873
 11
-126.30462616899717
 21
348.34330026549873
  0
LINE
  8
_0-3_躯体と製品
  6
CONTINUOUS
 62
    3
 10
-168.30462616899717
 20
329.84330026549884
 11
-144.80462616899626
 21
329.84330026549884
  0
LINE
  8
_0-3_躯体と製品
  6
CONTINUOUS
 62
    3
 10
-195.50462616899722
 20
331.34330026549884
 11
-127.80462616899717
 21
331.34330026549884
  0
LINE
  8
_0-3_躯体と製品
  6
DASHED1
 62
    3
 10
-235.80462616899717
 20
228.34330026549895
 11
-140.80462616899717
 21
228.34330026549895
  0
LINE
  8
_0-3_躯体と製品
  6
CONTINUOUS
 62
    3
 10
-163.80462616899717
 20
340.34330026549884
 11
-67.054626168996265
 21
340.34330026549884
  0
LINE
  8
_0-3_躯体と製品
  6
CONTINUOUS
 62
    3
 10
-160.50462616899722
 20
341.94330026549886
 11
-65.804626168996265
 21
341.94330026549886
  0
LINE
  8
_0-3_躯体と製品
  6
CONTINUOUS
 62
    3
 10
-235.80462616899717
 20
328.34330026549884
 11
-140.80462616899717
 21
328.34330026549884
  0
TEXT
  8
_0-5_文字-記号
 62
    7
 10
-365.26106563763119
 20
367.28437730345826
 40
6
 41
0.8000000000000012
 50
0
  1
コーキング処理(別途工事)
  0
LINE
  8
_0-5_文字-記号
  6
CONTINUOUS
 62
    7
 10
-245.75946625609618
 20
365.31386326549887
 11
-362.16456937825728
 21
365.31386326549887
  0
LINE
  8
_0-3_躯体と製品
  6
CENTER
 62
    3
 10
-195.80462616899717
 20
341.49330026549893
 11
-195.80462616899717
 21
275.74234762359896
  0
LINE
  8
_0-5_文字-記号
  6
CONTINUOUS
 62
    3
 10
-199.62230666899632
 20
290.47600176549889
 11
-206.62712514609734
 21
278.34330026549895
  0
LINE
  8
_0-3_躯体と製品
  6
CONTINUOUS
 62
    3
 10
-193.68221116899736
 20
289.38578426549901
 11
-195.30462616899717
 21
320.34330026549884
  0
LINE
  8
_0-3_躯体と製品
  6
CONTINUOUS
 62
    3
 10
-190.29168016899735
 20
291.56621926549889
 11
-192.18426716899717
 21
289.46428826549896
  0
LINE
  8
_0-3_躯体と製品
  6
CONTINUOUS
 62
    3
 10
-197.92704116899722
 20
289.38578426549901
 11
-196.30462616899717
 21
320.34330026549884
  0
LINE
  8
_0-3_躯体と製品
  6
CONTINUOUS
 62
    3
 10
-201.31757216899723
 20
291.56621926549889
 11
-199.42498516899718
 21
289.46428826549896
  0
LINE
  8
_0-3_躯体と製品
  6
DASHED1
 62
    3
 10
-235.80462616899717
 20
328.34330026549884
 11
-235.80462616899717
 21
228.34330026549895
  0
CIRCLE
  8
_0-5_文字-記号
  6
CONTINUOUS
 62
    3
 10
-209.12712514609734
 20
274.01317324659902
 40
5
  0
TEXT
  8
_0-5_文字-記号
 62
    7
 10
-211.3758863274993
 20
270.12529860544629
 40
6
 41
0.800000000000019
 50
0
  1
5
  0
LINE
  8
_0-3_躯体と製品
  6
CONTINUOUS
 62
    3
 10
-192.18426716899717
 20
289.46428826549896
 11
-193.68221116899736
 21
289.38578426549901
  0
LINE
  8
_0-3_躯体と製品
  6
CONTINUOUS
 62
    3
 10
-199.42498516899718
 20
289.46428826549896
 11
-197.92704116899722
 21
289.38578426549901
  0
LINE
  8
_0-3_躯体と製品
  6
CENTER
 62
    3
 10
-214.80462616899717
 20
356.09330026549878
 11
-214.80462616899717
 21
333.34330026549884
  0
LINE
  8
_0-5_文字-記号
  6
CONTINUOUS
 62
    3
 10
-214.80462616899717
 20
353.84330026549878
 11
-206.43304726579731
 21
368.34330026549878
  0
LINE
  8
_0-5_文字-記号
  6
CONTINUOUS
 62
    3
 10
-187.80462616899717
 20
348.34330026549873
 11
-173.37086943929717
 21
373.34330026549878
  0
LINE
  8
_0-5_文字-記号
  6
CONTINUOUS
 62
    3
 10
-229.31348131419736
 20
336.82858176549888
 11
-245.75946625609618
 21
365.31386326549887
  0
LINE
  8
_0-5_文字-記号
  6
CONTINUOUS
 62
    3
 10
-195.80462616899717
 20
336.14330026549891
 11
-214.74171499849717
 21
303.34330026549884
  0
LINE
  8
_0-3_躯体と製品
  6
CONTINUOUS
 62
    3
 10
-205.80462616899717
 20
329.34330026549884
 11
-185.80462616899717
 21
329.34330026549884
  0
LINE
  8
_0-3_躯体と製品
  6
CONTINUOUS
 62
    3
 10
-196.10462616899736
 20
331.34330026549884
 11
-218.50462616899722
 21
331.34330026549884
  0
TEXT
  8
_0-5_文字-記号
 62
    7
 10
-219.48354787369726
 20
294.98879401378696
 40
6
 41
0.8000000000000001
 50
0
  1
6
  0
CIRCLE
  8
_0-5_文字-記号
  6
CONTINUOUS
 62
    3
 10
-217.24171499849717
 20
299.01317324659902
 40
5
  0
LINE
  8
_0-3_躯体と製品
  6
CONTINUOUS
 62
    3
 10
-229.80077416899735
 20
341.57507526549892
 11
-228.22638916899723
 21
343.14945926549893
  0
LINE
  8
_0-3_躯体と製品
  6
CONTINUOUS
 62
    3
 10
-229.35135516899732
 20
337.78185226549891
 11
-222.80462616899717
 21
344.32858126549888
  0
LINE
  8
_0-3_躯体と製品
  6
CONTINUOUS
 62
    3
 10
-230.30102716899728
 20
328.34330026549884
 11
-222.80462616899717
 21
335.83963826549888
  0
LINE
  8
_0-3_躯体と製品
  6
CONTINUOUS
 62
    3
 10
-229.41724816899728
 20
333.4733192654989
 11
-222.80462616899717
 21
340.08594126549889
  0
LINE
  8
_0-3_躯体と製品
  6
CONTINUOUS
 62
    3
 10
-222.80462616899717
 20
333.57122226549888
 11
-229.60601116899716
 21
340.37260726549886
  0
LINE
  8
_0-3_躯体と製品
  6
CONTINUOUS
 62
    3
 10
-226.06198516899735
 20
328.34330026549884
 11
-229.59697816899734
 21
331.87829326549894
  0
LINE
  8
_0-3_躯体と製品
  6
CONTINUOUS
 62
    3
 10
-222.80462616899717
 20
329.32858126549894
 11
-229.30576416899726
 21
335.82971926549891
  0
LINE
  8
_0-3_躯体と製品
  6
CONTINUOUS
 62
    3
 10
-228.55462616899717
 20
346.84330026549873
 11
-215.10462616899736
 21
346.84330026549873
  0
LINE
  8
_0-3_躯体と製品
  6
CONTINUOUS
 62
    3
 10
-215.10462616899736
 20
346.84330026549873
 11
-229.00462616899722
 21
346.84330026549873
  0
LINE
  8
_0-3_躯体と製品
  6
CONTINUOUS
 62
    3
 10
-228.10462616899736
 20
344.34330026549878
 11
-229.00462616899722
 21
344.34330026549878
  0
LINE
  8
_0-3_躯体と製品
  6
CONTINUOUS
 62
    3
 10
-230.30462616899717
 20
343.14330026549891
 11
-228.30462616899717
 21
343.14330026549891
  0
LINE
  8
_0-3_躯体と製品
  6
CONTINUOUS
 62
    3
 10
-228.55462616899717
 20
346.84330026549873
 11
-208.80462616899717
 21
346.84330026549873
  0
LINE
  8
_0-3_躯体と製品
  6
CONTINUOUS
 62
    3
 10
-228.55462616899717
 20
345.34330026549873
 11
-221.30462616899717
 21
345.34330026549873
  0
ARC
  8
_0-3_躯体と製品
  6
CONTINUOUS
 62
    3
 10
-259.83587616899717
 20
336.09330026549884
 40
30.53125
 50
345.29524100000032
 51
13.350709000000929
  0
ARC
  8
_0-3_躯体と製品
  6
CONTINUOUS
 62
    3
 10
-230.30462616899717
 20
347.84330026549878
 40
0.5
 50
90
 51
180
  0
LINE
  8
_0-3_躯体と製品
  6
CONTINUOUS
 62
    3
 10
-229.30462616899717
 20
344.64330026549885
 11
-229.30462616899717
 21
346.54330026549883
  0
ARC
  8
_0-3_躯体と製品
  6
CONTINUOUS
 62
    3
 10
-229.00462616899722
 20
344.64330026549885
 40
0.2999999999999998
 50
180
 51
270
  0
LINE
  8
_0-3_躯体と製品
  6
CONTINUOUS
 62
    3
 10
-230.80462616899717
 20
347.84330026549878
 11
-230.80462616899717
 21
343.64330026549891
  0
ARC
  8
_0-3_躯体と製品
  6
CONTINUOUS
 62
    3
 10
-230.30462616899717
 20
343.64330026549891
 40
0.5
 50
180
 51
270
  0
ARC
  8
_0-3_躯体と製品
  6
CONTINUOUS
 62
    3
 10
-229.00462616899722
 20
346.54330026549883
 40
0.2999999999999998
 50
90
 51
180
  0
ARC
  8
_0-3_躯体と製品
  6
CONTINUOUS
 62
    3
 10
-228.55462616899717
 20
346.09330026549873
 40
0.75
 50
90
 51
270
  0
LINE
  8
_0-3_躯体と製品
  6
CONTINUOUS
 62
    3
 10
-222.80462616899717
 20
345.34330026549873
 11
-220.80462616899717
 21
328.34330026549884
  0
LINE
  8
_0-3_躯体と製品
  6
CONTINUOUS
 62
    3
 10
-222.80462616899717
 20
345.34330026549873
 11
-222.80462616899717
 21
328.34330026549884
  0
LINE
  8
_0-3_躯体と製品
  6
CONTINUOUS
 62
    3
 10
-222.80462616899717
 20
337.81386326549892
 11
-228.15650616899734
 21
343.16574326549886
  0
ARC
  8
_0-3_躯体と製品
  6
CONTINUOUS
 62
    3
 10
-208.77221416899715
 20
336.31778426549891
 40
6.0552590000000013
 50
137.053799999999
 51
175.02122199999897
  0
LINE
  8
_0-3_躯体と製品
  6
CONTINUOUS
 62
    3
 10
-213.20462616899727
 20
340.98911226549893
 11
-213.20462616899727
 21
335.76706026549886
  0
LINE
  8
_0-3_躯体と製品
  6
CONTINUOUS
 62
    3
 10
-216.40462616899731
 20
341.92985326549893
 11
-216.40462616899731
 21
335.76706026549886
  0
LINE
  8
_0-3_躯体と製品
  6
CONTINUOUS
 62
    3
 10
-219.00462616899722
 20
344.34330026549878
 11
-219.00462616899722
 21
331.84330026549884
  0
LINE
  8
_0-3_躯体と製品
  6
CONTINUOUS
 62
    3
 10
-220.80462616899717
 20
344.84330026549878
 11
-220.80462616899717
 21
329.34330026549884
  0
LINE
  8
_0-3_躯体と製品
  6
CONTINUOUS
 62
    3
 10
-219.30462616899717
 20
329.84330026549884
 11
-205.80462616899717
 21
329.84330026549884
  0
LINE
  8
_0-3_躯体と製品
  6
CONTINUOUS
 62
    3
 10
-220.80462616899717
 20
329.34330026549884
 11
-220.80462616899717
 21
328.34330026549884
  0
LINE
  8
_0-3_躯体と製品
  6
CONTINUOUS
 62
    3
 10
-226.06198516899735
 20
328.34330026549884
 11
-222.80462616899717
 21
331.6006592654989
  0
LINE
  8
_0-3_躯体と製品
  6
CONTINUOUS
 62
    3
 10
-219.30462616899717
 20
329.84330026549884
 11
-219.30462616899717
 21
329.34330026549884
  0
LINE
  8
_0-3_躯体と製品
  6
CONTINUOUS
 62
    3
 10
-220.80462616899717
 20
329.34330026549884
 11
-219.30462616899717
 21
329.34330026549884
  0
ARC
  8
_0-3_躯体と製品
  6
CONTINUOUS
 62
    3
 10
-218.50462616899722
 20
331.84330026549884
 40
0.5
 50
180
 51
270
  0
ARC
  8
_0-3_躯体と製品
  6
CONTINUOUS
 62
    3
 10
-214.77956816899723
 20
335.07863026549893
 40
1.7648479999999993
 50
90.813543000003293
 51
157.04087499999963
  0
LINE
  8
_0-3_躯体と製品
  6
CONTINUOUS
 62
    3
 10
-214.80462616899717
 20
334.84330026549884
 11
-213.20462616899727
 21
335.76706026549886
  0
LINE
  8
_0-3_躯体と製品
  6
CONTINUOUS
 62
    3
 10
-214.80462616899717
 20
334.84330026549884
 11
-216.40462516899629
 21
335.76706026549886
  0
LINE
  8
_0-3_躯体と製品
  6
CONTINUOUS
 62
    3
 10
-214.80462616899717
 20
336.87954126549886
 11
-214.80462616899717
 21
334.84330026549884
  0
LINE
  8
_0-3_躯体と製品
  6
CONTINUOUS
 62
    3
 10
-205.80462616899717
 20
329.84330026549884
 11
-205.80462616899717
 21
329.34330026549884
  0
LINE
  8
_0-3_躯体と製品
  6
CONTINUOUS
 62
    3
 10
-216.53934116899723
 20
348.34330026549873
 11
-217.13795916899721
 21
347.99768826549882
  0
LINE
  8
_0-3_躯体と製品
  6
CONTINUOUS
 62
    3
 10
-217.13795916899721
 20
347.99768826549882
 11
-216.40462616899731
 21
347.57429726549879
  0
LINE
  8
_0-3_躯体と製品
  6
CONTINUOUS
 62
    3
 10
-215.42350416899717
 20
348.34330026549873
 11
-217.13795916899721
 21
347.99768826549882
  0
LINE
  8
_0-3_躯体と製品
  6
CONTINUOUS
 62
    3
 10
-217.13795916899721
 20
346.11620626549887
 11
-216.40462616899731
 21
346.53959626549886
  0
LINE
  8
_0-3_躯体と製品
  6
CONTINUOUS
 62
    3
 10
-217.13795916899721
 20
346.11620626549887
 11
-216.40462616899731
 21
345.69281626549889
  0
LINE
  8
_0-3_躯体と製品
  6
CONTINUOUS
 62
    3
 10
-217.13795916899721
 20
346.11620626549887
 11
-212.47129316899736
 21
347.05694726549888
  0
LINE
  8
_0-3_躯体と製品
  6
CONTINUOUS
 62
    3
 10
-217.13795916899721
 20
344.23472526549887
 11
-214.11904186889728
 21
344.84330026549878
  0
LINE
  8
_0-3_躯体と製品
  6
CONTINUOUS
 62
    3
 10
-217.13795916899721
 20
342.35324326549886
 11
-216.40462616899731
 21
342.7766332654989
  0
LINE
  8
_0-3_躯体と製品
  6
CONTINUOUS
 62
    3
 10
-217.13795916899721
 20
342.35324326549886
 11
-216.40462616899731
 21
341.92985326549893
  0
LINE
  8
_0-3_躯体と製品
  6
CONTINUOUS
 62
    3
 10
-217.13795916899721
 20
342.35324326549886
 11
-212.47129316899736
 21
343.29398426549886
  0
LINE
  8
_0-3_躯体と製品
  6
CONTINUOUS
 62
    3
 10
-219.10290616899715
 20
350.84330826549888
 11
-210.50654316899727
 21
350.84344626549887
  0
LINE
  8
_0-3_躯体と製品
  6
CONTINUOUS
 62
    3
 10
-217.13795916899721
 20
344.23472526549887
 11
-216.40462616899731
 21
344.65811526549885
  0
LINE
  8
_0-3_躯体と製品
  6
CONTINUOUS
 62
    3
 10
-217.13795916899721
 20
344.23472526549887
 11
-216.40462616899731
 21
343.81133426549889
  0
LINE
  8
_0-3_躯体と製品
  6
CONTINUOUS
 62
    3
 10
-220.80462616899717
 20
349.34330026549878
 11
-208.80462616899717
 21
349.34330026549878
  0
LINE
  8
_0-3_躯体と製品
  6
CONTINUOUS
 62
    3
 10
-220.80462616899717
 20
350.09330026549878
 11
-208.80462616899717
 21
350.09330026549878
  0
ARC
  8
_0-3_躯体と製品
  6
CONTINUOUS
 62
    3
 10
-214.80462616899717
 20
347.75996726549886
 40
6.0833329999999988
 50
53.83135800000148
 51
126.16864199999851
  0
LINE
  8
_0-3_躯体と製品
  6
CONTINUOUS
 62
    3
 10
-209.80462616899717
 20
344.84330026549878
 11
-218.50462616899722
 21
344.84330026549878
  0
LINE
  8
_0-3_躯体と製品
  6
CONTINUOUS
 62
    3
 10
-227.81078516899629
 20
343.56506326549885
 11
-226.0325481689963
 21
345.34330026549873
  0
LINE
  8
_0-3_躯体と製品
  6
CONTINUOUS
 62
    3
 10
-222.80462616899717
 20
342.05650326549886
 11
-226.09142316899715
 21
345.34330026549873
  0
LINE
  8
_0-3_躯体と製品
  6
CONTINUOUS
 62
    3
 10
-218.80462616899717
 20
351.86365726549889
 11
-218.80462616899717
 21
350.84330026549878
  0
LINE
  8
_0-3_躯体と製品
  6
CONTINUOUS
 62
    3
 10
-219.80462616899717
 20
349.34330026549878
 11
-219.80462616899717
 21
348.34330026549873
  0
LINE
  8
_0-3_躯体と製品
  6
CONTINUOUS
 62
    3
 10
-220.80462616899717
 20
350.09330026549878
 11
-220.25005916899727
 21
350.48161226549882
  0
ARC
  8
_0-3_躯体と製品
  6
CONTINUOUS
 62
    3
 10
-219.10290616899715
 20
348.84330826549888
 40
2
 50
90
 51
124.99999999999731
  0
LINE
  8
_0-3_躯体と製品
  6
CONTINUOUS
 62
    3
 10
-220.80462616899717
 20
350.09330026549878
 11
-220.80462616899717
 21
349.34330026549878
  0
ARC
  8
_0-3_躯体と製品
  6
CONTINUOUS
 62
    3
 10
-217.80462616899717
 20
351.86365726549889
 40
1
 50
126.16864199999851
 51
180
  0
ARC
  8
_0-3_躯体と製品
  6
CONTINUOUS
 62
    3
 10
-228.10462616899736
 20
344.04330026549883
 40
0.2999999999999998
 50
0
 51
90
  0
LINE
  8
_0-3_躯体と製品
  6
CONTINUOUS
 62
    3
 10
-227.80462616899717
 20
343.64330026549891
 11
-227.80462616899717
 21
344.04330026549883
  0
ARC
  8
_0-3_躯体と製品
  6
CONTINUOUS
 62
    3
 10
-228.30462616899717
 20
343.64330026549891
 40
0.5
 50
270
 51
0
  0
ARC
  8
_0-3_躯体と製品
  6
CONTINUOUS
 62
    3
 10
-218.50462616899722
 20
344.34330026549878
 40
0.5
 50
90
 51
180
  0
ARC
  8
_0-3_躯体と製品
  6
CONTINUOUS
 62
    3
 10
-221.30462616899717
 20
344.84330026549878
 40
0.5
 50
0
 51
90
  0
LINE
  8
_0-3_躯体と製品
  6
CONTINUOUS
 62
    3
 10
-212.47129316899736
 20
345.17546526549887
 11
-213.04661983229721
 21
344.84330026549878
  0
LINE
  8
_0-3_躯体と製品
  6
CONTINUOUS
 62
    3
 10
-214.11904186889728
 20
344.84330026549878
 11
-212.47129316899736
 21
345.17546526549887
  0
LINE
  8
_0-3_躯体と製品
  6
CONTINUOUS
 62
    3
 10
-215.77470571269737
 20
344.84330026549878
 11
-213.20462616899727
 21
345.59885626549885
  0
LINE
  8
_0-3_躯体と製品
  6
CONTINUOUS
 62
    3
 10
-216.40462616899731
 20
345.69281626549889
 11
-216.40462616899731
 21
344.84330026549878
  0
LINE
  8
_0-3_躯体と製品
  6
CONTINUOUS
 62
    3
 10
-213.78880616899733
 20
348.34330026549873
 11
-216.40462616899731
 21
347.57429726549879
  0
LINE
  8
_0-3_躯体と製品
  6
CONTINUOUS
 62
    3
 10
-213.20462616899727
 20
347.48033726549886
 11
-212.47129316899736
 21
347.05694726549888
  0
LINE
  8
_0-3_躯体と製品
  6
CONTINUOUS
 62
    3
 10
-212.47129316899736
 20
347.05694726549888
 11
-213.20462616899727
 21
346.63355726549878
  0
LINE
  8
_0-3_躯体と製品
  6
CONTINUOUS
 62
    3
 10
-216.40462616899731
 20
346.53959626549886
 11
-213.20462616899727
 21
347.48033726549886
  0
LINE
  8
_0-3_躯体と製品
  6
CONTINUOUS
 62
    3
 10
-216.40462616899731
 20
345.69281626549889
 11
-213.20462616899727
 21
346.63355726549878
  0
LINE
  8
_0-3_躯体と製品
  6
CONTINUOUS
 62
    3
 10
-213.20462616899727
 20
348.34330026549873
 11
-213.20462616899727
 21
347.48033726549886
  0
LINE
  8
_0-3_躯体と製品
  6
CONTINUOUS
 62
    3
 10
-216.40462616899731
 20
347.57429726549879
 11
-216.40462616899731
 21
346.53959626549886
  0
LINE
  8
_0-3_躯体と製品
  6
CONTINUOUS
 62
    3
 10
-213.20462616899727
 20
345.59885626549885
 11
-212.47129316899736
 21
345.17546526549887
  0
LINE
  8
_0-3_躯体と製品
  6
CONTINUOUS
 62
    3
 10
-213.20462616899727
 20
345.59885626549885
 11
-213.20462616899727
 21
346.63355726549878
  0
LINE
  8
_0-3_躯体と製品
  6
CONTINUOUS
 62
    3
 10
-213.04661983229721
 20
344.84330026549878
 11
-213.20462616899727
 21
344.75207526549889
  0
LINE
  8
_0-3_躯体と製品
  6
CONTINUOUS
 62
    3
 10
-216.40462616899731
 20
344.65811526549885
 11
-215.77470571269737
 21
344.84330026549878
  0
LINE
  8
_0-3_躯体と製品
  6
CONTINUOUS
 62
    3
 10
-216.40462616899731
 20
344.84330026549878
 11
-216.40462616899731
 21
344.65811526549885
  0
LINE
  8
_0-3_躯体と製品
  6
CONTINUOUS
 62
    3
 10
-208.80462616899717
 20
350.09330026549878
 11
-209.35939016899715
 21
350.48175026549887
  0
LINE
  8
_0-3_躯体と製品
  6
CONTINUOUS
 62
    3
 10
-213.20462616899727
 20
341.8358932654989
 11
-212.47129316899736
 21
341.41250226549886
  0
LINE
  8
_0-3_躯体と製品
  6
CONTINUOUS
 62
    3
 10
-212.47129316899736
 20
341.41250226549886
 11
-213.20462616899727
 21
340.98911226549893
  0
LINE
  8
_0-3_躯体と製品
  6
CONTINUOUS
 62
    3
 10
-214.80462616899717
 20
340.94213226549886
 11
-212.47129316899736
 21
341.41250226549886
  0
LINE
  8
_0-3_躯体と製品
  6
CONTINUOUS
 62
    3
 10
-213.20462616899727
 20
343.71737426549885
 11
-212.47129316899736
 21
343.29398426549886
  0
LINE
  8
_0-3_躯体と製品
  6
CONTINUOUS
 62
    3
 10
-212.47129316899736
 20
343.29398426549886
 11
-213.20462616899727
 21
342.87059426549894
  0
LINE
  8
_0-3_躯体と製品
  6
CONTINUOUS
 62
    3
 10
-216.40462616899731
 20
342.7766332654989
 11
-213.20462616899727
 21
343.71737426549885
  0
LINE
  8
_0-3_躯体と製品
  6
CONTINUOUS
 62
    3
 10
-216.40462616899731
 20
341.92985326549893
 11
-213.20462616899727
 21
342.87059426549894
  0
LINE
  8
_0-3_躯体と製品
  6
CONTINUOUS
 62
    3
 10
-213.20462616899727
 20
340.44330026549886
 11
-216.40461116899723
 21
340.44330026549886
  0
LINE
  8
_0-3_躯体と製品
  6
CONTINUOUS
 62
    3
 10
-210.80462616899717
 20
351.86365726549889
 11
-210.80462616899717
 21
350.84330026549878
  0
ARC
  8
_0-3_躯体と製品
  6
CONTINUOUS
 62
    3
 10
-210.50654316899727
 20
348.84344626549887
 40
2
 50
55.000000000002629
 51
90
  0
LINE
  8
_0-3_躯体と製品
  6
CONTINUOUS
 62
    3
 10
-216.40462616899731
 20
343.81133426549889
 11
-213.20462616899727
 21
344.75207526549889
  0
LINE
  8
_0-3_躯体と製品
  6
CONTINUOUS
 62
    3
 10
-213.20462616899727
 20
342.87059426549894
 11
-213.20462616899727
 21
341.8358932654989
  0
LINE
  8
_0-3_躯体と製品
  6
CONTINUOUS
 62
    3
 10
-213.20462616899727
 20
344.75207526549889
 11
-213.20462616899727
 21
343.71737426549885
  0
LINE
  8
_0-3_躯体と製品
  6
CONTINUOUS
 62
    3
 10
-216.40462616899731
 20
343.81133426549889
 11
-216.40462616899731
 21
342.7766332654989
  0
LINE
  8
_0-3_躯体と製品
  6
CONTINUOUS
 62
    3
 10
-214.80462616899717
 20
340.94213226549886
 11
-213.20462616899727
 21
341.8358932654989
  0
LINE
  8
_0-3_躯体と製品
  6
CONTINUOUS
 62
    3
 10
-214.80462616899717
 20
340.94213226549886
 11
-213.20462616899727
 21
340.98911226549893
  0
LINE
  8
_0-3_躯体と製品
  6
CONTINUOUS
 62
    3
 10
-209.80462616899717
 20
349.34330026549878
 11
-209.80462616899717
 21
348.34330026549873
  0
LINE
  8
_0-3_躯体と製品
  6
CONTINUOUS
 62
    3
 10
-208.80462616899717
 20
350.09330026549878
 11
-208.80462616899717
 21
349.34330026549878
  0
ARC
  8
_0-3_躯体と製品
  6
CONTINUOUS
 62
    3
 10
-211.80462616899717
 20
351.86365726549889
 40
1
 50
0
 51
53.83135800000148
  0
LINE
  8
_0-3_躯体と製品
  6
CONTINUOUS
 62
    3
 10
-214.80462616899717
 20
347.14330026549885
 11
-214.50462616899722
 21
346.84330026549873
  0
LINE
  8
_0-3_躯体と製品
  6
CONTINUOUS
 62
    3
 10
-214.80462616899717
 20
347.14330026549885
 11
-215.10462616899736
 21
346.84330026549873
  0
LINE
  8
_0-3_躯体と製品
  6
CONTINUOUS
 62
    3
 10
-208.80462616899717
 20
346.84330026549873
 11
-208.80462616899717
 21
345.84330026549878
  0
ARC
  8
_0-3_躯体と製品
  6
CONTINUOUS
 62
    3
 10
-209.80462616899717
 20
345.84330026549878
 40
1
 50
270
 51
0
  0
LINE
  8
_0-3_躯体と製品
  6
CONTINUOUS
 62
    3
 10
-186.80462616899717
 20
332.09330026549884
 11
-175.97930862169733
 21
313.34330026549884
  0
LINE
  8
_0-3_躯体と製品
  6
CONTINUOUS
 62
    3
 10
-191.80462616899717
 20
328.34330026549884
 11
-191.80462616899717
 21
320.34330026549884
  0
LINE
  8
_0-3_躯体と製品
  6
CONTINUOUS
 62
    3
 10
-199.80462616899717
 20
328.34330026549884
 11
-199.80462616899717
 21
320.34330026549884
  0
LINE
  8
_0-3_躯体と製品
  6
CONTINUOUS
 62
    3
 10
-191.07671916899722
 20
306.54566226549895
 11
-193.02164216899723
 21
305.44236126549885
  0
LINE
  8
_0-3_躯体と製品
  6
CONTINUOUS
 62
    3
 10
-200.53253316899736
 20
306.54566226549895
 11
-198.58761016899734
 21
305.44236126549885
  0
LINE
  8
_0-3_躯体と製品
  6
CONTINUOUS
 62
    3
 10
-193.78688316899729
 20
291.38304426549888
 11
-190.29168016899735
 21
291.56621926549889
  0
LINE
  8
_0-3_躯体と製品
  6
CONTINUOUS
 62
    3
 10
-193.93518216899724
 20
294.21274426549888
 11
-195.80462616899717
 21
292.34330026549895
  0
LINE
  8
_0-3_躯体と製品
  6
CONTINUOUS
 62
    3
 10
-201.21290016899729
 20
293.56347826549887
 11
-201.31757216899723
 21
291.56621926549889
  0
LINE
  8
_0-3_躯体と製品
  6
CONTINUOUS
 62
    3
 10
-199.21564116899731
 20
293.45880726549893
 11
-201.21290016899729
 21
293.56347826549887
  0
LINE
  8
_0-3_躯体と製品
  6
CONTINUOUS
 62
    3
 10
-199.11096916899714
 20
295.45606626549892
 11
-199.21564116899731
 21
293.45880726549893
  0
LINE
  8
_0-3_躯体と製品
  6
CONTINUOUS
 62
    3
 10
-201.05589216899716
 20
296.55936726549902
 11
-199.11096916899714
 21
295.45606626549892
  0
LINE
  8
_0-3_躯体と製品
  6
CONTINUOUS
 62
    3
 10
-200.95122016899722
 20
298.55662626549889
 11
-201.05589216899716
 21
296.55936726549902
  0
LINE
  8
_0-3_躯体と製品
  6
CONTINUOUS
 62
    3
 10
-198.95396116899724
 20
298.45195426549896
 11
-200.95122016899722
 21
298.55662626549889
  0
LINE
  8
_0-3_躯体と製品
  6
CONTINUOUS
 62
    3
 10
-198.8492891689973
 20
300.44921326549894
 11
-198.95396116899724
 21
298.45195426549896
  0
LINE
  8
_0-3_躯体と製品
  6
CONTINUOUS
 62
    3
 10
-200.7942131689972
 20
301.55251526549893
 11
-198.8492891689973
 21
300.44921326549894
  0
LINE
  8
_0-3_躯体と製品
  6
CONTINUOUS
 62
    3
 10
-200.68954116899636
 20
303.54977426549891
 11
-200.7942131689972
 21
301.55251526549893
  0
LINE
  8
_0-3_躯体と製品
  6
CONTINUOUS
 62
    3
 10
-198.69228216899728
 20
303.44510226549886
 11
-200.68954116899636
 21
303.54977426549891
  0
LINE
  8
_0-3_躯体と製品
  6
CONTINUOUS
 62
    3
 10
-198.58761016899734
 20
305.44236126549885
 11
-198.69228216899728
 21
303.44510226549886
  0
LINE
  8
_0-3_躯体と製品
  6
CONTINUOUS
 62
    3
 10
-197.67407016899733
 20
294.21274426549888
 11
-195.80462616899717
 21
292.34330026549895
  0
LINE
  8
_0-3_躯体と製品
  6
CONTINUOUS
 62
    3
 10
-197.82236916899728
 20
291.38304426549888
 11
-201.31757216899723
 21
291.56621926549889
  0
LINE
  8
_0-3_躯体と製品
  6
CONTINUOUS
 62
    3
 10
-190.39635216899728
 20
293.56347826549887
 11
-190.29168016899735
 21
291.56621926549889
  0
LINE
  8
_0-3_躯体と製品
  6
CONTINUOUS
 62
    3
 10
-192.39361116899727
 20
293.45880726549893
 11
-190.39635216899728
 21
293.56347826549887
  0
LINE
  8
_0-3_躯体と製品
  6
CONTINUOUS
 62
    3
 10
-192.4982831689972
 20
295.45606626549892
 11
-192.39361116899727
 21
293.45880726549893
  0
LINE
  8
_0-3_躯体と製品
  6
CONTINUOUS
 62
    3
 10
-190.55336016899628
 20
296.55936726549902
 11
-192.4982831689972
 21
295.45606626549892
  0
LINE
  8
_0-3_躯体と製品
  6
CONTINUOUS
 62
    3
 10
-190.65803216899735
 20
298.55662626549889
 11
-190.55336016899628
 21
296.55936726549902
  0
LINE
  8
_0-3_躯体と製品
  6
CONTINUOUS
 62
    3
 10
-192.65529116899734
 20
298.45195426549896
 11
-190.65803216899735
 21
298.55662626549889
  0
LINE
  8
_0-3_躯体と製品
  6
CONTINUOUS
 62
    3
 10
-192.75996316899727
 20
300.44921326549894
 11
-192.65529116899734
 21
298.45195426549896
  0
LINE
  8
_0-3_躯体と製品
  6
CONTINUOUS
 62
    3
 10
-190.81503916899715
 20
301.55251526549893
 11
-192.75996316899727
 21
300.44921326549894
  0
LINE
  8
_0-3_躯体と製品
  6
CONTINUOUS
 62
    3
 10
-190.91971116899731
 20
303.54977426549891
 11
-190.81503916899715
 21
301.55251526549893
  0
LINE
  8
_0-3_躯体と製品
  6
CONTINUOUS
 62
    3
 10
-192.9169701689973
 20
303.44510226549886
 11
-190.91971116899731
 21
303.54977426549891
  0
LINE
  8
_0-3_躯体と製品
  6
CONTINUOUS
 62
    3
 10
-193.02164216899723
 20
305.44236126549885
 11
-192.9169701689973
 21
303.44510226549886
  0
LINE
  8
_0-3_躯体と製品
  6
CONTINUOUS
 62
    3
 10
-195.30462616899717
 20
320.34330026549884
 11
-195.80462616899717
 21
320.34330026549884
  0
LINE
  8
_0-3_躯体と製品
  6
CONTINUOUS
 62
    3
 10
-196.30462616899717
 20
320.34330026549884
 11
-195.80462616899717
 21
320.34330026549884
  0
LINE
  8
_0-3_躯体と製品
  6
CONTINUOUS
 62
    3
 10
-200.4278611689972
 20
308.54292126549893
 11
-200.53253316899736
 21
306.54566226549895
  0
LINE
  8
_0-3_躯体と製品
  6
CONTINUOUS
 62
    3
 10
-198.4306021689963
 20
308.43825026549888
 11
-200.4278611689972
 21
308.54292126549893
  0
LINE
  8
_0-3_躯体と製品
  6
CONTINUOUS
 62
    3
 10
-198.32593016899727
 20
310.43550926549887
 11
-198.4306021689963
 21
308.43825026549888
  0
LINE
  8
_0-3_躯体と製品
  6
CONTINUOUS
 62
    3
 10
-200.27085316899729
 20
311.53881026549885
 11
-198.32593016899727
 21
310.43550926549887
  0
LINE
  8
_0-3_躯体と製品
  6
CONTINUOUS
 62
    3
 10
-200.16618116899735
 20
313.53606926549884
 11
-200.27085316899729
 21
311.53881026549885
  0
LINE
  8
_0-3_躯体と製品
  6
CONTINUOUS
 62
    3
 10
-198.16892216899737
 20
313.4313972654989
 11
-200.16618116899735
 21
313.53606926549884
  0
LINE
  8
_0-3_躯体と製品
  6
CONTINUOUS
 62
    3
 10
-198.06425016899721
 20
315.42865626549889
 11
-198.16892216899737
 21
313.4313972654989
  0
LINE
  8
_0-3_躯体と製品
  6
CONTINUOUS
 62
    3
 10
-199.80462616899717
 20
316.34330026549884
 11
-198.06425016899721
 21
315.42865626549889
  0
LINE
  8
_0-3_躯体と製品
  6
CONTINUOUS
 62
    3
 10
-200.4278611689972
 20
308.54292126549893
 11
-202.12322716899735
 21
313.20090126549889
  0
LINE
  8
_0-3_躯体と製品
  6
CONTINUOUS
 62
    3
 10
-199.36368316899734
 20
308.54292126549893
 11
-201.18353416899731
 21
313.54292126549893
  0
LINE
  8
_0-3_躯体と製品
  6
CONTINUOUS
 62
    3
 10
-199.80462616899717
 20
316.34330026549884
 11
-199.80462616899717
 21
320.34330026549884
  0
LINE
  8
_0-3_躯体と製品
  6
CONTINUOUS
 62
    3
 10
-202.12696616899734
 20
320.14694226549892
 11
-201.18353416899731
 21
313.54292126549893
  0
ARC
  8
_0-3_躯体と製品
  6
CONTINUOUS
 62
    3
 10
-202.52294516899724
 20
320.09037326549884
 40
0.4
 50
8.1301019999918065
 51
98.130102000011163
  0
LINE
  8
_0-3_躯体と製品
  6
CONTINUOUS
 62
    3
 10
-202.77633916899731
 20
320.4582352654989
 11
-202.57951416899732
 21
320.48635326549885
  0
ARC
  8
_0-3_躯体と製品
  6
CONTINUOUS
 62
    3
 10
-202.71977016899723
 20
320.06225526549889
 40
0.4
 50
98.130102000011163
 51
188.29846599999979
  0
LINE
  8
_0-3_躯体と製品
  6
CONTINUOUS
 62
    3
 10
-202.12322716899735
 20
313.20090126549889
 11
-203.11558216899721
 21
320.0045232654989
  0
LINE
  8
_0-3_躯体と製品
  6
CONTINUOUS
 62
    3
 10
-191.18139116899715
 20
308.54292126549893
 11
-191.07671916899722
 21
306.54566226549895
  0
LINE
  8
_0-3_躯体と製品
  6
CONTINUOUS
 62
    3
 10
-193.17865016899736
 20
308.43825026549888
 11
-191.18139116899715
 21
308.54292126549893
  0
LINE
  8
_0-3_躯体と製品
  6
CONTINUOUS
 62
    3
 10
-193.28332216899616
 20
310.43550926549887
 11
-193.17865016899736
 21
308.43825026549888
  0
LINE
  8
_0-3_躯体と製品
  6
CONTINUOUS
 62
    3
 10
-191.33839916899728
 20
311.53881026549885
 11
-193.28332216899616
 21
310.43550926549887
  0
LINE
  8
_0-3_躯体と製品
  6
CONTINUOUS
 62
    3
 10
-191.44307116899722
 20
313.53606926549884
 11
-191.33839916899728
 21
311.53881026549885
  0
LINE
  8
_0-3_躯体と製品
  6
CONTINUOUS
 62
    3
 10
-193.44033016899721
 20
313.4313972654989
 11
-191.44307116899722
 21
313.53606926549884
  0
LINE
  8
_0-3_躯体と製品
  6
CONTINUOUS
 62
    3
 10
-193.54500216899714
 20
315.42865626549889
 11
-193.44033016899721
 21
313.4313972654989
  0
LINE
  8
_0-3_躯体と製品
  6
CONTINUOUS
 62
    3
 10
-191.80462616899717
 20
316.34330026549884
 11
-193.54500216899714
 21
315.42865626549889
  0
LINE
  8
_0-3_躯体と製品
  6
CONTINUOUS
 62
    3
 10
-191.18139116899715
 20
308.54292126549893
 11
-189.48602516899723
 21
313.20090126549889
  0
LINE
  8
_0-3_躯体と製品
  6
CONTINUOUS
 62
    3
 10
-192.24556916899724
 20
308.54292126549893
 11
-190.42571816899726
 21
313.54292126549893
  0
LINE
  8
_0-3_躯体と製品
  6
CONTINUOUS
 62
    3
 10
-191.80462616899717
 20
316.34330026549884
 11
-191.80462616899717
 21
320.34330026549884
  0
LINE
  8
_0-3_躯体と製品
  6
CONTINUOUS
 62
    3
 10
-189.48228616899723
 20
320.14694226549892
 11
-190.42571816899726
 21
313.54292126549893
  0
ARC
  8
_0-3_躯体と製品
  6
CONTINUOUS
 62
    3
 10
-189.08630616899723
 20
320.09037326549884
 40
0.4
 50
81.869898000015098
 51
171.86989799999853
  0
LINE
  8
_0-3_躯体と製品
  6
CONTINUOUS
 62
    3
 10
-188.83291316899727
 20
320.4582352654989
 11
-189.02973816899726
 21
320.48635326549885
  0
ARC
  8
_0-3_躯体と製品
  6
CONTINUOUS
 62
    3
 10
-188.88948216899735
 20
320.06225526549889
 40
0.4
 50
351.7015339999968
 51
81.869898000015112
  0
LINE
  8
_0-3_躯体と製品
  6
CONTINUOUS
 62
    3
 10
-189.48602516899723
 20
313.20090126549889
 11
-188.49367016899737
 21
320.0045232654989
  0
LINE
  8
_0-3_躯体と製品
  6
CONTINUOUS
 62
    3
 10
-189.48228616899723
 20
320.14694226549892
 11
-190.42571816899726
 21
313.54292126549893
  0
ARC
  8
_0-3_躯体と製品
  6
CONTINUOUS
 62
    3
 10
-189.08630616899723
 20
320.09037326549884
 40
0.4
 50
81.869898000015098
 51
171.86989799999853
  0
LINE
  8
_0-3_躯体と製品
  6
CONTINUOUS
 62
    3
 10
-188.83291316899727
 20
320.4582352654989
 11
-189.02973816899726
 21
320.48635326549885
  0
ARC
  8
_0-3_躯体と製品
  6
CONTINUOUS
 62
    3
 10
-188.88948216899735
 20
320.06225526549889
 40
0.4
 50
351.7015339999968
 51
81.869898000015112
  0
LINE
  8
_0-3_躯体と製品
  6
CONTINUOUS
 62
    3
 10
-189.48602516899723
 20
313.20090126549889
 11
-188.49367016899737
 21
320.0045232654989
  0
TEXT
  8
_0-5_文字-記号
 62
    7
 10
-175.31938961990818
 20
305.62149505666417
 40
6
 41
0.7999999999999952
 50
0
  1
8
  0
CIRCLE
  8
_0-5_文字-記号
  6
CONTINUOUS
 62
    3
 10
-173.47930862169733
 20
309.01317324659891
 40
5
  0
LINE
  8
_0-3_躯体と製品
  6
CONTINUOUS
 62
    3
 10
-185.80462616899717
 20
329.84330026549884
 11
-169.80462616899717
 21
329.84330026549884
  0
LINE
  8
_0-3_躯体と製品
  6
CONTINUOUS
 62
    3
 10
-204.80462616899717
 20
331.34330026549884
 11
-186.80462616899717
 21
331.34330026549884
  0
LINE
  8
_0-3_躯体と製品
  6
CONTINUOUS
 62
    3
 10
-204.80462616899717
 20
332.84330026549884
 11
-186.80462616899717
 21
332.84330026549884
  0
ARC
  8
_0-3_躯体と製品
  6
CONTINUOUS
 62
    3
 10
-195.80462616899717
 20
324.14330026549891
 40
12
 50
74.506032000000928
 51
105.493967999999
  0
LINE
  8
_0-3_躯体と製品
  6
CONTINUOUS
 62
    3
 10
-200.80462616899717
 20
328.34330026549884
 11
-190.80462616899717
 21
328.34330026549884
  0
LINE
  8
_0-3_躯体と製品
  6
CONTINUOUS
 62
    3
 10
-204.80462616899717
 20
332.84330026549884
 11
-204.80462616899717
 21
331.34330026549884
  0
ARC
  8
_0-3_躯体と製品
  6
CONTINUOUS
 62
    3
 10
-198.58285016899731
 20
334.16534926549895
 40
1.6000000000000001
 50
105.493967999999
 51
175.00000000000051
  0
LINE
  8
_0-3_躯体と製品
  6
CONTINUOUS
 62
    3
 10
-200.17676116899725
 20
334.30479926549884
 11
-200.30462616899717
 21
332.84330026549884
  0
LINE
  8
_0-3_躯体と製品
  6
CONTINUOUS
 62
    3
 10
-195.80462616899717
 20
323.34330026549884
 11
-195.80462616899717
 21
328.34330026549884
  0
LINE
  8
_0-3_躯体と製品
  6
CONTINUOUS
 62
    3
 10
-194.80462616899717
 20
328.34330026549884
 11
-195.80462616899717
 21
323.34330026549884
  0
LINE
  8
_0-3_躯体と製品
  6
CONTINUOUS
 62
    3
 10
-196.80462616899717
 20
328.34330026549884
 11
-195.80462616899717
 21
323.34330026549884
  0
LINE
  8
_0-3_躯体と製品
  6
CONTINUOUS
 62
    3
 10
-200.80462616899717
 20
328.34330026549884
 11
-199.80462616899717
 21
323.34330026549884
  0
LINE
  8
_0-3_躯体と製品
  6
CONTINUOUS
 62
    3
 10
-195.80462616899717
 20
331.04330026549889
 11
-195.50462616899722
 21
331.34330026549884
  0
LINE
  8
_0-3_躯体と製品
  6
CONTINUOUS
 62
    3
 10
-195.80462616899717
 20
331.04330026549889
 11
-196.10462616899736
 21
331.34330026549884
  0
LINE
  8
_0-3_躯体と製品
  6
CONTINUOUS
 62
    3
 10
-186.80462616899717
 20
332.84330026549884
 11
-186.80462616899717
 21
331.34330026549884
  0
ARC
  8
_0-3_躯体と製品
  6
CONTINUOUS
 62
    3
 10
-193.02640216899727
 20
334.16534926549895
 40
1.6000000000000001
 50
5.0000000000059481
 51
74.506032000000914
  0
LINE
  8
_0-3_躯体と製品
  6
CONTINUOUS
 62
    3
 10
-191.43249116899733
 20
334.30479926549884
 11
-191.30462616899717
 21
332.84330026549884
  0
LINE
  8
_0-3_躯体と製品
  6
CONTINUOUS
 62
    3
 10
-190.80462616899717
 20
328.34330026549884
 11
-191.80462616899717
 21
323.34330026549884
  0
LINE
  8
_0-3_躯体と製品
  6
CONTINUOUS
 62
    3
 10
-185.80462616899717
 20
329.84330026549884
 11
-185.80462616899717
 21
329.34330026549884
  0
LINE
  8
_0-3_躯体と製品
  6
CONTINUOUS
 62
    3
 10
-164.30462616899717
 20
338.09330026549884
 11
-164.30462616899717
 21
339.84330026549884
  0
LINE
  8
_0-3_躯体と製品
  6
CONTINUOUS
 62
    3
 10
-165.80462616899717
 20
338.09330026549884
 11
-165.80462616899717
 21
341.44330026549886
  0
LINE
  8
_0-3_躯体と製品
  6
CONTINUOUS
 62
    3
 10
-169.80462616899717
 20
329.34330026549884
 11
-168.30462616899717
 21
329.34330026549884
  0
LINE
  8
_0-3_躯体と製品
  6
CONTINUOUS
 62
    3
 10
-168.30462616899717
 20
329.84330026549884
 11
-168.30462616899717
 21
329.34330026549884
  0
LINE
  8
_0-3_躯体と製品
  6
CONTINUOUS
 62
    3
 10
-169.80462616899717
 20
329.84330026549884
 11
-169.80462616899717
 21
329.34330026549884
  0
ARC
  8
_0-3_躯体と製品
  6
CONTINUOUS
 62
    3
 10
-165.05462616899717
 20
338.09330026549884
 40
0.75
 50
180
 51
0
  0
LINE
  8
_0-3_躯体と製品
  6
CONTINUOUS
 62
    3
 10
-160.80462616899717
 20
341.64330026549891
 11
-161.10462616899736
 21
341.94330026549886
  0
LINE
  8
_0-3_躯体と製品
  6
CONTINUOUS
 62
    3
 10
-165.30462616899717
 20
341.94330026549886
 11
-161.10462616899736
 21
341.94330026549886
  0
ARC
  8
_0-3_躯体と製品
  6
CONTINUOUS
 62
    3
 10
-165.30462616899717
 20
341.44330026549886
 40
0.5
 50
90
 51
180
  0
ARC
  8
_0-3_躯体と製品
  6
CONTINUOUS
 62
    3
 10
-163.80462616899717
 20
339.84330026549884
 40
0.5
 50
90
 51
180
  0
LINE
  8
_0-3_躯体と製品
  6
CONTINUOUS
 62
    3
 10
-160.80462616899717
 20
341.64330026549891
 11
-160.50462616899722
 21
341.94330026549886
  0
TEXT
  8
_0-5_文字-記号
 62
    7
 10
-207.05180016952636
 20
367.95774792956854
 40
6
 41
0.8000000000000001
 50
0
  1
7
  0
CIRCLE
  8
_0-5_文字-記号
  6
CONTINUOUS
 62
    3
 10
-203.93304726579731
 20
372.67342728439883
 40
5
  0
TEXT
  8
_0-5_文字-記号
 62
    7
 10
-172.99962167549529
 20
373.90336639678014
 40
6
 41
0.7999999999999952
 50
0
  1
1
  0
CIRCLE
  8
_0-5_文字-記号
  6
CONTINUOUS
 62
    3
 10
-170.87086943929717
 20
377.67342728439883
 40
5
  0
TEXT
  8
_0-4_図面枠
 62
    7
 10
-343.33719020510534
 20
524.86223197473851
 40
6
 41
0.7999999999999994
 50
0
  1
（アルミ１５０タイプ）
  0
LINE
  8
_0-3_躯体と製品
  6
CONTINUOUS
 62
    3
 10
89.195373831002598
 20
328.34330026549884
 11
8.5234588310026993
 21
328.34330026549884
  0
LINE
  8
_0-3_躯体と製品
  6
CONTINUOUS
 62
    3
 10
89.195373831002598
 20
329.34330026549884
 11
8.5234588310026993
 21
329.34330026549884
  0
LINE
  8
_0-3_躯体と製品
  6
CONTINUOUS
 62
    3
 10
82.895373831002871
 20
346.84330026549873
 11
4.0953738310026893
 21
346.84330026549873
  0
LINE
  8
_0-3_躯体と製品
  6
CONTINUOUS
 62
    3
 10
98.695373831002598
 20
348.34330026549873
 11
-5.3046261689971743
 21
348.34330026549873
  0
LINE
  8
_0-3_躯体と製品
  6
CONTINUOUS
 62
    3
 10
36.695373831002598
 20
329.84330026549884
 11
13.195373831002826
 21
329.84330026549884
  0
LINE
  8
_0-3_躯体と製品
  6
CONTINUOUS
 62
    3
 10
63.895373831002871
 20
331.34330026549884
 11
-3.8046261689971743
 21
331.34330026549884
  0
LINE
  8
_0-3_躯体と製品
  6
DASHED1
 62
    3
 10
9.1953738310028257
 20
228.34330026549895
 11
104.1953738310026
 21
228.34330026549895
  0
LINE
  8
_0-3_躯体と製品
  6
CONTINUOUS
 62
    3
 10
32.195373831002826
 20
340.34330026549884
 11
-64.554626168997174
 21
340.34330026549884
  0
LINE
  8
_0-3_躯体と製品
  6
CONTINUOUS
 62
    3
 10
-65.804626168996265
 20
341.94330026549886
 11
28.895373831003781
 21
341.94330026549886
  0
LINE
  8
_0-3_躯体と製品
  6
CONTINUOUS
 62
    3
 10
9.1953738310028257
 20
328.34330026549884
 11
104.1953738310026
 21
328.34330026549884
  0
ARC
  8
_0-3_躯体と製品
  6
CONTINUOUS
 62
    3
 10
-65.554626168996265
 20
328.34330026549884
 40
64.75
 50
269.77878199999952
 51
352.31196299999999
  0
ARC
  8
_0-3_躯体と製品
  6
CONTINUOUS
 62
    3
 10
-65.554626168996265
 20
327.84330026549884
 40
63.25
 50
269.77353599999537
 51
352.31196299999999
  0
ARC
  8
_0-3_躯体と製品
  6
CONTINUOUS
 62
    3
 10
-66.054626168997174
 20
328.34330026549884
 40
64.75
 50
187.68803699999989
 51
270.22122099999456
  0
ARC
  8
_0-3_躯体と製品
  6
CONTINUOUS
 62
    3
 10
-66.054626168997174
 20
327.84330026549884
 40
63.25
 50
187.68803699999989
 51
270.22646800000228
  0
LINE
  8
_0-3_躯体と製品
  6
CENTER
 62
    3
 10
-65.804626168996265
 20
225.93948969779899
 11
-65.804626168996265
 21
355.14330026549885
  0
LINE
  8
_0-3_躯体と製品
  6
CONTINUOUS
 62
    3
 10
9.1953738310028257
 20
328.34330026549884
 11
9.1953738310028257
 21
228.34330026549895
  0
LINE
  8
_0-3_躯体と製品
  6
CONTINUOUS
 62
    3
 10
-140.80462616899717
 20
228.34330026549895
 11
-140.80462616899717
 21
328.34330026549884
  0
ARC
  8
_0-3_躯体と製品
  6
CONTINUOUS
 62
    3
 10
-65.804626168996265
 20
338.09330026549884
 40
0.75
 50
180
 51
270
  0
TEXT
  8
_0-5_文字-記号
 62
    7
 10
-114.08394777312333
 20
353.36395714641208
 40
6
 41
0.7999999999999952
 50
0
  1
3
  0
CIRCLE
  8
_0-5_文字-記号
  6
CONTINUOUS
 62
    3
 10
-111.75762078529715
 20
357.67342728439883
 40
5
  0
LINE
  8
_0-5_文字-記号
  6
CONTINUOUS
 62
    3
 10
-130.5051669536972
 20
344.69332701559887
 11
-113.9640971855963
 21
373.34330026549878
  0
CIRCLE
  8
_0-5_文字-記号
  6
CONTINUOUS
 62
    3
 10
-108.30462616899717
 20
312.67342728439888
 40
5
  0
LINE
  8
_0-5_文字-記号
  6
CONTINUOUS
 62
    3
 10
-119.54260248999731
 20
292.51639498169897
 11
-110.40493446389723
 21
308.34330026549884
  0
ARC
  8
_0-3_躯体と製品
  6
CONTINUOUS
 62
    3
 10
-140.13271116899728
 20
317.84330026549884
 40
11.5
 50
7.6880369999999543
 51
90
  0
ARC
  8
_0-3_躯体と製品
  6
CONTINUOUS
 62
    3
 10
-140.13271116899728
 20
318.34330026549884
 40
10
 50
7.6880369999999543
 51
90
  0
ARC
  8
_0-3_躯体と製品
  6
CONTINUOUS
 62
    3
 10
-135.70462616899727
 20
346.34330026549878
 40
0.5
 50
0
 51
90
  0
LINE
  8
_0-3_躯体と製品
  6
CONTINUOUS
 62
    3
 10
-143.30462616899626
 20
329.84330026549884
 11
-127.30462616899717
 21
329.84330026549884
  0
LINE
  8
_0-3_躯体と製品
  6
CONTINUOUS
 62
    3
 10
-144.80462616899626
 20
329.34330026549884
 11
-143.30462616899626
 21
329.34330026549884
  0
LINE
  8
_0-3_躯体と製品
  6
CONTINUOUS
 62
    3
 10
-143.30462616899626
 20
329.84330026549884
 11
-143.30462616899626
 21
329.34330026549884
  0
LINE
  8
_0-3_躯体と製品
  6
CONTINUOUS
 62
    3
 10
-144.80462616899626
 20
329.84330026549884
 11
-144.80462616899626
 21
329.34330026549884
  0
LINE
  8
_0-3_躯体と製品
  6
CENTER
 62
    3
 10
-130.50573145369731
 20
349.59330026549878
 11
-130.50573145369731
 21
338.34330026549884
  0
LINE
  8
_0-5_文字-記号
  6
CONTINUOUS
 62
    3
 10
-114.25762078529715
 20
353.34330026549878
 11
-125.80462616899717
 21
333.34330026549884
  0
LINE
  8
_0-3_躯体と製品
  6
CONTINUOUS
 62
    3
 10
-125.80462616899717
 20
339.59330026549884
 11
-125.80462616899717
 21
329.84330026549884
  0
LINE
  8
_0-3_躯体と製品
  6
CONTINUOUS
 62
    3
 10
-127.30462616899717
 20
339.59330026549884
 11
-127.30462616899717
 21
331.84330026549884
  0
LINE
  8
_0-3_躯体と製品
  6
CONTINUOUS
 62
    3
 10
-127.30462616899717
 20
329.84330026549884
 11
-127.30462616899717
 21
329.34330026549884
  0
ARC
  8
_0-3_躯体と製品
  6
CONTINUOUS
 62
    3
 10
-127.80462616899717
 20
331.84330026549884
 40
0.5
 50
270
 51
0
  0
ARC
  8
_0-3_躯体と製品
  6
CONTINUOUS
 62
    3
 10
-126.30462616899717
 20
329.84330026549884
 40
0.5
 50
270
 51
0
  0
LINE
  8
_0-3_躯体と製品
  6
CONTINUOUS
 62
    3
 10
-127.30462616899717
 20
329.34330026549884
 11
-126.30462616899717
 21
329.34330026549884
  0
ARC
  8
_0-3_躯体と製品
  6
CONTINUOUS
 62
    3
 10
-130.20462616899727
 20
341.37006026549892
 40
0.2999999999999998
 50
100.16424900000442
 51
280.16424900000442
  0
ARC
  8
_0-3_躯体と製品
  6
CONTINUOUS
 62
    3
 10
-130.80462616899717
 20
341.37006026549892
 40
0.2999999999999998
 50
259.83575099999564
 51
79.835750999995582
  0
ARC
  8
_0-3_躯体と製品
  6
CONTINUOUS
 62
    3
 10
-128.75462416899722
 20
346.34330026549878
 40
0.5
 50
0
 51
180
  0
LINE
  8
_0-3_躯体と製品
  6
CONTINUOUS
 62
    3
 10
-129.26019516899737
 20
342.40198226549893
 11
-129.04380216899722
 21
342.82182426549895
  0
LINE
  8
_0-3_躯体と製品
  6
CONTINUOUS
 62
    3
 10
-128.72686816899727
 20
342.12709726549889
 11
-128.51047516899735
 21
342.54693926549891
  0
ARC
  8
_0-3_躯体と製品
  6
CONTINUOUS
 62
    3
 10
-129.4882421689972
 20
343.05089526549892
 40
1.1000000000000001
 50
332.73274700000098
 51
26.564808999991662
  0
LINE
  8
_0-3_躯体と製品
  6
CONTINUOUS
 62
    3
 10
-129.92545216899725
 20
345.04336826549883
 11
-129.04102716899729
 21
343.27450026549894
  0
ARC
  8
_0-3_躯体と製品
  6
CONTINUOUS
 62
    3
 10
-129.4882421689972
 20
343.05089526549892
 40
0.5
 50
332.73274699999217
 51
26.564808999991619
  0
LINE
  8
_0-3_躯体と製品
  6
CONTINUOUS
 62
    3
 10
-129.25462616899722
 20
345.04335426549886
 11
-128.50437016899718
 21
343.54282626549895
  0
LINE
  8
_0-3_躯体と製品
  6
CONTINUOUS
 62
    3
 10
-127.25462916899733
 20
345.34344226549888
 11
-127.25462616899631
 21
346.04330526549887
  0
ARC
  8
_0-3_躯体と製品
  6
CONTINUOUS
 62
    3
 10
-133.45462316899716
 20
345.34330926549887
 40
0.2999999999999998
 50
180
 51
270.00129200000242
  0
LINE
  8
_0-3_躯体と製品
  6
CONTINUOUS
 62
    3
 10
-133.75462316899734
 20
345.34330926549887
 11
-133.75462616899722
 21
346.04329726549884
  0
ARC
  8
_0-3_躯体と製品
  6
CONTINUOUS
 62
    3
 10
-127.55462916899728
 20
345.34344226549888
 40
0.2999999999999998
 50
270.00129200000242
 51
0
  0
LINE
  8
_0-3_躯体と製品
  6
CONTINUOUS
 62
    3
 10
-133.45688716899735
 20
345.04331826549878
 11
-127.5546231689973
 21
345.04344226549887
  0
LINE
  8
_0-3_躯体と製品
  6
CONTINUOUS
 62
    3
 10
-132.75462816899721
 20
346.34329926549879
 11
-133.45462616899727
 21
346.34329826549879
  0
LINE
  8
_0-3_躯体と製品
  6
CONTINUOUS
 62
    3
 10
-129.25462416899722
 20
346.34330426549883
 11
-131.75462816899721
 21
346.34330126549878
  0
LINE
  8
_0-3_躯体と製品
  6
CONTINUOUS
 62
    3
 10
-128.25462416899632
 20
346.34330526549883
 11
-127.55462616899626
 21
346.34330626549882
  0
ARC
  8
_0-3_躯体と製品
  6
CONTINUOUS
 62
    3
 10
-127.55462616899626
 20
346.04330626549887
 40
0.2999999999999998
 50
0
 51
90
  0
ARC
  8
_0-3_躯体と製品
  6
CONTINUOUS
 62
    3
 10
-133.45462616899727
 20
346.04329826549889
 40
0.2999999999999998
 50
90
 51
180
  0
ARC
  8
_0-3_躯体と製品
  6
CONTINUOUS
 62
    3
 10
-130.50462616899722
 20
343.04338026549891
 40
2
 50
280.16424900000447
 51
332.73274699999217
  0
ARC
  8
_0-3_躯体と製品
  6
CONTINUOUS
 62
    3
 10
-130.50462616899722
 20
343.04338026549891
 40
2
 50
207.26725299999899
 51
259.83575099999558
  0
ARC
  8
_0-3_躯体と製品
  6
CONTINUOUS
 62
    3
 10
-130.50462616899722
 20
343.04338026549891
 40
1.399999999999999
 50
280.16424900000447
 51
332.73274700000093
  0
ARC
  8
_0-3_躯体と製品
  6
CONTINUOUS
 62
    3
 10
-130.50462616899722
 20
343.04338026549891
 40
1.399999999999999
 50
207.26725299999899
 51
259.83575099999558
  0
ARC
  8
_0-3_躯体と製品
  6
CONTINUOUS
 62
    3
 10
-132.25462816899721
 20
346.34330026549878
 40
0.5
 50
0
 51
180
  0
LINE
  8
_0-3_躯体と製品
  6
CONTINUOUS
 62
    3
 10
-131.7490571689973
 20
342.40198226549893
 11
-131.96545016899631
 21
342.82182426549895
  0
LINE
  8
_0-3_躯体と製品
  6
CONTINUOUS
 62
    3
 10
-132.28238416899717
 20
342.12709726549889
 11
-132.49877716899732
 21
342.54693926549891
  0
ARC
  8
_0-3_躯体と製品
  6
CONTINUOUS
 62
    3
 10
-131.52101016899724
 20
343.05089526549892
 40
1.1000000000000001
 50
153.4351910000025
 51
207.26725299999899
  0
LINE
  8
_0-3_躯体と製品
  6
CONTINUOUS
 62
    3
 10
-131.08380016899719
 20
345.04336826549883
 11
-131.96822516899715
 21
343.27450026549894
  0
ARC
  8
_0-3_躯体と製品
  6
CONTINUOUS
 62
    3
 10
-131.52101016899724
 20
343.05089526549892
 40
0.5
 50
153.4351910000025
 51
207.26725299999899
  0
LINE
  8
_0-3_躯体と製品
  6
CONTINUOUS
 62
    3
 10
-131.75462616899722
 20
345.04335426549886
 11
-132.50488216899726
 21
343.54282626549895
  0
ARC
  8
_0-3_躯体と製品
  6
CONTINUOUS
 62
    3
 10
-132.80462616899717
 20
344.24330026549887
 40
0.2999999999999998
 50
0
 51
90
  0
LINE
  8
_0-3_躯体と製品
  6
CONTINUOUS
 62
    3
 10
-133.70462616899727
 20
344.54330026549889
 11
-132.80462616899717
 21
344.54330026549889
  0
LINE
  8
_0-3_躯体と製品
  6
CONTINUOUS
 62
    3
 10
-132.50462616899722
 20
344.24330026549887
 11
-132.50462616899722
 21
343.64330026549891
  0
ARC
  8
_0-3_躯体と製品
  6
CONTINUOUS
 62
    3
 10
-132.80462616899717
 20
343.64330026549891
 40
0.2999999999999998
 50
270
 51
0
  0
LINE
  8
_0-3_躯体と製品
  6
CONTINUOUS
 62
    3
 10
-134.70462616899727
 20
343.34330026549884
 11
-132.80462616899717
 21
343.34330026549884
  0
ARC
  8
_0-3_躯体と製品
  6
CONTINUOUS
 62
    3
 10
-128.20462616899727
 20
343.64330026549891
 40
0.2999999999999998
 50
180
 51
270
  0
LINE
  8
_0-3_躯体と製品
  6
CONTINUOUS
 62
    3
 10
-128.20462616899727
 20
343.34330026549884
 11
-126.30462616899717
 21
343.34330026549884
  0
LINE
  8
_0-3_躯体と製品
  6
CONTINUOUS
 62
    3
 10
-128.50462616899722
 20
344.24330026549887
 11
-128.50462616899722
 21
343.64330026549891
  0
ARC
  8
_0-3_躯体と製品
  6
CONTINUOUS
 62
    3
 10
-128.20462616899727
 20
344.24330026549887
 40
0.2999999999999998
 50
90
 51
180
  0
LINE
  8
_0-3_躯体と製品
  6
CONTINUOUS
 62
    3
 10
-128.20462616899727
 20
344.54330026549889
 11
-127.30462616899717
 21
344.54330026549889
  0
ARC
  8
_0-3_躯体と製品
  6
CONTINUOUS
 62
    3
 10
-127.30462616899717
 20
344.84330026549878
 40
0.2999999999999998
 50
270
 51
0
  0
LINE
  8
_0-3_躯体と製品
  6
CONTINUOUS
 62
    3
 10
-127.00462616899722
 20
346.54330026549883
 11
-127.00462616899722
 21
344.84330026549878
  0
ARC
  8
_0-3_躯体と製品
  6
CONTINUOUS
 62
    3
 10
-127.30462616899717
 20
346.54330026549883
 40
0.2999999999999998
 50
0
 51
90
  0
LINE
  8
_0-3_躯体と製品
  6
CONTINUOUS
 62
    3
 10
-133.70462616899727
 20
346.84330026549873
 11
-127.30462616899717
 21
346.84330026549873
  0
ARC
  8
_0-3_躯体と製品
  6
CONTINUOUS
 62
    3
 10
-133.70462616899727
 20
344.84330026549878
 40
0.2999999999999998
 50
180
 51
270
  0
LINE
  8
_0-3_躯体と製品
  6
CONTINUOUS
 62
    3
 10
-134.00462616899722
 20
346.54330026549883
 11
-134.00462616899722
 21
344.84330026549878
  0
ARC
  8
_0-3_躯体と製品
  6
CONTINUOUS
 62
    3
 10
-133.70462616899727
 20
346.54330026549883
 40
0.2999999999999998
 50
90
 51
180
  0
ARC
  8
_0-3_躯体と製品
  6
CONTINUOUS
 62
    3
 10
-134.70462616899727
 20
343.84330026549873
 40
0.5
 50
180
 51
270
  0
LINE
  8
_0-3_躯体と製品
  6
CONTINUOUS
 62
    3
 10
-135.20462616899727
 20
346.34330026549878
 11
-135.20462616899727
 21
343.84330026549873
  0
ARC
  8
_0-3_躯体と製品
  6
CONTINUOUS
 62
    3
 10
-126.30462616899717
 20
343.84329826549885
 40
0.5
 50
269.99981906595838
 51
0
  0
LINE
  8
_0-3_躯体と製品
  6
CONTINUOUS
 62
    3
 10
-125.80462616899717
 20
347.84330026549878
 11
-125.80462616899717
 21
343.84329826549885
  0
ARC
  8
_0-3_躯体と製品
  6
CONTINUOUS
 62
    3
 10
-126.30462616899717
 20
347.84330026549878
 40
0.5
 50
0
 51
90
  0
ARC
  8
_0-3_躯体と製品
  6
CONTINUOUS
 62
    3
 10
-126.55462616899717
 20
339.59330026549884
 40
0.75
 50
0
 51
180
  0
TEXT
  8
_0-5_文字-記号
 62
    7
 10
-110.84088315464419
 20
309.58258479694308
 40
6
 41
0.7999999999999952
 50
0
  1
4
  0
LINE
  8
_0-3_躯体と製品
  6
CONTINUOUS
 62
    3
 10
-66.554626168997174
 20
338.09330026549884
 11
-66.554626168997174
 21
339.84330026549884
  0
ARC
  8
_0-3_躯体と製品
  6
CONTINUOUS
 62
    3
 10
-67.054626168996265
 20
339.84330026549884
 40
0.5
 50
0
 51
90
  0
TEXT
  8
_0-5_文字-記号
 62
    7
 10
-114.08394777312333
 20
372.82234485728719
 40
6
 41
0.7999999999999952
 50
0
  1
9
  0
CIRCLE
  8
_0-5_文字-記号
  6
CONTINUOUS
 62
    3
 10
-111.46409718559721
 20
377.67342728439883
 40
5
  0
TEXT
  8
_0-5_文字-記号
 62
    7
 10
-58.411338489231184
 20
352.82344637666546
 40
6
 41
0.7999999999999952
 50
0
  1
2
  0
CIRCLE
  8
_0-5_文字-記号
  6
CONTINUOUS
 62
    3
 10
-56.145482831097297
 20
357.67342728439883
 40
5
  0
LINE
  8
_0-3_躯体と製品
  6
CONTINUOUS
 62
    3
 10
-65.054626168996265
 20
338.09330026549884
 11
-65.054626168996265
 21
339.84330026549884
  0
ARC
  8
_0-3_躯体と製品
  6
CONTINUOUS
 62
    3
 10
-65.804626168996265
 20
338.09330026549884
 40
0.75
 50
270
 51
0
  0
LINE
  8
_0-5_文字-記号
  6
CONTINUOUS
 62
    3
 10
-65.804626168996265
 20
340.94330026549886
 11
-58.645482831097297
 21
353.34330026549878
  0
ARC
  8
_0-3_躯体と製品
  6
CONTINUOUS
 62
    3
 10
-64.554626168997174
 20
339.84330026549884
 40
0.5
 50
90
 51
180
  0
ARC
  8
_0-3_躯体と製品
  6
CONTINUOUS
 62
    3
 10
8.5234588310026993
 20
317.84330026549884
 40
11.5
 50
90
 51
172.31196299999999
  0
ARC
  8
_0-3_躯体と製品
  6
CONTINUOUS
 62
    3
 10
8.5234588310026993
 20
318.34330026549884
 40
10
 50
90
 51
172.31196299999999
  0
ARC
  8
_0-3_躯体と製品
  6
CONTINUOUS
 62
    3
 10
3.0953738310026893
 20
343.84330026549873
 40
0.5
 50
270
 51
0
  0
ARC
  8
_0-3_躯体と製品
  6
CONTINUOUS
 62
    3
 10
4.0953738310026893
 20
346.34330026549878
 40
0.5
 50
90
 51
180
  0
LINE
  8
_0-3_躯体と製品
  6
CONTINUOUS
 62
    3
 10
11.695373831002826
 20
329.84330026549884
 11
-4.3046261689971743
 21
329.84330026549884
  0
LINE
  8
_0-3_躯体と製品
  6
CENTER
 62
    3
 10
-1.1035208843973123
 20
349.59330026549878
 11
-1.1035208843973123
 21
338.34330026549884
  0
LINE
  8
_0-3_躯体と製品
  6
CONTINUOUS
 62
    3
 10
-5.8046261689962648
 20
339.59330026549884
 11
-5.8046261689962648
 21
329.84330026549884
  0
LINE
  8
_0-3_躯体と製品
  6
CONTINUOUS
 62
    3
 10
-4.3046261689971743
 20
339.59330026549884
 11
-4.3046261689971743
 21
331.84330026549884
  0
LINE
  8
_0-3_躯体と製品
  6
CONTINUOUS
 62
    3
 10
-4.3046261689971743
 20
329.84330026549884
 11
-4.3046261689971743
 21
329.34330026549884
  0
ARC
  8
_0-3_躯体と製品
  6
CONTINUOUS
 62
    3
 10
-3.8046261689971743
 20
331.84330026549884
 40
0.5
 50
180
 51
270
  0
ARC
  8
_0-3_躯体と製品
  6
CONTINUOUS
 62
    3
 10
-5.3046261689971743
 20
329.84330026549884
 40
0.5
 50
180
 51
270
  0
LINE
  8
_0-3_躯体と製品
  6
CONTINUOUS
 62
    3
 10
-4.3046261689971743
 20
329.34330026549884
 11
-5.3046261689971743
 21
329.34330026549884
  0
ARC
  8
_0-3_躯体と製品
  6
CONTINUOUS
 62
    3
 10
-1.4046261689973107
 20
341.37006026549892
 40
0.2999999999999998
 50
259.83575099999564
 51
79.835750999995582
  0
ARC
  8
_0-3_躯体と製品
  6
CONTINUOUS
 62
    3
 10
-0.8046261689971743
 20
341.37006026549892
 40
0.2999999999999998
 50
100.16424900000442
 51
280.16424900000442
  0
ARC
  8
_0-3_躯体と製品
  6
CONTINUOUS
 62
    3
 10
-2.8546281689973512
 20
346.34330026549878
 40
0.5
 50
0
 51
180
  0
LINE
  8
_0-3_躯体と製品
  6
CONTINUOUS
 62
    3
 10
-2.3490571689972057
 20
342.40198226549893
 11
-2.5654501689973586
 21
342.82182426549895
  0
LINE
  8
_0-3_躯体と製品
  6
CONTINUOUS
 62
    3
 10
-2.8823841689973051
 20
342.12709726549889
 11
-3.0987771689972305
 21
342.54693926549891
  0
ARC
  8
_0-3_躯体と製品
  6
CONTINUOUS
 62
    3
 10
-2.1210101689971452
 20
343.05089526549892
 40
1.1000000000000001
 50
153.4351910000025
 51
207.26725299999899
  0
LINE
  8
_0-3_躯体と製品
  6
CONTINUOUS
 62
    3
 10
-1.6838001689973225
 20
345.04336826549883
 11
-2.5682251689972873
 21
343.27450026549894
  0
ARC
  8
_0-3_躯体と製品
  6
CONTINUOUS
 62
    3
 10
-2.1210101689971452
 20
343.05089526549892
 40
0.5
 50
153.4351910000025
 51
207.26725299999899
  0
LINE
  8
_0-3_躯体と製品
  6
CONTINUOUS
 62
    3
 10
-2.3546261689962193
 20
345.04335426549886
 11
-3.1048821689971646
 21
343.54282626549895
  0
LINE
  8
_0-3_躯体と製品
  6
CONTINUOUS
 62
    3
 10
-4.3546231689972501
 20
345.34344226549888
 11
-4.3546261689973562
 21
346.04330526549887
  0
ARC
  8
_0-3_躯体と製品
  6
CONTINUOUS
 62
    3
 10
1.8453708310028105
 20
345.34330926549887
 40
0.2999999999999998
 50
269.99870799999752
 51
0.0000000000000127
  0
LINE
  8
_0-3_躯体と製品
  6
CONTINUOUS
 62
    3
 10
2.145370831002765
 20
345.34330926549887
 11
2.1453738310026438
 21
346.04329726549884
  0
ARC
  8
_0-3_躯体と製品
  6
CONTINUOUS
 62
    3
 10
-4.0546231689972956
 20
345.34344226549888
 40
0.2999999999999998
 50
180
 51
269.99870799999752
  0
LINE
  8
_0-3_躯体と製品
  6
CONTINUOUS
 62
    3
 10
1.8476348310027788
 20
345.04331826549878
 11
-4.0546291689972804
 21
345.04344226549887
  0
LINE
  8
_0-3_躯体と製品
  6
CONTINUOUS
 62
    3
 10
1.1453758310026387
 20
346.34329926549879
 11
1.8453738310026893
 21
346.34329826549879
  0
LINE
  8
_0-3_躯体と製品
  6
CONTINUOUS
 62
    3
 10
-2.3546281689973512
 20
346.34330426549883
 11
0.1453758310026387
 21
346.34330126549878
  0
LINE
  8
_0-3_躯体と製品
  6
CONTINUOUS
 62
    3
 10
-3.3546281689973512
 20
346.34330526549883
 11
-4.0546261689971743
 21
346.34330626549882
  0
ARC
  8
_0-3_躯体と製品
  6
CONTINUOUS
 62
    3
 10
-4.0546261689971743
 20
346.04330626549887
 40
0.2999999999999998
 50
90
 51
180
  0
ARC
  8
_0-3_躯体と製品
  6
CONTINUOUS
 62
    3
 10
1.8453738310026893
 20
346.04329826549889
 40
0.2999999999999998
 50
0
 51
90
  0
ARC
  8
_0-3_躯体と製品
  6
CONTINUOUS
 62
    3
 10
-1.1046261689973562
 20
343.04338026549891
 40
2
 50
207.26725299999899
 51
259.83575099999558
  0
ARC
  8
_0-3_躯体と製品
  6
CONTINUOUS
 62
    3
 10
-1.1046261689973562
 20
343.04338026549891
 40
2
 50
280.16424900000447
 51
332.73274699999217
  0
ARC
  8
_0-3_躯体と製品
  6
CONTINUOUS
 62
    3
 10
-1.1046261689973562
 20
343.04338026549891
 40
1.399999999999999
 50
207.26725299999899
 51
259.83575099999558
  0
ARC
  8
_0-3_躯体と製品
  6
CONTINUOUS
 62
    3
 10
-1.1046261689973562
 20
343.04338026549891
 40
1.399999999999999
 50
280.16424900000447
 51
332.73274700000093
  0
ARC
  8
_0-3_躯体と製品
  6
CONTINUOUS
 62
    3
 10
0.6453758310026387
 20
346.34330026549878
 40
0.5
 50
0
 51
180
  0
LINE
  8
_0-3_躯体と製品
  6
CONTINUOUS
 62
    3
 10
0.1398048310027206
 20
342.40198226549893
 11
0.3561978310026461
 21
342.82182426549895
  0
LINE
  8
_0-3_躯体と製品
  6
CONTINUOUS
 62
    3
 10
0.6731318310037295
 20
342.12709726549889
 11
0.8895248310027454
 21
342.54693926549891
  0
ARC
  8
_0-3_躯体と製品
  6
CONTINUOUS
 62
    3
 10
-0.0882421689973398
 20
343.05089526549892
 40
1.1000000000000001
 50
332.73274700000098
 51
26.564808999991662
  0
LINE
  8
_0-3_躯体と製品
  6
CONTINUOUS
 62
    3
 10
-0.5254521689971625
 20
345.04336826549883
 11
0.3589728310028022
 21
343.27450026549894
  0
ARC
  8
_0-3_躯体と製品
  6
CONTINUOUS
 62
    3
 10
-0.0882421689973398
 20
343.05089526549892
 40
0.5
 50
332.73274699999217
 51
26.564808999991619
  0
LINE
  8
_0-3_躯体と製品
  6
CONTINUOUS
 62
    3
 10
0.1453738310026437
 20
345.04335426549886
 11
0.8956298310026795
 21
343.54282626549895
  0
ARC
  8
_0-3_躯体と製品
  6
CONTINUOUS
 62
    3
 10
1.1953738310028257
 20
344.24330026549887
 40
0.2999999999999998
 50
90
 51
180
  0
LINE
  8
_0-3_躯体と製品
  6
CONTINUOUS
 62
    3
 10
2.0953738310026893
 20
344.54330026549889
 11
1.1953738310028257
 21
344.54330026549889
  0
LINE
  8
_0-3_躯体と製品
  6
CONTINUOUS
 62
    3
 10
0.8953738310026437
 20
344.24330026549887
 11
0.8953738310026437
 21
343.64330026549891
  0
ARC
  8
_0-3_躯体と製品
  6
CONTINUOUS
 62
    3
 10
1.1953738310028257
 20
343.64330026549891
 40
0.2999999999999998
 50
180
 51
270
  0
LINE
  8
_0-3_躯体と製品
  6
CONTINUOUS
 62
    3
 10
3.0953738310026893
 20
343.34330026549884
 11
1.1953738310028257
 21
343.34330026549884
  0
ARC
  8
_0-3_躯体と製品
  6
CONTINUOUS
 62
    3
 10
-3.4046261689973107
 20
343.64330026549891
 40
0.2999999999999998
 50
270
 51
0
  0
LINE
  8
_0-3_躯体と製品
  6
CONTINUOUS
 62
    3
 10
-3.4046261689973107
 20
343.34330026549884
 11
-5.3046261689971743
 21
343.34330026549884
  0
LINE
  8
_0-3_躯体と製品
  6
CONTINUOUS
 62
    3
 10
-3.1046261689973562
 20
344.24330026549887
 11
-3.1046261689973562
 21
343.64330026549891
  0
ARC
  8
_0-3_躯体と製品
  6
CONTINUOUS
 62
    3
 10
-3.4046261689973107
 20
344.24330026549887
 40
0.2999999999999998
 50
0
 51
90
  0
LINE
  8
_0-3_躯体と製品
  6
CONTINUOUS
 62
    3
 10
-3.4046261689973107
 20
344.54330026549889
 11
-4.3046261689971743
 21
344.54330026549889
  0
ARC
  8
_0-3_躯体と製品
  6
CONTINUOUS
 62
    3
 10
-4.3046261689971743
 20
344.84330026549878
 40
0.2999999999999998
 50
180
 51
270
  0
LINE
  8
_0-3_躯体と製品
  6
CONTINUOUS
 62
    3
 10
-4.6046261689973562
 20
346.54330026549883
 11
-4.6046261689973562
 21
344.84330026549878
  0
ARC
  8
_0-3_躯体と製品
  6
CONTINUOUS
 62
    3
 10
-4.3046261689971743
 20
346.54330026549883
 40
0.2999999999999998
 50
90
 51
180
  0
LINE
  8
_0-3_躯体と製品
  6
CONTINUOUS
 62
    3
 10
2.0953738310026893
 20
346.84330026549873
 11
-4.3046261689971743
 21
346.84330026549873
  0
ARC
  8
_0-3_躯体と製品
  6
CONTINUOUS
 62
    3
 10
2.0953738310026893
 20
344.84330026549878
 40
0.2999999999999998
 50
270
 51
0
  0
LINE
  8
_0-3_躯体と製品
  6
CONTINUOUS
 62
    3
 10
2.3953738310026438
 20
346.54330026549883
 11
2.3953738310026438
 21
344.84330026549878
  0
ARC
  8
_0-3_躯体と製品
  6
CONTINUOUS
 62
    3
 10
2.0953738310026893
 20
346.54330026549883
 40
0.2999999999999998
 50
0
 51
90
  0
LINE
  8
_0-3_躯体と製品
  6
CONTINUOUS
 62
    3
 10
3.5953738310026893
 20
346.34330026549878
 11
3.5953738310026893
 21
343.84330026549873
  0
ARC
  8
_0-3_躯体と製品
  6
CONTINUOUS
 62
    3
 10
-5.3046261689971743
 20
343.84329826549885
 40
0.5
 50
180
 51
270.0001809340024
  0
LINE
  8
_0-3_躯体と製品
  6
CONTINUOUS
 62
    3
 10
-5.8046261689962648
 20
347.84330026549878
 11
-5.8046261689962648
 21
343.84329826549885
  0
ARC
  8
_0-3_躯体と製品
  6
CONTINUOUS
 62
    3
 10
-5.3046261689971743
 20
347.84330026549878
 40
0.5
 50
90
 51
180
  0
ARC
  8
_0-3_躯体と製品
  6
CONTINUOUS
 62
    3
 10
-5.0546261689971743
 20
339.59330026549884
 40
0.75
 50
0
 51
180
  0
LINE
  8
_0-3_躯体と製品
  6
CONTINUOUS
 62
    3
 10
13.195373831002826
 20
329.34330026549884
 11
11.695373831002826
 21
329.34330026549884
  0
LINE
  8
_0-3_躯体と製品
  6
CONTINUOUS
 62
    3
 10
11.695373831002826
 20
329.84330026549884
 11
11.695373831002826
 21
329.34330026549884
  0
LINE
  8
_0-3_躯体と製品
  6
CONTINUOUS
 62
    3
 10
13.195373831002826
 20
329.84330026549884
 11
13.195373831002826
 21
329.34330026549884
  0
LINE
  8
_0-3_躯体と製品
  6
CENTER
 62
    3
 10
64.195373831002598
 20
341.49330026549893
 11
64.195373831002598
 21
275.74234762359896
  0
LINE
  8
_0-3_躯体と製品
  6
CONTINUOUS
 62
    3
 10
62.072958831002779
 20
289.38578426549901
 11
63.695373831002598
 21
320.34330026549884
  0
LINE
  8
_0-3_躯体と製品
  6
CONTINUOUS
 62
    3
 10
58.682427831002769
 20
291.56621926549889
 11
60.575014831003955
 21
289.46428826549896
  0
LINE
  8
_0-3_躯体と製品
  6
CONTINUOUS
 62
    3
 10
66.317788831003782
 20
289.38578426549901
 11
64.695373831003963
 21
320.34330026549884
  0
LINE
  8
_0-3_躯体と製品
  6
CONTINUOUS
 62
    3
 10
69.708319831002882
 20
291.56621926549889
 11
67.815732831003515
 21
289.46428826549896
  0
LINE
  8
_0-3_躯体と製品
  6
DASHED1
 62
    3
 10
104.1953738310026
 20
328.34330026549884
 11
104.1953738310026
 21
228.34330026549895
  0
LINE
  8
_0-3_躯体と製品
  6
CONTINUOUS
 62
    3
 10
60.575014831003955
 20
289.46428826549896
 11
62.072958831002779
 21
289.38578426549901
  0
LINE
  8
_0-3_躯体と製品
  6
CONTINUOUS
 62
    3
 10
67.815732831003515
 20
289.46428826549896
 11
66.317788831003782
 21
289.38578426549901
  0
LINE
  8
_0-3_躯体と製品
  6
CENTER
 62
    3
 10
83.195373831002598
 20
356.09330026549878
 11
83.195373831002598
 21
333.34330026549884
  0
LINE
  8
_0-3_躯体と製品
  6
CONTINUOUS
 62
    3
 10
74.195373831002598
 20
329.34330026549884
 11
54.195373831002598
 21
329.34330026549884
  0
LINE
  8
_0-3_躯体と製品
  6
CONTINUOUS
 62
    3
 10
64.49537383100278
 20
331.34330026549884
 11
86.895373831002871
 21
331.34330026549884
  0
LINE
  8
_0-3_躯体と製品
  6
CONTINUOUS
 62
    3
 10
60.195373831002598
 20
328.34330026549884
 11
60.195373831002598
 21
320.34330026549884
  0
LINE
  8
_0-3_躯体と製品
  6
CONTINUOUS
 62
    3
 10
68.195373831002598
 20
328.34330026549884
 11
68.195373831002598
 21
320.34330026549884
  0
LINE
  8
_0-3_躯体と製品
  6
CONTINUOUS
 62
    3
 10
59.467466831002639
 20
306.54566226549895
 11
61.412389831002656
 21
305.44236126549885
  0
LINE
  8
_0-3_躯体と製品
  6
CONTINUOUS
 62
    3
 10
68.923280831002558
 20
306.54566226549895
 11
66.97835783100254
 21
305.44236126549885
  0
LINE
  8
_0-3_躯体と製品
  6
CONTINUOUS
 62
    3
 10
62.177630831002716
 20
291.38304426549888
 11
58.682427831002769
 21
291.56621926549889
  0
LINE
  8
_0-3_躯体と製品
  6
CONTINUOUS
 62
    3
 10
58.787099831003616
 20
293.56347826549887
 11
58.682427831002769
 21
291.56621926549889
  0
LINE
  8
_0-3_躯体と製品
  6
CONTINUOUS
 62
    3
 10
60.784358831002919
 20
293.45880726549893
 11
58.787099831003616
 21
293.56347826549887
  0
LINE
  8
_0-3_躯体と製品
  6
CONTINUOUS
 62
    3
 10
60.889030831002856
 20
295.45606626549892
 11
60.784358831002919
 21
293.45880726549893
  0
LINE
  8
_0-3_躯体と製品
  6
CONTINUOUS
 62
    3
 10
58.944107831002839
 20
296.55936726549902
 11
60.889030831002856
 21
295.45606626549892
  0
LINE
  8
_0-3_躯体と製品
  6
CONTINUOUS
 62
    3
 10
59.048779831002776
 20
298.55662626549889
 11
58.944107831002839
 21
296.55936726549902
  0
LINE
  8
_0-3_躯体と製品
  6
CONTINUOUS
 62
    3
 10
61.046038831002534
 20
298.45195426549896
 11
59.048779831002776
 21
298.55662626549889
  0
LINE
  8
_0-3_躯体と製品
  6
CONTINUOUS
 62
    3
 10
61.150710831002925
 20
300.44921326549894
 11
61.046038831002534
 21
298.45195426549896
  0
LINE
  8
_0-3_躯体と製品
  6
CONTINUOUS
 62
    3
 10
59.205786831003934
 20
301.55251526549893
 11
61.150710831002925
 21
300.44921326549894
  0
LINE
  8
_0-3_躯体と製品
  6
CONTINUOUS
 62
    3
 10
59.310458831002961
 20
303.54977426549891
 11
59.205786831003934
 21
301.55251526549893
  0
LINE
  8
_0-3_躯体と製品
  6
CONTINUOUS
 62
    3
 10
61.307717831002719
 20
303.44510226549886
 11
59.310458831002961
 21
303.54977426549891
  0
LINE
  8
_0-3_躯体と製品
  6
CONTINUOUS
 62
    3
 10
61.412389831002656
 20
305.44236126549885
 11
61.307717831002719
 21
303.44510226549886
  0
LINE
  8
_0-3_躯体と製品
  6
CONTINUOUS
 62
    3
 10
62.325929831002668
 20
294.21274426549888
 11
64.195373831002598
 21
292.34330026549895
  0
LINE
  8
_0-3_躯体と製品
  6
CONTINUOUS
 62
    3
 10
69.603647831003855
 20
293.56347826549887
 11
69.708319831002882
 21
291.56621926549889
  0
LINE
  8
_0-3_躯体と製品
  6
CONTINUOUS
 62
    3
 10
67.606388831002732
 20
293.45880726549893
 11
69.603647831003855
 21
293.56347826549887
  0
LINE
  8
_0-3_躯体と製品
  6
CONTINUOUS
 62
    3
 10
67.501716831002796
 20
295.45606626549892
 11
67.606388831002732
 21
293.45880726549893
  0
LINE
  8
_0-3_躯体と製品
  6
CONTINUOUS
 62
    3
 10
69.446639831002813
 20
296.55936726549902
 11
67.501716831002796
 21
295.45606626549892
  0
LINE
  8
_0-3_躯体と製品
  6
CONTINUOUS
 62
    3
 10
69.341967831002876
 20
298.55662626549889
 11
69.446639831002813
 21
296.55936726549902
  0
LINE
  8
_0-3_躯体と製品
  6
CONTINUOUS
 62
    3
 10
67.344708831002663
 20
298.45195426549896
 11
69.341967831002876
 21
298.55662626549889
  0
LINE
  8
_0-3_躯体と製品
  6
CONTINUOUS
 62
    3
 10
67.240036831002726
 20
300.44921326549894
 11
67.344708831002663
 21
298.45195426549896
  0
LINE
  8
_0-3_躯体と製品
  6
CONTINUOUS
 62
    3
 10
69.184960831003536
 20
301.55251526549893
 11
67.240036831002726
 21
300.44921326549894
  0
LINE
  8
_0-3_躯体と製品
  6
CONTINUOUS
 62
    3
 10
69.08028883100269
 20
303.54977426549891
 11
69.184960831003536
 21
301.55251526549893
  0
LINE
  8
_0-3_躯体と製品
  6
CONTINUOUS
 62
    3
 10
67.083029831002932
 20
303.44510226549886
 11
69.08028883100269
 21
303.54977426549891
  0
LINE
  8
_0-3_躯体と製品
  6
CONTINUOUS
 62
    3
 10
66.97835783100254
 20
305.44236126549885
 11
67.083029831002932
 21
303.44510226549886
  0
LINE
  8
_0-3_躯体と製品
  6
CONTINUOUS
 62
    3
 10
66.064817831002529
 20
294.21274426549888
 11
64.195373831002598
 21
292.34330026549895
  0
LINE
  8
_0-3_躯体と製品
  6
CONTINUOUS
 62
    3
 10
66.213116831002935
 20
291.38304426549888
 11
69.708319831002882
 21
291.56621926549889
  0
LINE
  8
_0-3_躯体と製品
  6
CONTINUOUS
 62
    3
 10
61.674069831002726
 20
310.43550926549887
 11
61.569397831002789
 21
308.43825026549888
  0
LINE
  8
_0-3_躯体と製品
  6
CONTINUOUS
 62
    3
 10
59.729146831002708
 20
311.53881026549885
 11
61.674069831002726
 21
310.43550926549887
  0
LINE
  8
_0-3_躯体と製品
  6
CONTINUOUS
 62
    3
 10
61.831077831002858
 20
313.4313972654989
 11
59.833818831002645
 21
313.53606926549884
  0
LINE
  8
_0-3_躯体と製品
  6
CONTINUOUS
 62
    3
 10
60.195373831002598
 20
316.34330026549884
 11
61.935749831002795
 21
315.42865626549889
  0
LINE
  8
_0-3_躯体と製品
  6
CONTINUOUS
 62
    3
 10
59.572138831002576
 20
308.54292126549893
 11
59.467466831002639
 21
306.54566226549895
  0
LINE
  8
_0-3_躯体と製品
  6
CONTINUOUS
 62
    3
 10
61.569397831002789
 20
308.43825026549888
 11
59.572138831002576
 21
308.54292126549893
  0
LINE
  8
_0-3_躯体と製品
  6
CONTINUOUS
 62
    3
 10
59.833818831002645
 20
313.53606926549884
 11
59.729146831002708
 21
311.53881026549885
  0
LINE
  8
_0-3_躯体と製品
  6
CONTINUOUS
 62
    3
 10
59.572138831002576
 20
308.54292126549893
 11
57.876772831003564
 21
313.20090126549889
  0
LINE
  8
_0-3_躯体と製品
  6
CONTINUOUS
 62
    3
 10
60.636316831002659
 20
308.54292126549893
 11
58.816465831002915
 21
313.54292126549893
  0
LINE
  8
_0-3_躯体と製品
  6
CONTINUOUS
 62
    3
 10
60.195373831002598
 20
316.34330026549884
 11
60.195373831002598
 21
320.34330026549884
  0
LINE
  8
_0-3_躯体と製品
  6
CONTINUOUS
 62
    3
 10
57.873033831002886
 20
320.14694226549892
 11
58.816465831002915
 21
313.54292126549893
  0
ARC
  8
_0-3_躯体と製品
  6
CONTINUOUS
 62
    3
 10
57.477053831003559
 20
320.09037326549884
 40
0.4
 50
8.1301019999918065
 51
98.130101999984902
  0
LINE
  8
_0-3_躯体と製品
  6
CONTINUOUS
 62
    3
 10
57.22366083100269
 20
320.4582352654989
 11
57.420485831002679
 21
320.48635326549885
  0
ARC
  8
_0-3_躯体と製品
  6
CONTINUOUS
 62
    3
 10
57.280229831002544
 20
320.06225526549889
 40
0.4
 50
98.130101999984902
 51
188.29846599999979
  0
LINE
  8
_0-3_躯体と製品
  6
CONTINUOUS
 62
    3
 10
57.876772831003564
 20
313.20090126549889
 11
56.884417831002793
 21
320.0045232654989
  0
LINE
  8
_0-3_躯体と製品
  6
CONTINUOUS
 62
    3
 10
57.873033831002886
 20
320.14694226549892
 11
58.816465831002915
 21
313.54292126549893
  0
ARC
  8
_0-3_躯体と製品
  6
CONTINUOUS
 62
    3
 10
57.477053831003559
 20
320.09037326549884
 40
0.4
 50
8.1301019999918065
 51
98.130101999984902
  0
LINE
  8
_0-3_躯体と製品
  6
CONTINUOUS
 62
    3
 10
57.22366083100269
 20
320.4582352654989
 11
57.420485831002679
 21
320.48635326549885
  0
ARC
  8
_0-3_躯体と製品
  6
CONTINUOUS
 62
    3
 10
57.280229831002544
 20
320.06225526549889
 40
0.4
 50
98.130101999984902
 51
188.29846599999979
  0
LINE
  8
_0-3_躯体と製品
  6
CONTINUOUS
 62
    3
 10
57.876772831003564
 20
313.20090126549889
 11
56.884417831002793
 21
320.0045232654989
  0
LINE
  8
_0-3_躯体と製品
  6
CONTINUOUS
 62
    3
 10
63.695373831002598
 20
320.34330026549884
 11
64.195373831002598
 21
320.34330026549884
  0
LINE
  8
_0-3_躯体と製品
  6
CONTINUOUS
 62
    3
 10
64.695373831003963
 20
320.34330026549884
 11
64.195373831002598
 21
320.34330026549884
  0
LINE
  8
_0-3_躯体と製品
  6
CONTINUOUS
 62
    3
 10
61.935749831002795
 20
315.42865626549889
 11
61.831077831002858
 21
313.4313972654989
  0
LINE
  8
_0-3_躯体と製品
  6
CONTINUOUS
 62
    3
 10
68.818608831002621
 20
308.54292126549893
 11
68.923280831002558
 21
306.54566226549895
  0
LINE
  8
_0-3_躯体と製品
  6
CONTINUOUS
 62
    3
 10
66.821349831002863
 20
308.43825026549888
 11
68.818608831002621
 21
308.54292126549893
  0
LINE
  8
_0-3_躯体と製品
  6
CONTINUOUS
 62
    3
 10
66.716677831002926
 20
310.43550926549887
 11
66.821349831002863
 21
308.43825026549888
  0
LINE
  8
_0-3_躯体と製品
  6
CONTINUOUS
 62
    3
 10
68.661600831002943
 20
311.53881026549885
 11
66.716677831002926
 21
310.43550926549887
  0
LINE
  8
_0-3_躯体と製品
  6
CONTINUOUS
 62
    3
 10
68.556928831002551
 20
313.53606926549884
 11
68.661600831002943
 21
311.53881026549885
  0
LINE
  8
_0-3_躯体と製品
  6
CONTINUOUS
 62
    3
 10
66.559669831002793
 20
313.4313972654989
 11
68.556928831002551
 21
313.53606926549884
  0
LINE
  8
_0-3_躯体と製品
  6
CONTINUOUS
 62
    3
 10
66.454997831003766
 20
315.42865626549889
 11
66.559669831002793
 21
313.4313972654989
  0
LINE
  8
_0-3_躯体と製品
  6
CONTINUOUS
 62
    3
 10
68.195373831002598
 20
316.34330026549884
 11
66.454997831003766
 21
315.42865626549889
  0
LINE
  8
_0-3_躯体と製品
  6
CONTINUOUS
 62
    3
 10
68.818608831002621
 20
308.54292126549893
 11
70.513974831002542
 21
313.20090126549889
  0
LINE
  8
_0-3_躯体と製品
  6
CONTINUOUS
 62
    3
 10
67.754430831002537
 20
308.54292126549893
 11
69.574281831002736
 21
313.54292126549893
  0
LINE
  8
_0-3_躯体と製品
  6
CONTINUOUS
 62
    3
 10
68.195373831002598
 20
316.34330026549884
 11
68.195373831002598
 21
320.34330026549884
  0
LINE
  8
_0-3_躯体と製品
  6
CONTINUOUS
 62
    3
 10
70.517713831002766
 20
320.14694226549892
 11
69.574281831002736
 21
313.54292126549893
  0
ARC
  8
_0-3_躯体と製品
  6
CONTINUOUS
 62
    3
 10
70.913692831002663
 20
320.09037326549884
 40
0.4
 50
81.869898000015098
 51
171.86989799999853
  0
LINE
  8
_0-3_躯体と製品
  6
CONTINUOUS
 62
    3
 10
71.167086831002962
 20
320.4582352654989
 11
70.970261831003882
 21
320.48635326549885
  0
ARC
  8
_0-3_躯体と製品
  6
CONTINUOUS
 62
    3
 10
71.110517831003563
 20
320.06225526549889
 40
0.4
 50
351.7015339999968
 51
81.869898000015112
  0
LINE
  8
_0-3_躯体と製品
  6
CONTINUOUS
 62
    3
 10
70.513974831002542
 20
313.20090126549889
 11
71.506329831002859
 21
320.0045232654989
  0
LINE
  8
_0-3_躯体と製品
  6
CONTINUOUS
 62
    3
 10
54.195373831002598
 20
329.84330026549884
 11
38.195373831002598
 21
329.84330026549884
  0
LINE
  8
_0-3_躯体と製品
  6
CONTINUOUS
 62
    3
 10
32.695373831003735
 20
338.09330026549884
 11
32.695373831003735
 21
339.84330026549884
  0
LINE
  8
_0-3_躯体と製品
  6
CONTINUOUS
 62
    3
 10
34.195373831003735
 20
338.09330026549884
 11
34.195373831003735
 21
341.44330026549886
  0
LINE
  8
_0-3_躯体と製品
  6
CONTINUOUS
 62
    3
 10
38.195373831002598
 20
329.34330026549884
 11
36.695373831002598
 21
329.34330026549884
  0
LINE
  8
_0-3_躯体と製品
  6
CONTINUOUS
 62
    3
 10
36.695373831002598
 20
329.84330026549884
 11
36.695373831002598
 21
329.34330026549884
  0
LINE
  8
_0-3_躯体と製品
  6
CONTINUOUS
 62
    3
 10
38.195373831002598
 20
329.84330026549884
 11
38.195373831002598
 21
329.34330026549884
  0
ARC
  8
_0-3_躯体と製品
  6
CONTINUOUS
 62
    3
 10
33.445373831003735
 20
338.09330026549884
 40
0.75
 50
180
 51
0
  0
LINE
  8
_0-3_躯体と製品
  6
CONTINUOUS
 62
    3
 10
29.195373831002826
 20
341.64330026549891
 11
29.49537383100278
 21
341.94330026549886
  0
LINE
  8
_0-3_躯体と製品
  6
CONTINUOUS
 62
    3
 10
29.195373831002826
 20
341.64330026549891
 11
28.895373831003781
 21
341.94330026549886
  0
ARC
  8
_0-3_躯体と製品
  6
CONTINUOUS
 62
    3
 10
32.195373831002826
 20
339.84330026549884
 40
0.5
 50
0
 51
90
  0
LINE
  8
_0-3_躯体と製品
  6
CONTINUOUS
 62
    3
 10
29.49537383100278
 20
341.94330026549886
 11
33.695373831002826
 21
341.94330026549886
  0
ARC
  8
_0-3_躯体と製品
  6
CONTINUOUS
 62
    3
 10
33.695373831002826
 20
341.44330026549886
 40
0.5
 50
0
 51
90
  0
LINE
  8
_0-3_躯体と製品
  6
CONTINUOUS
 62
    3
 10
73.195373831002598
 20
331.34330026549884
 11
55.195373831003963
 21
331.34330026549884
  0
LINE
  8
_0-3_躯体と製品
  6
CONTINUOUS
 62
    3
 10
73.195373831002598
 20
332.84330026549884
 11
55.195373831003963
 21
332.84330026549884
  0
ARC
  8
_0-3_躯体と製品
  6
CONTINUOUS
 62
    3
 10
64.195373831002598
 20
324.14330026549891
 40
12
 50
74.506032000000928
 51
105.493967999999
  0
LINE
  8
_0-3_躯体と製品
  6
CONTINUOUS
 62
    3
 10
69.195373831003963
 20
328.34330026549884
 11
59.195373831003963
 21
328.34330026549884
  0
LINE
  8
_0-3_躯体と製品
  6
CONTINUOUS
 62
    3
 10
55.195373831003963
 20
332.84330026549884
 11
55.195373831003963
 21
331.34330026549884
  0
ARC
  8
_0-3_躯体と製品
  6
CONTINUOUS
 62
    3
 10
61.417149831002916
 20
334.16534926549895
 40
1.6000000000000001
 50
105.493967999999
 51
175.00000000000051
  0
LINE
  8
_0-3_躯体と製品
  6
CONTINUOUS
 62
    3
 10
59.823238831002527
 20
334.30479926549884
 11
59.695373831002598
 21
332.84330026549884
  0
LINE
  8
_0-3_躯体と製品
  6
CONTINUOUS
 62
    3
 10
59.195373831003963
 20
328.34330026549884
 11
60.195373831002598
 21
323.34330026549884
  0
LINE
  8
_0-3_躯体と製品
  6
CONTINUOUS
 62
    3
 10
54.195373831002598
 20
329.84330026549884
 11
54.195373831002598
 21
329.34330026549884
  0
LINE
  8
_0-3_躯体と製品
  6
CONTINUOUS
 62
    3
 10
73.195373831002598
 20
332.84330026549884
 11
73.195373831002598
 21
331.34330026549884
  0
ARC
  8
_0-3_躯体と製品
  6
CONTINUOUS
 62
    3
 10
66.973597831002735
 20
334.16534926549895
 40
1.6000000000000001
 50
5.0000000000059481
 51
74.506032000000914
  0
LINE
  8
_0-3_躯体と製品
  6
CONTINUOUS
 62
    3
 10
68.567508831003579
 20
334.30479926549884
 11
68.695373831002598
 21
332.84330026549884
  0
LINE
  8
_0-3_躯体と製品
  6
CONTINUOUS
 62
    3
 10
64.195373831002598
 20
323.34330026549884
 11
64.195373831002598
 21
328.34330026549884
  0
LINE
  8
_0-3_躯体と製品
  6
CONTINUOUS
 62
    3
 10
63.195373831003963
 20
328.34330026549884
 11
64.195373831002598
 21
323.34330026549884
  0
LINE
  8
_0-3_躯体と製品
  6
CONTINUOUS
 62
    3
 10
65.195373831002598
 20
328.34330026549884
 11
64.195373831002598
 21
323.34330026549884
  0
LINE
  8
_0-3_躯体と製品
  6
CONTINUOUS
 62
    3
 10
69.195373831003963
 20
328.34330026549884
 11
68.195373831002598
 21
323.34330026549884
  0
LINE
  8
_0-3_躯体と製品
  6
CONTINUOUS
 62
    3
 10
64.195373831002598
 20
331.04330026549889
 11
63.895373831002871
 21
331.34330026549884
  0
LINE
  8
_0-3_躯体と製品
  6
CONTINUOUS
 62
    3
 10
64.195373831002598
 20
331.04330026549889
 11
64.49537383100278
 21
331.34330026549884
  0
LINE
  8
_0-3_躯体と製品
  6
CONTINUOUS
 62
    3
 10
97.74210283100274
 20
337.78185226549891
 11
91.195373831003963
 21
344.32858126549888
  0
LINE
  8
_0-3_躯体と製品
  6
CONTINUOUS
 62
    3
 10
97.807995831003609
 20
333.4733192654989
 11
91.195373831003963
 21
340.08594126549889
  0
LINE
  8
_0-3_躯体と製品
  6
CONTINUOUS
 62
    3
 10
91.195373831003963
 20
337.81386326549892
 11
96.547253831002763
 21
343.16574326549886
  0
LINE
  8
_0-3_躯体と製品
  6
CONTINUOUS
 62
    3
 10
91.195373831003963
 20
333.57122226549888
 11
97.996758831002808
 21
340.37260726549886
  0
LINE
  8
_0-3_躯体と製品
  6
CONTINUOUS
 62
    3
 10
98.691774831002931
 20
328.34330026549884
 11
91.195373831003963
 21
335.83963826549888
  0
LINE
  8
_0-3_躯体と製品
  6
CONTINUOUS
 62
    3
 10
94.452732831002777
 20
328.34330026549884
 11
97.987725831002535
 21
331.87829326549894
  0
LINE
  8
_0-3_躯体と製品
  6
CONTINUOUS
 62
    3
 10
91.195373831003963
 20
329.32858126549894
 11
97.69651183100359
 21
335.82971926549891
  0
LINE
  8
_0-3_躯体と製品
  6
CONTINUOUS
 62
    3
 10
96.945373831002598
 20
346.84330026549873
 11
83.49537383100278
 21
346.84330026549873
  0
ARC
  8
_0-3_躯体と製品
  6
CONTINUOUS
 62
    3
 10
96.49537383100278
 20
344.04330026549883
 40
0.2999999999999998
 50
90
 51
180
  0
ARC
  8
_0-3_躯体と製品
  6
CONTINUOUS
 62
    3
 10
96.695373831003963
 20
343.64330026549891
 40
0.5
 50
180
 51
270
  0
LINE
  8
_0-3_躯体と製品
  6
CONTINUOUS
 62
    3
 10
83.49537383100278
 20
346.84330026549873
 11
97.395373831002871
 21
346.84330026549873
  0
LINE
  8
_0-3_躯体と製品
  6
CONTINUOUS
 62
    3
 10
96.945373831002598
 20
346.84330026549873
 11
77.195373831002598
 21
346.84330026549873
  0
LINE
  8
_0-3_躯体と製品
  6
CONTINUOUS
 62
    3
 10
96.945373831002598
 20
345.34330026549873
 11
89.695373831002598
 21
345.34330026549873
  0
LINE
  8
_0-3_躯体と製品
  6
CONTINUOUS
 62
    3
 10
91.195373831003963
 20
345.34330026549873
 11
89.195373831002598
 21
328.34330026549884
  0
LINE
  8
_0-3_躯体と製品
  6
CONTINUOUS
 62
    3
 10
91.195373831003963
 20
345.34330026549873
 11
91.195373831003963
 21
328.34330026549884
  0
ARC
  8
_0-3_躯体と製品
  6
CONTINUOUS
 62
    3
 10
77.162961831002576
 20
336.31778426549891
 40
6.0552590000000013
 50
4.9787780000009105
 51
42.946200000000928
  0
LINE
  8
_0-3_躯体と製品
  6
CONTINUOUS
 62
    3
 10
81.595373831002689
 20
340.98911226549893
 11
81.595373831002689
 21
335.76706026549886
  0
LINE
  8
_0-3_躯体と製品
  6
CONTINUOUS
 62
    3
 10
84.795373831002962
 20
341.92985326549893
 11
84.795373831002962
 21
335.76706026549886
  0
LINE
  8
_0-3_躯体と製品
  6
CONTINUOUS
 62
    3
 10
87.395373831002871
 20
344.34330026549878
 11
87.395373831002871
 21
331.84330026549884
  0
LINE
  8
_0-3_躯体と製品
  6
CONTINUOUS
 62
    3
 10
89.195373831002598
 20
344.84330026549878
 11
89.195373831002598
 21
329.34330026549884
  0
ARC
  8
_0-3_躯体と製品
  6
CONTINUOUS
 62
    3
 10
83.170315831002881
 20
335.07863026549893
 40
1.7648479999999993
 50
22.959125000000391
 51
89.186456999996693
  0
LINE
  8
_0-3_躯体と製品
  6
CONTINUOUS
 62
    3
 10
87.695373831002598
 20
329.84330026549884
 11
74.195373831002598
 21
329.84330026549884
  0
LINE
  8
_0-3_躯体と製品
  6
CONTINUOUS
 62
    3
 10
83.195373831002598
 20
334.84330026549884
 11
81.595373831002689
 21
335.76706026549886
  0
LINE
  8
_0-3_躯体と製品
  6
CONTINUOUS
 62
    3
 10
83.195373831002598
 20
334.84330026549884
 11
84.795372831002624
 21
335.76706026549886
  0
LINE
  8
_0-3_躯体と製品
  6
CONTINUOUS
 62
    3
 10
83.195373831002598
 20
336.87954126549886
 11
83.195373831002598
 21
334.84330026549884
  0
LINE
  8
_0-3_躯体と製品
  6
CONTINUOUS
 62
    3
 10
74.195373831002598
 20
329.84330026549884
 11
74.195373831002598
 21
329.34330026549884
  0
LINE
  8
_0-3_躯体と製品
  6
CONTINUOUS
 62
    3
 10
89.195373831002598
 20
329.34330026549884
 11
89.195373831002598
 21
328.34330026549884
  0
LINE
  8
_0-3_躯体と製品
  6
CONTINUOUS
 62
    3
 10
94.452732831002777
 20
328.34330026549884
 11
91.195373831003963
 21
331.6006592654989
  0
LINE
  8
_0-3_躯体と製品
  6
CONTINUOUS
 62
    3
 10
87.695373831002598
 20
329.84330026549884
 11
87.695373831002598
 21
329.34330026549884
  0
LINE
  8
_0-3_躯体と製品
  6
CONTINUOUS
 62
    3
 10
89.195373831002598
 20
329.34330026549884
 11
87.695373831002598
 21
329.34330026549884
  0
ARC
  8
_0-3_躯体と製品
  6
CONTINUOUS
 62
    3
 10
86.895373831002871
 20
331.84330026549884
 40
0.5
 50
270
 51
0
  0
LINE
  8
_0-3_躯体と製品
  6
CONTINUOUS
 62
    3
 10
85.528706831003547
 20
347.99768826549882
 11
84.795373831002962
 21
347.57429726549879
  0
LINE
  8
_0-3_躯体と製品
  6
CONTINUOUS
 62
    3
 10
83.814251831002821
 20
348.34330026549873
 11
85.528706831003547
 21
347.99768826549882
  0
LINE
  8
_0-3_躯体と製品
  6
CONTINUOUS
 62
    3
 10
85.528706831003547
 20
346.11620626549887
 11
84.795373831002962
 21
346.53959626549886
  0
LINE
  8
_0-3_躯体と製品
  6
CONTINUOUS
 62
    3
 10
85.528706831003547
 20
346.11620626549887
 11
84.795373831002962
 21
345.69281626549889
  0
LINE
  8
_0-3_躯体と製品
  6
CONTINUOUS
 62
    3
 10
85.528706831003547
 20
346.11620626549887
 11
80.86204083100256
 21
347.05694726549888
  0
LINE
  8
_0-3_躯体と製品
  6
CONTINUOUS
 62
    3
 10
85.528706831003547
 20
344.23472526549887
 11
82.509789530802664
 21
344.84330026549878
  0
LINE
  8
_0-3_躯体と製品
  6
CONTINUOUS
 62
    3
 10
85.528706831003547
 20
342.35324326549886
 11
84.795373831002962
 21
342.7766332654989
  0
LINE
  8
_0-3_躯体と製品
  6
CONTINUOUS
 62
    3
 10
85.528706831003547
 20
342.35324326549886
 11
84.795373831002962
 21
341.92985326549893
  0
LINE
  8
_0-3_躯体と製品
  6
CONTINUOUS
 62
    3
 10
85.528706831003547
 20
342.35324326549886
 11
80.86204083100256
 21
343.29398426549886
  0
LINE
  8
_0-3_躯体と製品
  6
CONTINUOUS
 62
    3
 10
87.49365383100394
 20
350.84330826549888
 11
78.89729083100292
 21
350.84344626549887
  0
LINE
  8
_0-3_躯体と製品
  6
CONTINUOUS
 62
    3
 10
85.528706831003547
 20
344.23472526549887
 11
84.795373831002962
 21
344.65811526549885
  0
LINE
  8
_0-3_躯体と製品
  6
CONTINUOUS
 62
    3
 10
85.528706831003547
 20
344.23472526549887
 11
84.795373831002962
 21
343.81133426549889
  0
LINE
  8
_0-3_躯体と製品
  6
CONTINUOUS
 62
    3
 10
89.195373831002598
 20
349.34330026549878
 11
77.195373831002598
 21
349.34330026549878
  0
LINE
  8
_0-3_躯体と製品
  6
CONTINUOUS
 62
    3
 10
89.195373831002598
 20
350.09330026549878
 11
77.195373831002598
 21
350.09330026549878
  0
ARC
  8
_0-3_躯体と製品
  6
CONTINUOUS
 62
    3
 10
83.195373831002598
 20
347.75996726549886
 40
6.0833329999999988
 50
53.83135800000148
 51
126.16864199999851
  0
LINE
  8
_0-3_躯体と製品
  6
CONTINUOUS
 62
    3
 10
78.195373831003963
 20
344.84330026549878
 11
86.895373831002871
 21
344.84330026549878
  0
LINE
  8
_0-3_躯体と製品
  6
CONTINUOUS
 62
    3
 10
80.86204083100256
 20
345.17546526549887
 11
81.43736749420259
 21
344.84330026549878
  0
LINE
  8
_0-3_躯体と製品
  6
CONTINUOUS
 62
    3
 10
82.509789530802664
 20
344.84330026549878
 11
80.86204083100256
 21
345.17546526549887
  0
LINE
  8
_0-3_躯体と製品
  6
CONTINUOUS
 62
    3
 10
84.165453374602748
 20
344.84330026549878
 11
81.595373831002689
 21
345.59885626549885
  0
LINE
  8
_0-3_躯体と製品
  6
CONTINUOUS
 62
    3
 10
84.795373831002962
 20
345.69281626549889
 11
84.795373831002962
 21
344.84330026549878
  0
LINE
  8
_0-3_躯体と製品
  6
CONTINUOUS
 62
    3
 10
82.179553831002522
 20
348.34330026549873
 11
84.795373831002962
 21
347.57429726549879
  0
LINE
  8
_0-3_躯体と製品
  6
CONTINUOUS
 62
    3
 10
81.595373831002689
 20
347.48033726549886
 11
80.86204083100256
 21
347.05694726549888
  0
LINE
  8
_0-3_躯体と製品
  6
CONTINUOUS
 62
    3
 10
80.86204083100256
 20
347.05694726549888
 11
81.595373831002689
 21
346.63355726549878
  0
LINE
  8
_0-3_躯体と製品
  6
CONTINUOUS
 62
    3
 10
84.795373831002962
 20
346.53959626549886
 11
81.595373831002689
 21
347.48033726549886
  0
LINE
  8
_0-3_躯体と製品
  6
CONTINUOUS
 62
    3
 10
84.795373831002962
 20
345.69281626549889
 11
81.595373831002689
 21
346.63355726549878
  0
LINE
  8
_0-3_躯体と製品
  6
CONTINUOUS
 62
    3
 10
81.595373831002689
 20
348.34330026549873
 11
81.595373831002689
 21
347.48033726549886
  0
LINE
  8
_0-3_躯体と製品
  6
CONTINUOUS
 62
    3
 10
84.795373831002962
 20
347.57429726549879
 11
84.795373831002962
 21
346.53959626549886
  0
LINE
  8
_0-3_躯体と製品
  6
CONTINUOUS
 62
    3
 10
81.595373831002689
 20
345.59885626549885
 11
80.86204083100256
 21
345.17546526549887
  0
LINE
  8
_0-3_躯体と製品
  6
CONTINUOUS
 62
    3
 10
81.595373831002689
 20
345.59885626549885
 11
81.595373831002689
 21
346.63355726549878
  0
LINE
  8
_0-3_躯体と製品
  6
CONTINUOUS
 62
    3
 10
81.43736749420259
 20
344.84330026549878
 11
81.595373831002689
 21
344.75207526549889
  0
LINE
  8
_0-3_躯体と製品
  6
CONTINUOUS
 62
    3
 10
84.795373831002962
 20
344.65811526549885
 11
84.165453374602748
 21
344.84330026549878
  0
LINE
  8
_0-3_躯体と製品
  6
CONTINUOUS
 62
    3
 10
84.795373831002962
 20
344.84330026549878
 11
84.795373831002962
 21
344.65811526549885
  0
LINE
  8
_0-3_躯体と製品
  6
CONTINUOUS
 62
    3
 10
77.195373831002598
 20
350.09330026549878
 11
77.750137831002576
 21
350.48175026549887
  0
LINE
  8
_0-3_躯体と製品
  6
CONTINUOUS
 62
    3
 10
81.595373831002689
 20
341.8358932654989
 11
80.86204083100256
 21
341.41250226549886
  0
LINE
  8
_0-3_躯体と製品
  6
CONTINUOUS
 62
    3
 10
80.86204083100256
 20
341.41250226549886
 11
81.595373831002689
 21
340.98911226549893
  0
LINE
  8
_0-3_躯体と製品
  6
CONTINUOUS
 62
    3
 10
83.195373831002598
 20
340.94213226549886
 11
80.86204083100256
 21
341.41250226549886
  0
LINE
  8
_0-3_躯体と製品
  6
CONTINUOUS
 62
    3
 10
81.595373831002689
 20
343.71737426549885
 11
80.86204083100256
 21
343.29398426549886
  0
LINE
  8
_0-3_躯体と製品
  6
CONTINUOUS
 62
    3
 10
80.86204083100256
 20
343.29398426549886
 11
81.595373831002689
 21
342.87059426549894
  0
LINE
  8
_0-3_躯体と製品
  6
CONTINUOUS
 62
    3
 10
84.795373831002962
 20
342.7766332654989
 11
81.595373831002689
 21
343.71737426549885
  0
LINE
  8
_0-3_躯体と製品
  6
CONTINUOUS
 62
    3
 10
84.795373831002962
 20
341.92985326549893
 11
81.595373831002689
 21
342.87059426549894
  0
LINE
  8
_0-3_躯体と製品
  6
CONTINUOUS
 62
    3
 10
81.595373831002689
 20
340.44330026549886
 11
84.795358831002886
 21
340.44330026549886
  0
LINE
  8
_0-3_躯体と製品
  6
CONTINUOUS
 62
    3
 10
79.195373831003963
 20
351.86365726549889
 11
79.195373831003963
 21
350.84330026549878
  0
ARC
  8
_0-3_躯体と製品
  6
CONTINUOUS
 62
    3
 10
78.89729083100292
 20
348.84344626549887
 40
2
 50
90
 51
124.99999999999731
  0
LINE
  8
_0-3_躯体と製品
  6
CONTINUOUS
 62
    3
 10
84.795373831002962
 20
343.81133426549889
 11
81.595373831002689
 21
344.75207526549889
  0
LINE
  8
_0-3_躯体と製品
  6
CONTINUOUS
 62
    3
 10
81.595373831002689
 20
342.87059426549894
 11
81.595373831002689
 21
341.8358932654989
  0
LINE
  8
_0-3_躯体と製品
  6
CONTINUOUS
 62
    3
 10
81.595373831002689
 20
344.75207526549889
 11
81.595373831002689
 21
343.71737426549885
  0
LINE
  8
_0-3_躯体と製品
  6
CONTINUOUS
 62
    3
 10
84.795373831002962
 20
343.81133426549889
 11
84.795373831002962
 21
342.7766332654989
  0
LINE
  8
_0-3_躯体と製品
  6
CONTINUOUS
 62
    3
 10
83.195373831002598
 20
340.94213226549886
 11
81.595373831002689
 21
341.8358932654989
  0
LINE
  8
_0-3_躯体と製品
  6
CONTINUOUS
 62
    3
 10
83.195373831002598
 20
340.94213226549886
 11
81.595373831002689
 21
340.98911226549893
  0
LINE
  8
_0-3_躯体と製品
  6
CONTINUOUS
 62
    3
 10
78.195373831003963
 20
349.34330026549878
 11
78.195373831003963
 21
348.34330026549873
  0
LINE
  8
_0-3_躯体と製品
  6
CONTINUOUS
 62
    3
 10
77.195373831002598
 20
350.09330026549878
 11
77.195373831002598
 21
349.34330026549878
  0
ARC
  8
_0-3_躯体と製品
  6
CONTINUOUS
 62
    3
 10
80.195373831002598
 20
351.86365726549889
 40
1
 50
126.16864199999851
 51
180
  0
LINE
  8
_0-3_躯体と製品
  6
CONTINUOUS
 62
    3
 10
83.195373831002598
 20
347.14330026549885
 11
82.895373831002871
 21
346.84330026549873
  0
LINE
  8
_0-3_躯体と製品
  6
CONTINUOUS
 62
    3
 10
83.195373831002598
 20
347.14330026549885
 11
83.49537383100278
 21
346.84330026549873
  0
LINE
  8
_0-3_躯体と製品
  6
CONTINUOUS
 62
    3
 10
77.195373831002598
 20
346.84330026549873
 11
77.195373831002598
 21
345.84330026549878
  0
ARC
  8
_0-3_躯体と製品
  6
CONTINUOUS
 62
    3
 10
78.195373831003963
 20
345.84330026549878
 40
1
 50
180
 51
270
  0
LINE
  8
_0-3_躯体と製品
  6
CONTINUOUS
 62
    3
 10
96.201532831002623
 20
343.56506326549885
 11
94.423295831002633
 21
345.34330026549873
  0
LINE
  8
_0-3_躯体と製品
  6
CONTINUOUS
 62
    3
 10
91.195373831003963
 20
342.05650326549886
 11
94.482170831002804
 21
345.34330026549873
  0
LINE
  8
_0-3_躯体と製品
  6
CONTINUOUS
 62
    3
 10
84.930088831003559
 20
348.34330026549873
 11
85.528706831003547
 21
347.99768826549882
  0
LINE
  8
_0-3_躯体と製品
  6
CONTINUOUS
 62
    3
 10
87.195373831003963
 20
351.86365726549889
 11
87.195373831003963
 21
350.84330026549878
  0
LINE
  8
_0-3_躯体と製品
  6
CONTINUOUS
 62
    3
 10
88.195373831002598
 20
349.34330026549878
 11
88.195373831002598
 21
348.34330026549873
  0
LINE
  8
_0-3_躯体と製品
  6
CONTINUOUS
 62
    3
 10
89.195373831002598
 20
350.09330026549878
 11
88.640806831002919
 21
350.48161226549882
  0
ARC
  8
_0-3_躯体と製品
  6
CONTINUOUS
 62
    3
 10
87.49365383100394
 20
348.84330826549888
 40
2
 50
54.999999999988248
 51
90
  0
LINE
  8
_0-3_躯体と製品
  6
CONTINUOUS
 62
    3
 10
89.195373831002598
 20
350.09330026549878
 11
89.195373831002598
 21
349.34330026549878
  0
ARC
  8
_0-3_躯体と製品
  6
CONTINUOUS
 62
    3
 10
86.195373831002598
 20
351.86365726549889
 40
1
 50
0
 51
53.83135799998329
  0
LINE
  8
_0-3_躯体と製品
  6
CONTINUOUS
 62
    3
 10
96.195373831002598
 20
343.64330026549891
 11
96.195373831002598
 21
344.04330026549883
  0
ARC
  8
_0-3_躯体と製品
  6
CONTINUOUS
 62
    3
 10
86.895373831002871
 20
344.34330026549878
 40
0.5
 50
0
 51
90
  0
ARC
  8
_0-3_躯体と製品
  6
CONTINUOUS
 62
    3
 10
89.695373831002598
 20
344.84330026549878
 40
0.5
 50
90
 51
180
  0
ARC
  8
_0-3_躯体と製品
  6
CONTINUOUS
 62
    3
 10
128.22662383100396
 20
336.09330026549884
 40
30.53125
 50
166.64929099999901
 51
194.70475899999954
  0
LINE
  8
_0-3_躯体と製品
  6
CONTINUOUS
 62
    3
 10
98.191521831002774
 20
341.57507526549892
 11
96.617136831002881
 21
343.14945926549893
  0
ARC
  8
_0-3_躯体と製品
  6
CONTINUOUS
 62
    3
 10
98.695373831002598
 20
347.84330026549878
 40
0.5
 50
0
 51
90
  0
LINE
  8
_0-3_躯体と製品
  6
CONTINUOUS
 62
    3
 10
97.695373831002598
 20
344.64330026549885
 11
97.695373831002598
 21
346.54330026549883
  0
ARC
  8
_0-3_躯体と製品
  6
CONTINUOUS
 62
    3
 10
97.395373831002871
 20
344.64330026549885
 40
0.2999999999999998
 50
270
 51
0
  0
LINE
  8
_0-3_躯体と製品
  6
CONTINUOUS
 62
    3
 10
96.49537383100278
 20
344.34330026549878
 11
97.395373831002871
 21
344.34330026549878
  0
LINE
  8
_0-3_躯体と製品
  6
CONTINUOUS
 62
    3
 10
98.695373831002598
 20
343.14330026549891
 11
96.695373831003963
 21
343.14330026549891
  0
LINE
  8
_0-3_躯体と製品
  6
CONTINUOUS
 62
    3
 10
99.195373831002598
 20
347.84330026549878
 11
99.195373831002598
 21
343.64330026549891
  0
ARC
  8
_0-3_躯体と製品
  6
CONTINUOUS
 62
    3
 10
98.695373831002598
 20
343.64330026549891
 40
0.5
 50
270
 51
0
  0
ARC
  8
_0-3_躯体と製品
  6
CONTINUOUS
 62
    3
 10
97.395373831002871
 20
346.54330026549883
 40
0.2999999999999998
 50
0
 51
90
  0
ARC
  8
_0-3_躯体と製品
  6
CONTINUOUS
 62
    3
 10
96.945373831002598
 20
346.09330026549873
 40
0.75
 50
270
 51
90
  0
LINE
  8
_0-4_図面枠
  6
CONTINUOUS
 62
    7
 10
791.98082508779771
 20
-253.49577341979875
 11
791.98082508779771
 21
550.49577341979875
  0
LINE
  8
_0-4_図面枠
  6
CONTINUOUS
 62
    7
 10
228.01917491220274
 20
550.49577341979875
 11
228.01917491220274
 21
-253.49577341979875
  0
TEXT
  8
_0-4_図面枠
 62
    7
 10
522.06878028329356
 20
-129.74362058852864
 40
6
 41
0.8000000000000003
 50
0
  1
外ジョイント材
  0
TEXT
  8
_0-4_図面枠
 62
    7
 10
522.64248031083162
 20
-145.80722135959223
 40
6
 41
0.8000000000000003
 50
0
  1
外ジョイント材
  0
TEXT
  8
_0-4_図面枠
 62
    7
 10
328.75244652826768
 20
-209.31403627569114
 40
6
 41
0.8000000000000001
 50
0
  1
注）　ガスケットＳＨはＳＳＨサイドプレート（Ｃ）Ａにセット済み。
  0
TEXT
  8
_0-4_図面枠
 62
    7
 10
524.95250802826786
 20
-166.71401677569105
 40
6
 41
0.7999999999999997
 50
0
  1
ｔ１．０×ｗ３０
  0
TEXT
  8
_0-4_図面枠
 62
    7
 10
524.95250802826786
 20
-94.714016775691164
 40
6
 41
0.7999999999999998
 50
0
  1
１．５×１８×５．５穴
  0
TEXT
  8
_0-4_図面枠
 62
    7
 10
524.95250802826786
 20
-58.714033275691122
 40
6
 41
0.7999999999999997
 50
0
  1
なべ５×５０
  0
TEXT
  8
_0-4_図面枠
 62
    7
 10
524.95247352826755
 20
-40.714033275691122
 40
6
 41
0.7999999999999994
 50
0
  1
フィッシャープラグＳ８
  0
TEXT
  8
_0-4_図面枠
 62
    7
 10
566.89661502826766
 20
63.685986224308948
 40
6
 41
0.7999999999999992
 50
0
  1
規　格
  0
LINE
  8
_0-4_図面枠
  6
CONTINUOUS
 62
    7
 10
756.17452457141871
 20
-185.30805639267714
 11
329.7245245714189
 21
-185.30805639267714
  0
LINE
  8
_0-4_図面枠
  6
CONTINUOUS
 62
    7
 10
756.17452457141871
 20
-167.30805639267714
 11
329.7245245714189
 21
-167.30805639267714
  0
LINE
  8
_0-4_図面枠
  6
CONTINUOUS
 62
    7
 10
756.17452457141871
 20
-149.30805639267714
 11
329.7245245714189
 21
-149.30805639267714
  0
LINE
  8
_0-4_図面枠
  6
CONTINUOUS
 62
    7
 10
756.17452457141871
 20
-131.30805639267714
 11
329.7245245714189
 21
-131.30805639267714
  0
LINE
  8
_0-4_図面枠
  6
CONTINUOUS
 62
    7
 10
756.17452457141871
 20
81.091943607322861
 11
329.7245245714189
 21
81.091943607322861
  0
LINE
  8
_0-4_図面枠
  6
CONTINUOUS
 62
    7
 10
756.17452457141871
 20
-41.308056392677258
 11
329.7245245714189
 21
-41.308056392677258
  0
LINE
  8
_0-4_図面枠
  6
CONTINUOUS
 62
    7
 10
756.17452457141871
 20
-23.308056392677258
 11
329.7245245714189
 21
-23.308056392677258
  0
LINE
  8
_0-4_図面枠
  6
CONTINUOUS
 62
    7
 10
756.17452457141871
 20
-5.30805639267723
 11
329.7245245714189
 21
-5.30805639267723
  0
LINE
  8
_0-4_図面枠
  6
CONTINUOUS
 62
    7
 10
756.17452457141871
 20
12.691943607322855
 11
329.7245245714189
 21
12.691943607322855
  0
LINE
  8
_0-4_図面枠
  6
CONTINUOUS
 62
    7
 10
756.17452457141871
 20
30.691943607322855
 11
329.7245245714189
 21
30.691943607322855
  0
LINE
  8
_0-4_図面枠
  6
CONTINUOUS
 62
    7
 10
756.17452457141871
 20
48.691943607322855
 11
329.7245245714189
 21
48.691943607322855
  0
LINE
  8
_0-4_図面枠
  6
CONTINUOUS
 62
    7
 10
756.17452457141871
 20
-59.308056392677258
 11
329.7245245714189
 21
-59.308056392677258
  0
LINE
  8
_0-4_図面枠
  6
CONTINUOUS
 62
    7
 10
756.17452457141871
 20
-95.308056392677145
 11
329.7245245714189
 21
-95.308056392677145
  0
LINE
  8
_0-4_図面枠
  6
CONTINUOUS
 62
    7
 10
756.17452457141871
 20
-77.308056392677258
 11
329.7245245714189
 21
-77.308056392677258
  0
LINE
  8
_0-4_図面枠
  6
CONTINUOUS
 62
    7
 10
756.17452457141871
 20
-113.30805639267714
 11
329.7245245714189
 21
-113.30805639267714
  0
LINE
  8
_0-3_躯体と製品
  6
CONTINUOUS
 62
    7
 10
504.65788032921864
 20
125.72037900772285
 11
594.61288032921857
 21
125.72037900772285
  0
LINE
  8
_0-3_躯体と製品
  6
CONTINUOUS
 62
    7
 10
504.65788032921864
 20
126.71987900772285
 11
594.61288032921857
 21
126.71987900772285
  0
TEXT
  8
_0-4_図面枠
 62
    7
 10
353.95245702826787
 20
-112.71401677569116
 40
6
 41
0.7999999999999997
 50
0
  1
ガスケットＳＨ
  0
TEXT
  8
_0-4_図面枠
 62
    7
 10
339.51293052826759
 20
-112.63137877569113
 40
6
 41
0.8000000000000012
 50
0
  1
９
  0
LINE
  8
_0-4_図面枠
  6
CONTINUOUS
 62
    7
 10
522.32452457141881
 20
-185.30805639267714
 11
522.32452457141881
 21
81.091943607322861
  0
LINE
  8
_0-4_図面枠
  6
CONTINUOUS
 62
    7
 10
351.32452457141881
 20
-185.30805639267714
 11
351.32452457141881
 21
81.091943607322861
  0
LINE
  8
_0-4_図面枠
  6
CONTINUOUS
 62
    7
 10
329.7245245714189
 20
-185.30805639267714
 11
329.7245245714189
 21
81.091943607322861
  0
TEXT
  8
_0-4_図面枠
 62
    7
 10
354.40351413994858
 20
-129.17699323137487
 40
6
 41
0.8000000000000001
 50
0
  1
サイドプレートジョイントカバー
  0
TEXT
  8
_0-4_図面枠
 62
    7
 10
353.6739337937347
 20
-148.87566257916274
 40
6
 41
0.8000000000000001
 50
0
  1
センタープレートジョイントカバー
  0
TEXT
  8
_0-4_図面枠
 62
    7
 10
353.95245702826787
 20
-184.71401677569116
 40
6
 41
0.7999999999999999
 50
0
  1
落下防止ワイヤー
  0
TEXT
  8
_0-4_図面枠
 62
    7
 10
353.95245702826787
 20
-166.71401677569105
 40
6
 41
0.8000000000000002
 50
0
  1
ブチルテープ
  0
TEXT
  8
_0-4_図面枠
 62
    7
 10
339.51293052826759
 20
-184.63136227569112
 40
6
 41
0.8000000000000012
 50
0
  1
※
  0
TEXT
  8
_0-4_図面枠
 62
    7
 10
339.51293052826759
 20
-166.63137877569113
 40
6
 41
0.8000000000000012
 50
0
  1
※
  0
TEXT
  8
_0-4_図面枠
 62
    7
 10
339.51293052826759
 20
-148.63137877569113
 40
6
 41
0.8000000000000012
 50
0
  1
※
  0
TEXT
  8
_0-4_図面枠
 62
    7
 10
339.51293052826759
 20
-130.63137877569113
 40
6
 41
0.8000000000000012
 50
0
  1
※
  0
TEXT
  8
_0-4_図面枠
 62
    7
 10
353.95245702826787
 20
13.28596672430885
 40
6
 41
0.7999999999999999
 50
0
  1
ＳＳＨセンタープレート（Ｃ）Ａ
  0
TEXT
  8
_0-4_図面枠
 62
    7
 10
353.95245702826787
 20
31.285966724308963
 40
6
 41
0.7999999999999999
 50
0
  1
ＳＳＨサイドプレート（Ｃ）Ａ
  0
TEXT
  8
_0-4_図面枠
 62
    7
 10
353.95245702826787
 20
-4.7140332756912358
 40
6
 41
0.8000000000000001
 50
0
  1
ＳＳＨフレーム（Ｃ）
  0
TEXT
  8
_0-4_図面枠
 62
    7
 10
353.95245702826787
 20
-94.714016775691164
 40
6
 41
0.7999999999999999
 50
0
  1
ステンワッシャー
  0
TEXT
  8
_0-4_図面枠
 62
    7
 10
353.95245702826787
 20
-76.714016775691164
 40
6
 41
0.8000000000000001
 50
0
  1
ステンセットシルタップ
  0
TEXT
  8
_0-4_図面枠
 62
    7
 10
353.95245702826787
 20
-58.714033275691122
 40
6
 41
0.7999999999999999
 50
0
  1
ステンタッピンねじ
  0
TEXT
  8
_0-4_図面枠
 62
    7
 10
353.95245702826787
 20
-40.714033275691122
 40
6
 41
0.7999999999999997
 50
0
  1
アンカープラグ
  0
TEXT
  8
_0-4_図面枠
 62
    7
 10
353.95245702826787
 20
-22.714033275691122
 40
6
 41
0.8000000000000001
 50
0
  1
止水補助板
  0
TEXT
  8
_0-5_文字-記号
 62
    7
 10
372.23645228606756
 20
141.12563712470896
 40
6
 41
0.7999999999999999
 50
0
  1
（落下防止ワイヤー）
  0
LINE
  8
_0-3_躯体と製品
  6
CONTINUOUS
 62
    7
 10
380.42157932921873
 20
130.15615700772275
 11
399.71038032921979
 21
126.71987900772285
  0
LINE
  8
_0-3_躯体と製品
  6
CONTINUOUS
 62
    7
 10
380.59687932921861
 20
131.14016500772286
 11
399.71038032921979
 21
127.73511500772275
  0
LINE
  8
_0-3_躯体と製品
  6
CONTINUOUS
 62
    7
 10
399.64580732921877
 20
126.73138200772286
 11
380.62250732921893
 21
122.32523800772286
  0
LINE
  8
_0-3_躯体と製品
  6
CONTINUOUS
 62
    7
 10
380.84803932921886
 20
121.35151600772275
 11
399.71038032921979
 21
125.72037900772285
  0
TEXT
  8
_0-4_図面枠
 62
    7
 10
339.51293052826759
 20
-40.631362275691117
 40
6
 41
0.8000000000000012
 50
0
  1
５
  0
TEXT
  8
_0-4_図面枠
 62
    7
 10
339.51293052826759
 20
-76.631378775691132
 40
6
 41
0.8000000000000012
 50
0
  1
７
  0
TEXT
  8
_0-4_図面枠
 62
    7
 10
339.51293052826759
 20
-94.631378775691132
 40
6
 41
0.8000000000000012
 50
0
  1
８
  0
TEXT
  8
_0-4_図面枠
 62
    7
 10
339.51293052826759
 20
-58.631362275691117
 40
6
 41
0.8000000000000012
 50
0
  1
６
  0
TEXT
  8
_0-4_図面枠
 62
    7
 10
339.51293052826759
 20
-22.63139677569103
 40
6
 41
0.8000000000000012
 50
0
  1
４
  0
TEXT
  8
_0-4_図面枠
 62
    7
 10
339.51293052826759
 20
-4.6313967756911438
 40
6
 41
0.8000000000000012
 50
0
  1
３
  0
TEXT
  8
_0-4_図面枠
 62
    7
 10
339.51293052826759
 20
13.368603224308856
 40
6
 41
0.8000000000000012
 50
0
  1
２
  0
TEXT
  8
_0-4_図面枠
 62
    7
 10
330.24363852826764
 20
31.36860322430897
 40
6
 41
0.8000000000000012
 50
0
  1
　１
  0
ARC
  8
_0-3_躯体と製品
  6
CONTINUOUS
 62
    7
 10
379.72038032921864
 20
126.22012900772286
 40
4.9974999999999987
 50
79.898790000005874
 51
283.04079499999443
  0
ARC
  8
_0-3_躯体と製品
  6
CONTINUOUS
 62
    7
 10
379.72038032921864
 20
126.22012900772286
 40
3.9980000000000002
 50
79.898790000005874
 51
283.04079499999443
  0
TEXT
  8
_0-4_図面枠
 62
    7
 10
524.95247352826755
 20
-76.714016775691164
 40
6
 41
0.8000000000000012
 50
0
  1
４×１３
  0
TEXT
  8
_0-4_図面枠
 62
    7
 10
524.95247352826755
 20
-22.714033275691122
 40
6
 41
0.8000000000000001
 50
0
  1
ＦＳ４００
  0
LINE
  8
_0-3_躯体と製品
  6
CONTINUOUS
 62
    7
 10
494.66288032921875
 20
125.72037900772285
 11
404.70788032921973
 21
125.72037900772285
  0
LINE
  8
_0-3_躯体と製品
  6
CONTINUOUS
 62
    7
 10
494.66288032921875
 20
126.71987900772285
 11
404.70788032921973
 21
126.71987900772285
  0
TEXT
  8
_0-4_図面枠
 62
    7
 10
412.17348852826763
 20
63.685986224308948
 40
6
 41
0.8000000000000001
 50
0
  1
部材名称
  0
LINE
  8
_0-3_躯体と製品
  6
CONTINUOUS
 62
    7
 10
399.71038032921979
 20
128.51897900772275
 11
399.71038032921979
 21
124.92077900772286
  0
LINE
  8
_0-3_躯体と製品
  6
CONTINUOUS
 62
    7
 10
404.70788032921973
 20
124.92077900772286
 11
404.70788032921973
 21
128.51897900772275
  0
LINE
  8
_0-3_躯体と製品
  6
CONTINUOUS
 62
    7
 10
399.71038032921979
 20
124.92077900772286
 11
404.70788032921973
 21
124.92077900772286
  0
LINE
  8
_0-3_躯体と製品
  6
CONTINUOUS
 62
    7
 10
408.22550532921878
 20
128.51897900772275
 11
408.22550532921878
 21
128.21912900772276
  0
LINE
  8
_0-3_躯体と製品
  6
CONTINUOUS
 62
    7
 10
407.22600532921979
 20
128.51897900772275
 11
408.22550532921878
 21
128.51897900772275
  0
LINE
  8
_0-3_躯体と製品
  6
CONTINUOUS
 62
    7
 10
407.22600532921979
 20
128.51897900772275
 11
407.22600532921979
 21
128.21912900772276
  0
ARC
  8
_0-3_躯体と製品
  6
CONTINUOUS
 62
    7
 10
406.72625532921984
 20
128.21912900772276
 40
0.49975
 50
270
 51
0
  0
LINE
  8
_0-3_躯体と製品
  6
CONTINUOUS
 62
    7
 10
404.70788032921973
 20
127.71937900772275
 11
406.72625532921984
 21
127.71937900772275
  0
ARC
  8
_0-3_躯体と製品
  6
CONTINUOUS
 62
    7
 10
406.72625532921984
 20
128.21912900772276
 40
1.4992499999999991
 50
270
 51
0
  0
LINE
  8
_0-3_躯体と製品
  6
CONTINUOUS
 62
    7
 10
404.70788032921973
 20
128.51897900772275
 11
399.71038032921979
 21
128.51897900772275
  0
TEXT
  8
_0-4_図面枠
 62
    7
 10
739.76780952826766
 20
-112.71401677569116
 40
6
 41
0.7999999999999952
 50
0
  1
本
  0
TEXT
  8
_0-4_図面枠
 62
    7
 10
716.83309902826795
 20
-112.56401977569112
 40
6
 41
0.7999999999999952
 50
0
  1
２
  0
LINE
  8
_0-4_図面枠
  6
CONTINUOUS
 62
    7
 10
650.57452457141881
 20
-185.30805639267714
 11
650.57452457141881
 21
81.091943607322861
  0
LINE
  8
_0-4_図面枠
  6
CONTINUOUS
 62
    7
 10
734.57452457141881
 20
-185.30805639267714
 11
734.57452457141881
 21
81.091943607322861
  0
LINE
  8
_0-4_図面枠
  6
CONTINUOUS
 62
    7
 10
653.57452457141881
 20
-185.30805639267714
 11
653.57452457141881
 21
81.091943607322861
  0
LINE
  8
_0-4_図面枠
  6
CONTINUOUS
 62
    7
 10
698.57452457141881
 20
-185.30805639267714
 11
698.57452457141881
 21
81.091943607322861
  0
LINE
  8
_0-4_図面枠
  6
CONTINUOUS
 62
    7
 10
756.17452457141871
 20
-185.30805639267714
 11
756.17452457141871
 21
81.091943607322861
  0
TEXT
  8
_0-4_図面枠
 62
    7
 10
655.23002716670089
 20
-112.81608447429352
 40
6
 41
0.8000000000000012
 50
0
  1
３１００
  0
TEXT
  8
_0-4_図面枠
 62
    7
 10
655.23002716670089
 20
-166.81606797429362
 40
6
 41
0.8000000000000012
 50
0
  1
６０００
  0
TEXT
  8
_0-4_図面枠
 62
    7
 10
716.83309902826795
 20
-184.56403627569114
 40
6
 41
0.7999999999999952
 50
0
  1
２
  0
TEXT
  8
_0-4_図面枠
 62
    7
 10
739.76780952826766
 20
-184.71401677569116
 40
6
 41
0.7999999999999952
 50
0
  1
本
  0
TEXT
  8
_0-4_図面枠
 62
    7
 10
716.83309902826795
 20
-130.56403627569114
 40
6
 41
0.7999999999999952
 50
0
  1
２
  0
TEXT
  8
_0-4_図面枠
 62
    7
 10
716.83309902826795
 20
-166.56403627569114
 40
6
 41
0.7999999999999952
 50
0
  1
１
  0
TEXT
  8
_0-4_図面枠
 62
    7
 10
716.83309902826795
 20
-148.56405277569104
 40
6
 41
0.7999999999999952
 50
0
  1
１
  0
TEXT
  8
_0-4_図面枠
 62
    7
 10
739.76780952826766
 20
-166.71401677569105
 40
6
 41
0.7999999999999952
 50
0
  1
巻
  0
TEXT
  8
_0-4_図面枠
 62
    7
 10
739.76780952826766
 20
-148.71403327569112
 40
6
 41
0.7999999999999952
 50
0
  1
〃
  0
TEXT
  8
_0-4_図面枠
 62
    7
 10
739.76780952826766
 20
-130.71403327569112
 40
6
 41
0.7999999999999952
 50
0
  1
個
  0
TEXT
  8
_0-4_図面枠
 62
    7
 10
655.23002716670089
 20
-4.8161009742936471
 40
6
 41
0.8000000000000012
 50
0
  1
３０００
  0
TEXT
  8
_0-4_図面枠
 62
    7
 10
655.23002716670089
 20
-22.816100974293533
 40
6
 41
0.8000000000000012
 50
0
  1
３１００
  0
TEXT
  8
_0-4_図面枠
 62
    7
 10
655.23002716670089
 20
13.183899025706353
 40
6
 41
0.8000000000000012
 50
0
  1
３０００
  0
TEXT
  8
_0-4_図面枠
 62
    7
 10
739.76780952826766
 20
-40.714067775691149
 40
6
 41
0.7999999999999952
 50
0
  1
本
  0
TEXT
  8
_0-4_図面枠
 62
    7
 10
707.56380702826891
 20
-40.564070775691164
 40
6
 41
0.7999999999999952
 50
0
  1
１２
  0
TEXT
  8
_0-4_図面枠
 62
    7
 10
707.56380702826891
 20
-94.564019775691122
 40
6
 41
0.7999999999999952
 50
0
  1
１２
  0
TEXT
  8
_0-4_図面枠
 62
    7
 10
707.56380702826891
 20
-76.564070775691164
 40
6
 41
0.7999999999999952
 50
0
  1
１６
  0
TEXT
  8
_0-4_図面枠
 62
    7
 10
707.56380702826891
 20
-58.564052775691039
 40
6
 41
0.7999999999999952
 50
0
  1
１２
  0
TEXT
  8
_0-4_図面枠
 62
    7
 10
739.76780952826766
 20
-76.714051275691133
 40
6
 41
0.7999999999999952
 50
0
  1
〃
  0
TEXT
  8
_0-4_図面枠
 62
    7
 10
739.76780952826766
 20
-94.714016775691164
 40
6
 41
0.7999999999999952
 50
0
  1
枚
  0
TEXT
  8
_0-4_図面枠
 62
    7
 10
739.76780952826766
 20
-58.714033275691122
 40
6
 41
0.7999999999999952
 50
0
  1
〃
  0
TEXT
  8
_0-4_図面枠
 62
    7
 10
716.83309902826795
 20
-4.5640707756911354
 40
6
 41
0.7999999999999952
 50
0
  1
２
  0
TEXT
  8
_0-4_図面枠
 62
    7
 10
716.83309902826795
 20
-22.564036275691137
 40
6
 41
0.7999999999999952
 50
0
  1
１
  0
TEXT
  8
_0-4_図面枠
 62
    7
 10
716.83309902826795
 20
13.435963724308863
 40
6
 41
0.7999999999999952
 50
0
  1
１
  0
TEXT
  8
_0-4_図面枠
 62
    7
 10
739.76780952826766
 20
-22.714033275691122
 40
6
 41
0.7999999999999952
 50
0
  1
枚
  0
TEXT
  8
_0-4_図面枠
 62
    7
 10
739.76780952826766
 20
-4.7140332756912358
 40
6
 41
0.7999999999999952
 50
0
  1
〃
  0
TEXT
  8
_0-4_図面枠
 62
    7
 10
739.76780952826766
 20
13.28596672430885
 40
6
 41
0.7999999999999952
 50
0
  1
〃
  0
TEXT
  8
_0-4_図面枠
 62
    7
 10
655.23002716670089
 20
31.183899025706467
 40
6
 41
0.8000000000000012
 50
0
  1
３０００
  0
TEXT
  8
_0-4_図面枠
 62
    7
 10
653.7830770282676
 20
49.285966724308963
 40
6
 41
0.8000000000000012
 50
0
  1
（ｍｍ）
  0
TEXT
  8
_0-4_図面枠
 62
    7
 10
660.27158202826786
 20
63.685986224308948
 40
6
 41
0.8000000000000032
 50
0
  1
定　尺
  0
ARC
  8
_0-3_躯体と製品
  6
CONTINUOUS
 62
    7
 10
619.60038032921966
 20
126.22012900772286
 40
4.9974999999999987
 50
256.95920500000551
 51
108.02159900000154
  0
ARC
  8
_0-3_躯体と製品
  6
CONTINUOUS
 62
    7
 10
619.60038032921966
 20
126.22012900772286
 40
3.9980000000000002
 50
256.95920500000551
 51
110.01038099999663
  0
LINE
  8
_0-3_躯体と製品
  6
CONTINUOUS
 62
    7
 10
599.61038032921897
 20
128.51897900772275
 11
599.61038032921897
 21
124.92077900772286
  0
LINE
  8
_0-3_躯体と製品
  6
CONTINUOUS
 62
    7
 10
594.61288032921857
 20
124.92077900772286
 11
594.61288032921857
 21
128.51897900772275
  0
LINE
  8
_0-3_躯体と製品
  6
CONTINUOUS
 62
    7
 10
599.67495332921862
 20
126.73138200772286
 11
618.69825232921858
 21
122.32523800772286
  0
LINE
  8
_0-3_躯体と製品
  6
CONTINUOUS
 62
    7
 10
618.47272032921865
 20
121.35151600772275
 11
599.61038032921897
 21
125.72037900772285
  0
LINE
  8
_0-3_躯体と製品
  6
CONTINUOUS
 62
    7
 10
599.61038032921897
 20
124.92077900772286
 11
594.61288032921857
 21
124.92077900772286
  0
LINE
  8
_0-3_躯体と製品
  6
CONTINUOUS
 62
    7
 10
618.89918032921878
 20
130.15615700772275
 11
599.61038032921897
 21
126.71987900772285
  0
LINE
  8
_0-3_躯体と製品
  6
CONTINUOUS
 62
    7
 10
618.72388132921878
 20
131.14016500772286
 11
599.61038032921897
 21
127.73511500772275
  0
LINE
  8
_0-3_躯体と製品
  6
CONTINUOUS
 62
    7
 10
594.61288032921857
 20
128.51897900772275
 11
599.61038032921897
 21
128.51897900772275
  0
LINE
  8
_0-3_躯体と製品
  6
CONTINUOUS
 62
    7
 10
591.09525532921862
 20
128.51897900772275
 11
591.09525532921862
 21
128.21912900772276
  0
LINE
  8
_0-3_躯体と製品
  6
CONTINUOUS
 62
    7
 10
592.09475532921897
 20
128.51897900772275
 11
591.09525532921862
 21
128.51897900772275
  0
LINE
  8
_0-3_躯体と製品
  6
CONTINUOUS
 62
    7
 10
592.09475532921897
 20
128.51897900772275
 11
592.09475532921897
 21
128.21912900772276
  0
ARC
  8
_0-3_躯体と製品
  6
CONTINUOUS
 62
    7
 10
592.59450532921892
 20
128.21912900772276
 40
0.49975
 50
180
 51
270
  0
LINE
  8
_0-3_躯体と製品
  6
CONTINUOUS
 62
    7
 10
594.61288032921857
 20
127.71937900772275
 11
592.59450532921892
 21
127.71937900772275
  0
ARC
  8
_0-3_躯体と製品
  6
CONTINUOUS
 62
    7
 10
592.59450532921892
 20
128.21912900772276
 40
1.4992499999999991
 50
180
 51
270
  0
TEXT
  8
_0-4_図面枠
 62
    7
 10
716.83309902826795
 20
31.435929224308865
 40
6
 41
0.7999999999999952
 50
0
  1
２
  0
TEXT
  8
_0-4_図面枠
 62
    7
 10
705.40622652826778
 20
49.285966724308963
 40
6
 41
0.8000000000000048
 50
0
  1
数量
  0
TEXT
  8
_0-4_図面枠
 62
    7
 10
705.40622652826778
 20
63.685986224308948
 40
6
 41
0.8000000000000048
 50
0
  1
使用
  0
TEXT
  8
_0-4_図面枠
 62
    7
 10
743.63711502826754
 20
74.485987724308956
 40
6
 41
0.7999999999999997
 50
-90
  1
単位
  0
TEXT
  8
_0-4_図面枠
 62
    7
 10
739.76780952826766
 20
31.285966724308963
 40
6
 41
0.7999999999999952
 50
0
  1
本
  0
TEXT
  8
_0-5_文字-記号
 62
    7
 10
579.0857566901459
 20
358.64410789239133
 40
6
 41
0.7999999999999952
 50
0
  1
2
  0
TEXT
  8
_0-4_図面枠
 62
    7
 10
298.75243452826771
 20
504.17412064445068
 40
6
 41
0.8000000000000001
 50
0
  1
◇外壁－外壁（２００ＳＳＨ－Ａ）　Ｓ＝１／３
  0
CIRCLE
  8
_0-5_文字-記号
  6
CONTINUOUS
 62
    3
 10
580.80193181981895
 20
362.29703467338408
 40
5
  0
ARC
  8
_0-3_躯体と製品
  6
CONTINUOUS
 62
    3
 10
571.14278848181993
 20
285.99991624348417
 40
37.5
 50
225.0000000000046
 51
314.9999999999954
  0
ARC
  8
_0-3_躯体と製品
  6
CONTINUOUS
 62
    3
 10
571.14278848181993
 20
286.99991624348417
 40
37.5
 50
225.0000000000046
 51
314.9999999999954
  0
LINE
  8
_0-3_躯体と製品
  6
CONTINUOUS
 62
    3
 10
669.14278848181857
 20
344.96690765448409
 11
572.39278848181857
 21
344.96690765448409
  0
LINE
  8
_0-3_躯体と製品
  6
CONTINUOUS
 62
    3
 10
571.14278848181993
 20
346.56690765448417
 11
665.84278848181884
 21
346.56690765448417
  0
TEXT
  8
_0-5_文字-記号
 62
    7
 10
263.24259609756473
 20
369.86519347863413
 40
6
 41
0.8000000000000001
 50
0
  1
コーキング処理(別途工事)
  0
LINE
  8
_0-5_文字-記号
  6
CONTINUOUS
 62
    3
 10
407.68288483671859
 20
341.50114065448423
 11
391.23689989471859
 21
369.98642215448405
  0
LINE
  8
_0-3_躯体と製品
  6
DASHED1
 62
    3
 10
376.14278848181857
 20
232.9669076544842
 11
471.14278848181857
 21
232.9669076544842
  0
LINE
  8
_0-3_躯体と製品
  6
CONTINUOUS
 62
    3
 10
376.14278848181857
 20
332.96690765448415
 11
471.14278848181857
 21
332.96690765448415
  0
LINE
  8
_0-3_躯体と製品
  6
DASHED1
 62
    3
 10
376.14278848181857
 20
332.96690765448415
 11
376.14278848181857
 21
232.9669076544842
  0
LINE
  8
_0-5_文字-記号
  6
CONTINUOUS
 62
    3
 10
391.23689989471859
 20
369.98642215448405
 11
256.73566653388889
 21
369.98642215448405
  0
LINE
  8
_0-3_躯体と製品
  6
CONTINUOUS
 62
    3
 10
396.14278848181993
 20
332.96690765448415
 11
386.14278848181993
 21
332.96690765448415
  0
LINE
  8
_0-3_躯体と製品
  6
CONTINUOUS
 62
    3
 10
386.14278848181993
 20
332.96690765448415
 11
381.34278848181884
 21
332.96690765448415
  0
LINE
  8
_0-3_躯体と製品
  6
CENTER
 62
    3
 10
571.14278848181993
 20
230.56309708678413
 11
571.14278848181993
 21
359.76690765448393
  0
LINE
  8
_0-3_躯体と製品
  6
CENTER
 62
    3
 10
441.14278848181993
 20
346.11690765448412
 11
441.14278848181993
 21
280.36595501258415
  0
LINE
  8
_0-5_文字-記号
  6
CONTINUOUS
 62
    3
 10
437.32510798181875
 20
295.09960915448409
 11
430.3202895048189
 21
282.96690765448415
  0
LINE
  8
_0-3_躯体と製品
  6
CONTINUOUS
 62
    3
 10
471.14278848181857
 20
332.96690765448415
 11
544.62628418731856
 21
259.48341194898416
  0
LINE
  8
_0-3_躯体と製品
  6
CONTINUOUS
 62
    3
 10
471.14278848181857
 20
333.96690765448415
 11
544.62628418731856
 21
260.48341194898416
  0
LINE
  8
_0-3_躯体と製品
  6
CONTINUOUS
 62
    3
 10
471.14278848181857
 20
232.9669076544842
 11
471.14278848181857
 21
332.96690765448415
  0
CIRCLE
  8
_0-5_文字-記号
  6
CONTINUOUS
 62
    3
 10
427.8202895048189
 20
278.6367806355841
 40
5
  0
TEXT
  8
_0-5_文字-記号
 62
    7
 10
425.78198443534984
 20
273.88091106368125
 40
6
 41
0.8000000000000048
 50
0
  1
5
  0
LINE
  8
_0-3_躯体と製品
  6
CONTINUOUS
 62
    3
 10
468.64278848181993
 20
334.46690765448415
 11
492.14278848181857
 21
334.46690765448415
  0
LINE
  8
_0-3_躯体と製品
  6
CONTINUOUS
 62
    3
 10
441.44278848181875
 20
335.96690765448415
 11
509.14278848181857
 21
335.96690765448415
  0
LINE
  8
_0-3_躯体と製品
  6
CONTINUOUS
 62
    3
 10
422.44278848181966
 20
351.46690765448403
 11
501.24278848181893
 21
351.46690765448403
  0
LINE
  8
_0-3_躯体と製品
  6
CONTINUOUS
 62
    3
 10
406.64278848181993
 20
352.96690765448403
 11
510.64278848181857
 21
352.96690765448403
  0
LINE
  8
_0-3_躯体と製品
  6
CONTINUOUS
 62
    3
 10
473.14278848181993
 20
344.96690765448409
 11
569.89278848181993
 21
344.96690765448409
  0
LINE
  8
_0-3_躯体と製品
  6
CONTINUOUS
 62
    3
 10
476.44278848181966
 20
346.56690765448417
 11
571.14278848181993
 21
346.56690765448417
  0
LINE
  8
_0-3_躯体と製品
  6
CENTER
 62
    3
 10
422.14278848181993
 20
360.71690765448415
 11
422.14278848181993
 21
337.96690765448415
  0
LINE
  8
_0-5_文字-記号
  6
CONTINUOUS
 62
    3
 10
449.14278848181857
 20
352.96690765448403
 11
463.57654521151881
 21
377.96690765448409
  0
LINE
  8
_0-3_躯体と製品
  6
CONTINUOUS
 62
    3
 10
426.14278848181993
 20
356.48726465448402
 11
426.14278848181993
 21
355.46690765448415
  0
LINE
  8
_0-3_躯体と製品
  6
CONTINUOUS
 62
    3
 10
418.14278848181993
 20
356.48726465448402
 11
418.14278848181993
 21
355.46690765448415
  0
LINE
  8
_0-3_躯体と製品
  6
CONTINUOUS
 62
    3
 10
432.14278848181857
 20
335.96690765448415
 11
450.14278848181993
 21
335.96690765448415
  0
LINE
  8
_0-3_躯体と製品
  6
CONTINUOUS
 62
    3
 10
432.14278848181857
 20
337.46690765448415
 11
450.14278848181993
 21
337.46690765448415
  0
ARC
  8
_0-3_躯体と製品
  6
CONTINUOUS
 62
    3
 10
443.92101248181871
 20
338.78895665448414
 40
1.6000000000000001
 50
5.0000000000059481
 51
74.506032000014315
  0
LINE
  8
_0-3_躯体と製品
  6
CONTINUOUS
 62
    3
 10
436.14278848181857
 20
332.96690765448415
 11
446.14278848181993
 21
332.96690765448415
  0
LINE
  8
_0-3_躯体と製品
  6
CONTINUOUS
 62
    3
 10
444.44913148181877
 20
300.07967365448422
 11
444.5538034818187
 21
298.08241465448424
  0
LINE
  8
_0-3_躯体と製品
  6
CONTINUOUS
 62
    3
 10
446.39405448181878
 20
301.1829746544841
 11
444.44913148181877
 21
300.07967365448422
  0
LINE
  8
_0-3_躯体と製品
  6
CONTINUOUS
 62
    3
 10
444.29212348181863
 20
303.07556165448415
 11
446.28938248181885
 21
303.18023365448408
  0
LINE
  8
_0-3_躯体と製品
  6
CONTINUOUS
 62
    3
 10
446.13237548181996
 20
306.17612265448423
 11
444.1874514818187
 21
305.07282065448413
  0
LINE
  8
_0-3_躯体と製品
  6
CONTINUOUS
 62
    3
 10
444.0304444818189
 20
308.06870965448417
 11
446.02770348181866
 21
308.17338165448399
  0
LINE
  8
_0-3_躯体と製品
  6
CONTINUOUS
 62
    3
 10
445.87069548181853
 20
311.16926965448414
 11
443.92577248181897
 21
310.06596865448415
  0
LINE
  8
_0-3_躯体と製品
  6
CONTINUOUS
 62
    3
 10
443.76876448181883
 20
313.06185765448407
 11
445.76602348181996
 21
313.16652865448424
  0
LINE
  8
_0-3_躯体と製品
  6
CONTINUOUS
 62
    3
 10
445.60901548181982
 20
316.16241765448416
 11
443.6640924818189
 21
315.05911665448417
  0
LINE
  8
_0-3_躯体と製品
  6
CONTINUOUS
 62
    3
 10
443.50708448181877
 20
318.05500465448398
 11
445.50434348181852
 21
318.15967665448414
  0
LINE
  8
_0-3_躯体と製品
  6
CONTINUOUS
 62
    3
 10
445.14278848181857
 20
320.96690765448415
 11
443.40241248181883
 21
320.05226365448408
  0
LINE
  8
_0-3_躯体と製品
  6
CONTINUOUS
 62
    3
 10
444.76314748181858
 20
294.08789565448416
 11
443.26520348181884
 21
294.00939165448409
  0
LINE
  8
_0-3_躯体と製品
  6
CONTINUOUS
 62
    3
 10
443.16053148181891
 20
296.00665165448407
 11
446.65573448181885
 21
296.18982665448408
  0
LINE
  8
_0-3_躯体と製品
  6
CONTINUOUS
 62
    3
 10
431.14278848181857
 20
333.96690765448415
 11
451.14278848181857
 21
333.96690765448415
  0
LINE
  8
_0-3_躯体と製品
  6
CONTINUOUS
 62
    3
 10
416.14278848181857
 20
333.96690765448415
 11
471.14278848181857
 21
333.96690765448415
  0
LINE
  8
_0-3_躯体と製品
  6
CONTINUOUS
 62
    3
 10
416.14278848181857
 20
332.96690765448415
 11
471.14278848181857
 21
332.96690765448415
  0
LINE
  8
_0-5_文字-記号
  6
CONTINUOUS
 62
    3
 10
441.14278848181993
 20
340.76690765448399
 11
422.20569965241975
 21
307.96690765448415
  0
LINE
  8
_0-3_躯体と製品
  6
CONTINUOUS
 62
    3
 10
443.26520348181884
 20
294.00939165448409
 11
441.64278848181857
 21
324.96690765448415
  0
LINE
  8
_0-3_躯体と製品
  6
CONTINUOUS
 62
    3
 10
439.02037348181966
 20
294.00939165448409
 11
440.64278848181993
 21
324.96690765448415
  0
LINE
  8
_0-3_躯体と製品
  6
CONTINUOUS
 62
    3
 10
437.14278848181993
 20
320.96690765448415
 11
437.14278848181993
 21
324.96690765448415
  0
LINE
  8
_0-3_躯体と製品
  6
CONTINUOUS
 62
    3
 10
434.82044848181886
 20
324.77054965448423
 11
435.76388048181889
 21
318.16652865448424
  0
LINE
  8
_0-3_躯体と製品
  6
CONTINUOUS
 62
    3
 10
434.82418748181863
 20
317.82450865448408
 11
433.83183248181876
 21
324.62813065448398
  0
TEXT
  8
_0-5_文字-記号
 62
    7
 10
417.67067373403779
 20
299.02597423774836
 40
6
 41
0.8000000000000048
 50
0
  1
6
  0
CIRCLE
  8
_0-5_文字-記号
  6
CONTINUOUS
 62
    3
 10
419.70569965241884
 20
303.63678063558399
 40
5
  0
LINE
  8
_0-3_躯体と製品
  6
CONTINUOUS
 62
    3
 10
436.25787348181893
 20
308.17338165448399
 11
436.15320148181854
 21
306.17612265448423
  0
LINE
  8
_0-3_躯体と製品
  6
CONTINUOUS
 62
    3
 10
443.01223248181896
 20
298.83635165448408
 11
441.14278848181993
 21
296.96690765448415
  0
LINE
  8
_0-3_躯体と製品
  6
CONTINUOUS
 62
    3
 10
444.1874514818187
 20
305.07282065448413
 11
444.29212348181863
 21
303.07556165448415
  0
LINE
  8
_0-3_躯体と製品
  6
CONTINUOUS
 62
    3
 10
435.73451448181868
 20
298.18708565448406
 11
435.62984248181965
 21
296.18982665448408
  0
LINE
  8
_0-3_躯体と製品
  6
CONTINUOUS
 62
    3
 10
437.73177348181889
 20
298.08241465448424
 11
435.73451448181868
 21
298.18708565448406
  0
LINE
  8
_0-3_躯体と製品
  6
CONTINUOUS
 62
    3
 10
437.83644548181883
 20
300.07967365448422
 11
437.73177348181889
 21
298.08241465448424
  0
LINE
  8
_0-3_躯体と製品
  6
CONTINUOUS
 62
    3
 10
435.89152248181972
 20
301.1829746544841
 11
437.83644548181883
 21
300.07967365448422
  0
LINE
  8
_0-3_躯体と製品
  6
CONTINUOUS
 62
    3
 10
435.99619448181966
 20
303.18023365448408
 11
435.89152248181972
 21
301.1829746544841
  0
LINE
  8
_0-3_躯体と製品
  6
CONTINUOUS
 62
    3
 10
437.99345348181896
 20
303.07556165448415
 11
435.99619448181966
 21
303.18023365448408
  0
LINE
  8
_0-3_躯体と製品
  6
CONTINUOUS
 62
    3
 10
438.0981254818189
 20
305.07282065448413
 11
437.99345348181896
 21
303.07556165448415
  0
LINE
  8
_0-3_躯体と製品
  6
CONTINUOUS
 62
    3
 10
436.15320148181854
 20
306.17612265448423
 11
438.0981254818189
 21
305.07282065448413
  0
LINE
  8
_0-3_躯体と製品
  6
CONTINUOUS
 62
    3
 10
439.27334448181864
 20
298.83635165448408
 11
441.14278848181993
 21
296.96690765448415
  0
LINE
  8
_0-3_躯体と製品
  6
CONTINUOUS
 62
    3
 10
437.52242948181856
 20
294.08789565448416
 11
439.02037348181966
 21
294.00939165448409
  0
LINE
  8
_0-3_躯体と製品
  6
CONTINUOUS
 62
    3
 10
435.62984248181965
 20
296.18982665448408
 11
437.52242948181856
 21
294.08789565448416
  0
LINE
  8
_0-3_躯体と製品
  6
CONTINUOUS
 62
    3
 10
439.12504548181869
 20
296.00665165448407
 11
435.62984248181965
 21
296.18982665448408
  0
LINE
  8
_0-3_躯体と製品
  6
CONTINUOUS
 62
    3
 10
443.92577248181897
 20
310.06596865448415
 11
444.0304444818189
 21
308.06870965448417
  0
LINE
  8
_0-3_躯体と製品
  6
CONTINUOUS
 62
    3
 10
443.6640924818189
 20
315.05911665448417
 11
443.76876448181883
 21
313.06185765448407
  0
LINE
  8
_0-3_躯体と製品
  6
CONTINUOUS
 62
    3
 10
443.40241248181883
 20
320.05226365448408
 11
443.50708448181877
 21
318.05500465448398
  0
LINE
  8
_0-3_躯体と製品
  6
CONTINUOUS
 62
    3
 10
438.25513248181869
 20
308.06870965448417
 11
436.25787348181893
 21
308.17338165448399
  0
LINE
  8
_0-3_躯体と製品
  6
CONTINUOUS
 62
    3
 10
438.35980448181954
 20
310.06596865448415
 11
438.25513248181869
 21
308.06870965448417
  0
LINE
  8
_0-3_躯体と製品
  6
CONTINUOUS
 62
    3
 10
436.41488148181861
 20
311.16926965448414
 11
438.35980448181954
 21
310.06596865448415
  0
LINE
  8
_0-3_躯体と製品
  6
CONTINUOUS
 62
    3
 10
436.51955348181855
 20
313.16652865448424
 11
436.41488148181861
 21
311.16926965448414
  0
LINE
  8
_0-3_躯体と製品
  6
CONTINUOUS
 62
    3
 10
438.51681248181876
 20
313.06185765448407
 11
436.51955348181855
 21
313.16652865448424
  0
LINE
  8
_0-3_躯体と製品
  6
CONTINUOUS
 62
    3
 10
438.6214844818187
 20
315.05911665448417
 11
438.51681248181876
 21
313.06185765448407
  0
LINE
  8
_0-3_躯体と製品
  6
CONTINUOUS
 62
    3
 10
436.67656148181868
 20
316.16241765448416
 11
438.6214844818187
 21
315.05911665448417
  0
LINE
  8
_0-3_躯体と製品
  6
CONTINUOUS
 62
    3
 10
436.78123348181862
 20
318.15967665448414
 11
436.67656148181868
 21
316.16241765448416
  0
LINE
  8
_0-3_躯体と製品
  6
CONTINUOUS
 62
    3
 10
438.77849248181883
 20
318.05500465448398
 11
436.78123348181862
 21
318.15967665448414
  0
LINE
  8
_0-3_躯体と製品
  6
CONTINUOUS
 62
    3
 10
438.88316448181877
 20
320.05226365448408
 11
438.77849248181883
 21
318.05500465448398
  0
LINE
  8
_0-3_躯体と製品
  6
CONTINUOUS
 62
    3
 10
437.14278848181993
 20
320.96690765448415
 11
438.88316448181877
 21
320.05226365448408
  0
LINE
  8
_0-3_躯体と製品
  6
CONTINUOUS
 62
    3
 10
436.51955348181855
 20
313.16652865448424
 11
434.82418748181863
 21
317.82450865448408
  0
LINE
  8
_0-3_躯体と製品
  6
CONTINUOUS
 62
    3
 10
437.58373148181863
 20
313.16652865448424
 11
435.76388048181889
 21
318.16652865448424
  0
LINE
  8
_0-3_躯体と製品
  6
CONTINUOUS
 62
    3
 10
421.17270893811883
 20
349.46690765448409
 11
423.74278848181893
 21
350.22246365448393
  0
LINE
  8
_0-3_躯体と製品
  6
CONTINUOUS
 62
    3
 10
421.5239104818188
 20
352.96690765448403
 11
419.80945548181853
 21
352.62129565448407
  0
LINE
  8
_0-3_躯体と製品
  6
CONTINUOUS
 62
    3
 10
423.15860848181865
 20
352.96690765448403
 11
420.54278848181866
 21
352.19790465448409
  0
LINE
  8
_0-3_躯体と製品
  6
CONTINUOUS
 62
    3
 10
419.80945548181853
 20
350.73981365448407
 11
424.47612148181861
 21
351.68055465448407
  0
LINE
  8
_0-3_躯体と製品
  6
CONTINUOUS
 62
    3
 10
420.54278848181866
 20
351.16320365448416
 11
423.74278848181893
 21
352.10394465448417
  0
LINE
  8
_0-3_躯体と製品
  6
CONTINUOUS
 62
    3
 10
420.54278848181866
 20
350.31642365448408
 11
423.74278848181893
 21
351.25716465448409
  0
LINE
  8
_0-3_躯体と製品
  6
CONTINUOUS
 62
    3
 10
419.80945548181853
 20
348.85833265448406
 11
422.82837278201987
 21
349.46690765448409
  0
LINE
  8
_0-3_躯体と製品
  6
CONTINUOUS
 62
    3
 10
419.80945548181853
 20
346.97685065448417
 11
424.47612148181861
 21
347.91759165448417
  0
LINE
  8
_0-3_躯体と製品
  6
CONTINUOUS
 62
    3
 10
420.54278848181866
 20
347.40024065448392
 11
423.74278848181893
 21
348.34098165448393
  0
LINE
  8
_0-3_躯体と製品
  6
CONTINUOUS
 62
    3
 10
420.54278848181866
 20
346.55346065448407
 11
423.74278848181893
 21
347.49420165448407
  0
ARC
  8
_0-3_躯体と製品
  6
CONTINUOUS
 62
    3
 10
422.16784648181965
 20
339.70223765448424
 40
1.7648479999999993
 50
90.813543000003293
 51
157.04087499999963
  0
LINE
  8
_0-3_躯体と製品
  6
CONTINUOUS
 62
    3
 10
422.14278848181993
 20
339.46690765448415
 11
420.54278948181855
 21
340.39066765448416
  0
LINE
  8
_0-3_躯体と製品
  6
CONTINUOUS
 62
    3
 10
423.74278848181893
 20
345.06690765448417
 11
420.54280348181965
 21
345.06690765448417
  0
LINE
  8
_0-3_躯体と製品
  6
CONTINUOUS
 62
    3
 10
417.84450848181996
 20
355.46691565448407
 11
426.4408714818187
 21
355.46705365448418
  0
LINE
  8
_0-3_躯体と製品
  6
CONTINUOUS
 62
    3
 10
420.54278848181866
 20
348.43494165448408
 11
423.74278848181893
 21
349.37568265448408
  0
LINE
  8
_0-3_躯体と製品
  6
CONTINUOUS
 62
    3
 10
416.14278848181857
 20
353.96690765448409
 11
428.14278848181993
 21
353.96690765448409
  0
LINE
  8
_0-3_躯体と製品
  6
CONTINUOUS
 62
    3
 10
416.14278848181857
 20
354.71690765448409
 11
428.14278848181993
 21
354.71690765448409
  0
LINE
  8
_0-3_躯体と製品
  6
CONTINUOUS
 62
    3
 10
408.39278848181993
 20
351.46690765448403
 11
428.14278848181993
 21
351.46690765448403
  0
LINE
  8
_0-3_躯体と製品
  6
CONTINUOUS
 62
    3
 10
417.64278848181857
 20
334.46690765448415
 11
431.14278848181857
 21
334.46690765448415
  0
LINE
  8
_0-3_躯体と製品
  6
CONTINUOUS
 62
    3
 10
440.84278848181884
 20
335.96690765448415
 11
418.44278848181966
 21
335.96690765448415
  0
LINE
  8
_0-3_躯体と製品
  6
CONTINUOUS
 62
    3
 10
427.14278848181857
 20
349.46690765448409
 11
418.44278848181966
 21
349.46690765448409
  0
LINE
  8
_0-3_躯体と製品
  6
CONTINUOUS
 62
    3
 10
408.39278848181993
 20
351.46690765448403
 11
421.84278848181884
 21
351.46690765448403
  0
LINE
  8
_0-3_躯体と製品
  6
CONTINUOUS
 62
    3
 10
421.84278848181884
 20
351.46690765448403
 11
407.94278848181966
 21
351.46690765448403
  0
LINE
  8
_0-3_躯体と製品
  6
CONTINUOUS
 62
    3
 10
406.64638748181869
 20
332.96690765448415
 11
414.14278848181993
 21
340.46324565448407
  0
LINE
  8
_0-3_躯体と製品
  6
CONTINUOUS
 62
    3
 10
407.53016648181983
 20
338.09692665448398
 11
414.14278848181993
 21
344.70954865448402
  0
ARC
  8
_0-3_躯体と製品
  6
CONTINUOUS
 62
    3
 10
377.11153848181857
 20
340.71690765448415
 40
30.53125
 50
345.29524100000032
 51
13.350709000000929
  0
LINE
  8
_0-3_躯体と製品
  6
CONTINUOUS
 62
    3
 10
414.14278848181993
 20
349.96690765448403
 11
416.14278848181857
 21
332.96690765448415
  0
LINE
  8
_0-3_躯体と製品
  6
CONTINUOUS
 62
    3
 10
414.14278848181993
 20
349.96690765448403
 11
414.14278848181993
 21
332.96690765448415
  0
LINE
  8
_0-3_躯体と製品
  6
CONTINUOUS
 62
    3
 10
414.14278848181993
 20
338.19482965448407
 11
407.34140348181882
 21
344.99621465448416
  0
LINE
  8
_0-3_躯体と製品
  6
CONTINUOUS
 62
    3
 10
414.14278848181993
 20
333.95218865448413
 11
407.64165048181985
 21
340.45332665448399
  0
LINE
  8
_0-3_躯体と製品
  6
CONTINUOUS
 62
    3
 10
417.94278848181966
 20
348.96690765448409
 11
417.94278848181966
 21
336.46690765448415
  0
LINE
  8
_0-3_躯体と製品
  6
CONTINUOUS
 62
    3
 10
416.14278848181857
 20
349.46690765448409
 11
416.14278848181857
 21
333.96690765448415
  0
LINE
  8
_0-3_躯体と製品
  6
CONTINUOUS
 62
    3
 10
410.88542948181976
 20
332.96690765448415
 11
407.35043648181863
 21
336.50190065448413
  0
LINE
  8
_0-3_躯体と製品
  6
CONTINUOUS
 62
    3
 10
410.88542948181976
 20
332.96690765448415
 11
414.14278848181993
 21
336.22426665448398
  0
LINE
  8
_0-3_躯体と製品
  6
CONTINUOUS
 62
    3
 10
417.64278848181857
 20
334.46690765448415
 11
417.64278848181857
 21
333.96690765448415
  0
LINE
  8
_0-3_躯体と製品
  6
CONTINUOUS
 62
    3
 10
416.14278848181857
 20
333.96690765448415
 11
417.64278848181857
 21
333.96690765448415
  0
ARC
  8
_0-3_躯体と製品
  6
CONTINUOUS
 62
    3
 10
418.44278848181966
 20
336.46690765448415
 40
0.5
 50
180
 51
270
  0
LINE
  8
_0-3_躯体と製品
  6
CONTINUOUS
 62
    3
 10
416.14278848181857
 20
333.96690765448415
 11
416.14278848181857
 21
332.96690765448415
  0
LINE
  8
_0-3_躯体と製品
  6
CONTINUOUS
 62
    3
 10
409.13662948181855
 20
348.18867065448404
 11
410.9148664818199
 21
349.96690765448403
  0
LINE
  8
_0-3_躯体と製品
  6
CONTINUOUS
 62
    3
 10
407.59605948181888
 20
342.40545965448399
 11
414.14278848181993
 21
348.95218865448408
  0
LINE
  8
_0-3_躯体と製品
  6
CONTINUOUS
 62
    3
 10
414.14278848181993
 20
342.43747065448423
 11
408.79090848181886
 21
347.78935065448417
  0
LINE
  8
_0-3_躯体と製品
  6
CONTINUOUS
 62
    3
 10
408.39278848181993
 20
349.96690765448403
 11
415.64278848181993
 21
349.96690765448403
  0
LINE
  8
_0-3_躯体と製品
  6
CONTINUOUS
 62
    3
 10
407.14664048181885
 20
346.19868265448417
 11
408.72102548181874
 21
347.77306665448413
  0
ARC
  8
_0-3_躯体と製品
  6
CONTINUOUS
 62
    3
 10
408.39278848181993
 20
350.71690765448403
 40
0.75
 50
90
 51
270
  0
ARC
  8
_0-3_躯体と製品
  6
CONTINUOUS
 62
    3
 10
406.64278848181993
 20
352.46690765448415
 40
0.5
 50
90
 51
180
  0
LINE
  8
_0-3_躯体と製品
  6
CONTINUOUS
 62
    3
 10
407.64278848181993
 20
349.26690765448393
 11
407.64278848181993
 21
351.16690765448408
  0
ARC
  8
_0-3_躯体と製品
  6
CONTINUOUS
 62
    3
 10
407.94278848181966
 20
349.26690765448393
 40
0.2999999999999998
 50
180
 51
270
  0
LINE
  8
_0-3_躯体と製品
  6
CONTINUOUS
 62
    3
 10
408.84278848181884
 20
348.96690765448409
 11
407.94278848181966
 21
348.96690765448409
  0
ARC
  8
_0-3_躯体と製品
  6
CONTINUOUS
 62
    3
 10
408.84278848181884
 20
348.66690765448402
 40
0.2999999999999998
 50
0
 51
90
  0
LINE
  8
_0-3_躯体と製品
  6
CONTINUOUS
 62
    3
 10
409.14278848181993
 20
348.26690765448399
 11
409.14278848181993
 21
348.66690765448402
  0
ARC
  8
_0-3_躯体と製品
  6
CONTINUOUS
 62
    3
 10
408.64278848181857
 20
348.26690765448399
 40
0.5
 50
270
 51
0
  0
LINE
  8
_0-3_躯体と製品
  6
CONTINUOUS
 62
    3
 10
406.64278848181993
 20
347.76690765448393
 11
408.64278848181857
 21
347.76690765448393
  0
LINE
  8
_0-3_躯体と製品
  6
CONTINUOUS
 62
    3
 10
406.14278848181993
 20
352.46690765448415
 11
406.14278848181993
 21
348.26690765448399
  0
ARC
  8
_0-3_躯体と製品
  6
CONTINUOUS
 62
    3
 10
406.64278848181993
 20
348.26690765448399
 40
0.5
 50
180
 51
270
  0
ARC
  8
_0-3_躯体と製品
  6
CONTINUOUS
 62
    3
 10
407.94278848181966
 20
351.16690765448408
 40
0.2999999999999998
 50
90
 51
180
  0
LINE
  8
_0-3_躯体と製品
  6
CONTINUOUS
 62
    3
 10
414.14278848181993
 20
346.68011065448417
 11
410.85599148181882
 21
349.96690765448403
  0
LINE
  8
_0-3_躯体と製品
  6
CONTINUOUS
 62
    3
 10
420.54278848181866
 20
350.31642365448408
 11
420.54278848181866
 21
349.46690765448409
  0
LINE
  8
_0-3_躯体と製品
  6
CONTINUOUS
 62
    3
 10
420.40807348181988
 20
352.96690765448403
 11
419.80945548181853
 21
352.62129565448407
  0
LINE
  8
_0-3_躯体と製品
  6
CONTINUOUS
 62
    3
 10
419.80945548181853
 20
352.62129565448407
 11
420.54278848181866
 21
352.19790465448409
  0
LINE
  8
_0-3_躯体と製品
  6
CONTINUOUS
 62
    3
 10
419.80945548181853
 20
350.73981365448407
 11
420.54278848181866
 21
351.16320365448416
  0
LINE
  8
_0-3_躯体と製品
  6
CONTINUOUS
 62
    3
 10
419.80945548181853
 20
350.73981365448407
 11
420.54278848181866
 21
350.31642365448408
  0
LINE
  8
_0-3_躯体と製品
  6
CONTINUOUS
 62
    3
 10
420.54278848181866
 20
352.19790465448409
 11
420.54278848181866
 21
351.16320365448416
  0
LINE
  8
_0-3_躯体と製品
  6
CONTINUOUS
 62
    3
 10
420.54278848181866
 20
349.28172265448393
 11
421.17270893811883
 21
349.46690765448409
  0
LINE
  8
_0-3_躯体と製品
  6
CONTINUOUS
 62
    3
 10
420.54278848181866
 20
349.46690765448409
 11
420.54278848181866
 21
349.28172265448393
  0
LINE
  8
_0-3_躯体と製品
  6
CONTINUOUS
 62
    3
 10
419.80945548181853
 20
346.97685065448417
 11
420.54278848181866
 21
347.40024065448392
  0
LINE
  8
_0-3_躯体と製品
  6
CONTINUOUS
 62
    3
 10
419.80945548181853
 20
346.97685065448417
 11
420.54278848181866
 21
346.55346065448407
  0
LINE
  8
_0-3_躯体と製品
  6
CONTINUOUS
 62
    3
 10
419.80945548181853
 20
348.85833265448406
 11
420.54278848181866
 21
349.28172265448393
  0
LINE
  8
_0-3_躯体と製品
  6
CONTINUOUS
 62
    3
 10
419.80945548181853
 20
348.85833265448406
 11
420.54278848181866
 21
348.43494165448408
  0
LINE
  8
_0-3_躯体と製品
  6
CONTINUOUS
 62
    3
 10
420.54278848181866
 20
346.55346065448407
 11
420.54278848181866
 21
340.39066765448416
  0
LINE
  8
_0-3_躯体と製品
  6
CONTINUOUS
 62
    3
 10
420.54278848181866
 20
348.43494165448408
 11
420.54278848181866
 21
347.40024065448392
  0
LINE
  8
_0-3_躯体と製品
  6
CONTINUOUS
 62
    3
 10
417.14278848181857
 20
353.96690765448409
 11
417.14278848181857
 21
352.96690765448403
  0
LINE
  8
_0-3_躯体と製品
  6
CONTINUOUS
 62
    3
 10
416.14278848181857
 20
354.71690765448409
 11
416.6973554818187
 21
355.10521965448407
  0
ARC
  8
_0-3_躯体と製品
  6
CONTINUOUS
 62
    3
 10
417.84450848181996
 20
353.46691565448407
 40
2
 50
90
 51
124.99999999999731
  0
LINE
  8
_0-3_躯体と製品
  6
CONTINUOUS
 62
    3
 10
416.14278848181857
 20
354.71690765448409
 11
416.14278848181857
 21
353.96690765448409
  0
ARC
  8
_0-3_躯体と製品
  6
CONTINUOUS
 62
    3
 10
418.44278848181966
 20
348.96690765448409
 40
0.5
 50
90
 51
180
  0
ARC
  8
_0-3_躯体と製品
  6
CONTINUOUS
 62
    3
 10
415.64278848181993
 20
349.46690765448409
 40
0.5
 50
0
 51
90
  0
ARC
  8
_0-3_躯体と製品
  6
CONTINUOUS
 62
    3
 10
438.3645644818198
 20
338.78895665448414
 40
1.6000000000000001
 50
105.493967999999
 51
175.00000000000051
  0
LINE
  8
_0-3_躯体と製品
  6
CONTINUOUS
 62
    3
 10
432.14278848181857
 20
337.46690765448415
 11
432.14278848181857
 21
335.96690765448415
  0
LINE
  8
_0-3_躯体と製品
  6
CONTINUOUS
 62
    3
 10
431.14278848181857
 20
334.46690765448415
 11
431.14278848181857
 21
333.96690765448415
  0
LINE
  8
_0-3_躯体と製品
  6
CONTINUOUS
 62
    3
 10
436.77065348181895
 20
338.92840665448415
 11
436.64278848181993
 21
337.46690765448415
  0
LINE
  8
_0-3_躯体と製品
  6
CONTINUOUS
 62
    3
 10
441.14278848181993
 20
327.96690765448415
 11
441.14278848181993
 21
332.96690765448415
  0
LINE
  8
_0-3_躯体と製品
  6
CONTINUOUS
 62
    3
 10
442.14278848181857
 20
332.96690765448415
 11
441.14278848181993
 21
327.96690765448415
  0
LINE
  8
_0-3_躯体と製品
  6
CONTINUOUS
 62
    3
 10
440.14278848181857
 20
332.96690765448415
 11
441.14278848181993
 21
327.96690765448415
  0
LINE
  8
_0-3_躯体と製品
  6
CONTINUOUS
 62
    3
 10
436.14278848181857
 20
332.96690765448415
 11
437.14278848181993
 21
327.96690765448415
  0
LINE
  8
_0-3_躯体と製品
  6
CONTINUOUS
 62
    3
 10
437.14278848181993
 20
332.96690765448415
 11
437.14278848181993
 21
324.96690765448415
  0
LINE
  8
_0-3_躯体と製品
  6
CONTINUOUS
 62
    3
 10
441.64278848181857
 20
324.96690765448415
 11
441.14278848181993
 21
324.96690765448415
  0
LINE
  8
_0-3_躯体と製品
  6
CONTINUOUS
 62
    3
 10
440.64278848181993
 20
324.96690765448415
 11
441.14278848181993
 21
324.96690765448415
  0
ARC
  8
_0-3_躯体と製品
  6
CONTINUOUS
 62
    3
 10
434.42446948181896
 20
324.71398065448415
 40
0.4
 50
8.1301019999918065
 51
98.130102000011163
  0
LINE
  8
_0-3_躯体と製品
  6
CONTINUOUS
 62
    3
 10
434.17107548181866
 20
325.08184265448398
 11
434.36790048181865
 21
325.10996065448415
  0
ARC
  8
_0-3_躯体と製品
  6
CONTINUOUS
 62
    3
 10
434.22764448181852
 20
324.68586265448408
 40
0.4
 50
98.130102000011163
 51
188.29846599999979
  0
LINE
  8
_0-3_躯体と製品
  6
CONTINUOUS
 62
    3
 10
441.14278848181993
 20
335.66690765448408
 11
441.44278848181875
 21
335.96690765448415
  0
LINE
  8
_0-3_躯体と製品
  6
CONTINUOUS
 62
    3
 10
441.14278848181993
 20
335.66690765448408
 11
440.84278848181884
 21
335.96690765448415
  0
LINE
  8
_0-3_躯体と製品
  6
CONTINUOUS
 62
    3
 10
424.47612148181861
 20
349.79907265448406
 11
423.90079481861858
 21
349.46690765448409
  0
LINE
  8
_0-3_躯体と製品
  6
CONTINUOUS
 62
    3
 10
422.82837278201987
 20
349.46690765448409
 11
424.47612148181861
 21
349.79907265448406
  0
LINE
  8
_0-3_躯体と製品
  6
CONTINUOUS
 62
    3
 10
423.74278848181893
 20
352.10394465448417
 11
424.47612148181861
 21
351.68055465448407
  0
LINE
  8
_0-3_躯体と製品
  6
CONTINUOUS
 62
    3
 10
424.47612148181861
 20
351.68055465448407
 11
423.74278848181893
 21
351.25716465448409
  0
LINE
  8
_0-3_躯体と製品
  6
CONTINUOUS
 62
    3
 10
423.74278848181893
 20
352.96690765448403
 11
423.74278848181893
 21
352.10394465448417
  0
LINE
  8
_0-3_躯体と製品
  6
CONTINUOUS
 62
    3
 10
423.74278848181893
 20
350.22246365448393
 11
424.47612148181861
 21
349.79907265448406
  0
LINE
  8
_0-3_躯体と製品
  6
CONTINUOUS
 62
    3
 10
423.74278848181893
 20
350.22246365448393
 11
423.74278848181893
 21
351.25716465448409
  0
LINE
  8
_0-3_躯体と製品
  6
CONTINUOUS
 62
    3
 10
423.90079481861858
 20
349.46690765448409
 11
423.74278848181893
 21
349.37568265448408
  0
LINE
  8
_0-3_躯体と製品
  6
CONTINUOUS
 62
    3
 10
428.14278848181993
 20
354.71690765448409
 11
427.58802448181859
 21
355.10535765448407
  0
LINE
  8
_0-3_躯体と製品
  6
CONTINUOUS
 62
    3
 10
423.74278848181893
 20
346.45950065448397
 11
424.47612148181861
 21
346.03610965448416
  0
LINE
  8
_0-3_躯体と製品
  6
CONTINUOUS
 62
    3
 10
424.47612148181861
 20
346.03610965448416
 11
423.74278848181893
 21
345.61271965448418
  0
LINE
  8
_0-3_躯体と製品
  6
CONTINUOUS
 62
    3
 10
422.14278848181993
 20
345.56573965448405
 11
424.47612148181861
 21
346.03610965448416
  0
LINE
  8
_0-3_躯体と製品
  6
CONTINUOUS
 62
    3
 10
423.74278848181893
 20
348.34098165448393
 11
424.47612148181861
 21
347.91759165448417
  0
LINE
  8
_0-3_躯体と製品
  6
CONTINUOUS
 62
    3
 10
424.47612148181861
 20
347.91759165448417
 11
423.74278848181893
 21
347.49420165448407
  0
ARC
  8
_0-3_躯体と製品
  6
CONTINUOUS
 62
    3
 10
428.17520048181859
 20
340.94139165448422
 40
6.0552590000000013
 50
137.053799999999
 51
175.02122199999897
  0
LINE
  8
_0-3_躯体と製品
  6
CONTINUOUS
 62
    3
 10
422.14278848181993
 20
339.46690765448415
 11
423.74278848181893
 21
340.39066765448416
  0
LINE
  8
_0-3_躯体と製品
  6
CONTINUOUS
 62
    3
 10
422.14278848181993
 20
341.50314865448416
 11
422.14278848181993
 21
339.46690765448415
  0
ARC
  8
_0-3_躯体と製品
  6
CONTINUOUS
 62
    3
 10
426.4408714818187
 20
353.46705365448418
 40
2
 50
55.000000000002629
 51
90
  0
LINE
  8
_0-3_躯体と製品
  6
CONTINUOUS
 62
    3
 10
423.74278848181893
 20
345.61271965448418
 11
423.74278848181893
 21
340.39066765448416
  0
LINE
  8
_0-3_躯体と製品
  6
CONTINUOUS
 62
    3
 10
423.74278848181893
 20
347.49420165448407
 11
423.74278848181893
 21
346.45950065448397
  0
LINE
  8
_0-3_躯体と製品
  6
CONTINUOUS
 62
    3
 10
423.74278848181893
 20
349.37568265448408
 11
423.74278848181893
 21
348.34098165448393
  0
LINE
  8
_0-3_躯体と製品
  6
CONTINUOUS
 62
    3
 10
422.14278848181993
 20
345.56573965448405
 11
423.74278848181893
 21
346.45950065448397
  0
LINE
  8
_0-3_躯体と製品
  6
CONTINUOUS
 62
    3
 10
422.14278848181993
 20
345.56573965448405
 11
423.74278848181893
 21
345.61271965448418
  0
LINE
  8
_0-3_躯体と製品
  6
CONTINUOUS
 62
    3
 10
427.14278848181857
 20
353.96690765448409
 11
427.14278848181857
 21
352.96690765448403
  0
LINE
  8
_0-3_躯体と製品
  6
CONTINUOUS
 62
    3
 10
428.14278848181993
 20
354.71690765448409
 11
428.14278848181993
 21
353.96690765448409
  0
LINE
  8
_0-3_躯体と製品
  6
CONTINUOUS
 62
    3
 10
428.14278848181993
 20
351.46690765448403
 11
428.14278848181993
 21
350.46690765448409
  0
ARC
  8
_0-3_躯体と製品
  6
CONTINUOUS
 62
    3
 10
427.14278848181857
 20
350.46690765448409
 40
1
 50
270
 51
0
  0
LINE
  8
_0-3_躯体と製品
  6
CONTINUOUS
 62
    3
 10
422.14278848181993
 20
351.76690765448393
 11
422.44278848181966
 21
351.46690765448403
  0
LINE
  8
_0-3_躯体と製品
  6
CONTINUOUS
 62
    3
 10
422.14278848181993
 20
351.76690765448393
 11
421.84278848181884
 21
351.46690765448403
  0
ARC
  8
_0-3_躯体と製品
  6
CONTINUOUS
 62
    3
 10
441.14278848181993
 20
328.76690765448399
 40
12
 50
74.506032000000928
 51
105.493967999999
  0
LINE
  8
_0-5_文字-記号
  6
CONTINUOUS
 62
    3
 10
450.14278848181993
 20
336.71690765448415
 11
460.96810602911864
 21
317.96690765448415
  0
LINE
  8
_0-3_躯体と製品
  6
CONTINUOUS
 62
    3
 10
445.14278848181857
 20
320.96690765448415
 11
445.14278848181857
 21
324.96690765448415
  0
LINE
  8
_0-3_躯体と製品
  6
CONTINUOUS
 62
    3
 10
447.46512848181874
 20
324.77054965448423
 11
446.52169648181871
 21
318.16652865448424
  0
LINE
  8
_0-3_躯体と製品
  6
CONTINUOUS
 62
    3
 10
447.46138948181897
 20
317.82450865448408
 11
448.45374448181883
 21
324.62813065448398
  0
LINE
  8
_0-3_躯体と製品
  6
CONTINUOUS
 62
    3
 10
447.46512848181874
 20
324.77054965448423
 11
446.52169648181871
 21
318.16652865448424
  0
LINE
  8
_0-3_躯体と製品
  6
CONTINUOUS
 62
    3
 10
447.46138948181897
 20
317.82450865448408
 11
448.45374448181883
 21
324.62813065448398
  0
CIRCLE
  8
_0-5_文字-記号
  6
CONTINUOUS
 62
    3
 10
463.46810602911864
 20
313.63678063558399
 40
5
  0
LINE
  8
_0-3_躯体と製品
  6
CONTINUOUS
 62
    3
 10
446.02770348181866
 20
308.17338165448399
 11
446.13237548181996
 21
306.17612265448423
  0
LINE
  8
_0-3_躯体と製品
  6
CONTINUOUS
 62
    3
 10
446.55106248181892
 20
298.18708565448406
 11
446.65573448181885
 21
296.18982665448408
  0
LINE
  8
_0-3_躯体と製品
  6
CONTINUOUS
 62
    3
 10
444.5538034818187
 20
298.08241465448424
 11
446.55106248181892
 21
298.18708565448406
  0
LINE
  8
_0-3_躯体と製品
  6
CONTINUOUS
 62
    3
 10
446.28938248181885
 20
303.18023365448408
 11
446.39405448181878
 21
301.1829746544841
  0
LINE
  8
_0-3_躯体と製品
  6
CONTINUOUS
 62
    3
 10
446.65573448181885
 20
296.18982665448408
 11
444.76314748181858
 21
294.08789565448416
  0
LINE
  8
_0-3_躯体と製品
  6
CONTINUOUS
 62
    3
 10
445.76602348181996
 20
313.16652865448424
 11
445.87069548181853
 21
311.16926965448414
  0
LINE
  8
_0-3_躯体と製品
  6
CONTINUOUS
 62
    3
 10
445.50434348181852
 20
318.15967665448414
 11
445.60901548181982
 21
316.16241765448416
  0
LINE
  8
_0-3_躯体と製品
  6
CONTINUOUS
 62
    3
 10
445.76602348181996
 20
313.16652865448424
 11
447.46138948181897
 21
317.82450865448408
  0
LINE
  8
_0-3_躯体と製品
  6
CONTINUOUS
 62
    3
 10
444.70184548181987
 20
313.16652865448424
 11
446.52169648181871
 21
318.16652865448424
  0
TEXT
  8
_0-5_文字-記号
 62
    7
 10
461.06618598605655
 20
309.16511261438831
 40
6
 41
0.7999999999999952
 50
0
  1
8
  0
LINE
  8
_0-3_躯体と製品
  6
CONTINUOUS
 62
    3
 10
467.14278848181857
 20
333.96690765448415
 11
468.64278848181993
 21
333.96690765448415
  0
LINE
  8
_0-3_躯体と製品
  6
CONTINUOUS
 62
    3
 10
451.14278848181857
 20
334.46690765448415
 11
467.14278848181857
 21
334.46690765448415
  0
LINE
  8
_0-3_躯体と製品
  6
CONTINUOUS
 62
    3
 10
450.14278848181993
 20
337.46690765448415
 11
450.14278848181993
 21
335.96690765448415
  0
LINE
  8
_0-3_躯体と製品
  6
CONTINUOUS
 62
    3
 10
445.51492348181864
 20
338.92840665448415
 11
445.64278848181857
 21
337.46690765448415
  0
LINE
  8
_0-3_躯体と製品
  6
CONTINUOUS
 62
    3
 10
446.14278848181993
 20
332.96690765448415
 11
445.14278848181857
 21
327.96690765448415
  0
LINE
  8
_0-3_躯体と製品
  6
CONTINUOUS
 62
    3
 10
445.14278848181857
 20
332.96690765448415
 11
445.14278848181857
 21
324.96690765448415
  0
ARC
  8
_0-3_躯体と製品
  6
CONTINUOUS
 62
    3
 10
447.86110848181852
 20
324.71398065448415
 40
0.4
 50
81.869898000015098
 51
171.86989799999853
  0
LINE
  8
_0-3_躯体と製品
  6
CONTINUOUS
 62
    3
 10
448.11450148181893
 20
325.08184265448398
 11
447.91767648181894
 21
325.10996065448415
  0
ARC
  8
_0-3_躯体と製品
  6
CONTINUOUS
 62
    3
 10
448.05793248181863
 20
324.68586265448408
 40
0.4
 50
351.7015339999968
 51
81.869898000015112
  0
ARC
  8
_0-3_躯体と製品
  6
CONTINUOUS
 62
    3
 10
447.86110848181852
 20
324.71398065448415
 40
0.4
 50
81.869898000015098
 51
171.86989799999853
  0
LINE
  8
_0-3_躯体と製品
  6
CONTINUOUS
 62
    3
 10
448.11450148181893
 20
325.08184265448398
 11
447.91767648181894
 21
325.10996065448415
  0
ARC
  8
_0-3_躯体と製品
  6
CONTINUOUS
 62
    3
 10
448.05793248181863
 20
324.68586265448408
 40
0.4
 50
351.7015339999968
 51
81.869898000015112
  0
LINE
  8
_0-3_躯体と製品
  6
CONTINUOUS
 62
    3
 10
451.14278848181857
 20
334.46690765448415
 11
451.14278848181857
 21
333.96690765448415
  0
LINE
  8
_0-3_躯体と製品
  6
CONTINUOUS
 62
    3
 10
467.14278848181857
 20
334.46690765448415
 11
467.14278848181857
 21
333.96690765448415
  0
LINE
  8
_0-3_躯体と製品
  6
CONTINUOUS
 62
    3
 10
468.64278848181993
 20
334.46690765448415
 11
468.64278848181993
 21
333.96690765448415
  0
LINE
  8
_0-3_躯体と製品
  6
CONTINUOUS
 62
    3
 10
476.14278848181993
 20
346.26690765448393
 11
475.84278848181884
 21
346.56690765448417
  0
LINE
  8
_0-3_躯体と製品
  6
CONTINUOUS
 62
    3
 10
471.64278848181993
 20
346.56690765448417
 11
475.84278848181884
 21
346.56690765448417
  0
ARC
  8
_0-3_躯体と製品
  6
CONTINUOUS
 62
    3
 10
471.64278848181993
 20
346.06690765448417
 40
0.5
 50
90
 51
180
  0
LINE
  8
_0-3_躯体と製品
  6
CONTINUOUS
 62
    3
 10
472.64278848181993
 20
342.71690765448415
 11
472.64278848181993
 21
344.46690765448409
  0
ARC
  8
_0-3_躯体と製品
  6
CONTINUOUS
 62
    3
 10
473.14278848181993
 20
344.46690765448409
 40
0.5
 50
90
 51
180
  0
LINE
  8
_0-3_躯体と製品
  6
CONTINUOUS
 62
    3
 10
471.14278848181857
 20
342.71690765448415
 11
471.14278848181857
 21
346.06690765448417
  0
ARC
  8
_0-3_躯体と製品
  6
CONTINUOUS
 62
    3
 10
471.89278848181993
 20
342.71690765448415
 40
0.75
 50
180
 51
0
  0
LINE
  8
_0-3_躯体と製品
  6
CONTINUOUS
 62
    3
 10
476.14278848181993
 20
346.26690765448393
 11
476.44278848181966
 21
346.56690765448417
  0
ARC
  8
_0-3_躯体と製品
  6
CONTINUOUS
 62
    3
 10
422.14278848181993
 20
352.38357465448416
 40
6.0833329999999988
 50
53.83135800000148
 51
126.16864199999851
  0
ARC
  8
_0-3_躯体と製品
  6
CONTINUOUS
 62
    3
 10
419.14278848181857
 20
356.48726465448402
 40
1
 50
126.16864199999851
 51
180
  0
LINE
  8
_0-5_文字-記号
  6
CONTINUOUS
 62
    3
 10
422.14278848181993
 20
358.46690765448409
 11
430.51436738511893
 21
372.96690765448409
  0
ARC
  8
_0-3_躯体と製品
  6
CONTINUOUS
 62
    3
 10
425.14278848181993
 20
356.48726465448402
 40
1
 50
0
 51
53.83135800000148
  0
TEXT
  8
_0-5_文字-記号
 62
    7
 10
431.05433639120292
 20
372.83890161968725
 40
6
 41
0.7999999999999952
 50
0
  1
7
  0
CIRCLE
  8
_0-5_文字-記号
  6
CONTINUOUS
 62
    3
 10
433.01436738511893
 20
377.29703467338408
 40
5
  0
CIRCLE
  8
_0-5_文字-記号
  6
CONTINUOUS
 62
    3
 10
466.07654521151881
 20
382.29703467338402
 40
5
  0
TEXT
  8
_0-5_文字-記号
 62
    7
 10
464.31071026658083
 20
378.11125357554005
 40
6
 41
0.7999999999999952
 50
0
  1
1
  0
LINE
  8
_0-5_文字-記号
  6
CONTINUOUS
 62
    3
 10
571.14278848181993
 20
345.56690765448417
 11
578.30193181981895
 21
357.96690765448409
  0
LINE
  8
_0-5_文字-記号
  6
CONTINUOUS
 62
    3
 10
522.68979386561887
 20
357.96690765448409
 11
511.14278848181993
 21
337.96690765448415
  0
LINE
  8
_0-5_文字-記号
  6
CONTINUOUS
 62
    3
 10
506.44224769711991
 20
349.31693440458406
 11
522.9833174652199
 21
377.96690765448409
  0
LINE
  8
_0-5_文字-記号
  6
CONTINUOUS
 62
    3
 10
507.88453633461859
 20
297.22515980178406
 11
517.02220436061862
 21
313.05206508558416
  0
TEXT
  8
_0-5_文字-記号
 62
    7
 10
517.43979536017468
 20
313.22076796504422
 40
6
 41
0.7999999999999952
 50
0
  1
4
  0
CIRCLE
  8
_0-5_文字-記号
  6
CONTINUOUS
 62
    3
 10
519.12251265551868
 20
317.38219210448398
 40
5
  0
LINE
  8
_0-3_躯体と製品
  6
CONTINUOUS
 62
    3
 10
511.14278848181993
 20
344.21690765448409
 11
511.14278848181993
 21
334.46690765448415
  0
LINE
  8
_0-3_躯体と製品
  6
CONTINUOUS
 62
    3
 10
509.64278848181857
 20
344.21690765448409
 11
509.64278848181857
 21
336.46690765448415
  0
LINE
  8
_0-3_躯体と製品
  6
CONTINUOUS
 62
    3
 10
493.64278848181857
 20
334.46690765448415
 11
509.64278848181857
 21
334.46690765448415
  0
LINE
  8
_0-3_躯体と製品
  6
CONTINUOUS
 62
    3
 10
492.14278848181857
 20
333.96690765448415
 11
493.64278848181857
 21
333.96690765448415
  0
LINE
  8
_0-3_躯体と製品
  6
CONTINUOUS
 62
    3
 10
493.64278848181857
 20
334.46690765448415
 11
493.64278848181857
 21
333.96690765448415
  0
LINE
  8
_0-3_躯体と製品
  6
CONTINUOUS
 62
    3
 10
492.14278848181857
 20
334.46690765448415
 11
492.14278848181857
 21
333.96690765448415
  0
LINE
  8
_0-3_躯体と製品
  6
CONTINUOUS
 62
    3
 10
509.64278848181857
 20
334.46690765448415
 11
509.64278848181857
 21
333.96690765448415
  0
ARC
  8
_0-3_躯体と製品
  6
CONTINUOUS
 62
    3
 10
509.14278848181857
 20
336.46690765448415
 40
0.5
 50
270
 51
0
  0
ARC
  8
_0-3_躯体と製品
  6
CONTINUOUS
 62
    3
 10
510.64278848181857
 20
334.46690765448415
 40
0.5
 50
270
 51
0
  0
LINE
  8
_0-3_躯体と製品
  6
CONTINUOUS
 62
    3
 10
509.64278848181857
 20
333.96690765448415
 11
510.64278848181857
 21
333.96690765448415
  0
LINE
  8
_0-3_躯体と製品
  6
CONTINUOUS
 62
    3
 10
502.24278848181893
 20
347.96690765448409
 11
504.14278848181857
 21
347.96690765448409
  0
ARC
  8
_0-3_躯体と製品
  6
CONTINUOUS
 62
    3
 10
502.24278848181893
 20
348.46690765448403
 40
0.5
 50
180
 51
270
  0
LINE
  8
_0-3_躯体と製品
  6
CONTINUOUS
 62
    3
 10
501.74278848181893
 20
350.96690765448409
 11
501.74278848181893
 21
348.46690765448403
  0
ARC
  8
_0-3_躯体と製品
  6
CONTINUOUS
 62
    3
 10
501.24278848181893
 20
350.96690765448409
 40
0.5
 50
0
 51
90
  0
LINE
  8
_0-3_躯体と製品
  6
CENTER
 62
    3
 10
506.44168319711889
 20
354.21690765448409
 11
506.44168319711889
 21
342.96690765448415
  0
ARC
  8
_0-3_躯体と製品
  6
CONTINUOUS
 62
    3
 10
510.39278848181857
 20
344.21690765448409
 40
0.75
 50
0
 51
180
  0
ARC
  8
_0-3_躯体と製品
  6
CONTINUOUS
 62
    3
 10
506.74278848181984
 20
345.99366765448417
 40
0.2999999999999998
 50
100.16424900000442
 51
280.16424900000442
  0
ARC
  8
_0-3_躯体と製品
  6
CONTINUOUS
 62
    3
 10
506.14278848181857
 20
345.99366765448417
 40
0.2999999999999998
 50
259.83575099999564
 51
79.835750999995582
  0
ARC
  8
_0-3_躯体と製品
  6
CONTINUOUS
 62
    3
 10
508.19279048181852
 20
350.96690765448409
 40
0.5
 50
0
 51
180
  0
LINE
  8
_0-3_躯体と製品
  6
CONTINUOUS
 62
    3
 10
507.68721948181883
 20
347.02558965448418
 11
507.90361248181853
 21
347.44543165448408
  0
LINE
  8
_0-3_躯体と製品
  6
CONTINUOUS
 62
    3
 10
508.22054648181984
 20
346.75070465448403
 11
508.43693948181954
 21
347.17054665448399
  0
ARC
  8
_0-3_躯体と製品
  6
CONTINUOUS
 62
    3
 10
507.45917248181877
 20
347.67450265448417
 40
1.1000000000000001
 50
332.73274700000098
 51
26.564808999991662
  0
LINE
  8
_0-3_躯体と製品
  6
CONTINUOUS
 62
    3
 10
507.02196248181872
 20
349.66697565448408
 11
507.90638748181891
 21
347.89810765448408
  0
ARC
  8
_0-3_躯体と製品
  6
CONTINUOUS
 62
    3
 10
507.45917248181877
 20
347.67450265448417
 40
0.5
 50
332.73274699999217
 51
26.564808999991619
  0
LINE
  8
_0-3_躯体と製品
  6
CONTINUOUS
 62
    3
 10
507.69278848181966
 20
349.66696165448417
 11
508.44304448181856
 21
348.16643365448408
  0
LINE
  8
_0-3_躯体と製品
  6
CONTINUOUS
 62
    3
 10
509.69278548181865
 20
349.96704965448407
 11
509.69278848181966
 21
350.66691265448407
  0
ARC
  8
_0-3_躯体と製品
  6
CONTINUOUS
 62
    3
 10
503.49279148181859
 20
349.96691665448418
 40
0.2999999999999998
 50
180
 51
270.00129200000242
  0
LINE
  8
_0-3_躯体と製品
  6
CONTINUOUS
 62
    3
 10
503.19279148181886
 20
349.96691665448418
 11
503.19278848181875
 21
350.66690465448403
  0
ARC
  8
_0-3_躯体と製品
  6
CONTINUOUS
 62
    3
 10
509.39278548181892
 20
349.96704965448407
 40
0.2999999999999998
 50
270.00129200000242
 51
0
  0
LINE
  8
_0-3_躯体と製品
  6
CONTINUOUS
 62
    3
 10
503.49052748181884
 20
349.66692565448409
 11
509.39279148181868
 21
349.66704965448406
  0
LINE
  8
_0-3_躯体と製品
  6
CONTINUOUS
 62
    3
 10
504.19278648181853
 20
350.96690665448409
 11
503.49278848181984
 21
350.96690565448404
  0
LINE
  8
_0-3_躯体と製品
  6
CONTINUOUS
 62
    3
 10
507.69279048181852
 20
350.96691165448408
 11
505.19278648181853
 21
350.96690865448409
  0
LINE
  8
_0-3_躯体と製品
  6
CONTINUOUS
 62
    3
 10
508.69279048181852
 20
350.96691265448408
 11
509.39278848181993
 21
350.96691365448407
  0
ARC
  8
_0-3_躯体と製品
  6
CONTINUOUS
 62
    3
 10
509.39278848181993
 20
350.66691365448406
 40
0.2999999999999998
 50
0
 51
90
  0
ARC
  8
_0-3_躯体と製品
  6
CONTINUOUS
 62
    3
 10
503.49278848181984
 20
350.66690565448403
 40
0.2999999999999998
 50
90
 51
180
  0
ARC
  8
_0-3_躯体と製品
  6
CONTINUOUS
 62
    3
 10
506.44278848181966
 20
347.66698765448399
 40
2
 50
280.16424900000447
 51
332.73274699999217
  0
ARC
  8
_0-3_躯体と製品
  6
CONTINUOUS
 62
    3
 10
506.44278848181966
 20
347.66698765448399
 40
2
 50
207.26725299999899
 51
259.83575099999558
  0
ARC
  8
_0-3_躯体と製品
  6
CONTINUOUS
 62
    3
 10
506.44278848181966
 20
347.66698765448399
 40
1.399999999999999
 50
280.16424900000447
 51
332.73274700000093
  0
ARC
  8
_0-3_躯体と製品
  6
CONTINUOUS
 62
    3
 10
506.44278848181966
 20
347.66698765448399
 40
1.399999999999999
 50
207.26725299999899
 51
259.83575099999558
  0
ARC
  8
_0-3_躯体と製品
  6
CONTINUOUS
 62
    3
 10
504.69278648181853
 20
350.96690765448409
 40
0.5
 50
0
 51
180
  0
LINE
  8
_0-3_躯体と製品
  6
CONTINUOUS
 62
    3
 10
505.19835748181868
 20
347.02558965448418
 11
504.98196448181852
 21
347.44543165448408
  0
LINE
  8
_0-3_躯体と製品
  6
CONTINUOUS
 62
    3
 10
504.66503048181858
 20
346.75070465448403
 11
504.44863748181888
 21
347.17054665448399
  0
ARC
  8
_0-3_躯体と製品
  6
CONTINUOUS
 62
    3
 10
505.42640448181874
 20
347.67450265448417
 40
1.1000000000000001
 50
153.4351910000025
 51
207.26725299999899
  0
LINE
  8
_0-3_躯体と製品
  6
CONTINUOUS
 62
    3
 10
505.86361448181879
 20
349.66697565448408
 11
504.97918948181859
 21
347.89810765448408
  0
ARC
  8
_0-3_躯体と製品
  6
CONTINUOUS
 62
    3
 10
505.42640448181874
 20
347.67450265448417
 40
0.5
 50
153.4351910000025
 51
207.26725299999899
  0
LINE
  8
_0-3_躯体と製品
  6
CONTINUOUS
 62
    3
 10
505.19278848181966
 20
349.66696165448417
 11
504.44253248181985
 21
348.16643365448408
  0
ARC
  8
_0-3_躯体と製品
  6
CONTINUOUS
 62
    3
 10
504.14278848181857
 20
348.86690765448418
 40
0.2999999999999998
 50
0
 51
90
  0
LINE
  8
_0-3_躯体と製品
  6
CONTINUOUS
 62
    3
 10
503.24278848181893
 20
349.16690765448402
 11
504.14278848181857
 21
349.16690765448402
  0
LINE
  8
_0-3_躯体と製品
  6
CONTINUOUS
 62
    3
 10
504.44278848181966
 20
348.86690765448418
 11
504.44278848181966
 21
348.26690765448399
  0
ARC
  8
_0-3_躯体と製品
  6
CONTINUOUS
 62
    3
 10
504.14278848181857
 20
348.26690765448399
 40
0.2999999999999998
 50
270
 51
0
  0
ARC
  8
_0-3_躯体と製品
  6
CONTINUOUS
 62
    3
 10
508.74278848181893
 20
348.26690765448399
 40
0.2999999999999998
 50
180
 51
270
  0
LINE
  8
_0-3_躯体と製品
  6
CONTINUOUS
 62
    3
 10
508.74278848181893
 20
347.96690765448409
 11
510.64278848181857
 21
347.96690765448409
  0
LINE
  8
_0-3_躯体と製品
  6
CONTINUOUS
 62
    3
 10
508.44278848181966
 20
348.86690765448418
 11
508.44278848181966
 21
348.26690765448399
  0
ARC
  8
_0-3_躯体と製品
  6
CONTINUOUS
 62
    3
 10
508.74278848181893
 20
348.86690765448418
 40
0.2999999999999998
 50
90
 51
180
  0
LINE
  8
_0-3_躯体と製品
  6
CONTINUOUS
 62
    3
 10
508.74278848181893
 20
349.16690765448402
 11
509.64278848181857
 21
349.16690765448402
  0
ARC
  8
_0-3_躯体と製品
  6
CONTINUOUS
 62
    3
 10
509.64278848181857
 20
349.46690765448409
 40
0.2999999999999998
 50
270
 51
0
  0
LINE
  8
_0-3_躯体と製品
  6
CONTINUOUS
 62
    3
 10
509.94278848181966
 20
351.16690765448408
 11
509.94278848181966
 21
349.46690765448409
  0
ARC
  8
_0-3_躯体と製品
  6
CONTINUOUS
 62
    3
 10
509.64278848181857
 20
351.16690765448408
 40
0.2999999999999998
 50
0
 51
90
  0
LINE
  8
_0-3_躯体と製品
  6
CONTINUOUS
 62
    3
 10
503.24278848181893
 20
351.46690765448403
 11
509.64278848181857
 21
351.46690765448403
  0
ARC
  8
_0-3_躯体と製品
  6
CONTINUOUS
 62
    3
 10
503.24278848181893
 20
349.46690765448409
 40
0.2999999999999998
 50
180
 51
270
  0
LINE
  8
_0-3_躯体と製品
  6
CONTINUOUS
 62
    3
 10
502.94278848181966
 20
351.16690765448408
 11
502.94278848181966
 21
349.46690765448409
  0
ARC
  8
_0-3_躯体と製品
  6
CONTINUOUS
 62
    3
 10
503.24278848181893
 20
351.16690765448408
 40
0.2999999999999998
 50
90
 51
180
  0
ARC
  8
_0-3_躯体と製品
  6
CONTINUOUS
 62
    3
 10
510.64278848181857
 20
348.46690565448404
 40
0.5
 50
269.99981906595838
 51
0
  0
LINE
  8
_0-3_躯体と製品
  6
CONTINUOUS
 62
    3
 10
511.14278848181993
 20
352.46690765448415
 11
511.14278848181993
 21
348.46690565448404
  0
ARC
  8
_0-3_躯体と製品
  6
CONTINUOUS
 62
    3
 10
510.64278848181857
 20
352.46690765448415
 40
0.5
 50
0
 51
90
  0
ARC
  8
_0-3_躯体と製品
  6
CONTINUOUS
 62
    3
 10
572.39278848181857
 20
344.46690765448409
 40
0.5
 50
90
 51
180
  0
LINE
  8
_0-3_躯体と製品
  6
CONTINUOUS
 62
    3
 10
571.89278848181993
 20
342.71690765448415
 11
571.89278848181993
 21
344.46690765448409
  0
ARC
  8
_0-3_躯体と製品
  6
CONTINUOUS
 62
    3
 10
571.14278848181993
 20
342.71690765448415
 40
0.75
 50
270
 51
0
  0
ARC
  8
_0-3_躯体と製品
  6
CONTINUOUS
 62
    3
 10
571.14278848181993
 20
342.71690765448415
 40
0.75
 50
180
 51
270
  0
ARC
  8
_0-3_躯体と製品
  6
CONTINUOUS
 62
    3
 10
569.89278848181993
 20
344.46690765448409
 40
0.5
 50
0
 51
90
  0
LINE
  8
_0-3_躯体と製品
  6
CONTINUOUS
 62
    3
 10
570.39278848181993
 20
342.71690765448415
 11
570.39278848181993
 21
344.46690765448409
  0
TEXT
  8
_0-5_文字-記号
 62
    7
 10
523.11771285109262
 20
359.04967342745687
 40
6
 41
0.7999999999999952
 50
0
  1
3
  0
CIRCLE
  8
_0-5_文字-記号
  6
CONTINUOUS
 62
    3
 10
525.18979386561887
 20
362.29703467338408
 40
5
  0
TEXT
  8
_0-5_文字-記号
 62
    7
 10
523.52327838615975
 20
378.92238464567129
 40
6
 41
0.7999999999999952
 50
0
  1
9
  0
CIRCLE
  8
_0-5_文字-記号
  6
CONTINUOUS
 62
    3
 10
525.4833174652199
 20
382.29703467338402
 40
5
  0
TEXT
  8
_0-4_図面枠
 62
    7
 10
268.75243452826771
 20
534.17412064445068
 40
6
 41
0.8000000000000001
 50
0
  1
（アルミ２００タイプ）
  0
LINE
  8
_0-3_躯体と製品
  6
CENTER
 62
    3
 10
701.14278848181857
 20
346.11690765448412
 11
701.14278848181857
 21
280.36595501258415
  0
LINE
  8
_0-3_躯体と製品
  6
CONTINUOUS
 62
    3
 10
671.14278848181993
 20
332.96690765448415
 11
597.65929277631858
 21
259.48341194898416
  0
LINE
  8
_0-3_躯体と製品
  6
CONTINUOUS
 62
    3
 10
671.14278848181993
 20
333.96690765448415
 11
597.65929277631858
 21
260.48341194898416
  0
LINE
  8
_0-3_躯体と製品
  6
DASHED1
 62
    3
 10
766.14278848181857
 20
332.96690765448415
 11
766.14278848181857
 21
232.9669076544842
  0
LINE
  8
_0-3_躯体と製品
  6
CONTINUOUS
 62
    3
 10
671.14278848181993
 20
332.96690765448415
 11
671.14278848181993
 21
232.9669076544842
  0
LINE
  8
_0-3_躯体と製品
  6
DASHED1
 62
    3
 10
671.14278848181993
 20
232.9669076544842
 11
766.14278848181857
 21
232.9669076544842
  0
LINE
  8
_0-3_躯体と製品
  6
CONTINUOUS
 62
    3
 10
691.14278848181993
 20
334.46690765448415
 11
675.14278848181993
 21
334.46690765448415
  0
LINE
  8
_0-3_躯体と製品
  6
CONTINUOUS
 62
    3
 10
700.84278848181884
 20
335.96690765448415
 11
633.14278848181857
 21
335.96690765448415
  0
LINE
  8
_0-3_躯体と製品
  6
CONTINUOUS
 62
    3
 10
719.84278848181884
 20
351.46690765448403
 11
641.04278848181866
 21
351.46690765448403
  0
LINE
  8
_0-3_躯体と製品
  6
CONTINUOUS
 62
    3
 10
735.64278848181857
 20
352.96690765448403
 11
631.64278848181993
 21
352.96690765448403
  0
LINE
  8
_0-3_躯体と製品
  6
CONTINUOUS
 62
    3
 10
726.14278848181857
 20
333.96690765448415
 11
671.14278848181993
 21
333.96690765448415
  0
LINE
  8
_0-3_躯体と製品
  6
CONTINUOUS
 62
    3
 10
726.14278848181857
 20
332.96690765448415
 11
671.14278848181993
 21
332.96690765448415
  0
LINE
  8
_0-3_躯体と製品
  6
CONTINUOUS
 62
    3
 10
671.14278848181993
 20
332.96690765448415
 11
766.14278848181857
 21
332.96690765448415
  0
LINE
  8
_0-3_躯体と製品
  6
CONTINUOUS
 62
    3
 10
673.64278848181993
 20
334.46690765448415
 11
650.14278848181857
 21
334.46690765448415
  0
LINE
  8
_0-3_躯体と製品
  6
CONTINUOUS
 62
    3
 10
631.14278848181857
 20
344.21690765448409
 11
631.14278848181857
 21
334.46690765448415
  0
LINE
  8
_0-3_躯体と製品
  6
CONTINUOUS
 62
    3
 10
632.64278848181857
 20
344.21690765448409
 11
632.64278848181857
 21
336.46690765448415
  0
LINE
  8
_0-3_躯体と製品
  6
CONTINUOUS
 62
    3
 10
648.64278848181857
 20
334.46690765448415
 11
632.64278848181857
 21
334.46690765448415
  0
LINE
  8
_0-3_躯体と製品
  6
CONTINUOUS
 62
    3
 10
632.64278848181857
 20
334.46690765448415
 11
632.64278848181857
 21
333.96690765448415
  0
ARC
  8
_0-3_躯体と製品
  6
CONTINUOUS
 62
    3
 10
633.14278848181857
 20
336.46690765448415
 40
0.5
 50
180
 51
270
  0
ARC
  8
_0-3_躯体と製品
  6
CONTINUOUS
 62
    3
 10
631.64278848181993
 20
334.46690765448415
 40
0.5
 50
180
 51
270
  0
LINE
  8
_0-3_躯体と製品
  6
CONTINUOUS
 62
    3
 10
632.64278848181857
 20
333.96690765448415
 11
631.64278848181993
 21
333.96690765448415
  0
LINE
  8
_0-3_躯体と製品
  6
CONTINUOUS
 62
    3
 10
650.14278848181857
 20
333.96690765448415
 11
648.64278848181857
 21
333.96690765448415
  0
LINE
  8
_0-3_躯体と製品
  6
CONTINUOUS
 62
    3
 10
648.64278848181857
 20
334.46690765448415
 11
648.64278848181857
 21
333.96690765448415
  0
LINE
  8
_0-3_躯体と製品
  6
CONTINUOUS
 62
    3
 10
650.14278848181857
 20
334.46690765448415
 11
650.14278848181857
 21
333.96690765448415
  0
LINE
  8
_0-3_躯体と製品
  6
CENTER
 62
    3
 10
635.84389376651961
 20
354.21690765448409
 11
635.84389376651961
 21
342.96690765448415
  0
ARC
  8
_0-3_躯体と製品
  6
CONTINUOUS
 62
    3
 10
631.89278848181857
 20
344.21690765448409
 40
0.75
 50
0
 51
180
  0
ARC
  8
_0-3_躯体と製品
  6
CONTINUOUS
 62
    3
 10
636.14278848181993
 20
345.99366765448417
 40
0.2999999999999998
 50
100.16424900000442
 51
280.16424900000442
  0
ARC
  8
_0-3_躯体と製品
  6
CONTINUOUS
 62
    3
 10
635.54278848181866
 20
345.99366765448417
 40
0.2999999999999998
 50
259.83575099999564
 51
79.835750999995582
  0
ARC
  8
_0-3_躯体と製品
  6
CONTINUOUS
 62
    3
 10
637.59279048181861
 20
350.96690765448409
 40
0.5
 50
0
 51
180
  0
LINE
  8
_0-3_躯体と製品
  6
CONTINUOUS
 62
    3
 10
637.08721948181892
 20
347.02558965448418
 11
637.30361248181862
 21
347.44543165448408
  0
LINE
  8
_0-3_躯体と製品
  6
CONTINUOUS
 62
    3
 10
637.62054648181993
 20
346.75070465448403
 11
637.83693948181872
 21
347.17054665448399
  0
ARC
  8
_0-3_躯体と製品
  6
CONTINUOUS
 62
    3
 10
636.85917248181886
 20
347.67450265448417
 40
1.1000000000000001
 50
332.73274700000098
 51
26.564808999991662
  0
LINE
  8
_0-3_躯体と製品
  6
CONTINUOUS
 62
    3
 10
636.42196248181881
 20
349.66697565448408
 11
637.30638748181855
 21
347.89810765448408
  0
ARC
  8
_0-3_躯体と製品
  6
CONTINUOUS
 62
    3
 10
636.85917248181886
 20
347.67450265448417
 40
0.5
 50
332.73274699999217
 51
26.564808999991619
  0
LINE
  8
_0-3_躯体と製品
  6
CONTINUOUS
 62
    3
 10
637.09278848181975
 20
349.66696165448417
 11
637.84304448181865
 21
348.16643365448408
  0
LINE
  8
_0-3_躯体と製品
  6
CONTINUOUS
 62
    3
 10
639.09278548181874
 20
349.96704965448407
 11
639.09278848181884
 21
350.66691265448407
  0
ARC
  8
_0-3_躯体と製品
  6
CONTINUOUS
 62
    3
 10
632.89279148181868
 20
349.96691665448418
 40
0.2999999999999998
 50
180
 51
270.00129200000242
  0
LINE
  8
_0-3_躯体と製品
  6
CONTINUOUS
 62
    3
 10
632.59279148181986
 20
349.96691665448418
 11
632.59278848181884
 21
350.66690465448403
  0
ARC
  8
_0-3_躯体と製品
  6
CONTINUOUS
 62
    3
 10
638.79278548181856
 20
349.96704965448407
 40
0.2999999999999998
 50
270.00129200000242
 51
0
  0
LINE
  8
_0-3_躯体と製品
  6
CONTINUOUS
 62
    3
 10
632.89052748181894
 20
349.66692565448409
 11
638.79279148181877
 21
349.66704965448406
  0
LINE
  8
_0-3_躯体と製品
  6
CONTINUOUS
 62
    3
 10
633.59278648181953
 20
350.96690665448409
 11
632.89278848181993
 21
350.96690565448404
  0
LINE
  8
_0-3_躯体と製品
  6
CONTINUOUS
 62
    3
 10
637.09279048181861
 20
350.96691165448408
 11
634.59278648181953
 21
350.96690865448409
  0
LINE
  8
_0-3_躯体と製品
  6
CONTINUOUS
 62
    3
 10
638.09279048181861
 20
350.96691265448408
 11
638.79278848181866
 21
350.96691365448407
  0
ARC
  8
_0-3_躯体と製品
  6
CONTINUOUS
 62
    3
 10
638.79278848181866
 20
350.66691365448406
 40
0.2999999999999998
 50
0
 51
90
  0
ARC
  8
_0-3_躯体と製品
  6
CONTINUOUS
 62
    3
 10
632.89278848181993
 20
350.66690565448403
 40
0.2999999999999998
 50
90
 51
180
  0
ARC
  8
_0-3_躯体と製品
  6
CONTINUOUS
 62
    3
 10
635.84278848181884
 20
347.66698765448399
 40
2
 50
280.16424900000447
 51
332.73274699999217
  0
ARC
  8
_0-3_躯体と製品
  6
CONTINUOUS
 62
    3
 10
635.84278848181884
 20
347.66698765448399
 40
2
 50
207.26725299999899
 51
259.83575099999558
  0
ARC
  8
_0-3_躯体と製品
  6
CONTINUOUS
 62
    3
 10
635.84278848181884
 20
347.66698765448399
 40
1.399999999999999
 50
280.16424900000447
 51
332.73274700000093
  0
ARC
  8
_0-3_躯体と製品
  6
CONTINUOUS
 62
    3
 10
635.84278848181884
 20
347.66698765448399
 40
1.399999999999999
 50
207.26725299999899
 51
259.83575099999558
  0
ARC
  8
_0-3_躯体と製品
  6
CONTINUOUS
 62
    3
 10
634.09278648181862
 20
350.96690765448409
 40
0.5
 50
0
 51
180
  0
LINE
  8
_0-3_躯体と製品
  6
CONTINUOUS
 62
    3
 10
634.59835748181877
 20
347.02558965448418
 11
634.38196448181952
 21
347.44543165448408
  0
LINE
  8
_0-3_躯体と製品
  6
CONTINUOUS
 62
    3
 10
634.06503048181867
 20
346.75070465448403
 11
633.84863748181897
 21
347.17054665448399
  0
ARC
  8
_0-3_躯体と製品
  6
CONTINUOUS
 62
    3
 10
634.82640448181883
 20
347.67450265448417
 40
1.1000000000000001
 50
153.4351910000025
 51
207.26725299999899
  0
LINE
  8
_0-3_躯体と製品
  6
CONTINUOUS
 62
    3
 10
635.26361448181888
 20
349.66697565448408
 11
634.37918948181868
 21
347.89810765448408
  0
ARC
  8
_0-3_躯体と製品
  6
CONTINUOUS
 62
    3
 10
634.82640448181883
 20
347.67450265448417
 40
0.5
 50
153.4351910000025
 51
207.26725299999899
  0
LINE
  8
_0-3_躯体と製品
  6
CONTINUOUS
 62
    3
 10
634.59278848181884
 20
349.66696165448417
 11
633.84253248181858
 21
348.16643365448408
  0
ARC
  8
_0-3_躯体と製品
  6
CONTINUOUS
 62
    3
 10
638.14278848181857
 20
348.86690765448418
 40
0.2999999999999998
 50
90
 51
180
  0
LINE
  8
_0-3_躯体と製品
  6
CONTINUOUS
 62
    3
 10
639.04278848181866
 20
349.16690765448402
 11
638.14278848181857
 21
349.16690765448402
  0
LINE
  8
_0-3_躯体と製品
  6
CONTINUOUS
 62
    3
 10
637.84278848181975
 20
348.86690765448418
 11
637.84278848181975
 21
348.26690765448399
  0
ARC
  8
_0-3_躯体と製品
  6
CONTINUOUS
 62
    3
 10
638.14278848181857
 20
348.26690765448399
 40
0.2999999999999998
 50
180
 51
270
  0
LINE
  8
_0-3_躯体と製品
  6
CONTINUOUS
 62
    3
 10
640.04278848181866
 20
347.96690765448409
 11
638.14278848181857
 21
347.96690765448409
  0
ARC
  8
_0-3_躯体と製品
  6
CONTINUOUS
 62
    3
 10
633.54278848181866
 20
348.26690765448399
 40
0.2999999999999998
 50
270
 51
0
  0
LINE
  8
_0-3_躯体と製品
  6
CONTINUOUS
 62
    3
 10
633.54278848181866
 20
347.96690765448409
 11
631.64278848181993
 21
347.96690765448409
  0
LINE
  8
_0-3_躯体と製品
  6
CONTINUOUS
 62
    3
 10
633.84278848181975
 20
348.86690765448418
 11
633.84278848181975
 21
348.26690765448399
  0
ARC
  8
_0-3_躯体と製品
  6
CONTINUOUS
 62
    3
 10
633.54278848181866
 20
348.86690765448418
 40
0.2999999999999998
 50
0
 51
90
  0
LINE
  8
_0-3_躯体と製品
  6
CONTINUOUS
 62
    3
 10
633.54278848181866
 20
349.16690765448402
 11
632.64278848181857
 21
349.16690765448402
  0
ARC
  8
_0-3_躯体と製品
  6
CONTINUOUS
 62
    3
 10
632.64278848181857
 20
349.46690765448409
 40
0.2999999999999998
 50
180
 51
270
  0
LINE
  8
_0-3_躯体と製品
  6
CONTINUOUS
 62
    3
 10
632.34278848181884
 20
351.16690765448408
 11
632.34278848181884
 21
349.46690765448409
  0
ARC
  8
_0-3_躯体と製品
  6
CONTINUOUS
 62
    3
 10
632.64278848181857
 20
351.16690765448408
 40
0.2999999999999998
 50
90
 51
180
  0
LINE
  8
_0-3_躯体と製品
  6
CONTINUOUS
 62
    3
 10
639.04278848181866
 20
351.46690765448403
 11
632.64278848181857
 21
351.46690765448403
  0
ARC
  8
_0-3_躯体と製品
  6
CONTINUOUS
 62
    3
 10
639.04278848181866
 20
349.46690765448409
 40
0.2999999999999998
 50
270
 51
0
  0
LINE
  8
_0-3_躯体と製品
  6
CONTINUOUS
 62
    3
 10
639.34278848181975
 20
351.16690765448408
 11
639.34278848181975
 21
349.46690765448409
  0
ARC
  8
_0-3_躯体と製品
  6
CONTINUOUS
 62
    3
 10
639.04278848181866
 20
351.16690765448408
 40
0.2999999999999998
 50
0
 51
90
  0
ARC
  8
_0-3_躯体と製品
  6
CONTINUOUS
 62
    3
 10
640.04278848181866
 20
348.46690765448403
 40
0.5
 50
270
 51
0
  0
LINE
  8
_0-3_躯体と製品
  6
CONTINUOUS
 62
    3
 10
640.54278848181866
 20
350.96690765448409
 11
640.54278848181866
 21
348.46690765448403
  0
ARC
  8
_0-3_躯体と製品
  6
CONTINUOUS
 62
    3
 10
641.04278848181866
 20
350.96690765448409
 40
0.5
 50
90
 51
180
  0
ARC
  8
_0-3_躯体と製品
  6
CONTINUOUS
 62
    3
 10
631.64278848181993
 20
348.46690565448404
 40
0.5
 50
180
 51
270.0001809340024
  0
LINE
  8
_0-3_躯体と製品
  6
CONTINUOUS
 62
    3
 10
631.14278848181857
 20
352.46690765448415
 11
631.14278848181857
 21
348.46690565448404
  0
ARC
  8
_0-3_躯体と製品
  6
CONTINUOUS
 62
    3
 10
631.64278848181993
 20
352.46690765448415
 40
0.5
 50
90
 51
180
  0
LINE
  8
_0-3_躯体と製品
  6
CONTINUOUS
 62
    3
 10
675.14278848181993
 20
333.96690765448415
 11
673.64278848181993
 21
333.96690765448415
  0
LINE
  8
_0-3_躯体と製品
  6
CONTINUOUS
 62
    3
 10
673.64278848181993
 20
334.46690765448415
 11
673.64278848181993
 21
333.96690765448415
  0
LINE
  8
_0-3_躯体と製品
  6
CONTINUOUS
 62
    3
 10
675.14278848181993
 20
334.46690765448415
 11
675.14278848181993
 21
333.96690765448415
  0
LINE
  8
_0-3_躯体と製品
  6
CONTINUOUS
 62
    3
 10
666.14278848181857
 20
346.26690765448393
 11
666.44278848181875
 21
346.56690765448417
  0
LINE
  8
_0-3_躯体と製品
  6
CONTINUOUS
 62
    3
 10
666.14278848181857
 20
346.26690765448393
 11
665.84278848181884
 21
346.56690765448417
  0
LINE
  8
_0-3_躯体と製品
  6
CONTINUOUS
 62
    3
 10
669.64278848181993
 20
342.71690765448415
 11
669.64278848181993
 21
344.46690765448409
  0
ARC
  8
_0-3_躯体と製品
  6
CONTINUOUS
 62
    3
 10
669.14278848181857
 20
344.46690765448409
 40
0.5
 50
0
 51
90
  0
LINE
  8
_0-3_躯体と製品
  6
CONTINUOUS
 62
    3
 10
671.14278848181993
 20
342.71690765448415
 11
671.14278848181993
 21
346.06690765448417
  0
ARC
  8
_0-3_躯体と製品
  6
CONTINUOUS
 62
    3
 10
670.39278848181993
 20
342.71690765448415
 40
0.75
 50
180
 51
0
  0
LINE
  8
_0-3_躯体と製品
  6
CONTINUOUS
 62
    3
 10
666.44278848181875
 20
346.56690765448417
 11
670.64278848181857
 21
346.56690765448417
  0
ARC
  8
_0-3_躯体と製品
  6
CONTINUOUS
 62
    3
 10
670.64278848181857
 20
346.06690765448417
 40
0.5
 50
0
 51
90
  0
LINE
  8
_0-3_躯体と製品
  6
CENTER
 62
    3
 10
720.14278848181857
 20
360.71690765448415
 11
720.14278848181857
 21
337.96690765448415
  0
LINE
  8
_0-3_躯体と製品
  6
CONTINUOUS
 62
    3
 10
716.14278848181857
 20
356.48726465448402
 11
716.14278848181857
 21
355.46690765448415
  0
LINE
  8
_0-3_躯体と製品
  6
CONTINUOUS
 62
    3
 10
724.14278848181857
 20
356.48726465448402
 11
724.14278848181857
 21
355.46690765448415
  0
LINE
  8
_0-3_躯体と製品
  6
CONTINUOUS
 62
    3
 10
724.44106848181855
 20
355.46691565448407
 11
715.84470548181889
 21
355.46705365448418
  0
LINE
  8
_0-3_躯体と製品
  6
CONTINUOUS
 62
    3
 10
726.14278848181857
 20
353.96690765448409
 11
714.14278848181857
 21
353.96690765448409
  0
LINE
  8
_0-3_躯体と製品
  6
CONTINUOUS
 62
    3
 10
726.14278848181857
 20
354.71690765448409
 11
714.14278848181857
 21
354.71690765448409
  0
LINE
  8
_0-3_躯体と製品
  6
CONTINUOUS
 62
    3
 10
733.89278848181857
 20
351.46690765448403
 11
714.14278848181857
 21
351.46690765448403
  0
LINE
  8
_0-3_躯体と製品
  6
CONTINUOUS
 62
    3
 10
724.64278848181857
 20
334.46690765448415
 11
711.14278848181857
 21
334.46690765448415
  0
LINE
  8
_0-3_躯体と製品
  6
CONTINUOUS
 62
    3
 10
701.44278848181875
 20
335.96690765448415
 11
723.84278848181884
 21
335.96690765448415
  0
LINE
  8
_0-3_躯体と製品
  6
CONTINUOUS
 62
    3
 10
715.14278848181857
 20
349.46690765448409
 11
723.84278848181884
 21
349.46690765448409
  0
LINE
  8
_0-3_躯体と製品
  6
CONTINUOUS
 62
    3
 10
733.89278848181857
 20
351.46690765448403
 11
720.44278848181875
 21
351.46690765448403
  0
LINE
  8
_0-3_躯体と製品
  6
CONTINUOUS
 62
    3
 10
720.44278848181875
 20
351.46690765448403
 11
734.34278848181884
 21
351.46690765448403
  0
LINE
  8
_0-3_躯体と製品
  6
CONTINUOUS
 62
    3
 10
699.02037348181875
 20
294.00939165448409
 11
700.64278848181857
 21
324.96690765448415
  0
LINE
  8
_0-3_躯体と製品
  6
CONTINUOUS
 62
    3
 10
697.14278848181857
 20
320.96690765448415
 11
697.14278848181857
 21
324.96690765448415
  0
LINE
  8
_0-3_躯体と製品
  6
CONTINUOUS
 62
    3
 10
703.26520348181884
 20
294.00939165448409
 11
701.64278848181857
 21
324.96690765448415
  0
LINE
  8
_0-3_躯体と製品
  6
CONTINUOUS
 62
    3
 10
705.14278848181857
 20
320.96690765448415
 11
705.14278848181857
 21
324.96690765448415
  0
LINE
  8
_0-3_躯体と製品
  6
CONTINUOUS
 62
    3
 10
707.46512848181874
 20
324.77054965448423
 11
706.52169648181871
 21
318.16652865448424
  0
LINE
  8
_0-3_躯体と製品
  6
CONTINUOUS
 62
    3
 10
707.46138948181988
 20
317.82450865448408
 11
708.45374448181974
 21
324.62813065448398
  0
LINE
  8
_0-3_躯体と製品
  6
CONTINUOUS
 62
    3
 10
694.82044848181886
 20
324.77054965448423
 11
695.7638804818198
 21
318.16652865448424
  0
LINE
  8
_0-3_躯体と製品
  6
CONTINUOUS
 62
    3
 10
694.82418748181863
 20
317.82450865448408
 11
693.83183248181876
 21
324.62813065448398
  0
LINE
  8
_0-3_躯体と製品
  6
CONTINUOUS
 62
    3
 10
694.82044848181886
 20
324.77054965448423
 11
695.7638804818198
 21
318.16652865448424
  0
LINE
  8
_0-3_躯体と製品
  6
CONTINUOUS
 62
    3
 10
694.82418748181863
 20
317.82450865448408
 11
693.83183248181876
 21
324.62813065448398
  0
LINE
  8
_0-3_躯体と製品
  6
CONTINUOUS
 62
    3
 10
699.27334448181864
 20
298.83635165448408
 11
701.14278848181857
 21
296.96690765448415
  0
LINE
  8
_0-3_躯体と製品
  6
CONTINUOUS
 62
    3
 10
696.25787348181984
 20
308.17338165448399
 11
696.15320148181991
 21
306.17612265448423
  0
LINE
  8
_0-3_躯体と製品
  6
CONTINUOUS
 62
    3
 10
695.73451448181868
 20
298.18708565448406
 11
695.62984248181874
 21
296.18982665448408
  0
LINE
  8
_0-3_躯体と製品
  6
CONTINUOUS
 62
    3
 10
697.73177348181889
 20
298.08241465448424
 11
695.73451448181868
 21
298.18708565448406
  0
LINE
  8
_0-3_躯体と製品
  6
CONTINUOUS
 62
    3
 10
697.83644548181883
 20
300.07967365448422
 11
697.73177348181889
 21
298.08241465448424
  0
LINE
  8
_0-3_躯体と製品
  6
CONTINUOUS
 62
    3
 10
695.89152248181881
 20
301.1829746544841
 11
697.83644548181883
 21
300.07967365448422
  0
LINE
  8
_0-3_躯体と製品
  6
CONTINUOUS
 62
    3
 10
695.99619448181875
 20
303.18023365448408
 11
695.89152248181881
 21
301.1829746544841
  0
LINE
  8
_0-3_躯体と製品
  6
CONTINUOUS
 62
    3
 10
697.99345348181987
 20
303.07556165448415
 11
695.99619448181875
 21
303.18023365448408
  0
LINE
  8
_0-3_躯体と製品
  6
CONTINUOUS
 62
    3
 10
698.0981254818189
 20
305.07282065448413
 11
697.99345348181987
 21
303.07556165448415
  0
LINE
  8
_0-3_躯体と製品
  6
CONTINUOUS
 62
    3
 10
696.15320148181991
 20
306.17612265448423
 11
698.0981254818189
 21
305.07282065448413
  0
LINE
  8
_0-3_躯体と製品
  6
CONTINUOUS
 62
    3
 10
697.52242948181856
 20
294.08789565448416
 11
699.02037348181875
 21
294.00939165448409
  0
LINE
  8
_0-3_躯体と製品
  6
CONTINUOUS
 62
    3
 10
695.62984248181874
 20
296.18982665448408
 11
697.52242948181856
 21
294.08789565448416
  0
LINE
  8
_0-3_躯体と製品
  6
CONTINUOUS
 62
    3
 10
699.12504548181869
 20
296.00665165448407
 11
695.62984248181874
 21
296.18982665448408
  0
LINE
  8
_0-3_躯体と製品
  6
CONTINUOUS
 62
    3
 10
698.25513248181869
 20
308.06870965448417
 11
696.25787348181984
 21
308.17338165448399
  0
LINE
  8
_0-3_躯体と製品
  6
CONTINUOUS
 62
    3
 10
698.35980448181863
 20
310.06596865448415
 11
698.25513248181869
 21
308.06870965448417
  0
LINE
  8
_0-3_躯体と製品
  6
CONTINUOUS
 62
    3
 10
696.41488148181861
 20
311.16926965448414
 11
698.35980448181863
 21
310.06596865448415
  0
LINE
  8
_0-3_躯体と製品
  6
CONTINUOUS
 62
    3
 10
696.51955348181991
 20
313.16652865448424
 11
696.41488148181861
 21
311.16926965448414
  0
LINE
  8
_0-3_躯体と製品
  6
CONTINUOUS
 62
    3
 10
698.51681248181876
 20
313.06185765448407
 11
696.51955348181991
 21
313.16652865448424
  0
LINE
  8
_0-3_躯体と製品
  6
CONTINUOUS
 62
    3
 10
698.6214844818187
 20
315.05911665448417
 11
698.51681248181876
 21
313.06185765448407
  0
LINE
  8
_0-3_躯体と製品
  6
CONTINUOUS
 62
    3
 10
696.67656148181868
 20
316.16241765448416
 11
698.6214844818187
 21
315.05911665448417
  0
LINE
  8
_0-3_躯体と製品
  6
CONTINUOUS
 62
    3
 10
696.78123348181862
 20
318.15967665448414
 11
696.67656148181868
 21
316.16241765448416
  0
LINE
  8
_0-3_躯体と製品
  6
CONTINUOUS
 62
    3
 10
698.77849248181974
 20
318.05500465448398
 11
696.78123348181862
 21
318.15967665448414
  0
LINE
  8
_0-3_躯体と製品
  6
CONTINUOUS
 62
    3
 10
698.88316448181877
 20
320.05226365448408
 11
698.77849248181974
 21
318.05500465448398
  0
LINE
  8
_0-3_躯体と製品
  6
CONTINUOUS
 62
    3
 10
697.14278848181857
 20
320.96690765448415
 11
698.88316448181877
 21
320.05226365448408
  0
LINE
  8
_0-3_躯体と製品
  6
CONTINUOUS
 62
    3
 10
696.51955348181991
 20
313.16652865448424
 11
694.82418748181863
 21
317.82450865448408
  0
LINE
  8
_0-3_躯体と製品
  6
CONTINUOUS
 62
    3
 10
697.58373148181863
 20
313.16652865448424
 11
695.7638804818198
 21
318.16652865448424
  0
LINE
  8
_0-3_躯体と製品
  6
CONTINUOUS
 62
    3
 10
706.02770348181866
 20
308.17338165448399
 11
706.1323754818186
 21
306.17612265448423
  0
LINE
  8
_0-3_躯体と製品
  6
CONTINUOUS
 62
    3
 10
706.55106248181983
 20
298.18708565448406
 11
706.65573448181885
 21
296.18982665448408
  0
LINE
  8
_0-3_躯体と製品
  6
CONTINUOUS
 62
    3
 10
704.5538034818187
 20
298.08241465448424
 11
706.55106248181983
 21
298.18708565448406
  0
LINE
  8
_0-3_躯体と製品
  6
CONTINUOUS
 62
    3
 10
704.44913148181877
 20
300.07967365448422
 11
704.5538034818187
 21
298.08241465448424
  0
LINE
  8
_0-3_躯体と製品
  6
CONTINUOUS
 62
    3
 10
706.39405448181878
 20
301.1829746544841
 11
704.44913148181877
 21
300.07967365448422
  0
LINE
  8
_0-3_躯体と製品
  6
CONTINUOUS
 62
    3
 10
706.28938248181885
 20
303.18023365448408
 11
706.39405448181878
 21
301.1829746544841
  0
LINE
  8
_0-3_躯体と製品
  6
CONTINUOUS
 62
    3
 10
704.29212348181863
 20
303.07556165448415
 11
706.28938248181885
 21
303.18023365448408
  0
LINE
  8
_0-3_躯体と製品
  6
CONTINUOUS
 62
    3
 10
704.1874514818187
 20
305.07282065448413
 11
704.29212348181863
 21
303.07556165448415
  0
LINE
  8
_0-3_躯体と製品
  6
CONTINUOUS
 62
    3
 10
706.1323754818186
 20
306.17612265448423
 11
704.1874514818187
 21
305.07282065448413
  0
LINE
  8
_0-3_躯体と製品
  6
CONTINUOUS
 62
    3
 10
703.01223248181896
 20
298.83635165448408
 11
701.14278848181857
 21
296.96690765448415
  0
LINE
  8
_0-3_躯体と製品
  6
CONTINUOUS
 62
    3
 10
704.76314748181858
 20
294.08789565448416
 11
703.26520348181884
 21
294.00939165448409
  0
LINE
  8
_0-3_躯体と製品
  6
CONTINUOUS
 62
    3
 10
706.65573448181885
 20
296.18982665448408
 11
704.76314748181858
 21
294.08789565448416
  0
LINE
  8
_0-3_躯体と製品
  6
CONTINUOUS
 62
    3
 10
703.16053148181891
 20
296.00665165448407
 11
706.65573448181885
 21
296.18982665448408
  0
LINE
  8
_0-3_躯体と製品
  6
CONTINUOUS
 62
    3
 10
704.0304444818189
 20
308.06870965448417
 11
706.02770348181866
 21
308.17338165448399
  0
LINE
  8
_0-3_躯体と製品
  6
CONTINUOUS
 62
    3
 10
703.92577248181897
 20
310.06596865448415
 11
704.0304444818189
 21
308.06870965448417
  0
LINE
  8
_0-3_躯体と製品
  6
CONTINUOUS
 62
    3
 10
705.87069548181853
 20
311.16926965448414
 11
703.92577248181897
 21
310.06596865448415
  0
LINE
  8
_0-3_躯体と製品
  6
CONTINUOUS
 62
    3
 10
705.76602348181859
 20
313.16652865448424
 11
705.87069548181853
 21
311.16926965448414
  0
LINE
  8
_0-3_躯体と製品
  6
CONTINUOUS
 62
    3
 10
703.76876448181974
 20
313.06185765448407
 11
705.76602348181859
 21
313.16652865448424
  0
LINE
  8
_0-3_躯体と製品
  6
CONTINUOUS
 62
    3
 10
703.66409248181981
 20
315.05911665448417
 11
703.76876448181974
 21
313.06185765448407
  0
LINE
  8
_0-3_躯体と製品
  6
CONTINUOUS
 62
    3
 10
705.60901548181891
 20
316.16241765448416
 11
703.66409248181981
 21
315.05911665448417
  0
LINE
  8
_0-3_躯体と製品
  6
CONTINUOUS
 62
    3
 10
705.50434348181852
 20
318.15967665448414
 11
705.60901548181891
 21
316.16241765448416
  0
LINE
  8
_0-3_躯体と製品
  6
CONTINUOUS
 62
    3
 10
703.50708448181877
 20
318.05500465448398
 11
705.50434348181852
 21
318.15967665448414
  0
LINE
  8
_0-3_躯体と製品
  6
CONTINUOUS
 62
    3
 10
703.40241248181974
 20
320.05226365448408
 11
703.50708448181877
 21
318.05500465448398
  0
LINE
  8
_0-3_躯体と製品
  6
CONTINUOUS
 62
    3
 10
705.14278848181857
 20
320.96690765448415
 11
703.40241248181974
 21
320.05226365448408
  0
LINE
  8
_0-3_躯体と製品
  6
CONTINUOUS
 62
    3
 10
705.76602348181859
 20
313.16652865448424
 11
707.46138948181988
 21
317.82450865448408
  0
LINE
  8
_0-3_躯体と製品
  6
CONTINUOUS
 62
    3
 10
704.70184548181896
 20
313.16652865448424
 11
706.52169648181871
 21
318.16652865448424
  0
LINE
  8
_0-3_躯体と製品
  6
CONTINUOUS
 62
    3
 10
710.14278848181857
 20
335.96690765448415
 11
692.14278848181857
 21
335.96690765448415
  0
LINE
  8
_0-3_躯体と製品
  6
CONTINUOUS
 62
    3
 10
710.14278848181857
 20
337.46690765448415
 11
692.14278848181857
 21
337.46690765448415
  0
ARC
  8
_0-3_躯体と製品
  6
CONTINUOUS
 62
    3
 10
701.14278848181857
 20
328.76690765448399
 40
12
 50
74.506032000000928
 51
105.493967999999
  0
LINE
  8
_0-3_躯体と製品
  6
CONTINUOUS
 62
    3
 10
706.14278848181857
 20
332.96690765448415
 11
696.14278848181993
 21
332.96690765448415
  0
LINE
  8
_0-3_躯体と製品
  6
CONTINUOUS
 62
    3
 10
711.14278848181857
 20
333.96690765448415
 11
691.14278848181993
 21
333.96690765448415
  0
ARC
  8
_0-3_躯体と製品
  6
CONTINUOUS
 62
    3
 10
698.36456448181889
 20
338.78895665448414
 40
1.6000000000000001
 50
105.493967999999
 51
175.00000000000051
  0
LINE
  8
_0-3_躯体と製品
  6
CONTINUOUS
 62
    3
 10
692.14278848181857
 20
337.46690765448415
 11
692.14278848181857
 21
335.96690765448415
  0
LINE
  8
_0-3_躯体と製品
  6
CONTINUOUS
 62
    3
 10
696.77065348181895
 20
338.92840665448415
 11
696.64278848181857
 21
337.46690765448415
  0
LINE
  8
_0-3_躯体と製品
  6
CONTINUOUS
 62
    3
 10
696.14278848181993
 20
332.96690765448415
 11
697.14278848181857
 21
327.96690765448415
  0
LINE
  8
_0-3_躯体と製品
  6
CONTINUOUS
 62
    3
 10
697.14278848181857
 20
332.96690765448415
 11
697.14278848181857
 21
324.96690765448415
  0
ARC
  8
_0-3_躯体と製品
  6
CONTINUOUS
 62
    3
 10
694.42446848181862
 20
324.71398065448415
 40
0.4
 50
8.1301019999918065
 51
98.130101999984902
  0
LINE
  8
_0-3_躯体と製品
  6
CONTINUOUS
 62
    3
 10
694.17107548181866
 20
325.08184265448398
 11
694.36790048181865
 21
325.10996065448415
  0
ARC
  8
_0-3_躯体と製品
  6
CONTINUOUS
 62
    3
 10
694.22764448181852
 20
324.68586265448408
 40
0.4
 50
98.130101999984902
 51
188.29846599999979
  0
ARC
  8
_0-3_躯体と製品
  6
CONTINUOUS
 62
    3
 10
694.42446848181862
 20
324.71398065448415
 40
0.4
 50
8.1301019999918065
 51
98.130101999984902
  0
LINE
  8
_0-3_躯体と製品
  6
CONTINUOUS
 62
    3
 10
694.17107548181866
 20
325.08184265448398
 11
694.36790048181865
 21
325.10996065448415
  0
ARC
  8
_0-3_躯体と製品
  6
CONTINUOUS
 62
    3
 10
694.22764448181852
 20
324.68586265448408
 40
0.4
 50
98.130101999984902
 51
188.29846599999979
  0
LINE
  8
_0-3_躯体と製品
  6
CONTINUOUS
 62
    3
 10
691.14278848181993
 20
334.46690765448415
 11
691.14278848181993
 21
333.96690765448415
  0
ARC
  8
_0-3_躯体と製品
  6
CONTINUOUS
 62
    3
 10
703.92101248181871
 20
338.78895665448414
 40
1.6000000000000001
 50
5.0000000000059481
 51
74.506032000000914
  0
LINE
  8
_0-3_躯体と製品
  6
CONTINUOUS
 62
    3
 10
710.14278848181857
 20
337.46690765448415
 11
710.14278848181857
 21
335.96690765448415
  0
LINE
  8
_0-3_躯体と製品
  6
CONTINUOUS
 62
    3
 10
705.51492348181864
 20
338.92840665448415
 11
705.64278848181857
 21
337.46690765448415
  0
LINE
  8
_0-3_躯体と製品
  6
CONTINUOUS
 62
    3
 10
701.14278848181857
 20
327.96690765448415
 11
701.14278848181857
 21
332.96690765448415
  0
LINE
  8
_0-3_躯体と製品
  6
CONTINUOUS
 62
    3
 10
700.14278848181993
 20
332.96690765448415
 11
701.14278848181857
 21
327.96690765448415
  0
LINE
  8
_0-3_躯体と製品
  6
CONTINUOUS
 62
    3
 10
702.14278848181857
 20
332.96690765448415
 11
701.14278848181857
 21
327.96690765448415
  0
LINE
  8
_0-3_躯体と製品
  6
CONTINUOUS
 62
    3
 10
706.14278848181857
 20
332.96690765448415
 11
705.14278848181857
 21
327.96690765448415
  0
LINE
  8
_0-3_躯体と製品
  6
CONTINUOUS
 62
    3
 10
705.14278848181857
 20
332.96690765448415
 11
705.14278848181857
 21
324.96690765448415
  0
LINE
  8
_0-3_躯体と製品
  6
CONTINUOUS
 62
    3
 10
700.64278848181857
 20
324.96690765448415
 11
701.14278848181857
 21
324.96690765448415
  0
LINE
  8
_0-3_躯体と製品
  6
CONTINUOUS
 62
    3
 10
701.64278848181857
 20
324.96690765448415
 11
701.14278848181857
 21
324.96690765448415
  0
ARC
  8
_0-3_躯体と製品
  6
CONTINUOUS
 62
    3
 10
707.86110748181864
 20
324.71398065448415
 40
0.4
 50
81.869897999975962
 51
171.86989799999853
  0
LINE
  8
_0-3_躯体と製品
  6
CONTINUOUS
 62
    3
 10
708.11450148181893
 20
325.08184265448398
 11
707.91767648181894
 21
325.10996065448415
  0
ARC
  8
_0-3_躯体と製品
  6
CONTINUOUS
 62
    3
 10
708.05793248181863
 20
324.68586265448408
 40
0.4
 50
351.7015339999968
 51
81.869898000015112
  0
LINE
  8
_0-3_躯体と製品
  6
CONTINUOUS
 62
    3
 10
701.14278848181857
 20
335.66690765448408
 11
700.84278848181884
 21
335.96690765448415
  0
LINE
  8
_0-3_躯体と製品
  6
CONTINUOUS
 62
    3
 10
701.14278848181857
 20
335.66690765448408
 11
701.44278848181875
 21
335.96690765448415
  0
LINE
  8
_0-3_躯体と製品
  6
CONTINUOUS
 62
    3
 10
711.14278848181857
 20
334.46690765448415
 11
711.14278848181857
 21
333.96690765448415
  0
LINE
  8
_0-3_躯体と製品
  6
CONTINUOUS
 62
    3
 10
717.80945548181853
 20
349.79907265448406
 11
718.38478214501856
 21
349.46690765448409
  0
LINE
  8
_0-3_躯体と製品
  6
CONTINUOUS
 62
    3
 10
719.45720418161864
 20
349.46690765448409
 11
717.80945548181853
 21
349.79907265448406
  0
LINE
  8
_0-3_躯体と製品
  6
CONTINUOUS
 62
    3
 10
721.11286802551876
 20
349.46690765448409
 11
718.54278848181866
 21
350.22246365448393
  0
LINE
  8
_0-3_躯体と製品
  6
CONTINUOUS
 62
    3
 10
721.74278848181893
 20
350.31642365448408
 11
721.74278848181893
 21
349.46690765448409
  0
LINE
  8
_0-3_躯体と製品
  6
CONTINUOUS
 62
    3
 10
721.87750348181862
 20
352.96690765448403
 11
722.47612148181861
 21
352.62129565448407
  0
LINE
  8
_0-3_躯体と製品
  6
CONTINUOUS
 62
    3
 10
722.47612148181861
 20
352.62129565448407
 11
721.74278848181893
 21
352.19790465448409
  0
LINE
  8
_0-3_躯体と製品
  6
CONTINUOUS
 62
    3
 10
720.76166648181879
 20
352.96690765448403
 11
722.47612148181861
 21
352.62129565448407
  0
LINE
  8
_0-3_躯体と製品
  6
CONTINUOUS
 62
    3
 10
719.12696848181895
 20
352.96690765448403
 11
721.74278848181893
 21
352.19790465448409
  0
LINE
  8
_0-3_躯体と製品
  6
CONTINUOUS
 62
    3
 10
718.54278848181866
 20
352.10394465448417
 11
717.80945548181853
 21
351.68055465448407
  0
LINE
  8
_0-3_躯体と製品
  6
CONTINUOUS
 62
    3
 10
717.80945548181853
 20
351.68055465448407
 11
718.54278848181866
 21
351.25716465448409
  0
LINE
  8
_0-3_躯体と製品
  6
CONTINUOUS
 62
    3
 10
722.47612148181861
 20
350.73981365448407
 11
721.74278848181893
 21
351.16320365448416
  0
LINE
  8
_0-3_躯体と製品
  6
CONTINUOUS
 62
    3
 10
722.47612148181861
 20
350.73981365448407
 11
721.74278848181893
 21
350.31642365448408
  0
LINE
  8
_0-3_躯体と製品
  6
CONTINUOUS
 62
    3
 10
722.47612148181861
 20
350.73981365448407
 11
717.80945548181853
 21
351.68055465448407
  0
LINE
  8
_0-3_躯体と製品
  6
CONTINUOUS
 62
    3
 10
721.74278848181893
 20
351.16320365448416
 11
718.54278848181866
 21
352.10394465448417
  0
LINE
  8
_0-3_躯体と製品
  6
CONTINUOUS
 62
    3
 10
721.74278848181893
 20
350.31642365448408
 11
718.54278848181866
 21
351.25716465448409
  0
LINE
  8
_0-3_躯体と製品
  6
CONTINUOUS
 62
    3
 10
718.54278848181866
 20
352.96690765448403
 11
718.54278848181866
 21
352.10394465448417
  0
LINE
  8
_0-3_躯体と製品
  6
CONTINUOUS
 62
    3
 10
721.74278848181893
 20
352.19790465448409
 11
721.74278848181893
 21
351.16320365448416
  0
LINE
  8
_0-3_躯体と製品
  6
CONTINUOUS
 62
    3
 10
718.54278848181866
 20
350.22246365448393
 11
717.80945548181853
 21
349.79907265448406
  0
LINE
  8
_0-3_躯体と製品
  6
CONTINUOUS
 62
    3
 10
718.54278848181866
 20
350.22246365448393
 11
718.54278848181866
 21
351.25716465448409
  0
LINE
  8
_0-3_躯体と製品
  6
CONTINUOUS
 62
    3
 10
718.38478214501856
 20
349.46690765448409
 11
718.54278848181866
 21
349.37568265448408
  0
LINE
  8
_0-3_躯体と製品
  6
CONTINUOUS
 62
    3
 10
722.47612148181861
 20
348.85833265448406
 11
719.45720418161864
 21
349.46690765448409
  0
LINE
  8
_0-3_躯体と製品
  6
CONTINUOUS
 62
    3
 10
721.74278848181893
 20
349.28172265448393
 11
721.11286802551876
 21
349.46690765448409
  0
LINE
  8
_0-3_躯体と製品
  6
CONTINUOUS
 62
    3
 10
721.74278848181893
 20
349.46690765448409
 11
721.74278848181893
 21
349.28172265448393
  0
LINE
  8
_0-3_躯体と製品
  6
CONTINUOUS
 62
    3
 10
714.14278848181857
 20
354.71690765448409
 11
714.69755248181855
 21
355.10535765448407
  0
LINE
  8
_0-3_躯体と製品
  6
CONTINUOUS
 62
    3
 10
718.54278848181866
 20
346.45950065448397
 11
717.80945548181853
 21
346.03610965448416
  0
LINE
  8
_0-3_躯体と製品
  6
CONTINUOUS
 62
    3
 10
717.80945548181853
 20
346.03610965448416
 11
718.54278848181866
 21
345.61271965448418
  0
LINE
  8
_0-3_躯体と製品
  6
CONTINUOUS
 62
    3
 10
720.14278848181857
 20
345.56573965448405
 11
717.80945548181853
 21
346.03610965448416
  0
LINE
  8
_0-3_躯体と製品
  6
CONTINUOUS
 62
    3
 10
718.54278848181866
 20
348.34098165448393
 11
717.80945548181853
 21
347.91759165448417
  0
LINE
  8
_0-3_躯体と製品
  6
CONTINUOUS
 62
    3
 10
717.80945548181853
 20
347.91759165448417
 11
718.54278848181866
 21
347.49420165448407
  0
LINE
  8
_0-3_躯体と製品
  6
CONTINUOUS
 62
    3
 10
722.47612148181861
 20
346.97685065448417
 11
721.74278848181893
 21
347.40024065448392
  0
LINE
  8
_0-3_躯体と製品
  6
CONTINUOUS
 62
    3
 10
722.47612148181861
 20
346.97685065448417
 11
721.74278848181893
 21
346.55346065448407
  0
LINE
  8
_0-3_躯体と製品
  6
CONTINUOUS
 62
    3
 10
722.47612148181861
 20
346.97685065448417
 11
717.80945548181853
 21
347.91759165448417
  0
LINE
  8
_0-3_躯体と製品
  6
CONTINUOUS
 62
    3
 10
721.74278848181893
 20
347.40024065448392
 11
718.54278848181866
 21
348.34098165448393
  0
LINE
  8
_0-3_躯体と製品
  6
CONTINUOUS
 62
    3
 10
721.74278848181893
 20
346.55346065448407
 11
718.54278848181866
 21
347.49420165448407
  0
ARC
  8
_0-3_躯体と製品
  6
CONTINUOUS
 62
    3
 10
714.11037648181855
 20
340.94139165448422
 40
6.0552590000000013
 50
4.9787780000009105
 51
42.946200000000928
  0
ARC
  8
_0-3_躯体と製品
  6
CONTINUOUS
 62
    3
 10
720.11773048181885
 20
339.70223765448424
 40
1.7648479999999993
 50
22.959125000000391
 51
89.186456999996693
  0
LINE
  8
_0-3_躯体と製品
  6
CONTINUOUS
 62
    3
 10
720.14278848181857
 20
339.46690765448415
 11
718.54278848181866
 21
340.39066765448416
  0
LINE
  8
_0-3_躯体と製品
  6
CONTINUOUS
 62
    3
 10
720.14278848181857
 20
339.46690765448415
 11
721.7427874818186
 21
340.39066765448416
  0
LINE
  8
_0-3_躯体と製品
  6
CONTINUOUS
 62
    3
 10
718.54278848181866
 20
345.06690765448417
 11
721.74277348181977
 21
345.06690765448417
  0
LINE
  8
_0-3_躯体と製品
  6
CONTINUOUS
 62
    3
 10
720.14278848181857
 20
341.50314865448416
 11
720.14278848181857
 21
339.46690765448415
  0
ARC
  8
_0-3_躯体と製品
  6
CONTINUOUS
 62
    3
 10
715.84470548181889
 20
353.46705365448418
 40
2
 50
90
 51
124.99999999999731
  0
LINE
  8
_0-3_躯体と製品
  6
CONTINUOUS
 62
    3
 10
722.47612148181861
 20
348.85833265448406
 11
721.74278848181893
 21
349.28172265448393
  0
LINE
  8
_0-3_躯体と製品
  6
CONTINUOUS
 62
    3
 10
722.47612148181861
 20
348.85833265448406
 11
721.74278848181893
 21
348.43494165448408
  0
LINE
  8
_0-3_躯体と製品
  6
CONTINUOUS
 62
    3
 10
721.74278848181893
 20
348.43494165448408
 11
718.54278848181866
 21
349.37568265448408
  0
LINE
  8
_0-3_躯体と製品
  6
CONTINUOUS
 62
    3
 10
718.54278848181866
 20
345.61271965448418
 11
718.54278848181866
 21
340.39066765448416
  0
LINE
  8
_0-3_躯体と製品
  6
CONTINUOUS
 62
    3
 10
718.54278848181866
 20
347.49420165448407
 11
718.54278848181866
 21
346.45950065448397
  0
LINE
  8
_0-3_躯体と製品
  6
CONTINUOUS
 62
    3
 10
718.54278848181866
 20
349.37568265448408
 11
718.54278848181866
 21
348.34098165448393
  0
LINE
  8
_0-3_躯体と製品
  6
CONTINUOUS
 62
    3
 10
721.74278848181893
 20
346.55346065448407
 11
721.74278848181893
 21
340.39066765448416
  0
LINE
  8
_0-3_躯体と製品
  6
CONTINUOUS
 62
    3
 10
721.74278848181893
 20
348.43494165448408
 11
721.74278848181893
 21
347.40024065448392
  0
LINE
  8
_0-3_躯体と製品
  6
CONTINUOUS
 62
    3
 10
720.14278848181857
 20
345.56573965448405
 11
718.54278848181866
 21
346.45950065448397
  0
LINE
  8
_0-3_躯体と製品
  6
CONTINUOUS
 62
    3
 10
720.14278848181857
 20
345.56573965448405
 11
718.54278848181866
 21
345.61271965448418
  0
LINE
  8
_0-3_躯体と製品
  6
CONTINUOUS
 62
    3
 10
715.14278848181857
 20
353.96690765448409
 11
715.14278848181857
 21
352.96690765448403
  0
LINE
  8
_0-3_躯体と製品
  6
CONTINUOUS
 62
    3
 10
714.14278848181857
 20
354.71690765448409
 11
714.14278848181857
 21
353.96690765448409
  0
LINE
  8
_0-3_躯体と製品
  6
CONTINUOUS
 62
    3
 10
714.14278848181857
 20
351.46690765448403
 11
714.14278848181857
 21
350.46690765448409
  0
ARC
  8
_0-3_躯体と製品
  6
CONTINUOUS
 62
    3
 10
715.14278848181857
 20
350.46690765448409
 40
1
 50
180
 51
270
  0
LINE
  8
_0-3_躯体と製品
  6
CONTINUOUS
 62
    3
 10
720.14278848181857
 20
351.76690765448393
 11
719.84278848181884
 21
351.46690765448403
  0
LINE
  8
_0-3_躯体と製品
  6
CONTINUOUS
 62
    3
 10
720.14278848181857
 20
351.76690765448393
 11
720.44278848181875
 21
351.46690765448403
  0
LINE
  8
_0-3_躯体と製品
  6
CONTINUOUS
 62
    3
 10
735.63918948181981
 20
332.96690765448415
 11
728.14278848181857
 21
340.46324565448407
  0
LINE
  8
_0-3_躯体と製品
  6
CONTINUOUS
 62
    3
 10
734.75541048181867
 20
338.09692665448398
 11
728.14278848181857
 21
344.70954865448402
  0
ARC
  8
_0-3_躯体と製品
  6
CONTINUOUS
 62
    3
 10
765.17403848181857
 20
340.71690765448415
 40
30.53125
 50
166.64929099999901
 51
194.70475899999954
  0
LINE
  8
_0-3_躯体と製品
  6
CONTINUOUS
 62
    3
 10
728.14278848181857
 20
349.96690765448403
 11
726.14278848181857
 21
332.96690765448415
  0
LINE
  8
_0-3_躯体と製品
  6
CONTINUOUS
 62
    3
 10
728.14278848181857
 20
349.96690765448403
 11
728.14278848181857
 21
332.96690765448415
  0
LINE
  8
_0-3_躯体と製品
  6
CONTINUOUS
 62
    3
 10
728.14278848181857
 20
338.19482965448407
 11
734.94417348181878
 21
344.99621465448416
  0
LINE
  8
_0-3_躯体と製品
  6
CONTINUOUS
 62
    3
 10
728.14278848181857
 20
333.95218865448413
 11
734.64392648181865
 21
340.45332665448399
  0
LINE
  8
_0-3_躯体と製品
  6
CONTINUOUS
 62
    3
 10
724.34278848181884
 20
348.96690765448409
 11
724.34278848181884
 21
336.46690765448415
  0
LINE
  8
_0-3_躯体と製品
  6
CONTINUOUS
 62
    3
 10
726.14278848181857
 20
349.46690765448409
 11
726.14278848181857
 21
333.96690765448415
  0
LINE
  8
_0-3_躯体と製品
  6
CONTINUOUS
 62
    3
 10
731.40014748181875
 20
332.96690765448415
 11
734.93514048181896
 21
336.50190065448413
  0
LINE
  8
_0-3_躯体と製品
  6
CONTINUOUS
 62
    3
 10
731.40014748181875
 20
332.96690765448415
 11
728.14278848181857
 21
336.22426665448398
  0
LINE
  8
_0-3_躯体と製品
  6
CONTINUOUS
 62
    3
 10
724.64278848181857
 20
334.46690765448415
 11
724.64278848181857
 21
333.96690765448415
  0
LINE
  8
_0-3_躯体と製品
  6
CONTINUOUS
 62
    3
 10
726.14278848181857
 20
333.96690765448415
 11
724.64278848181857
 21
333.96690765448415
  0
ARC
  8
_0-3_躯体と製品
  6
CONTINUOUS
 62
    3
 10
723.84278848181884
 20
336.46690765448415
 40
0.5
 50
270
 51
0
  0
LINE
  8
_0-3_躯体と製品
  6
CONTINUOUS
 62
    3
 10
726.14278848181857
 20
333.96690765448415
 11
726.14278848181857
 21
332.96690765448415
  0
LINE
  8
_0-3_躯体と製品
  6
CONTINUOUS
 62
    3
 10
726.14278848181857
 20
333.96690765448415
 11
726.14278848181857
 21
332.96690765448415
  0
LINE
  8
_0-3_躯体と製品
  6
CONTINUOUS
 62
    3
 10
735.13893648181875
 20
346.19868265448417
 11
733.56455148181885
 21
347.77306665448413
  0
LINE
  8
_0-3_躯体と製品
  6
CONTINUOUS
 62
    3
 10
734.68951748181871
 20
342.40545965448399
 11
728.14278848181857
 21
348.95218865448408
  0
ARC
  8
_0-3_躯体と製品
  6
CONTINUOUS
 62
    3
 10
733.89278848181857
 20
350.71690765448403
 40
0.75
 50
270
 51
90
  0
ARC
  8
_0-3_躯体と製品
  6
CONTINUOUS
 62
    3
 10
734.34278848181884
 20
349.26690765448393
 40
0.2999999999999998
 50
270
 51
0
  0
LINE
  8
_0-3_躯体と製品
  6
CONTINUOUS
 62
    3
 10
735.64278848181857
 20
347.76690765448393
 11
733.64278848181857
 21
347.76690765448393
  0
ARC
  8
_0-3_躯体と製品
  6
CONTINUOUS
 62
    3
 10
734.34278848181884
 20
351.16690765448408
 40
0.2999999999999998
 50
0
 51
90
  0
LINE
  8
_0-3_躯体と製品
  6
CONTINUOUS
 62
    3
 10
733.1489474818186
 20
348.18867065448404
 11
731.37071048181861
 21
349.96690765448403
  0
LINE
  8
_0-3_躯体と製品
  6
CONTINUOUS
 62
    3
 10
728.14278848181857
 20
346.68011065448417
 11
731.42958548181878
 21
349.96690765448403
  0
LINE
  8
_0-3_躯体と製品
  6
CONTINUOUS
 62
    3
 10
728.14278848181857
 20
342.43747065448423
 11
733.49466848181874
 21
347.78935065448417
  0
LINE
  8
_0-3_躯体と製品
  6
CONTINUOUS
 62
    3
 10
725.14278848181857
 20
353.96690765448409
 11
725.14278848181857
 21
352.96690765448403
  0
LINE
  8
_0-3_躯体と製品
  6
CONTINUOUS
 62
    3
 10
726.14278848181857
 20
354.71690765448409
 11
725.58822148181889
 21
355.10521965448407
  0
ARC
  8
_0-3_躯体と製品
  6
CONTINUOUS
 62
    3
 10
724.44106848181855
 20
353.46691565448407
 40
2
 50
55.000000000002629
 51
90
  0
LINE
  8
_0-3_躯体と製品
  6
CONTINUOUS
 62
    3
 10
726.14278848181857
 20
354.71690765448409
 11
726.14278848181857
 21
353.96690765448409
  0
ARC
  8
_0-3_躯体と製品
  6
CONTINUOUS
 62
    3
 10
723.84278848181884
 20
348.96690765448409
 40
0.5
 50
0
 51
90
  0
LINE
  8
_0-3_躯体と製品
  6
CONTINUOUS
 62
    3
 10
733.89278848181857
 20
349.96690765448403
 11
726.64278848181857
 21
349.96690765448403
  0
ARC
  8
_0-3_躯体と製品
  6
CONTINUOUS
 62
    3
 10
726.64278848181857
 20
349.46690765448409
 40
0.5
 50
90
 51
180
  0
LINE
  8
_0-3_躯体と製品
  6
CONTINUOUS
 62
    3
 10
733.44278848181875
 20
348.96690765448409
 11
734.34278848181884
 21
348.96690765448409
  0
ARC
  8
_0-3_躯体と製品
  6
CONTINUOUS
 62
    3
 10
733.44278848181875
 20
348.66690765448402
 40
0.2999999999999998
 50
90
 51
180
  0
LINE
  8
_0-3_躯体と製品
  6
CONTINUOUS
 62
    3
 10
733.14278848181857
 20
348.26690765448399
 11
733.14278848181857
 21
348.66690765448402
  0
ARC
  8
_0-3_躯体と製品
  6
CONTINUOUS
 62
    3
 10
733.64278848181857
 20
348.26690765448399
 40
0.5
 50
180
 51
270
  0
ARC
  8
_0-3_躯体と製品
  6
CONTINUOUS
 62
    3
 10
735.64278848181857
 20
352.46690765448415
 40
0.5
 50
0
 51
90
  0
LINE
  8
_0-3_躯体と製品
  6
CONTINUOUS
 62
    3
 10
734.64278848181857
 20
349.26690765448393
 11
734.64278848181857
 21
351.16690765448408
  0
LINE
  8
_0-3_躯体と製品
  6
CONTINUOUS
 62
    3
 10
736.14278848181857
 20
352.46690765448415
 11
736.14278848181857
 21
348.26690765448399
  0
ARC
  8
_0-3_躯体と製品
  6
CONTINUOUS
 62
    3
 10
735.64278848181857
 20
348.26690765448399
 40
0.5
 50
270
 51
0
  0
ARC
  8
_0-3_躯体と製品
  6
CONTINUOUS
 62
    3
 10
720.14278848181857
 20
352.38357465448416
 40
6.0833329999999988
 50
53.83135800000148
 51
126.16864199999851
  0
ARC
  8
_0-3_躯体と製品
  6
CONTINUOUS
 62
    3
 10
717.14278848181857
 20
356.48726465448402
 40
1
 50
126.16864199999851
 51
180
  0
ARC
  8
_0-3_躯体と製品
  6
CONTINUOUS
 62
    3
 10
723.14278848181857
 20
356.48726465448402
 40
1
 50
0
 51
53.83135800000148
  0
INSERT
  2
-001-_D4
  8
_0-2_寸法
 10
-2011.5471895479523
 20
243.65000017423046
 41
3
 42
3
 50
0
  0
INSERT
  2
-002-_D5
  8
_0-2_寸法
 10
-2011.5471895479523
 20
243.65000017423046
 41
3
 42
3
 50
0
  0
INSERT
  2
-003-_D6
  8
_0-2_寸法
 10
-2011.5471895479523
 20
243.65000017423046
 41
3
 42
3
 50
0
  0
INSERT
  2
-004-_D7
  8
_0-2_寸法
 10
-2011.5471895479523
 20
243.65000017423046
 41
3
 42
3
 50
0
  0
INSERT
  2
-005-_D8
  8
_0-2_寸法
 10
-2011.5471895479523
 20
243.65000017423046
 41
3
 42
3
 50
0
  0
INSERT
  2
-006-_D9
  8
_0-2_寸法
 10
-2011.5471895479523
 20
243.65000017423046
 41
3
 42
3
 50
0
  0
INSERT
  2
-007-_D10
  8
_0-2_寸法
 10
-2011.5471895479523
 20
243.65000017423046
 41
3
 42
3
 50
0
  0
INSERT
  2
-008-_D11
  8
_0-2_寸法
 10
-2011.5471895479523
 20
243.65000017423046
 41
3
 42
3
 50
0
  0
INSERT
  2
-009-_D12
  8
_0-2_寸法
 10
-2011.5471895479523
 20
243.65000017423046
 41
3
 42
3
 50
0
  0
INSERT
  2
-010-_D13
  8
_0-2_寸法
 10
-2011.5471895479523
 20
243.65000017423046
 41
3
 42
3
 50
0
  0
INSERT
  2
-011-_D14
  8
_0-2_寸法
 10
-2011.5471895479523
 20
243.65000017423046
 41
3
 42
3
 50
0
  0
INSERT
  2
-012-_D15
  8
_0-2_寸法
 10
-2011.5471895479523
 20
243.65000017423046
 41
3
 42
3
 50
0
  0
INSERT
  2
-013-_D16
  8
_0-2_寸法
 10
-2011.5471895479523
 20
243.65000017423046
 41
3
 42
3
 50
0
  0
INSERT
  2
-014-_D17
  8
_0-2_寸法
 10
-2011.5471895479523
 20
243.65000017423046
 41
3
 42
3
 50
0
  0
INSERT
  2
-015-_D18
  8
_0-2_寸法
 10
-2011.5471895479523
 20
243.65000017423046
 41
3
 42
3
 50
0
  0
INSERT
  2
-016-_D19
  8
_0-2_寸法
 10
-2011.5471895479523
 20
243.65000017423046
 41
3
 42
3
 50
0
  0
INSERT
  2
-017-_D20
  8
_0-2_寸法
 10
-2011.5471895479523
 20
243.65000017423046
 41
3
 42
3
 50
0
  0
INSERT
  2
-018-_D21
  8
_0-2_寸法
 10
-2011.5471895479523
 20
243.65000017423046
 41
3
 42
3
 50
0
  0
INSERT
  2
-019-_D22
  8
_0-2_寸法
 10
-2011.5471895479523
 20
243.65000017423046
 41
3
 42
3
 50
0
  0
INSERT
  2
-020-_D23
  8
_0-2_寸法
 10
-2011.5471895479523
 20
243.65000017423046
 41
3
 42
3
 50
0
  0
INSERT
  2
-021-_D24
  8
_0-2_寸法
 10
-2011.5471895479523
 20
243.65000017423046
 41
3
 42
3
 50
0
  0
INSERT
  2
-022-_D25
  8
_0-2_寸法
 10
-2011.5471895479523
 20
243.65000017423046
 41
3
 42
3
 50
0
  0
ENDSEC
  0
EOF
