  0
SECTION
  2
HEADER
  9
$ACADVER
  1
AC1009
  9
$INSBASE
 10
0
 20
0
 30
0
  9
$EXTMIN
 10
0
 20
0
  9
$EXTMAX
 10
420
 20
297
  9
$LIMMIN
 10
0
 20
0
  9
$LIMMAX
 10
420
 20
297
  9
$LTSCALE
 40
1
  0
ENDSEC
  0
SECTION
  2
TABLES
  0
TABLE
  2
LTYPE
 70
     9
  0
LTYPE
  2
CONTINUOUS
 70
    64
  3
実線
 72
    65
 73
     0
 40
0.0
  0
LTYPE
  2
DASHED1
 70
    64
  3
--  --  --  --  --  --  --  --  
 72
    65
 73
     2
 40
2.5
 49
1.25
 49
-1.25
  0
LTYPE
  2
DASHED2
 70
    64
  3
----    ----    ----    ----    
 72
    65
 73
     2
 40
5.0
 49
2.5
 49
-2.5
  0
LTYPE
  2
DASHED3
 70
    64
  3
------  ------  ------  ------  
 72
    65
 73
     2
 40
5.0
 49
3.75
 49
-1.25
  0
LTYPE
  2
CENTER1
 70
    64
  3
----- - ----- - ----- - ----- - 
 72
    65
 73
     4
 40
10.0
 49
6.25
 49
-1.25
 49
1.25
 49
-1.25
  0
LTYPE
  2
CENTER2
 70
    64
  3
----------  --  ----------  --  
 72
    65
 73
     4
 40
20.0
 49
12.5
 49
-2.5
 49
2.5
 49
-2.5
  0
LTYPE
  2
PHANTOM1
 70
    64
  3
--- - - --- - - --- - - --- - - 
 72
    65
 73
     6
 40
10.0
 49
3.25
 49
-1.25
 49
1.25
 49
-1.25
 49
1.25
 49
-1.25
  0
LTYPE
  2
PHANTOM2
 70
    64
  3
--------  -  -  --------  -  -  
 72
    65
 73
     6
 40
20.0
 49
10.0
 49
-2.5
 49
1.25
 49
-2.5
 49
1.25
 49
-2.5
  0
LTYPE
  2
DOT
 70
    64
  3
-   -   -   -   -   -   -   -   
 72
    65
 73
     2
 40
2.5
 49
0.625
 49
-1.875
  0
LTYPE
  2
DUMMY
 70
    64
  3
ダミー
 72
    65
 73
     0
 40
0.0
  0
LTYPE
  2
RAND1
 70
    64
  3
ランダム線1
 72
    65
 73
     4
 40
10.0
 49
1.0
 49
-2.0
 49
3.0
 49
-4.0
  0
LTYPE
  2
RAND2
 70
    64
  3
ランダム線2
 72
    65
 73
     4
 40
14.0
 49
2.0
 49
-3.0
 49
4.0
 49
-5.0
  0
LTYPE
  2
RAND3
 70
    64
  3
ランダム線3
 72
    65
 73
     4
 40
18.0
 49
3.0
 49
-4.0
 49
5.0
 49
-6.0
  0
LTYPE
  2
RAND4
 70
    64
  3
ランダム線4
 72
    65
 73
     4
 40
22.0
 49
4.0
 49
-5.0
 49
6.0
 49
-7.0
  0
LTYPE
  2
RAND5
 70
    64
  3
ランダム線5
 72
    65
 73
     4
 40
26.0
 49
5.0
 49
-6.0
 49
7.0
 49
-8.0
  0
LTYPE
  2
LONG1
 70
    64
  3
----------  --  ----------  --  
 72
    65
 73
     4
 40
40.0
 49
32.5
 49
-2.5
 49
2.5
 49
-2.5
  0
LTYPE
  2
LONG2
 70
    64
  3
--------  -  -  --------  -  -  
 72
    65
 73
     6
 40
40.0
 49
30.0
 49
-2.5
 49
1.25
 49
-2.5
 49
1.25
 49
-2.5
  0
LTYPE
  2
LONG3
 70
    64
  3
+++++++++++++++..+++++++++++++++
 72
    65
 73
     2
 40
40.0
 49
37.5
 49
-2.5
  0
LTYPE
  2
LONG4
 70
    64
  3
+++++++++++++++..+++++++++++++++
 72
    65
 73
     2
 40
80.0
 49
75.0
 49
-5.0
  0
LTYPE
  2
LONG5
 70
    64
  3
----------  --  ----------  --  
 72
    65
 73
     4
 40
60.0
 49
37.5
 49
-7.5
 49
7.5
 49
-7.5
  0
LTYPE
  2
dashed
 70
   64
  3
-------   -------------   ------
 72
   65
 73
    2
 40
7.5
 49
6
 49
-1.5
  0
LTYPE
  2
dashed_spaced
 70
   64
  3
----        --------        ----
 72
   65
 73
    2
 40
12
 49
6
 49
-6
  0
LTYPE
  2
long_dashed_dotted
 70
   64
  3
------------- --- --------------
 72
   65
 73
    4
 40
15.25
 49
12
 49
-1.5
 49
0.25
 49
-1.5
  0
LTYPE
  2
long_dashed_double-dotted
 70
   64
  3
----------- --- --- ------------
 72
   65
 73
    6
 40
17
 49
12
 49
-1.5
 49
0.25
 49
-1.5
 49
0.25
 49
-1.5
  0
LTYPE
  2
long_dashed_triplicate-dotted
 70
   64
  3
--------- --- --- --- ----------
 72
   65
 73
    8
 40
18.75
 49
12
 49
-1.5
 49
0.25
 49
-1.5
 49
0.25
 49
-1.5
 49
0.25
 49
-1.5
  0
LTYPE
  2
dotted
 70
   64
  3
   -       -       -       -    
 72
   65
 73
    2
 40
1.75
 49
0.25
 49
-1.5
  0
LTYPE
  2
chain
 70
   64
  3
-------------- -- --------------
 72
   65
 73
    4
 40
18.5
 49
12
 49
-1.5
 49
3.5
 49
-1.5
  0
LTYPE
  2
chain_double_dash
 70
   64
  3
------------ -- -- -------------
 72
   65
 73
    6
 40
23.5
 49
12
 49
-1.5
 49
3.5
 49
-1.5
 49
3.5
 49
-1.5
  0
LTYPE
  2
dashed_dotted
 70
   64
  3
-----------     -     ----------
 72
   65
 73
    4
 40
9.25
 49
6
 49
-1.5
 49
0.25
 49
-1.5
  0
LTYPE
  2
double-dashed_dotted
 70
   64
  3
------   -----------   -   -----
 72
   65
 73
    6
 40
16.75
 49
6
 49
-1.5
 49
6
 49
-1.5
 49
0.25
 49
-1.5
  0
LTYPE
  2
dashed_double-dotted
 70
   64
  3
---------    -    -    ---------
 72
   65
 73
    6
 40
11
 49
6
 49
-1.5
 49
0.25
 49
-1.5
 49
0.25
 49
-1.5
  0
LTYPE
  2
double-dashed_double-dotted
 70
   64
  3
-----   ---------   -   -   ----
 72
   65
 73
    8
 40
18.5
 49
6
 49
-1.5
 49
6
 49
-1.5
 49
0.25
 49
-1.5
 49
0.25
 49
-1.5
  0
LTYPE
  2
dashed_triplicate-dotted
 70
   64
  3
-------    -    -    -    ------
 72
   65
 73
    8
 40
12.75
 49
6
 49
-1.5
 49
0.25
 49
-1.5
 49
0.25
 49
-1.5
 49
0.25
 49
-1.5
  0
LTYPE
  2
double-dashed_triplicate-dotted
 70
   64
  3
-----  ---------  -  -  -  -----
 72
   65
 73
   10
 40
20.25
 49
6
 49
-1.5
 49
6
 49
-1.5
 49
0.25
 49
-1.5
 49
0.25
 49
-1.5
 49
0.25
 49
-1.5
  0
LTYPE
  2
undefined
 70
   64
  3
--------------------------------
 72
   65
 73
    0
 40
0
  0
LTYPE
  2
PLINE2
 70
   64
  3
------     -----------     -----
 72
   65
 73
    2
 40
3
 49
2.1000000000000001
 49
-0.9
  0
LTYPE
  2
PLINE3
 70
   64
  3
------------   ---   -----------
 72
   65
 73
    4
 40
10
 49
7
 49
-1
 49
1
 49
-1
  0
LTYPE
  2
PLINE4
 70
   64
  3
---------   ---   ---   --------
 72
   65
 73
    6
 40
10
 49
5
 49
-1
 49
1
 49
-1
 49
1
 49
-1
  0
LTYPE
  2
PLINE5
 70
   64
  3
------     -----------     -----
 72
   65
 73
    2
 40
5
 49
3.5
 49
-1.5
  0
LTYPE
  2
PLINE6
 70
   64
  3
------------   ---   -----------
 72
   65
 73
    4
 40
15
 49
10.5
 49
-1.5
 49
1.5
 49
-1.5
  0
LTYPE
  2
PLINE7
 70
   64
  3
---------   ---   ---   --------
 72
   65
 73
    6
 40
15
 49
7.5
 49
-1.5
 49
1.5
 49
-1.5
 49
1.5
 49
-1.5
  0
LTYPE
  2
PLINE8
 70
   64
  3
------     -----------     -----
 72
   65
 73
    2
 40
7
 49
4.9000000000000004
 49
-2.1000000000000001
  0
LTYPE
  2
PLINE9
 70
   64
  3
------------   ---   -----------
 72
   65
 73
    4
 40
20
 49
14
 49
-2
 49
2
 49
-2
  0
LTYPE
  2
PLINE10
 70
   64
  3
---------   ---   ---   --------
 72
   65
 73
    6
 40
20
 49
10
 49
-2
 49
2
 49
-2
 49
2
 49
-2
  0
LTYPE
  2
PLINE11
 70
   64
  3
------     -----------     -----
 72
   65
 73
    2
 40
9
 49
6.2999999999999989
 49
-2.7000000000000002
  0
LTYPE
  2
PLINE12
 70
   64
  3
------------   ---   -----------
 72
   65
 73
    4
 40
25
 49
17.5
 49
-2.5
 49
2.5
 49
-2.5
  0
LTYPE
  2
PLINE13
 70
   64
  3
---------   ---   ---   --------
 72
   65
 73
    6
 40
25
 49
12.5
 49
-2.5
 49
2.5
 49
-2.5
 49
2.5
 49
-2.5
  0
LTYPE
  2
PLINE14
 70
   64
  3
------     -----------     -----
 72
   65
 73
    2
 40
11
 49
7.7000000000000002
 49
-3.2999999999999989
  0
LTYPE
  2
PLINE15
 70
   64
  3
------------   ---   -----------
 72
   65
 73
    4
 40
30
 49
21
 49
-3
 49
3
 49
-3
  0
LTYPE
  2
PLINE16
 70
   64
  3
---------   ---   ---   --------
 72
   65
 73
    6
 40
30
 49
15
 49
-3
 49
3
 49
-3
 49
3
 49
-3
  0
LTYPE
  2
DOT_17
 70
   64
  3
----        --------        ----
 72
   65
 73
    2
 40
2
 49
1
 49
-1
  0
ENDTAB
  0
TABLE
  2
STYLE
  5
3
100
AcDbSymbolTable
 70
     1
  0
STYLE
  5
10
100
AcDbSymbolTableRecord
100
AcDbTextStyleTableRecord
  2
STANDARD
 70
     0
 40
0.0
 41
1.0
 50
0.0
 71
     0
 42
0.2
  3
txt
  4
bigfont.shx
  0
STYLE
  5
26
100
AcDbSymbolTableRecord
100
AcDbTextStyleTableRecord
  2
TATEGAKI
 70
    68
 40
0.0
 41
1.0
 50
0.0
 71
     0
 42
1.0
  3
txt
  4
bigfont.shx
  0
ENDTAB
  0
TABLE
  2
LAYER
 70
    5
  0
LAYER
  2
_0-2_寸法
 70
   64
 62
    7
  6
CONTINUOUS
  0
LAYER
  2
_0-3_躯体と製品
 70
   64
 62
    7
  6
CONTINUOUS
  0
LAYER
  2
_0-4_図面枠
 70
   64
 62
    7
  6
CONTINUOUS
  0
LAYER
  2
_0-5_文字-記号
 70
   64
 62
    7
  6
CONTINUOUS
  0
LAYER
  2
ADD_LINE
 70
   64
 62
    7
  6
CONTINUOUS
  0
ENDTAB
  0
ENDSEC
  0
SECTION
  2
BLOCKS
  0
BLOCK
  2
-000-_Open30
 70
   64
 10
0
 20
0
 30
0
  0
LINE
  8
_0-0_0
  6
CONTINUOUS
 62
    7
 10
-0.3333333333333333
 20
0.0893163966666666
 11
0
 21
0
  0
LINE
  8
_0-0_0
  6
CONTINUOUS
 62
    7
 10
0
 20
0
 11
-0.3333333333333333
 21
-0.0893163966666666
  0
LINE
  8
_0-0_0
  6
CONTINUOUS
 62
    7
 10
0
 20
0
 11
-0.3333333333333333
 21
0
  0
ENDBLK
  0
BLOCK
  2
-001-_D4
 70
   64
 10
0
 20
0
 30
0
  0
LINE
  8
_0-2_寸法
  6
CONTINUOUS
 62
    4
 10
429.87549386141035
 20
36.79299190639987
 11
429.87549386141035
 21
18.459658573066516
  0
LINE
  8
_0-2_寸法
  6
CONTINUOUS
 62
    4
 10
448.20882719474366
 20
21.792991906399848
 11
448.20882719474366
 21
18.459658573066516
  0
LINE
  8
_0-2_寸法
  6
CONTINUOUS
 62
    4
 10
430.20882719474366
 20
18.459658573066516
 11
447.87549386141035
 21
18.459658573066516
  0
INSERT
  2
-000-_Open30
  8
_0-2_寸法
 10
429.87549386141035
 20
18.459658573066516
 41
1
 42
1
 50
180
  0
INSERT
  2
-000-_Open30
  8
_0-2_寸法
 10
448.20882719474366
 20
18.459658573066516
 41
1
 42
1
 50
0
  0
TEXT
  8
_0-2_寸法
 62
    7
 10
438.70882719474366
 20
18.792991906399855
 40
0.6666666666666666
 41
1
 50
0
  1
55
  0
POINT
  8
_0-1_Defpoints
 62
    7
 10
429.87549386141035
 20
36.79299190639987
  0
POINT
  8
_0-1_Defpoints
 62
    7
 10
448.20882719474366
 20
21.792991906399848
  0
POINT
  8
_0-1_Defpoints
 62
    7
 10
448.20882719474366
 20
18.459658573066516
  0
ENDBLK
  0
BLOCK
  2
-002-_D5
 70
   64
 10
0
 20
0
 30
0
  0
LINE
  8
_0-2_寸法
  6
CONTINUOUS
 62
    4
 10
448.20882719474366
 20
21.792991906399848
 11
448.20882719474366
 21
18.459658573066516
  0
LINE
  8
_0-2_寸法
  6
CONTINUOUS
 62
    4
 10
498.20882719491033
 20
21.792991906399848
 11
498.20882719491033
 21
18.459658573066516
  0
LINE
  8
_0-2_寸法
  6
CONTINUOUS
 62
    4
 10
448.54216052807698
 20
18.459658573066516
 11
497.87549386157701
 21
18.459658573066516
  0
INSERT
  2
-000-_Open30
  8
_0-2_寸法
 10
448.20882719474366
 20
18.459658573066516
 41
1
 42
1
 50
180
  0
INSERT
  2
-000-_Open30
  8
_0-2_寸法
 10
498.20882719491033
 20
18.459658573066516
 41
1
 42
1
 50
0
  0
TEXT
  8
_0-2_寸法
 62
    7
 10
472.70882719482705
 20
18.792991906399855
 40
0.6666666666666666
 41
1
 50
0
  1
150
  0
POINT
  8
_0-1_Defpoints
 62
    7
 10
448.20882719474366
 20
21.792991906399848
  0
POINT
  8
_0-1_Defpoints
 62
    7
 10
498.20882719491033
 20
21.792991906399848
  0
POINT
  8
_0-1_Defpoints
 62
    7
 10
498.20882719491033
 20
18.459658573066516
  0
ENDBLK
  0
BLOCK
  2
-003-_D6
 70
   64
 10
0
 20
0
 30
0
  0
LINE
  8
_0-2_寸法
  6
CONTINUOUS
 62
    4
 10
449.87549386141035
 20
56.792991906399863
 11
521.5421605282437
 21
56.792991906399834
  0
LINE
  8
_0-2_寸法
  6
CONTINUOUS
 62
    4
 10
518.20882719491033
 20
66.792991906399863
 11
521.5421605282437
 21
66.792991906399863
  0
LINE
  8
_0-2_寸法
  6
CONTINUOUS
 62
    4
 10
521.5421605282437
 20
57.12632523973317
 11
521.5421605282437
 21
66.459658573066534
  0
INSERT
  2
-000-_Open30
  8
_0-2_寸法
 10
521.5421605282437
 20
56.792991906399834
 41
1
 42
1
 50
270
  0
INSERT
  2
-000-_Open30
  8
_0-2_寸法
 10
521.5421605282437
 20
66.792991906399863
 41
1
 42
1
 50
90
  0
TEXT
  8
_0-2_寸法
 62
    7
 10
521.20882719491033
 20
61.459658573066591
 40
0.6666666666666666
 41
1
 50
90
  1
30
  0
POINT
  8
_0-1_Defpoints
 62
    7
 10
449.87549386141035
 20
56.792991906399863
  0
POINT
  8
_0-1_Defpoints
 62
    7
 10
518.20882719491033
 20
66.792991906399863
  0
POINT
  8
_0-1_Defpoints
 62
    7
 10
521.5421605282437
 20
66.792991906399863
  0
ENDBLK
  0
BLOCK
  2
-004-_D7
 70
   64
 10
0
 20
0
 30
0
  0
LINE
  8
_0-2_寸法
  6
CONTINUOUS
 62
    4
 10
491.54216052824364
 20
70.126325239733191
 11
491.54216052824364
 21
83.459658573066562
  0
LINE
  8
_0-2_寸法
  6
CONTINUOUS
 62
    4
 10
453.20882719474366
 20
64.292991906399863
 11
453.20882719474366
 21
83.459658573066562
  0
LINE
  8
_0-2_寸法
  6
CONTINUOUS
 62
    4
 10
491.20882719491033
 20
83.459658573066562
 11
453.54216052807698
 21
83.459658573066562
  0
INSERT
  2
-000-_Open30
  8
_0-2_寸法
 10
491.54216052824364
 20
83.459658573066562
 41
1
 42
1
 50
0
  0
INSERT
  2
-000-_Open30
  8
_0-2_寸法
 10
453.20882719474366
 20
83.459658573066562
 41
1
 42
1
 50
180
  0
TEXT
  8
_0-2_寸法
 62
    7
 10
471.87549386149368
 20
83.792991906399905
 40
0.6666666666666666
 41
1
 50
0
  1
115
  0
POINT
  8
_0-1_Defpoints
 62
    7
 10
491.54216052824364
 20
70.126325239733191
  0
POINT
  8
_0-1_Defpoints
 62
    7
 10
453.20882719474366
 20
64.292991906399863
  0
POINT
  8
_0-1_Defpoints
 62
    7
 10
453.20882719474366
 20
83.459658573066562
  0
ENDBLK
  0
BLOCK
  2
-005-_D8
 70
   64
 10
0
 20
0
 30
0
  0
LINE
  8
_0-2_寸法
  6
CONTINUOUS
 62
    4
 10
491.54216052824364
 20
70.126325239733191
 11
491.54216052824364
 21
88.459658573066505
  0
LINE
  8
_0-2_寸法
  6
CONTINUOUS
 62
    4
 10
491.87549386157701
 20
88.459658573066505
 11
497.87549386157701
 21
88.459658573066505
  0
INSERT
  2
-000-_Open30
  8
_0-2_寸法
 10
491.54216052824364
 20
88.459658573066505
 41
1
 42
1
 50
180
  0
INSERT
  2
-000-_Open30
  8
_0-2_寸法
 10
498.20882719491033
 20
88.459658573066505
 41
1
 42
1
 50
0
  0
TEXT
  8
_0-2_寸法
 62
    7
 10
494.5421605282437
 20
88.792991906399834
 40
0.6666666666666666
 41
1
 50
0
  1
20
  0
POINT
  8
_0-1_Defpoints
 62
    7
 10
491.54216052824364
 20
70.126325239733191
  0
POINT
  8
_0-1_Defpoints
 62
    7
 10
498.20882719491033
 20
88.459658573066505
  0
POINT
  8
_0-1_Defpoints
 62
    7
 10
498.20882719491033
 20
88.459658573066505
  0
ENDBLK
  0
BLOCK
  2
-006-_D9
 70
   64
 10
0
 20
0
 30
0
  0
LINE
  8
_0-2_寸法
  6
CONTINUOUS
 62
    4
 10
418.20882719474366
 20
65.126325239733191
 11
418.20882719474366
 21
70.126325239733191
  0
LINE
  8
_0-2_寸法
  6
CONTINUOUS
 62
    4
 10
423.54216052807698
 20
66.792991906399863
 11
423.54216052807698
 21
70.126325239733191
  0
LINE
  8
_0-2_寸法
  6
CONTINUOUS
 62
    4
 10
418.54216052807698
 20
70.126325239733191
 11
423.20882719474366
 21
70.126325239733191
  0
INSERT
  2
-000-_Open30
  8
_0-2_寸法
 10
418.20882719474366
 20
70.126325239733191
 41
1
 42
1
 50
180
  0
INSERT
  2
-000-_Open30
  8
_0-2_寸法
 10
423.54216052807698
 20
70.126325239733191
 41
1
 42
1
 50
0
  0
TEXT
  8
_0-2_寸法
 62
    7
 10
420.54216052807703
 20
70.459658573066534
 40
0.6666666666666666
 41
1
 50
0
  1
16
  0
POINT
  8
_0-1_Defpoints
 62
    7
 10
418.20882719474366
 20
65.126325239733191
  0
POINT
  8
_0-1_Defpoints
 62
    7
 10
423.54216052807698
 20
66.792991906399863
  0
POINT
  8
_0-1_Defpoints
 62
    7
 10
423.54216052807698
 20
70.126325239733191
  0
ENDBLK
  0
BLOCK
  2
-007-_D10
 70
   64
 10
0
 20
0
 30
0
  0
LINE
  8
_0-2_寸法
  6
CONTINUOUS
 62
    4
 10
418.20882719474366
 20
65.126325239733191
 11
418.20882719474366
 21
83.459658573066562
  0
LINE
  8
_0-2_寸法
  6
CONTINUOUS
 62
    4
 10
453.20882719474366
 20
64.292991906399863
 11
453.20882719474366
 21
83.459658573066562
  0
LINE
  8
_0-2_寸法
  6
CONTINUOUS
 62
    4
 10
418.54216052807698
 20
83.459658573066562
 11
452.87549386141035
 21
83.459658573066562
  0
INSERT
  2
-000-_Open30
  8
_0-2_寸法
 10
418.20882719474366
 20
83.459658573066562
 41
1
 42
1
 50
180
  0
INSERT
  2
-000-_Open30
  8
_0-2_寸法
 10
453.20882719474366
 20
83.459658573066562
 41
1
 42
1
 50
0
  0
TEXT
  8
_0-2_寸法
 62
    7
 10
435.20882719474366
 20
83.792991906399905
 40
0.6666666666666666
 41
1
 50
0
  1
105
  0
POINT
  8
_0-1_Defpoints
 62
    7
 10
418.20882719474366
 20
65.126325239733191
  0
POINT
  8
_0-1_Defpoints
 62
    7
 10
453.20882719474366
 20
64.292991906399863
  0
POINT
  8
_0-1_Defpoints
 62
    7
 10
453.20882719474366
 20
83.459658573066562
  0
ENDBLK
  0
BLOCK
  2
-008-_D11
 70
   64
 10
0
 20
0
 30
0
  0
LINE
  8
_0-2_寸法
  6
CONTINUOUS
 62
    4
 10
418.20882719474366
 20
65.126325239733191
 11
418.20882719474366
 21
88.459658573066505
  0
LINE
  8
_0-2_寸法
  6
CONTINUOUS
 62
    4
 10
491.54216052824364
 20
70.126325239733191
 11
491.54216052824364
 21
88.459658573066505
  0
LINE
  8
_0-2_寸法
  6
CONTINUOUS
 62
    4
 10
418.54216052807698
 20
88.459658573066505
 11
491.20882719491033
 21
88.459658573066505
  0
INSERT
  2
-000-_Open30
  8
_0-2_寸法
 10
418.20882719474366
 20
88.459658573066505
 41
1
 42
1
 50
180
  0
INSERT
  2
-000-_Open30
  8
_0-2_寸法
 10
491.54216052824364
 20
88.459658573066505
 41
1
 42
1
 50
0
  0
TEXT
  8
_0-2_寸法
 62
    7
 10
454.37549386149368
 20
88.792991906399834
 40
0.6666666666666666
 41
1
 50
0
  1
220
  0
POINT
  8
_0-1_Defpoints
 62
    7
 10
418.20882719474366
 20
65.126325239733191
  0
POINT
  8
_0-1_Defpoints
 62
    7
 10
491.54216052824364
 20
70.126325239733191
  0
POINT
  8
_0-1_Defpoints
 62
    7
 10
491.54216052824364
 20
88.459658573066505
  0
ENDBLK
  0
BLOCK
  2
-009-_D12
 70
   64
 10
0
 20
0
 30
0
  0
LINE
  8
_0-2_寸法
  6
CONTINUOUS
 62
    4
 10
418.20882719474366
 20
65.126325239733191
 11
418.20882719474366
 21
93.459658573066463
  0
LINE
  8
_0-2_寸法
  6
CONTINUOUS
 62
    4
 10
498.20882719491033
 20
88.459658573066505
 11
498.20882719491033
 21
93.459658573066463
  0
LINE
  8
_0-2_寸法
  6
CONTINUOUS
 62
    4
 10
418.54216052807698
 20
93.459658573066463
 11
497.87549386157701
 21
93.459658573066463
  0
INSERT
  2
-000-_Open30
  8
_0-2_寸法
 10
418.20882719474366
 20
93.459658573066463
 41
1
 42
1
 50
180
  0
INSERT
  2
-000-_Open30
  8
_0-2_寸法
 10
498.20882719491033
 20
93.459658573066463
 41
1
 42
1
 50
0
  0
TEXT
  8
_0-2_寸法
 62
    7
 10
457.70882719482705
 20
93.792991906399806
 40
0.6666666666666666
 41
1
 50
0
  1
240
  0
POINT
  8
_0-1_Defpoints
 62
    7
 10
418.20882719474366
 20
65.126325239733191
  0
POINT
  8
_0-1_Defpoints
 62
    7
 10
498.20882719491033
 20
88.459658573066505
  0
POINT
  8
_0-1_Defpoints
 62
    7
 10
498.20882719491033
 20
93.459658573066463
  0
ENDBLK
  0
BLOCK
  2
-010-_D13
 70
   64
 10
0
 20
0
 30
0
  0
LINE
  8
_0-2_寸法
  6
CONTINUOUS
 62
    4
 10
414.87549386141035
 20
56.792991906399863
 11
411.54216052807698
 21
56.792991906399863
  0
LINE
  8
_0-2_寸法
  6
CONTINUOUS
 62
    4
 10
414.87549386141035
 20
63.459658573066527
 11
411.54216052807698
 21
63.459658573066527
  0
LINE
  8
_0-2_寸法
  6
CONTINUOUS
 62
    4
 10
411.54216052807698
 20
57.126325239733198
 11
411.54216052807698
 21
63.126325239733198
  0
INSERT
  2
-000-_Open30
  8
_0-2_寸法
 10
411.54216052807698
 20
56.792991906399863
 41
1
 42
1
 50
270
  0
INSERT
  2
-000-_Open30
  8
_0-2_寸法
 10
411.54216052807698
 20
63.459658573066527
 41
1
 42
1
 50
90
  0
TEXT
  8
_0-2_寸法
 62
    7
 10
411.20882719474366
 20
59.792991906399926
 40
0.6666666666666666
 41
1
 50
90
  1
20
  0
POINT
  8
_0-1_Defpoints
 62
    7
 10
414.87549386141035
 20
56.792991906399863
  0
POINT
  8
_0-1_Defpoints
 62
    7
 10
414.87549386141035
 20
63.459658573066527
  0
POINT
  8
_0-1_Defpoints
 62
    7
 10
411.54216052807698
 20
63.459658573066527
  0
ENDBLK
  0
BLOCK
  2
-011-_D14
 70
   64
 10
0
 20
0
 30
0
  0
LINE
  8
_0-2_寸法
  6
CONTINUOUS
 62
    4
 10
414.87549386141035
 20
63.459658573066527
 11
411.54216052807698
 21
63.459658573066527
  0
LINE
  8
_0-2_寸法
  6
CONTINUOUS
 62
    4
 10
488.20882719491033
 20
79.459658573066534
 11
411.54216052807698
 21
79.459658573066534
  0
LINE
  8
_0-2_寸法
  6
CONTINUOUS
 62
    4
 10
411.54216052807698
 20
63.792991906399863
 11
411.54216052807698
 21
79.126325239733191
  0
INSERT
  2
-000-_Open30
  8
_0-2_寸法
 10
411.54216052807698
 20
63.459658573066527
 41
1
 42
1
 50
270
  0
INSERT
  2
-000-_Open30
  8
_0-2_寸法
 10
411.54216052807698
 20
79.459658573066534
 41
1
 42
1
 50
90
  0
TEXT
  8
_0-2_寸法
 62
    7
 10
411.20882719474366
 20
71.126325239733262
 40
0.6666666666666666
 41
1
 50
90
  1
48
  0
POINT
  8
_0-1_Defpoints
 62
    7
 10
414.87549386141035
 20
63.459658573066527
  0
POINT
  8
_0-1_Defpoints
 62
    7
 10
488.20882719491033
 20
79.459658573066534
  0
POINT
  8
_0-1_Defpoints
 62
    7
 10
411.54216052807698
 20
79.459658573066534
  0
ENDBLK
  0
BLOCK
  2
-012-_D15
 70
   64
 10
0
 20
0
 30
0
  0
LINE
  8
_0-2_寸法
  6
CONTINUOUS
 62
    4
 10
488.20882719491033
 20
73.126325239733191
 11
484.87549386157701
 21
73.126325239733191
  0
LINE
  8
_0-2_寸法
  6
CONTINUOUS
 62
    4
 10
488.20882719491033
 20
79.459658573066534
 11
484.87549386157701
 21
79.459658573066534
  0
LINE
  8
_0-2_寸法
  6
CONTINUOUS
 62
    4
 10
484.87549386157701
 20
73.459658573066534
 11
484.87549386157701
 21
79.126325239733191
  0
INSERT
  2
-000-_Open30
  8
_0-2_寸法
 10
484.87549386157701
 20
73.126325239733191
 41
1
 42
1
 50
270
  0
INSERT
  2
-000-_Open30
  8
_0-2_寸法
 10
484.87549386157701
 20
79.459658573066534
 41
1
 42
1
 50
90
  0
TEXT
  8
_0-2_寸法
 62
    7
 10
484.54216052824364
 20
75.959658573066605
 40
0.6666666666666666
 41
1
 50
90
  1
19
  0
POINT
  8
_0-1_Defpoints
 62
    7
 10
488.20882719491033
 20
73.126325239733191
  0
POINT
  8
_0-1_Defpoints
 62
    7
 10
488.20882719491033
 20
79.459658573066534
  0
POINT
  8
_0-1_Defpoints
 62
    7
 10
484.87549386157701
 20
79.459658573066534
  0
ENDBLK
  0
BLOCK
  2
-013-_D16
 70
   64
 10
0
 20
0
 30
0
  0
LINE
  8
_0-2_寸法
  6
CONTINUOUS
 62
    4
 10
616.99621598135229
 20
35.706749699509132
 11
616.99621598135229
 21
15.706749699509167
  0
LINE
  8
_0-2_寸法
  6
CONTINUOUS
 62
    4
 10
626.99621598135229
 20
19.040083032842499
 11
626.99621598135229
 21
15.706749699509167
  0
LINE
  8
_0-2_寸法
  6
CONTINUOUS
 62
    4
 10
617.32954931468566
 20
15.706749699509167
 11
626.66288264801904
 21
15.706749699509167
  0
INSERT
  2
-000-_Open30
  8
_0-2_寸法
 10
616.99621598135229
 20
15.706749699509167
 41
1
 42
1
 50
180
  0
INSERT
  2
-000-_Open30
  8
_0-2_寸法
 10
626.99621598135229
 20
15.706749699509167
 41
1
 42
1
 50
0
  0
TEXT
  8
_0-2_寸法
 62
    7
 10
621.66288264801892
 20
16.040083032842503
 40
0.6666666666666666
 41
1
 50
0
  1
30
  0
POINT
  8
_0-1_Defpoints
 62
    7
 10
616.99621598135229
 20
35.706749699509132
  0
POINT
  8
_0-1_Defpoints
 62
    7
 10
626.99621598135229
 20
19.040083032842499
  0
POINT
  8
_0-1_Defpoints
 62
    7
 10
626.99621598135229
 20
15.706749699509167
  0
ENDBLK
  0
BLOCK
  2
-014-_D17
 70
   64
 10
0
 20
0
 30
0
  0
LINE
  8
_0-2_寸法
  6
CONTINUOUS
 62
    4
 10
626.99621598135229
 20
19.040083032842499
 11
626.99621598135229
 21
15.706749699509167
  0
LINE
  8
_0-2_寸法
  6
CONTINUOUS
 62
    4
 10
693.66288264818525
 20
19.040083032842499
 11
693.66288264818525
 21
15.706749699509167
  0
LINE
  8
_0-2_寸法
  6
CONTINUOUS
 62
    4
 10
627.32954931468566
 20
15.706749699509167
 11
693.32954931485199
 21
15.706749699509167
  0
INSERT
  2
-000-_Open30
  8
_0-2_寸法
 10
626.99621598135229
 20
15.706749699509167
 41
1
 42
1
 50
180
  0
INSERT
  2
-000-_Open30
  8
_0-2_寸法
 10
693.66288264818525
 20
15.706749699509167
 41
1
 42
1
 50
0
  0
TEXT
  8
_0-2_寸法
 62
    7
 10
659.829549314769
 20
16.040083032842503
 40
0.6666666666666666
 41
1
 50
0
  1
200
  0
POINT
  8
_0-1_Defpoints
 62
    7
 10
626.99621598135229
 20
19.040083032842499
  0
POINT
  8
_0-1_Defpoints
 62
    7
 10
693.66288264818525
 20
19.040083032842499
  0
POINT
  8
_0-1_Defpoints
 62
    7
 10
693.66288264818525
 20
15.706749699509167
  0
ENDBLK
  0
BLOCK
  2
-015-_D18
 70
   64
 10
0
 20
0
 30
0
  0
LINE
  8
_0-2_寸法
  6
CONTINUOUS
 62
    4
 10
627.82954931468566
 20
54.040083032842468
 11
716.99621598151907
 21
54.040083032842432
  0
LINE
  8
_0-2_寸法
  6
CONTINUOUS
 62
    4
 10
713.66288264818525
 20
64.040083032842475
 11
716.99621598151907
 21
64.040083032842475
  0
LINE
  8
_0-2_寸法
  6
CONTINUOUS
 62
    4
 10
716.99621598151907
 20
54.373416366175768
 11
716.99621598151907
 21
63.706749699509139
  0
INSERT
  2
-000-_Open30
  8
_0-2_寸法
 10
716.99621598151907
 20
54.040083032842432
 41
1
 42
1
 50
270
  0
INSERT
  2
-000-_Open30
  8
_0-2_寸法
 10
716.99621598151907
 20
64.040083032842475
 41
1
 42
1
 50
90
  0
TEXT
  8
_0-2_寸法
 62
    7
 10
716.66288264818581
 20
58.706749699509231
 40
0.6666666666666666
 41
1
 50
90
  1
30
  0
POINT
  8
_0-1_Defpoints
 62
    7
 10
627.82954931468566
 20
54.040083032842468
  0
POINT
  8
_0-1_Defpoints
 62
    7
 10
713.66288264818525
 20
64.040083032842475
  0
POINT
  8
_0-1_Defpoints
 62
    7
 10
716.99621598151907
 20
64.040083032842475
  0
ENDBLK
  0
BLOCK
  2
-016-_D19
 70
   64
 10
0
 20
0
 30
0
  0
LINE
  8
_0-2_寸法
  6
CONTINUOUS
 62
    4
 10
601.99621598135229
 20
54.040083032842468
 11
598.66288264801904
 21
54.040083032842468
  0
LINE
  8
_0-2_寸法
  6
CONTINUOUS
 62
    4
 10
601.99621598135229
 20
60.706749699509139
 11
598.66288264801904
 21
60.706749699509139
  0
LINE
  8
_0-2_寸法
  6
CONTINUOUS
 62
    4
 10
598.66288264801904
 20
54.373416366175803
 11
598.66288264801904
 21
60.373416366175803
  0
INSERT
  2
-000-_Open30
  8
_0-2_寸法
 10
598.66288264801904
 20
54.040083032842468
 41
1
 42
1
 50
270
  0
INSERT
  2
-000-_Open30
  8
_0-2_寸法
 10
598.66288264801904
 20
60.706749699509139
 41
1
 42
1
 50
90
  0
TEXT
  8
_0-2_寸法
 62
    7
 10
598.32954931468566
 20
57.04008303284256
 40
0.6666666666666666
 41
1
 50
90
  1
20
  0
POINT
  8
_0-1_Defpoints
 62
    7
 10
601.99621598135229
 20
54.040083032842468
  0
POINT
  8
_0-1_Defpoints
 62
    7
 10
601.99621598135229
 20
60.706749699509139
  0
POINT
  8
_0-1_Defpoints
 62
    7
 10
598.66288264801904
 20
60.706749699509139
  0
ENDBLK
  0
BLOCK
  2
-017-_D20
 70
   64
 10
0
 20
0
 30
0
  0
LINE
  8
_0-2_寸法
  6
CONTINUOUS
 62
    4
 10
601.99621598135229
 20
60.706749699509139
 11
598.66288264801904
 21
60.706749699509139
  0
LINE
  8
_0-2_寸法
  6
CONTINUOUS
 62
    4
 10
683.6628826481857
 20
76.706749699509132
 11
598.66288264801904
 21
76.70674969950916
  0
LINE
  8
_0-2_寸法
  6
CONTINUOUS
 62
    4
 10
598.66288264801904
 20
61.040083032842468
 11
598.66288264801904
 21
76.373416366175832
  0
INSERT
  2
-000-_Open30
  8
_0-2_寸法
 10
598.66288264801904
 20
60.706749699509139
 41
1
 42
1
 50
270
  0
INSERT
  2
-000-_Open30
  8
_0-2_寸法
 10
598.66288264801904
 20
76.70674969950916
 41
1
 42
1
 50
90
  0
TEXT
  8
_0-2_寸法
 62
    7
 10
598.32954931468566
 20
68.373416366175903
 40
0.6666666666666666
 41
1
 50
90
  1
48
  0
POINT
  8
_0-1_Defpoints
 62
    7
 10
601.99621598135229
 20
60.706749699509139
  0
POINT
  8
_0-1_Defpoints
 62
    7
 10
683.6628826481857
 20
76.706749699509132
  0
POINT
  8
_0-1_Defpoints
 62
    7
 10
598.66288264801904
 20
76.70674969950916
  0
ENDBLK
  0
BLOCK
  2
-018-_D21
 70
   64
 10
0
 20
0
 30
0
  0
LINE
  8
_0-2_寸法
  6
CONTINUOUS
 62
    4
 10
605.32954931468566
 20
62.373416366175803
 11
605.32954931468566
 21
67.373416366175803
  0
LINE
  8
_0-2_寸法
  6
CONTINUOUS
 62
    4
 10
610.66288264801904
 20
64.040083032842475
 11
610.66288264801904
 21
67.373416366175803
  0
LINE
  8
_0-2_寸法
  6
CONTINUOUS
 62
    4
 10
605.66288264801904
 20
67.373416366175803
 11
610.32954931468566
 21
67.373416366175803
  0
INSERT
  2
-000-_Open30
  8
_0-2_寸法
 10
605.32954931468566
 20
67.373416366175803
 41
1
 42
1
 50
180
  0
INSERT
  2
-000-_Open30
  8
_0-2_寸法
 10
610.66288264801904
 20
67.373416366175803
 41
1
 42
1
 50
0
  0
TEXT
  8
_0-2_寸法
 62
    7
 10
607.66288264801892
 20
67.706749699509146
 40
0.6666666666666666
 41
1
 50
0
  1
16
  0
POINT
  8
_0-1_Defpoints
 62
    7
 10
605.32954931468566
 20
62.373416366175803
  0
POINT
  8
_0-1_Defpoints
 62
    7
 10
610.66288264801904
 20
64.040083032842475
  0
POINT
  8
_0-1_Defpoints
 62
    7
 10
610.66288264801904
 20
67.373416366175803
  0
ENDBLK
  0
BLOCK
  2
-019-_D22
 70
   64
 10
0
 20
0
 30
0
  0
LINE
  8
_0-2_寸法
  6
CONTINUOUS
 62
    4
 10
605.32954931468566
 20
62.373416366175803
 11
605.32954931468566
 21
80.706749699509132
  0
LINE
  8
_0-2_寸法
  6
CONTINUOUS
 62
    4
 10
640.32954931468566
 20
77.373416366175803
 11
640.32954931468566
 21
80.706749699509132
  0
LINE
  8
_0-2_寸法
  6
CONTINUOUS
 62
    4
 10
605.66288264801904
 20
80.706749699509132
 11
639.99621598135229
 21
80.706749699509132
  0
INSERT
  2
-000-_Open30
  8
_0-2_寸法
 10
605.32954931468566
 20
80.706749699509132
 41
1
 42
1
 50
180
  0
INSERT
  2
-000-_Open30
  8
_0-2_寸法
 10
640.32954931468566
 20
80.706749699509132
 41
1
 42
1
 50
0
  0
TEXT
  8
_0-2_寸法
 62
    7
 10
622.32954931468566
 20
81.040083032842475
 40
0.6666666666666666
 41
1
 50
0
  1
105
  0
POINT
  8
_0-1_Defpoints
 62
    7
 10
605.32954931468566
 20
62.373416366175803
  0
POINT
  8
_0-1_Defpoints
 62
    7
 10
640.32954931468566
 20
77.373416366175803
  0
POINT
  8
_0-1_Defpoints
 62
    7
 10
640.32954931468566
 20
80.706749699509132
  0
ENDBLK
  0
BLOCK
  2
-020-_D23
 70
   64
 10
0
 20
0
 30
0
  0
LINE
  8
_0-2_寸法
  6
CONTINUOUS
 62
    4
 10
640.32954931468566
 20
77.373416366175803
 11
640.32954931468566
 21
80.706749699509132
  0
LINE
  8
_0-2_寸法
  6
CONTINUOUS
 62
    4
 10
686.99621598151862
 20
77.373416366175803
 11
686.99621598151862
 21
80.706749699509132
  0
LINE
  8
_0-2_寸法
  6
CONTINUOUS
 62
    4
 10
640.66288264801904
 20
80.706749699509132
 11
686.66288264818525
 21
80.706749699509132
  0
INSERT
  2
-000-_Open30
  8
_0-2_寸法
 10
640.32954931468566
 20
80.706749699509132
 41
1
 42
1
 50
180
  0
INSERT
  2
-000-_Open30
  8
_0-2_寸法
 10
686.99621598151862
 20
80.706749699509132
 41
1
 42
1
 50
0
  0
TEXT
  8
_0-2_寸法
 62
    7
 10
663.16288264810237
 20
81.040083032842475
 40
0.6666666666666666
 41
1
 50
0
  1
140
  0
POINT
  8
_0-1_Defpoints
 62
    7
 10
640.32954931468566
 20
77.373416366175803
  0
POINT
  8
_0-1_Defpoints
 62
    7
 10
686.99621598151862
 20
77.373416366175803
  0
POINT
  8
_0-1_Defpoints
 62
    7
 10
686.99621598151862
 20
80.706749699509132
  0
ENDBLK
  0
BLOCK
  2
-021-_D24
 70
   64
 10
0
 20
0
 30
0
  0
LINE
  8
_0-2_寸法
  6
CONTINUOUS
 62
    4
 10
605.32954931468566
 20
80.706749699509132
 11
605.32954931468566
 21
85.706749699509132
  0
LINE
  8
_0-2_寸法
  6
CONTINUOUS
 62
    4
 10
686.99621598151862
 20
80.706749699509132
 11
686.99621598151862
 21
85.706749699509132
  0
LINE
  8
_0-2_寸法
  6
CONTINUOUS
 62
    4
 10
605.66288264801904
 20
85.706749699509132
 11
686.66288264818525
 21
85.706749699509132
  0
INSERT
  2
-000-_Open30
  8
_0-2_寸法
 10
605.32954931468566
 20
85.706749699509132
 41
1
 42
1
 50
180
  0
INSERT
  2
-000-_Open30
  8
_0-2_寸法
 10
686.99621598151862
 20
85.706749699509132
 41
1
 42
1
 50
0
  0
TEXT
  8
_0-2_寸法
 62
    7
 10
645.66288264810237
 20
86.04008303284246
 40
0.6666666666666666
 41
1
 50
0
  1
245
  0
POINT
  8
_0-1_Defpoints
 62
    7
 10
605.32954931468566
 20
80.706749699509132
  0
POINT
  8
_0-1_Defpoints
 62
    7
 10
686.99621598151862
 20
80.706749699509132
  0
POINT
  8
_0-1_Defpoints
 62
    7
 10
686.99621598151862
 20
85.706749699509132
  0
ENDBLK
  0
BLOCK
  2
-022-_D25
 70
   64
 10
0
 20
0
 30
0
  0
LINE
  8
_0-2_寸法
  6
CONTINUOUS
 62
    4
 10
686.99621598151862
 20
77.373416366175803
 11
686.99621598151862
 21
85.706749699509132
  0
LINE
  8
_0-2_寸法
  6
CONTINUOUS
 62
    4
 10
693.66288264818525
 20
79.873416366175803
 11
693.66288264818525
 21
85.706749699509132
  0
LINE
  8
_0-2_寸法
  6
CONTINUOUS
 62
    4
 10
687.32954931485244
 20
85.706749699509132
 11
693.32954931485199
 21
85.706749699509132
  0
INSERT
  2
-000-_Open30
  8
_0-2_寸法
 10
686.99621598151862
 20
85.706749699509132
 41
1
 42
1
 50
180
  0
INSERT
  2
-000-_Open30
  8
_0-2_寸法
 10
693.66288264818525
 20
85.706749699509132
 41
1
 42
1
 50
0
  0
TEXT
  8
_0-2_寸法
 62
    7
 10
689.99621598151862
 20
86.04008303284246
 40
0.6666666666666666
 41
1
 50
0
  1
20
  0
POINT
  8
_0-1_Defpoints
 62
    7
 10
686.99621598151862
 20
77.373416366175803
  0
POINT
  8
_0-1_Defpoints
 62
    7
 10
693.66288264818525
 20
79.873416366175803
  0
POINT
  8
_0-1_Defpoints
 62
    7
 10
693.66288264818525
 20
85.706749699509132
  0
ENDBLK
  0
BLOCK
  2
-023-_D26
 70
   64
 10
0
 20
0
 30
0
  0
LINE
  8
_0-2_寸法
  6
CONTINUOUS
 62
    4
 10
693.66288264818525
 20
85.706749699509132
 11
693.66288264818525
 21
90.706749699509132
  0
LINE
  8
_0-2_寸法
  6
CONTINUOUS
 62
    4
 10
605.32954931468566
 20
85.706749699509132
 11
605.32954931468566
 21
90.706749699509132
  0
LINE
  8
_0-2_寸法
  6
CONTINUOUS
 62
    4
 10
693.32954931485199
 20
90.706749699509132
 11
605.66288264801904
 21
90.706749699509132
  0
INSERT
  2
-000-_Open30
  8
_0-2_寸法
 10
693.66288264818525
 20
90.706749699509132
 41
1
 42
1
 50
0
  0
INSERT
  2
-000-_Open30
  8
_0-2_寸法
 10
605.32954931468566
 20
90.706749699509132
 41
1
 42
1
 50
180
  0
TEXT
  8
_0-2_寸法
 62
    7
 10
648.99621598143574
 20
91.04008303284246
 40
0.6666666666666666
 41
1
 50
0
  1
265
  0
POINT
  8
_0-1_Defpoints
 62
    7
 10
693.66288264818525
 20
85.706749699509132
  0
POINT
  8
_0-1_Defpoints
 62
    7
 10
605.32954931468566
 20
85.706749699509132
  0
POINT
  8
_0-1_Defpoints
 62
    7
 10
605.32954931468566
 20
90.706749699509132
  0
ENDBLK
  0
BLOCK
  2
-024-_D27
 70
   64
 10
0
 20
0
 30
0
  0
LINE
  8
_0-2_寸法
  6
CONTINUOUS
 62
    4
 10
683.6628826481857
 20
70.373416366175803
 11
680.32954931485233
 21
70.373416366175803
  0
LINE
  8
_0-2_寸法
  6
CONTINUOUS
 62
    4
 10
683.6628826481857
 20
76.706749699509132
 11
680.32954931485233
 21
76.706749699509132
  0
LINE
  8
_0-2_寸法
  6
CONTINUOUS
 62
    4
 10
680.32954931485233
 20
70.706749699509132
 11
680.32954931485233
 21
76.373416366175803
  0
INSERT
  2
-000-_Open30
  8
_0-2_寸法
 10
680.32954931485233
 20
70.373416366175803
 41
1
 42
1
 50
270
  0
INSERT
  2
-000-_Open30
  8
_0-2_寸法
 10
680.32954931485233
 20
76.706749699509132
 41
1
 42
1
 50
90
  0
TEXT
  8
_0-2_寸法
 62
    7
 10
679.99621598151907
 20
73.206749699509231
 40
0.6666666666666666
 41
1
 50
90
  1
19
  0
POINT
  8
_0-1_Defpoints
 62
    7
 10
683.6628826481857
 20
70.373416366175803
  0
POINT
  8
_0-1_Defpoints
 62
    7
 10
683.6628826481857
 20
76.706749699509132
  0
POINT
  8
_0-1_Defpoints
 62
    7
 10
680.32954931485233
 20
76.706749699509132
  0
ENDBLK
  0
ENDSEC
  0
SECTION
  2
ENTITIES
  0
LINE
  8
_0-4_図面枠
  6
DOT_17
 62
    7
 10
-365.9485055177372
 20
161.98628139926942
 11
785.94850551773698
 21
161.98628139926947
  0
LINE
  8
_0-4_図面枠
  6
CONTINUOUS
 62
    7
 10
785.94850551773698
 20
550.51371860073061
 11
-365.9485055177372
 21
550.51371860073061
  0
LINE
  8
_0-4_図面枠
  6
CONTINUOUS
 62
    7
 10
-365.9485055177372
 20
-253.51371860073061
 11
785.94850551773698
 21
-253.51371860073061
  0
TEXT
  8
_0-5_文字-記号
 62
    7
 10
-250.32076982059516
 20
142.97875349951525
 40
5
 41
0.7999999999999994
 50
0
  1
（落下防止ワイヤー）
  0
LINE
  8
_0-4_図面枠
  6
CONTINUOUS
 62
    7
 10
-365.9485055177372
 20
550.51371860073061
 11
-365.9485055177372
 21
-253.51371860073061
  0
TEXT
  8
_0-4_図面枠
 62
    7
 10
-299.46779780220413
 20
-233.76144959584974
 40
5
 41
0.8
 50
0
  1
注）　ガスケットＳＨはＳＳＨサイドプレート（Ｃ）Ａ 及び ＳＣＨサイドキャップにセット済み。
  0
TEXT
  8
_0-4_図面枠
 62
    7
 10
-229.26554327039617
 20
35.182319071040297
 40
5
 41
0.8000000000000007
 50
0
  1
ＳＳＨサイドプレート（Ｃ）Ａ
  0
TEXT
  8
_0-4_図面枠
 62
    7
 10
-229.26554327039617
 20
17.182319071040297
 40
5
 41
0.8
 50
0
  1
ＳＣＨセンタープレート（Ｃ）Ａ
  0
TEXT
  8
_0-4_図面枠
 62
    7
 10
-229.26554327039617
 20
-0.8176809289597031
 40
5
 41
0.8000000000000007
 50
0
  1
ＳＳＨフレーム（Ｃ）
  0
TEXT
  8
_0-4_図面枠
 62
    7
 10
-229.26554327039617
 20
-18.817680928959817
 40
5
 41
0.8000000000000009
 50
0
  1
ＳＣＨ壁フレーム
  0
TEXT
  8
_0-4_図面枠
 62
    7
 10
-229.26554327039617
 20
-36.817680928959817
 40
5
 41
0.8000000000000007
 50
0
  1
ＳＣＨサイドキャップ
  0
TEXT
  8
_0-4_図面枠
 62
    7
 10
-229.26554327039617
 20
-72.817680928959817
 40
5
 41
0.8000000000000009
 50
0
  1
アンカープラグ
  0
TEXT
  8
_0-4_図面枠
 62
    7
 10
-227.5697890038341
 20
-90.277938986574213
 40
5
 41
0.8
 50
0
  1
ステンタッピンねじ
  0
TEXT
  8
_0-4_図面枠
 62
    7
 10
-227.5697890038341
 20
-105.66528206554005
 40
5.0000000000000284
 41
0.7999999999999963
 50
0
  1
ステンワッシャー
  0
TEXT
  8
_0-4_図面枠
 62
    7
 10
-228.06615490960712
 20
-124.03082057914435
 40
5
 41
0.8000000000000004
 50
0
  1
ステンセットシルタップ
  0
TEXT
  8
_0-4_図面枠
 62
    7
 10
-229.26554327039617
 20
-144.81768092895982
 40
5
 41
0.8000000000000009
 50
0
  1
ガスケットＳＨ
  0
TEXT
  8
_0-4_図面枠
 62
    7
 10
-229.26554327039617
 20
-162.81768092895982
 40
5
 41
0.8
 50
0
  1
サイドプレートジョイントカバー
  0
TEXT
  8
_0-4_図面枠
 62
    7
 10
-229.26554327039617
 20
-216.81768092895982
 40
5
 41
0.8000000000000009
 50
0
  1
落下防止ワイヤー
  0
TEXT
  8
_0-4_図面枠
 62
    7
 10
-230.44769400050609
 20
-180.25281573790346
 40
5
 41
0.8000000000000004
 50
0
  1
センタープレートジョイントカバー
  0
TEXT
  8
_0-4_図面枠
 62
    7
 10
-189.30297781934519
 20
61.342215516674486
 40
5
 41
0.8000000000000009
 50
0
  1
部材名称
  0
LINE
  8
_0-3_躯体と製品
  6
CONTINUOUS
 62
    7
 10
-163.92563615975519
 20
131.40833378220512
 11
-161.90726115975508
 21
131.40833378220512
  0
LINE
  8
_0-3_躯体と製品
  6
CONTINUOUS
 62
    7
 10
-73.970636159755031
 20
129.40933378220515
 11
-163.92563615975519
 21
129.40933378220515
  0
LINE
  8
_0-3_躯体と製品
  6
CONTINUOUS
 62
    7
 10
-73.970636159755031
 20
130.40883378220516
 11
-163.92563615975519
 21
130.40883378220516
  0
LINE
  8
_0-4_図面枠
  6
CONTINUOUS
 62
    7
 10
172.54100808244493
 20
-163.6191016181948
 11
-253.90899191755511
 21
-163.6191016181948
  0
LINE
  8
_0-4_図面枠
  6
CONTINUOUS
 62
    7
 10
172.54100808244493
 20
-127.6191016181948
 11
-253.90899191755511
 21
-127.6191016181948
  0
LINE
  8
_0-4_図面枠
  6
CONTINUOUS
 62
    7
 10
172.54100808244493
 20
-217.61910161819492
 11
-253.90899191755511
 21
-217.61910161819492
  0
LINE
  8
_0-4_図面枠
  6
CONTINUOUS
 62
    7
 10
172.54100808244493
 20
-199.61910161819492
 11
-253.90899191755511
 21
-199.61910161819492
  0
LINE
  8
_0-4_図面枠
  6
CONTINUOUS
 62
    7
 10
172.54100808244493
 20
-181.61910161819492
 11
-253.90899191755511
 21
-181.61910161819492
  0
LINE
  8
_0-4_図面枠
  6
CONTINUOUS
 62
    7
 10
172.54100808244493
 20
84.780898381805144
 11
-253.90899191755511
 21
84.780898381805144
  0
LINE
  8
_0-4_図面枠
  6
CONTINUOUS
 62
    7
 10
172.54100808244493
 20
-145.6191016181948
 11
-253.90899191755511
 21
-145.6191016181948
  0
LINE
  8
_0-4_図面枠
  6
CONTINUOUS
 62
    7
 10
172.54100808244493
 20
-109.6191016181948
 11
-253.90899191755511
 21
-109.6191016181948
  0
LINE
  8
_0-4_図面枠
  6
CONTINUOUS
 62
    7
 10
172.54100808244493
 20
-91.619101618194861
 11
-253.90899191755511
 21
-91.619101618194861
  0
LINE
  8
_0-4_図面枠
  6
CONTINUOUS
 62
    7
 10
172.54100808244493
 20
-73.619101618194804
 11
-253.90899191755511
 21
-73.619101618194804
  0
LINE
  8
_0-4_図面枠
  6
CONTINUOUS
 62
    7
 10
172.54100808244493
 20
-55.619101618194804
 11
-253.90899191755511
 21
-55.619101618194804
  0
LINE
  8
_0-4_図面枠
  6
CONTINUOUS
 62
    7
 10
172.54100808244493
 20
-37.619101618194804
 11
-253.90899191755511
 21
-37.619101618194804
  0
LINE
  8
_0-4_図面枠
  6
CONTINUOUS
 62
    7
 10
172.54100808244493
 20
-19.619101618194804
 11
-253.90899191755511
 21
-19.619101618194804
  0
LINE
  8
_0-4_図面枠
  6
CONTINUOUS
 62
    7
 10
172.54100808244493
 20
-1.6191016181948044
 11
-253.90899191755511
 21
-1.6191016181948044
  0
LINE
  8
_0-4_図面枠
  6
CONTINUOUS
 62
    7
 10
172.54100808244493
 20
16.380898381805196
 11
-253.90899191755511
 21
16.380898381805196
  0
LINE
  8
_0-4_図面枠
  6
CONTINUOUS
 62
    7
 10
172.54100808244493
 20
34.380898381805196
 11
-253.90899191755511
 21
34.380898381805196
  0
LINE
  8
_0-4_図面枠
  6
CONTINUOUS
 62
    7
 10
172.54100808244493
 20
52.380898381805196
 11
-253.90899191755511
 21
52.380898381805196
  0
LINE
  8
_0-4_図面枠
  6
CONTINUOUS
 62
    7
 10
-232.3089919175552
 20
-217.61910161819492
 11
-232.3089919175552
 21
84.780898381805144
  0
LINE
  8
_0-4_図面枠
  6
CONTINUOUS
 62
    7
 10
-253.90899191755511
 20
-217.61910161819492
 11
-253.90899191755511
 21
84.780898381805144
  0
TEXT
  8
_0-4_図面枠
 62
    7
 10
-229.26554327039617
 20
-198.81768092895982
 40
5
 41
0.8
 50
0
  1
ブチルテープ
  0
TEXT
  8
_0-4_図面枠
 62
    7
 10
-244.90509977039619
 20
-217.93500542895981
 40
5
 41
0.8000000000000058
 50
0
  1
※
  0
TEXT
  8
_0-4_図面枠
 62
    7
 10
-244.90509977039619
 20
-199.93500542895981
 40
5
 41
0.8000000000000058
 50
0
  1
※
  0
TEXT
  8
_0-4_図面枠
 62
    7
 10
-244.90509977039619
 20
-181.93501442895979
 40
5
 41
0.8000000000000058
 50
0
  1
※
  0
TEXT
  8
_0-4_図面枠
 62
    7
 10
-244.90509977039619
 20
-163.93501442895979
 40
5
 41
0.8000000000000058
 50
0
  1
※
  0
TEXT
  8
_0-4_図面枠
 62
    7
 10
-253.58424839800205
 20
-145.22456409563858
 40
5
 41
0.800000000000003
 50
0
  1
１１
  0
TEXT
  8
_0-4_図面枠
 62
    7
 10
-252.86198693082611
 20
-127.89028888341659
 40
5
 41
0.800000000000003
 50
0
  1
１０
  0
TEXT
  8
_0-4_図面枠
 62
    7
 10
-229.26554327039617
 20
-54.817680928959817
 40
5
 41
0.8000000000000012
 50
0
  1
止水補助板
  0
TEXT
  8
_0-4_図面枠
 62
    7
 10
-244.90509977039619
 20
-55.934997928959831
 40
5
 41
0.8000000000000058
 50
0
  1
６
  0
TEXT
  8
_0-4_図面枠
 62
    7
 10
-244.90509977039619
 20
-91.935014428959732
 40
5.0000000000000284
 41
0.8000000000000012
 50
0
  1
８
  0
TEXT
  8
_0-4_図面枠
 62
    7
 10
-244.90509977039619
 20
-109.93501442895979
 40
5
 41
0.8000000000000058
 50
0
  1
９
  0
TEXT
  8
_0-4_図面枠
 62
    7
 10
-244.90509977039619
 20
-73.934997928959945
 40
5.0000000000000284
 41
0.8000000000000012
 50
0
  1
７
  0
TEXT
  8
_0-4_図面枠
 62
    7
 10
-244.90509977039619
 20
-19.935032428959801
 40
5
 41
0.8000000000000058
 50
0
  1
４
  0
TEXT
  8
_0-4_図面枠
 62
    7
 10
-244.90509977039619
 20
-37.934997928959774
 40
4.9999999999999716
 41
0.8000000000000103
 50
0
  1
５
  0
TEXT
  8
_0-4_図面枠
 62
    7
 10
-244.90509977039619
 20
-1.9350324289598007
 40
5
 41
0.8000000000000058
 50
0
  1
３
  0
TEXT
  8
_0-4_図面枠
 62
    7
 10
-244.90509977039619
 20
16.064967571040199
 40
5
 41
0.8000000000000058
 50
0
  1
２
  0
TEXT
  8
_0-4_図面枠
 62
    7
 10
-259.79039177039613
 20
34.064967571040228
 40
4.9999999999999858
 41
0.8000000000000052
 50
0
  1
　１
  0
ARC
  8
_0-3_躯体と製品
  6
CONTINUOUS
 62
    7
 10
-188.91313615975514
 20
129.90908378220516
 40
4.9974999999999987
 50
79.898790000005874
 51
283.04079499999443
  0
ARC
  8
_0-3_躯体と製品
  6
CONTINUOUS
 62
    7
 10
-188.91313615975514
 20
129.90908378220516
 40
3.9980000000000002
 50
79.898790000005874
 51
283.04079499999443
  0
LINE
  8
_0-3_躯体と製品
  6
CONTINUOUS
 62
    7
 10
-188.21193615975517
 20
133.84511178220512
 11
-168.92313615975513
 21
130.40883378220516
  0
LINE
  8
_0-3_躯体と製品
  6
CONTINUOUS
 62
    7
 10
-188.03663715975517
 20
134.82911978220514
 11
-168.92313615975513
 21
131.42406978220512
  0
LINE
  8
_0-3_躯体と製品
  6
CONTINUOUS
 62
    7
 10
-168.98770915975501
 20
130.42033678220523
 11
-188.01100815975519
 21
126.01419278220513
  0
LINE
  8
_0-3_躯体と製品
  6
CONTINUOUS
 62
    7
 10
-187.78547615975504
 20
125.04047078220512
 11
-168.92313615975513
 21
129.40933378220515
  0
LINE
  8
_0-3_躯体と製品
  6
CONTINUOUS
 62
    7
 10
-168.92313615975513
 20
132.20793378220512
 11
-168.92313615975513
 21
128.60973378220515
  0
LINE
  8
_0-3_躯体と製品
  6
CONTINUOUS
 62
    7
 10
-163.92563615975519
 20
128.60973378220515
 11
-163.92563615975519
 21
132.20793378220512
  0
LINE
  8
_0-3_躯体と製品
  6
CONTINUOUS
 62
    7
 10
-168.92313615975513
 20
128.60973378220515
 11
-163.92563615975519
 21
128.60973378220515
  0
LINE
  8
_0-3_躯体と製品
  6
CONTINUOUS
 62
    7
 10
-163.92563615975519
 20
132.20793378220512
 11
-168.92313615975513
 21
132.20793378220512
  0
LINE
  8
_0-4_図面枠
  6
CONTINUOUS
 62
    7
 10
69.941008082444796
 20
-217.61910161819492
 11
69.941008082444796
 21
84.780898381805144
  0
LINE
  8
_0-4_図面枠
  6
CONTINUOUS
 62
    7
 10
114.9410080824448
 20
-217.61910161819492
 11
114.9410080824448
 21
84.780898381805144
  0
LINE
  8
_0-4_図面枠
  6
CONTINUOUS
 62
    7
 10
150.9410080824448
 20
-217.61910161819492
 11
150.9410080824448
 21
84.780898381805144
  0
LINE
  8
_0-4_図面枠
  6
CONTINUOUS
 62
    7
 10
172.54100808244493
 20
-217.61910161819492
 11
172.54100808244493
 21
84.780898381805144
  0
LINE
  8
_0-4_図面枠
  6
CONTINUOUS
 62
    7
 10
66.941008082444796
 20
-217.61910161819492
 11
66.941008082444796
 21
84.780898381805144
  0
LINE
  8
_0-4_図面枠
  6
CONTINUOUS
 62
    7
 10
-61.308991917555204
 20
-217.61910161819492
 11
-61.308991917555204
 21
84.780898381805144
  0
TEXT
  8
_0-4_図面枠
 62
    7
 10
-58.265543270396165
 20
-198.81768092895982
 40
5
 41
0.7999999999999997
 50
0
  1
ｔ１．０×ｗ３０
  0
TEXT
  8
_0-4_図面枠
 62
    7
 10
-58.265543270396165
 20
-126.81768092895982
 40
5
 41
0.7999999999999998
 50
0
  1
１．５×１８×５．５穴
  0
TEXT
  8
_0-4_図面枠
 62
    7
 10
-58.265543270396165
 20
-180.81768092895982
 40
5
 41
0.7999999999999997
 50
0
  1
外ジョイント材
  0
TEXT
  8
_0-4_図面枠
 62
    7
 10
-58.265543270396165
 20
-162.81768092895982
 40
5
 41
0.7999999999999997
 50
0
  1
外ジョイント材
  0
TEXT
  8
_0-4_図面枠
 62
    7
 10
72.984456729602925
 20
-198.81768092895982
 40
5
 41
0.7999999999999997
 50
0
  1
６０００
  0
TEXT
  8
_0-4_図面枠
 62
    7
 10
72.984456729602925
 20
-144.81768092895982
 40
5
 41
0.7999999999999997
 50
0
  1
３１００
  0
TEXT
  8
_0-4_図面枠
 62
    7
 10
155.34976272960398
 20
-200.01765242895976
 40
5
 41
0.8000000000000009
 50
0
  1
巻
  0
TEXT
  8
_0-4_図面枠
 62
    7
 10
155.34976272960398
 20
-218.01766142895985
 40
5
 41
0.8000000000000009
 50
0
  1
本
  0
TEXT
  8
_0-4_図面枠
 62
    7
 10
133.91516772960381
 20
-217.86767192895979
 40
5
 41
0.8000000000000009
 50
0
  1
２
  0
TEXT
  8
_0-4_図面枠
 62
    7
 10
133.91516772960381
 20
-199.86767192895979
 40
5
 41
0.8000000000000009
 50
0
  1
１
  0
TEXT
  8
_0-4_図面枠
 62
    7
 10
155.34976272960398
 20
-128.01766892895989
 40
5
 41
0.8000000000000009
 50
0
  1
枚
  0
TEXT
  8
_0-4_図面枠
 62
    7
 10
155.34976272960398
 20
-146.01765242895988
 40
5
 41
0.8000000000000009
 50
0
  1
本
  0
TEXT
  8
_0-4_図面枠
 62
    7
 10
155.34976272960398
 20
-164.01766892895967
 40
5
 41
0.8000000000000009
 50
0
  1
個
  0
TEXT
  8
_0-4_図面枠
 62
    7
 10
133.91516772960381
 20
-163.86767192895979
 40
5
 41
0.8000000000000009
 50
0
  1
１
  0
TEXT
  8
_0-4_図面枠
 62
    7
 10
133.91516772960381
 20
-181.86767192895979
 40
5
 41
0.8000000000000009
 50
0
  1
１
  0
TEXT
  8
_0-4_図面枠
 62
    7
 10
155.34976272960398
 20
-182.01766892895978
 40
5
 41
0.8000000000000009
 50
0
  1
〃
  0
TEXT
  8
_0-4_図面枠
 62
    7
 10
132.41512122960285
 20
-145.86765542895978
 40
5
 41
0.8000000000000009
 50
0
  1
２
  0
TEXT
  8
_0-4_図面枠
 62
    7
 10
119.02987572960296
 20
-127.86768842895981
 40
5
 41
0.7999999999999997
 50
0
  1
１２
  0
TEXT
  8
_0-4_図面枠
 62
    7
 10
-58.265543270396165
 20
-72.817680928959817
 40
5
 41
0.7999999999999998
 50
0
  1
フィッシャープラグＳ８
  0
LINE
  8
_0-3_躯体と製品
  6
CONTINUOUS
 62
    7
 10
23.46123884024496
 20
132.20793378220512
 11
22.461738840244834
 21
132.20793378220512
  0
LINE
  8
_0-3_躯体と製品
  6
CONTINUOUS
 62
    7
 10
-63.97563615975514
 20
129.40933378220515
 11
25.979363840244787
 21
129.40933378220515
  0
ARC
  8
_0-3_躯体と製品
  6
CONTINUOUS
 62
    7
 10
23.960988840244909
 20
131.90808378220513
 40
1.4992499999999991
 50
180
 51
270
  0
LINE
  8
_0-3_躯体と製品
  6
CONTINUOUS
 62
    7
 10
-63.97563615975514
 20
130.40883378220516
 11
25.979363840244787
 21
130.40883378220516
  0
TEXT
  8
_0-4_図面枠
 62
    7
 10
-58.265543270396165
 20
-54.817680928959817
 40
5
 41
0.7999999999999994
 50
0
  1
ＦＳ４００
  0
TEXT
  8
_0-4_図面枠
 62
    7
 10
-58.265543270396165
 20
-108.81768092895982
 40
5
 41
0.7999999999999993
 50
0
  1
４×１３
  0
TEXT
  8
_0-4_図面枠
 62
    7
 10
-58.265543270396165
 20
-90.817680928959817
 40
5.0000000000000284
 41
0.7999999999999954
 50
0
  1
なべ５×５０
  0
LINE
  8
_0-3_躯体と製品
  6
CONTINUOUS
 62
    7
 10
-160.40801115975501
 20
132.20793378220512
 11
-160.40801115975501
 21
131.90808378220513
  0
LINE
  8
_0-3_躯体と製品
  6
CONTINUOUS
 62
    7
 10
-161.40751115975513
 20
132.20793378220512
 11
-160.40801115975501
 21
132.20793378220512
  0
LINE
  8
_0-3_躯体と製品
  6
CONTINUOUS
 62
    7
 10
-161.40751115975513
 20
132.20793378220512
 11
-161.40751115975513
 21
131.90808378220513
  0
ARC
  8
_0-3_躯体と製品
  6
CONTINUOUS
 62
    7
 10
-161.90726115975508
 20
131.90808378220513
 40
0.49975
 50
270
 51
0
  0
ARC
  8
_0-3_躯体と製品
  6
CONTINUOUS
 62
    7
 10
-161.90726115975508
 20
131.90808378220513
 40
1.4992499999999991
 50
270
 51
0
  0
TEXT
  8
_0-4_図面枠
 62
    7
 10
-28.960932106290102
 20
60.619954049498489
 40
5
 41
0.8
 50
0
  1
規　格
  0
LINE
  8
_0-3_躯体と製品
  6
CONTINUOUS
 62
    7
 10
22.461738840244834
 20
132.20793378220512
 11
22.461738840244834
 21
131.90808378220513
  0
TEXT
  8
_0-4_図面枠
 62
    7
 10
72.984456729602925
 20
-54.817680928959817
 40
5
 41
0.7999999999999997
 50
0
  1
３１００
  0
TEXT
  8
_0-4_図面枠
 62
    7
 10
72.984456729602925
 20
-18.817680928959817
 40
5
 41
0.7999999999999997
 50
0
  1
３０００
  0
TEXT
  8
_0-4_図面枠
 62
    7
 10
72.984456729602925
 20
-36.817680928959817
 40
5
 41
0.7999999999999997
 50
0
  1
３０００
  0
TEXT
  8
_0-4_図面枠
 62
    7
 10
72.984456729602925
 20
-0.8176809289597031
 40
5
 41
0.7999999999999997
 50
0
  1
３０００
  0
TEXT
  8
_0-4_図面枠
 62
    7
 10
155.34976272960398
 20
-56.017652428959821
 40
5
 41
0.8000000000000009
 50
0
  1
枚
  0
TEXT
  8
_0-4_図面枠
 62
    7
 10
133.91516772960381
 20
-55.867671928959851
 40
5.0000000000000284
 41
0.7999999999999963
 50
0
  1
１
  0
TEXT
  8
_0-4_図面枠
 62
    7
 10
155.34976272960398
 20
-74.017668928959949
 40
5.0000000000000284
 41
0.7999999999999963
 50
0
  1
本
  0
TEXT
  8
_0-4_図面枠
 62
    7
 10
119.02987572960296
 20
-91.867671928959851
 40
5.0000000000000284
 41
0.7999999999999951
 50
0
  1
１２
  0
TEXT
  8
_0-4_図面枠
 62
    7
 10
119.02987572960296
 20
-109.86767192895979
 40
5
 41
0.7999999999999997
 50
0
  1
１６
  0
TEXT
  8
_0-4_図面枠
 62
    7
 10
155.34976272960398
 20
-110.01766892895989
 40
5
 41
0.8000000000000009
 50
0
  1
〃
  0
TEXT
  8
_0-4_図面枠
 62
    7
 10
155.34976272960398
 20
-92.017668928959949
 40
5.0000000000000284
 41
0.7999999999999963
 50
0
  1
〃
  0
TEXT
  8
_0-4_図面枠
 62
    7
 10
119.02987572960296
 20
-73.867688428959866
 40
5.0000000000000284
 41
0.7999999999999951
 50
0
  1
１２
  0
TEXT
  8
_0-4_図面枠
 62
    7
 10
133.91516772960381
 20
-19.867671928959822
 40
5
 41
0.8000000000000009
 50
0
  1
１
  0
TEXT
  8
_0-4_図面枠
 62
    7
 10
133.91516772960381
 20
-37.867671928959822
 40
5
 41
0.8000000000000009
 50
0
  1
１
  0
TEXT
  8
_0-4_図面枠
 62
    7
 10
155.34976272960398
 20
-38.017668928959779
 40
4.9999999999999716
 41
0.8000000000000054
 50
0
  1
〃
  0
TEXT
  8
_0-4_図面枠
 62
    7
 10
133.91516772960381
 20
-1.8677064289598206
 40
5
 41
0.8000000000000009
 50
0
  1
１
  0
TEXT
  8
_0-4_図面枠
 62
    7
 10
155.34976272960398
 20
-20.017668928959722
 40
5
 41
0.8000000000000009
 50
0
  1
〃
  0
TEXT
  8
_0-4_図面枠
 62
    7
 10
155.34976272960398
 20
-2.0176689289597221
 40
5
 41
0.8000000000000009
 50
0
  1
〃
  0
TEXT
  8
_0-4_図面枠
 62
    7
 10
76.489242101393984
 20
55.564123779267092
 40
5
 41
0.8000000000000004
 50
0
  1
（ｍｍ）
  0
TEXT
  8
_0-4_図面枠
 62
    7
 10
72.984456729602925
 20
35.182319071040297
 40
5
 41
0.7999999999999997
 50
0
  1
３０００
  0
TEXT
  8
_0-4_図面枠
 62
    7
 10
72.984456729602925
 20
17.182319071040297
 40
5
 41
0.7999999999999997
 50
0
  1
３０００
  0
TEXT
  8
_0-4_図面枠
 62
    7
 10
78.656026502921804
 20
68.564830188433589
 40
5
 41
0.8
 50
0
  1
定　尺
  0
LINE
  8
_0-3_躯体と製品
  6
CONTINUOUS
 62
    7
 10
50.26566484044497
 20
133.84511178220512
 11
30.976863840444821
 21
130.40883378220516
  0
LINE
  8
_0-3_躯体と製品
  6
CONTINUOUS
 62
    7
 10
50.090364840444863
 20
134.82911978220514
 11
30.976863840444821
 21
131.42406978220512
  0
LINE
  8
_0-3_躯体と製品
  6
CONTINUOUS
 62
    7
 10
31.041436840444931
 20
130.42033678220523
 11
50.064736840444994
 21
126.01419278220513
  0
LINE
  8
_0-3_躯体と製品
  6
CONTINUOUS
 62
    7
 10
49.839204840444836
 20
125.04047078220512
 11
30.976863840444821
 21
129.40933378220515
  0
LINE
  8
_0-3_躯体と製品
  6
CONTINUOUS
 62
    7
 10
30.976863840444821
 20
132.20793378220512
 11
30.976863840444821
 21
128.60973378220515
  0
LINE
  8
_0-3_躯体と製品
  6
CONTINUOUS
 62
    7
 10
25.979363840244787
 20
128.60973378220515
 11
25.979363840244787
 21
132.20793378220512
  0
LINE
  8
_0-3_躯体と製品
  6
CONTINUOUS
 62
    7
 10
30.976863840444821
 20
128.60973378220515
 11
25.979363840244787
 21
128.60973378220515
  0
LINE
  8
_0-3_躯体と製品
  6
CONTINUOUS
 62
    7
 10
23.46123884024496
 20
132.20793378220512
 11
23.46123884024496
 21
131.90808378220513
  0
ARC
  8
_0-3_躯体と製品
  6
CONTINUOUS
 62
    7
 10
23.960988840244909
 20
131.90808378220513
 40
0.49975
 50
180
 51
270
  0
LINE
  8
_0-3_躯体と製品
  6
CONTINUOUS
 62
    7
 10
25.979363840244787
 20
131.40833378220512
 11
23.960988840244909
 21
131.40833378220512
  0
LINE
  8
_0-3_躯体と製品
  6
CONTINUOUS
 62
    7
 10
25.979363840244787
 20
132.20793378220512
 11
30.976863840444821
 21
132.20793378220512
  0
ARC
  8
_0-3_躯体と製品
  6
CONTINUOUS
 62
    7
 10
50.96686384044483
 20
129.90908378220516
 40
4.9974999999999987
 50
256.95920500000551
 51
108.02159900000154
  0
ARC
  8
_0-3_躯体と製品
  6
CONTINUOUS
 62
    7
 10
50.96686384044483
 20
129.90908378220516
 40
3.9980000000000002
 50
256.95920500000551
 51
110.01038099999663
  0
TEXT
  8
_0-4_図面枠
 62
    7
 10
155.34976272960398
 20
33.982331071040306
 40
4.9999999999999858
 41
0.8000000000000031
 50
0
  1
本
  0
TEXT
  8
_0-4_図面枠
 62
    7
 10
165.9938337609758
 20
79.398752196072437
 40
5
 41
0.8000000000000003
 50
0
  1
単位
  0
TEXT
  8
_0-4_図面枠
 62
    7
 10
133.91516772960381
 20
16.132328071040178
 40
5
 41
0.8000000000000009
 50
0
  1
１
  0
TEXT
  8
_0-4_図面枠
 62
    7
 10
133.91516772960381
 20
34.132293571040179
 40
5
 41
0.8000000000000009
 50
0
  1
１
  0
TEXT
  8
_0-4_図面枠
 62
    7
 10
155.34976272960398
 20
15.982331071040278
 40
5
 41
0.8000000000000009
 50
0
  1
〃
  0
TEXT
  8
_0-4_図面枠
 62
    7
 10
123.43623746782896
 20
68.564830188433589
 40
5
 41
0.7999999999999997
 50
0
  1
使用
  0
TEXT
  8
_0-4_図面枠
 62
    7
 10
121.99171453347685
 20
54.841862312091195
 40
5
 41
0.7999999999999997
 50
0
  1
数量
  0
TEXT
  8
_0-4_図面枠
 62
    7
 10
-332.4911093047001
 20
499.91126334486364
 40
5
 41
0.8
 50
0
  1
◇外壁コーナー（１５０ＳＣＨ－Ａ）　Ｓ＝１／３
  0
TEXT
  8
_0-4_図面枠
 62
    7
 10
-324.26965601750317
 20
528.68634985005394
 40
5
 41
0.8000000000000004
 50
0
  1
（アルミ１５０タイプ）
  0
LINE
  8
_0-3_躯体と製品
  6
CONTINUOUS
 62
    3
 10
-163.63795387005507
 20
349.85174706710279
 11
-162.06356887005518
 21
351.4261310671028
  0
LINE
  8
_0-3_躯体と製品
  6
CONTINUOUS
 62
    3
 10
-163.18853487005504
 20
346.05852406710278
 11
-156.64180587005512
 21
352.60525306710286
  0
LINE
  8
_0-3_躯体と製品
  6
CONTINUOUS
 62
    3
 10
-163.254427870055
 20
341.74999106710277
 11
-156.64180587005512
 21
348.36261306710293
  0
LINE
  8
_0-3_躯体と製品
  6
CONTINUOUS
 62
    3
 10
-156.64180587005512
 20
341.8478940671028
 11
-163.4431908700551
 21
348.6492790671029
  0
LINE
  8
_0-3_躯体と製品
  6
CONTINUOUS
 62
    3
 10
-164.138206870055
 20
336.61997206710288
 11
-156.64180587005512
 21
344.1163100671028
  0
LINE
  8
_0-3_躯体と製品
  6
CONTINUOUS
 62
    3
 10
-159.89916487005507
 20
336.61997206710288
 11
-163.43415787005506
 21
340.15496506710281
  0
LINE
  8
_0-3_躯体と製品
  6
CONTINUOUS
 62
    3
 10
-156.64180587005512
 20
337.60525306710292
 11
-163.14294387005521
 21
344.10639106710278
  0
LINE
  8
_0-3_躯体と製品
  6
CONTINUOUS
 62
    3
 10
-164.14180587005512
 20
356.61997206710288
 11
-60.141805870055123
 21
356.61997206710288
  0
ARC
  8
_0-3_躯体と製品
  6
CONTINUOUS
 62
    3
 10
-162.84180587005517
 20
352.91997206710278
 40
0.2999999999999998
 50
180
 51
270
  0
LINE
  8
_0-3_躯体と製品
  6
CONTINUOUS
 62
    3
 10
-164.14180587005512
 20
351.41997206710278
 11
-162.14180587005512
 21
351.41997206710278
  0
ARC
  8
_0-3_躯体と製品
  6
CONTINUOUS
 62
    3
 10
-162.84180587005517
 20
354.81997206710287
 40
0.2999999999999998
 50
90
 51
180
  0
ARC
  8
_0-3_躯体と製品
  6
CONTINUOUS
 62
    3
 10
-162.39180587005512
 20
354.36997206710288
 40
0.75
 50
90
 51
270
  0
LINE
  8
_0-3_躯体と製品
  6
DOT_17
 62
    3
 10
-169.64180587005512
 20
236.61997206710282
 11
-74.641805870055123
 21
236.61997206710282
  0
LINE
  8
_0-3_躯体と製品
  6
CONTINUOUS
 62
    3
 10
-169.64180587005512
 20
336.61997206710288
 11
-74.641805870055123
 21
336.61997206710288
  0
LINE
  8
_0-2_寸法
  6
CONTINUOUS
 62
    3
 10
-164.64180587005512
 20
376.61997206710288
 11
-164.64180587005512
 21
416.61997206710299
  0
LINE
  8
_0-3_躯体と製品
  6
DOT_17
 62
    3
 10
-169.64180587005512
 20
336.61997206710288
 11
-169.64180587005512
 21
236.61997206710282
  0
TEXT
  8
_0-5_文字-記号
 62
    7
 10
-314.0192197652882
 20
319.38248474932516
 40
10
 41
1
 50
0
  1
コーキング処理(別途工事)
  0
LINE
  8
_0-5_文字-記号
  6
CONTINUOUS
 62
    3
 10
-179.59664595705522
 20
316.61997206710288
 11
-295.51114127735514
 21
316.61997206710288
  0
LINE
  8
_0-5_文字-記号
  6
CONTINUOUS
 62
    3
 10
-163.15066101515504
 20
345.10525356710286
 11
-179.59664595705522
 21
316.61997206710288
  0
ARC
  8
_0-3_躯体と製品
  6
CONTINUOUS
 62
    3
 10
-193.67305587005512
 20
344.36997206710288
 40
30.53125
 50
345.29524100000032
 51
13.350709000000929
  0
LINE
  8
_0-2_寸法
  6
CONTINUOUS
 62
    3
 10
-164.64180587005512
 20
361.61997206710288
 11
-164.64180587005512
 21
376.61997206710288
  0
ARC
  8
_0-3_躯体と製品
  6
CONTINUOUS
 62
    3
 10
-164.14180587005512
 20
356.11997206710288
 40
0.5
 50
90
 51
180
  0
LINE
  8
_0-3_躯体と製品
  6
CONTINUOUS
 62
    3
 10
-163.14180587005512
 20
352.91997206710278
 11
-163.14180587005512
 21
354.81997206710287
  0
LINE
  8
_0-3_躯体と製品
  6
CONTINUOUS
 62
    3
 10
-164.64180587005512
 20
356.11997206710288
 11
-164.64180587005512
 21
351.91997206710278
  0
ARC
  8
_0-3_躯体と製品
  6
CONTINUOUS
 62
    3
 10
-164.14180587005512
 20
351.91997206710278
 40
0.5
 50
180
 51
270
  0
LINE
  8
_0-2_寸法
  6
CONTINUOUS
 62
    3
 10
-164.64180587005512
 20
431.61997206710282
 11
-164.64180587005512
 21
446.61997206710271
  0
LINE
  8
_0-2_寸法
  6
CONTINUOUS
 62
    3
 10
-164.64180587005512
 20
416.61997206710299
 11
-164.64180587005512
 21
431.61997206710282
  0
LINE
  8
_0-2_寸法
  6
CONTINUOUS
 62
    3
 10
-59.641805870055123
 20
359.11997206710288
 11
-59.641805870055123
 21
416.61997206710299
  0
LINE
  8
_0-2_寸法
  6
CONTINUOUS
 62
    3
 10
55.358194130444872
 20
376.61997206710288
 11
55.358194130444872
 21
416.61997206710299
  0
LINE
  8
_0-3_躯体と製品
  6
CONTINUOUS
 62
    3
 10
75.358194130444872
 20
411.61997206710288
 11
75.358194130444872
 21
236.61997206710282
  0
LINE
  8
_0-3_躯体と製品
  6
DOT_17
 62
    3
 10
130.35819413044487
 20
411.61997206710288
 11
130.35819413044487
 21
236.61997206710282
  0
ARC
  8
_0-3_躯体と製品
  6
CONTINUOUS
 62
    3
 10
0.6081941299448772
 20
336.11997206710288
 40
63.25
 50
269.77353599999537
 51
329.14665783506859
  0
ARC
  8
_0-3_躯体と製品
  6
CONTINUOUS
 62
    3
 10
0.6081941299448772
 20
336.61997206710288
 40
64.75
 50
269.77878199999952
 51
328.78320279382717
  0
LINE
  8
_0-3_躯体と製品
  6
CONTINUOUS
 62
    3
 10
-101.64180587005512
 20
350.2199720671029
 11
65.022004644444905
 21
350.2199720671029
  0
LINE
  8
_0-3_躯体と製品
  6
CONTINUOUS
 62
    3
 10
64.008090360444839
 20
348.61997206710288
 11
1.6081941299448772
 21
348.61997206710288
  0
ARC
  8
_0-3_躯体と製品
  6
CONTINUOUS
 62
    3
 10
0.1081941299448772
 20
336.61997206710288
 40
64.75
 50
187.68803699999989
 51
270.22122099999456
  0
ARC
  8
_0-3_躯体と製品
  6
CONTINUOUS
 62
    3
 10
0.1081941299448772
 20
336.11997206710288
 40
63.25
 50
187.68803699999989
 51
270.22646800000228
  0
LINE
  8
_0-3_躯体と製品
  6
PLINE12
 62
    3
 10
0.3581941299448772
 20
234.21616149940277
 11
0.3581941299448772
 21
386.16521225890278
  0
CIRCLE
  8
_0-5_文字-記号
  6
CONTINUOUS
 62
    3
 10
-142.96430484705502
 20
282.28984504820261
 40
5
  0
LINE
  8
_0-3_躯体と製品
  6
CONTINUOUS
 62
    3
 10
-74.641805870055123
 20
236.61997206710282
 11
-74.641805870055123
 21
336.61997206710288
  0
ARC
  8
_0-3_躯体と製品
  6
CONTINUOUS
 62
    3
 10
-73.969890870054996
 20
326.11997206710288
 40
11.5
 50
7.6880369999999543
 51
90
  0
ARC
  8
_0-3_躯体と製品
  6
CONTINUOUS
 62
    3
 10
-73.969890870054996
 20
326.61997206710288
 40
10
 50
7.6880369999999543
 51
90
  0
LINE
  8
_0-3_躯体と製品
  6
CONTINUOUS
 62
    3
 10
-148.34180587005517
 20
355.11997206710288
 11
-69.541805870055214
 21
355.11997206710288
  0
LINE
  8
_0-3_躯体と製品
  6
CONTINUOUS
 62
    3
 10
-129.34180587005517
 20
339.61997206710288
 11
-61.641805870055123
 21
339.61997206710288
  0
LINE
  8
_0-3_躯体と製品
  6
CONTINUOUS
 62
    3
 10
-77.141805870055123
 20
338.11997206710288
 11
-61.141805870055123
 21
338.11997206710288
  0
LINE
  8
_0-3_躯体と製品
  6
CONTINUOUS
 62
    3
 10
-100.64180587005512
 20
348.61997206710288
 11
-0.8918058700551228
 21
348.61997206710288
  0
LINE
  8
_0-3_躯体と製品
  6
PLINE12
 62
    3
 10
-148.64180587005512
 20
364.36997206710288
 11
-148.64180587005512
 21
341.61997206710288
  0
LINE
  8
_0-5_文字-記号
  6
CONTINUOUS
 62
    3
 10
-129.64180587005512
 20
344.41997206710278
 11
-148.57889469945508
 21
311.61997206710288
  0
LINE
  8
_0-3_躯体と製品
  6
PLINE12
 62
    3
 10
-129.64180587005512
 20
349.7699720671028
 11
-129.64180587005512
 21
284.01901942520288
  0
LINE
  8
_0-3_躯体と製品
  6
CONTINUOUS
 62
    3
 10
-156.64180587005512
 20
353.61997206710288
 11
-154.64180587005512
 21
336.61997206710288
  0
LINE
  8
_0-3_躯体と製品
  6
CONTINUOUS
 62
    3
 10
-156.64180587005512
 20
353.61997206710288
 11
-156.64180587005512
 21
336.61997206710288
  0
ARC
  8
_0-3_躯体と製品
  6
CONTINUOUS
 62
    3
 10
-126.86358187005521
 20
342.44202106710287
 40
1.6000000000000001
 50
4.9999999999994591
 51
74.506032000000914
  0
ARC
  8
_0-3_躯体と製品
  6
CONTINUOUS
 62
    3
 10
-132.42002987005503
 20
342.44202106710287
 40
1.6000000000000001
 50
105.493967999999
 51
175.00000000000051
  0
LINE
  8
_0-3_躯体と製品
  6
CONTINUOUS
 62
    3
 10
-148.64180587005512
 20
345.1562130671029
 11
-148.64180587005512
 21
343.11997206710288
  0
LINE
  8
_0-3_躯体と製品
  6
CONTINUOUS
 62
    3
 10
-148.64180587005512
 20
343.11997206710288
 11
-147.04180587005521
 21
344.04373206710289
  0
LINE
  8
_0-3_躯体と製品
  6
CONTINUOUS
 62
    3
 10
-148.64180587005512
 20
343.11997206710288
 11
-150.24180487005515
 21
344.04373206710289
  0
LINE
  8
_0-3_躯体と製品
  6
CONTINUOUS
 62
    3
 10
-152.84180587005517
 20
352.61997206710288
 11
-152.84180587005517
 21
340.11997206710288
  0
LINE
  8
_0-3_躯体と製品
  6
CONTINUOUS
 62
    3
 10
-154.64180587005512
 20
353.11997206710288
 11
-154.64180587005512
 21
337.61997206710288
  0
LINE
  8
_0-3_躯体と製品
  6
CONTINUOUS
 62
    3
 10
-154.64180587005512
 20
336.61997206710288
 11
-73.969890870054996
 21
336.61997206710288
  0
LINE
  8
_0-3_躯体と製品
  6
CONTINUOUS
 62
    3
 10
-154.64180587005512
 20
337.61997206710288
 11
-73.969890870054996
 21
337.61997206710288
  0
LINE
  8
_0-5_文字-記号
  6
CONTINUOUS
 62
    3
 10
-120.64180587005512
 20
340.36997206710288
 11
-109.81648832275505
 21
321.61997206710288
  0
LINE
  8
_0-3_躯体と製品
  6
CONTINUOUS
 62
    3
 10
-119.64180587005512
 20
338.11997206710288
 11
-103.64180587005512
 21
338.11997206710288
  0
CIRCLE
  8
_0-5_文字-記号
  6
CONTINUOUS
 62
    3
 10
-151.07889469945508
 20
307.28984504820278
 40
5
  0
LINE
  8
_0-3_躯体と製品
  6
CONTINUOUS
 62
    3
 10
-124.75689087005503
 20
311.82644606710278
 11
-124.65221887005509
 21
309.82918706710279
  0
LINE
  8
_0-3_躯体と製品
  6
CONTINUOUS
 62
    3
 10
-134.52672087005521
 20
311.82644606710278
 11
-134.63139287005515
 21
309.82918706710279
  0
LINE
  8
_0-3_躯体と製品
  6
CONTINUOUS
 62
    3
 10
-127.51939087005508
 20
297.66245606710277
 11
-129.14180587005512
 21
328.61997206710288
  0
LINE
  8
_0-3_躯体と製品
  6
CONTINUOUS
 62
    3
 10
-131.76422087005517
 20
297.66245606710277
 11
-130.14180587005512
 21
328.61997206710288
  0
TEXT
  8
_0-5_文字-記号
 62
    7
 10
-144.49797361162518
 20
278.54073237567047
 40
5
 41
0.7999999999999943
 50
0
  1
7
  0
LINE
  8
_0-5_文字-記号
  6
CONTINUOUS
 62
    3
 10
-133.45948637005517
 20
298.75267356710287
 11
-140.46430484705502
 21
286.61997206710288
  0
TEXT
  8
_0-5_文字-記号
 62
    7
 10
-153.06651374762714
 20
302.11003593524089
 40
5
 41
0.7999999999999943
 50
0
  1
8
  0
LINE
  8
_0-3_躯体と製品
  6
CONTINUOUS
 62
    3
 10
-127.77236187005519
 20
302.48941606710287
 11
-129.64180587005512
 21
300.61997206710288
  0
LINE
  8
_0-3_躯体と製品
  6
CONTINUOUS
 62
    3
 10
-135.05007987005501
 20
301.8401500671028
 11
-135.15475187005518
 21
299.84289106710287
  0
LINE
  8
_0-3_躯体と製品
  6
CONTINUOUS
 62
    3
 10
-133.05282087005503
 20
301.7354790671028
 11
-135.05007987005501
 21
301.8401500671028
  0
LINE
  8
_0-3_躯体と製品
  6
CONTINUOUS
 62
    3
 10
-132.94814887005509
 20
303.73273806710279
 11
-133.05282087005503
 21
301.7354790671028
  0
LINE
  8
_0-3_躯体と製品
  6
CONTINUOUS
 62
    3
 10
-134.89307187005511
 20
304.83603906710277
 11
-132.94814887005509
 21
303.73273806710279
  0
LINE
  8
_0-3_躯体と製品
  6
CONTINUOUS
 62
    3
 10
-134.78839987005517
 20
306.83329806710287
 11
-134.89307187005511
 21
304.83603906710277
  0
LINE
  8
_0-3_躯体と製品
  6
CONTINUOUS
 62
    3
 10
-132.79114087005519
 20
306.72862606710288
 11
-134.78839987005517
 21
306.83329806710287
  0
LINE
  8
_0-3_躯体と製品
  6
CONTINUOUS
 62
    3
 10
-132.68646887005502
 20
308.72588506710292
 11
-132.79114087005519
 21
306.72862606710288
  0
LINE
  8
_0-3_躯体と製品
  6
CONTINUOUS
 62
    3
 10
-134.63139287005515
 20
309.82918706710279
 11
-132.68646887005502
 21
308.72588506710292
  0
LINE
  8
_0-3_躯体と製品
  6
CONTINUOUS
 62
    3
 10
-131.51124987005505
 20
302.48941606710287
 11
-129.64180587005512
 21
300.61997206710288
  0
LINE
  8
_0-3_躯体と製品
  6
CONTINUOUS
 62
    3
 10
-133.26216487005513
 20
297.74096006710289
 11
-131.76422087005517
 21
297.66245606710277
  0
LINE
  8
_0-3_躯体と製品
  6
CONTINUOUS
 62
    3
 10
-135.15475187005518
 20
299.84289106710287
 11
-133.26216487005513
 21
297.74096006710289
  0
LINE
  8
_0-3_躯体と製品
  6
CONTINUOUS
 62
    3
 10
-131.659548870055
 20
299.65971606710286
 11
-135.15475187005518
 21
299.84289106710287
  0
LINE
  8
_0-3_躯体と製品
  6
CONTINUOUS
 62
    3
 10
-124.233531870055
 20
301.8401500671028
 11
-124.12885987005507
 21
299.84289106710287
  0
LINE
  8
_0-3_躯体と製品
  6
CONTINUOUS
 62
    3
 10
-126.23079087005522
 20
301.7354790671028
 11
-124.233531870055
 21
301.8401500671028
  0
LINE
  8
_0-3_躯体と製品
  6
CONTINUOUS
 62
    3
 10
-126.33546287005515
 20
303.73273806710279
 11
-126.23079087005522
 21
301.7354790671028
  0
LINE
  8
_0-3_躯体と製品
  6
CONTINUOUS
 62
    3
 10
-124.39053987005514
 20
304.83603906710277
 11
-126.33546287005515
 21
303.73273806710279
  0
LINE
  8
_0-3_躯体と製品
  6
CONTINUOUS
 62
    3
 10
-124.49521187005507
 20
306.83329806710287
 11
-124.39053987005514
 21
304.83603906710277
  0
LINE
  8
_0-3_躯体と製品
  6
CONTINUOUS
 62
    3
 10
-126.49247087005415
 20
306.72862606710288
 11
-124.49521187005507
 21
306.83329806710287
  0
LINE
  8
_0-3_躯体と製品
  6
CONTINUOUS
 62
    3
 10
-126.59714287005522
 20
308.72588506710292
 11
-126.49247087005415
 21
306.72862606710288
  0
LINE
  8
_0-3_躯体と製品
  6
CONTINUOUS
 62
    3
 10
-124.65221887005509
 20
309.82918706710279
 11
-126.59714287005522
 21
308.72588506710292
  0
LINE
  8
_0-3_躯体と製品
  6
CONTINUOUS
 62
    3
 10
-126.02144687005512
 20
297.74096006710289
 11
-127.51939087005508
 21
297.66245606710277
  0
LINE
  8
_0-3_躯体と製品
  6
CONTINUOUS
 62
    3
 10
-124.12885987005507
 20
299.84289106710287
 11
-126.02144687005512
 21
297.74096006710289
  0
LINE
  8
_0-3_躯体と製品
  6
CONTINUOUS
 62
    3
 10
-127.62406287005501
 20
299.65971606710286
 11
-124.12885987005507
 21
299.84289106710287
  0
LINE
  8
_0-3_躯体と製品
  6
CONTINUOUS
 62
    3
 10
-153.14180587005512
 20
338.11997206710288
 11
-139.64180587005512
 21
338.11997206710288
  0
LINE
  8
_0-3_躯体と製品
  6
CONTINUOUS
 62
    3
 10
-129.94180587005508
 20
339.61997206710288
 11
-152.34180587005517
 21
339.61997206710288
  0
LINE
  8
_0-3_躯体と製品
  6
CONTINUOUS
 62
    3
 10
-154.64180587005512
 20
337.61997206710288
 11
-154.64180587005512
 21
336.61997206710288
  0
LINE
  8
_0-3_躯体と製品
  6
CONTINUOUS
 62
    3
 10
-159.89916487005507
 20
336.61997206710288
 11
-156.64180587005512
 21
339.87733106710277
  0
LINE
  8
_0-3_躯体と製品
  6
CONTINUOUS
 62
    3
 10
-153.14180587005512
 20
338.11997206710288
 11
-153.14180587005512
 21
337.61997206710288
  0
LINE
  8
_0-3_躯体と製品
  6
CONTINUOUS
 62
    3
 10
-154.64180587005512
 20
337.61997206710288
 11
-153.14180587005512
 21
337.61997206710288
  0
ARC
  8
_0-3_躯体と製品
  6
CONTINUOUS
 62
    3
 10
-152.34180587005517
 20
340.11997206710288
 40
0.5
 50
180
 51
270
  0
LINE
  8
_0-3_躯体と製品
  6
CONTINUOUS
 62
    3
 10
-125.64180587005512
 20
324.61997206710288
 11
-125.64180587005512
 21
328.61997206710288
  0
LINE
  8
_0-3_躯体と製品
  6
CONTINUOUS
 62
    3
 10
-133.64180587005512
 20
324.61997206710288
 11
-133.64180587005512
 21
328.61997206710288
  0
LINE
  8
_0-3_躯体と製品
  6
CONTINUOUS
 62
    3
 10
-135.96414587005506
 20
328.42361406710279
 11
-135.02071387005503
 21
321.81959306710291
  0
LINE
  8
_0-3_躯体と製品
  6
CONTINUOUS
 62
    3
 10
-135.96040687005507
 20
321.47757306710287
 11
-136.95276187005516
 21
328.28119506710277
  0
LINE
  8
_0-3_躯体と製品
  6
CONTINUOUS
 62
    3
 10
-123.31946587005518
 20
328.42361406710279
 11
-124.26289787005521
 21
321.81959306710291
  0
LINE
  8
_0-3_躯体と製品
  6
CONTINUOUS
 62
    3
 10
-123.32320487005518
 20
321.47757306710287
 11
-122.33084987005509
 21
328.28119506710277
  0
LINE
  8
_0-3_躯体と製品
  6
CONTINUOUS
 62
    3
 10
-123.31946587005518
 20
328.42361406710279
 11
-124.26289787005521
 21
321.81959306710291
  0
LINE
  8
_0-3_躯体と製品
  6
CONTINUOUS
 62
    3
 10
-123.32320487005518
 20
321.47757306710287
 11
-122.33084987005509
 21
328.28119506710277
  0
LINE
  8
_0-3_躯体と製品
  6
CONTINUOUS
 62
    3
 10
-132.529461870055
 20
311.7217740671029
 11
-134.52672087005521
 21
311.82644606710278
  0
LINE
  8
_0-3_躯体と製品
  6
CONTINUOUS
 62
    3
 10
-132.42478987005506
 20
313.71903306710288
 11
-132.529461870055
 21
311.7217740671029
  0
LINE
  8
_0-3_躯体と製品
  6
CONTINUOUS
 62
    3
 10
-134.36971287005508
 20
314.82233406710293
 11
-132.42478987005506
 21
313.71903306710288
  0
LINE
  8
_0-3_躯体と製品
  6
CONTINUOUS
 62
    3
 10
-134.26504087005515
 20
316.81959306710291
 11
-134.36971287005508
 21
314.82233406710293
  0
LINE
  8
_0-3_躯体と製品
  6
CONTINUOUS
 62
    3
 10
-132.26778187005516
 20
316.71492206710286
 11
-134.26504087005515
 21
316.81959306710291
  0
LINE
  8
_0-3_躯体と製品
  6
CONTINUOUS
 62
    3
 10
-132.16310987005522
 20
318.7121810671029
 11
-132.26778187005516
 21
316.71492206710286
  0
LINE
  8
_0-3_躯体と製品
  6
CONTINUOUS
 62
    3
 10
-134.10803287005501
 20
319.81548206710289
 11
-132.16310987005522
 21
318.7121810671029
  0
LINE
  8
_0-3_躯体と製品
  6
CONTINUOUS
 62
    3
 10
-134.00336087005508
 20
321.81274106710288
 11
-134.10803287005501
 21
319.81548206710289
  0
LINE
  8
_0-3_躯体と製品
  6
CONTINUOUS
 62
    3
 10
-132.00610187005509
 20
321.70806906710277
 11
-134.00336087005508
 21
321.81274106710288
  0
LINE
  8
_0-3_躯体と製品
  6
CONTINUOUS
 62
    3
 10
-131.90142987005515
 20
323.70532806710287
 11
-132.00610187005509
 21
321.70806906710277
  0
LINE
  8
_0-3_躯体と製品
  6
CONTINUOUS
 62
    3
 10
-133.64180587005512
 20
324.61997206710288
 11
-131.90142987005515
 21
323.70532806710287
  0
LINE
  8
_0-3_躯体と製品
  6
CONTINUOUS
 62
    3
 10
-134.26504087005515
 20
316.81959306710291
 11
-135.96040687005507
 21
321.47757306710287
  0
LINE
  8
_0-3_躯体と製品
  6
CONTINUOUS
 62
    3
 10
-133.20086287005506
 20
316.81959306710291
 11
-135.02071387005503
 21
321.81959306710291
  0
LINE
  8
_0-3_躯体と製品
  6
CONTINUOUS
 62
    3
 10
-126.75414987005502
 20
311.7217740671029
 11
-124.75689087005503
 21
311.82644606710278
  0
LINE
  8
_0-3_躯体と製品
  6
CONTINUOUS
 62
    3
 10
-126.85882187005518
 20
313.71903306710288
 11
-126.75414987005502
 21
311.7217740671029
  0
LINE
  8
_0-3_躯体と製品
  6
CONTINUOUS
 62
    3
 10
-124.91389887005516
 20
314.82233406710293
 11
-126.85882187005518
 21
313.71903306710288
  0
LINE
  8
_0-3_躯体と製品
  6
CONTINUOUS
 62
    3
 10
-125.0185708700551
 20
316.81959306710291
 11
-124.91389887005516
 21
314.82233406710293
  0
LINE
  8
_0-3_躯体と製品
  6
CONTINUOUS
 62
    3
 10
-127.01582987005509
 20
316.71492206710286
 11
-125.0185708700551
 21
316.81959306710291
  0
LINE
  8
_0-3_躯体と製品
  6
CONTINUOUS
 62
    3
 10
-127.12050187005502
 20
318.7121810671029
 11
-127.01582987005509
 21
316.71492206710286
  0
LINE
  8
_0-3_躯体と製品
  6
CONTINUOUS
 62
    3
 10
-125.17557887005501
 20
319.81548206710289
 11
-127.12050187005502
 21
318.7121810671029
  0
LINE
  8
_0-3_躯体と製品
  6
CONTINUOUS
 62
    3
 10
-125.28025087005517
 20
321.81274106710288
 11
-125.17557887005501
 21
319.81548206710289
  0
LINE
  8
_0-3_躯体と製品
  6
CONTINUOUS
 62
    3
 10
-127.27750987005516
 20
321.70806906710277
 11
-125.28025087005517
 21
321.81274106710288
  0
LINE
  8
_0-3_躯体と製品
  6
CONTINUOUS
 62
    3
 10
-127.38218187005509
 20
323.70532806710287
 11
-127.27750987005516
 21
321.70806906710277
  0
LINE
  8
_0-3_躯体と製品
  6
CONTINUOUS
 62
    3
 10
-125.64180587005512
 20
324.61997206710288
 11
-127.38218187005509
 21
323.70532806710287
  0
LINE
  8
_0-3_躯体と製品
  6
CONTINUOUS
 62
    3
 10
-125.0185708700551
 20
316.81959306710291
 11
-123.32320487005518
 21
321.47757306710287
  0
LINE
  8
_0-3_躯体と製品
  6
CONTINUOUS
 62
    3
 10
-126.08274887005518
 20
316.81959306710291
 11
-124.26289787005521
 21
321.81959306710291
  0
LINE
  8
_0-3_躯体と製品
  6
CONTINUOUS
 62
    3
 10
-138.64180587005512
 20
339.61997206710288
 11
-120.64180587005512
 21
339.61997206710288
  0
LINE
  8
_0-3_躯体と製品
  6
CONTINUOUS
 62
    3
 10
-138.64180587005512
 20
341.11997206710288
 11
-120.64180587005512
 21
341.11997206710288
  0
LINE
  8
_0-3_躯体と製品
  6
CONTINUOUS
 62
    3
 10
-134.64180587005512
 20
336.61997206710288
 11
-124.64180587005512
 21
336.61997206710288
  0
LINE
  8
_0-3_躯体と製品
  6
CONTINUOUS
 62
    3
 10
-139.64180587005512
 20
337.61997206710288
 11
-119.64180587005512
 21
337.61997206710288
  0
LINE
  8
_0-3_躯体と製品
  6
CONTINUOUS
 62
    3
 10
-138.64180587005512
 20
341.11997206710288
 11
-138.64180587005512
 21
339.61997206710288
  0
LINE
  8
_0-3_躯体と製品
  6
CONTINUOUS
 62
    3
 10
-134.01394087005519
 20
342.58147106710288
 11
-134.14180587005512
 21
341.11997206710288
  0
LINE
  8
_0-3_躯体と製品
  6
CONTINUOUS
 62
    3
 10
-129.64180587005512
 20
331.61997206710288
 11
-129.64180587005512
 21
336.61997206710288
  0
LINE
  8
_0-3_躯体と製品
  6
CONTINUOUS
 62
    3
 10
-128.64180587005512
 20
336.61997206710288
 11
-129.64180587005512
 21
331.61997206710288
  0
LINE
  8
_0-3_躯体と製品
  6
CONTINUOUS
 62
    3
 10
-130.64180587005512
 20
336.61997206710288
 11
-129.64180587005512
 21
331.61997206710288
  0
LINE
  8
_0-3_躯体と製品
  6
CONTINUOUS
 62
    3
 10
-134.64180587005512
 20
336.61997206710288
 11
-133.64180587005512
 21
331.61997206710288
  0
LINE
  8
_0-3_躯体と製品
  6
CONTINUOUS
 62
    3
 10
-133.64180587005512
 20
336.61997206710288
 11
-133.64180587005512
 21
328.61997206710288
  0
LINE
  8
_0-3_躯体と製品
  6
CONTINUOUS
 62
    3
 10
-129.14180587005512
 20
328.61997206710288
 11
-129.64180587005512
 21
328.61997206710288
  0
LINE
  8
_0-3_躯体と製品
  6
CONTINUOUS
 62
    3
 10
-130.14180587005512
 20
328.61997206710288
 11
-129.64180587005512
 21
328.61997206710288
  0
ARC
  8
_0-3_躯体と製品
  6
CONTINUOUS
 62
    3
 10
-136.36012487005519
 20
328.36704506710288
 40
0.4
 50
8.1301019999918065
 51
98.130102000011163
  0
LINE
  8
_0-3_躯体と製品
  6
CONTINUOUS
 62
    3
 10
-136.61351887005503
 20
328.73490706710277
 11
-136.41669387005504
 21
328.76302506710289
  0
ARC
  8
_0-3_躯体と製品
  6
CONTINUOUS
 62
    3
 10
-136.55694987005518
 20
328.33892706710287
 40
0.4
 50
98.130102000011163
 51
188.29846599999979
  0
LINE
  8
_0-3_躯体と製品
  6
CONTINUOUS
 62
    3
 10
-129.64180587005512
 20
339.31997206710287
 11
-129.34180587005517
 21
339.61997206710288
  0
LINE
  8
_0-3_躯体と製品
  6
CONTINUOUS
 62
    3
 10
-129.64180587005512
 20
339.31997206710287
 11
-129.94180587005508
 21
339.61997206710288
  0
LINE
  8
_0-3_躯体と製品
  6
CONTINUOUS
 62
    3
 10
-139.64180587005512
 20
338.11997206710288
 11
-139.64180587005512
 21
337.61997206710288
  0
LINE
  8
_0-3_躯体と製品
  6
CONTINUOUS
 62
    3
 10
-120.64180587005512
 20
341.11997206710288
 11
-120.64180587005512
 21
339.61997206710288
  0
LINE
  8
_0-3_躯体と製品
  6
CONTINUOUS
 62
    3
 10
-125.26967087005505
 20
342.58147106710288
 11
-125.14180587005512
 21
341.11997206710288
  0
LINE
  8
_0-3_躯体と製品
  6
CONTINUOUS
 62
    3
 10
-124.64180587005512
 20
336.61997206710288
 11
-125.64180587005512
 21
331.61997206710288
  0
LINE
  8
_0-3_躯体と製品
  6
CONTINUOUS
 62
    3
 10
-125.64180587005512
 20
336.61997206710288
 11
-125.64180587005512
 21
328.61997206710288
  0
ARC
  8
_0-3_躯体と製品
  6
CONTINUOUS
 62
    3
 10
-122.92348587005517
 20
328.36704506710288
 40
0.4
 50
81.869898000015098
 51
171.86989799999853
  0
LINE
  8
_0-3_躯体と製品
  6
CONTINUOUS
 62
    3
 10
-122.67009287005521
 20
328.73490706710277
 11
-122.8669178700552
 21
328.76302506710289
  0
ARC
  8
_0-3_躯体と製品
  6
CONTINUOUS
 62
    3
 10
-122.72666187005507
 20
328.33892706710287
 40
0.4
 50
351.7015339999968
 51
81.869898000015112
  0
ARC
  8
_0-3_躯体と製品
  6
CONTINUOUS
 62
    3
 10
-122.92348587005517
 20
328.36704506710288
 40
0.4
 50
81.869898000015098
 51
171.86989799999853
  0
LINE
  8
_0-3_躯体と製品
  6
CONTINUOUS
 62
    3
 10
-122.67009287005521
 20
328.73490706710277
 11
-122.8669178700552
 21
328.76302506710289
  0
ARC
  8
_0-3_躯体と製品
  6
CONTINUOUS
 62
    3
 10
-122.72666187005507
 20
328.33892706710287
 40
0.4
 50
351.7015339999968
 51
81.869898000015112
  0
LINE
  8
_0-3_躯体と製品
  6
CONTINUOUS
 62
    3
 10
-119.64180587005512
 20
338.11997206710288
 11
-119.64180587005512
 21
337.61997206710288
  0
LINE
  8
_0-3_躯体と製品
  6
CONTINUOUS
 62
    3
 10
-102.14180587005512
 20
338.11997206710288
 11
-78.641805870055123
 21
338.11997206710288
  0
TEXT
  8
_0-5_文字-記号
 62
    7
 10
-109.22723424093419
 20
312.04693929009119
 40
5
 41
0.7999999999999943
 50
0
  1
9
  0
CIRCLE
  8
_0-5_文字-記号
  6
CONTINUOUS
 62
    3
 10
-107.31648832275505
 20
317.28984504820278
 40
5
  0
LINE
  8
_0-3_躯体と製品
  6
CONTINUOUS
 62
    3
 10
-103.64180587005512
 20
337.61997206710288
 11
-102.14180587005512
 21
337.61997206710288
  0
LINE
  8
_0-3_躯体と製品
  6
CONTINUOUS
 62
    3
 10
-102.14180587005512
 20
338.11997206710288
 11
-102.14180587005512
 21
337.61997206710288
  0
LINE
  8
_0-3_躯体と製品
  6
CONTINUOUS
 62
    3
 10
-103.64180587005512
 20
338.11997206710288
 11
-103.64180587005512
 21
337.61997206710288
  0
LINE
  8
_0-3_躯体と製品
  6
CONTINUOUS
 62
    3
 10
-78.641805870055123
 20
337.61997206710288
 11
-77.141805870055123
 21
337.61997206710288
  0
LINE
  8
_0-3_躯体と製品
  6
CONTINUOUS
 62
    3
 10
-77.141805870055123
 20
338.11997206710288
 11
-77.141805870055123
 21
337.61997206710288
  0
LINE
  8
_0-3_躯体と製品
  6
CONTINUOUS
 62
    3
 10
-78.641805870055123
 20
338.11997206710288
 11
-78.641805870055123
 21
337.61997206710288
  0
LINE
  8
_0-5_文字-記号
  6
CONTINUOUS
 62
    3
 10
-121.64180587005512
 20
356.61997206710288
 11
-107.20804914025507
 21
381.61997206710288
  0
CIRCLE
  8
_0-5_文字-記号
  6
CONTINUOUS
 62
    3
 10
-137.77022696675522
 20
380.95009908600287
 40
5
  0
LINE
  8
_0-5_文字-記号
  6
CONTINUOUS
 62
    3
 10
-148.64180587005512
 20
362.11997206710288
 11
-140.27022696675522
 21
376.61997206710288
  0
LINE
  8
_0-3_躯体と製品
  6
CONTINUOUS
 62
    3
 10
-144.64180587005512
 20
360.14032906710293
 11
-144.64180587005512
 21
359.11997206710288
  0
LINE
  8
_0-3_躯体と製品
  6
CONTINUOUS
 62
    3
 10
-152.64180587005512
 20
360.14032906710293
 11
-152.64180587005512
 21
359.11997206710288
  0
LINE
  8
_0-3_躯体と製品
  6
CONTINUOUS
 62
    3
 10
-152.9400858700551
 20
359.1199800671028
 11
-144.34372287005522
 21
359.12011806710279
  0
LINE
  8
_0-3_躯体と製品
  6
CONTINUOUS
 62
    3
 10
-154.64180587005512
 20
357.61997206710288
 11
-142.64180587005512
 21
357.61997206710288
  0
LINE
  8
_0-3_躯体と製品
  6
CONTINUOUS
 62
    3
 10
-154.64180587005512
 20
358.36997206710288
 11
-142.64180587005512
 21
358.36997206710288
  0
LINE
  8
_0-3_躯体と製品
  6
CONTINUOUS
 62
    3
 10
-162.39180587005512
 20
355.11997206710288
 11
-148.94180587005508
 21
355.11997206710288
  0
LINE
  8
_0-3_躯体と製品
  6
CONTINUOUS
 62
    3
 10
-148.94180587005508
 20
355.11997206710288
 11
-162.84180587005517
 21
355.11997206710288
  0
LINE
  8
_0-3_躯体と製品
  6
CONTINUOUS
 62
    3
 10
-162.39180587005512
 20
355.11997206710288
 11
-142.64180587005512
 21
355.11997206710288
  0
LINE
  8
_0-3_躯体と製品
  6
CONTINUOUS
 62
    3
 10
-143.64180587005512
 20
353.11997206710288
 11
-152.34180587005517
 21
353.11997206710288
  0
LINE
  8
_0-3_躯体と製品
  6
CONTINUOUS
 62
    3
 10
-161.64796487005515
 20
351.84173506710289
 11
-159.86972787005516
 21
353.61997206710288
  0
LINE
  8
_0-3_躯体と製品
  6
CONTINUOUS
 62
    3
 10
-156.64180587005512
 20
350.3331750671029
 11
-159.9286028700551
 21
353.61997206710288
  0
LINE
  8
_0-3_躯体と製品
  6
CONTINUOUS
 62
    3
 10
-156.64180587005512
 20
346.09053506710279
 11
-161.99368587005506
 21
351.4424150671029
  0
LINE
  8
_0-3_躯体と製品
  6
CONTINUOUS
 62
    3
 10
-153.64180587005512
 20
357.61997206710288
 11
-153.64180587005512
 21
356.61997206710288
  0
LINE
  8
_0-3_躯体と製品
  6
CONTINUOUS
 62
    3
 10
-154.64180587005512
 20
358.36997206710288
 11
-154.08723887005522
 21
358.75828406710286
  0
ARC
  8
_0-3_躯体と製品
  6
CONTINUOUS
 62
    3
 10
-152.9400858700551
 20
357.11998006710286
 40
2
 50
90
 51
124.99999999999731
  0
LINE
  8
_0-3_躯体と製品
  6
CONTINUOUS
 62
    3
 10
-154.64180587005512
 20
358.36997206710288
 11
-154.64180587005512
 21
357.61997206710288
  0
LINE
  8
_0-3_躯体と製品
  6
CONTINUOUS
 62
    3
 10
-161.94180587005508
 20
352.61997206710288
 11
-162.84180587005517
 21
352.61997206710288
  0
ARC
  8
_0-3_躯体と製品
  6
CONTINUOUS
 62
    3
 10
-161.94180587005508
 20
352.31997206710292
 40
0.2999999999999998
 50
0
 51
90
  0
LINE
  8
_0-3_躯体と製品
  6
CONTINUOUS
 62
    3
 10
-161.64180587005512
 20
351.91997206710278
 11
-161.64180587005512
 21
352.31997206710292
  0
ARC
  8
_0-3_躯体と製品
  6
CONTINUOUS
 62
    3
 10
-162.14180587005512
 20
351.91997206710278
 40
0.5
 50
270
 51
0
  0
ARC
  8
_0-3_躯体と製品
  6
CONTINUOUS
 62
    3
 10
-152.34180587005517
 20
352.61997206710288
 40
0.5
 50
90
 51
180
  0
LINE
  8
_0-3_躯体と製品
  6
CONTINUOUS
 62
    3
 10
-162.39180587005512
 20
353.61997206710288
 11
-155.14180587005512
 21
353.61997206710288
  0
ARC
  8
_0-3_躯体と製品
  6
CONTINUOUS
 62
    3
 10
-155.14180587005512
 20
353.11997206710288
 40
0.5
 50
0
 51
90
  0
LINE
  8
_0-3_躯体と製品
  6
CONTINUOUS
 62
    3
 10
-146.30847287005508
 20
353.4521370671028
 11
-146.88379953325511
 21
353.11997206710288
  0
LINE
  8
_0-3_躯体と製品
  6
CONTINUOUS
 62
    3
 10
-147.95622156985519
 20
353.11997206710288
 11
-146.30847287005508
 21
353.4521370671028
  0
LINE
  8
_0-3_躯体と製品
  6
CONTINUOUS
 62
    3
 10
-149.61188541365505
 20
353.11997206710288
 11
-147.04180587005521
 21
353.87552806710278
  0
LINE
  8
_0-3_躯体と製品
  6
CONTINUOUS
 62
    3
 10
-150.24180587005503
 20
353.96948806710287
 11
-150.24180587005503
 21
353.11997206710288
  0
LINE
  8
_0-3_躯体と製品
  6
CONTINUOUS
 62
    3
 10
-150.37652087005517
 20
356.61997206710288
 11
-150.97513887005516
 21
356.27436006710292
  0
LINE
  8
_0-3_躯体と製品
  6
CONTINUOUS
 62
    3
 10
-150.97513887005516
 20
356.27436006710292
 11
-150.24180587005503
 21
355.85096906710288
  0
LINE
  8
_0-3_躯体と製品
  6
CONTINUOUS
 62
    3
 10
-149.26068387005512
 20
356.61997206710288
 11
-150.97513887005516
 21
356.27436006710292
  0
LINE
  8
_0-3_躯体と製品
  6
CONTINUOUS
 62
    3
 10
-147.62598587005505
 20
356.61997206710288
 11
-150.24180587005503
 21
355.85096906710288
  0
LINE
  8
_0-3_躯体と製品
  6
CONTINUOUS
 62
    3
 10
-147.04180587005521
 20
355.75700906710279
 11
-146.30847287005508
 21
355.3336190671028
  0
LINE
  8
_0-3_躯体と製品
  6
CONTINUOUS
 62
    3
 10
-146.30847287005508
 20
355.3336190671028
 11
-147.04180587005521
 21
354.91022906710288
  0
LINE
  8
_0-3_躯体と製品
  6
CONTINUOUS
 62
    3
 10
-150.97513887005516
 20
354.3928780671028
 11
-150.24180587005503
 21
354.81626806710278
  0
LINE
  8
_0-3_躯体と製品
  6
CONTINUOUS
 62
    3
 10
-150.97513887005516
 20
354.3928780671028
 11
-150.24180587005503
 21
353.96948806710287
  0
LINE
  8
_0-3_躯体と製品
  6
CONTINUOUS
 62
    3
 10
-150.97513887005516
 20
354.3928780671028
 11
-146.30847287005508
 21
355.3336190671028
  0
LINE
  8
_0-3_躯体と製品
  6
CONTINUOUS
 62
    3
 10
-150.24180587005503
 20
354.81626806710278
 11
-147.04180587005521
 21
355.75700906710279
  0
LINE
  8
_0-3_躯体と製品
  6
CONTINUOUS
 62
    3
 10
-150.24180587005503
 20
353.96948806710287
 11
-147.04180587005521
 21
354.91022906710288
  0
LINE
  8
_0-3_躯体と製品
  6
CONTINUOUS
 62
    3
 10
-147.04180587005521
 20
356.61997206710288
 11
-147.04180587005521
 21
355.75700906710279
  0
LINE
  8
_0-3_躯体と製品
  6
CONTINUOUS
 62
    3
 10
-150.24180587005503
 20
355.85096906710288
 11
-150.24180587005503
 21
354.81626806710278
  0
LINE
  8
_0-3_躯体と製品
  6
CONTINUOUS
 62
    3
 10
-147.04180587005521
 20
353.87552806710278
 11
-146.30847287005508
 21
353.4521370671028
  0
LINE
  8
_0-3_躯体と製品
  6
CONTINUOUS
 62
    3
 10
-147.04180587005521
 20
353.87552806710278
 11
-147.04180587005521
 21
354.91022906710288
  0
LINE
  8
_0-3_躯体と製品
  6
CONTINUOUS
 62
    3
 10
-146.88379953325511
 20
353.11997206710288
 11
-147.04180587005521
 21
353.02874706710287
  0
LINE
  8
_0-3_躯体と製品
  6
CONTINUOUS
 62
    3
 10
-150.97513887005516
 20
352.51139706710279
 11
-147.95622156985519
 21
353.11997206710288
  0
LINE
  8
_0-3_躯体と製品
  6
CONTINUOUS
 62
    3
 10
-150.24180587005503
 20
352.93478706710283
 11
-149.61188541365505
 21
353.11997206710288
  0
LINE
  8
_0-3_躯体と製品
  6
CONTINUOUS
 62
    3
 10
-150.24180587005503
 20
353.11997206710288
 11
-150.24180587005503
 21
352.93478706710283
  0
LINE
  8
_0-3_躯体と製品
  6
CONTINUOUS
 62
    3
 10
-142.64180587005512
 20
358.36997206710288
 11
-143.1965698700551
 21
358.7584220671028
  0
LINE
  8
_0-3_躯体と製品
  6
CONTINUOUS
 62
    3
 10
-147.04180587005521
 20
350.11256506710288
 11
-146.30847287005508
 21
349.6891740671029
  0
LINE
  8
_0-3_躯体と製品
  6
CONTINUOUS
 62
    3
 10
-146.30847287005508
 20
349.6891740671029
 11
-147.04180587005521
 21
349.2657840671028
  0
LINE
  8
_0-3_躯体と製品
  6
CONTINUOUS
 62
    3
 10
-148.64180587005512
 20
349.21880406710289
 11
-146.30847287005508
 21
349.6891740671029
  0
LINE
  8
_0-3_躯体と製品
  6
CONTINUOUS
 62
    3
 10
-147.04180587005521
 20
351.99404606710283
 11
-146.30847287005508
 21
351.5706560671029
  0
LINE
  8
_0-3_躯体と製品
  6
CONTINUOUS
 62
    3
 10
-146.30847287005508
 20
351.5706560671029
 11
-147.04180587005521
 21
351.14726606710286
  0
LINE
  8
_0-3_躯体と製品
  6
CONTINUOUS
 62
    3
 10
-150.97513887005516
 20
350.6299150671029
 11
-150.24180587005503
 21
351.05330506710283
  0
LINE
  8
_0-3_躯体と製品
  6
CONTINUOUS
 62
    3
 10
-150.97513887005516
 20
350.6299150671029
 11
-150.24180587005503
 21
350.20652506710286
  0
LINE
  8
_0-3_躯体と製品
  6
CONTINUOUS
 62
    3
 10
-150.97513887005516
 20
350.6299150671029
 11
-146.30847287005508
 21
351.5706560671029
  0
LINE
  8
_0-3_躯体と製品
  6
CONTINUOUS
 62
    3
 10
-150.24180587005503
 20
351.05330506710283
 11
-147.04180587005521
 21
351.99404606710283
  0
LINE
  8
_0-3_躯体と製品
  6
CONTINUOUS
 62
    3
 10
-150.24180587005503
 20
350.20652506710286
 11
-147.04180587005521
 21
351.14726606710286
  0
ARC
  8
_0-3_躯体と製品
  6
CONTINUOUS
 62
    3
 10
-142.6093938700551
 20
344.59445606710278
 40
6.0552590000000013
 50
137.053799999999
 51
175.02122199999897
  0
ARC
  8
_0-3_躯体と製品
  6
CONTINUOUS
 62
    3
 10
-148.61674787005518
 20
343.3553020671028
 40
1.7648479999999993
 50
90.813543000003293
 51
157.04087499999963
  0
LINE
  8
_0-3_躯体と製品
  6
CONTINUOUS
 62
    3
 10
-147.04180587005521
 20
348.7199720671029
 11
-150.24179087005518
 21
348.7199720671029
  0
ARC
  8
_0-3_躯体と製品
  6
CONTINUOUS
 62
    3
 10
-144.34372287005522
 20
357.12011806710279
 40
2
 50
55.000000000002629
 51
90
  0
LINE
  8
_0-3_躯体と製品
  6
CONTINUOUS
 62
    3
 10
-150.97513887005516
 20
352.51139706710279
 11
-150.24180587005503
 21
352.93478706710283
  0
LINE
  8
_0-3_躯体と製品
  6
CONTINUOUS
 62
    3
 10
-150.97513887005516
 20
352.51139706710279
 11
-150.24180587005503
 21
352.08800606710287
  0
LINE
  8
_0-3_躯体と製品
  6
CONTINUOUS
 62
    3
 10
-150.24180587005503
 20
352.08800606710287
 11
-147.04180587005521
 21
353.02874706710287
  0
LINE
  8
_0-3_躯体と製品
  6
CONTINUOUS
 62
    3
 10
-147.04180587005521
 20
349.2657840671028
 11
-147.04180587005521
 21
344.04373206710289
  0
LINE
  8
_0-3_躯体と製品
  6
CONTINUOUS
 62
    3
 10
-147.04180587005521
 20
351.14726606710286
 11
-147.04180587005521
 21
350.11256506710288
  0
LINE
  8
_0-3_躯体と製品
  6
CONTINUOUS
 62
    3
 10
-147.04180587005521
 20
353.02874706710287
 11
-147.04180587005521
 21
351.99404606710283
  0
LINE
  8
_0-3_躯体と製品
  6
CONTINUOUS
 62
    3
 10
-150.24180587005503
 20
350.20652506710286
 11
-150.24180587005503
 21
344.04373206710289
  0
LINE
  8
_0-3_躯体と製品
  6
CONTINUOUS
 62
    3
 10
-150.24180587005503
 20
352.08800606710287
 11
-150.24180587005503
 21
351.05330506710283
  0
LINE
  8
_0-3_躯体と製品
  6
CONTINUOUS
 62
    3
 10
-148.64180587005512
 20
349.21880406710289
 11
-147.04180587005521
 21
350.11256506710288
  0
LINE
  8
_0-3_躯体と製品
  6
CONTINUOUS
 62
    3
 10
-148.64180587005512
 20
349.21880406710289
 11
-147.04180587005521
 21
349.2657840671028
  0
LINE
  8
_0-3_躯体と製品
  6
CONTINUOUS
 62
    3
 10
-143.64180587005512
 20
357.61997206710288
 11
-143.64180587005512
 21
356.61997206710288
  0
LINE
  8
_0-3_躯体と製品
  6
CONTINUOUS
 62
    3
 10
-142.64180587005512
 20
358.36997206710288
 11
-142.64180587005512
 21
357.61997206710288
  0
LINE
  8
_0-3_躯体と製品
  6
CONTINUOUS
 62
    3
 10
-148.64180587005512
 20
355.41997206710283
 11
-148.34180587005517
 21
355.11997206710288
  0
LINE
  8
_0-3_躯体と製品
  6
CONTINUOUS
 62
    3
 10
-148.64180587005512
 20
355.41997206710283
 11
-148.94180587005508
 21
355.11997206710288
  0
LINE
  8
_0-3_躯体と製品
  6
CONTINUOUS
 62
    3
 10
-142.64180587005512
 20
355.11997206710288
 11
-142.64180587005512
 21
354.11997206710288
  0
ARC
  8
_0-3_躯体と製品
  6
CONTINUOUS
 62
    3
 10
-143.64180587005512
 20
354.11997206710288
 40
1
 50
270
 51
0
  0
ARC
  8
_0-3_躯体と製品
  6
CONTINUOUS
 62
    3
 10
-148.64180587005512
 20
356.03663906710278
 40
6.0833329999999988
 50
53.83135800000148
 51
126.16864199999851
  0
ARC
  8
_0-3_躯体と製品
  6
CONTINUOUS
 62
    3
 10
-151.64180587005512
 20
360.14032906710293
 40
1
 50
126.16864199999851
 51
180
  0
ARC
  8
_0-3_躯体と製品
  6
CONTINUOUS
 62
    3
 10
-145.64180587005512
 20
360.14032906710293
 40
1
 50
0
 51
53.83135800000148
  0
ARC
  8
_0-3_躯体と製品
  6
CONTINUOUS
 62
    3
 10
-129.64180587005512
 20
332.41997206710278
 40
12
 50
74.506032000000928
 51
105.493967999999
  0
TEXT
  8
_0-5_文字-記号
 62
    7
 10
-141.70059331206016
 20
376.44904286045869
 40
5
 41
0.800000000000003
 50
0
  1
10
  0
ARC
  8
_0-3_躯体と製品
  6
CONTINUOUS
 62
    3
 10
-101.64180587005512
 20
349.2199720671029
 40
1
 50
90
 51
180
  0
LINE
  8
_0-3_躯体と製品
  6
CONTINUOUS
 62
    3
 10
-102.64180587005512
 20
346.36997206710288
 11
-102.64180587005512
 21
349.2199720671029
  0
ARC
  8
_0-3_躯体と製品
  6
CONTINUOUS
 62
    3
 10
-100.64180587005512
 20
348.11997206710288
 40
0.5
 50
90
 51
180
  0
LINE
  8
_0-3_躯体と製品
  6
CONTINUOUS
 62
    3
 10
-101.14180587005512
 20
346.36997206710288
 11
-101.14180587005512
 21
348.11997206710288
  0
ARC
  8
_0-3_躯体と製品
  6
CONTINUOUS
 62
    3
 10
-101.89180587005512
 20
346.36997206710288
 40
0.75
 50
180
 51
0
  0
TEXT
  8
_0-5_文字-記号
 62
    7
 10
-105.7200918803992
 20
381.02073904728849
 40
5
 41
0.7999999999999943
 50
0
  1
1
  0
CIRCLE
  8
_0-5_文字-記号
  6
CONTINUOUS
 62
    3
 10
-104.70804914025507
 20
385.95009908600292
 40
5
  0
LINE
  8
_0-5_文字-記号
  6
CONTINUOUS
 62
    3
 10
-48.094800486255053
 20
361.61997206710288
 11
-59.641805870055123
 21
341.61997206710288
  0
LINE
  8
_0-3_躯体と製品
  6
CONTINUOUS
 62
    3
 10
-59.641805870055123
 20
347.86997206710288
 11
-59.641805870055123
 21
338.11997206710288
  0
LINE
  8
_0-3_躯体と製品
  6
CONTINUOUS
 62
    3
 10
-61.141805870055123
 20
347.86997206710288
 11
-61.141805870055123
 21
340.11997206710288
  0
LINE
  8
_0-5_文字-記号
  6
CONTINUOUS
 62
    3
 10
-53.379782190955211
 20
300.79306678330289
 11
-44.242114164955183
 21
316.61997206710288
  0
CIRCLE
  8
_0-5_文字-記号
  6
CONTINUOUS
 62
    3
 10
-42.141805870055123
 20
320.95009908600287
 40
5
  0
LINE
  8
_0-3_躯体と製品
  6
CONTINUOUS
 62
    3
 10
-61.141805870055123
 20
338.11997206710288
 11
-61.141805870055123
 21
337.61997206710288
  0
ARC
  8
_0-3_躯体と製品
  6
CONTINUOUS
 62
    3
 10
-61.641805870055123
 20
340.11997206710288
 40
0.5
 50
270
 51
0
  0
ARC
  8
_0-3_躯体と製品
  6
CONTINUOUS
 62
    3
 10
-60.141805870055123
 20
338.11997206710288
 40
0.5
 50
270
 51
0
  0
LINE
  8
_0-3_躯体と製品
  6
CONTINUOUS
 62
    3
 10
-61.141805870055123
 20
337.61997206710288
 11
-60.141805870055123
 21
337.61997206710288
  0
TEXT
  8
_0-5_文字-記号
 62
    7
 10
-44.351758887185042
 20
317.70405656958582
 40
4.9999999999999716
 41
0.7999999999999989
 50
0
  1
6
  0
LINE
  8
_0-5_文字-記号
  6
CONTINUOUS
 62
    3
 10
-64.342346654655103
 20
352.96999881720279
 11
-47.801276886555115
 21
381.61997206710288
  0
TEXT
  8
_0-5_文字-記号
 62
    7
 10
-48.436766658320039
 20
361.7314560643436
 40
5
 41
0.7999999999999943
 50
0
  1
3
  0
CIRCLE
  8
_0-5_文字-記号
  6
CONTINUOUS
 62
    3
 10
-45.594800486255053
 20
365.95009908600287
 40
5
  0
LINE
  8
_0-3_躯体と製品
  6
PLINE12
 62
    3
 10
-64.342911154655212
 20
357.86997206710288
 11
-64.342911154655212
 21
346.61997206710288
  0
ARC
  8
_0-3_躯体と製品
  6
CONTINUOUS
 62
    3
 10
-64.041805870055214
 20
349.64673206710279
 40
0.2999999999999998
 50
100.16424900000442
 51
280.16424900000442
  0
ARC
  8
_0-3_躯体と製品
  6
CONTINUOUS
 62
    3
 10
-64.641805870055123
 20
349.64673206710279
 40
0.2999999999999998
 50
259.83575099999564
 51
79.835750999995582
  0
ARC
  8
_0-3_躯体と製品
  6
CONTINUOUS
 62
    3
 10
-62.591803870055173
 20
354.61997206710288
 40
0.5
 50
0
 51
180
  0
LINE
  8
_0-3_躯体と製品
  6
CONTINUOUS
 62
    3
 10
-63.097374870055091
 20
350.6786540671028
 11
-62.880981870055166
 21
351.09849606710281
  0
LINE
  8
_0-3_躯体と製品
  6
CONTINUOUS
 62
    3
 10
-62.564047870055219
 20
350.40376906710293
 11
-62.347654870055067
 21
350.82361106710277
  0
ARC
  8
_0-3_躯体と製品
  6
CONTINUOUS
 62
    3
 10
-63.325421870055152
 20
351.32756706710279
 40
1.1000000000000001
 50
332.73274700000098
 51
26.564808999991662
  0
LINE
  8
_0-3_躯体と製品
  6
CONTINUOUS
 62
    3
 10
-63.762631870055202
 20
353.32004006710292
 11
-62.87820687005501
 21
351.55117206710287
  0
ARC
  8
_0-3_躯体と製品
  6
CONTINUOUS
 62
    3
 10
-63.325421870055152
 20
351.32756706710279
 40
0.5
 50
332.73274699997188
 51
26.564808999991662
  0
LINE
  8
_0-3_躯体と製品
  6
CONTINUOUS
 62
    3
 10
-63.091805870055168
 20
353.3200260671029
 11
-62.341549870055132
 21
351.81949806710293
  0
LINE
  8
_0-3_躯体と製品
  6
CONTINUOUS
 62
    3
 10
-61.091808870055047
 20
353.6201140671028
 11
-61.091805870055168
 21
354.3199770671028
  0
ARC
  8
_0-3_躯体と製品
  6
CONTINUOUS
 62
    3
 10
-67.291802870055108
 20
353.61998106710291
 40
0.2999999999999998
 50
180
 51
270.00129200000242
  0
LINE
  8
_0-3_躯体と製品
  6
CONTINUOUS
 62
    3
 10
-67.591802870055062
 20
353.61998106710291
 11
-67.591805870055168
 21
354.31996906710287
  0
ARC
  8
_0-3_躯体と製品
  6
CONTINUOUS
 62
    3
 10
-61.391808870055002
 20
353.6201140671028
 40
0.2999999999999998
 50
270.00129200000242
 51
0
  0
LINE
  8
_0-3_躯体と製品
  6
CONTINUOUS
 62
    3
 10
-67.294066870054166
 20
353.31999006710288
 11
-61.391802870055017
 21
353.32011406710279
  0
LINE
  8
_0-3_躯体と製品
  6
CONTINUOUS
 62
    3
 10
-66.591807870055163
 20
354.61997106710288
 11
-67.291805870055214
 21
354.61997006710288
  0
LINE
  8
_0-3_躯体と製品
  6
CONTINUOUS
 62
    3
 10
-63.091803870055173
 20
354.61997606710293
 11
-65.591807870055163
 21
354.61997306710293
  0
LINE
  8
_0-3_躯体と製品
  6
CONTINUOUS
 62
    3
 10
-62.091803870055173
 20
354.61997706710292
 11
-61.391805870055123
 21
354.61997806710292
  0
ARC
  8
_0-3_躯体と製品
  6
CONTINUOUS
 62
    3
 10
-61.391805870055123
 20
354.3199780671028
 40
0.2999999999999998
 50
0
 51
90
  0
ARC
  8
_0-3_躯体と製品
  6
CONTINUOUS
 62
    3
 10
-67.291805870055214
 20
354.31997006710287
 40
0.2999999999999998
 50
90
 51
180
  0
ARC
  8
_0-3_躯体と製品
  6
CONTINUOUS
 62
    3
 10
-64.341805870055168
 20
351.32005206710278
 40
2
 50
280.16424900000447
 51
332.73274700000093
  0
ARC
  8
_0-3_躯体と製品
  6
CONTINUOUS
 62
    3
 10
-64.341805870055168
 20
351.32005206710278
 40
2
 50
207.26725299999899
 51
259.83575099999558
  0
ARC
  8
_0-3_躯体と製品
  6
CONTINUOUS
 62
    3
 10
-64.341805870055168
 20
351.32005206710278
 40
1.399999999999999
 50
280.16424900000447
 51
332.73274700000093
  0
ARC
  8
_0-3_躯体と製品
  6
CONTINUOUS
 62
    3
 10
-64.341805870055168
 20
351.32005206710278
 40
1.399999999999999
 50
207.26725299999899
 51
259.83575099999558
  0
ARC
  8
_0-3_躯体と製品
  6
CONTINUOUS
 62
    3
 10
-66.091807870055163
 20
354.61997206710288
 40
0.5
 50
0
 51
180
  0
LINE
  8
_0-3_躯体と製品
  6
CONTINUOUS
 62
    3
 10
-65.586236870055018
 20
350.6786540671028
 11
-65.802629870055171
 21
351.09849606710281
  0
LINE
  8
_0-3_躯体と製品
  6
CONTINUOUS
 62
    3
 10
-66.119563870055117
 20
350.40376906710293
 11
-66.335956870055043
 21
350.82361106710277
  0
ARC
  8
_0-3_躯体と製品
  6
CONTINUOUS
 62
    3
 10
-65.358189870055185
 20
351.32756706710279
 40
1.1000000000000001
 50
153.43519099999961
 51
207.26725299999899
  0
LINE
  8
_0-3_躯体と製品
  6
CONTINUOUS
 62
    3
 10
-64.920979870055135
 20
353.32004006710292
 11
-65.805404870055099
 21
351.55117206710287
  0
ARC
  8
_0-3_躯体と製品
  6
CONTINUOUS
 62
    3
 10
-65.358189870055185
 20
351.32756706710279
 40
0.5
 50
153.43519099999961
 51
207.26725299999899
  0
LINE
  8
_0-3_躯体と製品
  6
CONTINUOUS
 62
    3
 10
-65.591805870055168
 20
353.3200260671029
 11
-66.342061870055204
 21
351.81949806710293
  0
ARC
  8
_0-3_躯体と製品
  6
CONTINUOUS
 62
    3
 10
-66.641805870055123
 20
352.5199720671028
 40
0.2999999999999998
 50
0
 51
90
  0
LINE
  8
_0-3_躯体と製品
  6
CONTINUOUS
 62
    3
 10
-67.541805870055214
 20
352.81997206710287
 11
-66.641805870055123
 21
352.81997206710287
  0
LINE
  8
_0-3_躯体と製品
  6
CONTINUOUS
 62
    3
 10
-66.341805870055168
 20
352.5199720671028
 11
-66.341805870055168
 21
351.91997206710278
  0
ARC
  8
_0-3_躯体と製品
  6
CONTINUOUS
 62
    3
 10
-66.641805870055123
 20
351.91997206710278
 40
0.2999999999999998
 50
270
 51
0
  0
LINE
  8
_0-3_躯体と製品
  6
CONTINUOUS
 62
    3
 10
-68.541805870055214
 20
351.61997206710288
 11
-66.641805870055123
 21
351.61997206710288
  0
ARC
  8
_0-3_躯体と製品
  6
CONTINUOUS
 62
    3
 10
-62.041805870055214
 20
351.91997206710278
 40
0.2999999999999998
 50
180
 51
270
  0
LINE
  8
_0-3_躯体と製品
  6
CONTINUOUS
 62
    3
 10
-62.041805870055214
 20
351.61997206710288
 11
-60.141805870055123
 21
351.61997206710288
  0
LINE
  8
_0-3_躯体と製品
  6
CONTINUOUS
 62
    3
 10
-62.341805870055168
 20
352.5199720671028
 11
-62.341805870055168
 21
351.91997206710278
  0
ARC
  8
_0-3_躯体と製品
  6
CONTINUOUS
 62
    3
 10
-62.041805870055214
 20
352.5199720671028
 40
0.2999999999999998
 50
90
 51
180
  0
LINE
  8
_0-3_躯体と製品
  6
CONTINUOUS
 62
    3
 10
-62.041805870055214
 20
352.81997206710287
 11
-61.141805870055123
 21
352.81997206710287
  0
ARC
  8
_0-3_躯体と製品
  6
CONTINUOUS
 62
    3
 10
-61.141805870055123
 20
353.11997206710288
 40
0.2999999999999998
 50
270
 51
0
  0
LINE
  8
_0-3_躯体と製品
  6
CONTINUOUS
 62
    3
 10
-60.841805870055168
 20
354.81997206710287
 11
-60.841805870055168
 21
353.11997206710288
  0
ARC
  8
_0-3_躯体と製品
  6
CONTINUOUS
 62
    3
 10
-61.141805870055123
 20
354.81997206710287
 40
0.2999999999999998
 50
0
 51
90
  0
LINE
  8
_0-3_躯体と製品
  6
CONTINUOUS
 62
    3
 10
-67.541805870055214
 20
355.11997206710288
 11
-61.141805870055123
 21
355.11997206710288
  0
ARC
  8
_0-3_躯体と製品
  6
CONTINUOUS
 62
    3
 10
-67.541805870055214
 20
353.11997206710288
 40
0.2999999999999998
 50
180
 51
270
  0
LINE
  8
_0-3_躯体と製品
  6
CONTINUOUS
 62
    3
 10
-67.841805870055168
 20
354.81997206710287
 11
-67.841805870055168
 21
353.11997206710288
  0
ARC
  8
_0-3_躯体と製品
  6
CONTINUOUS
 62
    3
 10
-67.541805870055214
 20
354.81997206710287
 40
0.2999999999999998
 50
90
 51
180
  0
ARC
  8
_0-3_躯体と製品
  6
CONTINUOUS
 62
    3
 10
-68.541805870055214
 20
352.11997206710288
 40
0.5
 50
180
 51
270
  0
LINE
  8
_0-3_躯体と製品
  6
CONTINUOUS
 62
    3
 10
-69.041805870055214
 20
354.61997206710288
 11
-69.041805870055214
 21
352.11997206710288
  0
ARC
  8
_0-3_躯体と製品
  6
CONTINUOUS
 62
    3
 10
-69.541805870055214
 20
354.61997206710288
 40
0.5
 50
0
 51
90
  0
ARC
  8
_0-3_躯体と製品
  6
CONTINUOUS
 62
    3
 10
-60.141805870055123
 20
352.11997006710288
 40
0.5
 50
269.99981906595838
 51
0
  0
LINE
  8
_0-3_躯体と製品
  6
CONTINUOUS
 62
    3
 10
-59.641805870055123
 20
356.11997206710288
 11
-59.641805870055123
 21
352.11997006710288
  0
ARC
  8
_0-3_躯体と製品
  6
CONTINUOUS
 62
    3
 10
-60.141805870055123
 20
356.11997206710288
 40
0.5
 50
0
 51
90
  0
ARC
  8
_0-3_躯体と製品
  6
CONTINUOUS
 62
    3
 10
-60.391805870055123
 20
347.86997206710288
 40
0.75
 50
0
 51
180
  0
TEXT
  8
_0-5_文字-記号
 62
    7
 10
-49.02129038507519
 20
381.60526277404415
 40
5.0000000000000284
 41
0.7999999999999984
 50
0
  1
11
  0
CIRCLE
  8
_0-5_文字-記号
  6
CONTINUOUS
 62
    3
 10
-45.301276886555115
 20
385.95009908600292
 40
5
  0
ARC
  8
_0-3_躯体と製品
  6
CONTINUOUS
 62
    3
 10
-0.8918058700551228
 20
348.11997206710288
 40
0.5
 50
0
 51
90
  0
LINE
  8
_0-5_文字-記号
  6
CONTINUOUS
 62
    3
 10
2.4581941299447863
 20
350.2199720671029
 11
9.6173374679449353
 21
362.61997206710288
  0
ARC
  8
_0-3_躯体と製品
  6
CONTINUOUS
 62
    3
 10
1.6081941299448772
 20
348.11997206710288
 40
0.5
 50
90
 51
180
  0
LINE
  8
_0-3_躯体と製品
  6
CONTINUOUS
 62
    3
 10
1.1081941299448772
 20
346.36997206710288
 11
1.1081941299448772
 21
348.11997206710288
  0
LINE
  8
_0-3_躯体と製品
  6
CONTINUOUS
 62
    3
 10
-0.3918058700551228
 20
346.36997206710288
 11
-0.3918058700551228
 21
348.11997206710288
  0
ARC
  8
_0-3_躯体と製品
  6
CONTINUOUS
 62
    3
 10
0.3581941299448772
 20
346.36997206710288
 40
0.75
 50
180
 51
0
  0
TEXT
  8
_0-5_文字-記号
 62
    7
 10
10.600129744026844
 20
362.90050351785538
 40
5
 41
0.7999999999999943
 50
0
  1
2
  0
CIRCLE
  8
_0-5_文字-記号
  6
CONTINUOUS
 62
    3
 10
12.117337467944935
 20
366.95009908600287
 40
5
  0
LINE
  8
_0-3_躯体と製品
  6
DOT_17
 62
    3
 10
130.35819413044487
 20
236.61997206710282
 11
75.358194130444872
 21
236.61997206710282
  0
LINE
  8
_0-3_躯体と製品
  6
PLINE12
 62
    3
 10
62.208223630444991
 20
366.62002206710292
 11
127.9591762714449
 21
366.62002206710292
  0
ARC
  8
_0-3_躯体と製品
  6
CONTINUOUS
 62
    3
 10
54.358194130444872
 20
348.3898670671029
 40
21
 50
334.53076699999917
 51
0.0000000000000318
  0
ARC
  8
_0-3_躯体と製品
  6
CONTINUOUS
 62
    3
 10
54.358194130444872
 20
348.3898670671029
 40
20
 50
334.53076699999917
 51
0.0000000000000318
  0
LINE
  8
_0-3_躯体と製品
  6
CONTINUOUS
 62
    3
 10
62.358194130444872
 20
347.86997206710288
 11
62.358194130444872
 21
338.12034206710291
  0
LINE
  8
_0-3_躯体と製品
  6
CONTINUOUS
 62
    3
 10
73.858194130444872
 20
347.11997206710288
 11
73.858194130444872
 21
338.6203420671028
  0
LINE
  8
_0-3_躯体と製品
  6
CONTINUOUS
 62
    3
 10
72.358194130444872
 20
339.6203420671028
 11
72.358194130444872
 21
366.31997206710287
  0
LINE
  8
_0-3_躯体と製品
  6
CONTINUOUS
 62
    3
 10
63.858194130444872
 20
347.86997206710288
 11
63.858194130444872
 21
339.1203420671028
  0
ARC
  8
_0-3_躯体と製品
  6
CONTINUOUS
 62
    3
 10
66.858569348444917
 20
343.9431009155029
 40
0.75
 50
199.99999999999844
 51
19.999999999998426
  0
LINE
  8
_0-3_躯体と製品
  6
CONTINUOUS
 62
    3
 10
55.983194130444872
 20
303.0614876705028
 11
75.358194130444872
 21
336.36855086530289
  0
LINE
  8
_0-3_躯体と製品
  6
CONTINUOUS
 62
    3
 10
54.907232158444913
 20
303.6826946044028
 11
74.358194130444872
 21
337.12034206710291
  0
LINE
  8
_0-3_躯体と製品
  6
CONTINUOUS
 62
    3
 10
71.358194130444872
 20
338.6203420671028
 11
64.358194130444872
 21
338.6203420671028
  0
LINE
  8
_0-3_躯体と製品
  6
CONTINUOUS
 62
    3
 10
74.358194130444872
 20
337.12034206710291
 11
63.358194130444872
 21
337.12034206710291
  0
ARC
  8
_0-3_躯体と製品
  6
CONTINUOUS
 62
    3
 10
64.358194130444872
 20
339.1203420671028
 40
0.5
 50
180
 51
270
  0
ARC
  8
_0-3_躯体と製品
  6
CONTINUOUS
 62
    3
 10
63.358194130444872
 20
338.12034206710291
 40
1
 50
180
 51
270
  0
LINE
  8
_0-3_躯体と製品
  6
CONTINUOUS
 62
    3
 10
74.358194130444872
 20
337.12034206710291
 11
74.358194130444872
 21
338.6203420671028
  0
LINE
  8
_0-3_躯体と製品
  6
CONTINUOUS
 62
    3
 10
73.858194130444872
 20
338.6203420671028
 11
74.358194130444872
 21
338.6203420671028
  0
ARC
  8
_0-3_躯体と製品
  6
CONTINUOUS
 62
    3
 10
71.358194130444872
 20
339.6203420671028
 40
1
 50
270
 51
0
  0
LINE
  8
_0-3_躯体と製品
  6
PLINE12
 62
    3
 10
48.608194130444872
 20
385.61997206710288
 11
71.358194130444872
 21
385.61997206710288
  0
LINE
  8
_0-3_躯体と製品
  6
CONTINUOUS
 62
    3
 10
69.13740913644483
 20
395.11997206710288
 11
60.372685633444917
 21
403.88469557030288
  0
LINE
  8
_0-3_躯体と製品
  6
CONTINUOUS
 62
    3
 10
58.358194130444872
 20
395.11997206710288
 11
75.357854130444821
 21
391.61997206710288
  0
LINE
  8
_0-3_躯体と製品
  6
CONTINUOUS
 62
    3
 10
58.358194130444872
 20
395.11997206710288
 11
75.357854130444821
 21
395.11997206710288
  0
ARC
  8
_0-3_躯体と製品
  6
CONTINUOUS
 62
    3
 10
67.858024130444846
 20
431.94392706710255
 40
28.623722999999998
 50
254.81037199999469
 51
285.1896280000052
  0
LINE
  8
_0-3_躯体と製品
  6
CONTINUOUS
 62
    3
 10
73.380049823444779
 20
395.11997206710288
 11
65.040845535444987
 21
403.459176354703
  0
LINE
  8
_0-3_躯体と製品
  6
CONTINUOUS
 62
    3
 10
71.848158454444956
 20
403.59967991800289
 11
63.368450603444899
 21
395.11997206710288
  0
LINE
  8
_0-3_躯体と製品
  6
CONTINUOUS
 62
    3
 10
75.358194130444872
 20
402.86707490610269
 11
67.611091291444836
 21
395.11997206710288
  0
ARC
  8
_0-3_躯体と製品
  6
CONTINUOUS
 62
    3
 10
69.536174630444975
 20
363.84179806710279
 40
1.6000000000000001
 50
195.4939679999982
 51
265.00000000000028
  0
ARC
  8
_0-3_躯体と製品
  6
CONTINUOUS
 62
    3
 10
69.536174630444975
 20
369.39824606710289
 40
1.6000000000000001
 50
94.999999999999758
 51
164.50603200000171
  0
LINE
  8
_0-3_躯体と製品
  6
CONTINUOUS
 62
    3
 10
69.858194130444872
 20
385.61997206710288
 11
68.93443413044497
 21
384.0199720671028
  0
LINE
  8
_0-3_躯体と製品
  6
CONTINUOUS
 62
    3
 10
69.858194130444872
 20
385.61997206710288
 11
68.93443413044497
 21
387.2199710671029
  0
LINE
  8
_0-3_躯体と製品
  6
CONTINUOUS
 62
    3
 10
67.821953130444854
 20
385.61997206710288
 11
69.858194130444872
 21
385.61997206710288
  0
LINE
  8
_0-3_躯体と製品
  6
CONTINUOUS
 62
    3
 10
74.358194130444872
 20
391.61997206710288
 11
58.858194130444872
 21
391.61997206710288
  0
LINE
  8
_0-3_躯体と製品
  6
CONTINUOUS
 62
    3
 10
59.358194130444872
 20
389.81997206710292
 11
71.858194130444872
 21
389.81997206710292
  0
TEXT
  8
_0-5_文字-記号
 62
    7
 10
43.333458442357824
 20
372.83740687270563
 40
5.0000000000000284
 41
0.7999999999999984
 50
0
  1
5
  0
CIRCLE
  8
_0-5_文字-記号
  6
CONTINUOUS
 62
    3
 10
45.69905079244495
 20
378.3500990860029
 40
5
  0
LINE
  8
_0-3_躯体と製品
  6
CONTINUOUS
 62
    3
 10
55.358194130444872
 20
404.11997206710288
 11
55.358194130444872
 21
352.1202750671028
  0
LINE
  8
_0-3_躯体と製品
  6
CONTINUOUS
 62
    3
 10
56.858194130444872
 20
357.12011006710287
 11
56.858194130444872
 21
398.6197400671029
  0
LINE
  8
_0-3_躯体と製品
  6
CONTINUOUS
 62
    3
 10
57.105927130444798
 20
353.32027256710279
 11
63.008191130444857
 21
353.32039656710288
  0
LINE
  8
_0-3_躯体と製品
  6
CONTINUOUS
 62
    3
 10
57.808186130444938
 20
354.62025356710279
 11
57.108188130444887
 21
354.6202525671028
  0
LINE
  8
_0-3_躯体と製品
  6
CONTINUOUS
 62
    3
 10
57.558191130444811
 20
351.6202800671029
 11
55.858196130444867
 21
351.6202750671028
  0
LINE
  8
_0-3_躯体と製品
  6
CONTINUOUS
 62
    3
 10
56.858290130444857
 20
352.82027706710278
 11
57.558184130444943
 21
352.82027806710278
  0
LINE
  8
_0-3_躯体と製品
  6
CONTINUOUS
 62
    3
 10
56.858183130444786
 20
355.12015606710287
 11
63.258193130444852
 21
355.12035306710283
  0
LINE
  8
_0-3_躯体と製品
  6
CONTINUOUS
 62
    3
 10
64.273260130444896
 20
356.62011006710293
 11
57.358194130444872
 21
356.62011006710293
  0
ARC
  8
_0-3_躯体と製品
  6
CONTINUOUS
 62
    3
 10
57.108191130444993
 20
353.62026356710288
 40
0.2999999999999998
 50
180
 51
270.00129200000242
  0
LINE
  8
_0-3_躯体と製品
  6
CONTINUOUS
 62
    3
 10
56.808191130444811
 20
353.62026356710288
 11
56.808188130444933
 21
354.32025156710279
  0
ARC
  8
_0-3_躯体と製品
  6
CONTINUOUS
 62
    3
 10
57.108188130444887
 20
354.32025256710278
 40
0.2999999999999998
 50
90
 51
180
  0
ARC
  8
_0-3_躯体と製品
  6
CONTINUOUS
 62
    3
 10
55.858194130444872
 20
352.1202750671028
 40
0.5
 50
180
 51
270
  0
LINE
  8
_0-3_躯体と製品
  6
CONTINUOUS
 62
    3
 10
56.558290130444902
 20
353.12025806710278
 11
56.558183130444831
 21
354.82013706710279
  0
ARC
  8
_0-3_躯体と製品
  6
CONTINUOUS
 62
    3
 10
56.858183130444786
 20
354.8201560671028
 40
0.2999999999999998
 50
90
 51
180.00358700000109
  0
ARC
  8
_0-3_躯体と製品
  6
CONTINUOUS
 62
    3
 10
56.858290130444857
 20
353.12027706710279
 40
0.2999999999999998
 50
180.00358700000112
 51
270
  0
ARC
  8
_0-3_躯体と製品
  6
CONTINUOUS
 62
    3
 10
57.358194130444872
 20
357.12011006710287
 40
0.5
 50
180
 51
270
  0
LINE
  8
_0-3_躯体と製品
  6
PLINE12
 62
    3
 10
60.057082845444938
 20
357.87048656710289
 11
60.057082845444938
 21
346.62048656710289
  0
ARC
  8
_0-3_躯体と製品
  6
CONTINUOUS
 62
    3
 10
60.358188130444887
 20
349.64701456710293
 40
0.2999999999999998
 50
100.16424900000442
 51
280.16424900000442
  0
ARC
  8
_0-3_躯体と製品
  6
CONTINUOUS
 62
    3
 10
59.758188130444978
 20
349.64701456710293
 40
0.2999999999999998
 50
259.83575099999564
 51
79.835750999982196
  0
ARC
  8
_0-3_躯体と製品
  6
CONTINUOUS
 62
    3
 10
61.808190130444927
 20
354.6202545671029
 40
0.5
 50
0
 51
180
  0
LINE
  8
_0-3_躯体と製品
  6
CONTINUOUS
 62
    3
 10
61.302619130444782
 20
350.67893656710288
 11
61.519012130444935
 21
351.0987785671029
  0
LINE
  8
_0-3_躯体と製品
  6
CONTINUOUS
 62
    3
 10
61.835946130444881
 20
350.40405156710278
 11
62.052339130444807
 21
350.82389356710291
  0
ARC
  8
_0-3_躯体と製品
  6
CONTINUOUS
 62
    3
 10
61.074572130444949
 20
351.32784956710293
 40
1.1000000000000001
 50
332.73274700000098
 51
26.564809000000423
  0
LINE
  8
_0-3_躯体と製品
  6
CONTINUOUS
 62
    3
 10
60.637362130444899
 20
353.32032256710289
 11
61.521787130444864
 21
351.55145456710289
  0
ARC
  8
_0-3_躯体と製品
  6
CONTINUOUS
 62
    3
 10
61.074572130444949
 20
351.32784956710293
 40
0.5
 50
332.73274699997768
 51
26.564808999991662
  0
LINE
  8
_0-3_躯体と製品
  6
CONTINUOUS
 62
    3
 10
61.308188130444933
 20
353.32030856710287
 11
62.058444130444968
 21
351.8197805671029
  0
LINE
  8
_0-3_躯体と製品
  6
CONTINUOUS
 62
    3
 10
61.308190130444927
 20
354.62025856710289
 11
58.808186130444938
 21
354.6202555671029
  0
LINE
  8
_0-3_躯体と製品
  6
CONTINUOUS
 62
    3
 10
62.308190130444927
 20
354.62025956710289
 11
63.008188130444978
 21
354.62026056710289
  0
ARC
  8
_0-3_躯体と製品
  6
CONTINUOUS
 62
    3
 10
60.058188130444933
 20
351.3203345671028
 40
2
 50
280.16424900000447
 51
332.73274700000093
  0
ARC
  8
_0-3_躯体と製品
  6
CONTINUOUS
 62
    3
 10
60.058188130444933
 20
351.3203345671028
 40
2
 50
207.26725299999899
 51
259.83575099999558
  0
ARC
  8
_0-3_躯体と製品
  6
CONTINUOUS
 62
    3
 10
60.058188130444933
 20
351.3203345671028
 40
1.399999999999999
 50
280.16424900000447
 51
332.73274700000093
  0
ARC
  8
_0-3_躯体と製品
  6
CONTINUOUS
 62
    3
 10
60.058188130444933
 20
351.3203345671028
 40
1.399999999999999
 50
207.26725299999899
 51
259.83575099999558
  0
ARC
  8
_0-3_躯体と製品
  6
CONTINUOUS
 62
    3
 10
58.308186130444938
 20
354.6202545671029
 40
0.5
 50
0
 51
180
  0
LINE
  8
_0-3_躯体と製品
  6
CONTINUOUS
 62
    3
 10
58.813757130444856
 20
350.67893656710288
 11
58.59736413044493
 21
351.0987785671029
  0
LINE
  8
_0-3_躯体と製品
  6
CONTINUOUS
 62
    3
 10
58.280430130444984
 20
350.40405156710278
 11
58.064037130444831
 21
350.82389356710291
  0
ARC
  8
_0-3_躯体と製品
  6
CONTINUOUS
 62
    3
 10
59.041804130444916
 20
351.32784956710293
 40
1.1000000000000001
 50
153.43519099999961
 51
207.26725299999899
  0
LINE
  8
_0-3_躯体と製品
  6
CONTINUOUS
 62
    3
 10
59.479014130444966
 20
353.32032256710289
 11
58.594589130445002
 21
351.55145456710289
  0
ARC
  8
_0-3_躯体と製品
  6
CONTINUOUS
 62
    3
 10
59.041804130444916
 20
351.32784956710293
 40
0.5
 50
153.43519099999961
 51
207.26725299999899
  0
LINE
  8
_0-3_躯体と製品
  6
CONTINUOUS
 62
    3
 10
58.808188130444933
 20
353.32030856710287
 11
58.057932130444897
 21
351.8197805671029
  0
LINE
  8
_0-3_躯体と製品
  6
CONTINUOUS
 62
    3
 10
58.058184130444943
 20
352.32029506710279
 11
58.058191130444811
 21
352.12029806710279
  0
ARC
  8
_0-3_躯体と製品
  6
CONTINUOUS
 62
    3
 10
57.558191130444811
 20
352.1202800671029
 40
0.5
 50
270
 51
0.0019659999976594
  0
LINE
  8
_0-3_躯体と製品
  6
CONTINUOUS
 62
    3
 10
62.058270130444953
 20
352.32028206710282
 11
62.058269130444842
 21
352.12028406710289
  0
ARC
  8
_0-3_躯体と製品
  6
CONTINUOUS
 62
    3
 10
57.558184130444943
 20
352.32027806710283
 40
0.5
 50
0.0019659999976253
 51
90.000000000000014
  0
ARC
  8
_0-3_躯体と製品
  6
CONTINUOUS
 62
    3
 10
62.558269130444842
 20
352.1202800671029
 40
0.5
 50
179.99959799999922
 51
270
  0
ARC
  8
_0-3_躯体と製品
  6
CONTINUOUS
 62
    3
 10
62.558270130445862
 20
352.32027906710283
 40
0.5
 50
90
 51
179.99959799999917
  0
LINE
  8
_0-3_躯体と製品
  6
CONTINUOUS
 62
    3
 10
63.308185130444826
 20
353.62039656710289
 11
63.308188130444933
 21
354.32025956710277
  0
ARC
  8
_0-3_躯体と製品
  6
CONTINUOUS
 62
    3
 10
63.008185130444872
 20
353.62039656710289
 40
0.2999999999999998
 50
270.00129200000242
 51
0
  0
ARC
  8
_0-3_躯体と製品
  6
CONTINUOUS
 62
    3
 10
63.008188130444978
 20
354.32026056710288
 40
0.2999999999999998
 50
0
 51
90
  0
LINE
  8
_0-3_躯体と製品
  6
CONTINUOUS
 62
    3
 10
64.758269130444887
 20
352.1202750671028
 11
64.758269130444887
 21
356.12033506710287
  0
ARC
  8
_0-3_躯体と製品
  6
CONTINUOUS
 62
    3
 10
64.258269130444887
 20
356.12033506710287
 40
0.5
 50
0
 51
90
  0
LINE
  8
_0-3_躯体と製品
  6
CONTINUOUS
 62
    3
 10
62.558269130444842
 20
351.6202800671029
 11
64.258271130444882
 21
351.6202750671028
  0
ARC
  8
_0-3_躯体と製品
  6
CONTINUOUS
 62
    3
 10
64.258269130444887
 20
352.1202750671028
 40
0.5
 50
270
 51
0
  0
LINE
  8
_0-3_躯体と製品
  6
CONTINUOUS
 62
    3
 10
63.558268130444958
 20
353.12029006710293
 11
63.558193130444806
 21
354.82036906710277
  0
ARC
  8
_0-3_躯体と製品
  6
CONTINUOUS
 62
    3
 10
63.258193130444852
 20
354.82035306710293
 40
0.2999999999999998
 50
0.0030670000033374
 51
90
  0
ARC
  8
_0-3_躯体と製品
  6
CONTINUOUS
 62
    3
 10
63.258268130445003
 20
353.12027706710279
 40
0.2999999999999998
 50
270
 51
0.0025249999943736
  0
LINE
  8
_0-3_躯体と製品
  6
CONTINUOUS
 62
    3
 10
63.258268130445003
 20
352.82027706710278
 11
62.558270130445862
 21
352.82027906710277
  0
ARC
  8
_0-3_躯体と製品
  6
CONTINUOUS
 62
    3
 10
63.108194130444872
 20
347.86997206710288
 40
0.75
 50
0
 51
180
  0
ARC
  8
_0-3_躯体と製品
  6
CONTINUOUS
 62
    3
 10
65.022004644444905
 20
349.7199720671029
 40
0.5
 50
19.999999999998419
 51
90
  0
ARC
  8
_0-3_躯体と製品
  6
CONTINUOUS
 62
    3
 10
64.008090360444839
 20
348.11997206710288
 40
0.5
 50
19.999999999998419
 51
90
  0
LINE
  8
_0-3_躯体と製品
  6
CONTINUOUS
 62
    3
 10
65.491850955444988
 20
349.89098213880277
 11
67.563338813444943
 21
344.19961602300293
  0
LINE
  8
_0-3_躯体と製品
  6
CONTINUOUS
 62
    3
 10
64.477936671444922
 20
348.2909821388028
 11
66.153799882444901
 21
343.6865858080028
  0
LINE
  8
_0-5_文字-記号
  6
CONTINUOUS
 62
    3
 10
55.358194130444872
 20
361.61997206710288
 11
48.19905079244495
 21
374.0199720671028
  0
ARC
  8
_0-3_躯体と製品
  6
CONTINUOUS
 62
    3
 10
79.5582236304449
 20
366.62002206710292
 40
12
 50
164.50603200000171
 51
195.4939679999982
  0
LINE
  8
_0-3_躯体と製品
  6
CONTINUOUS
 62
    3
 10
56.858194130444872
 20
379.61997206710288
 11
56.858194130444872
 21
398.11997206710288
  0
LINE
  8
_0-3_躯体と製品
  6
CONTINUOUS
 62
    3
 10
58.358194130444872
 20
392.11997206710288
 11
58.358194130444872
 21
396.61997206710288
  0
LINE
  8
_0-3_躯体と製品
  6
CONTINUOUS
 62
    3
 10
57.221157130444908
 20
384.0199720671028
 11
57.644547130444835
 21
383.28663906710278
  0
LINE
  8
_0-3_躯体と製品
  6
CONTINUOUS
 62
    3
 10
58.161898130444797
 20
387.2199720671029
 11
57.221157130444908
 21
384.0199720671028
  0
LINE
  8
_0-3_躯体と製品
  6
CONTINUOUS
 62
    3
 10
57.127197130444983
 20
387.2199720671029
 11
58.161898130444797
 21
387.2199720671029
  0
LINE
  8
_0-3_躯体と製品
  6
CONTINUOUS
 62
    3
 10
57.858194130444872
 20
379.61997206710288
 11
56.858194130444872
 21
379.61997206710288
  0
LINE
  8
_0-3_躯体と製品
  6
CONTINUOUS
 62
    3
 10
56.358194130444872
 20
387.35468706710287
 11
56.703806130444946
 21
387.9533050671028
  0
LINE
  8
_0-3_躯体と製品
  6
CONTINUOUS
 62
    3
 10
56.703806130444946
 20
387.9533050671028
 11
57.127197130444983
 21
387.2199720671029
  0
LINE
  8
_0-3_躯体と製品
  6
CONTINUOUS
 62
    3
 10
56.358194130444872
 20
386.23885006710276
 11
56.703806130444946
 21
387.9533050671028
  0
LINE
  8
_0-3_躯体と製品
  6
CONTINUOUS
 62
    3
 10
56.358194130444872
 20
384.6041520671028
 11
57.127197130444983
 21
387.2199720671029
  0
LINE
  8
_0-3_躯体と製品
  6
CONTINUOUS
 62
    3
 10
56.358194130444872
 20
384.0199720671028
 11
57.221157130444908
 21
384.0199720671028
  0
LINE
  8
_0-3_躯体と製品
  6
CONTINUOUS
 62
    3
 10
54.608194130444872
 20
379.61997206710288
 11
54.219744130444951
 21
380.17473606710291
  0
LINE
  8
_0-3_躯体と製品
  6
CONTINUOUS
 62
    3
 10
52.837837130444996
 20
381.61997206710288
 11
53.858194130444872
 21
381.61997206710288
  0
LINE
  8
_0-3_躯体と製品
  6
CONTINUOUS
 62
    3
 10
53.858186130444892
 20
389.9182520671028
 11
53.858048130444786
 21
381.32188906710292
  0
ARC
  8
_0-3_躯体と製品
  6
CONTINUOUS
 62
    3
 10
55.858048130444786
 20
381.32188906710292
 40
2
 50
180
 51
215
  0
LINE
  8
_0-3_躯体と製品
  6
CONTINUOUS
 62
    3
 10
52.837837130444996
 20
389.61997206710288
 11
53.858194130444872
 21
389.61997206710288
  0
LINE
  8
_0-3_躯体と製品
  6
CONTINUOUS
 62
    3
 10
55.358194130444872
 20
380.61997206710288
 11
56.358194130444872
 21
380.61997206710288
  0
LINE
  8
_0-3_躯体と製品
  6
CONTINUOUS
 62
    3
 10
55.358194130444872
 20
390.61997206710288
 11
56.358194130444872
 21
390.61997206710288
  0
LINE
  8
_0-3_躯体と製品
  6
CONTINUOUS
 62
    3
 10
54.608194130444872
 20
379.61997206710288
 11
55.358194130444872
 21
379.61997206710288
  0
LINE
  8
_0-3_躯体と製品
  6
CONTINUOUS
 62
    3
 10
55.358194130444872
 20
391.61997206710288
 11
55.358194130444872
 21
379.61997206710288
  0
LINE
  8
_0-3_躯体と製品
  6
CONTINUOUS
 62
    3
 10
54.608194130444872
 20
391.61997206710288
 11
54.608194130444872
 21
379.61997206710288
  0
LINE
  8
_0-3_躯体と製品
  6
CONTINUOUS
 62
    3
 10
54.608194130444872
 20
391.61997206710288
 11
54.21988213044483
 21
391.0654050671028
  0
ARC
  8
_0-3_躯体と製品
  6
CONTINUOUS
 62
    3
 10
55.858186130444892
 20
389.9182520671028
 40
2
 50
144.99999999999989
 51
180
  0
LINE
  8
_0-3_躯体と製品
  6
CONTINUOUS
 62
    3
 10
54.608194130444872
 20
391.61997206710288
 11
55.358194130444872
 21
391.61997206710288
  0
ARC
  8
_0-3_躯体と製品
  6
CONTINUOUS
 62
    3
 10
52.837837130444996
 20
388.61997206710288
 40
1
 50
90
 51
143.8313579999988
  0
ARC
  8
_0-3_躯体と製品
  6
CONTINUOUS
 62
    3
 10
52.837837130444996
 20
382.61997206710288
 40
1
 50
216.16864200000111
 51
270
  0
ARC
  8
_0-3_躯体と製品
  6
CONTINUOUS
 62
    3
 10
56.941527130444911
 20
385.61997206710288
 40
6.0833329999999988
 50
143.8313579999988
 51
216.16864200000111
  0
LINE
  8
_0-3_躯体と製品
  6
CONTINUOUS
 62
    3
 10
59.52602913044484
 20
383.28663906710278
 11
59.858194130444872
 21
383.86196573030287
  0
LINE
  8
_0-3_躯体と製品
  6
CONTINUOUS
 62
    3
 10
59.858194130444872
 20
384.93438776690289
 11
59.52602913044484
 21
383.28663906710278
  0
LINE
  8
_0-3_躯体と製品
  6
CONTINUOUS
 62
    3
 10
59.858194130444872
 20
386.59005161080302
 11
59.102638130444802
 21
384.0199720671028
  0
LINE
  8
_0-3_躯体と製品
  6
CONTINUOUS
 62
    3
 10
59.008678130444878
 20
387.2199720671029
 11
59.858194130444872
 21
387.2199720671029
  0
LINE
  8
_0-3_躯体と製品
  6
CONTINUOUS
 62
    3
 10
57.644547130444835
 20
383.28663906710278
 11
58.067937130444989
 21
384.0199720671028
  0
LINE
  8
_0-3_躯体と製品
  6
CONTINUOUS
 62
    3
 10
58.585288130444951
 20
387.9533050671028
 11
58.161898130444797
 21
387.2199720671029
  0
LINE
  8
_0-3_躯体と製品
  6
CONTINUOUS
 62
    3
 10
58.585288130444951
 20
387.9533050671028
 11
59.008678130444878
 21
387.2199720671029
  0
LINE
  8
_0-3_躯体と製品
  6
CONTINUOUS
 62
    3
 10
58.585288130444951
 20
387.9533050671028
 11
57.644547130444835
 21
383.28663906710278
  0
LINE
  8
_0-3_躯体と製品
  6
CONTINUOUS
 62
    3
 10
59.008678130444878
 20
387.2199720671029
 11
58.067937130444989
 21
384.0199720671028
  0
LINE
  8
_0-3_躯体と製品
  6
CONTINUOUS
 62
    3
 10
59.102638130444802
 20
384.0199720671028
 11
59.52602913044484
 21
383.28663906710278
  0
LINE
  8
_0-3_躯体と製品
  6
CONTINUOUS
 62
    3
 10
59.102638130444802
 20
384.0199720671028
 11
58.067937130444989
 21
384.0199720671028
  0
LINE
  8
_0-3_躯体と製品
  6
CONTINUOUS
 62
    3
 10
59.858194130444872
 20
383.86196573030287
 11
59.949419130444994
 21
384.0199720671028
  0
LINE
  8
_0-3_躯体と製品
  6
CONTINUOUS
 62
    3
 10
60.466769130444845
 20
387.9533050671028
 11
59.858194130444872
 21
384.93438776690289
  0
LINE
  8
_0-3_躯体と製品
  6
CONTINUOUS
 62
    3
 10
60.043379130444919
 20
387.2199720671029
 11
59.858194130444872
 21
386.59005161080302
  0
LINE
  8
_0-3_躯体と製品
  6
CONTINUOUS
 62
    3
 10
59.858194130444872
 20
387.2199720671029
 11
60.043379130444919
 21
387.2199720671029
  0
LINE
  8
_0-3_躯体と製品
  6
CONTINUOUS
 62
    3
 10
60.984120130444808
 20
384.0199720671028
 11
61.407510130445871
 21
383.28663906710278
  0
LINE
  8
_0-3_躯体と製品
  6
CONTINUOUS
 62
    3
 10
61.407510130445871
 20
383.28663906710278
 11
61.830900130444888
 21
384.0199720671028
  0
LINE
  8
_0-3_躯体と製品
  6
CONTINUOUS
 62
    3
 10
62.348251130444851
 20
387.9533050671028
 11
61.924861130444924
 21
387.2199720671029
  0
LINE
  8
_0-3_躯体と製品
  6
CONTINUOUS
 62
    3
 10
62.348251130444851
 20
387.9533050671028
 11
62.771641130444777
 21
387.2199720671029
  0
LINE
  8
_0-3_躯体と製品
  6
CONTINUOUS
 62
    3
 10
62.348251130444851
 20
387.9533050671028
 11
61.407510130445871
 21
383.28663906710278
  0
LINE
  8
_0-3_躯体と製品
  6
CONTINUOUS
 62
    3
 10
61.924861130444924
 20
387.2199720671029
 11
60.984120130444808
 21
384.0199720671028
  0
LINE
  8
_0-3_躯体と製品
  6
CONTINUOUS
 62
    3
 10
62.771641130444777
 20
387.2199720671029
 11
61.830900130444888
 21
384.0199720671028
  0
LINE
  8
_0-3_躯体と製品
  6
CONTINUOUS
 62
    3
 10
60.466769130444845
 20
387.9533050671028
 11
60.043379130444919
 21
387.2199720671029
  0
LINE
  8
_0-3_躯体と製品
  6
CONTINUOUS
 62
    3
 10
60.466769130444845
 20
387.9533050671028
 11
60.890160130444883
 21
387.2199720671029
  0
LINE
  8
_0-3_躯体と製品
  6
CONTINUOUS
 62
    3
 10
60.890160130444883
 20
387.2199720671029
 11
59.949419130444994
 21
384.0199720671028
  0
LINE
  8
_0-3_躯体と製品
  6
CONTINUOUS
 62
    3
 10
61.830900130444888
 20
384.0199720671028
 11
62.865601130444929
 21
384.0199720671028
  0
LINE
  8
_0-3_躯体と製品
  6
CONTINUOUS
 62
    3
 10
59.949419130444994
 20
384.0199720671028
 11
60.984120130444808
 21
384.0199720671028
  0
LINE
  8
_0-3_躯体と製品
  6
CONTINUOUS
 62
    3
 10
60.890160130444883
 20
387.2199720671029
 11
61.924861130444924
 21
387.2199720671029
  0
LINE
  8
_0-3_躯体と製品
  6
CONTINUOUS
 62
    3
 10
62.865601130444929
 20
384.0199720671028
 11
63.288992130444967
 21
383.28663906710278
  0
LINE
  8
_0-3_躯体と製品
  6
CONTINUOUS
 62
    3
 10
63.288992130444967
 20
383.28663906710278
 11
63.712382130444894
 21
384.0199720671028
  0
LINE
  8
_0-3_躯体と製品
  6
CONTINUOUS
 62
    3
 10
63.75936213044497
 20
385.61997206710288
 11
63.288992130444967
 21
383.28663906710278
  0
ARC
  8
_0-3_躯体と製品
  6
CONTINUOUS
 62
    3
 10
68.383710130444797
 20
379.5875600671028
 40
6.0552590000000013
 50
94.978778000003871
 51
132.94620000000091
  0
ARC
  8
_0-3_躯体と製品
  6
CONTINUOUS
 62
    3
 10
69.622864130444896
 20
385.59491406710288
 40
1.7648479999999993
 50
112.9591249999973
 51
179.18645699999982
  0
LINE
  8
_0-3_躯体と製品
  6
CONTINUOUS
 62
    3
 10
64.258194130444963
 20
384.0199720671028
 11
64.258194130444963
 21
387.21995706710277
  0
LINE
  8
_0-3_躯体と製品
  6
CONTINUOUS
 62
    3
 10
63.712382130444894
 20
384.0199720671028
 11
68.93443413044497
 21
384.0199720671028
  0
LINE
  8
_0-3_躯体と製品
  6
CONTINUOUS
 62
    3
 10
62.771641130444777
 20
387.2199720671029
 11
68.93443413044497
 21
387.2199720671029
  0
LINE
  8
_0-3_躯体と製品
  6
CONTINUOUS
 62
    3
 10
63.75936213044497
 20
385.61997206710288
 11
62.865601130444929
 21
384.0199720671028
  0
LINE
  8
_0-3_躯体と製品
  6
CONTINUOUS
 62
    3
 10
63.75936213044497
 20
385.61997206710288
 11
63.712382130444894
 21
384.0199720671028
  0
ARC
  8
_0-3_躯体と製品
  6
CONTINUOUS
 62
    3
 10
57.858194130444872
 20
380.61997206710288
 40
1
 50
270
 51
0
  0
LINE
  8
_0-3_躯体と製品
  6
CONTINUOUS
 62
    3
 10
58.858194130444872
 20
380.61997206710288
 11
58.858194130444872
 21
389.31997206710287
  0
ARC
  8
_0-3_躯体と製品
  6
CONTINUOUS
 62
    3
 10
59.358194130444872
 20
389.31997206710287
 40
0.5
 50
90
 51
180
  0
ARC
  8
_0-3_躯体と製品
  6
CONTINUOUS
 62
    3
 10
58.858194130444872
 20
392.11997206710288
 40
0.5
 50
180
 51
270
  0
LINE
  8
_0-3_躯体と製品
  6
CONTINUOUS
 62
    3
 10
58.394768449444882
 20
401.61997206710288
 11
56.96501295544499
 21
403.0497275604028
  0
LINE
  8
_0-3_躯体と製品
  6
CONTINUOUS
 62
    3
 10
58.640760542444923
 20
403.1202040671028
 11
57.140528542444827
 21
401.61997206710288
  0
LINE
  8
_0-3_躯体と製品
  6
CONTINUOUS
 62
    3
 10
58.258194130445872
 20
400.1197400671029
 11
57.158194130444826
 21
400.1197400671029
  0
LINE
  8
_0-3_躯体と製品
  6
CONTINUOUS
 62
    3
 10
57.158194130444826
 20
403.11997206710288
 11
60.058194130444917
 21
403.11997206710288
  0
LINE
  8
_0-3_躯体と製品
  6
CONTINUOUS
 62
    3
 10
55.858194130444872
 20
404.61997206710288
 11
60.058194130444917
 21
404.61997206710288
  0
LINE
  8
_0-3_躯体と製品
  6
CONTINUOUS
 62
    3
 10
58.258194130445872
 20
398.91974006710279
 11
57.158194130444826
 21
398.91974006710279
  0
LINE
  8
_0-3_躯体と製品
  6
CONTINUOUS
 62
    3
 10
58.858194130444872
 20
400.11997206710282
 11
57.358194130444872
 21
400.11997206710282
  0
LINE
  8
_0-3_躯体と製品
  6
CONTINUOUS
 62
    3
 10
57.358194130444872
 20
398.61997206710288
 11
58.858194130444872
 21
398.61997206710288
  0
LINE
  8
_0-3_躯体と製品
  6
CONTINUOUS
 62
    3
 10
57.058194130444917
 20
401.61997206710288
 11
60.058194130444917
 21
401.61997206710288
  0
ARC
  8
_0-3_躯体と製品
  6
CONTINUOUS
 62
    3
 10
57.158194130444826
 20
402.81997206710287
 40
0.2999999999999998
 50
90
 51
180
  0
LINE
  8
_0-3_躯体と製品
  6
CONTINUOUS
 62
    3
 10
56.858194130444872
 20
400.41974106710279
 11
56.858194130444872
 21
402.81997206710287
  0
ARC
  8
_0-3_躯体と製品
  6
CONTINUOUS
 62
    3
 10
57.158194130444826
 20
398.6197400671029
 40
0.2999999999999998
 50
90
 51
180
  0
ARC
  8
_0-3_躯体と製品
  6
CONTINUOUS
 62
    3
 10
57.158194130444826
 20
400.41974106710279
 40
0.2999999999999998
 50
180
 51
270
  0
ARC
  8
_0-3_躯体と製品
  6
CONTINUOUS
 62
    3
 10
55.858194130444872
 20
404.11997206710288
 40
0.5
 50
90
 51
180
  0
ARC
  8
_0-3_躯体と製品
  6
CONTINUOUS
 62
    3
 10
57.358194130444872
 20
400.61997206710288
 40
0.5
 50
180
 51
270
  0
LINE
  8
_0-3_躯体と製品
  6
CONTINUOUS
 62
    3
 10
56.858194130444872
 20
400.61997206710288
 11
56.858194130444872
 21
401.41997206710278
  0
ARC
  8
_0-3_躯体と製品
  6
CONTINUOUS
 62
    3
 10
57.058194130444917
 20
401.41997206710278
 40
0.2
 50
90
 51
180
  0
ARC
  8
_0-3_躯体と製品
  6
CONTINUOUS
 62
    3
 10
57.358194130444872
 20
398.11997206710288
 40
0.5
 50
90
 51
180
  0
LINE
  8
_0-3_躯体と製品
  6
CONTINUOUS
 62
    3
 10
60.652127762444934
 20
395.11997206710288
 11
58.683601068444887
 21
397.08849876090289
  0
LINE
  8
_0-3_躯体と製品
  6
CONTINUOUS
 62
    3
 10
64.894768449444882
 20
395.11997206710288
 11
60.601481289444791
 21
399.41325922670279
  0
LINE
  8
_0-3_躯体と製品
  6
CONTINUOUS
 62
    3
 10
63.428251653444931
 20
403.6650544908029
 11
60.558194130444917
 21
400.79499696750275
  0
LINE
  8
_0-3_躯体と製品
  6
CONTINUOUS
 62
    3
 10
67.330896064444914
 20
403.32505821480288
 11
59.12580991644495
 21
395.11997206710288
  0
LINE
  8
_0-3_躯体と製品
  6
CONTINUOUS
 62
    3
 10
60.358194130444872
 20
403.41997206710283
 11
60.358194130444872
 21
404.31997206710287
  0
ARC
  8
_0-3_躯体と製品
  6
CONTINUOUS
 62
    3
 10
60.058194130444917
 20
404.31997206710287
 40
0.2999999999999998
 50
0
 51
90
  0
ARC
  8
_0-3_躯体と製品
  6
CONTINUOUS
 62
    3
 10
60.058194130444917
 20
403.41997206710283
 40
0.2999999999999998
 50
270
 51
0
  0
ARC
  8
_0-3_躯体と製品
  6
CONTINUOUS
 62
    3
 10
58.258194130445872
 20
399.51974006710293
 40
0.5999999999999998
 50
270
 51
90
  0
ARC
  8
_0-3_躯体と製品
  6
CONTINUOUS
 62
    3
 10
58.858194130444872
 20
399.11997206710288
 40
0.5
 50
270
 51
0
  0
LINE
  8
_0-3_躯体と製品
  6
CONTINUOUS
 62
    3
 10
60.558194130444917
 20
397.61997206710288
 11
60.558194130444917
 21
401.11997206710288
  0
LINE
  8
_0-3_躯体と製品
  6
CONTINUOUS
 62
    3
 10
58.858194130444872
 20
397.11997206710288
 11
60.058194130444917
 21
397.11997206710288
  0
ARC
  8
_0-3_躯体と製品
  6
CONTINUOUS
 62
    3
 10
60.058194130444917
 20
397.61997206710288
 40
0.5
 50
270
 51
0
  0
ARC
  8
_0-3_躯体と製品
  6
CONTINUOUS
 62
    3
 10
58.858194130444872
 20
396.61997206710288
 40
0.5
 50
90
 51
180
  0
LINE
  8
_0-3_躯体と製品
  6
CONTINUOUS
 62
    3
 10
59.358194130444872
 20
399.61997206710288
 11
59.358194130444872
 21
399.11997206710288
  0
ARC
  8
_0-3_躯体と製品
  6
CONTINUOUS
 62
    3
 10
58.858194130444872
 20
399.61997206710288
 40
0.5
 50
0
 51
90
  0
ARC
  8
_0-3_躯体と製品
  6
CONTINUOUS
 62
    3
 10
60.058194130444917
 20
401.11997206710288
 40
0.5
 50
0
 51
90
  0
LINE
  8
_0-3_躯体と製品
  6
CONTINUOUS
 62
    3
 10
75.358194130444872
 20
391.61997206710288
 11
75.358194130444872
 21
348.3898670671029
  0
LINE
  8
_0-3_躯体と製品
  6
CONTINUOUS
 62
    3
 10
74.358194130444872
 20
391.61997206710288
 11
74.358194130444872
 21
348.3898670671029
  0
LINE
  8
_0-3_躯体と製品
  6
CONTINUOUS
 62
    3
 10
73.858194130444872
 20
390.11997206710288
 11
73.858194130444872
 21
373.11997206710282
  0
LINE
  8
_0-3_躯体と製品
  6
CONTINUOUS
 62
    3
 10
72.358194130444872
 20
366.91997206710278
 11
72.358194130444872
 21
389.31997206710287
  0
LINE
  8
_0-3_躯体と製品
  6
CONTINUOUS
 62
    3
 10
95.215457848444885
 20
363.08165867220288
 11
90.158602630444875
 21
361.24111406710279
  0
LINE
  8
_0-3_躯体と製品
  6
CONTINUOUS
 62
    3
 10
95.215457848444885
 20
370.1583854621029
 11
90.158602630444875
 21
371.99893006710289
  0
LINE
  8
_0-3_躯体と製品
  6
CONTINUOUS
 62
    3
 10
92.162713630444841
 20
362.15379506710292
 11
93.266014630444943
 21
364.09871806710288
  0
LINE
  8
_0-3_躯体と製品
  6
CONTINUOUS
 62
    3
 10
92.162713630444841
 20
371.08624906710281
 11
93.266014630444943
 21
369.1413260671028
  0
LINE
  8
_0-3_躯体と製品
  6
CONTINUOUS
 62
    3
 10
95.158602630444875
 20
361.99678706710279
 11
90.500622630444923
 21
360.30142106710292
  0
LINE
  8
_0-3_躯体と製品
  6
CONTINUOUS
 62
    3
 10
95.158602630444875
 20
371.24325706710289
 11
90.500622630444923
 21
372.93862306710292
  0
LINE
  8
_0-3_躯体と製品
  6
CONTINUOUS
 62
    3
 10
114.3157396304448
 20
364.49760706710293
 11
83.358223630444854
 21
366.12002206710292
  0
LINE
  8
_0-3_躯体と製品
  6
CONTINUOUS
 62
    3
 10
114.3157396304448
 20
368.7424370671028
 11
83.358223630444854
 21
367.12002206710281
  0
LINE
  8
_0-3_躯体と製品
  6
CONTINUOUS
 62
    3
 10
72.358223630444854
 20
375.62002206710281
 11
72.358223630444854
 21
357.62002206710292
  0
LINE
  8
_0-3_躯体と製品
  6
CONTINUOUS
 62
    3
 10
70.858223630444854
 20
375.62002206710281
 11
70.858223630444854
 21
357.62002206710292
  0
ARC
  8
_0-3_躯体と製品
  6
CONTINUOUS
 62
    3
 10
83.639268630444803
 20
359.70487806710292
 40
0.4
 50
188.13010200000139
 51
278.29846600003623
  0
LINE
  8
_0-3_躯体と製品
  6
CONTINUOUS
 62
    3
 10
90.500622630444923
 20
360.30142106710292
 11
83.697000630444791
 21
359.30906606710278
  0
ARC
  8
_0-3_躯体と製品
  6
CONTINUOUS
 62
    3
 10
83.639268630444803
 20
359.70487806710292
 40
0.4
 50
188.13010200000139
 51
278.29846600003623
  0
LINE
  8
_0-3_躯体と製品
  6
CONTINUOUS
 62
    3
 10
90.500622630444923
 20
360.30142106710292
 11
83.697000630444791
 21
359.30906606710278
  0
LINE
  8
_0-3_躯体と製品
  6
CONTINUOUS
 62
    3
 10
73.858194130444872
 20
360.11997206710288
 11
73.858194130444872
 21
348.61997206710288
  0
LINE
  8
_0-3_躯体と製品
  6
CONTINUOUS
 62
    3
 10
70.858223630444854
 20
357.62002206710292
 11
72.358223630444854
 21
357.62002206710292
  0
LINE
  8
_0-3_躯体と製品
  6
DOT_17
 62
    3
 10
72.358194130444872
 20
359.11997206710288
 11
73.858194130444872
 21
359.11997206710288
  0
LINE
  8
_0-3_躯体と製品
  6
CONTINUOUS
 62
    3
 10
74.358194130444872
 20
347.11997206710288
 11
74.358194130444872
 21
348.61997206710288
  0
LINE
  8
_0-3_躯体と製品
  6
CONTINUOUS
 62
    3
 10
73.858194130444872
 20
347.11997206710288
 11
74.358194130444872
 21
347.11997206710288
  0
LINE
  8
_0-3_躯体と製品
  6
CONTINUOUS
 62
    3
 10
73.858194130444872
 20
348.61997206710288
 11
74.358194130444872
 21
348.61997206710288
  0
LINE
  8
_0-3_躯体と製品
  6
CONTINUOUS
 62
    3
 10
75.358223630444854
 20
362.62002206710287
 11
83.358223630444854
 21
362.62002206710287
  0
LINE
  8
_0-3_躯体と製品
  6
CONTINUOUS
 62
    3
 10
75.358223630444854
 20
370.62002206710292
 11
83.358223630444854
 21
370.62002206710292
  0
LINE
  8
_0-3_躯体と製品
  6
CONTINUOUS
 62
    3
 10
70.858223630444854
 20
375.62002206710281
 11
72.358223630444854
 21
375.62002206710281
  0
LINE
  8
_0-3_躯体と製品
  6
CONTINUOUS
 62
    3
 10
69.396724630444851
 20
362.24788706710279
 11
70.858223630444854
 21
362.12002206710292
  0
LINE
  8
_0-3_躯体と製品
  6
CONTINUOUS
 62
    3
 10
69.396724630444851
 20
370.99215706710277
 11
70.858223630444854
 21
371.12002206710292
  0
LINE
  8
_0-3_躯体と製品
  6
CONTINUOUS
 62
    3
 10
75.358223630444854
 20
371.62002206710281
 11
75.358223630444854
 21
361.62002206710292
  0
LINE
  8
_0-3_躯体と製品
  6
CONTINUOUS
 62
    3
 10
75.358223630444854
 20
361.62002206710292
 11
80.358223630444854
 21
362.62002206710287
  0
LINE
  8
_0-3_躯体と製品
  6
CONTINUOUS
 62
    3
 10
80.358223630444854
 20
366.62002206710292
 11
75.358223630444854
 21
366.62002206710292
  0
LINE
  8
_0-3_躯体と製品
  6
CONTINUOUS
 62
    3
 10
75.358223630444854
 20
365.62002206710287
 11
80.358223630444854
 21
366.62002206710292
  0
LINE
  8
_0-3_躯体と製品
  6
CONTINUOUS
 62
    3
 10
75.358223630444854
 20
367.62002206710275
 11
80.358223630444854
 21
366.62002206710292
  0
LINE
  8
_0-3_躯体と製品
  6
CONTINUOUS
 62
    3
 10
75.358223630444854
 20
371.62002206710281
 11
80.358223630444854
 21
370.62002206710292
  0
LINE
  8
_0-3_躯体と製品
  6
DOT_17
 62
    3
 10
72.358194130444872
 20
374.11997206710288
 11
73.858194130444872
 21
374.11997206710288
  0
LINE
  8
_0-3_躯体と製品
  6
CONTINUOUS
 62
    3
 10
74.358194130444872
 20
360.11997206710288
 11
74.358194130444872
 21
373.11997206710282
  0
LINE
  8
_0-3_躯体と製品
  6
CONTINUOUS
 62
    3
 10
72.658194130444826
 20
366.61997206710288
 11
72.358194130444872
 21
366.91997206710278
  0
LINE
  8
_0-3_躯体と製品
  6
CONTINUOUS
 62
    3
 10
73.858194130444872
 20
360.11997206710288
 11
74.358194130444872
 21
360.11997206710288
  0
LINE
  8
_0-3_躯体と製品
  6
CONTINUOUS
 62
    3
 10
73.858194130444872
 20
373.11997206710282
 11
74.358194130444872
 21
373.11997206710282
  0
LINE
  8
_0-3_躯体と製品
  6
CONTINUOUS
 62
    3
 10
72.658194130444826
 20
366.61997206710288
 11
72.358194130444872
 21
366.31997206710287
  0
LINE
  8
_0-3_躯体と製品
  6
CONTINUOUS
 62
    3
 10
72.658260130444887
 20
366.62006706710287
 11
72.358267130444801
 21
366.92007206710286
  0
LINE
  8
_0-3_躯体と製品
  6
CONTINUOUS
 62
    3
 10
72.358253130444837
 20
366.3200720671029
 11
72.658260130444887
 21
366.62006706710287
  0
LINE
  8
_0-3_躯体と製品
  6
CONTINUOUS
 62
    3
 10
83.358223630444854
 20
366.12002206710292
 11
83.358223630444854
 21
366.62002206710292
  0
LINE
  8
_0-3_躯体と製品
  6
CONTINUOUS
 62
    3
 10
83.358223630444854
 20
367.12002206710281
 11
83.358223630444854
 21
366.62002206710292
  0
LINE
  8
_0-3_躯体と製品
  6
CONTINUOUS
 62
    3
 10
90.165454630444856
 20
362.2584670671028
 11
92.162713630444841
 21
362.15379506710292
  0
LINE
  8
_0-3_躯体と製品
  6
CONTINUOUS
 62
    3
 10
90.270126630444793
 20
364.2557260671029
 11
90.165454630444856
 21
362.2584670671028
  0
LINE
  8
_0-3_躯体と製品
  6
CONTINUOUS
 62
    3
 10
88.272867630444807
 20
364.36039806710278
 11
90.270126630444793
 21
364.2557260671029
  0
LINE
  8
_0-3_躯体と製品
  6
CONTINUOUS
 62
    3
 10
87.358223630444854
 20
362.62002206710287
 11
88.272867630444807
 21
364.36039806710278
  0
LINE
  8
_0-3_躯体と製品
  6
CONTINUOUS
 62
    3
 10
90.165454630444856
 20
370.98157706710288
 11
92.162713630444841
 21
371.08624906710281
  0
LINE
  8
_0-3_躯体と製品
  6
CONTINUOUS
 62
    3
 10
90.270126630444793
 20
368.98431806710278
 11
90.165454630444856
 21
370.98157706710288
  0
LINE
  8
_0-3_躯体と製品
  6
CONTINUOUS
 62
    3
 10
88.272867630444807
 20
368.8796460671029
 11
90.270126630444793
 21
368.98431806710278
  0
LINE
  8
_0-3_躯体と製品
  6
CONTINUOUS
 62
    3
 10
87.358223630444854
 20
370.62002206710292
 11
88.272867630444807
 21
368.8796460671029
  0
LINE
  8
_0-3_躯体と製品
  6
CONTINUOUS
 62
    3
 10
87.358223630444854
 20
362.62002206710287
 11
83.358223630444854
 21
362.62002206710287
  0
LINE
  8
_0-3_躯体と製品
  6
CONTINUOUS
 62
    3
 10
87.358223630444854
 20
370.62002206710292
 11
83.358223630444854
 21
370.62002206710292
  0
LINE
  8
_0-3_躯体と製品
  6
CONTINUOUS
 62
    3
 10
83.554581630445
 20
372.94236206710286
 11
90.158602630444875
 21
371.99893006710289
  0
ARC
  8
_0-3_躯体と製品
  6
CONTINUOUS
 62
    3
 10
83.611150630444854
 20
373.33834106710293
 40
0.4
 50
171.8698979999985
 51
261.86989800000219
  0
LINE
  8
_0-3_躯体と製品
  6
CONTINUOUS
 62
    3
 10
83.243288630444795
 20
373.59173506710289
 11
83.215170630444845
 21
373.3949100671029
  0
ARC
  8
_0-3_躯体と製品
  6
CONTINUOUS
 62
    3
 10
83.639268630444803
 20
373.53516606710292
 40
0.4
 50
81.701533999963715
 51
171.86989799999853
  0
LINE
  8
_0-3_躯体と製品
  6
CONTINUOUS
 62
    3
 10
90.500622630444923
 20
372.93862306710292
 11
83.697000630444791
 21
373.9309780671029
  0
LINE
  8
_0-3_躯体と製品
  6
CONTINUOUS
 62
    3
 10
83.554581630445
 20
360.29768206710287
 11
90.158602630444875
 21
361.24111406710279
  0
ARC
  8
_0-3_躯体と製品
  6
CONTINUOUS
 62
    3
 10
83.611150630444854
 20
359.9017020671028
 40
0.4
 50
98.130102000024053
 51
188.13010200000139
  0
LINE
  8
_0-3_躯体と製品
  6
CONTINUOUS
 62
    3
 10
83.243288630444795
 20
359.64830906710279
 11
83.215170630444845
 21
359.84513406710283
  0
LINE
  8
_0-3_躯体と製品
  6
CONTINUOUS
 62
    3
 10
83.554581630445
 20
360.29768206710287
 11
90.158602630444875
 21
361.24111406710279
  0
ARC
  8
_0-3_躯体と製品
  6
CONTINUOUS
 62
    3
 10
83.611150630444854
 20
359.9017020671028
 40
0.4
 50
98.130102000024053
 51
188.13010200000139
  0
LINE
  8
_0-3_躯体と製品
  6
CONTINUOUS
 62
    3
 10
83.243288630444795
 20
359.64830906710279
 11
83.215170630444845
 21
359.84513406710283
  0
LINE
  8
_0-3_躯体と製品
  6
CONTINUOUS
 62
    3
 10
103.25231063044498
 20
363.5753590671028
 11
105.24956963044497
 21
363.4706870671028
  0
LINE
  8
_0-3_躯体と製品
  6
CONTINUOUS
 62
    3
 10
103.25231063044498
 20
369.66468506710288
 11
105.24956963044497
 21
369.76935706710293
  0
LINE
  8
_0-3_躯体と製品
  6
CONTINUOUS
 62
    3
 10
102.149008630445
 20
361.63043506710278
 11
103.25231063044498
 21
363.5753590671028
  0
LINE
  8
_0-3_躯体と製品
  6
CONTINUOUS
 62
    3
 10
100.15174963044478
 20
361.73510706710289
 11
102.149008630445
 21
361.63043506710278
  0
LINE
  8
_0-3_躯体と製品
  6
CONTINUOUS
 62
    3
 10
100.25642163044495
 20
363.73236606710276
 11
100.15174963044478
 21
361.73510706710289
  0
LINE
  8
_0-3_躯体と製品
  6
CONTINUOUS
 62
    3
 10
98.259162630444962
 20
363.83703806710292
 11
100.25642163044495
 21
363.73236606710276
  0
LINE
  8
_0-3_躯体と製品
  6
CONTINUOUS
 62
    3
 10
97.155861630444861
 20
361.89211506710279
 11
98.259162630444962
 21
363.83703806710292
  0
LINE
  8
_0-3_躯体と製品
  6
CONTINUOUS
 62
    3
 10
95.158602630444875
 20
361.99678706710279
 11
97.155861630444861
 21
361.89211506710279
  0
LINE
  8
_0-3_躯体と製品
  6
CONTINUOUS
 62
    3
 10
95.263273630444928
 20
363.99404606710283
 11
95.158602630444875
 21
361.99678706710279
  0
LINE
  8
_0-3_躯体と製品
  6
CONTINUOUS
 62
    3
 10
93.266014630444943
 20
364.09871806710288
 11
95.263273630444928
 21
363.99404606710283
  0
LINE
  8
_0-3_躯体と製品
  6
CONTINUOUS
 62
    3
 10
102.149008630445
 20
371.60960906710289
 11
103.25231063044498
 21
369.66468506710288
  0
LINE
  8
_0-3_躯体と製品
  6
CONTINUOUS
 62
    3
 10
100.15174963044478
 20
371.50493706710279
 11
102.149008630445
 21
371.60960906710289
  0
LINE
  8
_0-3_躯体と製品
  6
CONTINUOUS
 62
    3
 10
100.25642163044495
 20
369.50767806710286
 11
100.15174963044478
 21
371.50493706710279
  0
LINE
  8
_0-3_躯体と製品
  6
CONTINUOUS
 62
    3
 10
98.259162630444962
 20
369.40300606710292
 11
100.25642163044495
 21
369.50767806710286
  0
LINE
  8
_0-3_躯体と製品
  6
CONTINUOUS
 62
    3
 10
97.155861630444861
 20
371.34792906710277
 11
98.259162630444962
 21
369.40300606710292
  0
LINE
  8
_0-3_躯体と製品
  6
CONTINUOUS
 62
    3
 10
95.158602630444875
 20
371.24325706710289
 11
97.155861630444861
 21
371.34792906710277
  0
LINE
  8
_0-3_躯体と製品
  6
CONTINUOUS
 62
    3
 10
95.263273630444928
 20
369.2459980671029
 11
95.158602630444875
 21
371.24325706710289
  0
LINE
  8
_0-3_躯体と製品
  6
CONTINUOUS
 62
    3
 10
93.266014630444943
 20
369.1413260671028
 11
95.263273630444928
 21
369.2459980671029
  0
LINE
  8
_0-3_躯体と製品
  6
CONTINUOUS
 62
    3
 10
109.48877963044492
 20
364.75057806710288
 11
111.35822363044485
 21
366.62002206710292
  0
LINE
  8
_0-3_躯体と製品
  6
CONTINUOUS
 62
    3
 10
110.13804563044482
 20
361.2117480671028
 11
112.13530463044481
 21
361.10707606710292
  0
LINE
  8
_0-3_躯体と製品
  6
CONTINUOUS
 62
    3
 10
110.24271663044487
 20
363.20900706710279
 11
110.13804563044482
 21
361.2117480671028
  0
LINE
  8
_0-3_躯体と製品
  6
CONTINUOUS
 62
    3
 10
108.24545763044489
 20
363.3136790671029
 11
110.24271663044487
 21
363.20900706710279
  0
LINE
  8
_0-3_躯体と製品
  6
CONTINUOUS
 62
    3
 10
107.14215663044479
 20
361.36875606710288
 11
108.24545763044489
 21
363.3136790671029
  0
LINE
  8
_0-3_躯体と製品
  6
CONTINUOUS
 62
    3
 10
105.1448976304448
 20
361.47342806710293
 11
107.14215663044479
 21
361.36875606710288
  0
LINE
  8
_0-3_躯体と製品
  6
CONTINUOUS
 62
    3
 10
105.24956963044497
 20
363.4706870671028
 11
105.1448976304448
 21
361.47342806710293
  0
LINE
  8
_0-3_躯体と製品
  6
CONTINUOUS
 62
    3
 10
110.13804563044482
 20
372.02829606710293
 11
112.13530463044481
 21
372.13296806710292
  0
LINE
  8
_0-3_躯体と製品
  6
CONTINUOUS
 62
    3
 10
110.24271663044487
 20
370.03103706710289
 11
110.13804563044482
 21
372.02829606710293
  0
LINE
  8
_0-3_躯体と製品
  6
CONTINUOUS
 62
    3
 10
108.24545763044489
 20
369.92636506710278
 11
110.24271663044487
 21
370.03103706710289
  0
LINE
  8
_0-3_躯体と製品
  6
CONTINUOUS
 62
    3
 10
107.14215663044479
 20
371.8712880671028
 11
108.24545763044489
 21
369.92636506710278
  0
LINE
  8
_0-3_躯体と製品
  6
CONTINUOUS
 62
    3
 10
105.1448976304448
 20
371.7666160671028
 11
107.14215663044479
 21
371.8712880671028
  0
LINE
  8
_0-3_躯体と製品
  6
CONTINUOUS
 62
    3
 10
105.24956963044497
 20
369.76935706710293
 11
105.1448976304448
 21
371.7666160671028
  0
LINE
  8
_0-3_躯体と製品
  6
CONTINUOUS
 62
    3
 10
109.48877963044492
 20
368.4894660671028
 11
111.35822363044485
 21
366.62002206710292
  0
LINE
  8
_0-3_躯体と製品
  6
CONTINUOUS
 62
    3
 10
114.23723563044496
 20
362.9996630671028
 11
114.3157396304448
 21
364.49760706710293
  0
LINE
  8
_0-3_躯体と製品
  6
CONTINUOUS
 62
    3
 10
112.13530463044481
 20
361.10707606710292
 11
114.23723563044496
 21
362.9996630671028
  0
LINE
  8
_0-3_躯体と製品
  6
CONTINUOUS
 62
    3
 10
112.31847963044493
 20
364.60227906710287
 11
112.13530463044481
 21
361.10707606710292
  0
LINE
  8
_0-3_躯体と製品
  6
CONTINUOUS
 62
    3
 10
114.23723563044496
 20
370.24038106710287
 11
114.3157396304448
 21
368.7424370671028
  0
LINE
  8
_0-3_躯体と製品
  6
CONTINUOUS
 62
    3
 10
112.13530463044481
 20
372.13296806710292
 11
114.23723563044496
 21
370.24038106710287
  0
LINE
  8
_0-3_躯体と製品
  6
CONTINUOUS
 62
    3
 10
112.31847963044493
 20
368.63776506710292
 11
112.13530463044481
 21
372.13296806710292
  0
LINE
  8
_0-5_文字-記号
  6
CONTINUOUS
 62
    3
 10
73.858194130444872
 20
381.61997206710288
 11
82.9958621564449
 21
397.44687735090298
  0
LINE
  8
_0-3_躯体と製品
  6
CONTINUOUS
 62
    3
 10
74.358194130444872
 20
391.61997206710288
 11
75.357854130444821
 21
391.61997206710288
  0
LINE
  8
_0-3_躯体と製品
  6
CONTINUOUS
 62
    3
 10
74.358194130444872
 20
390.11997206710288
 11
74.358194130444872
 21
391.61997206710288
  0
LINE
  8
_0-3_躯体と製品
  6
CONTINUOUS
 62
    3
 10
73.858194130444872
 20
390.11997206710288
 11
74.358194130444872
 21
390.11997206710288
  0
ARC
  8
_0-3_躯体と製品
  6
CONTINUOUS
 62
    3
 10
71.858194130444872
 20
389.31997206710287
 40
0.5
 50
0
 51
90
  0
CIRCLE
  8
_0-5_文字-記号
  6
CONTINUOUS
 62
    3
 10
85.096170450444788
 20
401.77700436990278
 40
5
  0
LINE
  8
_0-3_躯体と製品
  6
CONTINUOUS
 62
    3
 10
75.358194130444872
 20
401.62710913490292
 11
73.168219939444953
 21
403.8170833258028
  0
LINE
  8
_0-3_躯体と製品
  6
CONTINUOUS
 62
    3
 10
75.358194130444872
 20
397.38446844770289
 11
69.3818672584448
 21
403.36079531950298
  0
LINE
  8
_0-3_躯体と製品
  6
CONTINUOUS
 62
    3
 10
75.358194130444872
 20
398.62443421900292
 11
71.853731978444785
 21
395.11997206710288
  0
TEXT
  8
_0-5_文字-記号
 62
    7
 10
82.496548135003877
 20
397.38740339645398
 40
5
 41
0.800000000000003
 50
0
  1
4
  0
LINE
  8
_0-3_躯体と製品
  6
DOT_17
 62
    3
 10
75.358194130444872
 20
411.61997206710288
 11
130.35819413044487
 21
411.61997206710288
  0
LINE
  8
_0-2_寸法
  6
CONTINUOUS
 62
    3
 10
55.358194130444872
 20
416.61997206710299
 11
55.358194130444872
 21
431.61997206710282
  0
LINE
  8
_0-3_躯体と製品
  6
CONTINUOUS
 62
    3
 10
75.358194130444872
 20
411.61997206710288
 11
75.358194130444872
 21
431.61997206710282
  0
LINE
  8
_0-4_図面枠
  6
CONTINUOUS
 62
    7
 10
785.94850551773698
 20
-253.51371860073061
 11
785.94850551773698
 21
550.51371860073061
  0
LINE
  8
_0-4_図面枠
  6
CONTINUOUS
 62
    7
 10
219.22646952927084
 20
550.51371860073061
 11
219.22646952927084
 21
-253.51371860073061
  0
TEXT
  8
_0-5_文字-記号
 62
    7
 10
365.64862728707089
 20
139.52596379966943
 40
5
 41
0.8
 50
0
  1
（落下防止ワイヤー）
  0
TEXT
  8
_0-4_図面枠
 62
    7
 10
269.987721204011
 20
-243.65835527893125
 40
5
 41
0.8
 50
0
  1
注）　ガスケットＳＨはＳＳＨサイドプレート（Ｃ）Ａ 及び ＳＣＨサイドキャップにセット済み。
  0
TEXT
  8
_0-4_図面枠
 62
    7
 10
505.4263705292708
 20
-204.31369010073047
 40
5
 41
0.7999999999999997
 50
0
  1
ｔ１．０×ｗ３０
  0
TEXT
  8
_0-4_図面枠
 62
    7
 10
505.4263705292708
 20
-186.31370660073048
 40
5
 41
0.8000000000000004
 50
0
  1
外ジョイント材
  0
TEXT
  8
_0-4_図面枠
 62
    7
 10
505.4263705292708
 20
-168.31370660073048
 40
5
 41
0.8000000000000004
 50
0
  1
外ジョイント材
  0
TEXT
  8
_0-4_図面枠
 62
    7
 10
505.4263705292708
 20
-132.3137066007306
 40
5
 41
0.7999999999999998
 50
0
  1
１．５×１８×５．５穴
  0
TEXT
  8
_0-4_図面枠
 62
    7
 10
505.4265085292709
 20
-78.313690100730526
 40
5
 41
0.7999999999999998
 50
0
  1
フィッシャープラグＳ８
  0
LINE
  8
_0-4_図面枠
  6
CONTINUOUS
 62
    7
 10
735.67646952927089
 20
-171.91371860073059
 11
309.22646952927084
 21
-171.91371860073059
  0
LINE
  8
_0-4_図面枠
  6
CONTINUOUS
 62
    7
 10
735.67646952927089
 20
-135.91371860073059
 11
309.22646952927084
 21
-135.91371860073059
  0
LINE
  8
_0-4_図面枠
  6
CONTINUOUS
 62
    7
 10
735.67646952927089
 20
-225.91371860073048
 11
309.22646952927084
 21
-225.91371860073048
  0
LINE
  8
_0-4_図面枠
  6
CONTINUOUS
 62
    7
 10
735.67646952927089
 20
-207.91371860073059
 11
309.22646952927084
 21
-207.91371860073059
  0
LINE
  8
_0-4_図面枠
  6
CONTINUOUS
 62
    7
 10
735.67646952927089
 20
-189.91371860073059
 11
309.22646952927084
 21
-189.91371860073059
  0
LINE
  8
_0-4_図面枠
  6
CONTINUOUS
 62
    7
 10
735.67646952927089
 20
76.486281399269416
 11
309.22646952927084
 21
76.486281399269416
  0
LINE
  8
_0-4_図面枠
  6
CONTINUOUS
 62
    7
 10
735.67646952927089
 20
-153.91371860073059
 11
309.22646952927084
 21
-153.91371860073059
  0
LINE
  8
_0-4_図面枠
  6
CONTINUOUS
 62
    7
 10
735.67646952927089
 20
-117.91371860073059
 11
309.22646952927084
 21
-117.91371860073059
  0
LINE
  8
_0-4_図面枠
  6
CONTINUOUS
 62
    7
 10
735.67646952927089
 20
-99.913718600730476
 11
309.22646952927084
 21
-99.913718600730476
  0
LINE
  8
_0-4_図面枠
  6
CONTINUOUS
 62
    7
 10
735.67646952927089
 20
-81.913718600730476
 11
309.22646952927084
 21
-81.913718600730476
  0
LINE
  8
_0-4_図面枠
  6
CONTINUOUS
 62
    7
 10
735.67646952927089
 20
-63.913718600730476
 11
309.22646952927084
 21
-63.913718600730476
  0
LINE
  8
_0-4_図面枠
  6
CONTINUOUS
 62
    7
 10
735.67646952927089
 20
-45.913718600730476
 11
309.22646952927084
 21
-45.913718600730476
  0
LINE
  8
_0-4_図面枠
  6
CONTINUOUS
 62
    7
 10
735.67646952927089
 20
-27.913718600730505
 11
309.22646952927084
 21
-27.913718600730505
  0
LINE
  8
_0-4_図面枠
  6
CONTINUOUS
 62
    7
 10
735.67646952927089
 20
-9.9137186007305047
 11
309.22646952927084
 21
-9.9137186007305047
  0
LINE
  8
_0-4_図面枠
  6
CONTINUOUS
 62
    7
 10
735.67646952927089
 20
8.0862813992694953
 11
309.22646952927084
 21
8.0862813992694953
  0
LINE
  8
_0-4_図面枠
  6
CONTINUOUS
 62
    7
 10
735.67646952927089
 20
26.086281399269495
 11
309.22646952927084
 21
26.086281399269495
  0
LINE
  8
_0-4_図面枠
  6
CONTINUOUS
 62
    7
 10
735.67646952927089
 20
44.086281399269495
 11
309.22646952927084
 21
44.086281399269495
  0
LINE
  8
_0-3_躯体と製品
  6
CONTINUOUS
 62
    7
 10
499.15982528707082
 20
121.11471679966942
 11
589.11482528707097
 21
121.11471679966942
  0
LINE
  8
_0-3_躯体と製品
  6
CONTINUOUS
 62
    7
 10
499.15982528707082
 20
122.11421679966944
 11
589.11482528707097
 21
122.11421679966944
  0
LINE
  8
_0-4_図面枠
  6
CONTINUOUS
 62
    7
 10
501.82646952927098
 20
-225.91371860073048
 11
501.82646952927098
 21
76.486281399269416
  0
LINE
  8
_0-4_図面枠
  6
CONTINUOUS
 62
    7
 10
330.82646952927098
 20
-225.91371860073048
 11
330.82646952927098
 21
76.486281399269416
  0
LINE
  8
_0-4_図面枠
  6
CONTINUOUS
 62
    7
 10
309.22646952927084
 20
-225.91371860073048
 11
309.22646952927084
 21
76.486281399269416
  0
TEXT
  8
_0-4_図面枠
 62
    7
 10
334.4265085292709
 20
-168.31370660073048
 40
5
 41
0.8000000000000001
 50
0
  1
サイドプレートジョイントカバー
  0
TEXT
  8
_0-4_図面枠
 62
    7
 10
334.4265085292709
 20
-186.31370660073048
 40
5
 41
0.8
 50
0
  1
センタープレートジョイントカバー
  0
TEXT
  8
_0-4_図面枠
 62
    7
 10
332.4892106442278
 20
-132.52094706535036
 40
5
 41
0.8000000000000001
 50
0
  1
ステンセットシルタップ
  0
TEXT
  8
_0-4_図面枠
 62
    7
 10
334.4265085292709
 20
-222.31369910073056
 40
5
 41
0.8000000000000003
 50
0
  1
落下防止ワイヤー
  0
TEXT
  8
_0-4_図面枠
 62
    7
 10
334.4265085292709
 20
-204.31369010073047
 40
5
 41
0.8
 50
0
  1
ブチルテープ
  0
TEXT
  8
_0-4_図面枠
 62
    7
 10
334.42643952927097
 20
-150.31369010073047
 40
5
 41
0.7999999999999998
 50
0
  1
ガスケットＳＨ
  0
TEXT
  8
_0-4_図面枠
 62
    7
 10
319.98691302927091
 20
-186.23105210073049
 40
5
 41
0.8000000000000016
 50
0
  1
※
  0
TEXT
  8
_0-4_図面枠
 62
    7
 10
319.98691302927091
 20
-222.23104310073052
 40
5
 41
0.8000000000000016
 50
0
  1
※
  0
TEXT
  8
_0-4_図面枠
 62
    7
 10
319.98691302927091
 20
-204.23104310073063
 40
5
 41
0.8000000000000016
 50
0
  1
※
  0
TEXT
  8
_0-4_図面枠
 62
    7
 10
310.71762102927096
 20
-150.23105210073049
 40
5
 41
0.7999999999999993
 50
0
  1
１１
  0
TEXT
  8
_0-4_図面枠
 62
    7
 10
319.98691302927091
 20
-168.23105210073049
 40
5
 41
0.8000000000000016
 50
0
  1
※
  0
TEXT
  8
_0-4_図面枠
 62
    7
 10
310.71762102927096
 20
-132.23105210073049
 40
5
 41
0.7999999999999993
 50
0
  1
１０
  0
TEXT
  8
_0-4_図面枠
 62
    7
 10
333.529069882768
 20
-113.80348077162296
 40
5
 41
0.8000000000000003
 50
0
  1
ステンワッシャー
  0
TEXT
  8
_0-4_図面枠
 62
    7
 10
334.4265085292709
 20
29.686293399269488
 40
5
 41
0.8000000000000001
 50
0
  1
ＳＳＨサイドプレート（Ｃ）Ａ
  0
TEXT
  8
_0-4_図面枠
 62
    7
 10
334.4265085292709
 20
11.686293399269488
 40
5
 41
0.8000000000000001
 50
0
  1
ＳＣＨセンタープレート（Ｄ）Ａ
  0
TEXT
  8
_0-4_図面枠
 62
    7
 10
334.4265085292709
 20
-6.3137066007305123
 40
5
 41
0.8
 50
0
  1
ＳＳＨフレーム（Ｃ）
  0
TEXT
  8
_0-4_図面枠
 62
    7
 10
334.4265085292709
 20
-96.313706600730654
 40
5
 41
0.8
 50
0
  1
ステンタッピンねじ
  0
TEXT
  8
_0-4_図面枠
 62
    7
 10
334.4265085292709
 20
-78.313690100730526
 40
5
 41
0.7999999999999998
 50
0
  1
アンカープラグ
  0
TEXT
  8
_0-4_図面枠
 62
    7
 10
334.4265085292709
 20
-42.313706600730512
 40
5
 41
0.8
 50
0
  1
ＳＣＨサイドキャップ
  0
TEXT
  8
_0-4_図面枠
 62
    7
 10
334.4265085292709
 20
-24.313706600730512
 40
5
 41
0.8000000000000003
 50
0
  1
ＳＣＨ壁フレーム
  0
TEXT
  8
_0-4_図面枠
 62
    7
 10
392.64740352927083
 20
62.086347399269471
 40
5.0000000000000142
 41
0.7999999999999974
 50
0
  1
部材名称
  0
LINE
  8
_0-3_躯体と製品
  6
CONTINUOUS
 62
    7
 10
374.92352528707079
 20
125.55049479966945
 11
394.21232528707083
 21
122.11421679966944
  0
LINE
  8
_0-3_躯体と製品
  6
CONTINUOUS
 62
    7
 10
375.09882428707078
 20
126.53450279966941
 11
394.21232528707083
 21
123.12945279966945
  0
LINE
  8
_0-3_躯体と製品
  6
CONTINUOUS
 62
    7
 10
394.14775228707094
 20
122.12571979966944
 11
375.12445328707099
 21
117.71957579966946
  0
LINE
  8
_0-3_躯体と製品
  6
CONTINUOUS
 62
    7
 10
375.34998528707092
 20
116.74585379966945
 11
394.21232528707083
 21
121.11471679966942
  0
TEXT
  8
_0-4_図面枠
 62
    7
 10
319.98691302927091
 20
11.768929899269494
 40
5
 41
0.8000000000000016
 50
0
  1
２
  0
TEXT
  8
_0-4_図面枠
 62
    7
 10
334.4265085292709
 20
-60.313690100730526
 40
5
 41
0.8000000000000003
 50
0
  1
止水補助板
  0
TEXT
  8
_0-4_図面枠
 62
    7
 10
319.98691302927091
 20
-114.23105210073049
 40
5
 41
0.8000000000000016
 50
0
  1
９
  0
TEXT
  8
_0-4_図面枠
 62
    7
 10
319.98691302927091
 20
-96.231052100730551
 40
5.0000000000000284
 41
0.799999999999997
 50
0
  1
８
  0
TEXT
  8
_0-4_図面枠
 62
    7
 10
319.98691302927091
 20
-78.231035600730536
 40
5.0000000000000284
 41
0.799999999999997
 50
0
  1
７
  0
TEXT
  8
_0-4_図面枠
 62
    7
 10
319.98691302927091
 20
-60.231035600730536
 40
5.0000000000000284
 41
0.799999999999997
 50
0
  1
６
  0
TEXT
  8
_0-4_図面枠
 62
    7
 10
319.98691302927091
 20
-24.231070100730506
 40
5
 41
0.8000000000000016
 50
0
  1
４
  0
TEXT
  8
_0-4_図面枠
 62
    7
 10
319.98691302927091
 20
-42.231035600730507
 40
5
 41
0.8000000000000016
 50
0
  1
５
  0
TEXT
  8
_0-4_図面枠
 62
    7
 10
319.98691302927091
 20
-6.2310701007305056
 40
5
 41
0.8000000000000016
 50
0
  1
３
  0
TEXT
  8
_0-4_図面枠
 62
    7
 10
310.71762102927096
 20
29.768929899269494
 40
5
 41
0.7999999999999993
 50
0
  1
　１
  0
ARC
  8
_0-3_躯体と製品
  6
CONTINUOUS
 62
    7
 10
374.22232528707082
 20
121.61446679966944
 40
4.9974999999999987
 50
79.898790000005874
 51
283.04079499999443
  0
ARC
  8
_0-3_躯体と製品
  6
CONTINUOUS
 62
    7
 10
374.22232528707082
 20
121.61446679966944
 40
3.9980000000000002
 50
79.898790000005874
 51
283.04079499999443
  0
TEXT
  8
_0-4_図面枠
 62
    7
 10
505.4263705292708
 20
-60.313690100730526
 40
5
 41
0.7999999999999994
 50
0
  1
ＦＳ４００
  0
TEXT
  8
_0-4_図面枠
 62
    7
 10
505.4263705292708
 20
-114.3137066007306
 40
5
 41
0.8000000000000009
 50
0
  1
４×１３
  0
TEXT
  8
_0-4_図面枠
 62
    7
 10
505.4263705292708
 20
-96.313706600730654
 40
5
 41
0.8
 50
0
  1
なべ５×５０
  0
LINE
  8
_0-3_躯体と製品
  6
CONTINUOUS
 62
    7
 10
489.16482528707093
 20
121.11471679966942
 11
399.209825287071
 21
121.11471679966942
  0
LINE
  8
_0-3_躯体と製品
  6
CONTINUOUS
 62
    7
 10
489.16482528707093
 20
122.11421679966944
 11
399.209825287071
 21
122.11421679966944
  0
LINE
  8
_0-3_躯体と製品
  6
CONTINUOUS
 62
    7
 10
402.72745028707095
 20
123.91331679966945
 11
402.72745028707095
 21
123.61346679966945
  0
LINE
  8
_0-3_躯体と製品
  6
CONTINUOUS
 62
    7
 10
401.72795028707083
 20
123.91331679966945
 11
402.72745028707095
 21
123.91331679966945
  0
LINE
  8
_0-3_躯体と製品
  6
CONTINUOUS
 62
    7
 10
401.72795028707083
 20
123.91331679966945
 11
401.72795028707083
 21
123.61346679966945
  0
ARC
  8
_0-3_躯体と製品
  6
CONTINUOUS
 62
    7
 10
401.22820028707088
 20
123.61346679966945
 40
0.49975
 50
270
 51
0
  0
LINE
  8
_0-3_躯体と製品
  6
CONTINUOUS
 62
    7
 10
399.209825287071
 20
123.11371679966945
 11
401.22820028707088
 21
123.11371679966945
  0
ARC
  8
_0-3_躯体と製品
  6
CONTINUOUS
 62
    7
 10
401.22820028707088
 20
123.61346679966945
 40
1.4992499999999991
 50
270
 51
0
  0
LINE
  8
_0-3_躯体と製品
  6
CONTINUOUS
 62
    7
 10
394.21232528707083
 20
123.91331679966945
 11
394.21232528707083
 21
120.31511679966943
  0
LINE
  8
_0-3_躯体と製品
  6
CONTINUOUS
 62
    7
 10
399.209825287071
 20
123.91331679966945
 11
394.21232528707083
 21
123.91331679966945
  0
LINE
  8
_0-3_躯体と製品
  6
CONTINUOUS
 62
    7
 10
399.209825287071
 20
120.31511679966943
 11
399.209825287071
 21
123.91331679966945
  0
LINE
  8
_0-3_躯体と製品
  6
CONTINUOUS
 62
    7
 10
394.21232528707083
 20
120.31511679966943
 11
399.209825287071
 21
120.31511679966943
  0
TEXT
  8
_0-4_図面枠
 62
    7
 10
547.37051352927097
 20
62.086347399269471
 40
5.0000000000000142
 41
0.7999999999999977
 50
0
  1
規　格
  0
LINE
  8
_0-4_図面枠
  6
CONTINUOUS
 62
    7
 10
633.07646952927098
 20
-225.91371860073048
 11
633.07646952927098
 21
76.486281399269416
  0
LINE
  8
_0-4_図面枠
  6
CONTINUOUS
 62
    7
 10
678.07646952927098
 20
-225.91371860073048
 11
678.07646952927098
 21
76.486281399269416
  0
LINE
  8
_0-4_図面枠
  6
CONTINUOUS
 62
    7
 10
714.07646952927098
 20
-225.91371860073048
 11
714.07646952927098
 21
76.486281399269416
  0
LINE
  8
_0-4_図面枠
  6
CONTINUOUS
 62
    7
 10
735.67646952927089
 20
-225.91371860073048
 11
735.67646952927089
 21
76.486281399269416
  0
LINE
  8
_0-4_図面枠
  6
CONTINUOUS
 62
    7
 10
630.07646952927098
 20
-225.91371860073048
 11
630.07646952927098
 21
76.486281399269416
  0
TEXT
  8
_0-4_図面枠
 62
    7
 10
637.03786602927084
 20
-150.31369010073047
 40
5
 41
0.7999999999999987
 50
0
  1
３１００
  0
TEXT
  8
_0-4_図面枠
 62
    7
 10
637.03772802927097
 20
-204.31369010073047
 40
5
 41
0.7999999999999987
 50
0
  1
６０００
  0
TEXT
  8
_0-4_図面枠
 62
    7
 10
720.24177552927085
 20
-186.31370660073048
 40
5
 41
0.7999999999999943
 50
0
  1
〃
  0
TEXT
  8
_0-4_図面枠
 62
    7
 10
698.80718052927068
 20
-186.1637096007305
 40
5
 41
0.8000000000000058
 50
0
  1
１
  0
TEXT
  8
_0-4_図面枠
 62
    7
 10
698.80718052927068
 20
-222.1637096007305
 40
5
 41
0.8000000000000058
 50
0
  1
２
  0
TEXT
  8
_0-4_図面枠
 62
    7
 10
698.80718052927068
 20
-204.1637096007305
 40
5
 41
0.8000000000000058
 50
0
  1
１
  0
TEXT
  8
_0-4_図面枠
 62
    7
 10
720.24177552927085
 20
-222.31369910073056
 40
5
 41
0.7999999999999943
 50
0
  1
本
  0
TEXT
  8
_0-4_図面枠
 62
    7
 10
720.24177552927085
 20
-204.31369010073047
 40
5
 41
0.7999999999999943
 50
0
  1
巻
  0
TEXT
  8
_0-4_図面枠
 62
    7
 10
697.30713402927086
 20
-150.1636931007306
 40
5
 41
0.7999999999999943
 50
0
  1
２
  0
TEXT
  8
_0-4_図面枠
 62
    7
 10
698.80718052927068
 20
-168.1637096007305
 40
5
 41
0.8000000000000058
 50
0
  1
１
  0
TEXT
  8
_0-4_図面枠
 62
    7
 10
689.53788852927073
 20
-132.16372610073051
 40
5
 41
0.7999999999999972
 50
0
  1
１２
  0
TEXT
  8
_0-4_図面枠
 62
    7
 10
720.24177552927085
 20
-150.31369010073047
 40
5
 41
0.7999999999999943
 50
0
  1
本
  0
TEXT
  8
_0-4_図面枠
 62
    7
 10
720.24177552927085
 20
-168.31370660073048
 40
5
 41
0.7999999999999943
 50
0
  1
個
  0
TEXT
  8
_0-4_図面枠
 62
    7
 10
720.24177552927085
 20
-132.3137066007306
 40
5
 41
0.7999999999999943
 50
0
  1
枚
  0
TEXT
  8
_0-4_図面枠
 62
    7
 10
720.24177552927085
 20
11.686293399269488
 40
5
 41
0.7999999999999943
 50
0
  1
〃
  0
TEXT
  8
_0-4_図面枠
 62
    7
 10
698.80718052927068
 20
11.836290399269501
 40
5
 41
0.8000000000000058
 50
0
  1
１
  0
TEXT
  8
_0-4_図面枠
 62
    7
 10
637.03772802927097
 20
11.686293399269488
 40
5
 41
0.7999999999999987
 50
0
  1
３０００
  0
TEXT
  8
_0-4_図面枠
 62
    7
 10
637.03772802927097
 20
-60.313690100730526
 40
5
 41
0.7999999999999987
 50
0
  1
３１００
  0
TEXT
  8
_0-4_図面枠
 62
    7
 10
637.03772802927097
 20
-42.313706600730512
 40
5
 41
0.7999999999999987
 50
0
  1
３０００
  0
TEXT
  8
_0-4_図面枠
 62
    7
 10
637.03772802927097
 20
-24.313706600730512
 40
5
 41
0.7999999999999987
 50
0
  1
３０００
  0
TEXT
  8
_0-4_図面枠
 62
    7
 10
637.03772802927097
 20
-6.3137066007305123
 40
5
 41
0.7999999999999987
 50
0
  1
３０００
  0
TEXT
  8
_0-4_図面枠
 62
    7
 10
689.53788852927073
 20
-114.1637096007305
 40
5
 41
0.7999999999999972
 50
0
  1
１６
  0
TEXT
  8
_0-4_図面枠
 62
    7
 10
689.53788852927073
 20
-96.163709600730556
 40
5.0000000000000284
 41
0.7999999999999927
 50
0
  1
１２
  0
TEXT
  8
_0-4_図面枠
 62
    7
 10
689.53788852927073
 20
-78.163726100730514
 40
5
 41
0.7999999999999972
 50
0
  1
１２
  0
TEXT
  8
_0-4_図面枠
 62
    7
 10
698.80718052927068
 20
-60.163709600730556
 40
5.0000000000000284
 41
0.8000000000000012
 50
0
  1
１
  0
TEXT
  8
_0-4_図面枠
 62
    7
 10
720.24177552927085
 20
-114.3137066007306
 40
5
 41
0.7999999999999943
 50
0
  1
〃
  0
TEXT
  8
_0-4_図面枠
 62
    7
 10
720.24177552927085
 20
-96.313706600730654
 40
5
 41
0.7999999999999943
 50
0
  1
〃
  0
TEXT
  8
_0-4_図面枠
 62
    7
 10
720.24177552927085
 20
-78.313706600730541
 40
5.0000000000000284
 41
0.7999999999999898
 50
0
  1
本
  0
TEXT
  8
_0-4_図面枠
 62
    7
 10
720.24177552927085
 20
-60.313690100730526
 40
5
 41
0.7999999999999943
 50
0
  1
枚
  0
TEXT
  8
_0-4_図面枠
 62
    7
 10
698.80718052927068
 20
-24.163709600730499
 40
5
 41
0.8000000000000058
 50
0
  1
１
  0
TEXT
  8
_0-4_図面枠
 62
    7
 10
698.80718052927068
 20
-42.163709600730499
 40
5
 41
0.8000000000000058
 50
0
  1
１
  0
TEXT
  8
_0-4_図面枠
 62
    7
 10
698.80718052927068
 20
-6.1637441007304687
 40
4.9999999999999716
 41
0.8000000000000103
 50
0
  1
１
  0
TEXT
  8
_0-4_図面枠
 62
    7
 10
720.24177552927085
 20
-24.313706600730512
 40
5
 41
0.7999999999999943
 50
0
  1
〃
  0
TEXT
  8
_0-4_図面枠
 62
    7
 10
720.24177552927085
 20
-42.313706600730512
 40
5
 41
0.7999999999999943
 50
0
  1
〃
  0
TEXT
  8
_0-4_図面枠
 62
    7
 10
720.24177552927085
 20
-6.3137066007305123
 40
5
 41
0.7999999999999943
 50
0
  1
〃
  0
TEXT
  8
_0-4_図面枠
 62
    7
 10
637.03772802927097
 20
29.686293399269488
 40
5
 41
0.7999999999999987
 50
0
  1
３０００
  0
TEXT
  8
_0-4_図面枠
 62
    7
 10
634.25693952927077
 20
47.68632639926949
 40
5.0000000000000142
 41
0.7999999999999963
 50
0
  1
（ｍｍ）
  0
TEXT
  8
_0-4_図面枠
 62
    7
 10
640.74544452927103
 20
62.086347399269471
 40
5.0000000000000142
 41
0.7999999999999977
 50
0
  1
定　尺
  0
LINE
  8
_0-3_躯体と製品
  6
CONTINUOUS
 62
    7
 10
613.40112628727093
 20
125.55049479966945
 11
594.11232528727078
 21
122.11421679966944
  0
LINE
  8
_0-3_躯体と製品
  6
CONTINUOUS
 62
    7
 10
613.22582628727082
 20
126.53450279966941
 11
594.11232528727078
 21
123.12945279966945
  0
LINE
  8
_0-3_躯体と製品
  6
CONTINUOUS
 62
    7
 10
594.17689828727089
 20
122.12571979966944
 11
613.20019828727095
 21
117.71957579966946
  0
LINE
  8
_0-3_躯体と製品
  6
CONTINUOUS
 62
    7
 10
612.97466628727079
 20
116.74585379966945
 11
594.11232528727078
 21
121.11471679966942
  0
LINE
  8
_0-3_躯体と製品
  6
CONTINUOUS
 62
    7
 10
589.11482528707097
 20
123.91331679966945
 11
594.11232528727078
 21
123.91331679966945
  0
LINE
  8
_0-3_躯体と製品
  6
CONTINUOUS
 62
    7
 10
594.11232528727078
 20
120.31511679966943
 11
589.11482528707097
 21
120.31511679966943
  0
LINE
  8
_0-3_躯体と製品
  6
CONTINUOUS
 62
    7
 10
585.59720028707079
 20
123.91331679966945
 11
585.59720028707079
 21
123.61346679966945
  0
LINE
  8
_0-3_躯体と製品
  6
CONTINUOUS
 62
    7
 10
586.59670028707092
 20
123.91331679966945
 11
585.59720028707079
 21
123.91331679966945
  0
LINE
  8
_0-3_躯体と製品
  6
CONTINUOUS
 62
    7
 10
586.59670028707092
 20
123.91331679966945
 11
586.59670028707092
 21
123.61346679966945
  0
ARC
  8
_0-3_躯体と製品
  6
CONTINUOUS
 62
    7
 10
587.09645028707087
 20
123.61346679966945
 40
0.49975
 50
180
 51
270
  0
LINE
  8
_0-3_躯体と製品
  6
CONTINUOUS
 62
    7
 10
589.11482528707097
 20
123.11371679966945
 11
587.09645028707087
 21
123.11371679966945
  0
ARC
  8
_0-3_躯体と製品
  6
CONTINUOUS
 62
    7
 10
587.09645028707087
 20
123.61346679966945
 40
1.4992499999999991
 50
180
 51
270
  0
LINE
  8
_0-3_躯体と製品
  6
CONTINUOUS
 62
    7
 10
589.11482528707097
 20
120.31511679966943
 11
589.11482528707097
 21
123.91331679966945
  0
LINE
  8
_0-3_躯体と製品
  6
CONTINUOUS
 62
    7
 10
594.11232528727078
 20
123.91331679966945
 11
594.11232528727078
 21
120.31511679966943
  0
ARC
  8
_0-3_躯体と製品
  6
CONTINUOUS
 62
    7
 10
614.10232528727079
 20
121.61446679966944
 40
4.9974999999999987
 50
256.95920500000551
 51
108.02159900000154
  0
ARC
  8
_0-3_躯体と製品
  6
CONTINUOUS
 62
    7
 10
614.10232528727079
 20
121.61446679966944
 40
3.9980000000000002
 50
256.95920500000551
 51
110.01038099999663
  0
TEXT
  8
_0-4_図面枠
 62
    7
 10
685.88015952927071
 20
47.686293399269488
 40
5.0000000000000142
 41
0.7999999999999949
 50
0
  1
数量
  0
TEXT
  8
_0-4_図面枠
 62
    7
 10
698.80718052927068
 20
29.836255899269531
 40
4.9999999999999858
 41
0.8000000000000081
 50
0
  1
１
  0
TEXT
  8
_0-4_図面枠
 62
    7
 10
685.88015952927071
 20
62.086312899269473
 40
5.0000000000000142
 41
0.7999999999999949
 50
0
  1
使用
  0
TEXT
  8
_0-4_図面枠
 62
    7
 10
720.24177552927085
 20
29.686293399269488
 40
5
 41
0.7999999999999943
 50
0
  1
本
  0
TEXT
  8
_0-4_図面枠
 62
    7
 10
724.11108102927074
 20
72.886347399269468
 40
5
 41
0.8000000000000012
 50
-90
  1
単位
  0
TEXT
  8
_0-4_図面枠
 62
    7
 10
279.22646952927084
 20
502.57444731941121
 40
5
 41
0.8
 50
0
  1
◇外壁コーナー（２００ＳＣＨ－Ａ）　Ｓ＝１／３
  0
ARC
  8
_0-3_躯体と製品
  6
CONTINUOUS
 62
    3
 10
561.72036048977088
 20
281.39425403543066
 40
37.5
 50
225.0000000000046
 51
314.9999999999954
  0
ARC
  8
_0-3_躯体と製品
  6
CONTINUOUS
 62
    3
 10
561.72036048977088
 20
282.39425403543066
 40
37.5
 50
225.0000000000046
 51
314.9999999999954
  0
LINE
  8
_0-3_躯体と製品
  6
CONTINUOUS
 62
    3
 10
457.72036048977088
 20
341.96124544643055
 11
651.38417100427068
 21
341.96124544643055
  0
LINE
  8
_0-3_躯体と製品
  6
CONTINUOUS
 62
    3
 10
650.37025672026994
 20
340.3612454464307
 11
562.97036048977088
 21
340.3612454464307
  0
TEXT
  8
_0-5_文字-記号
 62
    7
 10
257.63255643470984
 20
311.84378190812339
 40
5
 41
0.8
 50
0
  1
コーキング処理(別途工事)
  0
LINE
  8
_0-5_文字-記号
  6
CONTINUOUS
 62
    3
 10
398.21150534466983
 20
336.84652694643057
 11
381.76552040277079
 21
308.3612454464307
  0
LINE
  8
_0-3_躯体と製品
  6
DOT_17
 62
    3
 10
391.72036048977088
 20
228.36124544643079
 11
461.72036048977088
 21
228.36124544643079
  0
LINE
  8
_0-3_躯体と製品
  6
CONTINUOUS
 62
    3
 10
391.72036048977088
 20
328.3612454464307
 11
461.72036048977088
 21
328.3612454464307
  0
LINE
  8
_0-3_躯体と製品
  6
DOT_17
 62
    3
 10
391.72036048977088
 20
328.3612454464307
 11
391.72036048977088
 21
228.36124544643079
  0
LINE
  8
_0-5_文字-記号
  6
CONTINUOUS
 62
    3
 10
381.76552040277079
 20
308.3612454464307
 11
263.18433378187092
 21
308.3612454464307
  0
LINE
  8
_0-3_躯体と製品
  6
PLINE12
 62
    3
 10
561.72036048977088
 20
225.95743487873065
 11
561.72036048977088
 21
377.90648563823066
  0
LINE
  8
_0-3_躯体と製品
  6
PLINE12
 62
    3
 10
431.72036048977088
 20
341.51124544643068
 11
431.72036048977088
 21
275.76029280453059
  0
CIRCLE
  8
_0-5_文字-記号
  6
CONTINUOUS
 62
    3
 10
418.39786151277099
 20
274.0311184275306
 40
5
  0
LINE
  8
_0-3_躯体と製品
  6
CONTINUOUS
 62
    3
 10
461.72036048977088
 20
328.3612454464307
 11
535.20385619527087
 21
254.87774974093062
  0
LINE
  8
_0-3_躯体と製品
  6
CONTINUOUS
 62
    3
 10
461.72036048977088
 20
329.3612454464307
 11
535.20385619527087
 21
255.87774974093062
  0
LINE
  8
_0-3_躯体と製品
  6
CONTINUOUS
 62
    3
 10
461.72036048977088
 20
228.36124544643079
 11
461.72036048977088
 21
328.3612454464307
  0
TEXT
  8
_0-5_文字-記号
 62
    7
 10
416.65177315864798
 20
269.91468623158698
 40
4.9999999999999858
 41
0.7999999999999967
 50
0
  1
7
  0
LINE
  8
_0-3_躯体と製品
  6
CONTINUOUS
 62
    3
 10
432.02036048977084
 20
331.3612454464307
 11
499.72036048977088
 21
331.3612454464307
  0
LINE
  8
_0-3_躯体と製品
  6
CONTINUOUS
 62
    3
 10
484.22036048977088
 20
329.8612454464307
 11
500.22036048977088
 21
329.8612454464307
  0
LINE
  8
_0-3_躯体と製品
  6
CONTINUOUS
 62
    3
 10
413.02036048977084
 20
346.8612454464307
 11
491.82036048977079
 21
346.8612454464307
  0
LINE
  8
_0-3_躯体と製品
  6
CONTINUOUS
 62
    3
 10
397.22036048977088
 20
348.3612454464307
 11
501.22036048977088
 21
348.3612454464307
  0
LINE
  8
_0-3_躯体と製品
  6
CONTINUOUS
 62
    3
 10
458.72036048977088
 20
340.3612454464307
 11
560.47036048977088
 21
340.3612454464307
  0
LINE
  8
_0-3_躯体と製品
  6
PLINE12
 62
    3
 10
412.72036048977088
 20
356.1112454464307
 11
412.72036048977088
 21
333.3612454464307
  0
LINE
  8
_0-3_躯体と製品
  6
CONTINUOUS
 62
    3
 10
415.05369348976978
 20
343.31192944643061
 11
414.32036048977079
 21
342.88853944643068
  0
LINE
  8
_0-3_躯体と製品
  6
CONTINUOUS
 62
    3
 10
410.38702748977084
 20
342.37118844643061
 11
415.05369348976978
 21
343.31192944643061
  0
LINE
  8
_0-3_躯体と製品
  6
CONTINUOUS
 62
    3
 10
411.12036048977097
 20
342.79457844643059
 11
414.32036048977079
 21
343.73531944643059
  0
LINE
  8
_0-3_躯体と製品
  6
CONTINUOUS
 62
    3
 10
411.12036048977097
 20
343.82927944643069
 11
411.12036048977097
 21
342.79457844643059
  0
LINE
  8
_0-3_躯体と製品
  6
CONTINUOUS
 62
    3
 10
397.72421248977093
 20
341.59302044643067
 11
399.29859748977083
 21
343.16740444643068
  0
LINE
  8
_0-3_躯体と製品
  6
CONTINUOUS
 62
    3
 10
398.17363148977097
 20
337.7997974464306
 11
404.72036048977088
 21
344.34652644643069
  0
LINE
  8
_0-3_躯体と製品
  6
CONTINUOUS
 62
    3
 10
404.72036048977088
 20
345.3612454464307
 11
406.72036048977088
 21
328.3612454464307
  0
LINE
  8
_0-3_躯体と製品
  6
CONTINUOUS
 62
    3
 10
404.72036048977088
 20
345.3612454464307
 11
404.72036048977088
 21
328.3612454464307
  0
LINE
  8
_0-3_躯体と製品
  6
CONTINUOUS
 62
    3
 10
404.72036048977088
 20
342.07444844643055
 11
401.4335634897709
 21
345.3612454464307
  0
LINE
  8
_0-3_躯体と製品
  6
CONTINUOUS
 62
    3
 10
404.72036048977088
 20
337.83180844643073
 11
399.36848048977095
 21
343.18368844643055
  0
LINE
  8
_0-3_躯体と製品
  6
CONTINUOUS
 62
    3
 10
408.52036048977084
 20
344.3612454464307
 11
408.52036048977084
 21
331.8612454464307
  0
LINE
  8
_0-3_躯体と製品
  6
CONTINUOUS
 62
    3
 10
406.72036048977088
 20
344.8612454464307
 11
406.72036048977088
 21
329.3612454464307
  0
ARC
  8
_0-3_躯体と製品
  6
CONTINUOUS
 62
    3
 10
399.22036048977088
 20
343.66124544643071
 40
0.5
 50
270
 51
0
  0
ARC
  8
_0-3_躯体と製品
  6
CONTINUOUS
 62
    3
 10
397.22036048977088
 20
343.66124544643071
 40
0.5
 50
180
 51
270
  0
LINE
  8
_0-3_躯体と製品
  6
CONTINUOUS
 62
    3
 10
422.72036048977088
 20
331.3612454464307
 11
440.72036048977088
 21
331.3612454464307
  0
LINE
  8
_0-3_躯体と製品
  6
CONTINUOUS
 62
    3
 10
422.72036048977088
 20
332.8612454464307
 11
440.72036048977088
 21
332.8612454464307
  0
LINE
  8
_0-3_躯体と製品
  6
CONTINUOUS
 62
    3
 10
421.72036048977088
 20
329.3612454464307
 11
441.72036048977088
 21
329.3612454464307
  0
LINE
  8
_0-3_躯体と製品
  6
CONTINUOUS
 62
    3
 10
406.72036048977088
 20
329.3612454464307
 11
461.72036048977088
 21
329.3612454464307
  0
LINE
  8
_0-3_躯体と製品
  6
CONTINUOUS
 62
    3
 10
406.72036048977088
 20
328.3612454464307
 11
461.72036048977088
 21
328.3612454464307
  0
LINE
  8
_0-5_文字-記号
  6
CONTINUOUS
 62
    3
 10
431.72036048977088
 20
336.1612454464306
 11
412.78327166037093
 21
303.3612454464307
  0
LINE
  8
_0-3_躯体と製品
  6
CONTINUOUS
 62
    3
 10
434.24166448977098
 20
310.45345444643056
 11
434.34633648977092
 21
308.45619544643057
  0
LINE
  8
_0-3_躯体と製品
  6
CONTINUOUS
 62
    3
 10
429.19905648977078
 20
310.45345444643056
 11
429.09438448977085
 21
308.45619544643057
  0
LINE
  8
_0-3_躯体と製品
  6
CONTINUOUS
 62
    3
 10
436.34359548977091
 20
308.56086644643068
 11
438.03896148977083
 21
313.21884644643058
  0
LINE
  8
_0-3_躯体と製品
  6
CONTINUOUS
 62
    3
 10
435.27941748977082
 20
308.56086644643068
 11
437.09926848977079
 21
313.56086644643068
  0
LINE
  8
_0-3_躯体と製品
  6
CONTINUOUS
 62
    3
 10
427.09712548977086
 20
308.56086644643068
 11
425.40175948977094
 21
313.21884644643058
  0
LINE
  8
_0-3_躯体と製品
  6
CONTINUOUS
 62
    3
 10
428.16130348977094
 20
308.56086644643068
 11
426.34145248977097
 21
313.56086644643068
  0
LINE
  8
_0-3_躯体と製品
  6
CONTINUOUS
 62
    3
 10
433.84277548977093
 20
289.40372944643059
 11
432.22036048977088
 21
320.3612454464307
  0
LINE
  8
_0-3_躯体と製品
  6
CONTINUOUS
 62
    3
 10
429.59794548977084
 20
289.40372944643059
 11
431.22036048977088
 21
320.3612454464307
  0
CIRCLE
  8
_0-5_文字-記号
  6
CONTINUOUS
 62
    3
 10
410.28327166037093
 20
299.0311184275306
 40
5
  0
TEXT
  8
_0-5_文字-記号
 62
    7
 10
408.5377898490608
 20
296.1658087037797
 40
5
 41
0.7999999999999943
 50
0
  1
8
  0
LINE
  8
_0-3_躯体と製品
  6
CONTINUOUS
 62
    3
 10
433.58980448977081
 20
294.23068944643057
 11
431.72036048977088
 21
292.3612454464307
  0
LINE
  8
_0-3_躯体と製品
  6
CONTINUOUS
 62
    3
 10
435.02670348977085
 20
295.47401144643072
 11
435.13137548977079
 21
293.47675244643068
  0
LINE
  8
_0-3_躯体と製品
  6
CONTINUOUS
 62
    3
 10
428.41401748977091
 20
295.47401144643072
 11
428.30934548977098
 21
293.47675244643068
  0
LINE
  8
_0-3_躯体と製品
  6
CONTINUOUS
 62
    3
 10
429.85091648977095
 20
294.23068944643057
 11
431.72036048977088
 21
292.3612454464307
  0
LINE
  8
_0-3_躯体と製品
  6
CONTINUOUS
 62
    3
 10
428.10000148977088
 20
289.4822334464306
 11
429.59794548977084
 21
289.40372944643059
  0
LINE
  8
_0-3_躯体と製品
  6
CONTINUOUS
 62
    3
 10
429.702617489771
 20
291.40098944643057
 11
426.20741448977083
 21
291.58416444643058
  0
LINE
  8
_0-5_文字-記号
  6
CONTINUOUS
 62
    3
 10
427.90267998977083
 20
290.49394694643058
 11
420.89786151277099
 21
278.3612454464307
  0
LINE
  8
_0-3_躯体と製品
  6
CONTINUOUS
 62
    3
 10
426.31208648977099
 20
293.58142344643056
 11
426.20741448977083
 21
291.58416444643058
  0
LINE
  8
_0-3_躯体と製品
  6
CONTINUOUS
 62
    3
 10
428.30934548977098
 20
293.47675244643068
 11
426.31208648977099
 21
293.58142344643056
  0
LINE
  8
_0-3_躯体と製品
  6
CONTINUOUS
 62
    3
 10
426.20741448977083
 20
291.58416444643058
 11
428.10000148977088
 21
289.4822334464306
  0
LINE
  8
_0-3_躯体と製品
  6
CONTINUOUS
 62
    3
 10
437.128634489771
 20
293.58142344643056
 11
437.23330648977094
 21
291.58416444643058
  0
LINE
  8
_0-3_躯体と製品
  6
CONTINUOUS
 62
    3
 10
435.13137548977079
 20
293.47675244643068
 11
437.128634489771
 21
293.58142344643056
  0
LINE
  8
_0-3_躯体と製品
  6
CONTINUOUS
 62
    3
 10
435.34071948977089
 20
289.4822334464306
 11
433.84277548977093
 21
289.40372944643059
  0
LINE
  8
_0-3_躯体と製品
  6
CONTINUOUS
 62
    3
 10
437.23330648977094
 20
291.58416444643058
 11
435.34071948977089
 21
289.4822334464306
  0
LINE
  8
_0-3_躯体と製品
  6
CONTINUOUS
 62
    3
 10
433.73810348977099
 20
291.40098944643057
 11
437.23330648977094
 21
291.58416444643058
  0
LINE
  8
_0-3_躯体と製品
  6
CONTINUOUS
 62
    3
 10
428.83270448977078
 20
303.46304744643055
 11
426.83544548977079
 21
303.56771944643071
  0
LINE
  8
_0-3_躯体と製品
  6
CONTINUOUS
 62
    3
 10
426.99245348977092
 20
306.56360744643069
 11
428.93737648977094
 21
305.46030644643065
  0
LINE
  8
_0-3_躯体と製品
  6
CONTINUOUS
 62
    3
 10
429.09438448977085
 20
308.45619544643057
 11
427.09712548977086
 21
308.56086644643068
  0
LINE
  8
_0-3_躯体と製品
  6
CONTINUOUS
 62
    3
 10
426.4690944897709
 20
296.5773124464306
 11
428.41401748977091
 21
295.47401144643072
  0
LINE
  8
_0-3_躯体と製品
  6
CONTINUOUS
 62
    3
 10
426.57376648977083
 20
298.57457144643058
 11
426.4690944897709
 21
296.5773124464306
  0
LINE
  8
_0-3_躯体と製品
  6
CONTINUOUS
 62
    3
 10
428.57102548977082
 20
298.4698994464307
 11
426.57376648977083
 21
298.57457144643058
  0
LINE
  8
_0-3_躯体と製品
  6
CONTINUOUS
 62
    3
 10
428.67569748977098
 20
300.46715844643069
 11
428.57102548977082
 21
298.4698994464307
  0
LINE
  8
_0-3_躯体と製品
  6
CONTINUOUS
 62
    3
 10
426.73077348977085
 20
301.57046044643073
 11
428.67569748977098
 21
300.46715844643069
  0
LINE
  8
_0-3_躯体と製品
  6
CONTINUOUS
 62
    3
 10
426.83544548977079
 20
303.56771944643071
 11
426.73077348977085
 21
301.57046044643073
  0
LINE
  8
_0-3_躯体と製品
  6
CONTINUOUS
 62
    3
 10
427.09712548977086
 20
308.56086644643068
 11
426.99245348977092
 21
306.56360744643069
  0
LINE
  8
_0-3_躯体と製品
  6
CONTINUOUS
 62
    3
 10
436.97162648977087
 20
296.5773124464306
 11
435.02670348977085
 21
295.47401144643072
  0
LINE
  8
_0-3_躯体と製品
  6
CONTINUOUS
 62
    3
 10
436.86695448977093
 20
298.57457144643058
 11
436.97162648977087
 21
296.5773124464306
  0
LINE
  8
_0-3_躯体と製品
  6
CONTINUOUS
 62
    3
 10
434.86969548977095
 20
298.4698994464307
 11
436.86695448977093
 21
298.57457144643058
  0
LINE
  8
_0-3_躯体と製品
  6
CONTINUOUS
 62
    3
 10
434.76502348977078
 20
300.46715844643069
 11
434.86969548977095
 21
298.4698994464307
  0
LINE
  8
_0-3_躯体と製品
  6
CONTINUOUS
 62
    3
 10
436.70994748977091
 20
301.57046044643073
 11
434.76502348977078
 21
300.46715844643069
  0
LINE
  8
_0-3_躯体と製品
  6
CONTINUOUS
 62
    3
 10
436.60527548977097
 20
303.56771944643071
 11
436.70994748977091
 21
301.57046044643073
  0
LINE
  8
_0-3_躯体と製品
  6
CONTINUOUS
 62
    3
 10
434.60801648977099
 20
303.46304744643055
 11
436.60527548977097
 21
303.56771944643071
  0
LINE
  8
_0-3_躯体と製品
  6
CONTINUOUS
 62
    3
 10
434.50334448977083
 20
305.46030644643065
 11
434.60801648977099
 21
303.46304744643055
  0
LINE
  8
_0-3_躯体と製品
  6
CONTINUOUS
 62
    3
 10
436.44826748977084
 20
306.56360744643069
 11
434.50334448977083
 21
305.46030644643065
  0
LINE
  8
_0-3_躯体と製品
  6
CONTINUOUS
 62
    3
 10
436.34359548977091
 20
308.56086644643068
 11
436.44826748977084
 21
306.56360744643069
  0
LINE
  8
_0-3_躯体と製品
  6
CONTINUOUS
 62
    3
 10
434.34633648977092
 20
308.45619544643057
 11
436.34359548977091
 21
308.56086644643068
  0
LINE
  8
_0-3_躯体と製品
  6
CONTINUOUS
 62
    3
 10
428.93737648977094
 20
305.46030644643065
 11
428.83270448977078
 21
303.46304744643055
  0
LINE
  8
_0-3_躯体と製品
  6
CONTINUOUS
 62
    3
 10
408.22036048977088
 20
329.8612454464307
 11
421.72036048977088
 21
329.8612454464307
  0
LINE
  8
_0-3_躯体と製品
  6
CONTINUOUS
 62
    3
 10
431.42036048977093
 20
331.3612454464307
 11
409.02036048977084
 21
331.3612454464307
  0
LINE
  8
_0-3_躯体と製品
  6
CONTINUOUS
 62
    3
 10
401.46300148977093
 20
328.3612454464307
 11
404.72036048977088
 21
331.6186044464306
  0
LINE
  8
_0-3_躯体と製品
  6
CONTINUOUS
 62
    3
 10
397.22395948977078
 20
328.3612454464307
 11
404.72036048977088
 21
335.85758344643057
  0
LINE
  8
_0-3_躯体と製品
  6
CONTINUOUS
 62
    3
 10
398.10773848977078
 20
333.49126444643059
 11
404.72036048977088
 21
340.10388644643058
  0
ARC
  8
_0-3_躯体と製品
  6
CONTINUOUS
 62
    3
 10
367.68911048977088
 20
336.1112454464307
 40
30.53125
 50
345.29524100000032
 51
13.350709000000929
  0
LINE
  8
_0-3_躯体と製品
  6
CONTINUOUS
 62
    3
 10
404.72036048977088
 20
333.58916744643057
 11
397.9189754897709
 21
340.3905524464306
  0
LINE
  8
_0-3_躯体と製品
  6
CONTINUOUS
 62
    3
 10
401.46300148977093
 20
328.3612454464307
 11
397.92800848977095
 21
331.89623844643069
  0
LINE
  8
_0-3_躯体と製品
  6
CONTINUOUS
 62
    3
 10
404.72036048977088
 20
329.34652644643069
 11
398.2192224897708
 21
335.84766444643071
  0
LINE
  8
_0-3_躯体と製品
  6
CONTINUOUS
 62
    3
 10
397.22036048977088
 20
343.1612454464306
 11
399.22036048977088
 21
343.1612454464306
  0
LINE
  8
_0-3_躯体と製品
  6
CONTINUOUS
 62
    3
 10
414.32036048977079
 20
341.85383844643059
 11
415.05369348976978
 21
341.43044744643061
  0
LINE
  8
_0-3_躯体と製品
  6
CONTINUOUS
 62
    3
 10
415.05369348976978
 20
341.43044744643061
 11
414.32036048977079
 21
341.00705744643068
  0
LINE
  8
_0-3_躯体と製品
  6
CONTINUOUS
 62
    3
 10
412.72036048977088
 20
340.9600774464306
 11
415.05369348976978
 21
341.43044744643061
  0
LINE
  8
_0-3_躯体と製品
  6
CONTINUOUS
 62
    3
 10
410.38702748977084
 20
342.37118844643061
 11
411.12036048977097
 21
342.79457844643059
  0
LINE
  8
_0-3_躯体と製品
  6
CONTINUOUS
 62
    3
 10
410.38702748977084
 20
342.37118844643061
 11
411.12036048977097
 21
341.94779844643068
  0
LINE
  8
_0-3_躯体と製品
  6
CONTINUOUS
 62
    3
 10
411.12036048977097
 20
341.94779844643068
 11
414.32036048977079
 21
342.88853944643068
  0
ARC
  8
_0-3_躯体と製品
  6
CONTINUOUS
 62
    3
 10
418.7527724897709
 20
336.33572944643072
 40
6.0552590000000013
 50
137.053799999999
 51
175.02122199999897
  0
ARC
  8
_0-3_躯体と製品
  6
CONTINUOUS
 62
    3
 10
412.74541848977083
 20
335.09657544643068
 40
1.7648479999999993
 50
90.813543000003293
 51
157.04087499999963
  0
LINE
  8
_0-3_躯体と製品
  6
CONTINUOUS
 62
    3
 10
412.72036048977088
 20
334.8612454464307
 11
414.32036048977079
 21
335.7850054464306
  0
LINE
  8
_0-3_躯体と製品
  6
CONTINUOUS
 62
    3
 10
412.72036048977088
 20
334.8612454464307
 11
411.12036148977086
 21
335.7850054464306
  0
LINE
  8
_0-3_躯体と製品
  6
CONTINUOUS
 62
    3
 10
414.32036048977079
 20
340.46124544643055
 11
411.12037548977082
 21
340.46124544643055
  0
LINE
  8
_0-3_躯体と製品
  6
CONTINUOUS
 62
    3
 10
412.72036048977088
 20
336.89748644643061
 11
412.72036048977088
 21
334.8612454464307
  0
LINE
  8
_0-3_躯体と製品
  6
CONTINUOUS
 62
    3
 10
414.32036048977079
 20
341.00705744643068
 11
414.32036048977079
 21
335.7850054464306
  0
LINE
  8
_0-3_躯体と製品
  6
CONTINUOUS
 62
    3
 10
414.32036048977079
 20
342.88853944643068
 11
414.32036048977079
 21
341.85383844643059
  0
LINE
  8
_0-3_躯体と製品
  6
CONTINUOUS
 62
    3
 10
411.12036048977097
 20
341.94779844643068
 11
411.12036048977097
 21
335.7850054464306
  0
LINE
  8
_0-3_躯体と製品
  6
CONTINUOUS
 62
    3
 10
412.72036048977088
 20
340.9600774464306
 11
414.32036048977079
 21
341.85383844643059
  0
LINE
  8
_0-3_躯体と製品
  6
CONTINUOUS
 62
    3
 10
412.72036048977088
 20
340.9600774464306
 11
414.32036048977079
 21
341.00705744643068
  0
LINE
  8
_0-3_躯体と製品
  6
CONTINUOUS
 62
    3
 10
408.22036048977088
 20
329.8612454464307
 11
408.22036048977088
 21
329.3612454464307
  0
LINE
  8
_0-3_躯体と製品
  6
CONTINUOUS
 62
    3
 10
406.72036048977088
 20
329.3612454464307
 11
408.22036048977088
 21
329.3612454464307
  0
ARC
  8
_0-3_躯体と製品
  6
CONTINUOUS
 62
    3
 10
409.02036048977084
 20
331.8612454464307
 40
0.5
 50
180
 51
270
  0
LINE
  8
_0-3_躯体と製品
  6
CONTINUOUS
 62
    3
 10
406.72036048977088
 20
329.3612454464307
 11
406.72036048977088
 21
328.3612454464307
  0
LINE
  8
_0-3_躯体と製品
  6
CONTINUOUS
 62
    3
 10
436.72036048977088
 20
328.3612454464307
 11
435.72036048977088
 21
323.3612454464307
  0
LINE
  8
_0-3_躯体と製品
  6
CONTINUOUS
 62
    3
 10
435.72036048977088
 20
328.3612454464307
 11
435.72036048977088
 21
320.3612454464307
  0
LINE
  8
_0-3_躯体と製品
  6
CONTINUOUS
 62
    3
 10
431.72036048977088
 20
323.3612454464307
 11
431.72036048977088
 21
328.3612454464307
  0
LINE
  8
_0-3_躯体と製品
  6
CONTINUOUS
 62
    3
 10
432.72036048977088
 20
328.3612454464307
 11
431.72036048977088
 21
323.3612454464307
  0
LINE
  8
_0-3_躯体と製品
  6
CONTINUOUS
 62
    3
 10
430.72036048977088
 20
328.3612454464307
 11
431.72036048977088
 21
323.3612454464307
  0
LINE
  8
_0-3_躯体と製品
  6
CONTINUOUS
 62
    3
 10
426.72036048977088
 20
328.3612454464307
 11
427.72036048977088
 21
323.3612454464307
  0
LINE
  8
_0-3_躯体と製品
  6
CONTINUOUS
 62
    3
 10
427.72036048977088
 20
328.3612454464307
 11
427.72036048977088
 21
320.3612454464307
  0
LINE
  8
_0-3_躯体と製品
  6
CONTINUOUS
 62
    3
 10
427.25413348977099
 20
311.5567554464306
 11
429.19905648977078
 21
310.45345444643056
  0
LINE
  8
_0-3_躯体と製品
  6
CONTINUOUS
 62
    3
 10
429.35606448977092
 20
313.44934244643059
 11
427.35880548977093
 21
313.5540144464307
  0
LINE
  8
_0-3_躯体と製品
  6
CONTINUOUS
 62
    3
 10
427.72036048977088
 20
316.3612454464307
 11
429.46073648977085
 21
315.44660144643058
  0
LINE
  8
_0-3_躯体と製品
  6
CONTINUOUS
 62
    3
 10
427.35880548977093
 20
313.5540144464307
 11
427.25413348977099
 21
311.5567554464306
  0
LINE
  8
_0-3_躯体と製品
  6
CONTINUOUS
 62
    3
 10
427.72036048977088
 20
316.3612454464307
 11
427.72036048977088
 21
320.3612454464307
  0
LINE
  8
_0-3_躯体と製品
  6
CONTINUOUS
 62
    3
 10
425.39802048977094
 20
320.16488744643061
 11
426.34145248977097
 21
313.56086644643068
  0
ARC
  8
_0-3_躯体と製品
  6
CONTINUOUS
 62
    3
 10
425.00204148977082
 20
320.1083184464307
 40
0.4
 50
8.1301019999918065
 51
98.130102000024053
  0
LINE
  8
_0-3_躯体と製品
  6
CONTINUOUS
 62
    3
 10
424.74864748977097
 20
320.47618044643059
 11
424.94547248977096
 21
320.50429844643065
  0
ARC
  8
_0-3_躯体と製品
  6
CONTINUOUS
 62
    3
 10
424.80521648977083
 20
320.08020044643058
 40
0.4
 50
98.130102000024053
 51
188.29846599999979
  0
LINE
  8
_0-3_躯体と製品
  6
CONTINUOUS
 62
    3
 10
425.40175948977094
 20
313.21884644643058
 11
424.40940448977085
 21
320.02246844643059
  0
LINE
  8
_0-3_躯体と製品
  6
CONTINUOUS
 62
    3
 10
432.22036048977088
 20
320.3612454464307
 11
431.72036048977088
 21
320.3612454464307
  0
LINE
  8
_0-3_躯体と製品
  6
CONTINUOUS
 62
    3
 10
431.22036048977088
 20
320.3612454464307
 11
431.72036048977088
 21
320.3612454464307
  0
LINE
  8
_0-3_躯体と製品
  6
CONTINUOUS
 62
    3
 10
436.186587489771
 20
311.5567554464306
 11
434.24166448977098
 21
310.45345444643056
  0
LINE
  8
_0-3_躯体と製品
  6
CONTINUOUS
 62
    3
 10
436.08191548977084
 20
313.5540144464307
 11
436.186587489771
 21
311.5567554464306
  0
LINE
  8
_0-3_躯体と製品
  6
CONTINUOUS
 62
    3
 10
434.08465648977085
 20
313.44934244643059
 11
436.08191548977084
 21
313.5540144464307
  0
LINE
  8
_0-3_躯体と製品
  6
CONTINUOUS
 62
    3
 10
433.97998448977091
 20
315.44660144643058
 11
434.08465648977085
 21
313.44934244643059
  0
LINE
  8
_0-3_躯体と製品
  6
CONTINUOUS
 62
    3
 10
435.72036048977088
 20
316.3612454464307
 11
433.97998448977091
 21
315.44660144643058
  0
LINE
  8
_0-3_躯体と製品
  6
CONTINUOUS
 62
    3
 10
429.46073648977085
 20
315.44660144643058
 11
429.35606448977092
 21
313.44934244643059
  0
LINE
  8
_0-3_躯体と製品
  6
CONTINUOUS
 62
    3
 10
435.72036048977088
 20
316.3612454464307
 11
435.72036048977088
 21
320.3612454464307
  0
LINE
  8
_0-3_躯体と製品
  6
CONTINUOUS
 62
    3
 10
438.04270048977082
 20
320.16488744643061
 11
437.09926848977079
 21
313.56086644643068
  0
ARC
  8
_0-3_躯体と製品
  6
CONTINUOUS
 62
    3
 10
438.43868048977083
 20
320.1083184464307
 40
0.4
 50
81.869898000015098
 51
171.86989799999853
  0
LINE
  8
_0-3_躯体と製品
  6
CONTINUOUS
 62
    3
 10
438.69207348977079
 20
320.47618044643059
 11
438.4952484897708
 21
320.50429844643065
  0
ARC
  8
_0-3_躯体と製品
  6
CONTINUOUS
 62
    3
 10
438.63550448977094
 20
320.08020044643058
 40
0.4
 50
351.7015339999968
 51
81.869898000015112
  0
LINE
  8
_0-3_躯体と製品
  6
CONTINUOUS
 62
    3
 10
438.03896148977083
 20
313.21884644643058
 11
439.03131648977092
 21
320.02246844643059
  0
LINE
  8
_0-3_躯体と製品
  6
CONTINUOUS
 62
    3
 10
438.04270048977082
 20
320.16488744643061
 11
437.09926848977079
 21
313.56086644643068
  0
ARC
  8
_0-3_躯体と製品
  6
CONTINUOUS
 62
    3
 10
438.43868048977083
 20
320.1083184464307
 40
0.4
 50
81.869898000015098
 51
171.86989799999853
  0
LINE
  8
_0-3_躯体と製品
  6
CONTINUOUS
 62
    3
 10
438.69207348977079
 20
320.47618044643059
 11
438.4952484897708
 21
320.50429844643065
  0
ARC
  8
_0-3_躯体と製品
  6
CONTINUOUS
 62
    3
 10
438.63550448977094
 20
320.08020044643058
 40
0.4
 50
351.7015339999968
 51
81.869898000015112
  0
LINE
  8
_0-3_躯体と製品
  6
CONTINUOUS
 62
    3
 10
438.03896148977083
 20
313.21884644643058
 11
439.03131648977092
 21
320.02246844643059
  0
ARC
  8
_0-3_躯体と製品
  6
CONTINUOUS
 62
    3
 10
431.72036048977088
 20
324.16124544643071
 40
12
 50
74.506032000000928
 51
105.493967999999
  0
LINE
  8
_0-3_躯体と製品
  6
CONTINUOUS
 62
    3
 10
426.72036048977088
 20
328.3612454464307
 11
436.72036048977088
 21
328.3612454464307
  0
LINE
  8
_0-3_躯体と製品
  6
CONTINUOUS
 62
    3
 10
422.72036048977088
 20
332.8612454464307
 11
422.72036048977088
 21
331.3612454464307
  0
ARC
  8
_0-3_躯体と製品
  6
CONTINUOUS
 62
    3
 10
428.94213648977097
 20
334.18329444643069
 40
1.6000000000000001
 50
105.493967999999
 51
175.00000000000051
  0
LINE
  8
_0-3_躯体と製品
  6
CONTINUOUS
 62
    3
 10
427.34822548977081
 20
334.3227444464307
 11
427.22036048977088
 21
332.8612454464307
  0
LINE
  8
_0-3_躯体と製品
  6
CONTINUOUS
 62
    3
 10
421.72036048977088
 20
329.8612454464307
 11
421.72036048977088
 21
329.3612454464307
  0
ARC
  8
_0-3_躯体と製品
  6
CONTINUOUS
 62
    3
 10
434.49858448977079
 20
334.18329444643069
 40
1.6000000000000001
 50
5.0000000000059481
 51
74.506032000000914
  0
LINE
  8
_0-3_躯体と製品
  6
CONTINUOUS
 62
    3
 10
436.09249548977095
 20
334.3227444464307
 11
436.22036048977088
 21
332.8612454464307
  0
LINE
  8
_0-3_躯体と製品
  6
CONTINUOUS
 62
    3
 10
431.72036048977088
 20
331.06124544643058
 11
432.02036048977084
 21
331.3612454464307
  0
LINE
  8
_0-3_躯体と製品
  6
CONTINUOUS
 62
    3
 10
431.72036048977088
 20
331.06124544643058
 11
431.42036048977093
 21
331.3612454464307
  0
TEXT
  8
_0-5_文字-記号
 62
    7
 10
452.44875834800087
 20
304.75708514922462
 40
5
 41
0.7999999999999943
 50
0
  1
9
  0
CIRCLE
  8
_0-5_文字-記号
  6
CONTINUOUS
 62
    3
 10
454.045678037171
 20
309.03111842753071
 40
5
  0
LINE
  8
_0-3_躯体と製品
  6
CONTINUOUS
 62
    3
 10
459.22036048977088
 20
329.8612454464307
 11
482.72036048977088
 21
329.8612454464307
  0
LINE
  8
_0-5_文字-記号
  6
CONTINUOUS
 62
    3
 10
440.72036048977088
 20
332.1112454464307
 11
451.545678037171
 21
313.3612454464307
  0
LINE
  8
_0-3_躯体と製品
  6
CONTINUOUS
 62
    3
 10
441.72036048977088
 20
329.8612454464307
 11
457.72036048977088
 21
329.8612454464307
  0
LINE
  8
_0-3_躯体と製品
  6
CONTINUOUS
 62
    3
 10
440.72036048977088
 20
332.8612454464307
 11
440.72036048977088
 21
331.3612454464307
  0
LINE
  8
_0-3_躯体と製品
  6
CONTINUOUS
 62
    3
 10
441.72036048977088
 20
329.8612454464307
 11
441.72036048977088
 21
329.3612454464307
  0
LINE
  8
_0-3_躯体と製品
  6
CONTINUOUS
 62
    3
 10
457.72036048977088
 20
329.3612454464307
 11
459.22036048977088
 21
329.3612454464307
  0
LINE
  8
_0-3_躯体と製品
  6
CONTINUOUS
 62
    3
 10
459.22036048977088
 20
329.8612454464307
 11
459.22036048977088
 21
329.3612454464307
  0
LINE
  8
_0-3_躯体と製品
  6
CONTINUOUS
 62
    3
 10
457.72036048977088
 20
329.8612454464307
 11
457.72036048977088
 21
329.3612454464307
  0
ARC
  8
_0-3_躯体と製品
  6
CONTINUOUS
 62
    3
 10
457.72036048977088
 20
340.96124544643055
 40
1
 50
90
 51
180
  0
LINE
  8
_0-3_躯体と製品
  6
CONTINUOUS
 62
    3
 10
456.72036048977088
 20
338.1112454464307
 11
456.72036048977088
 21
340.96124544643055
  0
ARC
  8
_0-3_躯体と製品
  6
CONTINUOUS
 62
    3
 10
458.72036048977088
 20
339.8612454464307
 40
0.5
 50
90
 51
180
  0
LINE
  8
_0-3_躯体と製品
  6
CONTINUOUS
 62
    3
 10
458.22036048977088
 20
338.1112454464307
 11
458.22036048977088
 21
339.8612454464307
  0
ARC
  8
_0-3_躯体と製品
  6
CONTINUOUS
 62
    3
 10
457.47036048977088
 20
338.1112454464307
 40
0.75
 50
180
 51
0
  0
LINE
  8
_0-3_躯体と製品
  6
CONTINUOUS
 62
    3
 10
482.72036048977088
 20
329.3612454464307
 11
484.22036048977088
 21
329.3612454464307
  0
LINE
  8
_0-3_躯体と製品
  6
CONTINUOUS
 62
    3
 10
484.22036048977088
 20
329.8612454464307
 11
484.22036048977088
 21
329.3612454464307
  0
LINE
  8
_0-3_躯体と製品
  6
CONTINUOUS
 62
    3
 10
482.72036048977088
 20
329.8612454464307
 11
482.72036048977088
 21
329.3612454464307
  0
LINE
  8
_0-5_文字-記号
  6
CONTINUOUS
 62
    3
 10
439.72036048977088
 20
348.3612454464307
 11
454.15411721957094
 21
373.3612454464307
  0
TEXT
  8
_0-5_文字-記号
 62
    7
 10
419.0382388379378
 20
368.71436535420287
 40
5
 41
0.800000000000003
 50
0
  1
10
  0
CIRCLE
  8
_0-5_文字-記号
  6
CONTINUOUS
 62
    3
 10
423.59193939307079
 20
372.69137246533057
 40
5
  0
LINE
  8
_0-5_文字-記号
  6
CONTINUOUS
 62
    3
 10
412.72036048977088
 20
353.8612454464307
 11
421.09193939307079
 21
368.3612454464307
  0
ARC
  8
_0-3_躯体と製品
  6
CONTINUOUS
 62
    3
 10
417.01844348977079
 20
348.86139144643073
 40
2
 50
55.000000000002629
 51
90
  0
LINE
  8
_0-3_躯体と製品
  6
CONTINUOUS
 62
    3
 10
406.72036048977088
 20
349.3612454464307
 11
418.72036048977088
 21
349.3612454464307
  0
LINE
  8
_0-3_躯体と製品
  6
CONTINUOUS
 62
    3
 10
406.72036048977088
 20
350.1112454464307
 11
418.72036048977088
 21
350.1112454464307
  0
LINE
  8
_0-3_躯体と製品
  6
CONTINUOUS
 62
    3
 10
398.97036048977088
 20
346.8612454464307
 11
418.72036048977088
 21
346.8612454464307
  0
LINE
  8
_0-3_躯体と製品
  6
CONTINUOUS
 62
    3
 10
417.72036048977088
 20
344.8612454464307
 11
409.02036048977084
 21
344.8612454464307
  0
LINE
  8
_0-3_躯体と製品
  6
CONTINUOUS
 62
    3
 10
398.97036048977088
 20
345.3612454464307
 11
406.22036048977088
 21
345.3612454464307
  0
LINE
  8
_0-3_躯体と製品
  6
CONTINUOUS
 62
    3
 10
398.97036048977088
 20
346.8612454464307
 11
412.42036048977093
 21
346.8612454464307
  0
LINE
  8
_0-3_躯体と製品
  6
CONTINUOUS
 62
    3
 10
412.42036048977093
 20
346.8612454464307
 11
398.52036048977084
 21
346.8612454464307
  0
LINE
  8
_0-3_躯体と製品
  6
CONTINUOUS
 62
    3
 10
399.71420148977086
 20
343.5830084464306
 11
401.49243848977085
 21
345.3612454464307
  0
ARC
  8
_0-3_躯体と製品
  6
CONTINUOUS
 62
    3
 10
398.97036048977088
 20
346.1112454464307
 40
0.75
 50
90
 51
270
  0
ARC
  8
_0-3_躯体と製品
  6
CONTINUOUS
 62
    3
 10
397.22036048977088
 20
347.8612454464307
 40
0.5
 50
90
 51
180
  0
LINE
  8
_0-3_躯体と製品
  6
CONTINUOUS
 62
    3
 10
398.22036048977088
 20
344.66124544643066
 11
398.22036048977088
 21
346.56124544643058
  0
ARC
  8
_0-3_躯体と製品
  6
CONTINUOUS
 62
    3
 10
398.52036048977084
 20
344.66124544643066
 40
0.2999999999999998
 50
180
 51
270
  0
LINE
  8
_0-3_躯体と製品
  6
CONTINUOUS
 62
    3
 10
399.42036048977093
 20
344.3612454464307
 11
398.52036048977084
 21
344.3612454464307
  0
ARC
  8
_0-3_躯体と製品
  6
CONTINUOUS
 62
    3
 10
399.42036048977093
 20
344.06124544643063
 40
0.2999999999999998
 50
0
 51
90
  0
LINE
  8
_0-3_躯体と製品
  6
CONTINUOUS
 62
    3
 10
399.72036048977088
 20
343.66124544643071
 11
399.72036048977088
 21
344.06124544643063
  0
LINE
  8
_0-3_躯体と製品
  6
CONTINUOUS
 62
    3
 10
396.72036048977088
 20
347.8612454464307
 11
396.72036048977088
 21
343.66124544643071
  0
ARC
  8
_0-3_躯体と製品
  6
CONTINUOUS
 62
    3
 10
398.52036048977084
 20
346.56124544643058
 40
0.2999999999999998
 50
90
 51
180
  0
LINE
  8
_0-3_躯体と製品
  6
CONTINUOUS
 62
    3
 10
415.05369348976978
 20
345.19341044643062
 11
414.47836682657089
 21
344.8612454464307
  0
LINE
  8
_0-3_躯体と製品
  6
CONTINUOUS
 62
    3
 10
413.40594478997082
 20
344.8612454464307
 11
415.05369348976978
 21
345.19341044643062
  0
LINE
  8
_0-3_躯体と製品
  6
CONTINUOUS
 62
    3
 10
411.75028094617096
 20
344.8612454464307
 11
414.32036048977079
 21
345.61680144643071
  0
LINE
  8
_0-3_躯体と製品
  6
CONTINUOUS
 62
    3
 10
411.12036048977097
 20
345.71076144643069
 11
411.12036048977097
 21
344.8612454464307
  0
LINE
  8
_0-3_躯体と製品
  6
CONTINUOUS
 62
    3
 10
410.98564548977083
 20
348.3612454464307
 11
410.38702748977084
 21
348.01563344643063
  0
LINE
  8
_0-3_躯体と製品
  6
CONTINUOUS
 62
    3
 10
410.38702748977084
 20
348.01563344643063
 11
411.12036048977097
 21
347.5922424464307
  0
LINE
  8
_0-3_躯体と製品
  6
CONTINUOUS
 62
    3
 10
412.10148248977089
 20
348.3612454464307
 11
410.38702748977084
 21
348.01563344643063
  0
LINE
  8
_0-3_躯体と製品
  6
CONTINUOUS
 62
    3
 10
413.73618048977096
 20
348.3612454464307
 11
411.12036048977097
 21
347.5922424464307
  0
LINE
  8
_0-3_躯体と製品
  6
CONTINUOUS
 62
    3
 10
414.32036048977079
 20
347.49828244643061
 11
415.05369348976978
 21
347.07489244643062
  0
LINE
  8
_0-3_躯体と製品
  6
CONTINUOUS
 62
    3
 10
415.05369348976978
 20
347.07489244643062
 11
414.32036048977079
 21
346.6515024464307
  0
LINE
  8
_0-3_躯体と製品
  6
CONTINUOUS
 62
    3
 10
410.38702748977084
 20
346.13415144643062
 11
411.12036048977097
 21
346.5575414464306
  0
LINE
  8
_0-3_躯体と製品
  6
CONTINUOUS
 62
    3
 10
410.38702748977084
 20
346.13415144643062
 11
411.12036048977097
 21
345.71076144643069
  0
LINE
  8
_0-3_躯体と製品
  6
CONTINUOUS
 62
    3
 10
410.38702748977084
 20
346.13415144643062
 11
415.05369348976978
 21
347.07489244643062
  0
LINE
  8
_0-3_躯体と製品
  6
CONTINUOUS
 62
    3
 10
411.12036048977097
 20
346.5575414464306
 11
414.32036048977079
 21
347.49828244643061
  0
LINE
  8
_0-3_躯体と製品
  6
CONTINUOUS
 62
    3
 10
411.12036048977097
 20
345.71076144643069
 11
414.32036048977079
 21
346.6515024464307
  0
LINE
  8
_0-3_躯体と製品
  6
CONTINUOUS
 62
    3
 10
414.32036048977079
 20
348.3612454464307
 11
414.32036048977079
 21
347.49828244643061
  0
LINE
  8
_0-3_躯体と製品
  6
CONTINUOUS
 62
    3
 10
411.12036048977097
 20
347.5922424464307
 11
411.12036048977097
 21
346.5575414464306
  0
LINE
  8
_0-3_躯体と製品
  6
CONTINUOUS
 62
    3
 10
414.32036048977079
 20
345.61680144643071
 11
415.05369348976978
 21
345.19341044643062
  0
LINE
  8
_0-3_躯体と製品
  6
CONTINUOUS
 62
    3
 10
414.32036048977079
 20
345.61680144643071
 11
414.32036048977079
 21
346.6515024464307
  0
LINE
  8
_0-3_躯体と製品
  6
CONTINUOUS
 62
    3
 10
414.47836682657089
 20
344.8612454464307
 11
414.32036048977079
 21
344.77002044643069
  0
LINE
  8
_0-3_躯体と製品
  6
CONTINUOUS
 62
    3
 10
410.38702748977084
 20
344.25267044643061
 11
413.40594478997082
 21
344.8612454464307
  0
LINE
  8
_0-3_躯体と製品
  6
CONTINUOUS
 62
    3
 10
411.12036048977097
 20
344.6760604464306
 11
411.75028094617096
 21
344.8612454464307
  0
LINE
  8
_0-3_躯体と製品
  6
CONTINUOUS
 62
    3
 10
411.12036048977097
 20
344.8612454464307
 11
411.12036048977097
 21
344.6760604464306
  0
LINE
  8
_0-3_躯体と製品
  6
CONTINUOUS
 62
    3
 10
414.32036048977079
 20
343.73531944643059
 11
415.05369348976978
 21
343.31192944643061
  0
LINE
  8
_0-3_躯体と製品
  6
CONTINUOUS
 62
    3
 10
416.72036048977088
 20
351.88160244643069
 11
416.72036048977088
 21
350.8612454464307
  0
LINE
  8
_0-3_躯体と製品
  6
CONTINUOUS
 62
    3
 10
408.42208048977091
 20
350.86125344643068
 11
417.01844348977079
 21
350.86139144643073
  0
LINE
  8
_0-3_躯体と製品
  6
CONTINUOUS
 62
    3
 10
408.72036048977088
 20
351.88160244643069
 11
408.72036048977088
 21
350.8612454464307
  0
LINE
  8
_0-3_躯体と製品
  6
CONTINUOUS
 62
    3
 10
410.38702748977084
 20
344.25267044643061
 11
411.12036048977097
 21
344.6760604464306
  0
LINE
  8
_0-3_躯体と製品
  6
CONTINUOUS
 62
    3
 10
410.38702748977084
 20
344.25267044643061
 11
411.12036048977097
 21
343.82927944643069
  0
LINE
  8
_0-3_躯体と製品
  6
CONTINUOUS
 62
    3
 10
411.12036048977097
 20
343.82927944643069
 11
414.32036048977079
 21
344.77002044643069
  0
LINE
  8
_0-3_躯体と製品
  6
CONTINUOUS
 62
    3
 10
414.32036048977079
 20
344.77002044643069
 11
414.32036048977079
 21
343.73531944643059
  0
LINE
  8
_0-3_躯体と製品
  6
CONTINUOUS
 62
    3
 10
407.72036048977088
 20
349.3612454464307
 11
407.72036048977088
 21
348.3612454464307
  0
LINE
  8
_0-3_躯体と製品
  6
CONTINUOUS
 62
    3
 10
406.72036048977088
 20
350.1112454464307
 11
407.27492748977079
 21
350.49955744643057
  0
ARC
  8
_0-3_躯体と製品
  6
CONTINUOUS
 62
    3
 10
408.42208048977091
 20
348.86125344643068
 40
2
 50
90
 51
124.99999999999731
  0
LINE
  8
_0-3_躯体と製品
  6
CONTINUOUS
 62
    3
 10
406.72036048977088
 20
350.1112454464307
 11
406.72036048977088
 21
349.3612454464307
  0
ARC
  8
_0-3_躯体と製品
  6
CONTINUOUS
 62
    3
 10
409.72036048977088
 20
351.88160244643069
 40
1
 50
126.16864199999851
 51
180
  0
ARC
  8
_0-3_躯体と製品
  6
CONTINUOUS
 62
    3
 10
415.72036048977088
 20
351.88160244643069
 40
1
 50
0
 51
53.83135800000148
  0
ARC
  8
_0-3_躯体と製品
  6
CONTINUOUS
 62
    3
 10
412.72036048977088
 20
347.77791244643061
 40
6.0833329999999988
 50
53.83135800000148
 51
126.16864199999851
  0
ARC
  8
_0-3_躯体と製品
  6
CONTINUOUS
 62
    3
 10
409.02036048977084
 20
344.3612454464307
 40
0.5
 50
90
 51
180
  0
ARC
  8
_0-3_躯体と製品
  6
CONTINUOUS
 62
    3
 10
406.22036048977088
 20
344.8612454464307
 40
0.5
 50
0
 51
90
  0
LINE
  8
_0-3_躯体と製品
  6
CONTINUOUS
 62
    3
 10
412.72036048977088
 20
347.1612454464306
 11
413.02036048977084
 21
346.8612454464307
  0
LINE
  8
_0-3_躯体と製品
  6
CONTINUOUS
 62
    3
 10
412.72036048977088
 20
347.1612454464306
 11
412.42036048977093
 21
346.8612454464307
  0
LINE
  8
_0-3_躯体と製品
  6
CONTINUOUS
 62
    3
 10
418.72036048977088
 20
350.1112454464307
 11
418.16559648977091
 21
350.49969544643056
  0
LINE
  8
_0-3_躯体と製品
  6
CONTINUOUS
 62
    3
 10
417.72036048977088
 20
349.3612454464307
 11
417.72036048977088
 21
348.3612454464307
  0
LINE
  8
_0-3_躯体と製品
  6
CONTINUOUS
 62
    3
 10
418.72036048977088
 20
350.1112454464307
 11
418.72036048977088
 21
349.3612454464307
  0
LINE
  8
_0-3_躯体と製品
  6
CONTINUOUS
 62
    3
 10
418.72036048977088
 20
346.8612454464307
 11
418.72036048977088
 21
345.8612454464307
  0
ARC
  8
_0-3_躯体と製品
  6
CONTINUOUS
 62
    3
 10
417.72036048977088
 20
345.8612454464307
 40
1
 50
270
 51
0
  0
TEXT
  8
_0-5_文字-記号
 62
    7
 10
454.35793089143294
 20
373.48729671278346
 40
5.0000000000000284
 41
0.8000000000000012
 50
0
  1
1
  0
CIRCLE
  8
_0-5_文字-記号
  6
CONTINUOUS
 62
    3
 10
456.65411721957094
 20
377.69137246533063
 40
5
  0
LINE
  8
_0-3_躯体と製品
  6
PLINE12
 62
    3
 10
497.01925520517079
 20
349.6112454464307
 11
497.01925520517079
 21
338.3612454464307
  0
LINE
  8
_0-5_文字-記号
  6
CONTINUOUS
 62
    3
 10
563.82036048977079
 20
341.96124544643055
 11
570.97950382777094
 21
354.3612454464307
  0
LINE
  8
_0-5_文字-記号
  6
CONTINUOUS
 62
    3
 10
513.26736587357095
 20
353.3612454464307
 11
501.72036048977088
 21
333.3612454464307
  0
ARC
  8
_0-3_躯体と製品
  6
CONTINUOUS
 62
    3
 10
498.03674448977085
 20
343.06884044643067
 40
1.1000000000000001
 50
332.73274700000098
 51
26.564808999991662
  0
ARC
  8
_0-3_躯体と製品
  6
CONTINUOUS
 62
    3
 10
498.03674448977085
 20
343.06884044643067
 40
0.5
 50
332.73274699996313
 51
26.564808999991612
  0
ARC
  8
_0-3_躯体と製品
  6
CONTINUOUS
 62
    3
 10
496.00397648977082
 20
343.06884044643067
 40
1.1000000000000001
 50
153.43519099999961
 51
207.26725299999899
  0
ARC
  8
_0-3_躯体と製品
  6
CONTINUOUS
 62
    3
 10
496.00397648977082
 20
343.06884044643067
 40
0.5
 50
153.43519099999961
 51
207.26725299999899
  0
LINE
  8
_0-5_文字-記号
  6
CONTINUOUS
 62
    3
 10
506.72036048977088
 20
284.3612454464307
 11
515.85802851587096
 21
300.18815073023063
  0
CIRCLE
  8
_0-5_文字-記号
  6
CONTINUOUS
 62
    3
 10
517.95833681077079
 20
304.51827774923072
 40
5
  0
TEXT
  8
_0-5_文字-記号
 62
    7
 10
516.40603855297991
 20
301.41603319821809
 40
5
 41
0.7999999999999943
 50
0
  1
6
  0
LINE
  8
_0-3_躯体と製品
  6
CONTINUOUS
 62
    3
 10
498.26479148977091
 20
342.41992744643073
 11
498.48118448977084
 21
342.83976944643069
  0
ARC
  8
_0-3_躯体と製品
  6
CONTINUOUS
 62
    3
 10
497.02036048977084
 20
343.06132544643071
 40
2
 50
280.16424900000447
 51
332.73274699999217
  0
ARC
  8
_0-3_躯体と製品
  6
CONTINUOUS
 62
    3
 10
497.02036048977084
 20
343.06132544643071
 40
1.399999999999999
 50
280.16424900000447
 51
332.73274700000093
  0
ARC
  8
_0-3_躯体と製品
  6
CONTINUOUS
 62
    3
 10
497.32036048977079
 20
341.38800544643072
 40
0.2999999999999998
 50
100.16424900000442
 51
280.16424900000442
  0
ARC
  8
_0-3_躯体と製品
  6
CONTINUOUS
 62
    3
 10
496.72036048977088
 20
341.38800544643072
 40
0.2999999999999998
 50
259.83575099999564
 51
79.835750999982196
  0
ARC
  8
_0-3_躯体と製品
  6
CONTINUOUS
 62
    3
 10
497.02036048977084
 20
343.06132544643071
 40
2
 50
207.26725299999899
 51
259.83575099999558
  0
ARC
  8
_0-3_躯体と製品
  6
CONTINUOUS
 62
    3
 10
497.02036048977084
 20
343.06132544643071
 40
1.399999999999999
 50
207.26725299999899
 51
259.83575099999558
  0
LINE
  8
_0-3_躯体と製品
  6
CONTINUOUS
 62
    3
 10
495.77592948977099
 20
342.41992744643073
 11
495.55953648977084
 21
342.83976944643069
  0
LINE
  8
_0-3_躯体と製品
  6
CONTINUOUS
 62
    3
 10
495.24260248977089
 20
342.14504244643058
 11
495.02620948977096
 21
342.5648844464306
  0
LINE
  8
_0-3_躯体と製品
  6
CONTINUOUS
 62
    3
 10
501.72036048977088
 20
339.6112454464307
 11
501.72036048977088
 21
329.8612454464307
  0
LINE
  8
_0-3_躯体と製品
  6
CONTINUOUS
 62
    3
 10
500.22036048977088
 20
339.6112454464307
 11
500.22036048977088
 21
331.8612454464307
  0
ARC
  8
_0-3_躯体と製品
  6
CONTINUOUS
 62
    3
 10
500.97036048977088
 20
339.6112454464307
 40
0.75
 50
0
 51
180
  0
LINE
  8
_0-3_躯体と製品
  6
CONTINUOUS
 62
    3
 10
500.22036048977088
 20
329.8612454464307
 11
500.22036048977088
 21
329.3612454464307
  0
ARC
  8
_0-3_躯体と製品
  6
CONTINUOUS
 62
    3
 10
499.72036048977088
 20
331.8612454464307
 40
0.5
 50
270
 51
0
  0
ARC
  8
_0-3_躯体と製品
  6
CONTINUOUS
 62
    3
 10
501.22036048977088
 20
329.8612454464307
 40
0.5
 50
270
 51
0
  0
LINE
  8
_0-3_躯体と製品
  6
CONTINUOUS
 62
    3
 10
500.22036048977088
 20
329.3612454464307
 11
501.22036048977088
 21
329.3612454464307
  0
LINE
  8
_0-3_躯体と製品
  6
CONTINUOUS
 62
    3
 10
498.79811848977079
 20
342.14504244643058
 11
499.01451148977094
 21
342.5648844464306
  0
ARC
  8
_0-3_躯体と製品
  6
CONTINUOUS
 62
    3
 10
562.97036048977088
 20
339.8612454464307
 40
0.5
 50
90
 51
180
  0
ARC
  8
_0-3_躯体と製品
  6
CONTINUOUS
 62
    3
 10
560.47036048977088
 20
339.8612454464307
 40
0.5
 50
0
 51
90
  0
LINE
  8
_0-3_躯体と製品
  6
CONTINUOUS
 62
    3
 10
562.47036048977088
 20
338.1112454464307
 11
562.47036048977088
 21
339.8612454464307
  0
LINE
  8
_0-3_躯体と製品
  6
CONTINUOUS
 62
    3
 10
560.97036048977088
 20
338.1112454464307
 11
560.97036048977088
 21
339.8612454464307
  0
ARC
  8
_0-3_躯体と製品
  6
CONTINUOUS
 62
    3
 10
561.72036048977088
 20
338.1112454464307
 40
0.75
 50
180
 51
0
  0
TEXT
  8
_0-5_文字-記号
 62
    7
 10
512.58769346611484
 20
373.01000357692527
 40
5.0000000000000284
 41
0.7999999999999984
 50
0
  1
11
  0
CIRCLE
  8
_0-5_文字-記号
  6
CONTINUOUS
 62
    3
 10
516.06088947327089
 20
377.69137246533063
 40
5
  0
LINE
  8
_0-5_文字-記号
  6
CONTINUOUS
 62
    3
 10
497.0198197051709
 20
344.71127219653067
 11
513.56088947326998
 21
373.3612454464307
  0
ARC
  8
_0-3_躯体と製品
  6
CONTINUOUS
 62
    3
 10
498.77036248977083
 20
346.3612454464307
 40
0.5
 50
0
 51
180
  0
LINE
  8
_0-3_躯体と製品
  6
CONTINUOUS
 62
    3
 10
497.5995344897708
 20
345.06131344643069
 11
498.483959489771
 21
343.29244544643069
  0
LINE
  8
_0-3_躯体と製品
  6
CONTINUOUS
 62
    3
 10
498.27036048977084
 20
345.06129944643061
 11
499.02061648977087
 21
343.56077144643069
  0
LINE
  8
_0-3_躯体と製品
  6
CONTINUOUS
 62
    3
 10
494.06809948977093
 20
345.0612634464307
 11
499.97036348977099
 21
345.06138744643056
  0
LINE
  8
_0-3_躯体と製品
  6
CONTINUOUS
 62
    3
 10
493.82036048977079
 20
346.8612454464307
 11
500.22036048977088
 21
346.8612454464307
  0
ARC
  8
_0-3_躯体と製品
  6
CONTINUOUS
 62
    3
 10
494.0703634897709
 20
345.36125444643068
 40
0.2999999999999998
 50
180
 51
270.00129200000242
  0
LINE
  8
_0-3_躯体と製品
  6
CONTINUOUS
 62
    3
 10
493.77036348977094
 20
345.36125444643068
 11
493.77036048977084
 21
346.06124244643058
  0
LINE
  8
_0-3_躯体と製品
  6
CONTINUOUS
 62
    3
 10
494.77035848977084
 20
346.3612444464307
 11
494.07036048977079
 21
346.36124344643065
  0
LINE
  8
_0-3_躯体と製品
  6
CONTINUOUS
 62
    3
 10
498.27036248977083
 20
346.36124944643069
 11
495.77035848977084
 21
346.3612464464307
  0
ARC
  8
_0-3_躯体と製品
  6
CONTINUOUS
 62
    3
 10
494.07036048977079
 20
346.06124344643058
 40
0.2999999999999998
 50
90
 51
180
  0
ARC
  8
_0-3_躯体と製品
  6
CONTINUOUS
 62
    3
 10
495.27035848977084
 20
346.3612454464307
 40
0.5
 50
0
 51
180
  0
LINE
  8
_0-3_躯体と製品
  6
CONTINUOUS
 62
    3
 10
496.44118648977087
 20
345.06131344643069
 11
495.55676148977091
 21
343.29244544643069
  0
LINE
  8
_0-3_躯体と製品
  6
CONTINUOUS
 62
    3
 10
495.77036048977084
 20
345.06129944643061
 11
495.0201044897708
 21
343.56077144643069
  0
ARC
  8
_0-3_躯体と製品
  6
CONTINUOUS
 62
    3
 10
494.72036048977088
 20
344.26124544643068
 40
0.2999999999999998
 50
0
 51
90
  0
LINE
  8
_0-3_躯体と製品
  6
CONTINUOUS
 62
    3
 10
493.82036048977079
 20
344.56124544643058
 11
494.72036048977088
 21
344.56124544643058
  0
LINE
  8
_0-3_躯体と製品
  6
CONTINUOUS
 62
    3
 10
495.02036048977084
 20
344.26124544643068
 11
495.02036048977084
 21
343.66124544643071
  0
ARC
  8
_0-3_躯体と製品
  6
CONTINUOUS
 62
    3
 10
494.72036048977088
 20
343.66124544643071
 40
0.2999999999999998
 50
270
 51
0
  0
LINE
  8
_0-3_躯体と製品
  6
CONTINUOUS
 62
    3
 10
492.82036048977079
 20
343.3612454464307
 11
494.72036048977088
 21
343.3612454464307
  0
ARC
  8
_0-3_躯体と製品
  6
CONTINUOUS
 62
    3
 10
493.82036048977079
 20
344.8612454464307
 40
0.2999999999999998
 50
180
 51
270
  0
LINE
  8
_0-3_躯体と製品
  6
CONTINUOUS
 62
    3
 10
493.52036048977084
 20
346.56124544643058
 11
493.52036048977084
 21
344.8612454464307
  0
ARC
  8
_0-3_躯体と製品
  6
CONTINUOUS
 62
    3
 10
493.82036048977079
 20
346.56124544643058
 40
0.2999999999999998
 50
90
 51
180
  0
ARC
  8
_0-3_躯体と製品
  6
CONTINUOUS
 62
    3
 10
492.82036048977079
 20
343.8612454464307
 40
0.5
 50
180
 51
270
  0
LINE
  8
_0-3_躯体と製品
  6
CONTINUOUS
 62
    3
 10
492.32036048977079
 20
346.3612454464307
 11
492.32036048977079
 21
343.8612454464307
  0
ARC
  8
_0-3_躯体と製品
  6
CONTINUOUS
 62
    3
 10
491.82036048977079
 20
346.3612454464307
 40
0.5
 50
0
 51
90
  0
LINE
  8
_0-3_躯体と製品
  6
CONTINUOUS
 62
    3
 10
500.27035748977096
 20
345.36138744643068
 11
500.27036048977084
 21
346.06125044643056
  0
ARC
  8
_0-3_躯体と製品
  6
CONTINUOUS
 62
    3
 10
499.97035748977078
 20
345.36138744643068
 40
0.2999999999999998
 50
270.00129200000242
 51
0
  0
LINE
  8
_0-3_躯体と製品
  6
CONTINUOUS
 62
    3
 10
499.27036248977083
 20
346.36125044643069
 11
499.97036048977088
 21
346.36125144643069
  0
ARC
  8
_0-3_躯体と製品
  6
CONTINUOUS
 62
    3
 10
499.97036048977088
 20
346.06125144643056
 40
0.2999999999999998
 50
0
 51
90
  0
ARC
  8
_0-3_躯体と製品
  6
CONTINUOUS
 62
    3
 10
499.32036048977079
 20
343.66124544643071
 40
0.2999999999999998
 50
180
 51
270
  0
LINE
  8
_0-3_躯体と製品
  6
CONTINUOUS
 62
    3
 10
499.32036048977079
 20
343.3612454464307
 11
501.22036048977088
 21
343.3612454464307
  0
LINE
  8
_0-3_躯体と製品
  6
CONTINUOUS
 62
    3
 10
499.02036048977084
 20
344.26124544643068
 11
499.02036048977084
 21
343.66124544643071
  0
ARC
  8
_0-3_躯体と製品
  6
CONTINUOUS
 62
    3
 10
499.32036048977079
 20
344.26124544643068
 40
0.2999999999999998
 50
90
 51
180
  0
LINE
  8
_0-3_躯体と製品
  6
CONTINUOUS
 62
    3
 10
499.32036048977079
 20
344.56124544643058
 11
500.22036048977088
 21
344.56124544643058
  0
ARC
  8
_0-3_躯体と製品
  6
CONTINUOUS
 62
    3
 10
500.22036048977088
 20
344.8612454464307
 40
0.2999999999999998
 50
270
 51
0
  0
LINE
  8
_0-3_躯体と製品
  6
CONTINUOUS
 62
    3
 10
500.52036048977084
 20
346.56124544643058
 11
500.52036048977084
 21
344.8612454464307
  0
ARC
  8
_0-3_躯体と製品
  6
CONTINUOUS
 62
    3
 10
500.22036048977088
 20
346.56124544643058
 40
0.2999999999999998
 50
0
 51
90
  0
ARC
  8
_0-3_躯体と製品
  6
CONTINUOUS
 62
    3
 10
501.22036048977088
 20
343.86124344643065
 40
0.5
 50
269.99981906595838
 51
0
  0
LINE
  8
_0-3_躯体と製品
  6
CONTINUOUS
 62
    3
 10
501.72036048977088
 20
347.8612454464307
 11
501.72036048977088
 21
343.86124344643065
  0
ARC
  8
_0-3_躯体と製品
  6
CONTINUOUS
 62
    3
 10
501.22036048977088
 20
347.8612454464307
 40
0.5
 50
0
 51
90
  0
TEXT
  8
_0-5_文字-記号
 62
    7
 10
514.49686600954692
 20
353.9182781426033
 40
5
 41
0.7999999999999943
 50
0
  1
3
  0
CIRCLE
  8
_0-5_文字-記号
  6
CONTINUOUS
 62
    3
 10
515.76736587357095
 20
357.69137246533057
 40
5
  0
TEXT
  8
_0-5_文字-記号
 62
    7
 10
571.77204231251289
 20
355.35015755017747
 40
5.0000000000000284
 41
0.7999999999999898
 50
0
  1
2
  0
CIRCLE
  8
_0-5_文字-記号
  6
CONTINUOUS
 62
    3
 10
573.47950382777094
 20
358.69137246533057
 40
5
  0
TEXT
  8
_0-4_図面枠
 62
    7
 10
249.22646952927084
 20
532.57444731941109
 40
5
 41
0.8
 50
0
  1
（アルミ２００タイプ）
  0
LINE
  8
_0-3_躯体と製品
  6
CONTINUOUS
 62
    3
 10
660.72036049026974
 20
328.3612454464307
 11
588.23686478427089
 21
255.87774974093062
  0
LINE
  8
_0-3_躯体と製品
  6
CONTINUOUS
 62
    3
 10
661.72036049026974
 20
328.3612454464307
 11
588.23686478427089
 21
254.87774974093062
  0
LINE
  8
_0-3_躯体と製品
  6
CONTINUOUS
 62
    3
 10
661.72036049026974
 20
403.3612454464307
 11
661.72036049026974
 21
228.36124544643079
  0
LINE
  8
_0-3_躯体と製品
  6
DOT_17
 62
    3
 10
716.72036049026974
 20
403.3612454464307
 11
716.72036049026974
 21
228.36124544643079
  0
LINE
  8
_0-3_躯体と製品
  6
DOT_17
 62
    3
 10
716.72036049026974
 20
228.36124544643079
 11
661.72036049026974
 21
228.36124544643079
  0
TEXT
  8
_0-5_文字-記号
 62
    7
 10
669.13984202755501
 20
389.71526333195686
 40
5.0000000000000284
 41
0.7999999999999841
 50
0
  1
4
  0
LINE
  8
_0-3_躯体と製品
  6
PLINE12
 62
    3
 10
648.57038999027009
 20
358.36129544643069
 11
714.32134263127091
 21
358.36129544643069
  0
CIRCLE
  8
_0-5_文字-記号
  6
CONTINUOUS
 62
    3
 10
671.45833681127078
 20
393.51827774923055
 40
5
  0
LINE
  8
_0-3_躯体と製品
  6
CONTINUOUS
 62
    3
 10
700.67790599027103
 20
356.23888044643058
 11
669.72038999026972
 21
357.86129544643069
  0
LINE
  8
_0-3_躯体と製品
  6
CONTINUOUS
 62
    3
 10
673.72038999026972
 20
354.36129544643069
 11
669.72038999026972
 21
354.36129544643069
  0
LINE
  8
_0-3_躯体と製品
  6
CONTINUOUS
 62
    3
 10
700.67790599027103
 20
360.48371044643062
 11
669.72038999026972
 21
358.86129544643069
  0
LINE
  8
_0-3_躯体と製品
  6
CONTINUOUS
 62
    3
 10
673.72038999026972
 20
362.36129544643069
 11
669.72038999026972
 21
362.36129544643069
  0
LINE
  8
_0-3_躯体と製品
  6
CONTINUOUS
 62
    3
 10
669.91674799027078
 20
364.68363544643057
 11
676.52076899026997
 21
363.7402034464306
  0
LINE
  8
_0-3_躯体と製品
  6
CONTINUOUS
 62
    3
 10
676.86278899027093
 20
364.67989644643063
 11
670.05916699027102
 21
365.67225144643061
  0
LINE
  8
_0-3_躯体と製品
  6
CONTINUOUS
 62
    3
 10
669.91674799027078
 20
352.03895544643058
 11
676.52076899026997
 21
352.98238744643072
  0
LINE
  8
_0-3_躯体と製品
  6
CONTINUOUS
 62
    3
 10
676.86278899027093
 20
352.04269444643063
 11
670.05916699027102
 21
351.0503394464306
  0
LINE
  8
_0-3_躯体と製品
  6
CONTINUOUS
 62
    3
 10
669.91674799027078
 20
352.03895544643058
 11
676.52076899026997
 21
352.98238744643072
  0
LINE
  8
_0-3_躯体と製品
  6
CONTINUOUS
 62
    3
 10
676.86278899027093
 20
352.04269444643063
 11
670.05916699027102
 21
351.0503394464306
  0
LINE
  8
_0-3_躯体と製品
  6
DOT_17
 62
    3
 10
661.72036049026974
 20
403.3612454464307
 11
716.72036049026974
 21
403.3612454464307
  0
LINE
  8
_0-3_躯体と製品
  6
PLINE12
 62
    3
 10
646.41924920526981
 20
349.61175994643065
 11
646.41924920526981
 21
338.36175994643065
  0
LINE
  8
_0-3_躯体と製品
  6
CONTINUOUS
 62
    3
 10
660.2203604902711
 20
351.8612454464307
 11
660.2203604902711
 21
340.3612454464307
  0
LINE
  8
_0-3_躯体と製品
  6
CONTINUOUS
 62
    3
 10
658.7203604902711
 20
331.36161544643073
 11
658.7203604902711
 21
358.06124544643058
  0
ARC
  8
_0-3_躯体と製品
  6
CONTINUOUS
 62
    3
 10
647.43673849026982
 20
343.0691229464307
 40
1.1000000000000001
 50
332.73274700000098
 51
26.564809000000423
  0
ARC
  8
_0-3_躯体と製品
  6
CONTINUOUS
 62
    3
 10
647.43673849026982
 20
343.0691229464307
 40
0.5
 50
332.73274699997188
 51
26.564808999991662
  0
ARC
  8
_0-3_躯体と製品
  6
CONTINUOUS
 62
    3
 10
645.40397049027069
 20
343.0691229464307
 40
1.1000000000000001
 50
153.43519099999961
 51
207.26725299999899
  0
ARC
  8
_0-3_躯体と製品
  6
CONTINUOUS
 62
    3
 10
645.40397049027069
 20
343.0691229464307
 40
0.5
 50
153.43519099999961
 51
207.26725299999899
  0
LINE
  8
_0-3_躯体と製品
  6
CONTINUOUS
 62
    3
 10
660.72036049026974
 20
383.3612454464307
 11
660.72036049026974
 21
328.3612454464307
  0
LINE
  8
_0-3_躯体と製品
  6
CONTINUOUS
 62
    3
 10
661.72036049026974
 20
383.3612454464307
 11
661.72036049026974
 21
329.3612454464307
  0
ARC
  8
_0-3_躯体と製品
  6
CONTINUOUS
 62
    3
 10
649.7203604902711
 20
329.86161544643073
 40
1
 50
180
 51
270
  0
ARC
  8
_0-3_躯体と製品
  6
CONTINUOUS
 62
    3
 10
649.47036049026974
 20
339.6112454464307
 40
0.75
 50
0
 51
180
  0
LINE
  8
_0-3_躯体と製品
  6
CONTINUOUS
 62
    3
 10
648.72036049026974
 20
339.6112454464307
 11
648.72036049026974
 21
329.86161544643073
  0
ARC
  8
_0-3_躯体と製品
  6
CONTINUOUS
 62
    3
 10
646.72035449027089
 20
341.38828794643069
 40
0.2999999999999998
 50
100.16424900000442
 51
280.16424900000442
  0
ARC
  8
_0-3_躯体と製品
  6
CONTINUOUS
 62
    3
 10
646.12035449027098
 20
341.38828794643069
 40
0.2999999999999998
 50
259.83575099999564
 51
79.835750999982196
  0
LINE
  8
_0-3_躯体と製品
  6
CONTINUOUS
 62
    3
 10
647.66478549027079
 20
342.4202099464307
 11
647.88117849027094
 21
342.84005194643055
  0
LINE
  8
_0-3_躯体と製品
  6
CONTINUOUS
 62
    3
 10
648.19811249027089
 20
342.14532494643061
 11
648.41450549027104
 21
342.56516694643068
  0
ARC
  8
_0-3_躯体と製品
  6
CONTINUOUS
 62
    3
 10
646.42035449027071
 20
343.06160794643068
 40
2
 50
280.16424900000447
 51
332.73274700000093
  0
ARC
  8
_0-3_躯体と製品
  6
CONTINUOUS
 62
    3
 10
646.42035449027071
 20
343.06160794643068
 40
2
 50
207.26725299999899
 51
259.83575099999558
  0
ARC
  8
_0-3_躯体と製品
  6
CONTINUOUS
 62
    3
 10
646.42035449027071
 20
343.06160794643068
 40
1.399999999999999
 50
280.16424900000447
 51
332.73274700000093
  0
ARC
  8
_0-3_躯体と製品
  6
CONTINUOUS
 62
    3
 10
646.42035449027071
 20
343.06160794643068
 40
1.399999999999999
 50
207.26725299999899
 51
259.83575099999558
  0
LINE
  8
_0-3_躯体と製品
  6
CONTINUOUS
 62
    3
 10
645.17592349027109
 20
342.4202099464307
 11
644.95953049027094
 21
342.84005194643055
  0
LINE
  8
_0-3_躯体と製品
  6
CONTINUOUS
 62
    3
 10
644.64259649027099
 20
342.14532494643061
 11
644.42620349027084
 21
342.56516694643068
  0
LINE
  8
_0-3_躯体と製品
  6
CONTINUOUS
 62
    3
 10
660.2203604902711
 20
338.8612454464307
 11
660.72036049026974
 21
338.8612454464307
  0
LINE
  8
_0-3_躯体と製品
  6
CONTINUOUS
 62
    3
 10
660.2203604902711
 20
340.3612454464307
 11
660.72036049026974
 21
340.3612454464307
  0
LINE
  8
_0-3_躯体と製品
  6
CONTINUOUS
 62
    3
 10
660.2203604902711
 20
330.36161544643073
 11
660.72036049026974
 21
330.36161544643073
  0
LINE
  8
_0-3_躯体と製品
  6
CONTINUOUS
 62
    3
 10
660.72036049026974
 20
328.86161544643073
 11
649.7203604902711
 21
328.86161544643073
  0
LINE
  8
_0-3_躯体と製品
  6
CONTINUOUS
 62
    3
 10
660.2203604902711
 20
338.8612454464307
 11
660.2203604902711
 21
330.36161544643073
  0
ARC
  8
_0-3_躯体と製品
  6
CONTINUOUS
 62
    3
 10
657.72036049026974
 20
331.36161544643073
 40
1
 50
270
 51
0
  0
LINE
  8
_0-3_躯体と製品
  6
CONTINUOUS
 62
    3
 10
657.72036049026974
 20
330.36161544643073
 11
650.72036049026974
 21
330.36161544643073
  0
LINE
  8
_0-3_躯体と製品
  6
CONTINUOUS
 62
    3
 10
650.22036049026974
 20
339.6112454464307
 11
650.22036049026974
 21
330.86161544643073
  0
ARC
  8
_0-3_躯体と製品
  6
CONTINUOUS
 62
    3
 10
650.72036049026974
 20
330.86161544643073
 40
0.5
 50
180
 51
270
  0
ARC
  8
_0-3_躯体と製品
  6
CONTINUOUS
 62
    3
 10
651.38417100427068
 20
341.46124544643061
 40
0.5
 50
19.999999999998419
 51
90
  0
ARC
  8
_0-3_躯体と製品
  6
CONTINUOUS
 62
    3
 10
650.37025672026994
 20
339.8612454464307
 40
0.5
 50
19.999999999989232
 51
90
  0
LINE
  8
_0-3_躯体と製品
  6
CONTINUOUS
 62
    3
 10
651.85401731527099
 20
341.63225551813059
 11
653.92550517327072
 21
335.94088940233058
  0
LINE
  8
_0-3_躯体と製品
  6
CONTINUOUS
 62
    3
 10
650.8401030312707
 20
340.03225551813057
 11
652.51596624227068
 21
335.42785918733057
  0
ARC
  8
_0-3_躯体と製品
  6
CONTINUOUS
 62
    3
 10
653.22073570826979
 20
335.68437429483072
 40
0.75
 50
199.99999999999844
 51
19.999999999998426
  0
LINE
  8
_0-3_躯体と製品
  6
CONTINUOUS
 62
    3
 10
660.72036049026974
 20
338.8612454464307
 11
660.72036049026974
 21
340.3612454464307
  0
LINE
  8
_0-3_躯体と製品
  6
CONTINUOUS
 62
    3
 10
660.72036049026974
 20
328.86161544643073
 11
660.72036049026974
 21
330.36161544643073
  0
LINE
  8
_0-5_文字-記号
  6
CONTINUOUS
 62
    3
 10
660.2203604902711
 20
373.3612454464307
 11
669.35802851626977
 21
389.18815073023057
  0
LINE
  8
_0-3_躯体と製品
  6
DOT_17
 62
    3
 10
645.22036049026974
 20
376.6756611462306
 11
644.88819549027085
 21
375.02791244643061
  0
LINE
  8
_0-3_躯体と製品
  6
DOT_17
 62
    3
 10
645.22036049026974
 20
378.33132499013072
 11
644.46480449027104
 21
375.76124544643068
  0
LINE
  8
_0-3_躯体と製品
  6
DOT_17
 62
    3
 10
643.94745449027096
 20
379.69457844643057
 11
643.00671349027107
 21
375.02791244643061
  0
LINE
  8
_0-3_躯体と製品
  6
DOT_17
 62
    3
 10
643.52406449027103
 20
378.96124544643061
 11
642.58332349027069
 21
375.76124544643068
  0
LINE
  8
_0-3_躯体と製品
  6
DOT_17
 62
    3
 10
644.37084449027088
 20
378.96124544643061
 11
643.43010349027099
 21
375.76124544643068
  0
LINE
  8
_0-3_躯体と製品
  6
CONTINUOUS
 62
    3
 10
640.72036049026974
 20
383.3612454464307
 11
640.72036049026974
 21
371.3612454464307
  0
LINE
  8
_0-3_躯体と製品
  6
CONTINUOUS
 62
    3
 10
649.12152849027098
 20
377.3612454464307
 11
648.65115849027097
 21
375.02791244643061
  0
LINE
  8
_0-3_躯体と製品
  6
CONTINUOUS
 62
    3
 10
647.71041749026972
 20
379.69457844643057
 11
646.76967649027074
 21
375.02791244643061
  0
LINE
  8
_0-3_躯体と製品
  6
CONTINUOUS
 62
    3
 10
647.28702749026979
 20
378.96124544643061
 11
646.34628649027081
 21
375.76124544643068
  0
LINE
  8
_0-3_躯体と製品
  6
CONTINUOUS
 62
    3
 10
648.13380749027101
 20
378.96124544643061
 11
647.19306649027067
 21
375.76124544643068
  0
ARC
  8
_0-3_躯体と製品
  6
CONTINUOUS
 62
    3
 10
653.7458764902708
 20
371.32883344643068
 40
6.0552590000000013
 50
94.978778000003871
 51
132.94620000000091
  0
LINE
  8
_0-3_躯体と製品
  6
CONTINUOUS
 62
    3
 10
655.22036049026974
 20
377.3612454464307
 11
654.29660049027098
 21
375.76124544643068
  0
LINE
  8
_0-3_躯体と製品
  6
CONTINUOUS
 62
    3
 10
649.62036049027074
 20
375.76124544643068
 11
649.62036049027074
 21
378.96123044643059
  0
LINE
  8
_0-3_躯体と製品
  6
CONTINUOUS
 62
    3
 10
639.22035249026976
 20
381.65952544643068
 11
639.22021449027079
 21
373.06316244643068
  0
LINE
  8
_0-3_躯体と製品
  6
CONTINUOUS
 62
    3
 10
646.25232649027112
 20
378.96124544643061
 11
645.31158549027077
 21
375.76124544643068
  0
LINE
  8
_0-3_躯体と製品
  6
CONTINUOUS
 62
    3
 10
649.12152849027098
 20
377.3612454464307
 11
648.22776749027071
 21
375.76124544643068
  0
LINE
  8
_0-3_躯体と製品
  6
CONTINUOUS
 62
    3
 10
649.12152849027098
 20
377.3612454464307
 11
649.0745484902709
 21
375.76124544643068
  0
LINE
  8
_0-3_躯体と製品
  6
CONTINUOUS
 62
    3
 10
639.97036049026974
 20
383.3612454464307
 11
639.97036049026974
 21
371.3612454464307
  0
ARC
  8
_0-3_躯体と製品
  6
CONTINUOUS
 62
    3
 10
642.30369349027069
 20
377.3612454464307
 40
6.0833329999999988
 50
143.8313579999988
 51
216.16864200000111
  0
LINE
  8
_0-3_躯体と製品
  6
CONTINUOUS
 62
    3
 10
643.22036049026974
 20
371.3612454464307
 11
643.22036049026974
 21
389.8612454464307
  0
LINE
  8
_0-3_躯体と製品
  6
CONTINUOUS
 62
    3
 10
660.2203604902711
 20
381.8612454464307
 11
660.2203604902711
 21
364.8612454464307
  0
LINE
  8
_0-3_躯体と製品
  6
CONTINUOUS
 62
    3
 10
658.7203604902711
 20
358.6612454464306
 11
658.7203604902711
 21
381.06124544643058
  0
LINE
  8
_0-3_躯体と製品
  6
CONTINUOUS
 62
    3
 10
645.22036049026974
 20
372.3612454464307
 11
645.22036049026974
 21
381.06124544643058
  0
LINE
  8
_0-3_躯体と製品
  6
CONTINUOUS
 62
    3
 10
641.72036049026974
 20
395.8612454464307
 11
641.72036049026974
 21
343.86154844643056
  0
LINE
  8
_0-3_躯体と製品
  6
CONTINUOUS
 62
    3
 10
643.22036049026974
 20
348.86138344643069
 11
643.22036049026974
 21
390.3610134464306
  0
LINE
  8
_0-3_躯体と製品
  6
CONTINUOUS
 62
    3
 10
649.0745484902709
 20
375.76124544643068
 11
654.29660049027098
 21
375.76124544643068
  0
LINE
  8
_0-3_躯体と製品
  6
CONTINUOUS
 62
    3
 10
643.46809349026989
 20
345.06154594643056
 11
649.37035749027109
 21
345.06166994643058
  0
LINE
  8
_0-3_躯体と製品
  6
CONTINUOUS
 62
    3
 10
648.67035649027093
 20
346.3615329464306
 11
649.37035449027098
 21
346.3615339464306
  0
LINE
  8
_0-3_躯体と製品
  6
CONTINUOUS
 62
    3
 10
648.92043549027085
 20
343.36155344643061
 11
650.62043749027089
 21
343.36154844643056
  0
LINE
  8
_0-3_躯体と製品
  6
CONTINUOUS
 62
    3
 10
649.62043449026987
 20
344.56155044643066
 11
648.92043649026982
 21
344.5615524464306
  0
LINE
  8
_0-3_躯体と製品
  6
CONTINUOUS
 62
    3
 10
643.22034949027102
 20
346.86142944643069
 11
649.62035949027086
 21
346.86162644643059
  0
LINE
  8
_0-3_躯体と製品
  6
CONTINUOUS
 62
    3
 10
650.63542649027067
 20
348.36138344643069
 11
643.72036049026974
 21
348.36138344643069
  0
LINE
  8
_0-5_文字-記号
  6
CONTINUOUS
 62
    3
 10
641.72036049026974
 20
353.3612454464307
 11
634.56121715227073
 21
365.76124544643068
  0
ARC
  8
_0-3_躯体と製品
  6
CONTINUOUS
 62
    3
 10
648.17035649027002
 20
346.36152794643056
 40
0.5
 50
0
 51
180
  0
LINE
  8
_0-3_躯体と製品
  6
CONTINUOUS
 62
    3
 10
646.99952849027068
 20
345.0615959464306
 11
647.88395349026996
 21
343.2927279464306
  0
LINE
  8
_0-3_躯体と製品
  6
CONTINUOUS
 62
    3
 10
647.67035449027071
 20
345.06158194643058
 11
648.42061049027097
 21
343.5610539464306
  0
ARC
  8
_0-3_躯体と製品
  6
CONTINUOUS
 62
    3
 10
643.470357490271
 20
345.3615369464307
 40
0.2999999999999998
 50
180
 51
270.00129200000242
  0
LINE
  8
_0-3_躯体と製品
  6
CONTINUOUS
 62
    3
 10
643.17035749027082
 20
345.3615369464307
 11
643.17035449027071
 21
346.06152494643055
  0
LINE
  8
_0-3_躯体と製品
  6
CONTINUOUS
 62
    3
 10
644.17035249027094
 20
346.36152694643056
 11
643.47035449027089
 21
346.36152594643056
  0
LINE
  8
_0-3_躯体と製品
  6
CONTINUOUS
 62
    3
 10
647.67035649027093
 20
346.3615319464306
 11
645.17035249027094
 21
346.36152894643055
  0
ARC
  8
_0-3_躯体と製品
  6
CONTINUOUS
 62
    3
 10
643.47035449027089
 20
346.06152594643072
 40
0.2999999999999998
 50
90
 51
180
  0
ARC
  8
_0-3_躯体と製品
  6
CONTINUOUS
 62
    3
 10
644.67035249027094
 20
346.36152794643056
 40
0.5
 50
0
 51
180
  0
LINE
  8
_0-3_躯体と製品
  6
CONTINUOUS
 62
    3
 10
645.84118049026983
 20
345.0615959464306
 11
644.95675549027101
 21
343.2927279464306
  0
LINE
  8
_0-3_躯体と製品
  6
CONTINUOUS
 62
    3
 10
645.17035449027071
 20
345.06158194643058
 11
644.4200984902709
 21
343.5610539464306
  0
LINE
  8
_0-3_躯体と製品
  6
CONTINUOUS
 62
    3
 10
644.42035049026981
 20
344.06156844643056
 11
644.42035749027082
 21
343.86157144643073
  0
ARC
  8
_0-3_躯体と製品
  6
CONTINUOUS
 62
    3
 10
643.92035749027082
 20
343.86155344643061
 40
0.5
 50
270
 51
0.0019659999976594
  0
LINE
  8
_0-3_躯体と製品
  6
CONTINUOUS
 62
    3
 10
648.42043649027073
 20
344.06155544643059
 11
648.42043549027085
 21
343.86155744643071
  0
LINE
  8
_0-3_躯体と製品
  6
CONTINUOUS
 62
    3
 10
643.92035749027082
 20
343.36155344643061
 11
642.22036249027087
 21
343.36154844643056
  0
ARC
  8
_0-3_躯体と製品
  6
CONTINUOUS
 62
    3
 10
642.22036049026974
 20
343.86154844643056
 40
0.5
 50
180
 51
270
  0
LINE
  8
_0-3_躯体と製品
  6
CONTINUOUS
 62
    3
 10
642.92045649027068
 20
344.8615314464306
 11
642.92034949027084
 21
346.56141044643073
  0
ARC
  8
_0-3_躯体と製品
  6
CONTINUOUS
 62
    3
 10
643.22034949027102
 20
346.56142944643062
 40
0.2999999999999998
 50
90
 51
180.00358700000109
  0
ARC
  8
_0-3_躯体と製品
  6
CONTINUOUS
 62
    3
 10
643.22045649027086
 20
344.86155044643056
 40
0.2999999999999998
 50
180.00358700000112
 51
270
  0
LINE
  8
_0-3_躯体と製品
  6
CONTINUOUS
 62
    3
 10
643.22045649027086
 20
344.56155044643066
 11
643.92035049026981
 21
344.56155144643066
  0
ARC
  8
_0-3_躯体と製品
  6
CONTINUOUS
 62
    3
 10
643.92035049026981
 20
344.0615514464306
 40
0.5
 50
0.0019659999845978
 51
90.000000000000014
  0
ARC
  8
_0-3_躯体と製品
  6
CONTINUOUS
 62
    3
 10
648.92043549027085
 20
343.86155344643061
 40
0.5
 50
179.99959799999922
 51
270
  0
ARC
  8
_0-3_躯体と製品
  6
CONTINUOUS
 62
    3
 10
648.92043649026982
 20
344.06155244643071
 40
0.5
 50
90
 51
179.99959799999917
  0
ARC
  8
_0-3_躯体と製品
  6
CONTINUOUS
 62
    3
 10
643.72036049026974
 20
348.86138344643069
 40
0.5
 50
180
 51
270
  0
ARC
  8
_0-3_躯体と製品
  6
CONTINUOUS
 62
    3
 10
638.20000349026986
 20
374.3612454464307
 40
1
 50
216.16864200000111
 51
270
  0
TEXT
  8
_0-5_文字-記号
 62
    7
 10
630.00180488719479
 20
365.37331340319651
 40
5
 41
0.8000000000000115
 50
0
  1
5
  0
CIRCLE
  8
_0-5_文字-記号
  6
CONTINUOUS
 62
    3
 10
632.06121715227073
 20
370.09137246533055
 40
5
  0
LINE
  8
_0-3_躯体と製品
  6
DOT_17
 62
    3
 10
644.88819549027085
 20
375.02791244643061
 11
645.22036049026974
 21
375.60323910963069
  0
LINE
  8
_0-3_躯体と製品
  6
DOT_17
 62
    3
 10
642.58332349027069
 20
375.76124544643068
 11
643.00671349027107
 21
375.02791244643061
  0
LINE
  8
_0-3_躯体と製品
  6
DOT_17
 62
    3
 10
643.00671349027107
 20
375.02791244643061
 11
643.43010349027099
 21
375.76124544643068
  0
LINE
  8
_0-3_躯体と製品
  6
DOT_17
 62
    3
 10
641.72036049026974
 20
375.76124544643068
 11
642.58332349027069
 21
375.76124544643068
  0
LINE
  8
_0-3_躯体と製品
  6
DOT_17
 62
    3
 10
644.46480449027104
 20
375.76124544643068
 11
644.88819549027085
 21
375.02791244643061
  0
LINE
  8
_0-3_躯体と製品
  6
DOT_17
 62
    3
 10
644.46480449027104
 20
375.76124544643068
 11
643.43010349027099
 21
375.76124544643068
  0
LINE
  8
_0-3_躯体と製品
  6
CONTINUOUS
 62
    3
 10
645.22036049026974
 20
375.60323910963069
 11
645.31158549027077
 21
375.76124544643068
  0
LINE
  8
_0-3_躯体と製品
  6
CONTINUOUS
 62
    3
 10
639.97036049026974
 20
371.3612454464307
 11
639.58191049027073
 21
371.91600944643068
  0
LINE
  8
_0-3_躯体と製品
  6
CONTINUOUS
 62
    3
 10
648.22776749027071
 20
375.76124544643068
 11
648.65115849027097
 21
375.02791244643061
  0
LINE
  8
_0-3_躯体と製品
  6
CONTINUOUS
 62
    3
 10
648.65115849027097
 20
375.02791244643061
 11
649.0745484902709
 21
375.76124544643068
  0
LINE
  8
_0-3_躯体と製品
  6
CONTINUOUS
 62
    3
 10
646.34628649027081
 20
375.76124544643068
 11
646.76967649027074
 21
375.02791244643061
  0
LINE
  8
_0-3_躯体と製品
  6
CONTINUOUS
 62
    3
 10
646.76967649027074
 20
375.02791244643061
 11
647.19306649027067
 21
375.76124544643068
  0
LINE
  8
_0-3_躯体と製品
  6
CONTINUOUS
 62
    3
 10
638.20000349026986
 20
373.3612454464307
 11
639.22036049026974
 21
373.3612454464307
  0
ARC
  8
_0-3_躯体と製品
  6
CONTINUOUS
 62
    3
 10
641.22021449027079
 20
373.06316244643068
 40
2
 50
180
 51
215
  0
LINE
  8
_0-3_躯体と製品
  6
CONTINUOUS
 62
    3
 10
647.19306649027067
 20
375.76124544643068
 11
648.22776749027071
 21
375.76124544643068
  0
LINE
  8
_0-3_躯体と製品
  6
CONTINUOUS
 62
    3
 10
645.31158549027077
 20
375.76124544643068
 11
646.34628649027081
 21
375.76124544643068
  0
LINE
  8
_0-3_躯体と製品
  6
CONTINUOUS
 62
    3
 10
640.72036049026974
 20
372.3612454464307
 11
641.72036049026974
 21
372.3612454464307
  0
LINE
  8
_0-3_躯体と製品
  6
CONTINUOUS
 62
    3
 10
639.97036049026974
 20
371.3612454464307
 11
640.72036049026974
 21
371.3612454464307
  0
LINE
  8
_0-3_躯体と製品
  6
CONTINUOUS
 62
    3
 10
644.2203604902711
 20
371.3612454464307
 11
643.22036049026974
 21
371.3612454464307
  0
ARC
  8
_0-3_躯体と製品
  6
CONTINUOUS
 62
    3
 10
644.2203604902711
 20
372.3612454464307
 40
1
 50
270
 51
0
  0
LINE
  8
_0-3_躯体と製品
  6
CONTINUOUS
 62
    3
 10
658.72038999026972
 20
367.36129544643069
 11
658.72038999026972
 21
349.36129544643069
  0
LINE
  8
_0-3_躯体と製品
  6
CONTINUOUS
 62
    3
 10
657.22038999026972
 20
367.36129544643069
 11
657.22038999026972
 21
349.36129544643069
  0
ARC
  8
_0-3_躯体と製品
  6
CONTINUOUS
 62
    3
 10
665.92038999027091
 20
358.36129544643069
 40
12
 50
164.50603200000171
 51
195.4939679999982
  0
LINE
  8
_0-3_躯体と製品
  6
CONTINUOUS
 62
    3
 10
661.72038999026972
 20
363.36129544643069
 11
661.72038999026972
 21
353.36129544643069
  0
LINE
  8
_0-3_躯体と製品
  6
CONTINUOUS
 62
    3
 10
660.72036049026974
 20
351.8612454464307
 11
660.72036049026974
 21
364.8612454464307
  0
LINE
  8
_0-3_躯体と製品
  6
CONTINUOUS
 62
    3
 10
660.2203604902711
 20
351.8612454464307
 11
660.72036049026974
 21
351.8612454464307
  0
LINE
  8
_0-3_躯体と製品
  6
CONTINUOUS
 62
    3
 10
657.22038999026972
 20
349.36129544643069
 11
658.72038999026972
 21
349.36129544643069
  0
ARC
  8
_0-3_躯体と製品
  6
CONTINUOUS
 62
    3
 10
655.89834099027075
 20
355.58307144643072
 40
1.6000000000000001
 50
195.4939679999982
 51
265.00000000000028
  0
LINE
  8
_0-3_躯体と製品
  6
CONTINUOUS
 62
    3
 10
655.75889099026972
 20
353.98916044643062
 11
657.22038999026972
 21
353.86129544643069
  0
LINE
  8
_0-3_躯体と製品
  6
DOT_17
 62
    3
 10
658.7203604902711
 20
350.8612454464307
 11
660.2203604902711
 21
350.8612454464307
  0
LINE
  8
_0-3_躯体と製品
  6
CONTINUOUS
 62
    3
 10
659.02036049026992
 20
358.3612454464307
 11
658.7203604902711
 21
358.6612454464306
  0
LINE
  8
_0-3_躯体と製品
  6
CONTINUOUS
 62
    3
 10
659.02036049026992
 20
358.3612454464307
 11
658.7203604902711
 21
358.06124544643058
  0
LINE
  8
_0-3_躯体と製品
  6
CONTINUOUS
 62
    3
 10
659.02042649026998
 20
358.36134044643069
 11
658.7204334902699
 21
358.66134544643057
  0
LINE
  8
_0-3_躯体と製品
  6
CONTINUOUS
 62
    3
 10
658.72041949027107
 20
358.06134544643061
 11
659.02042649026998
 21
358.36134044643069
  0
LINE
  8
_0-3_躯体と製品
  6
CONTINUOUS
 62
    3
 10
649.67035149027106
 20
345.36166994643065
 11
649.67035449027071
 21
346.06153294643059
  0
ARC
  8
_0-3_躯体と製品
  6
CONTINUOUS
 62
    3
 10
649.37035149027088
 20
345.36166994643065
 40
0.2999999999999998
 50
270.00129200000242
 51
0
  0
ARC
  8
_0-3_躯体と製品
  6
CONTINUOUS
 62
    3
 10
649.37035449027098
 20
346.06153394643059
 40
0.2999999999999998
 50
0
 51
90
  0
LINE
  8
_0-3_躯体と製品
  6
CONTINUOUS
 62
    3
 10
651.12043549027067
 20
343.86154844643056
 11
651.12043549027067
 21
347.86160844643069
  0
ARC
  8
_0-3_躯体と製品
  6
CONTINUOUS
 62
    3
 10
650.62043549027067
 20
347.86160844643069
 40
0.5
 50
0
 51
90
  0
ARC
  8
_0-3_躯体と製品
  6
CONTINUOUS
 62
    3
 10
650.62043549027067
 20
343.86154844643056
 40
0.5
 50
270
 51
0
  0
LINE
  8
_0-3_躯体と製品
  6
CONTINUOUS
 62
    3
 10
649.92043449027096
 20
344.86156344643069
 11
649.92035949027104
 21
346.56164244643065
  0
ARC
  8
_0-3_躯体と製品
  6
CONTINUOUS
 62
    3
 10
649.62035949027086
 20
346.56162644643069
 40
0.2999999999999998
 50
0.0030670000033374
 51
90
  0
ARC
  8
_0-3_躯体と製品
  6
CONTINUOUS
 62
    3
 10
649.62043449026987
 20
344.86155044643056
 40
0.2999999999999998
 50
270
 51
0.0025249999943736
  0
LINE
  8
_0-3_躯体と製品
  6
CONTINUOUS
 62
    3
 10
661.72038999026972
 20
353.36129544643069
 11
666.72038999026972
 21
354.36129544643069
  0
LINE
  8
_0-3_躯体と製品
  6
CONTINUOUS
 62
    3
 10
661.72038999026972
 20
354.36129544643069
 11
669.72038999026972
 21
354.36129544643069
  0
LINE
  8
_0-3_躯体と製品
  6
CONTINUOUS
 62
    3
 10
666.72038999026972
 20
358.36129544643069
 11
661.72038999026972
 21
358.36129544643069
  0
LINE
  8
_0-3_躯体と製品
  6
CONTINUOUS
 62
    3
 10
661.72038999026972
 20
357.36129544643069
 11
666.72038999026972
 21
358.36129544643069
  0
LINE
  8
_0-3_躯体と製品
  6
CONTINUOUS
 62
    3
 10
661.72038999026972
 20
359.36129544643069
 11
666.72038999026972
 21
358.36129544643069
  0
LINE
  8
_0-3_躯体と製品
  6
CONTINUOUS
 62
    3
 10
669.72038999026972
 20
357.86129544643069
 11
669.72038999026972
 21
358.36129544643069
  0
LINE
  8
_0-3_躯体と製品
  6
CONTINUOUS
 62
    3
 10
669.72038999026972
 20
358.86129544643069
 11
669.72038999026972
 21
358.36129544643069
  0
ARC
  8
_0-3_躯体と製品
  6
CONTINUOUS
 62
    3
 10
669.97331699027109
 20
351.64297544643063
 40
0.4
 50
98.130101999984902
 51
188.13010200000139
  0
LINE
  8
_0-3_躯体と製品
  6
CONTINUOUS
 62
    3
 10
669.60545499027103
 20
351.38958244643072
 11
669.57733699027085
 21
351.5864074464306
  0
ARC
  8
_0-3_躯体と製品
  6
CONTINUOUS
 62
    3
 10
670.00143499027081
 20
351.44615144643063
 40
0.4
 50
188.13010200000139
 51
278.29846599999712
  0
ARC
  8
_0-3_躯体と製品
  6
CONTINUOUS
 62
    3
 10
669.97331699027109
 20
351.64297544643063
 40
0.4
 50
98.130101999984902
 51
188.13010200000139
  0
LINE
  8
_0-3_躯体と製品
  6
CONTINUOUS
 62
    3
 10
669.60545499027103
 20
351.38958244643072
 11
669.57733699027085
 21
351.5864074464306
  0
ARC
  8
_0-3_躯体と製品
  6
CONTINUOUS
 62
    3
 10
670.00143499027081
 20
351.44615144643063
 40
0.4
 50
188.13010200000139
 51
278.29846599999712
  0
LINE
  8
_0-3_躯体と製品
  6
CONTINUOUS
 62
    3
 10
660.2203604902711
 20
364.8612454464307
 11
660.72036049026974
 21
364.8612454464307
  0
LINE
  8
_0-3_躯体と製品
  6
CONTINUOUS
 62
    3
 10
657.22038999026972
 20
367.36129544643069
 11
658.72038999026972
 21
367.36129544643069
  0
ARC
  8
_0-3_躯体と製品
  6
CONTINUOUS
 62
    3
 10
655.89834099027075
 20
361.1395194464306
 40
1.6000000000000001
 50
94.999999999999758
 51
164.50603200000171
  0
LINE
  8
_0-3_躯体と製品
  6
CONTINUOUS
 62
    3
 10
655.75889099026972
 20
362.73343044643059
 11
657.22038999026972
 21
362.86129544643069
  0
LINE
  8
_0-3_躯体と製品
  6
DOT_17
 62
    3
 10
658.7203604902711
 20
365.8612454464307
 11
660.2203604902711
 21
365.8612454464307
  0
LINE
  8
_0-3_躯体と製品
  6
CONTINUOUS
 62
    3
 10
661.72038999026972
 20
363.36129544643069
 11
666.72038999026972
 21
362.36129544643069
  0
LINE
  8
_0-3_躯体と製品
  6
CONTINUOUS
 62
    3
 10
661.72038999026972
 20
362.36129544643069
 11
669.72038999026972
 21
362.36129544643069
  0
ARC
  8
_0-3_躯体と製品
  6
CONTINUOUS
 62
    3
 10
669.97331699027109
 20
365.07961444643058
 40
0.4
 50
171.8698979999985
 51
261.86989800000219
  0
LINE
  8
_0-3_躯体と製品
  6
CONTINUOUS
 62
    3
 10
669.60545499027103
 20
365.3330084464306
 11
669.57733699027085
 21
365.13618344643055
  0
ARC
  8
_0-3_躯体と製品
  6
CONTINUOUS
 62
    3
 10
670.00143499027081
 20
365.27643944643063
 40
0.4
 50
81.70153400000288
 51
171.86989799999853
  0
LINE
  8
_0-3_躯体と製品
  6
PLINE12
 62
    3
 10
634.9703604902711
 20
377.3612454464307
 11
657.72036049026974
 21
377.3612454464307
  0
LINE
  8
_0-3_躯体と製品
  6
CONTINUOUS
 62
    3
 10
648.13380749027101
 20
378.96124544643061
 11
654.29660049027098
 21
378.96124544643061
  0
LINE
  8
_0-3_躯体と製品
  6
CONTINUOUS
 62
    3
 10
651.25693480927112
 20
386.8612454464307
 11
646.96364764927011
 21
391.15453260603061
  0
LINE
  8
_0-3_躯体と製品
  6
CONTINUOUS
 62
    3
 10
655.49957549627106
 20
386.8612454464307
 11
646.73485199327069
 21
395.6259689496307
  0
LINE
  8
_0-3_躯体と製品
  6
CONTINUOUS
 62
    3
 10
649.79041801327094
 20
395.40632787013067
 11
646.92036049027092
 21
392.53627034683069
  0
LINE
  8
_0-3_躯体と製品
  6
CONTINUOUS
 62
    3
 10
653.69306242427092
 20
395.06633159413059
 11
645.48797627627073
 21
386.8612454464307
  0
LINE
  8
_0-3_躯体と製品
  6
CONTINUOUS
 62
    3
 10
644.72036049026974
 20
386.8612454464307
 11
661.72002049027105
 21
383.3612454464307
  0
LINE
  8
_0-3_躯体と製品
  6
CONTINUOUS
 62
    3
 10
644.72036049026974
 20
386.8612454464307
 11
661.72002049027105
 21
386.8612454464307
  0
ARC
  8
_0-3_躯体と製品
  6
CONTINUOUS
 62
    3
 10
654.22019049027085
 20
423.68520044643071
 40
28.623722999999998
 50
254.81037199999469
 51
285.1896280000052
  0
LINE
  8
_0-3_躯体と製品
  6
CONTINUOUS
 62
    3
 10
660.72036049026974
 20
383.3612454464307
 11
645.22036049026974
 21
383.3612454464307
  0
LINE
  8
_0-3_躯体と製品
  6
CONTINUOUS
 62
    3
 10
645.72036049026974
 20
381.56124544643063
 11
658.22036049026974
 21
381.56124544643063
  0
LINE
  8
_0-3_躯体と製品
  6
CONTINUOUS
 62
    3
 10
643.22036049026974
 20
392.3612454464307
 11
643.22036049026974
 21
393.16124544643071
  0
LINE
  8
_0-3_躯体と製品
  6
CONTINUOUS
 62
    3
 10
646.92036049027092
 20
389.3612454464307
 11
646.92036049027092
 21
392.8612454464307
  0
LINE
  8
_0-3_躯体と製品
  6
CONTINUOUS
 62
    3
 10
643.22036049026974
 20
392.16101444643067
 11
643.22036049026974
 21
394.56124544643058
  0
ARC
  8
_0-3_躯体と製品
  6
CONTINUOUS
 62
    3
 10
638.20000349026986
 20
380.3612454464307
 40
1
 50
90
 51
143.8313579999988
  0
LINE
  8
_0-3_躯体と製品
  6
DOT_17
 62
    3
 10
644.37084449027088
 20
378.96124544643061
 11
645.22036049026974
 21
378.96124544643061
  0
LINE
  8
_0-3_躯体と製品
  6
DOT_17
 62
    3
 10
641.72036049026974
 20
379.09596044643058
 11
642.06597249026981
 21
379.69457844643057
  0
LINE
  8
_0-3_躯体と製品
  6
DOT_17
 62
    3
 10
642.06597249026981
 20
379.69457844643057
 11
642.48936349027008
 21
378.96124544643061
  0
LINE
  8
_0-3_躯体と製品
  6
DOT_17
 62
    3
 10
641.72036049026974
 20
377.9801234464307
 11
642.06597249026981
 21
379.69457844643057
  0
LINE
  8
_0-3_躯体と製品
  6
DOT_17
 62
    3
 10
641.72036049026974
 20
376.34542544643062
 11
642.48936349027008
 21
378.96124544643061
  0
LINE
  8
_0-3_躯体と製品
  6
DOT_17
 62
    3
 10
643.94745449027096
 20
379.69457844643057
 11
643.52406449027103
 21
378.96124544643061
  0
LINE
  8
_0-3_躯体と製品
  6
DOT_17
 62
    3
 10
643.94745449027096
 20
379.69457844643057
 11
644.37084449027088
 21
378.96124544643061
  0
LINE
  8
_0-3_躯体と製品
  6
DOT_17
 62
    3
 10
642.48936349027008
 20
378.96124544643061
 11
643.52406449027103
 21
378.96124544643061
  0
LINE
  8
_0-3_躯体と製品
  6
CONTINUOUS
 62
    3
 10
645.82893549027085
 20
379.69457844643057
 11
645.22036049026974
 21
376.6756611462306
  0
LINE
  8
_0-3_躯体と製品
  6
CONTINUOUS
 62
    3
 10
645.40554549027092
 20
378.96124544643061
 11
645.22036049026974
 21
378.33132499013072
  0
LINE
  8
_0-3_躯体と製品
  6
CONTINUOUS
 62
    3
 10
645.22036049026974
 20
378.96124544643061
 11
645.40554549027092
 21
378.96124544643061
  0
LINE
  8
_0-3_躯体と製品
  6
CONTINUOUS
 62
    3
 10
647.71041749026972
 20
379.69457844643057
 11
647.28702749026979
 21
378.96124544643061
  0
LINE
  8
_0-3_躯体と製品
  6
CONTINUOUS
 62
    3
 10
647.71041749026972
 20
379.69457844643057
 11
648.13380749027101
 21
378.96124544643061
  0
LINE
  8
_0-3_躯体と製品
  6
CONTINUOUS
 62
    3
 10
638.20000349026986
 20
381.3612454464307
 11
639.22036049026974
 21
381.3612454464307
  0
LINE
  8
_0-3_躯体と製品
  6
CONTINUOUS
 62
    3
 10
645.82893549027085
 20
379.69457844643057
 11
645.40554549027092
 21
378.96124544643061
  0
LINE
  8
_0-3_躯体と製品
  6
CONTINUOUS
 62
    3
 10
645.82893549027085
 20
379.69457844643057
 11
646.25232649027112
 21
378.96124544643061
  0
LINE
  8
_0-3_躯体と製品
  6
CONTINUOUS
 62
    3
 10
646.25232649027112
 20
378.96124544643061
 11
647.28702749026979
 21
378.96124544643061
  0
LINE
  8
_0-3_躯体と製品
  6
CONTINUOUS
 62
    3
 10
640.72036049026974
 20
382.3612454464307
 11
641.72036049026974
 21
382.3612454464307
  0
LINE
  8
_0-3_躯体と製品
  6
CONTINUOUS
 62
    3
 10
639.97036049026974
 20
383.3612454464307
 11
639.5820484902697
 21
382.80667844643068
  0
ARC
  8
_0-3_躯体と製品
  6
CONTINUOUS
 62
    3
 10
641.22035249026976
 20
381.65952544643068
 40
2
 50
144.99999999999989
 51
180
  0
LINE
  8
_0-3_躯体と製品
  6
CONTINUOUS
 62
    3
 10
639.97036049026974
 20
383.3612454464307
 11
640.72036049026974
 21
383.3612454464307
  0
LINE
  8
_0-3_躯体と製品
  6
CONTINUOUS
 62
    3
 10
647.01429412227071
 20
386.8612454464307
 11
645.04576742826976
 21
388.82977214023066
  0
LINE
  8
_0-3_躯体と製品
  6
CONTINUOUS
 62
    3
 10
645.22036049026974
 20
391.8612454464307
 11
643.72036049026974
 21
391.8612454464307
  0
ARC
  8
_0-3_躯体と製品
  6
CONTINUOUS
 62
    3
 10
643.72036049026974
 20
392.3612454464307
 40
0.5
 50
180
 51
270
  0
LINE
  8
_0-3_躯体と製品
  6
CONTINUOUS
 62
    3
 10
643.72036049026974
 20
390.3612454464307
 11
645.22036049026974
 21
390.3612454464307
  0
ARC
  8
_0-3_躯体と製品
  6
CONTINUOUS
 62
    3
 10
645.22036049026974
 20
390.8612454464307
 40
0.5
 50
270
 51
0
  0
LINE
  8
_0-3_躯体と製品
  6
CONTINUOUS
 62
    3
 10
645.22036049026974
 20
388.8612454464307
 11
646.42036049027092
 21
388.8612454464307
  0
ARC
  8
_0-3_躯体と製品
  6
CONTINUOUS
 62
    3
 10
646.42036049027092
 20
389.3612454464307
 40
0.5
 50
270
 51
0
  0
ARC
  8
_0-3_躯体と製品
  6
CONTINUOUS
 62
    3
 10
645.22036049026974
 20
388.3612454464307
 40
0.5
 50
90
 51
180
  0
LINE
  8
_0-3_躯体と製品
  6
CONTINUOUS
 62
    3
 10
645.72036049026974
 20
391.3612454464307
 11
645.72036049026974
 21
390.8612454464307
  0
ARC
  8
_0-3_躯体と製品
  6
CONTINUOUS
 62
    3
 10
645.22036049026974
 20
391.3612454464307
 40
0.5
 50
0
 51
90
  0
ARC
  8
_0-3_躯体と製品
  6
CONTINUOUS
 62
    3
 10
643.72036049026974
 20
389.8612454464307
 40
0.5
 50
90
 51
180
  0
ARC
  8
_0-3_躯体と製品
  6
CONTINUOUS
 62
    3
 10
645.72036049026974
 20
381.06124544643058
 40
0.5
 50
90
 51
180
  0
ARC
  8
_0-3_躯体と製品
  6
CONTINUOUS
 62
    3
 10
645.22036049026974
 20
383.8612454464307
 40
0.5
 50
180
 51
270
  0
LINE
  8
_0-3_躯体と製品
  6
CONTINUOUS
 62
    3
 10
644.72036049026974
 20
383.8612454464307
 11
644.72036049026974
 21
388.3612454464307
  0
LINE
  8
_0-3_躯体と製品
  6
CONTINUOUS
 62
    3
 10
644.62036049027074
 20
391.8610134464306
 11
643.52036049027083
 21
391.8610134464306
  0
ARC
  8
_0-3_躯体と製品
  6
CONTINUOUS
 62
    3
 10
644.62036049027074
 20
391.2610134464307
 40
0.5999999999999998
 50
270
 51
90
  0
LINE
  8
_0-3_躯体と製品
  6
CONTINUOUS
 62
    3
 10
644.62036049027074
 20
390.66101344643067
 11
643.52036049027083
 21
390.66101344643067
  0
ARC
  8
_0-3_躯体と製品
  6
CONTINUOUS
 62
    3
 10
643.52036049027083
 20
390.3610134464306
 40
0.2999999999999998
 50
90
 51
180
  0
ARC
  8
_0-3_躯体と製品
  6
CONTINUOUS
 62
    3
 10
643.52036049027083
 20
392.16101444643067
 40
0.2999999999999998
 50
180
 51
270
  0
LINE
  8
_0-3_躯体と製品
  6
CONTINUOUS
 62
    3
 10
644.75693480927112
 20
393.3612454464307
 11
643.32717931527077
 21
394.79100093973057
  0
LINE
  8
_0-3_躯体と製品
  6
CONTINUOUS
 62
    3
 10
645.0029269022707
 20
394.86147744643068
 11
643.50269490227083
 21
393.3612454464307
  0
ARC
  8
_0-3_躯体と製品
  6
CONTINUOUS
 62
    3
 10
643.42036049027092
 20
393.16124544643071
 40
0.2
 50
90
 51
180
  0
LINE
  8
_0-3_躯体と製品
  6
CONTINUOUS
 62
    3
 10
643.42036049027092
 20
393.3612454464307
 11
646.42036049027092
 21
393.3612454464307
  0
ARC
  8
_0-3_躯体と製品
  6
CONTINUOUS
 62
    3
 10
646.42036049027092
 20
392.8612454464307
 40
0.5
 50
0
 51
90
  0
LINE
  8
_0-3_躯体と製品
  6
CONTINUOUS
 62
    3
 10
643.52036049027083
 20
394.8612454464307
 11
646.42036049027092
 21
394.8612454464307
  0
ARC
  8
_0-3_躯体と製品
  6
CONTINUOUS
 62
    3
 10
643.52036049027083
 20
394.56124544643058
 40
0.2999999999999998
 50
90
 51
180
  0
LINE
  8
_0-3_躯体と製品
  6
CONTINUOUS
 62
    3
 10
646.7203604902711
 20
395.16124544643071
 11
646.7203604902711
 21
396.06124544643058
  0
ARC
  8
_0-3_躯体と製品
  6
CONTINUOUS
 62
    3
 10
646.42036049027092
 20
396.06124544643058
 40
0.2999999999999998
 50
0
 51
90
  0
ARC
  8
_0-3_躯体と製品
  6
CONTINUOUS
 62
    3
 10
646.42036049027092
 20
395.16124544643071
 40
0.2999999999999998
 50
270
 51
0
  0
LINE
  8
_0-3_躯体と製品
  6
CONTINUOUS
 62
    3
 10
642.22036049026974
 20
396.3612454464307
 11
646.42036049027092
 21
396.3612454464307
  0
ARC
  8
_0-3_躯体と製品
  6
CONTINUOUS
 62
    3
 10
642.22036049026974
 20
395.8612454464307
 40
0.5
 50
90
 51
180
  0
LINE
  8
_0-3_躯体と製品
  6
CONTINUOUS
 62
    3
 10
661.72036049026974
 20
389.12574182703059
 11
655.74403361827081
 21
395.10206869883058
  0
LINE
  8
_0-3_躯体と製品
  6
CONTINUOUS
 62
    3
 10
659.74221618327101
 20
386.8612454464307
 11
651.40301189527099
 21
395.2004497340306
  0
LINE
  8
_0-3_躯体と製品
  6
CONTINUOUS
 62
    3
 10
658.21032481427073
 20
395.3409532973306
 11
649.73061696327068
 21
386.8612454464307
  0
LINE
  8
_0-3_躯体と製品
  6
CONTINUOUS
 62
    3
 10
661.72036049026974
 20
394.60834828543057
 11
653.97325765127107
 21
386.8612454464307
  0
LINE
  8
_0-3_躯体と製品
  6
CONTINUOUS
 62
    3
 10
661.72036049026974
 20
390.36570759833063
 11
658.21589833827102
 21
386.8612454464307
  0
LINE
  8
_0-3_躯体と製品
  6
CONTINUOUS
 62
    3
 10
660.2203604902711
 20
381.8612454464307
 11
660.72036049026974
 21
381.8612454464307
  0
ARC
  8
_0-3_躯体と製品
  6
CONTINUOUS
 62
    3
 10
654.98503049027067
 20
377.33618744643059
 40
1.7648479999999993
 50
112.9591249999973
 51
179.18645699999982
  0
LINE
  8
_0-3_躯体と製品
  6
CONTINUOUS
 62
    3
 10
655.22036049026974
 20
377.3612454464307
 11
654.29660049027098
 21
378.96124444643061
  0
LINE
  8
_0-3_躯体と製品
  6
CONTINUOUS
 62
    3
 10
653.18411949027086
 20
377.3612454464307
 11
655.22036049026974
 21
377.3612454464307
  0
ARC
  8
_0-3_躯体と製品
  6
CONTINUOUS
 62
    3
 10
658.22036049026974
 20
381.06124544643058
 40
0.5
 50
0
 51
90
  0
LINE
  8
_0-3_躯体と製品
  6
CONTINUOUS
 62
    3
 10
660.72036049026974
 20
381.8612454464307
 11
660.72036049026974
 21
383.3612454464307
  0
LINE
  8
_0-3_躯体と製品
  6
CONTINUOUS
 62
    3
 10
660.72036049026974
 20
383.3612454464307
 11
661.72002049027105
 21
383.3612454464307
  0
LINE
  8
_0-3_躯体と製品
  6
CONTINUOUS
 62
    3
 10
661.72036049026974
 20
393.36838251423063
 11
659.53038629927096
 21
395.55835670513068
  0
LINE
  8
_0-3_躯体と製品
  6
CONTINUOUS
 62
    3
 10
694.60762399026999
 20
355.0549524464306
 11
696.60488299027111
 21
354.95028044643072
  0
LINE
  8
_0-3_躯体と製品
  6
CONTINUOUS
 62
    3
 10
694.60762399026999
 20
361.6676384464306
 11
696.60488299027111
 21
361.77231044643065
  0
LINE
  8
_0-3_躯体と製品
  6
CONTINUOUS
 62
    3
 10
683.51802799027109
 20
353.63338844643056
 11
684.62132899026983
 21
355.57831144643063
  0
LINE
  8
_0-3_躯体と製品
  6
CONTINUOUS
 62
    3
 10
681.57762420827066
 20
354.8229320515307
 11
676.52076899026997
 21
352.98238744643072
  0
LINE
  8
_0-3_躯体と製品
  6
CONTINUOUS
 62
    3
 10
681.52076899027088
 20
353.73806044643061
 11
683.51802799027109
 21
353.63338844643056
  0
LINE
  8
_0-3_躯体と製品
  6
CONTINUOUS
 62
    3
 10
681.62543999027093
 20
355.73531944643059
 11
681.52076899027088
 21
353.73806044643061
  0
LINE
  8
_0-3_躯体と製品
  6
CONTINUOUS
 62
    3
 10
679.62818099027072
 20
355.8399914464307
 11
681.62543999027093
 21
355.73531944643059
  0
LINE
  8
_0-3_躯体と製品
  6
CONTINUOUS
 62
    3
 10
678.52487999027107
 20
353.89506844643068
 11
679.62818099027072
 21
355.8399914464307
  0
LINE
  8
_0-3_躯体と製品
  6
CONTINUOUS
 62
    3
 10
676.52762099027086
 20
353.99974044643056
 11
678.52487999027107
 21
353.89506844643068
  0
LINE
  8
_0-3_躯体と製品
  6
CONTINUOUS
 62
    3
 10
676.6322929902708
 20
355.99699944643055
 11
676.52762099027086
 21
353.99974044643056
  0
LINE
  8
_0-3_躯体と製品
  6
CONTINUOUS
 62
    3
 10
674.63503399027104
 20
356.1016714464306
 11
676.6322929902708
 21
355.99699944643055
  0
LINE
  8
_0-3_躯体と製品
  6
CONTINUOUS
 62
    3
 10
673.72038999026972
 20
354.36129544643069
 11
674.63503399027104
 21
356.1016714464306
  0
LINE
  8
_0-3_躯体と製品
  6
CONTINUOUS
 62
    3
 10
681.52076899027088
 20
353.73806044643061
 11
676.86278899027093
 21
352.04269444643063
  0
LINE
  8
_0-3_躯体と製品
  6
CONTINUOUS
 62
    3
 10
693.50432299027079
 20
353.1100294464307
 11
694.60762399026999
 21
355.0549524464306
  0
LINE
  8
_0-3_躯体と製品
  6
CONTINUOUS
 62
    3
 10
691.50706399027104
 20
353.21470144643058
 11
693.50432299027079
 21
353.1100294464307
  0
LINE
  8
_0-3_躯体と製品
  6
CONTINUOUS
 62
    3
 10
691.61173599027097
 20
355.21196044643062
 11
691.50706399027104
 21
353.21470144643058
  0
LINE
  8
_0-3_躯体と製品
  6
CONTINUOUS
 62
    3
 10
689.61447699027076
 20
355.31663244643073
 11
691.61173599027097
 21
355.21196044643062
  0
LINE
  8
_0-3_躯体と製品
  6
CONTINUOUS
 62
    3
 10
688.51117499027077
 20
353.37170844643072
 11
689.61447699027076
 21
355.31663244643073
  0
LINE
  8
_0-3_躯体と製品
  6
CONTINUOUS
 62
    3
 10
686.51391599027102
 20
353.47638044643065
 11
688.51117499027077
 21
353.37170844643072
  0
LINE
  8
_0-3_躯体と製品
  6
CONTINUOUS
 62
    3
 10
686.61858799027095
 20
355.4736394464307
 11
686.51391599027102
 21
353.47638044643065
  0
LINE
  8
_0-3_躯体と製品
  6
CONTINUOUS
 62
    3
 10
684.62132899026983
 20
355.57831144643063
 11
686.61858799027095
 21
355.4736394464307
  0
LINE
  8
_0-3_躯体と製品
  6
CONTINUOUS
 62
    3
 10
683.51802799027109
 20
363.08920244643059
 11
684.62132899026983
 21
361.14427944643063
  0
LINE
  8
_0-3_躯体と製品
  6
CONTINUOUS
 62
    3
 10
681.57762420827066
 20
361.89965884143061
 11
676.52076899026997
 21
363.7402034464306
  0
LINE
  8
_0-3_躯体と製品
  6
CONTINUOUS
 62
    3
 10
681.52076899027088
 20
362.9845304464306
 11
683.51802799027109
 21
363.08920244643059
  0
LINE
  8
_0-3_躯体と製品
  6
CONTINUOUS
 62
    3
 10
681.62543999027093
 20
360.98727144643055
 11
681.52076899027088
 21
362.9845304464306
  0
LINE
  8
_0-3_躯体と製品
  6
CONTINUOUS
 62
    3
 10
679.62818099027072
 20
360.88259944643073
 11
681.62543999027093
 21
360.98727144643055
  0
LINE
  8
_0-3_躯体と製品
  6
CONTINUOUS
 62
    3
 10
678.52487999027107
 20
362.82752244643069
 11
679.62818099027072
 21
360.88259944643073
  0
LINE
  8
_0-3_躯体と製品
  6
CONTINUOUS
 62
    3
 10
676.52762099027086
 20
362.72285044643058
 11
678.52487999027107
 21
362.82752244643069
  0
LINE
  8
_0-3_躯体と製品
  6
CONTINUOUS
 62
    3
 10
676.6322929902708
 20
360.7255914464306
 11
676.52762099027086
 21
362.72285044643058
  0
LINE
  8
_0-3_躯体と製品
  6
CONTINUOUS
 62
    3
 10
674.63503399027104
 20
360.62091944643061
 11
676.6322929902708
 21
360.7255914464306
  0
LINE
  8
_0-3_躯体と製品
  6
CONTINUOUS
 62
    3
 10
673.72038999026972
 20
362.36129544643069
 11
674.63503399027104
 21
360.62091944643061
  0
LINE
  8
_0-3_躯体と製品
  6
CONTINUOUS
 62
    3
 10
681.52076899027088
 20
362.9845304464306
 11
676.86278899027093
 21
364.67989644643063
  0
LINE
  8
_0-3_躯体と製品
  6
CONTINUOUS
 62
    3
 10
693.50432299027079
 20
363.61256144643073
 11
694.60762399026999
 21
361.6676384464306
  0
LINE
  8
_0-3_躯体と製品
  6
CONTINUOUS
 62
    3
 10
691.50706399027104
 20
363.50788944643062
 11
693.50432299027079
 21
363.61256144643073
  0
LINE
  8
_0-3_躯体と製品
  6
CONTINUOUS
 62
    3
 10
691.61173599027097
 20
361.51063044643058
 11
691.50706399027104
 21
363.50788944643062
  0
LINE
  8
_0-3_躯体と製品
  6
CONTINUOUS
 62
    3
 10
689.61447699027076
 20
361.4059584464307
 11
691.61173599027097
 21
361.51063044643058
  0
LINE
  8
_0-3_躯体と製品
  6
CONTINUOUS
 62
    3
 10
688.51117499027077
 20
363.3508824464306
 11
689.61447699027076
 21
361.4059584464307
  0
LINE
  8
_0-3_躯体と製品
  6
CONTINUOUS
 62
    3
 10
686.51391599027102
 20
363.24621044643072
 11
688.51117499027077
 21
363.3508824464306
  0
LINE
  8
_0-3_躯体と製品
  6
CONTINUOUS
 62
    3
 10
686.61858799027095
 20
361.24895144643068
 11
686.51391599027102
 21
363.24621044643072
  0
LINE
  8
_0-3_躯体と製品
  6
CONTINUOUS
 62
    3
 10
684.62132899026983
 20
361.14427944643063
 11
686.61858799027095
 21
361.24895144643068
  0
LINE
  8
_0-3_躯体と製品
  6
CONTINUOUS
 62
    3
 10
695.85094599026979
 20
360.23073944643056
 11
697.72038999026972
 21
358.36129544643069
  0
LINE
  8
_0-3_躯体と製品
  6
CONTINUOUS
 62
    3
 10
695.85094599026979
 20
356.4918514464307
 11
697.72038999026972
 21
358.36129544643069
  0
LINE
  8
_0-3_躯体と製品
  6
CONTINUOUS
 62
    3
 10
696.50021199027105
 20
352.95302144643068
 11
698.4974709902699
 21
352.84834944643063
  0
LINE
  8
_0-3_躯体と製品
  6
CONTINUOUS
 62
    3
 10
696.60488299027111
 20
354.95028044643072
 11
696.50021199027105
 21
352.95302144643068
  0
LINE
  8
_0-3_躯体と製品
  6
CONTINUOUS
 62
    3
 10
700.59940199027096
 20
354.74093644643068
 11
700.67790599027103
 21
356.23888044643058
  0
LINE
  8
_0-3_躯体と製品
  6
CONTINUOUS
 62
    3
 10
698.4974709902699
 20
352.84834944643063
 11
700.59940199027096
 21
354.74093644643068
  0
LINE
  8
_0-3_躯体と製品
  6
CONTINUOUS
 62
    3
 10
698.68064599027002
 20
356.34355244643069
 11
698.4974709902699
 21
352.84834944643063
  0
LINE
  8
_0-3_躯体と製品
  6
CONTINUOUS
 62
    3
 10
696.50021199027105
 20
363.76956944643069
 11
698.4974709902699
 21
363.87424144643063
  0
LINE
  8
_0-3_躯体と製品
  6
CONTINUOUS
 62
    3
 10
696.60488299027111
 20
361.77231044643065
 11
696.50021199027105
 21
363.76956944643069
  0
LINE
  8
_0-3_躯体と製品
  6
CONTINUOUS
 62
    3
 10
700.59940199027096
 20
361.9816544464307
 11
700.67790599027103
 21
360.48371044643062
  0
LINE
  8
_0-3_躯体と製品
  6
CONTINUOUS
 62
    3
 10
698.4974709902699
 20
363.87424144643063
 11
700.59940199027096
 21
361.9816544464307
  0
LINE
  8
_0-3_躯体と製品
  6
CONTINUOUS
 62
    3
 10
698.68064599027002
 20
360.37903844643068
 11
698.4974709902699
 21
363.87424144643063
  0
INSERT
  2
-001-_D4
  8
_0-2_寸法
 10
-1419.2682874542861
 20
166.24099634790329
 41
3
 42
3
 50
0
  0
INSERT
  2
-002-_D5
  8
_0-2_寸法
 10
-1419.2682874542861
 20
166.24099634790329
 41
3
 42
3
 50
0
  0
INSERT
  2
-003-_D6
  8
_0-2_寸法
 10
-1419.2682874542861
 20
166.24099634790329
 41
3
 42
3
 50
0
  0
INSERT
  2
-004-_D7
  8
_0-2_寸法
 10
-1419.2682874542861
 20
166.24099634790329
 41
3
 42
3
 50
0
  0
INSERT
  2
-005-_D8
  8
_0-2_寸法
 10
-1419.2682874542861
 20
166.24099634790329
 41
3
 42
3
 50
0
  0
INSERT
  2
-006-_D9
  8
_0-2_寸法
 10
-1419.2682874542861
 20
166.24099634790329
 41
3
 42
3
 50
0
  0
INSERT
  2
-007-_D10
  8
_0-2_寸法
 10
-1419.2682874542861
 20
166.24099634790329
 41
3
 42
3
 50
0
  0
INSERT
  2
-008-_D11
  8
_0-2_寸法
 10
-1419.2682874542861
 20
166.24099634790329
 41
3
 42
3
 50
0
  0
INSERT
  2
-009-_D12
  8
_0-2_寸法
 10
-1419.2682874542861
 20
166.24099634790329
 41
3
 42
3
 50
0
  0
INSERT
  2
-010-_D13
  8
_0-2_寸法
 10
-1419.2682874542861
 20
166.24099634790329
 41
3
 42
3
 50
0
  0
INSERT
  2
-011-_D14
  8
_0-2_寸法
 10
-1419.2682874542861
 20
166.24099634790329
 41
3
 42
3
 50
0
  0
INSERT
  2
-012-_D15
  8
_0-2_寸法
 10
-1419.2682874542861
 20
166.24099634790329
 41
3
 42
3
 50
0
  0
INSERT
  2
-013-_D16
  8
_0-2_寸法
 10
-1419.2682874542861
 20
166.24099634790329
 41
3
 42
3
 50
0
  0
INSERT
  2
-014-_D17
  8
_0-2_寸法
 10
-1419.2682874542861
 20
166.24099634790329
 41
3
 42
3
 50
0
  0
INSERT
  2
-015-_D18
  8
_0-2_寸法
 10
-1419.2682874542861
 20
166.24099634790329
 41
3
 42
3
 50
0
  0
INSERT
  2
-016-_D19
  8
_0-2_寸法
 10
-1419.2682874542861
 20
166.24099634790329
 41
3
 42
3
 50
0
  0
INSERT
  2
-017-_D20
  8
_0-2_寸法
 10
-1419.2682874542861
 20
166.24099634790329
 41
3
 42
3
 50
0
  0
INSERT
  2
-018-_D21
  8
_0-2_寸法
 10
-1419.2682874542861
 20
166.24099634790329
 41
3
 42
3
 50
0
  0
INSERT
  2
-019-_D22
  8
_0-2_寸法
 10
-1419.2682874542861
 20
166.24099634790329
 41
3
 42
3
 50
0
  0
INSERT
  2
-020-_D23
  8
_0-2_寸法
 10
-1419.2682874542861
 20
166.24099634790329
 41
3
 42
3
 50
0
  0
INSERT
  2
-021-_D24
  8
_0-2_寸法
 10
-1419.2682874542861
 20
166.24099634790329
 41
3
 42
3
 50
0
  0
INSERT
  2
-022-_D25
  8
_0-2_寸法
 10
-1419.2682874542861
 20
166.24099634790329
 41
3
 42
3
 50
0
  0
INSERT
  2
-023-_D26
  8
_0-2_寸法
 10
-1419.2682874542861
 20
166.24099634790329
 41
3
 42
3
 50
0
  0
INSERT
  2
-024-_D27
  8
_0-2_寸法
 10
-1419.2682874542861
 20
166.24099634790329
 41
3
 42
3
 50
0
  0
ENDSEC
  0
EOF
