  0
SECTION
  2
HEADER
  9
$ACADVER
  1
AC1009
  9
$INSBASE
 10
0
 20
0
 30
0
  9
$EXTMIN
 10
0
 20
0
  9
$EXTMAX
 10
420
 20
297
  9
$LIMMIN
 10
0
 20
0
  9
$LIMMAX
 10
420
 20
297
  9
$LTSCALE
 40
1
  0
ENDSEC
  0
SECTION
  2
TABLES
  0
TABLE
  2
LTYPE
 70
     9
  0
LTYPE
  2
CONTINUOUS
 70
    64
  3
実線
 72
    65
 73
     0
 40
0.0
  0
LTYPE
  2
DASHED1
 70
    64
  3
--  --  --  --  --  --  --  --  
 72
    65
 73
     2
 40
2.5
 49
1.25
 49
-1.25
  0
LTYPE
  2
DASHED2
 70
    64
  3
----    ----    ----    ----    
 72
    65
 73
     2
 40
5.0
 49
2.5
 49
-2.5
  0
LTYPE
  2
DASHED3
 70
    64
  3
------  ------  ------  ------  
 72
    65
 73
     2
 40
5.0
 49
3.75
 49
-1.25
  0
LTYPE
  2
CENTER1
 70
    64
  3
----- - ----- - ----- - ----- - 
 72
    65
 73
     4
 40
10.0
 49
6.25
 49
-1.25
 49
1.25
 49
-1.25
  0
LTYPE
  2
CENTER2
 70
    64
  3
----------  --  ----------  --  
 72
    65
 73
     4
 40
20.0
 49
12.5
 49
-2.5
 49
2.5
 49
-2.5
  0
LTYPE
  2
PHANTOM1
 70
    64
  3
--- - - --- - - --- - - --- - - 
 72
    65
 73
     6
 40
10.0
 49
3.25
 49
-1.25
 49
1.25
 49
-1.25
 49
1.25
 49
-1.25
  0
LTYPE
  2
PHANTOM2
 70
    64
  3
--------  -  -  --------  -  -  
 72
    65
 73
     6
 40
20.0
 49
10.0
 49
-2.5
 49
1.25
 49
-2.5
 49
1.25
 49
-2.5
  0
LTYPE
  2
DOT
 70
    64
  3
-   -   -   -   -   -   -   -   
 72
    65
 73
     2
 40
2.5
 49
0.625
 49
-1.875
  0
LTYPE
  2
DUMMY
 70
    64
  3
ダミー
 72
    65
 73
     0
 40
0.0
  0
LTYPE
  2
RAND1
 70
    64
  3
ランダム線1
 72
    65
 73
     4
 40
10.0
 49
1.0
 49
-2.0
 49
3.0
 49
-4.0
  0
LTYPE
  2
RAND2
 70
    64
  3
ランダム線2
 72
    65
 73
     4
 40
14.0
 49
2.0
 49
-3.0
 49
4.0
 49
-5.0
  0
LTYPE
  2
RAND3
 70
    64
  3
ランダム線3
 72
    65
 73
     4
 40
18.0
 49
3.0
 49
-4.0
 49
5.0
 49
-6.0
  0
LTYPE
  2
RAND4
 70
    64
  3
ランダム線4
 72
    65
 73
     4
 40
22.0
 49
4.0
 49
-5.0
 49
6.0
 49
-7.0
  0
LTYPE
  2
RAND5
 70
    64
  3
ランダム線5
 72
    65
 73
     4
 40
26.0
 49
5.0
 49
-6.0
 49
7.0
 49
-8.0
  0
LTYPE
  2
LONG1
 70
    64
  3
----------  --  ----------  --  
 72
    65
 73
     4
 40
40.0
 49
32.5
 49
-2.5
 49
2.5
 49
-2.5
  0
LTYPE
  2
LONG2
 70
    64
  3
--------  -  -  --------  -  -  
 72
    65
 73
     6
 40
40.0
 49
30.0
 49
-2.5
 49
1.25
 49
-2.5
 49
1.25
 49
-2.5
  0
LTYPE
  2
LONG3
 70
    64
  3
+++++++++++++++..+++++++++++++++
 72
    65
 73
     2
 40
40.0
 49
37.5
 49
-2.5
  0
LTYPE
  2
LONG4
 70
    64
  3
+++++++++++++++..+++++++++++++++
 72
    65
 73
     2
 40
80.0
 49
75.0
 49
-5.0
  0
LTYPE
  2
LONG5
 70
    64
  3
----------  --  ----------  --  
 72
    65
 73
     4
 40
60.0
 49
37.5
 49
-7.5
 49
7.5
 49
-7.5
  0
LTYPE
  2
dashed
 70
   64
  3
-------   -------------   ------
 72
   65
 73
    2
 40
7.5
 49
6
 49
-1.5
  0
LTYPE
  2
dashed_spaced
 70
   64
  3
----        --------        ----
 72
   65
 73
    2
 40
12
 49
6
 49
-6
  0
LTYPE
  2
long_dashed_dotted
 70
   64
  3
------------- --- --------------
 72
   65
 73
    4
 40
15.25
 49
12
 49
-1.5
 49
0.25
 49
-1.5
  0
LTYPE
  2
long_dashed_double-dotted
 70
   64
  3
----------- --- --- ------------
 72
   65
 73
    6
 40
17
 49
12
 49
-1.5
 49
0.25
 49
-1.5
 49
0.25
 49
-1.5
  0
LTYPE
  2
long_dashed_triplicate-dotted
 70
   64
  3
--------- --- --- --- ----------
 72
   65
 73
    8
 40
18.75
 49
12
 49
-1.5
 49
0.25
 49
-1.5
 49
0.25
 49
-1.5
 49
0.25
 49
-1.5
  0
LTYPE
  2
dotted
 70
   64
  3
   -       -       -       -    
 72
   65
 73
    2
 40
1.75
 49
0.25
 49
-1.5
  0
LTYPE
  2
chain
 70
   64
  3
-------------- -- --------------
 72
   65
 73
    4
 40
18.5
 49
12
 49
-1.5
 49
3.5
 49
-1.5
  0
LTYPE
  2
chain_double_dash
 70
   64
  3
------------ -- -- -------------
 72
   65
 73
    6
 40
23.5
 49
12
 49
-1.5
 49
3.5
 49
-1.5
 49
3.5
 49
-1.5
  0
LTYPE
  2
dashed_dotted
 70
   64
  3
-----------     -     ----------
 72
   65
 73
    4
 40
9.25
 49
6
 49
-1.5
 49
0.25
 49
-1.5
  0
LTYPE
  2
double-dashed_dotted
 70
   64
  3
------   -----------   -   -----
 72
   65
 73
    6
 40
16.75
 49
6
 49
-1.5
 49
6
 49
-1.5
 49
0.25
 49
-1.5
  0
LTYPE
  2
dashed_double-dotted
 70
   64
  3
---------    -    -    ---------
 72
   65
 73
    6
 40
11
 49
6
 49
-1.5
 49
0.25
 49
-1.5
 49
0.25
 49
-1.5
  0
LTYPE
  2
double-dashed_double-dotted
 70
   64
  3
-----   ---------   -   -   ----
 72
   65
 73
    8
 40
18.5
 49
6
 49
-1.5
 49
6
 49
-1.5
 49
0.25
 49
-1.5
 49
0.25
 49
-1.5
  0
LTYPE
  2
dashed_triplicate-dotted
 70
   64
  3
-------    -    -    -    ------
 72
   65
 73
    8
 40
12.75
 49
6
 49
-1.5
 49
0.25
 49
-1.5
 49
0.25
 49
-1.5
 49
0.25
 49
-1.5
  0
LTYPE
  2
double-dashed_triplicate-dotted
 70
   64
  3
-----  ---------  -  -  -  -----
 72
   65
 73
   10
 40
20.25
 49
6
 49
-1.5
 49
6
 49
-1.5
 49
0.25
 49
-1.5
 49
0.25
 49
-1.5
 49
0.25
 49
-1.5
  0
LTYPE
  2
undefined
 70
   64
  3
--------------------------------
 72
   65
 73
    0
 40
0
  0
LTYPE
  2
PLINE2
 70
   64
  3
------     -----------     -----
 72
   65
 73
    2
 40
3
 49
2.1000000000000001
 49
-0.9
  0
LTYPE
  2
PLINE3
 70
   64
  3
------------   ---   -----------
 72
   65
 73
    4
 40
10
 49
7
 49
-1
 49
1
 49
-1
  0
LTYPE
  2
PLINE4
 70
   64
  3
---------   ---   ---   --------
 72
   65
 73
    6
 40
10
 49
5
 49
-1
 49
1
 49
-1
 49
1
 49
-1
  0
LTYPE
  2
PLINE5
 70
   64
  3
------     -----------     -----
 72
   65
 73
    2
 40
5
 49
3.5
 49
-1.5
  0
LTYPE
  2
PLINE6
 70
   64
  3
------------   ---   -----------
 72
   65
 73
    4
 40
15
 49
10.5
 49
-1.5
 49
1.5
 49
-1.5
  0
LTYPE
  2
PLINE7
 70
   64
  3
---------   ---   ---   --------
 72
   65
 73
    6
 40
15
 49
7.5
 49
-1.5
 49
1.5
 49
-1.5
 49
1.5
 49
-1.5
  0
LTYPE
  2
PLINE8
 70
   64
  3
------     -----------     -----
 72
   65
 73
    2
 40
7
 49
4.9000000000000004
 49
-2.1000000000000001
  0
LTYPE
  2
PLINE9
 70
   64
  3
------------   ---   -----------
 72
   65
 73
    4
 40
20
 49
14
 49
-2
 49
2
 49
-2
  0
LTYPE
  2
PLINE10
 70
   64
  3
---------   ---   ---   --------
 72
   65
 73
    6
 40
20
 49
10
 49
-2
 49
2
 49
-2
 49
2
 49
-2
  0
LTYPE
  2
PLINE11
 70
   64
  3
------     -----------     -----
 72
   65
 73
    2
 40
9
 49
6.2999999999999989
 49
-2.7000000000000002
  0
LTYPE
  2
PLINE12
 70
   64
  3
------------   ---   -----------
 72
   65
 73
    4
 40
25
 49
17.5
 49
-2.5
 49
2.5
 49
-2.5
  0
LTYPE
  2
PLINE13
 70
   64
  3
---------   ---   ---   --------
 72
   65
 73
    6
 40
25
 49
12.5
 49
-2.5
 49
2.5
 49
-2.5
 49
2.5
 49
-2.5
  0
LTYPE
  2
PLINE14
 70
   64
  3
------     -----------     -----
 72
   65
 73
    2
 40
11
 49
7.7000000000000002
 49
-3.2999999999999989
  0
LTYPE
  2
PLINE15
 70
   64
  3
------------   ---   -----------
 72
   65
 73
    4
 40
30
 49
21
 49
-3
 49
3
 49
-3
  0
LTYPE
  2
PLINE16
 70
   64
  3
---------   ---   ---   --------
 72
   65
 73
    6
 40
30
 49
15
 49
-3
 49
3
 49
-3
 49
3
 49
-3
  0
ENDTAB
  0
TABLE
  2
STYLE
  5
3
100
AcDbSymbolTable
 70
     1
  0
STYLE
  5
10
100
AcDbSymbolTableRecord
100
AcDbTextStyleTableRecord
  2
STANDARD
 70
     0
 40
0.0
 41
1.0
 50
0.0
 71
     0
 42
0.2
  3
txt
  4
bigfont.shx
  0
STYLE
  5
26
100
AcDbSymbolTableRecord
100
AcDbTextStyleTableRecord
  2
TATEGAKI
 70
    68
 40
0.0
 41
1.0
 50
0.0
 71
     0
 42
1.0
  3
txt
  4
bigfont.shx
  0
ENDTAB
  0
TABLE
  2
LAYER
 70
    5
  0
LAYER
  2
_0-0_0
 70
   64
 62
    7
  6
CONTINUOUS
  0
LAYER
  2
_0-3_躯体と製品
 70
   64
 62
    7
  6
CONTINUOUS
  0
LAYER
  2
_0-4_図面枠
 70
   64
 62
    7
  6
CONTINUOUS
  0
LAYER
  2
_0-5_文字-記号
 70
   64
 62
    7
  6
CONTINUOUS
  0
LAYER
  2
ADD_LINE
 70
   64
 62
    7
  6
CONTINUOUS
  0
ENDTAB
  0
ENDSEC
  0
SECTION
  2
BLOCKS
  0
BLOCK
  2
-000-_Open30
 70
   64
 10
0
 20
0
 30
0
  0
LINE
  8
_0-0_0
  6
CONTINUOUS
 62
    7
 10
-2
 20
0.53589838
 11
0
 21
0
  0
LINE
  8
_0-0_0
  6
CONTINUOUS
 62
    7
 10
0
 20
0
 11
-2
 21
-0.53589838
  0
LINE
  8
_0-0_0
  6
CONTINUOUS
 62
    7
 10
0
 20
0
 11
-2
 21
0
  0
ENDBLK
  0
BLOCK
  2
-001-_D4
 70
   64
 10
0
 20
0
 30
0
  0
LINE
  8
_0-0_0
  6
CONTINUOUS
 62
    4
 10
601.55934279592066
 20
459.54725162198042
 11
601.55934279592066
 21
477.42198762198018
  0
LINE
  8
_0-0_0
  6
CONTINUOUS
 62
    4
 10
754.89268479592056
 20
459.54725162198042
 11
754.89268479592056
 21
477.42198762198018
  0
LINE
  8
_0-0_0
  6
CONTINUOUS
 62
    4
 10
603.55934279592066
 20
477.42198762198018
 11
752.89268479592056
 21
477.42198762198018
  0
INSERT
  2
-000-_Open30
  8
_0-0_0
 10
601.55934279592066
 20
477.42198762198018
 41
1
 42
1
 50
180
  0
INSERT
  2
-000-_Open30
  8
_0-0_0
 10
754.89268479592056
 20
477.42198762198018
 41
1
 42
1
 50
0
  0
TEXT
  8
_0-0_0
 62
    7
 10
675.22601379592038
 20
479.42198762198018
 40
4
 41
1
 50
0
  1
230
  0
POINT
  8
_0-1_Defpoints
 62
    7
 10
601.55934279592066
 20
459.54725162198042
  0
POINT
  8
_0-1_Defpoints
 62
    7
 10
754.89268479592056
 20
459.54725162198042
  0
POINT
  8
_0-1_Defpoints
 62
    7
 10
754.89268479592056
 20
477.42198762198018
  0
ENDBLK
  0
BLOCK
  2
-002-_D5
 70
   64
 10
0
 20
0
 30
0
  0
LINE
  8
_0-0_0
  6
CONTINUOUS
 62
    4
 10
755.2260167959206
 20
459.21391762198022
 11
772.5633287959206
 21
459.21391762198022
  0
LINE
  8
_0-0_0
  6
CONTINUOUS
 62
    4
 10
765.89268479592056
 20
449.21391762198022
 11
772.5633287959206
 21
449.21391762198022
  0
LINE
  8
_0-0_0
  6
CONTINUOUS
 62
    4
 10
772.5633287959206
 20
457.21391762198039
 11
772.5633287959206
 21
451.21391762198022
  0
INSERT
  2
-000-_Open30
  8
_0-0_0
 10
772.5633287959206
 20
459.21391762198022
 41
1
 42
1
 50
90
  0
INSERT
  2
-000-_Open30
  8
_0-0_0
 10
772.5633287959206
 20
449.21391762198022
 41
1
 42
1
 50
270
  0
TEXT
  8
_0-0_0
 62
    7
 10
770.56332879592037
 20
452.21391762198039
 40
4
 41
1
 50
90
  1
15
  0
POINT
  8
_0-1_Defpoints
 62
    7
 10
755.2260167959206
 20
459.21391762198022
  0
POINT
  8
_0-1_Defpoints
 62
    7
 10
765.89268479592056
 20
449.21391762198022
  0
POINT
  8
_0-1_Defpoints
 62
    7
 10
772.5633287959206
 20
449.21391762198022
  0
ENDBLK
  0
BLOCK
  2
-003-_D6
 70
   64
 10
0
 20
0
 30
0
  0
LINE
  8
_0-0_0
  6
CONTINUOUS
 62
    4
 10
644.89267879592057
 20
414.88058162198041
 11
644.89267879592057
 21
409.05752962198022
  0
LINE
  8
_0-0_0
  6
CONTINUOUS
 62
    4
 10
711.55934879592064
 20
414.88058162198041
 11
711.55934879592064
 21
409.05752962198022
  0
LINE
  8
_0-0_0
  6
CONTINUOUS
 62
    4
 10
646.89267879592057
 20
409.05752962198022
 11
709.55934879592064
 21
409.05752962198022
  0
INSERT
  2
-000-_Open30
  8
_0-0_0
 10
644.89267879592057
 20
409.05752962198022
 41
1
 42
1
 50
180
  0
INSERT
  2
-000-_Open30
  8
_0-0_0
 10
711.55934879592064
 20
409.05752962198022
 41
1
 42
1
 50
0
  0
TEXT
  8
_0-0_0
 62
    7
 10
675.22601379592038
 20
411.05752962198022
 40
4
 41
1
 50
0
  1
100
  0
POINT
  8
_0-1_Defpoints
 62
    7
 10
644.89267879592057
 20
414.88058162198041
  0
POINT
  8
_0-1_Defpoints
 62
    7
 10
711.55934879592064
 20
414.88058162198041
  0
POINT
  8
_0-1_Defpoints
 62
    7
 10
711.55934879592064
 20
409.05752962198022
  0
ENDBLK
  0
BLOCK
  2
-004-_D7
 70
   64
 10
0
 20
0
 30
0
  0
LINE
  8
_0-0_0
  6
CONTINUOUS
 62
    4
 10
711.55934879592064
 20
414.88058162198041
 11
711.55934879592064
 21
409.05752962198022
  0
LINE
  8
_0-0_0
  6
CONTINUOUS
 62
    4
 10
728.89268279592056
 20
420.5373896219802
 11
728.89268279592056
 21
409.05752962198022
  0
LINE
  8
_0-0_0
  6
CONTINUOUS
 62
    4
 10
713.55934879592064
 20
409.05752962198022
 11
726.89268279592056
 21
409.05752962198022
  0
INSERT
  2
-000-_Open30
  8
_0-0_0
 10
711.55934879592064
 20
409.05752962198022
 41
1
 42
1
 50
180
  0
INSERT
  2
-000-_Open30
  8
_0-0_0
 10
728.89268279592056
 20
409.05752962198022
 41
1
 42
1
 50
0
  0
TEXT
  8
_0-0_0
 62
    7
 10
718.2260157959206
 20
411.05752962198022
 40
4
 41
1
 50
0
  1
26
  0
POINT
  8
_0-1_Defpoints
 62
    7
 10
711.55934879592064
 20
414.88058162198041
  0
POINT
  8
_0-1_Defpoints
 62
    7
 10
728.89268279592056
 20
420.5373896219802
  0
POINT
  8
_0-1_Defpoints
 62
    7
 10
728.89268279592056
 20
409.05752962198022
  0
ENDBLK
  0
BLOCK
  2
-005-_D8
 70
   64
 10
0
 20
0
 30
0
  0
LINE
  8
_0-0_0
  6
CONTINUOUS
 62
    4
 10
934.0452727959206
 20
423.34019962198039
 11
996.71194279592055
 21
423.34019962198039
  0
INSERT
  2
-000-_Open30
  8
_0-0_0
 10
932.0452727959206
 20
423.34019962198039
 41
1
 42
1
 50
180
  0
INSERT
  2
-000-_Open30
  8
_0-0_0
 10
998.71194279592055
 20
423.34019962198039
 41
1
 42
1
 50
0
  0
TEXT
  8
_0-0_0
 62
    7
 10
962.37860779592063
 20
425.34019962198039
 40
4
 41
1
 50
0
  1
100
  0
POINT
  8
_0-1_Defpoints
 62
    7
 10
932.0452727959206
 20
423.34019962198039
  0
POINT
  8
_0-1_Defpoints
 62
    7
 10
998.71194279592055
 20
423.34019962198039
  0
POINT
  8
_0-1_Defpoints
 62
    7
 10
998.71194279592055
 20
423.34019962198039
  0
ENDBLK
  0
BLOCK
  2
-006-_D9
 70
   64
 10
0
 20
0
 30
0
  0
LINE
  8
_0-0_0
  6
CONTINUOUS
 62
    4
 10
933.0452727959206
 20
449.21391762198022
 11
1035.5060307959207
 21
449.21391762198022
  0
LINE
  8
_0-0_0
  6
CONTINUOUS
 62
    4
 10
1027.3884687959207
 20
473.21391762198039
 11
1035.5060307959207
 21
473.21391762198039
  0
LINE
  8
_0-0_0
  6
CONTINUOUS
 62
    4
 10
1035.5060307959207
 20
451.21391762198022
 11
1035.5060307959207
 21
471.21391762198022
  0
INSERT
  2
-000-_Open30
  8
_0-0_0
 10
1035.5060307959207
 20
449.21391762198022
 41
1
 42
1
 50
270
  0
INSERT
  2
-000-_Open30
  8
_0-0_0
 10
1035.5060307959207
 20
473.21391762198039
 41
1
 42
1
 50
90
  0
TEXT
  8
_0-0_0
 62
    7
 10
1033.5060307959207
 20
459.21391762198039
 40
4
 41
1
 50
90
  1
36
  0
POINT
  8
_0-1_Defpoints
 62
    7
 10
933.0452727959206
 20
449.21391762198022
  0
POINT
  8
_0-1_Defpoints
 62
    7
 10
1027.3884687959207
 20
473.21391762198039
  0
POINT
  8
_0-1_Defpoints
 62
    7
 10
1035.5060307959207
 20
473.21391762198039
  0
ENDBLK
  0
BLOCK
  2
-007-_D10
 70
   64
 10
0
 20
0
 30
0
  0
LINE
  8
_0-0_0
  6
CONTINUOUS
 62
    4
 10
877.71193679592079
 20
449.21391762198022
 11
869.31191079592065
 21
449.21391762198022
  0
LINE
  8
_0-0_0
  6
CONTINUOUS
 62
    4
 10
988.37860879592063
 20
499.21391962198038
 11
869.31191079592065
 21
499.21391962198038
  0
LINE
  8
_0-0_0
  6
CONTINUOUS
 62
    4
 10
869.31191079592065
 20
451.21391762198022
 11
869.31191079592065
 21
497.21391962198038
  0
INSERT
  2
-000-_Open30
  8
_0-0_0
 10
869.31191079592065
 20
449.21391762198022
 41
1
 42
1
 50
270
  0
INSERT
  2
-000-_Open30
  8
_0-0_0
 10
869.31191079592065
 20
499.21391962198038
 41
1
 42
1
 50
90
  0
TEXT
  8
_0-0_0
 62
    7
 10
867.31191079592065
 20
472.21391862198038
 40
4
 41
1
 50
90
  1
75
  0
POINT
  8
_0-1_Defpoints
 62
    7
 10
877.71193679592079
 20
449.21391762198022
  0
POINT
  8
_0-1_Defpoints
 62
    7
 10
988.37860879592063
 20
499.21391962198038
  0
POINT
  8
_0-1_Defpoints
 62
    7
 10
869.31191079592065
 20
499.21391962198038
  0
ENDBLK
  0
BLOCK
  2
-008-_D11
 70
   64
 10
0
 20
0
 30
0
  0
LINE
  8
_0-0_0
  6
CONTINUOUS
 62
    4
 10
888.37860479592064
 20
459.21391762198022
 11
878.71193679592079
 21
459.21391762198022
  0
LINE
  8
_0-0_0
  6
CONTINUOUS
 62
    4
 10
878.71193679592079
 20
451.21391762198022
 11
878.71193679592079
 21
457.21391762198039
  0
INSERT
  2
-000-_Open30
  8
_0-0_0
 10
878.71193679592079
 20
449.21391762198022
 41
1
 42
1
 50
270
  0
INSERT
  2
-000-_Open30
  8
_0-0_0
 10
878.71193679592079
 20
459.21391762198022
 41
1
 42
1
 50
90
  0
TEXT
  8
_0-0_0
 62
    7
 10
876.71193679592056
 20
452.21391762198039
 40
4
 41
1
 50
90
  1
15
  0
POINT
  8
_0-1_Defpoints
 62
    7
 10
878.71193679592079
 20
449.21391762198022
  0
POINT
  8
_0-1_Defpoints
 62
    7
 10
888.37860479592064
 20
459.21391762198022
  0
POINT
  8
_0-1_Defpoints
 62
    7
 10
878.71193679592079
 20
459.21391762198022
  0
ENDBLK
  0
BLOCK
  2
-009-_D12
 70
   64
 10
0
 20
0
 30
0
  0
LINE
  8
_0-0_0
  6
CONTINUOUS
 62
    4
 10
888.37860479592064
 20
459.21391762198022
 11
878.71193679592079
 21
459.21391762198022
  0
LINE
  8
_0-0_0
  6
CONTINUOUS
 62
    4
 10
988.37860879592063
 20
499.21391962198038
 11
878.71193679592079
 21
499.21391962198038
  0
LINE
  8
_0-0_0
  6
CONTINUOUS
 62
    4
 10
878.71193679592079
 20
461.21391762198039
 11
878.71193679592079
 21
497.21391962198038
  0
INSERT
  2
-000-_Open30
  8
_0-0_0
 10
878.71193679592079
 20
459.21391762198022
 41
1
 42
1
 50
270
  0
INSERT
  2
-000-_Open30
  8
_0-0_0
 10
878.71193679592079
 20
499.21391962198038
 41
1
 42
1
 50
90
  0
TEXT
  8
_0-0_0
 62
    7
 10
876.71193679592056
 20
477.21391862198038
 40
4
 41
1
 50
90
  1
60
  0
POINT
  8
_0-1_Defpoints
 62
    7
 10
888.37860479592064
 20
459.21391762198022
  0
POINT
  8
_0-1_Defpoints
 62
    7
 10
988.37860879592063
 20
499.21391962198038
  0
POINT
  8
_0-1_Defpoints
 62
    7
 10
878.71193679592079
 20
499.21391962198038
  0
ENDBLK
  0
BLOCK
  2
-010-_D13
 70
   64
 10
0
 20
0
 30
0
  0
LINE
  8
_0-0_0
  6
CONTINUOUS
 62
    4
 10
888.71193679592079
 20
459.54725162198042
 11
888.71193679592079
 21
506.40735362198041
  0
LINE
  8
_0-0_0
  6
CONTINUOUS
 62
    4
 10
988.71194279592055
 20
499.54725362198042
 11
988.71194279592055
 21
506.40735362198041
  0
LINE
  8
_0-0_0
  6
CONTINUOUS
 62
    4
 10
890.71193679592056
 20
506.40735362198041
 11
986.71194279592055
 21
506.40735362198041
  0
INSERT
  2
-000-_Open30
  8
_0-0_0
 10
888.71193679592079
 20
506.40735362198041
 41
1
 42
1
 50
180
  0
INSERT
  2
-000-_Open30
  8
_0-0_0
 10
988.71194279592055
 20
506.40735362198041
 41
1
 42
1
 50
0
  0
TEXT
  8
_0-0_0
 62
    7
 10
935.71193979592056
 20
508.40735362198041
 40
4
 41
1
 50
0
  1
150
  0
POINT
  8
_0-1_Defpoints
 62
    7
 10
888.71193679592079
 20
459.54725162198042
  0
POINT
  8
_0-1_Defpoints
 62
    7
 10
988.71194279592055
 20
499.54725362198042
  0
POINT
  8
_0-1_Defpoints
 62
    7
 10
988.71194279592055
 20
506.40735362198041
  0
ENDBLK
  0
BLOCK
  2
-011-_D14
 70
   64
 10
0
 20
0
 30
0
  0
LINE
  8
_0-0_0
  6
CONTINUOUS
 62
    4
 10
988.71194279592055
 20
499.54725362198042
 11
988.71194279592055
 21
506.40735362198041
  0
LINE
  8
_0-0_0
  6
CONTINUOUS
 62
    4
 10
990.71194279592055
 20
506.40735362198041
 11
996.71194279592055
 21
506.40735362198041
  0
INSERT
  2
-000-_Open30
  8
_0-0_0
 10
988.71194279592055
 20
506.40735362198041
 41
1
 42
1
 50
180
  0
INSERT
  2
-000-_Open30
  8
_0-0_0
 10
998.71194279592055
 20
506.40735362198041
 41
1
 42
1
 50
0
  0
TEXT
  8
_0-0_0
 62
    7
 10
991.71194279592055
 20
508.40735362198041
 40
4
 41
1
 50
0
  1
15
  0
POINT
  8
_0-1_Defpoints
 62
    7
 10
988.71194279592055
 20
499.54725362198042
  0
POINT
  8
_0-1_Defpoints
 62
    7
 10
998.71194279592055
 20
506.40735362198041
  0
POINT
  8
_0-1_Defpoints
 62
    7
 10
998.71194279592055
 20
506.40735362198041
  0
ENDBLK
  0
BLOCK
  2
-012-_D15
 70
   64
 10
0
 20
0
 30
0
  0
LINE
  8
_0-0_0
  6
CONTINUOUS
 62
    4
 10
998.71194279592055
 20
509.13950562198039
 11
998.71194279592055
 21
516.44006962198046
  0
LINE
  8
_0-0_0
  6
CONTINUOUS
 62
    4
 10
888.71193679592079
 20
459.54725162198042
 11
888.71193679592079
 21
516.44006962198046
  0
LINE
  8
_0-0_0
  6
CONTINUOUS
 62
    4
 10
996.71194279592055
 20
516.44006962198046
 11
890.71193679592056
 21
516.44006962198046
  0
INSERT
  2
-000-_Open30
  8
_0-0_0
 10
998.71194279592055
 20
516.44006962198046
 41
1
 42
1
 50
0
  0
INSERT
  2
-000-_Open30
  8
_0-0_0
 10
888.71193679592079
 20
516.44006962198046
 41
1
 42
1
 50
180
  0
TEXT
  8
_0-0_0
 62
    7
 10
940.71193979592056
 20
518.44006962198046
 40
4
 41
1
 50
0
  1
165
  0
POINT
  8
_0-1_Defpoints
 62
    7
 10
998.71194279592055
 20
509.13950562198039
  0
POINT
  8
_0-1_Defpoints
 62
    7
 10
888.71193679592079
 20
459.54725162198042
  0
POINT
  8
_0-1_Defpoints
 62
    7
 10
888.71193679592079
 20
516.44006962198046
  0
ENDBLK
  0
ENDSEC
  0
SECTION
  2
ENTITIES
  0
LINE
  8
_0-3_躯体と製品
  6
CONTINUOUS
 62
    2
 10
179.52837349999999
 20
178.29398750000001
 11
179.29504049999997
 21
178.52732050000003
  0
LINE
  8
_0-3_躯体と製品
  6
CONTINUOUS
 62
    2
 10
179.52837349999999
 20
178.29398750000001
 11
179.7617075
 21
178.52732050000003
  0
LINE
  8
_0-3_躯体と製品
  6
CONTINUOUS
 62
    2
 10
180.2617075
 20
178.52732050000003
 11
180.2617075
 21
178.12732050000002
  0
LINE
  8
_0-3_躯体と製品
  6
CONTINUOUS
 62
    2
 10
179.66170749999998
 20
177.36065449999992
 11
179.7617075
 21
177.36065449999992
  0
ARC
  8
_0-3_躯体と製品
  6
CONTINUOUS
 62
    2
 10
179.7617075
 20
178.12732050000002
 40
0.7666669999999999
 50
270
 51
0
  0
LINE
  8
_0-3_躯体と製品
  6
CONTINUOUS
 62
    2
 10
179.66170749999998
 20
177.62732050000002
 11
179.7617075
 21
177.62732050000002
  0
ARC
  8
_0-3_躯体と製品
  6
CONTINUOUS
 62
    2
 10
179.7617075
 20
178.12732050000002
 40
0.5
 50
270
 51
0
  0
ARC
  8
_0-3_躯体と製品
  6
CONTINUOUS
 62
    2
 10
179.66170749999998
 20
177.4939875
 40
0.133333
 50
90
 51
270
  0
LINE
  8
_0-3_躯体と製品
  6
CONTINUOUS
 62
    2
 10
179.7617075
 20
178.52732050000003
 11
180.2617075
 21
178.52732050000003
  0
LINE
  8
_0-3_躯体と製品
  6
CONTINUOUS
 62
    2
 10
178.79504049999997
 20
178.52732050000003
 11
179.29504049999997
 21
178.52732050000003
  0
ARC
  8
_0-3_躯体と製品
  6
CONTINUOUS
 62
    2
 10
179.52837349999999
 20
180.2247544999999
 40
0.166667
 50
33.424810999999053
 51
146.5751890000009
  0
LINE
  8
_0-3_躯体と製品
  6
CONTINUOUS
 62
    2
 10
179.02837349999999
 20
179.36065449999992
 11
179.1950405
 21
179.52732150000003
  0
LINE
  8
_0-3_躯体と製品
  6
CONTINUOUS
 62
    2
 10
179.02837349999999
 20
179.36065449999992
 11
179.1950405
 21
179.19398749999991
  0
LINE
  8
_0-3_躯体と製品
  6
CONTINUOUS
 62
    2
 10
179.1950405
 20
179.19398749999991
 11
179.1950405
 21
179.02732150000003
  0
LINE
  8
_0-3_躯体と製品
  6
CONTINUOUS
 62
    2
 10
179.3892725
 20
180.31656150000001
 11
178.97837349999998
 21
179.69398750000002
  0
LINE
  8
_0-3_躯体と製品
  6
CONTINUOUS
 62
    2
 10
179.1950405
 20
179.02732150000003
 11
178.52837349999999
 21
179.02732150000003
  0
LINE
  8
_0-3_躯体と製品
  6
CONTINUOUS
 62
    2
 10
178.79504049999997
 20
178.52732050000003
 11
178.79504049999997
 21
178.12732050000002
  0
LINE
  8
_0-3_躯体と製品
  6
CONTINUOUS
 62
    2
 10
178.52837349999999
 20
179.02732150000003
 11
178.52837349999999
 21
178.12732050000002
  0
LINE
  8
_0-3_躯体と製品
  6
CONTINUOUS
 62
    2
 10
178.97837349999998
 20
179.69398750000002
 11
179.1950405
 21
179.52732150000003
  0
LINE
  8
_0-3_躯体と製品
  6
CONTINUOUS
 62
    2
 10
179.86170749999997
 20
179.19398749999991
 11
179.86170749999997
 21
179.02732150000003
  0
LINE
  8
_0-3_躯体と製品
  6
CONTINUOUS
 62
    2
 10
179.66747549999997
 20
180.31656150000001
 11
180.0783735
 21
179.69398750000002
  0
LINE
  8
_0-3_躯体と製品
  6
CONTINUOUS
 62
    2
 10
179.86170749999997
 20
179.02732150000003
 11
180.52837349999999
 21
179.02732150000003
  0
LINE
  8
_0-3_躯体と製品
  6
CONTINUOUS
 62
    2
 10
180.52837349999999
 20
178.12732050000002
 11
180.52837349999999
 21
179.02732150000003
  0
LINE
  8
_0-3_躯体と製品
  6
CONTINUOUS
 62
    2
 10
179.86170749999997
 20
179.52732150000003
 11
180.0783735
 21
179.69398750000002
  0
LINE
  8
_0-3_躯体と製品
  6
CONTINUOUS
 62
    2
 10
180.02837349999999
 20
179.36065449999992
 11
179.86170749999997
 21
179.52732150000003
  0
LINE
  8
_0-3_躯体と製品
  6
CONTINUOUS
 62
    2
 10
180.02837349999999
 20
179.36065449999992
 11
179.86170749999997
 21
179.19398749999991
  0
LINE
  8
_0-3_躯体と製品
  6
CONTINUOUS
 62
    2
 10
179.39504049999999
 20
177.36065449999992
 11
179.29504049999997
 21
177.36065449999992
  0
ARC
  8
_0-3_躯体と製品
  6
CONTINUOUS
 62
    2
 10
179.29504049999997
 20
178.12732050000002
 40
0.7666669999999999
 50
180
 51
270
  0
LINE
  8
_0-3_躯体と製品
  6
CONTINUOUS
 62
    2
 10
179.39504049999999
 20
177.62732050000002
 11
179.29504049999997
 21
177.62732050000002
  0
ARC
  8
_0-3_躯体と製品
  6
CONTINUOUS
 62
    2
 10
179.29504049999997
 20
178.12732050000002
 40
0.5
 50
180
 51
270
  0
ARC
  8
_0-3_躯体と製品
  6
CONTINUOUS
 62
    2
 10
179.39504049999999
 20
177.4939875
 40
0.133333
 50
270
 51
90
  0
LINE
  8
_0-3_躯体と製品
  6
CONTINUOUS
 62
    2
 10
180.61170749999997
 20
179.19398749999991
 11
180.61170749999997
 21
182.02732150000003
  0
LINE
  8
_0-3_躯体と製品
  6
CONTINUOUS
 62
    2
 10
178.5117075
 20
180.86065450000001
 11
178.5117075
 21
179.19398749999991
  0
LINE
  8
_0-3_躯体と製品
  6
CONTINUOUS
 62
    2
 10
180.11170749999997
 20
180.42732149999992
 11
180.11170749999997
 21
179.69398750000002
  0
LINE
  8
_0-3_躯体と製品
  6
CONTINUOUS
 62
    2
 10
178.9450405
 20
180.42732149999992
 11
178.9450405
 21
179.69398750000002
  0
LINE
  8
_0-3_躯体と製品
  6
CONTINUOUS
 62
    2
 10
180.11170749999997
 20
179.02732150000003
 11
179.9450405
 21
179.19398749999991
  0
LINE
  8
_0-3_躯体と製品
  6
CONTINUOUS
 62
    2
 10
179.9450405
 20
179.19398749999991
 11
180.11170749999997
 21
179.36065449999992
  0
ARC
  8
_0-3_躯体と製品
  6
CONTINUOUS
 62
    2
 10
180.4450405
 20
179.19398749999991
 40
0.166667
 50
270
 51
0
  0
LINE
  8
_0-3_躯体と製品
  6
CONTINUOUS
 62
    2
 10
178.67837349999996
 20
179.02732150000003
 11
178.84504049999998
 21
179.02732150000003
  0
ARC
  8
_0-3_躯体と製品
  6
CONTINUOUS
 62
    2
 10
178.67837349999996
 20
179.19398749999991
 40
0.166667
 50
180
 51
270
  0
LINE
  8
_0-3_躯体と製品
  6
CONTINUOUS
 62
    2
 10
180.11170749999997
 20
179.36065449999992
 11
179.9450405
 21
179.52732150000003
  0
LINE
  8
_0-3_躯体と製品
  6
CONTINUOUS
 62
    2
 10
179.9450405
 20
179.52732150000003
 11
180.11170749999997
 21
179.69398750000002
  0
LINE
  8
_0-3_躯体と製品
  6
CONTINUOUS
 62
    2
 10
178.9450405
 20
179.02732150000003
 11
179.11170749999997
 21
179.19398749999991
  0
LINE
  8
_0-3_躯体と製品
  6
CONTINUOUS
 62
    2
 10
179.11170749999997
 20
179.19398749999991
 11
178.9450405
 21
179.36065449999992
  0
LINE
  8
_0-3_躯体と製品
  6
CONTINUOUS
 62
    2
 10
178.9450405
 20
179.36065449999992
 11
179.11170749999997
 21
179.52732150000003
  0
LINE
  8
_0-3_躯体と製品
  6
CONTINUOUS
 62
    2
 10
179.11170749999997
 20
179.52732150000003
 11
178.9450405
 21
179.69398750000002
  0
LINE
  8
_0-3_躯体と製品
  6
CONTINUOUS
 62
    2
 10
180.11170749999997
 20
179.02732150000003
 11
180.4450405
 21
179.02732150000003
  0
LINE
  8
_0-3_躯体と製品
  6
CONTINUOUS
 62
    2
 10
178.67837349999996
 20
179.02732150000003
 11
178.9450405
 21
179.02732150000003
  0
ARC
  8
_0-3_躯体と製品
  6
CONTINUOUS
 62
    2
 10
180.27837349999999
 20
182.02732150000003
 40
0.3333329999999999
 50
0
 51
90
  0
ARC
  8
_0-3_躯体と製品
  6
CONTINUOUS
 62
    2
 10
178.84504049999998
 20
180.86065450000001
 40
0.3333329999999999
 50
90
 51
180
  0
LINE
  8
_0-3_躯体と製品
  6
CONTINUOUS
 62
    2
 10
179.77837349999999
 20
180.76065450000002
 11
179.27837349999999
 21
180.76065450000002
  0
ARC
  8
_0-3_躯体と製品
  6
CONTINUOUS
 62
    2
 10
179.77837349999999
 20
180.42732149999992
 40
0.3333329999999999
 50
0
 51
90
  0
ARC
  8
_0-3_躯体と製品
  6
CONTINUOUS
 62
    2
 10
179.27837349999999
 20
180.42732149999992
 40
0.3333329999999999
 50
90
 51
180
  0
LINE
  8
_0-3_躯体と製品
  6
CONTINUOUS
 62
    2
 10
179.9450405
 20
181.19398749999991
 11
178.84504049999998
 21
181.19398749999991
  0
ARC
  8
_0-3_躯体と製品
  6
CONTINUOUS
 62
    2
 10
179.9450405
 20
181.36065450000001
 40
0.166667
 50
270
 51
0
  0
LINE
  8
_0-3_躯体と製品
  6
CONTINUOUS
 62
    2
 10
180.11170749999997
 20
181.36065450000001
 11
180.11170749999997
 21
181.69398750000002
  0
ARC
  8
_0-3_躯体と製品
  6
CONTINUOUS
 62
    2
 10
179.9450405
 20
181.69398750000002
 40
0.166667
 50
0
 51
90
  0
LINE
  8
_0-3_躯体と製品
  6
CONTINUOUS
 62
    2
 10
105.0283695
 20
178.29398750000001
 11
105.26170350000001
 21
178.52732050000003
  0
LINE
  8
_0-3_躯体と製品
  6
CONTINUOUS
 62
    2
 10
105.0283695
 20
178.29398750000001
 11
104.79503649999998
 21
178.52732050000003
  0
LINE
  8
_0-3_躯体と製品
  6
CONTINUOUS
 62
    2
 10
104.29503649999998
 20
178.52732050000003
 11
104.29503649999998
 21
178.12732050000002
  0
LINE
  8
_0-3_躯体と製品
  6
CONTINUOUS
 62
    2
 10
104.8950365
 20
177.36065449999992
 11
104.79503649999998
 21
177.36065449999992
  0
ARC
  8
_0-3_躯体と製品
  6
CONTINUOUS
 62
    2
 10
104.79503649999998
 20
178.12732050000002
 40
0.7666669999999999
 50
180
 51
270
  0
LINE
  8
_0-3_躯体と製品
  6
CONTINUOUS
 62
    2
 10
104.8950365
 20
177.62732050000002
 11
104.79503649999998
 21
177.62732050000002
  0
ARC
  8
_0-3_躯体と製品
  6
CONTINUOUS
 62
    2
 10
104.79503649999998
 20
178.12732050000002
 40
0.5
 50
180
 51
270
  0
ARC
  8
_0-3_躯体と製品
  6
CONTINUOUS
 62
    2
 10
104.8950365
 20
177.4939875
 40
0.133333
 50
270
 51
90
  0
LINE
  8
_0-3_躯体と製品
  6
CONTINUOUS
 62
    2
 10
104.79503649999998
 20
178.52732050000003
 11
104.29503649999998
 21
178.52732050000003
  0
LINE
  8
_0-3_躯体と製品
  6
CONTINUOUS
 62
    2
 10
105.76170350000001
 20
178.52732050000003
 11
105.26170350000001
 21
178.52732050000003
  0
ARC
  8
_0-3_躯体と製品
  6
CONTINUOUS
 62
    2
 10
105.0283695
 20
180.2247544999999
 40
0.166667
 50
33.424810999999053
 51
146.5751890000009
  0
LINE
  8
_0-3_躯体と製品
  6
CONTINUOUS
 62
    2
 10
105.52837049999999
 20
179.36065449999992
 11
105.36170349999998
 21
179.52732150000003
  0
LINE
  8
_0-3_躯体と製品
  6
CONTINUOUS
 62
    2
 10
105.52837049999999
 20
179.36065449999992
 11
105.36170349999998
 21
179.19398749999991
  0
LINE
  8
_0-3_躯体と製品
  6
CONTINUOUS
 62
    2
 10
105.36170349999998
 20
179.19398749999991
 11
105.36170349999998
 21
179.02732150000003
  0
LINE
  8
_0-3_躯体と製品
  6
CONTINUOUS
 62
    2
 10
105.16747149999998
 20
180.31656150000001
 11
105.57837050000001
 21
179.69398750000002
  0
LINE
  8
_0-3_躯体と製品
  6
CONTINUOUS
 62
    2
 10
105.36170349999998
 20
179.02732150000003
 11
106.02837049999999
 21
179.02732150000003
  0
LINE
  8
_0-3_躯体と製品
  6
CONTINUOUS
 62
    2
 10
105.76170350000001
 20
178.52732050000003
 11
105.76170350000001
 21
178.12732050000002
  0
LINE
  8
_0-3_躯体と製品
  6
CONTINUOUS
 62
    2
 10
106.02837049999999
 20
179.02732150000003
 11
106.02837049999999
 21
178.12732050000002
  0
LINE
  8
_0-3_躯体と製品
  6
CONTINUOUS
 62
    2
 10
105.57837050000001
 20
179.69398750000002
 11
105.36170349999998
 21
179.52732150000003
  0
LINE
  8
_0-3_躯体と製品
  6
CONTINUOUS
 62
    2
 10
104.69503650000001
 20
179.19398749999991
 11
104.69503650000001
 21
179.02732150000003
  0
LINE
  8
_0-3_躯体と製品
  6
CONTINUOUS
 62
    2
 10
104.88926850000001
 20
180.31656150000001
 11
104.47836949999999
 21
179.69398750000002
  0
LINE
  8
_0-3_躯体と製品
  6
CONTINUOUS
 62
    2
 10
104.69503650000001
 20
179.02732150000003
 11
104.0283695
 21
179.02732150000003
  0
LINE
  8
_0-3_躯体と製品
  6
CONTINUOUS
 62
    2
 10
104.0283695
 20
178.12732050000002
 11
104.0283695
 21
179.02732150000003
  0
LINE
  8
_0-3_躯体と製品
  6
CONTINUOUS
 62
    2
 10
104.69503650000001
 20
179.52732150000003
 11
104.47836949999999
 21
179.69398750000002
  0
LINE
  8
_0-3_躯体と製品
  6
CONTINUOUS
 62
    2
 10
104.5283695
 20
179.36065449999992
 11
104.69503650000001
 21
179.52732150000003
  0
LINE
  8
_0-3_躯体と製品
  6
CONTINUOUS
 62
    2
 10
104.5283695
 20
179.36065449999992
 11
104.69503650000001
 21
179.19398749999991
  0
LINE
  8
_0-3_躯体と製品
  6
CONTINUOUS
 62
    2
 10
105.16170349999999
 20
177.36065449999992
 11
105.26170350000001
 21
177.36065449999992
  0
ARC
  8
_0-3_躯体と製品
  6
CONTINUOUS
 62
    2
 10
105.26170350000001
 20
178.12732050000002
 40
0.7666669999999999
 50
270
 51
0
  0
LINE
  8
_0-3_躯体と製品
  6
CONTINUOUS
 62
    2
 10
105.16170349999999
 20
177.62732050000002
 11
105.26170350000001
 21
177.62732050000002
  0
ARC
  8
_0-3_躯体と製品
  6
CONTINUOUS
 62
    2
 10
105.26170350000001
 20
178.12732050000002
 40
0.5
 50
270
 51
0
  0
ARC
  8
_0-3_躯体と製品
  6
CONTINUOUS
 62
    2
 10
105.16170349999999
 20
177.4939875
 40
0.133333
 50
90
 51
270
  0
LINE
  8
_0-3_躯体と製品
  6
CONTINUOUS
 62
    2
 10
103.94503650000001
 20
179.19398749999991
 11
103.94503650000001
 21
182.02732150000003
  0
LINE
  8
_0-3_躯体と製品
  6
CONTINUOUS
 62
    2
 10
106.04503649999998
 20
180.86065450000001
 11
106.04503649999998
 21
179.19398749999991
  0
LINE
  8
_0-3_躯体と製品
  6
CONTINUOUS
 62
    2
 10
104.44503650000001
 20
180.42732149999992
 11
104.44503650000001
 21
179.69398750000002
  0
LINE
  8
_0-3_躯体と製品
  6
CONTINUOUS
 62
    2
 10
105.61170349999998
 20
180.42732149999992
 11
105.61170349999998
 21
179.69398750000002
  0
LINE
  8
_0-3_躯体と製品
  6
CONTINUOUS
 62
    2
 10
104.44503650000001
 20
179.02732150000003
 11
104.61170349999998
 21
179.19398749999991
  0
LINE
  8
_0-3_躯体と製品
  6
CONTINUOUS
 62
    2
 10
104.61170349999998
 20
179.19398749999991
 11
104.44503650000001
 21
179.36065449999992
  0
ARC
  8
_0-3_躯体と製品
  6
CONTINUOUS
 62
    2
 10
104.11170349999998
 20
179.19398749999991
 40
0.166667
 50
180
 51
270
  0
LINE
  8
_0-3_躯体と製品
  6
CONTINUOUS
 62
    2
 10
105.87837049999996
 20
179.02732150000003
 11
105.7117035
 21
179.02732150000003
  0
ARC
  8
_0-3_躯体と製品
  6
CONTINUOUS
 62
    2
 10
105.87837049999996
 20
179.19398749999991
 40
0.166667
 50
270
 51
0
  0
LINE
  8
_0-3_躯体と製品
  6
CONTINUOUS
 62
    2
 10
104.44503650000001
 20
179.36065449999992
 11
104.61170349999998
 21
179.52732150000003
  0
LINE
  8
_0-3_躯体と製品
  6
CONTINUOUS
 62
    2
 10
104.61170349999998
 20
179.52732150000003
 11
104.44503650000001
 21
179.69398750000002
  0
LINE
  8
_0-3_躯体と製品
  6
CONTINUOUS
 62
    2
 10
105.61170349999998
 20
179.02732150000003
 11
105.44503650000001
 21
179.19398749999991
  0
LINE
  8
_0-3_躯体と製品
  6
CONTINUOUS
 62
    2
 10
105.44503650000001
 20
179.19398749999991
 11
105.61170349999998
 21
179.36065449999992
  0
LINE
  8
_0-3_躯体と製品
  6
CONTINUOUS
 62
    2
 10
105.61170349999998
 20
179.36065449999992
 11
105.44503650000001
 21
179.52732150000003
  0
LINE
  8
_0-3_躯体と製品
  6
CONTINUOUS
 62
    2
 10
105.44503650000001
 20
179.52732150000003
 11
105.61170349999998
 21
179.69398750000002
  0
LINE
  8
_0-3_躯体と製品
  6
CONTINUOUS
 62
    2
 10
104.44503650000001
 20
179.02732150000003
 11
104.11170349999998
 21
179.02732150000003
  0
LINE
  8
_0-3_躯体と製品
  6
CONTINUOUS
 62
    2
 10
105.87837049999996
 20
179.02732150000003
 11
105.61170349999998
 21
179.02732150000003
  0
ARC
  8
_0-3_躯体と製品
  6
CONTINUOUS
 62
    2
 10
104.2783695
 20
182.02732150000003
 40
0.3333329999999999
 50
90
 51
180
  0
ARC
  8
_0-3_躯体と製品
  6
CONTINUOUS
 62
    2
 10
105.7117035
 20
180.86065450000001
 40
0.3333329999999999
 50
0
 51
90
  0
LINE
  8
_0-3_躯体と製品
  6
CONTINUOUS
 62
    2
 10
104.7783695
 20
180.76065450000002
 11
105.27837049999999
 21
180.76065450000002
  0
ARC
  8
_0-3_躯体と製品
  6
CONTINUOUS
 62
    2
 10
104.7783695
 20
180.42732149999992
 40
0.3333329999999999
 50
90
 51
180
  0
ARC
  8
_0-3_躯体と製品
  6
CONTINUOUS
 62
    2
 10
105.27837049999999
 20
180.42732149999992
 40
0.3333329999999999
 50
0
 51
90
  0
LINE
  8
_0-3_躯体と製品
  6
CONTINUOUS
 62
    2
 10
104.61170349999998
 20
181.19398749999991
 11
105.7117035
 21
181.19398749999991
  0
ARC
  8
_0-3_躯体と製品
  6
CONTINUOUS
 62
    2
 10
104.61170349999998
 20
181.36065450000001
 40
0.166667
 50
180
 51
270
  0
LINE
  8
_0-3_躯体と製品
  6
CONTINUOUS
 62
    2
 10
104.44503650000001
 20
181.36065450000001
 11
104.44503650000001
 21
181.69398750000002
  0
ARC
  8
_0-3_躯体と製品
  6
CONTINUOUS
 62
    2
 10
104.61170349999998
 20
181.69398750000002
 40
0.166667
 50
90
 51
180
  0
LINE
  8
_0-3_躯体と製品
  6
CONTINUOUS
 62
    2
 10
176.32216449999999
 20
181.43925550000003
 11
175.80472750000001
 21
179.53180550000002
  0
LINE
  8
_0-3_躯体と製品
  6
CONTINUOUS
 62
    2
 10
175.61170349999998
 20
179.58416750000001
 11
176.12914050000001
 21
181.49161650000002
  0
LINE
  8
_0-3_躯体と製品
  6
CONTINUOUS
 62
    2
 10
175.80472750000001
 20
179.53180550000002
 11
175.61170349999998
 21
179.58416750000001
  0
ARC
  8
_0-3_躯体と製品
  6
CONTINUOUS
 62
    2
 10
176.61170049999998
 20
181.36071250000001
 40
0.5
 50
0.0001209999996389
 51
164.82255200000071
  0
ARC
  8
_0-3_躯体と製品
  6
CONTINUOUS
 62
    2
 10
176.61170049999998
 20
181.36071250000001
 40
0.2999999999999999
 50
0
 51
164.82255200000074
  0
LINE
  8
_0-3_躯体と製品
  6
CONTINUOUS
 62
    2
 10
176.91170049999999
 20
181.36071250000001
 11
176.91170849999997
 21
177.66071550000001
  0
LINE
  8
_0-3_躯体と製品
  6
CONTINUOUS
 62
    2
 10
177.11170049999998
 20
181.36071349999992
 11
177.11170850000008
 21
177.66065450000002
  0
ARC
  8
_0-3_躯体と製品
  6
CONTINUOUS
 62
    2
 10
176.81170850000001
 20
177.66071550000001
 40
0.1
 50
270
 51
0
  0
LINE
  8
_0-3_躯体と製品
  6
CONTINUOUS
 62
    2
 10
175.9450405
 20
177.56063250000003
 11
175.9450405
 21
178.22729950000002
  0
LINE
  8
_0-3_躯体と製品
  6
CONTINUOUS
 62
    2
 10
158.90124850000001
 20
181.43925550000003
 11
159.41868549999998
 21
179.53180550000002
  0
LINE
  8
_0-3_躯体と製品
  6
CONTINUOUS
 62
    2
 10
159.61170849999996
 20
179.58416750000001
 11
159.09427249999999
 21
181.49161650000002
  0
LINE
  8
_0-3_躯体と製品
  6
CONTINUOUS
 62
    2
 10
159.41868549999998
 20
179.53180550000002
 11
159.61170849999996
 21
179.58416750000001
  0
ARC
  8
_0-3_躯体と製品
  6
CONTINUOUS
 62
    2
 10
158.61171250000001
 20
181.36071250000001
 40
0.5
 50
15.17744799999927
 51
179.99987900000031
  0
ARC
  8
_0-3_躯体と製品
  6
CONTINUOUS
 62
    2
 10
158.61171250000001
 20
181.36071250000001
 40
0.2999999999999999
 50
15.17744799999927
 51
180
  0
LINE
  8
_0-3_躯体と製品
  6
CONTINUOUS
 62
    2
 10
158.3117125
 20
181.36071250000001
 11
158.31170449999996
 21
177.66071550000001
  0
LINE
  8
_0-3_躯体と製品
  6
CONTINUOUS
 62
    2
 10
158.11171250000001
 20
181.36071349999992
 11
158.11170449999997
 21
177.66065450000002
  0
ARC
  8
_0-3_躯体と製品
  6
CONTINUOUS
 62
    2
 10
158.41170449999998
 20
177.66065450000002
 40
0.2999999999999999
 50
180
 51
270
  0
ARC
  8
_0-3_躯体と製品
  6
CONTINUOUS
 62
    2
 10
158.41170449999998
 20
177.66071550000001
 40
0.1
 50
180
 51
270
  0
LINE
  8
_0-3_躯体と製品
  6
CONTINUOUS
 62
    2
 10
159.27837249999999
 20
178.22729950000002
 11
175.9450405
 21
178.22729950000002
  0
LINE
  8
_0-3_躯体と製品
  6
CONTINUOUS
 62
    2
 10
159.27837249999999
 20
177.56063250000003
 11
159.27837249999999
 21
178.22729950000002
  0
ARC
  8
_0-3_躯体と製品
  6
CONTINUOUS
 62
    2
 10
173.97837349999998
 20
177.56065050000001
 40
0.3000599999999999
 50
1.1476449999996159
 51
90.000000000000014
  0
LINE
  8
_0-3_躯体と製品
  6
CONTINUOUS
 62
    2
 10
176.81348850000001
 20
177.56072950000001
 11
158.41170649999998
 21
177.56071450000002
  0
LINE
  8
_0-3_躯体と製品
  6
CONTINUOUS
 62
    2
 10
161.24503949999996
 20
177.86071050000001
 11
173.97837349999998
 21
177.86071050000001
  0
ARC
  8
_0-3_躯体と製品
  6
CONTINUOUS
 62
    2
 10
161.24503949999996
 20
177.56065050000001
 40
0.3000599999999999
 50
90
 51
178.8523550000003
  0
ARC
  8
_0-3_躯体と製品
  6
CONTINUOUS
 62
    2
 10
176.81170850000001
 20
177.66065450000002
 40
0.2999999999999999
 50
270
 51
0
  0
ARC
  8
_0-3_躯体と製品
  6
CONTINUOUS
 62
    2
 10
167.21096949999998
 20
178.19297649999993
 40
0.8
 50
128.6146380000001
 51
177.54107399999961
  0
ARC
  8
_0-3_躯体と製品
  6
CONTINUOUS
 62
    2
 10
167.61170649999997
 20
177.69396550000002
 40
1.4399999999999991
 50
90
 51
128.68218700000079
  0
ARC
  8
_0-3_躯体と製品
  6
CONTINUOUS
 62
    2
 10
167.61170649999997
 20
177.69396550000002
 40
1.4399999999999991
 50
51.148937999999823
 51
90
  0
ARC
  8
_0-3_躯体と製品
  6
CONTINUOUS
 62
    2
 10
168.01244349999996
 20
178.19297649999993
 40
0.8
 50
2.4589260000003512
 51
51.385361999999859
  0
LINE
  8
_0-3_躯体と製品
  6
PLINE2
 62
    3
 10
168.67837349999996
 20
174.16065449999991
 11
168.67837349999996
 21
177.36065449999992
  0
LINE
  8
_0-3_躯体と製品
  6
PLINE2
 62
    3
 10
166.37884349999996
 20
172.08055349999992
 11
165.92674649999998
 21
173.32268150000002
  0
LINE
  8
_0-3_躯体と製品
  6
PLINE2
 62
    3
 10
169.2976635
 20
175.17495850000003
 11
169.04608250000001
 21
173.41388650000002
  0
LINE
  8
_0-3_躯体と製品
  6
PLINE2
 62
    3
 10
167.11318749999998
 20
168.25917250000001
 11
167.61170649999997
 21
167.7606534999999
  0
LINE
  8
_0-3_躯体と製品
  6
PLINE2
 62
    3
 10
166.16949949999997
 20
168.08603450000001
 11
166.14158750000001
 21
167.55343250000001
  0
LINE
  8
_0-3_躯体と製品
  6
PLINE2
 62
    3
 10
166.70210249999997
 20
168.05812250000002
 11
166.16949949999997
 21
168.08603450000001
  0
LINE
  8
_0-3_躯体と製品
  6
PLINE2
 62
    3
 10
166.73001449999998
 20
168.59072450000002
 11
166.70210249999997
 21
168.05812250000002
  0
LINE
  8
_0-3_躯体と製品
  6
PLINE2
 62
    3
 10
166.21136849999999
 20
168.8849385
 11
166.73001449999998
 21
168.59072450000002
  0
LINE
  8
_0-3_躯体と製品
  6
PLINE2
 62
    3
 10
166.2392815
 20
169.41754050000003
 11
166.21136849999999
 21
168.8849385
  0
LINE
  8
_0-3_躯体と製品
  6
PLINE2
 62
    3
 10
166.7718835
 20
169.38962849999993
 11
166.2392815
 21
169.41754050000003
  0
LINE
  8
_0-3_躯体と製品
  6
PLINE2
 62
    3
 10
166.79979650000001
 20
169.92223049999993
 11
166.7718835
 21
169.38962849999993
  0
LINE
  8
_0-3_躯体と製品
  6
PLINE2
 62
    3
 10
166.28114949999997
 20
170.21644449999991
 11
166.79979650000001
 21
169.92223049999993
  0
LINE
  8
_0-3_躯体と製品
  6
PLINE2
 62
    3
 10
166.30906249999998
 20
170.74904649999991
 11
166.28114949999997
 21
170.21644449999991
  0
LINE
  8
_0-3_躯体と製品
  6
PLINE2
 62
    3
 10
166.84166449999998
 20
170.72113450000001
 11
166.30906249999998
 21
170.74904649999991
  0
LINE
  8
_0-3_躯体と製品
  6
PLINE2
 62
    3
 10
166.86957749999999
 20
171.25373650000003
 11
166.84166449999998
 21
170.72113450000001
  0
LINE
  8
_0-3_躯体と製品
  6
PLINE2
 62
    3
 10
166.3509315
 20
171.54795049999993
 11
166.86957749999999
 21
171.25373650000003
  0
LINE
  8
_0-3_躯体と製品
  6
PLINE2
 62
    3
 10
166.37884349999996
 20
172.08055349999992
 11
166.3509315
 21
171.54795049999993
  0
LINE
  8
_0-3_躯体と製品
  6
PLINE2
 62
    3
 10
166.91144650000001
 20
172.05264050000002
 11
166.37884349999996
 21
172.08055349999992
  0
LINE
  8
_0-3_躯体と製品
  6
PLINE2
 62
    3
 10
166.93935849999997
 20
172.58524250000002
 11
166.91144650000001
 21
172.05264050000002
  0
LINE
  8
_0-3_躯体と製品
  6
PLINE2
 62
    3
 10
166.42071249999998
 20
172.8794565
 11
166.93935849999997
 21
172.58524250000002
  0
LINE
  8
_0-3_躯体と製品
  6
PLINE2
 62
    3
 10
167.04572949999999
 20
166.97198250000002
 11
167.47837349999998
 21
175.22732050000002
  0
LINE
  8
_0-3_躯体と製品
  6
PLINE2
 62
    3
 10
166.6462775
 20
166.9929175
 11
167.04572949999999
 21
166.97198250000002
  0
LINE
  8
_0-3_躯体と製品
  6
PLINE2
 62
    3
 10
166.14158750000001
 20
167.55343250000001
 11
166.6462775
 21
166.9929175
  0
LINE
  8
_0-3_躯体と製品
  6
PLINE2
 62
    3
 10
167.07364150000001
 20
167.50458550000002
 11
166.14158750000001
 21
167.55343250000001
  0
LINE
  8
_0-3_躯体と製品
  6
PLINE2
 62
    3
 10
166.44862549999999
 20
173.41205949999991
 11
166.42071249999998
 21
172.8794565
  0
LINE
  8
_0-3_躯体と製品
  6
PLINE2
 62
    3
 10
166.98122749999999
 20
173.38414649999993
 11
166.44862549999999
 21
173.41205949999991
  0
LINE
  8
_0-3_躯体と製品
  6
PLINE2
 62
    3
 10
167.0091405
 20
173.91674950000001
 11
166.98122749999999
 21
173.38414649999993
  0
LINE
  8
_0-3_躯体と製品
  6
PLINE2
 62
    3
 10
166.27837349999999
 20
177.36065449999992
 11
166.54503949999997
 21
176.02732050000003
  0
LINE
  8
_0-3_躯体と製品
  6
PLINE2
 62
    3
 10
167.47837349999998
 20
175.22732050000002
 11
167.61170649999997
 21
175.22732050000002
  0
LINE
  8
_0-3_躯体と製品
  6
PLINE2
 62
    3
 10
169.05391249999997
 20
168.08603450000001
 11
169.08182549999998
 21
167.55343250000001
  0
LINE
  8
_0-3_躯体と製品
  6
PLINE2
 62
    3
 10
168.52131049999997
 20
168.05812250000002
 11
169.05391249999997
 21
168.08603450000001
  0
LINE
  8
_0-3_躯体と製品
  6
PLINE2
 62
    3
 10
168.49339850000001
 20
168.59072450000002
 11
168.52131049999997
 21
168.05812250000002
  0
LINE
  8
_0-3_躯体と製品
  6
PLINE2
 62
    3
 10
169.0120445
 20
168.8849385
 11
168.49339850000001
 21
168.59072450000002
  0
LINE
  8
_0-3_躯体と製品
  6
PLINE2
 62
    3
 10
168.98413149999999
 20
169.41754050000003
 11
169.0120445
 21
168.8849385
  0
LINE
  8
_0-3_躯体と製品
  6
PLINE2
 62
    3
 10
168.45152949999999
 20
169.38962849999993
 11
168.98413149999999
 21
169.41754050000003
  0
LINE
  8
_0-3_躯体と製品
  6
PLINE2
 62
    3
 10
168.42361649999998
 20
169.92223049999993
 11
168.45152949999999
 21
169.38962849999993
  0
LINE
  8
_0-3_躯体と製品
  6
PLINE2
 62
    3
 10
168.94226249999997
 20
170.21644449999991
 11
168.42361649999998
 21
169.92223049999993
  0
LINE
  8
_0-3_躯体と製品
  6
PLINE2
 62
    3
 10
168.91435050000001
 20
170.74904649999991
 11
168.94226249999997
 21
170.21644449999991
  0
LINE
  8
_0-3_躯体と製品
  6
PLINE2
 62
    3
 10
168.38174749999996
 20
170.72113450000001
 11
168.91435050000001
 21
170.74904649999991
  0
LINE
  8
_0-3_躯体と製品
  6
PLINE2
 62
    3
 10
168.3538355
 20
171.25373650000003
 11
168.38174749999996
 21
170.72113450000001
  0
LINE
  8
_0-3_躯体と製品
  6
PLINE2
 62
    3
 10
168.87248149999999
 20
171.54795049999993
 11
168.3538355
 21
171.25373650000003
  0
LINE
  8
_0-3_躯体と製品
  6
PLINE2
 62
    3
 10
168.84456949999998
 20
172.08055349999992
 11
168.87248149999999
 21
171.54795049999993
  0
LINE
  8
_0-3_躯体と製品
  6
PLINE2
 62
    3
 10
168.31196649999998
 20
172.05264050000002
 11
168.84456949999998
 21
172.08055349999992
  0
LINE
  8
_0-3_躯体と製品
  6
PLINE2
 62
    3
 10
168.28405449999997
 20
172.58524250000002
 11
168.31196649999998
 21
172.05264050000002
  0
LINE
  8
_0-3_躯体と製品
  6
PLINE2
 62
    3
 10
168.80270050000001
 20
172.8794565
 11
168.28405449999997
 21
172.58524250000002
  0
LINE
  8
_0-3_躯体と製品
  6
PLINE2
 62
    3
 10
168.1776835
 20
166.97198250000002
 11
167.74503949999996
 21
175.22732050000002
  0
LINE
  8
_0-3_躯体と製品
  6
PLINE2
 62
    3
 10
168.5771355
 20
166.9929175
 11
168.1776835
 21
166.97198250000002
  0
LINE
  8
_0-3_躯体と製品
  6
PLINE2
 62
    3
 10
169.08182549999998
 20
167.55343250000001
 11
168.5771355
 21
166.9929175
  0
LINE
  8
_0-3_躯体と製品
  6
PLINE2
 62
    3
 10
168.14977149999999
 20
167.50458550000002
 11
169.08182549999998
 21
167.55343250000001
  0
LINE
  8
_0-3_躯体と製品
  6
PLINE2
 62
    3
 10
168.7747875
 20
173.41205949999991
 11
168.80270050000001
 21
172.8794565
  0
LINE
  8
_0-3_躯体と製品
  6
PLINE2
 62
    3
 10
168.24218550000001
 20
173.38414649999993
 11
168.7747875
 21
173.41205949999991
  0
LINE
  8
_0-3_躯体と製品
  6
PLINE2
 62
    3
 10
168.21427249999999
 20
173.91674950000001
 11
168.24218550000001
 21
173.38414649999993
  0
LINE
  8
_0-3_躯体と製品
  6
PLINE2
 62
    3
 10
168.11022449999996
 20
168.25917250000001
 11
167.61170649999997
 21
167.7606534999999
  0
LINE
  8
_0-3_躯体と製品
  6
PLINE2
 62
    3
 10
167.61170649999997
 20
176.02732050000003
 11
167.61170649999997
 21
177.36065449999992
  0
LINE
  8
_0-3_躯体と製品
  6
PLINE2
 62
    3
 10
167.34503949999998
 20
177.36065449999992
 11
167.61170649999997
 21
176.02732050000003
  0
LINE
  8
_0-3_躯体と製品
  6
PLINE2
 62
    3
 10
167.87837350000001
 20
177.36065449999992
 11
167.61170649999997
 21
176.02732050000003
  0
LINE
  8
_0-3_躯体と製品
  6
PLINE2
 62
    3
 10
168.94503950000001
 20
177.36065449999992
 11
168.67837349999996
 21
176.02732050000003
  0
LINE
  8
_0-3_躯体と製品
  6
PLINE2
 62
    3
 10
168.67837349999996
 20
174.16065449999991
 11
168.21427249999999
 21
173.91674950000001
  0
LINE
  8
_0-3_躯体と製品
  6
PLINE2
 62
    3
 10
167.74503949999996
 20
175.22732050000002
 11
167.61170649999997
 21
175.22732050000002
  0
ARC
  8
_0-3_躯体と製品
  6
PLINE2
 62
    3
 10
169.40325849999999
 20
175.1598735
 40
0.106667
 50
81.869897999998969
 51
171.86989799999981
  0
LINE
  8
_0-3_躯体と製品
  6
PLINE2
 62
    3
 10
169.47082949999998
 20
175.25797050000003
 11
169.41834349999999
 21
175.26546850000003
  0
ARC
  8
_0-3_躯体と製品
  6
PLINE2
 62
    3
 10
169.45574449999998
 20
175.15237549999992
 40
0.106667
 50
351.70153399999958
 51
81.869897999998926
  0
LINE
  8
_0-3_躯体と製品
  6
PLINE2
 62
    3
 10
169.29666650000001
 20
173.32268150000002
 11
169.56129449999997
 21
175.13698050000002
  0
LINE
  8
_0-3_躯体と製品
  6
PLINE2
 62
    3
 10
165.92574949999999
 20
175.17495850000003
 11
166.17733049999998
 21
173.41388650000002
  0
ARC
  8
_0-3_躯体と製品
  6
PLINE2
 62
    3
 10
165.8201545
 20
175.1598735
 40
0.106667
 50
8.1301020000002122
 51
98.130102000001017
  0
LINE
  8
_0-3_躯体と製品
  6
PLINE2
 62
    3
 10
165.75258249999996
 20
175.25797050000003
 11
165.8050695
 21
175.26546850000003
  0
ARC
  8
_0-3_躯体と製品
  6
PLINE2
 62
    3
 10
165.76766749999996
 20
175.15237549999992
 40
0.106667
 50
98.130102000001003
 51
188.2984660000003
  0
LINE
  8
_0-3_躯体と製品
  6
PLINE2
 62
    3
 10
165.92674649999998
 20
173.32268150000002
 11
165.66211849999996
 21
175.13698050000002
  0
LINE
  8
_0-3_躯体と製品
  6
PLINE2
 62
    3
 10
166.66262449999999
 20
172.08055349999992
 11
166.17733049999998
 21
173.41388650000002
  0
LINE
  8
_0-3_躯体と製品
  6
PLINE2
 62
    3
 10
168.84456949999998
 20
172.08055349999992
 11
169.29666650000001
 21
173.32268150000002
  0
LINE
  8
_0-3_躯体と製品
  6
PLINE2
 62
    3
 10
168.5607885
 20
172.08055349999992
 11
169.04608250000001
 21
173.41388650000002
  0
LINE
  8
_0-3_躯体と製品
  6
PLINE2
 62
    3
 10
166.54503949999997
 20
174.16065449999991
 11
166.54503949999997
 21
177.36065449999992
  0
LINE
  8
_0-3_躯体と製品
  6
PLINE2
 62
    3
 10
167.0091405
 20
173.91674950000001
 11
166.54503949999997
 21
174.16065449999991
  0
LINE
  8
_0-3_躯体と製品
  6
PLINE3
 62
    3
 10
167.61170649999997
 20
180.77279250000001
 11
167.61170649999997
 21
163.52239050000003
  0
LINE
  8
_0-3_躯体と製品
  6
CONTINUOUS
 62
    2
 10
158.94503950000001
 20
177.36065449999992
 11
158.94503950000001
 21
160.69398649999991
  0
ARC
  8
_0-3_躯体と製品
  6
CONTINUOUS
 62
    2
 10
175.77837349999999
 20
181.69398750000002
 40
0.166667
 50
90
 51
180
  0
LINE
  8
_0-3_躯体と製品
  6
CONTINUOUS
 62
    2
 10
175.61170649999997
 20
181.69398750000002
 11
175.61170649999997
 21
179.52732150000003
  0
LINE
  8
_0-3_躯体と製品
  6
CONTINUOUS
 62
    2
 10
175.21170649999999
 20
179.26065450000002
 11
175.21170649999999
 21
181.69398750000002
  0
ARC
  8
_0-3_躯体と製品
  6
CONTINUOUS
 62
    2
 10
175.04504049999997
 20
179.26065450000002
 40
0.166667
 50
270
 51
0
  0
LINE
  8
_0-3_躯体と製品
  6
CONTINUOUS
 62
    2
 10
175.04504049999997
 20
179.09398750000003
 11
174.5783735
 21
179.09398750000003
  0
ARC
  8
_0-3_躯体と製品
  6
CONTINUOUS
 62
    2
 10
175.04504049999997
 20
181.69398750000002
 40
0.166667
 50
0
 51
90
  0
LINE
  8
_0-3_躯体と製品
  6
CONTINUOUS
 62
    2
 10
175.04751249999998
 20
178.69398750000002
 11
174.5783735
 21
178.69398750000002
  0
ARC
  8
_0-3_躯体と製品
  6
CONTINUOUS
 62
    2
 10
175.04751249999998
 20
179.52732150000003
 40
0.8333329999999999
 50
270
 51
338.19859099999991
  0
LINE
  8
_0-3_躯体と製品
  6
CONTINUOUS
 62
    2
 10
175.82124349999998
 20
179.21782850000002
 11
175.9450405
 21
179.52732150000003
  0
ARC
  8
_0-3_躯体と製品
  6
CONTINUOUS
 62
    2
 10
174.5783735
 20
178.89398750000001
 40
0.2
 50
90
 51
270
  0
LINE
  8
_0-3_躯体と製品
  6
CONTINUOUS
 62
    2
 10
175.9450405
 20
179.52732150000003
 11
175.61170649999997
 21
179.52732150000003
  0
ARC
  8
_0-3_躯体と製品
  6
CONTINUOUS
 62
    2
 10
159.44503950000001
 20
181.69398750000002
 40
0.166667
 50
0
 51
90
  0
LINE
  8
_0-3_躯体と製品
  6
CONTINUOUS
 62
    2
 10
159.61170649999997
 20
181.69398750000002
 11
159.61170649999997
 21
179.52732150000003
  0
LINE
  8
_0-3_躯体と製品
  6
CONTINUOUS
 62
    2
 10
160.0117065
 20
179.26065450000002
 11
160.0117065
 21
181.69398750000002
  0
ARC
  8
_0-3_躯体と製品
  6
CONTINUOUS
 62
    2
 10
160.17837249999997
 20
179.26065450000002
 40
0.166667
 50
180
 51
270
  0
LINE
  8
_0-3_躯体と製品
  6
CONTINUOUS
 62
    2
 10
160.17837249999997
 20
179.09398750000003
 11
160.6450395
 21
179.09398750000003
  0
ARC
  8
_0-3_躯体と製品
  6
CONTINUOUS
 62
    2
 10
160.17837249999997
 20
181.69398750000002
 40
0.166667
 50
90
 51
180
  0
LINE
  8
_0-3_躯体と製品
  6
CONTINUOUS
 62
    2
 10
160.17590050000001
 20
178.69398750000002
 11
160.6450395
 21
178.69398750000002
  0
ARC
  8
_0-3_躯体と製品
  6
CONTINUOUS
 62
    2
 10
160.17590050000001
 20
179.52732150000003
 40
0.8333329999999999
 50
201.80140900000001
 51
270
  0
LINE
  8
_0-3_躯体と製品
  6
CONTINUOUS
 62
    2
 10
159.40216950000001
 20
179.21782850000002
 11
159.27837249999999
 21
179.52732150000003
  0
ARC
  8
_0-3_躯体と製品
  6
CONTINUOUS
 62
    2
 10
160.6450395
 20
178.89398750000001
 40
0.2
 50
270
 51
90
  0
LINE
  8
_0-3_躯体と製品
  6
CONTINUOUS
 62
    2
 10
185.61170749999997
 20
177.36065449999992
 11
158.94503950000001
 21
177.36065449999992
  0
LINE
  8
_0-3_躯体と製品
  6
CONTINUOUS
 62
    2
 10
159.27837249999999
 20
179.52732150000003
 11
159.61170649999997
 21
179.52732150000003
  0
LINE
  8
_0-3_躯体と製品
  6
CONTINUOUS
 62
    2
 10
179.9450405
 20
181.86065449999992
 11
175.77837349999999
 21
181.86065449999992
  0
LINE
  8
_0-3_躯体と製品
  6
CONTINUOUS
 62
    2
 10
104.2783695
 20
182.36065449999992
 11
142.27837149999999
 21
182.36065449999992
  0
LINE
  8
_0-3_躯体と製品
  6
CONTINUOUS
 62
    2
 10
98.945036500000015
 20
177.36065449999992
 11
125.61170449999997
 21
177.36065449999992
  0
LINE
  8
_0-3_躯体と製品
  6
CONTINUOUS
 62
    2
 10
125.61170449999997
 20
160.69398649999991
 11
125.61170449999997
 21
177.36065449999992
  0
LINE
  8
_0-3_躯体と製品
  6
CONTINUOUS
 62
    2
 10
104.61170349999998
 20
181.86065449999992
 11
159.44503950000001
 21
181.86065449999992
  0
LINE
  8
_0-3_躯体と製品
  6
CONTINUOUS
 62
    2
 10
175.04504049999997
 20
181.86065449999992
 11
160.17837249999997
 21
181.86065449999992
  0
LINE
  8
_0-3_躯体と製品
  6
CONTINUOUS
 62
    2
 10
180.27837349999999
 20
182.36065449999992
 11
142.27837149999999
 21
182.36065449999992
  0
LINE
  8
_0-3_躯体と製品
  6
CONTINUOUS
 62
    2
 10
158.41170449999998
 20
177.36065449999992
 11
158.94503950000001
 21
177.36065449999992
  0
TEXT
  8
_0-5_文字-記号
 62
    7
 10
171.07259016666671
 20
163.24841850000001
 40
2
 41
0.8
 50
0
  1
５
  0
CIRCLE
  8
_0-5_文字-記号
  6
CONTINUOUS
 62
    3
 10
169.0120445
 20
168.8849385
 40
0.2
  0
CIRCLE
  8
_0-5_文字-記号
  6
CONTINUOUS
 62
    3
 10
171.76592149999999
 20
164.11508350000003
 40
1.666666999999999
  0
LINE
  8
_0-5_文字-記号
  6
CONTINUOUS
 62
    3
 10
169.0120445
 20
168.8849385
 11
170.93258750000001
 21
165.55845950000003
  0
TEXT
  8
_0-5_文字-記号
 62
    7
 10
182.49605583333329
 20
171.44916350000003
 40
2
 41
0.8
 50
0
  1
４
  0
CIRCLE
  8
_0-5_文字-記号
  6
CONTINUOUS
 62
    3
 10
179.50494649999996
 20
178.78984250000002
 40
0.2
  0
CIRCLE
  8
_0-5_文字-記号
  6
CONTINUOUS
 62
    3
 10
183.24272149999996
 20
172.31582550000002
 40
1.666666999999999
  0
LINE
  8
_0-5_文字-記号
  6
CONTINUOUS
 62
    3
 10
179.50494649999996
 20
178.78984250000002
 11
182.40938849999998
 21
173.75920049999991
  0
TEXT
  8
_0-5_文字-記号
 62
    7
 10
141.76905083333327
 20
186.2410945
 40
2
 41
0.8
 50
0
  1
１
  0
CIRCLE
  8
_0-5_文字-記号
  6
CONTINUOUS
 62
    3
 10
145.54513650000001
 20
181.86065449999992
 40
0.2
  0
CIRCLE
  8
_0-5_文字-記号
  6
CONTINUOUS
 62
    3
 10
142.51571849999999
 20
187.10776050000001
 40
1.666666999999999
  0
LINE
  8
_0-5_文字-記号
  6
CONTINUOUS
 62
    3
 10
145.54513650000001
 20
181.86065449999992
 11
143.34905149999997
 21
185.66438450000001
  0
TEXT
  8
_0-5_文字-記号
 62
    7
 10
153.4287071666667
 20
186.05028350000001
 40
2
 41
0.8
 50
0
  1
２
  0
CIRCLE
  8
_0-5_文字-記号
  6
CONTINUOUS
 62
    3
 10
158.11170949999996
 20
180.00665350000003
 40
0.2
  0
CIRCLE
  8
_0-5_文字-記号
  6
CONTINUOUS
 62
    3
 10
154.12204750000001
 20
186.91695150000001
 40
1.666666999999999
  0
LINE
  8
_0-5_文字-記号
  6
CONTINUOUS
 62
    3
 10
158.11170949999996
 20
180.00665350000003
 11
154.95538049999999
 21
185.47357549999992
  0
TEXT
  8
_0-5_文字-記号
 62
    7
 10
171.1518671666667
 20
170.48025250000001
 40
2
 41
0.8
 50
0
  1
６
  0
CIRCLE
  8
_0-5_文字-記号
  6
CONTINUOUS
 62
    3
 10
167.61170649999997
 20
178.67955750000002
 40
0.2
  0
CIRCLE
  8
_0-5_文字-記号
  6
CONTINUOUS
 62
    3
 10
171.84520249999997
 20
171.34692650000002
 40
1.666666999999999
  0
LINE
  8
_0-5_文字-記号
  6
CONTINUOUS
 62
    3
 10
167.61170649999997
 20
178.67955750000002
 11
171.01186949999999
 21
172.79030249999991
  0
TEXT
  8
_0-5_文字-記号
 62
    7
 10
177.42349616666667
 20
171.59036750000001
 40
2
 41
0.8
 50
0
  1
３
  0
CIRCLE
  8
_0-5_文字-記号
  6
CONTINUOUS
 62
    3
 10
175.0199685
 20
177.82094849999993
 40
0.2
  0
CIRCLE
  8
_0-5_文字-記号
  6
CONTINUOUS
 62
    3
 10
178.11682450000001
 20
172.45703750000001
 40
1.666666999999999
  0
LINE
  8
_0-5_文字-記号
  6
CONTINUOUS
 62
    3
 10
175.0199685
 20
177.82094849999993
 11
177.28349149999997
 21
173.90041249999993
  0
LINE
  8
_0-3_躯体と製品
  6
CONTINUOUS
 62
    2
 10
301.58800350000001
 20
201.27732250000003
 11
301.3546695
 21
201.04398850000001
  0
LINE
  8
_0-3_躯体と製品
  6
CONTINUOUS
 62
    2
 10
301.58800350000001
 20
201.27732250000003
 11
301.3546695
 21
201.51065550000001
  0
LINE
  8
_0-3_躯体と製品
  6
CONTINUOUS
 62
    2
 10
301.3546695
 20
202.01065550000001
 11
301.75466949999998
 21
202.01065550000001
  0
LINE
  8
_0-3_躯体と製品
  6
CONTINUOUS
 62
    2
 10
302.52133649999996
 20
201.4106554999999
 11
302.52133649999996
 21
201.51065550000001
  0
ARC
  8
_0-3_躯体と製品
  6
CONTINUOUS
 62
    2
 10
301.75466949999998
 20
201.51065550000001
 40
0.7666669999999999
 50
0
 51
90
  0
LINE
  8
_0-3_躯体と製品
  6
CONTINUOUS
 62
    2
 10
302.25466949999998
 20
201.4106554999999
 11
302.25466949999998
 21
201.51065550000001
  0
ARC
  8
_0-3_躯体と製品
  6
CONTINUOUS
 62
    2
 10
301.75466949999998
 20
201.51065550000001
 40
0.5
 50
0
 51
90
  0
ARC
  8
_0-3_躯体と製品
  6
CONTINUOUS
 62
    2
 10
302.38800349999997
 20
201.4106554999999
 40
0.133333
 50
180
 51
0
  0
LINE
  8
_0-3_躯体と製品
  6
CONTINUOUS
 62
    2
 10
301.3546695
 20
201.51065550000001
 11
301.3546695
 21
202.01065550000001
  0
LINE
  8
_0-3_躯体と製品
  6
CONTINUOUS
 62
    2
 10
301.3546695
 20
200.54398850000001
 11
301.3546695
 21
201.04398850000001
  0
ARC
  8
_0-3_躯体と製品
  6
CONTINUOUS
 62
    2
 10
299.65723650000001
 20
201.27732250000003
 40
0.166667
 50
123.42481099999921
 51
236.57518900000073
  0
LINE
  8
_0-3_躯体と製品
  6
CONTINUOUS
 62
    2
 10
300.52133649999996
 20
200.77732249999991
 11
300.3546695
 21
200.94398850000002
  0
LINE
  8
_0-3_躯体と製品
  6
CONTINUOUS
 62
    2
 10
300.52133649999996
 20
200.77732249999991
 11
300.68800349999998
 21
200.94398850000002
  0
LINE
  8
_0-3_躯体と製品
  6
CONTINUOUS
 62
    2
 10
300.68800349999998
 20
200.94398850000002
 11
300.8546695
 21
200.94398850000002
  0
LINE
  8
_0-3_躯体と製品
  6
CONTINUOUS
 62
    2
 10
299.56542949999999
 20
201.13822050000002
 11
300.18800349999998
 21
200.72732250000001
  0
LINE
  8
_0-3_躯体と製品
  6
CONTINUOUS
 62
    2
 10
300.8546695
 20
200.94398850000002
 11
300.8546695
 21
200.27732250000003
  0
LINE
  8
_0-3_躯体と製品
  6
CONTINUOUS
 62
    2
 10
301.3546695
 20
200.54398850000001
 11
301.75466949999998
 21
200.54398850000001
  0
LINE
  8
_0-3_躯体と製品
  6
CONTINUOUS
 62
    2
 10
300.8546695
 20
200.27732250000003
 11
301.75466949999998
 21
200.27732250000003
  0
LINE
  8
_0-3_躯体と製品
  6
CONTINUOUS
 62
    2
 10
300.18800349999998
 20
200.72732250000001
 11
300.3546695
 21
200.94398850000002
  0
LINE
  8
_0-3_躯体と製品
  6
CONTINUOUS
 62
    2
 10
300.68800349999998
 20
201.61065550000001
 11
300.8546695
 21
201.61065550000001
  0
LINE
  8
_0-3_躯体と製品
  6
CONTINUOUS
 62
    2
 10
299.56542949999999
 20
201.41642350000001
 11
300.18800349999998
 21
201.82732249999992
  0
LINE
  8
_0-3_躯体と製品
  6
CONTINUOUS
 62
    2
 10
300.8546695
 20
201.61065550000001
 11
300.8546695
 21
202.27732250000003
  0
LINE
  8
_0-3_躯体と製品
  6
CONTINUOUS
 62
    2
 10
301.75466949999998
 20
202.27732250000003
 11
300.8546695
 21
202.27732250000003
  0
LINE
  8
_0-3_躯体と製品
  6
CONTINUOUS
 62
    2
 10
300.3546695
 20
201.61065550000001
 11
300.18800349999998
 21
201.82732249999992
  0
LINE
  8
_0-3_躯体と製品
  6
CONTINUOUS
 62
    2
 10
300.52133649999996
 20
201.77732250000003
 11
300.3546695
 21
201.61065550000001
  0
LINE
  8
_0-3_躯体と製品
  6
CONTINUOUS
 62
    2
 10
300.52133649999996
 20
201.77732250000003
 11
300.68800349999998
 21
201.61065550000001
  0
LINE
  8
_0-3_躯体と製品
  6
CONTINUOUS
 62
    2
 10
302.52133649999996
 20
201.14398850000001
 11
302.52133649999996
 21
201.04398850000001
  0
ARC
  8
_0-3_躯体と製品
  6
CONTINUOUS
 62
    2
 10
301.75466949999998
 20
201.04398850000001
 40
0.7666669999999999
 50
270
 51
0
  0
LINE
  8
_0-3_躯体と製品
  6
CONTINUOUS
 62
    2
 10
302.25466949999998
 20
201.14398850000001
 11
302.25466949999998
 21
201.04398850000001
  0
ARC
  8
_0-3_躯体と製品
  6
CONTINUOUS
 62
    2
 10
301.75466949999998
 20
201.04398850000001
 40
0.5
 50
270
 51
0
  0
ARC
  8
_0-3_躯体と製品
  6
CONTINUOUS
 62
    2
 10
302.38800349999997
 20
201.14398850000001
 40
0.133333
 50
0
 51
180
  0
LINE
  8
_0-3_躯体と製品
  6
CONTINUOUS
 62
    2
 10
300.68800349999998
 20
202.36065550000001
 11
297.8546695
 21
202.36065550000001
  0
LINE
  8
_0-3_躯体と製品
  6
CONTINUOUS
 62
    2
 10
299.02133649999996
 20
200.26065550000001
 11
300.68800349999998
 21
200.26065550000001
  0
LINE
  8
_0-3_躯体と製品
  6
CONTINUOUS
 62
    2
 10
299.45466949999997
 20
201.86065550000001
 11
300.18800349999998
 21
201.86065550000001
  0
LINE
  8
_0-3_躯体と製品
  6
CONTINUOUS
 62
    2
 10
299.45466949999997
 20
200.69398850000002
 11
300.18800349999998
 21
200.69398850000002
  0
LINE
  8
_0-3_躯体と製品
  6
CONTINUOUS
 62
    2
 10
300.8546695
 20
201.86065550000001
 11
300.68800349999998
 21
201.6939884999999
  0
LINE
  8
_0-3_躯体と製品
  6
CONTINUOUS
 62
    2
 10
300.68800349999998
 20
201.6939884999999
 11
300.52133649999996
 21
201.86065550000001
  0
ARC
  8
_0-3_躯体と製品
  6
CONTINUOUS
 62
    2
 10
300.68800349999998
 20
202.19398850000002
 40
0.166667
 50
0
 51
90
  0
LINE
  8
_0-3_躯体と製品
  6
CONTINUOUS
 62
    2
 10
300.8546695
 20
200.42732250000003
 11
300.8546695
 21
200.59398850000002
  0
ARC
  8
_0-3_躯体と製品
  6
CONTINUOUS
 62
    2
 10
300.68800349999998
 20
200.42732250000003
 40
0.166667
 50
270
 51
0
  0
LINE
  8
_0-3_躯体と製品
  6
CONTINUOUS
 62
    2
 10
300.52133649999996
 20
201.86065550000001
 11
300.3546695
 21
201.6939884999999
  0
LINE
  8
_0-3_躯体と製品
  6
CONTINUOUS
 62
    2
 10
300.3546695
 20
201.6939884999999
 11
300.18800349999998
 21
201.86065550000001
  0
LINE
  8
_0-3_躯体と製品
  6
CONTINUOUS
 62
    2
 10
300.8546695
 20
200.69398850000002
 11
300.68800349999998
 21
200.86065550000001
  0
LINE
  8
_0-3_躯体と製品
  6
CONTINUOUS
 62
    2
 10
300.68800349999998
 20
200.86065550000001
 11
300.52133649999996
 21
200.69398850000002
  0
LINE
  8
_0-3_躯体と製品
  6
CONTINUOUS
 62
    2
 10
300.52133649999996
 20
200.69398850000002
 11
300.3546695
 21
200.86065550000001
  0
LINE
  8
_0-3_躯体と製品
  6
CONTINUOUS
 62
    2
 10
300.3546695
 20
200.86065550000001
 11
300.18800349999998
 21
200.69398850000002
  0
LINE
  8
_0-3_躯体と製品
  6
CONTINUOUS
 62
    2
 10
300.8546695
 20
201.86065550000001
 11
300.8546695
 21
202.19398850000002
  0
LINE
  8
_0-3_躯体と製品
  6
CONTINUOUS
 62
    2
 10
300.8546695
 20
200.42732250000003
 11
300.8546695
 21
200.69398850000002
  0
ARC
  8
_0-3_躯体と製品
  6
CONTINUOUS
 62
    2
 10
297.8546695
 20
202.02732250000003
 40
0.3333329999999999
 50
90
 51
180
  0
ARC
  8
_0-3_躯体と製品
  6
CONTINUOUS
 62
    2
 10
299.02133649999996
 20
200.59398850000002
 40
0.3333329999999999
 50
180
 51
270
  0
LINE
  8
_0-3_躯体と製品
  6
CONTINUOUS
 62
    2
 10
299.12133649999998
 20
201.52732250000003
 11
299.12133649999998
 21
201.02732250000003
  0
ARC
  8
_0-3_躯体と製品
  6
CONTINUOUS
 62
    2
 10
299.45466949999997
 20
201.52732250000003
 40
0.3333329999999999
 50
90
 51
180
  0
ARC
  8
_0-3_躯体と製品
  6
CONTINUOUS
 62
    2
 10
299.45466949999997
 20
201.02732250000003
 40
0.3333329999999999
 50
180
 51
270
  0
LINE
  8
_0-3_躯体と製品
  6
CONTINUOUS
 62
    2
 10
298.68800349999998
 20
201.6939884999999
 11
298.68800349999998
 21
200.59398850000002
  0
ARC
  8
_0-3_躯体と製品
  6
CONTINUOUS
 62
    2
 10
298.52133649999996
 20
201.6939884999999
 40
0.166667
 50
0
 51
90
  0
LINE
  8
_0-3_躯体と製品
  6
CONTINUOUS
 62
    2
 10
298.52133649999996
 20
201.86065550000001
 11
298.18800349999998
 21
201.86065550000001
  0
ARC
  8
_0-3_躯体と製品
  6
CONTINUOUS
 62
    2
 10
298.18800349999998
 20
201.6939884999999
 40
0.166667
 50
90
 51
180
  0
LINE
  8
_0-3_躯体と製品
  6
CONTINUOUS
 62
    2
 10
248.60466750000001
 20
178.29398750000001
 11
248.83800049999996
 21
178.52732050000003
  0
LINE
  8
_0-3_躯体と製品
  6
CONTINUOUS
 62
    2
 10
248.60466750000001
 20
178.29398750000001
 11
248.37133349999999
 21
178.52732050000003
  0
LINE
  8
_0-3_躯体と製品
  6
CONTINUOUS
 62
    2
 10
247.87133349999999
 20
178.52732050000003
 11
247.87133349999999
 21
178.12732050000002
  0
LINE
  8
_0-3_躯体と製品
  6
CONTINUOUS
 62
    2
 10
248.47133350000001
 20
177.36065449999992
 11
248.37133349999999
 21
177.36065449999992
  0
ARC
  8
_0-3_躯体と製品
  6
CONTINUOUS
 62
    2
 10
248.37133349999999
 20
178.12732050000002
 40
0.7666669999999999
 50
180
 51
270
  0
LINE
  8
_0-3_躯体と製品
  6
CONTINUOUS
 62
    2
 10
248.47133350000001
 20
177.62732050000002
 11
248.37133349999999
 21
177.62732050000002
  0
ARC
  8
_0-3_躯体と製品
  6
CONTINUOUS
 62
    2
 10
248.37133349999999
 20
178.12732050000002
 40
0.5
 50
180
 51
270
  0
ARC
  8
_0-3_躯体と製品
  6
CONTINUOUS
 62
    2
 10
248.47133350000001
 20
177.4939875
 40
0.133333
 50
270
 51
90
  0
LINE
  8
_0-3_躯体と製品
  6
CONTINUOUS
 62
    2
 10
248.37133349999999
 20
178.52732050000003
 11
247.87133349999999
 21
178.52732050000003
  0
LINE
  8
_0-3_躯体と製品
  6
CONTINUOUS
 62
    2
 10
249.33800049999996
 20
178.52732050000003
 11
248.83800049999996
 21
178.52732050000003
  0
ARC
  8
_0-3_躯体と製品
  6
CONTINUOUS
 62
    2
 10
248.60466750000001
 20
180.2247544999999
 40
0.166667
 50
33.424810999999053
 51
146.5751890000009
  0
LINE
  8
_0-3_躯体と製品
  6
CONTINUOUS
 62
    2
 10
249.10466750000001
 20
179.36065449999992
 11
248.93800049999999
 21
179.52732150000003
  0
LINE
  8
_0-3_躯体と製品
  6
CONTINUOUS
 62
    2
 10
249.10466750000001
 20
179.36065449999992
 11
248.93800049999999
 21
179.19398749999991
  0
LINE
  8
_0-3_躯体と製品
  6
CONTINUOUS
 62
    2
 10
248.93800049999999
 20
179.19398749999991
 11
248.93800049999999
 21
179.02732150000003
  0
LINE
  8
_0-3_躯体と製品
  6
CONTINUOUS
 62
    2
 10
248.74376849999999
 20
180.31656150000001
 11
249.15466749999996
 21
179.69398750000002
  0
LINE
  8
_0-3_躯体と製品
  6
CONTINUOUS
 62
    2
 10
248.93800049999999
 20
179.02732150000003
 11
249.60466750000001
 21
179.02732150000003
  0
LINE
  8
_0-3_躯体と製品
  6
CONTINUOUS
 62
    2
 10
249.33800049999996
 20
178.52732050000003
 11
249.33800049999996
 21
178.12732050000002
  0
LINE
  8
_0-3_躯体と製品
  6
CONTINUOUS
 62
    2
 10
249.60466750000001
 20
179.02732150000003
 11
249.60466750000001
 21
178.12732050000002
  0
LINE
  8
_0-3_躯体と製品
  6
CONTINUOUS
 62
    2
 10
249.15466749999996
 20
179.69398750000002
 11
248.93800049999999
 21
179.52732150000003
  0
LINE
  8
_0-3_躯体と製品
  6
CONTINUOUS
 62
    2
 10
248.27133350000008
 20
179.19398749999991
 11
248.27133350000008
 21
179.02732150000003
  0
LINE
  8
_0-3_躯体と製品
  6
CONTINUOUS
 62
    2
 10
248.46556549999997
 20
180.31656150000001
 11
248.05466750000011
 21
179.69398750000002
  0
LINE
  8
_0-3_躯体と製品
  6
CONTINUOUS
 62
    2
 10
248.27133350000008
 20
179.02732150000003
 11
247.60466750000001
 21
179.02732150000003
  0
LINE
  8
_0-3_躯体と製品
  6
CONTINUOUS
 62
    2
 10
247.60466750000001
 20
178.12732050000002
 11
247.60466750000001
 21
179.02732150000003
  0
LINE
  8
_0-3_躯体と製品
  6
CONTINUOUS
 62
    2
 10
248.27133350000008
 20
179.52732150000003
 11
248.05466750000011
 21
179.69398750000002
  0
LINE
  8
_0-3_躯体と製品
  6
CONTINUOUS
 62
    2
 10
248.10466749999989
 20
179.36065449999992
 11
248.27133350000008
 21
179.52732150000003
  0
LINE
  8
_0-3_躯体と製品
  6
CONTINUOUS
 62
    2
 10
248.10466749999989
 20
179.36065449999992
 11
248.27133350000008
 21
179.19398749999991
  0
LINE
  8
_0-3_躯体と製品
  6
CONTINUOUS
 62
    2
 10
248.7380005
 20
177.36065449999992
 11
248.83800049999996
 21
177.36065449999992
  0
ARC
  8
_0-3_躯体と製品
  6
CONTINUOUS
 62
    2
 10
248.83800049999996
 20
178.12732050000002
 40
0.7666669999999999
 50
270
 51
0
  0
LINE
  8
_0-3_躯体と製品
  6
CONTINUOUS
 62
    2
 10
248.7380005
 20
177.62732050000002
 11
248.83800049999996
 21
177.62732050000002
  0
ARC
  8
_0-3_躯体と製品
  6
CONTINUOUS
 62
    2
 10
248.83800049999996
 20
178.12732050000002
 40
0.5
 50
270
 51
0
  0
ARC
  8
_0-3_躯体と製品
  6
CONTINUOUS
 62
    2
 10
248.7380005
 20
177.4939875
 40
0.133333
 50
90
 51
270
  0
LINE
  8
_0-3_躯体と製品
  6
CONTINUOUS
 62
    2
 10
247.52133350000008
 20
179.19398749999991
 11
247.52133350000008
 21
182.02732150000003
  0
LINE
  8
_0-3_躯体と製品
  6
CONTINUOUS
 62
    2
 10
249.62133350000011
 20
180.86065450000001
 11
249.62133350000011
 21
179.19398749999991
  0
LINE
  8
_0-3_躯体と製品
  6
CONTINUOUS
 62
    2
 10
248.02133349999997
 20
180.42732149999992
 11
248.02133349999997
 21
179.69398750000002
  0
LINE
  8
_0-3_躯体と製品
  6
CONTINUOUS
 62
    2
 10
249.18800049999999
 20
180.42732149999992
 11
249.18800049999999
 21
179.69398750000002
  0
LINE
  8
_0-3_躯体と製品
  6
CONTINUOUS
 62
    2
 10
248.02133349999997
 20
179.02732150000003
 11
248.18800049999999
 21
179.19398749999991
  0
LINE
  8
_0-3_躯体と製品
  6
CONTINUOUS
 62
    2
 10
248.18800049999999
 20
179.19398749999991
 11
248.02133349999997
 21
179.36065449999992
  0
ARC
  8
_0-3_躯体と製品
  6
CONTINUOUS
 62
    2
 10
247.68800049999999
 20
179.19398749999991
 40
0.166667
 50
180
 51
270
  0
LINE
  8
_0-3_躯体と製品
  6
CONTINUOUS
 62
    2
 10
249.45466749999997
 20
179.02732150000003
 11
249.28800050000001
 21
179.02732150000003
  0
ARC
  8
_0-3_躯体と製品
  6
CONTINUOUS
 62
    2
 10
249.45466749999997
 20
179.19398749999991
 40
0.166667
 50
270
 51
0
  0
LINE
  8
_0-3_躯体と製品
  6
CONTINUOUS
 62
    2
 10
248.02133349999997
 20
179.36065449999992
 11
248.18800049999999
 21
179.52732150000003
  0
LINE
  8
_0-3_躯体と製品
  6
CONTINUOUS
 62
    2
 10
248.18800049999999
 20
179.52732150000003
 11
248.02133349999997
 21
179.69398750000002
  0
LINE
  8
_0-3_躯体と製品
  6
CONTINUOUS
 62
    2
 10
249.18800049999999
 20
179.02732150000003
 11
249.02133349999997
 21
179.19398749999991
  0
LINE
  8
_0-3_躯体と製品
  6
CONTINUOUS
 62
    2
 10
249.02133349999997
 20
179.19398749999991
 11
249.18800049999999
 21
179.36065449999992
  0
LINE
  8
_0-3_躯体と製品
  6
CONTINUOUS
 62
    2
 10
249.18800049999999
 20
179.36065449999992
 11
249.02133349999997
 21
179.52732150000003
  0
LINE
  8
_0-3_躯体と製品
  6
CONTINUOUS
 62
    2
 10
249.02133349999997
 20
179.52732150000003
 11
249.18800049999999
 21
179.69398750000002
  0
LINE
  8
_0-3_躯体と製品
  6
CONTINUOUS
 62
    2
 10
248.02133349999997
 20
179.02732150000003
 11
247.68800049999999
 21
179.02732150000003
  0
LINE
  8
_0-3_躯体と製品
  6
CONTINUOUS
 62
    2
 10
249.45466749999997
 20
179.02732150000003
 11
249.18800049999999
 21
179.02732150000003
  0
ARC
  8
_0-3_躯体と製品
  6
CONTINUOUS
 62
    2
 10
247.85466750000001
 20
182.02732150000003
 40
0.3333329999999999
 50
90
 51
180
  0
ARC
  8
_0-3_躯体と製品
  6
CONTINUOUS
 62
    2
 10
249.28800050000001
 20
180.86065450000001
 40
0.3333329999999999
 50
0
 51
90
  0
LINE
  8
_0-3_躯体と製品
  6
CONTINUOUS
 62
    2
 10
248.35466750000001
 20
180.76065450000002
 11
248.85466750000001
 21
180.76065450000002
  0
ARC
  8
_0-3_躯体と製品
  6
CONTINUOUS
 62
    2
 10
248.35466750000001
 20
180.42732149999992
 40
0.3333329999999999
 50
90
 51
180
  0
ARC
  8
_0-3_躯体と製品
  6
CONTINUOUS
 62
    2
 10
248.85466750000001
 20
180.42732149999992
 40
0.3333329999999999
 50
0
 51
90
  0
LINE
  8
_0-3_躯体と製品
  6
CONTINUOUS
 62
    2
 10
248.18800049999999
 20
181.19398749999991
 11
249.28800050000001
 21
181.19398749999991
  0
ARC
  8
_0-3_躯体と製品
  6
CONTINUOUS
 62
    2
 10
248.18800049999999
 20
181.36065450000001
 40
0.166667
 50
180
 51
270
  0
LINE
  8
_0-3_躯体と製品
  6
CONTINUOUS
 62
    2
 10
248.02133349999997
 20
181.36065450000001
 11
248.02133349999997
 21
181.69398750000002
  0
ARC
  8
_0-3_躯体と製品
  6
CONTINUOUS
 62
    2
 10
248.18800049999999
 20
181.69398750000002
 40
0.166667
 50
90
 51
180
  0
LINE
  8
_0-3_躯体と製品
  6
CONTINUOUS
 62
    2
 10
298.44273549999997
 20
198.07111250000003
 11
300.35018550000001
 21
197.55367649999991
  0
LINE
  8
_0-3_躯体と製品
  6
CONTINUOUS
 62
    2
 10
300.29782349999999
 20
197.36065249999993
 11
298.39037350000001
 21
197.87808850000002
  0
LINE
  8
_0-3_躯体と製品
  6
CONTINUOUS
 62
    2
 10
300.35018550000001
 20
197.55367649999991
 11
300.29782349999999
 21
197.36065249999993
  0
ARC
  8
_0-3_躯体と製品
  6
CONTINUOUS
 62
    2
 10
298.52127849999988
 20
198.36064850000002
 40
0.5
 50
90.000121000000448
 51
254.82255199999955
  0
ARC
  8
_0-3_躯体と製品
  6
CONTINUOUS
 62
    2
 10
298.52127849999988
 20
198.36064850000002
 40
0.2999999999999999
 50
90
 51
254.82255199999955
  0
LINE
  8
_0-3_躯体と製品
  6
CONTINUOUS
 62
    2
 10
298.52127749999988
 20
198.66064849999992
 11
302.22127549999999
 21
198.66065649999993
  0
LINE
  8
_0-3_躯体と製品
  6
CONTINUOUS
 62
    2
 10
298.52127749999988
 20
198.86064850000002
 11
302.22133550000001
 21
198.8606565
  0
ARC
  8
_0-3_躯体と製品
  6
CONTINUOUS
 62
    2
 10
302.22127549999999
 20
198.56065650000002
 40
0.1
 50
0
 51
90
  0
LINE
  8
_0-3_躯体と製品
  6
CONTINUOUS
 62
    2
 10
302.32135849999997
 20
197.6939884999999
 11
301.65469150000001
 21
197.6939884999999
  0
LINE
  8
_0-3_躯体と製品
  6
CONTINUOUS
 62
    2
 10
298.44273549999997
 20
180.65019649999991
 11
300.35018550000001
 21
181.16763350000002
  0
LINE
  8
_0-3_躯体と製品
  6
CONTINUOUS
 62
    2
 10
300.29782349999999
 20
181.36065750000003
 11
298.39037350000001
 21
180.84322050000003
  0
LINE
  8
_0-3_躯体と製品
  6
CONTINUOUS
 62
    2
 10
300.35018550000001
 20
181.16763350000002
 11
300.29782349999999
 21
181.36065750000003
  0
ARC
  8
_0-3_躯体と製品
  6
CONTINUOUS
 62
    2
 10
298.52127849999988
 20
180.36066150000002
 40
0.5
 50
105.17744800000041
 51
269.99987899999957
  0
ARC
  8
_0-3_躯体と製品
  6
CONTINUOUS
 62
    2
 10
298.52127849999988
 20
180.36066150000002
 40
0.2999999999999999
 50
105.17744800000041
 51
270
  0
LINE
  8
_0-3_躯体と製品
  6
CONTINUOUS
 62
    2
 10
298.52127749999988
 20
180.06066150000001
 11
302.22127549999999
 21
180.06065350000003
  0
LINE
  8
_0-3_躯体と製品
  6
CONTINUOUS
 62
    2
 10
298.52127749999988
 20
179.86066149999991
 11
302.22133550000001
 21
179.86065349999993
  0
ARC
  8
_0-3_躯体と製品
  6
CONTINUOUS
 62
    2
 10
302.22133650000001
 20
180.16065350000002
 40
0.2999999999999999
 50
270
 51
0
  0
ARC
  8
_0-3_躯体と製品
  6
CONTINUOUS
 62
    2
 10
302.22127549999999
 20
180.16065350000002
 40
0.1
 50
270
 51
0
  0
LINE
  8
_0-3_躯体と製品
  6
CONTINUOUS
 62
    2
 10
301.65469150000001
 20
181.02732150000003
 11
301.65469150000001
 21
197.6939884999999
  0
LINE
  8
_0-3_躯体と製品
  6
CONTINUOUS
 62
    2
 10
302.32135849999997
 20
181.02732150000003
 11
301.65469150000001
 21
181.02732150000003
  0
ARC
  8
_0-3_躯体と製品
  6
CONTINUOUS
 62
    2
 10
302.32134049999996
 20
195.72732150000002
 40
0.3000599999999999
 50
91.147644999999613
 51
180
  0
LINE
  8
_0-3_躯体と製品
  6
CONTINUOUS
 62
    2
 10
302.32126050000011
 20
198.56243650000002
 11
302.32127650000001
 21
180.16065450000002
  0
LINE
  8
_0-3_躯体と製品
  6
CONTINUOUS
 62
    2
 10
302.02127949999999
 20
182.9939875
 11
302.02127949999999
 21
195.72732150000002
  0
ARC
  8
_0-3_躯体と製品
  6
CONTINUOUS
 62
    2
 10
302.32134049999996
 20
182.9939875
 40
0.3000599999999999
 50
180
 51
268.85235500000027
  0
ARC
  8
_0-3_躯体と製品
  6
CONTINUOUS
 62
    2
 10
302.22133650000001
 20
198.56065650000002
 40
0.2999999999999999
 50
0
 51
90
  0
LINE
  8
_0-3_躯体と製品
  6
PLINE2
 62
    3
 10
309.99417349999999
 20
190.14798850000003
 11
309.9680055
 21
190.64730350000002
  0
LINE
  8
_0-3_躯体と製品
  6
PLINE2
 62
    3
 10
309.49485849999996
 20
190.12182050000001
 11
309.99417349999999
 21
190.14798850000003
  0
LINE
  8
_0-3_躯体と製品
  6
PLINE2
 62
    3
 10
309.21903349999997
 20
190.60805149999993
 11
309.49485849999996
 21
190.12182050000001
  0
LINE
  8
_0-3_躯体と製品
  6
PLINE2
 62
    3
 10
308.7197185
 20
190.58188349999992
 11
309.21903349999997
 21
190.60805149999993
  0
LINE
  8
_0-3_躯体と製品
  6
PLINE2
 62
    3
 10
308.74588649999998
 20
190.08256850000001
 11
308.7197185
 21
190.58188349999992
  0
LINE
  8
_0-3_躯体と製品
  6
PLINE2
 62
    3
 10
308.24657150000007
 20
190.05640050000002
 11
308.74588649999998
 21
190.08256850000001
  0
LINE
  8
_0-3_躯体と製品
  6
PLINE2
 62
    3
 10
307.97074649999996
 20
190.54263150000003
 11
308.24657150000007
 21
190.05640050000002
  0
LINE
  8
_0-3_躯体と製品
  6
PLINE2
 62
    3
 10
307.47143149999999
 20
190.51646350000001
 11
307.97074649999996
 21
190.54263150000003
  0
LINE
  8
_0-3_躯体と製品
  6
PLINE2
 62
    3
 10
306.22314449999999
 20
190.45104350000003
 11
306.72245950000001
 21
190.47721150000001
  0
LINE
  8
_0-3_躯体と製品
  6
PLINE2
 62
    3
 10
302.52133649999996
 20
190.61065449999992
 11
303.77133649999996
 21
190.36065449999992
  0
LINE
  8
_0-3_躯体と製品
  6
PLINE2
 62
    3
 10
305.52133649999996
 20
190.36065449999992
 11
304.52133649999996
 21
190.36065449999992
  0
LINE
  8
_0-3_躯体と製品
  6
PLINE2
 62
    3
 10
302.52133649999996
 20
190.36065449999992
 11
304.52133649999996
 21
190.36065449999992
  0
LINE
  8
_0-3_躯体と製品
  6
PLINE2
 62
    3
 10
304.57042650000011
 20
190.94123950000002
 11
306.22143150000011
 21
190.70538149999993
  0
ARC
  8
_0-3_躯体と製品
  6
PLINE2
 62
    3
 10
304.58456849999999
 20
191.04023450000003
 40
0.1
 50
171.86989799999984
 51
261.86989799999895
  0
LINE
  8
_0-3_躯体と製品
  6
PLINE2
 62
    3
 10
304.49260249999998
 20
191.10358350000001
 11
304.48557349999999
 21
191.05437650000002
  0
ARC
  8
_0-3_躯体と製品
  6
PLINE2
 62
    3
 10
304.59159749999998
 20
191.08944050000002
 40
0.1
 50
81.701533999999882
 51
171.86989799999984
  0
LINE
  8
_0-3_躯体と製品
  6
PLINE2
 62
    3
 10
306.30693650000001
 20
190.94030550000002
 11
304.60603049999997
 21
191.18839350000002
  0
LINE
  8
_0-3_躯体と製品
  6
PLINE2
 62
    3
 10
307.47143149999999
 20
190.51646350000001
 11
306.30693650000001
 21
190.94030550000002
  0
LINE
  8
_0-3_躯体と製品
  6
PLINE2
 62
    3
 10
307.47143149999999
 20
190.25041950000002
 11
306.22143150000011
 21
190.70538149999993
  0
LINE
  8
_0-3_躯体と製品
  6
PLINE2
 62
    3
 10
311.21629250000001
 20
190.71272350000001
 11
311.71560749999998
 21
190.73889150000002
  0
LINE
  8
_0-3_躯体と製品
  6
PLINE2
 62
    3
 10
311.24246049999999
 20
190.21340849999993
 11
311.21629250000001
 21
190.71272350000001
  0
LINE
  8
_0-3_躯体と製品
  6
PLINE2
 62
    3
 10
310.74314550000008
 20
190.18724050000003
 11
311.24246049999999
 21
190.21340849999993
  0
LINE
  8
_0-3_躯体と製品
  6
PLINE2
 62
    3
 10
310.46732049999997
 20
190.67347149999992
 11
310.74314550000008
 21
190.18724050000003
  0
LINE
  8
_0-3_躯体と製品
  6
PLINE2
 62
    3
 10
309.9680055
 20
190.64730350000002
 11
310.46732049999997
 21
190.67347149999992
  0
ARC
  8
_0-3_躯体と製品
  6
CONTINUOUS
 62
    2
 10
301.63835849999998
 20
189.82748850000002
 40
0.8
 50
88.830142000001175
 51
144.2999409999988
  0
LINE
  8
_0-3_躯体と製品
  6
CONTINUOUS
 62
    2
 10
300.7880035
 20
196.79398850000001
 11
300.7880035
 21
196.32732149999993
  0
ARC
  8
_0-3_躯体と製品
  6
CONTINUOUS
 62
    2
 10
300.62133649999987
 20
196.79398850000001
 40
0.166667
 50
0
 51
90
  0
LINE
  8
_0-3_躯体と製品
  6
CONTINUOUS
 62
    2
 10
300.62133649999987
 20
196.96065550000003
 11
298.18800349999998
 21
196.96065550000003
  0
ARC
  8
_0-3_躯体と製品
  6
CONTINUOUS
 62
    2
 10
298.18800349999998
 20
197.52732150000003
 40
0.166667
 50
180
 51
270
  0
LINE
  8
_0-3_躯体と製品
  6
CONTINUOUS
 62
    2
 10
298.18800349999998
 20
197.36065550000001
 11
300.3546695
 21
197.36065550000001
  0
ARC
  8
_0-3_躯体と製品
  6
CONTINUOUS
 62
    2
 10
298.18800349999998
 20
196.79398850000001
 40
0.166667
 50
90
 51
180
  0
LINE
  8
_0-3_躯体と製品
  6
CONTINUOUS
 62
    2
 10
300.3546695
 20
197.6939884999999
 11
300.3546695
 21
197.36065550000001
  0
LINE
  8
_0-3_躯体と製品
  6
CONTINUOUS
 62
    2
 10
301.18800349999998
 20
196.79646150000002
 11
301.18800349999998
 21
196.32732149999993
  0
ARC
  8
_0-3_躯体と製品
  6
CONTINUOUS
 62
    2
 10
300.3546695
 20
196.79646150000002
 40
0.8333329999999999
 50
0
 51
68.19859100000069
  0
LINE
  8
_0-3_躯体と製品
  6
CONTINUOUS
 62
    2
 10
300.66416249999997
 20
197.57019150000002
 11
300.3546695
 21
197.6939884999999
  0
LINE
  8
_0-3_躯体と製品
  6
CONTINUOUS
 62
    2
 10
298.02133649999996
 20
201.6939884999999
 11
298.02133649999996
 21
197.52732150000003
  0
ARC
  8
_0-3_躯体と製品
  6
CONTINUOUS
 62
    2
 10
300.98800349999999
 20
196.32732149999993
 40
0.2
 50
180
 51
0
  0
LINE
  8
_0-3_躯体と製品
  6
CONTINUOUS
 62
    2
 10
242.52133350000008
 20
177.36065449999992
 11
269.18800149999998
 21
177.36065449999992
  0
LINE
  8
_0-3_躯体と製品
  6
CONTINUOUS
 62
    2
 10
269.18800149999998
 20
162.36065350000001
 11
269.18800149999998
 21
177.36065449999992
  0
LINE
  8
_0-3_躯体と製品
  6
CONTINUOUS
 62
    2
 10
297.02133649999996
 20
182.36065449999992
 11
247.85466750000001
 21
182.36065449999992
  0
LINE
  8
_0-3_躯体と製品
  6
CONTINUOUS
 62
    2
 10
248.18800049999999
 20
181.86065449999992
 11
297.18800249999998
 21
181.86065449999992
  0
LINE
  8
_0-3_躯体と製品
  6
CONTINUOUS
 62
    2
 10
300.7880035
 20
181.92732150000001
 11
300.7880035
 21
182.39398750000001
  0
ARC
  8
_0-3_躯体と製品
  6
CONTINUOUS
 62
    2
 10
300.62133649999987
 20
181.92732150000001
 40
0.166667
 50
270
 51
0
  0
LINE
  8
_0-3_躯体と製品
  6
CONTINUOUS
 62
    2
 10
300.62133649999987
 20
181.76065450000002
 11
298.18800349999998
 21
181.76065450000002
  0
ARC
  8
_0-3_躯体と製品
  6
CONTINUOUS
 62
    2
 10
298.18800349999998
 20
181.19398749999991
 40
0.166667
 50
90
 51
180
  0
LINE
  8
_0-3_躯体と製品
  6
CONTINUOUS
 62
    2
 10
298.18800349999998
 20
181.36065450000001
 11
300.3546695
 21
181.36065450000001
  0
ARC
  8
_0-3_躯体と製品
  6
CONTINUOUS
 62
    2
 10
298.18800349999998
 20
181.92732150000001
 40
0.166667
 50
180
 51
270
  0
LINE
  8
_0-3_躯体と製品
  6
CONTINUOUS
 62
    2
 10
300.3546695
 20
181.02732150000003
 11
300.3546695
 21
181.36065450000001
  0
LINE
  8
_0-3_躯体と製品
  6
CONTINUOUS
 62
    2
 10
301.18800349999998
 20
181.92484850000002
 11
301.18800349999998
 21
182.39398750000001
  0
ARC
  8
_0-3_躯体と製品
  6
CONTINUOUS
 62
    2
 10
300.3546695
 20
181.92484850000002
 40
0.8333329999999999
 50
291.8014089999993
 51
0.0000000000000127
  0
LINE
  8
_0-3_躯体と製品
  6
CONTINUOUS
 62
    2
 10
300.66416249999997
 20
181.15111850000002
 11
300.3546695
 21
181.02732150000003
  0
ARC
  8
_0-3_躯体と製品
  6
CONTINUOUS
 62
    2
 10
300.98800349999999
 20
182.39398750000001
 40
0.2
 50
0
 51
180
  0
ARC
  8
_0-3_躯体と製品
  6
CONTINUOUS
 62
    2
 10
301.63835849999998
 20
188.89382149999992
 40
0.8
 50
215.70005900000109
 51
271.16985799999873
  0
LINE
  8
_0-3_躯体と製品
  6
PLINE2
 62
    3
 10
307.47143149999999
 20
188.20484649999992
 11
306.30693650000001
 21
187.78100450000002
  0
LINE
  8
_0-3_躯体と製品
  6
PLINE2
 62
    3
 10
307.47143149999999
 20
188.47089050000002
 11
306.22143150000011
 21
188.0159275
  0
LINE
  8
_0-3_躯体と製品
  6
PLINE2
 62
    3
 10
309.99417349999999
 20
188.57332050000002
 11
309.9680055
 21
188.07400650000002
  0
LINE
  8
_0-3_躯体と製品
  6
PLINE2
 62
    3
 10
309.49485849999996
 20
188.59948850000001
 11
309.99417349999999
 21
188.57332050000002
  0
LINE
  8
_0-3_躯体と製品
  6
PLINE2
 62
    3
 10
309.21903349999997
 20
188.11325850000003
 11
309.49485849999996
 21
188.59948850000001
  0
LINE
  8
_0-3_躯体と製品
  6
PLINE2
 62
    3
 10
308.7197185
 20
188.13942650000001
 11
309.21903349999997
 21
188.11325850000003
  0
LINE
  8
_0-3_躯体と製品
  6
PLINE2
 62
    3
 10
308.74588649999998
 20
188.63874050000001
 11
308.7197185
 21
188.13942650000001
  0
LINE
  8
_0-3_躯体と製品
  6
PLINE2
 62
    3
 10
308.24657150000007
 20
188.66490850000002
 11
308.74588649999998
 21
188.63874050000001
  0
LINE
  8
_0-3_躯体と製品
  6
PLINE2
 62
    3
 10
307.97074649999996
 20
188.17867850000002
 11
308.24657150000007
 21
188.66490850000002
  0
LINE
  8
_0-3_躯体と製品
  6
PLINE2
 62
    3
 10
307.47143149999999
 20
188.20484649999992
 11
307.97074649999996
 21
188.17867850000002
  0
LINE
  8
_0-3_躯体と製品
  6
PLINE2
 62
    3
 10
307.49759949999986
 20
188.70416050000003
 11
307.47143149999999
 21
188.20484649999992
  0
LINE
  8
_0-3_躯体と製品
  6
PLINE2
 62
    3
 10
306.99828450000001
 20
188.73032849999993
 11
307.49759949999986
 21
188.70416050000003
  0
LINE
  8
_0-3_躯体と製品
  6
PLINE2
 62
    3
 10
306.72245950000001
 20
188.24409849999992
 11
306.99828450000001
 21
188.73032849999993
  0
LINE
  8
_0-3_躯体と製品
  6
PLINE2
 62
    3
 10
306.22314449999999
 20
188.27026650000002
 11
306.72245950000001
 21
188.24409849999992
  0
LINE
  8
_0-3_躯体と製品
  6
PLINE2
 62
    3
 10
306.24931250000009
 20
188.76958050000002
 11
306.22314449999999
 21
188.27026650000002
  0
LINE
  8
_0-3_躯体と製品
  6
PLINE2
 62
    3
 10
305.74999750000001
 20
188.79574849999992
 11
306.24931250000009
 21
188.76958050000002
  0
LINE
  8
_0-3_躯体と製品
  6
PLINE2
 62
    3
 10
302.52133649999996
 20
188.11065449999992
 11
303.77133649999996
 21
188.36065449999992
  0
LINE
  8
_0-3_躯体と製品
  6
PLINE2
 62
    3
 10
305.52133649999996
 20
188.36065449999992
 11
305.74999750000001
 21
188.79574849999992
  0
LINE
  8
_0-3_躯体と製品
  6
PLINE2
 62
    3
 10
305.52133649999996
 20
188.36065449999992
 11
304.52133649999996
 21
188.36065449999992
  0
LINE
  8
_0-3_躯体と製品
  6
PLINE2
 62
    3
 10
302.52133649999996
 20
188.36065449999992
 11
304.52133649999996
 21
188.36065449999992
  0
LINE
  8
_0-3_躯体と製品
  6
PLINE2
 62
    3
 10
304.52133649999996
 20
189.23565449999992
 11
304.52133649999996
 21
189.36065450000001
  0
LINE
  8
_0-3_躯体と製品
  6
PLINE2
 62
    3
 10
303.77133649999996
 20
189.36065450000001
 11
302.52133649999996
 21
189.36065450000001
  0
LINE
  8
_0-3_躯体と製品
  6
PLINE2
 62
    3
 10
302.52133649999996
 20
189.11065450000001
 11
303.77133649999996
 21
189.36065450000001
  0
LINE
  8
_0-3_躯体と製品
  6
PLINE2
 62
    3
 10
302.52133649999996
 20
189.61065450000001
 11
303.77133649999996
 21
189.36065450000001
  0
LINE
  8
_0-3_躯体と製品
  6
PLINE2
 62
    3
 10
304.52133649999996
 20
189.48565449999992
 11
304.52133649999996
 21
189.36065450000001
  0
LINE
  8
_0-3_躯体と製品
  6
PLINE2
 62
    3
 10
304.57042650000011
 20
187.78006950000002
 11
306.22143150000011
 21
188.0159275
  0
ARC
  8
_0-3_躯体と製品
  6
PLINE2
 62
    3
 10
304.58456849999999
 20
187.68107449999991
 40
0.1
 50
98.130102000001003
 51
188.13010200000019
  0
LINE
  8
_0-3_躯体と製品
  6
PLINE2
 62
    3
 10
304.49260249999998
 20
187.6177265
 11
304.48557349999999
 21
187.66693250000003
  0
ARC
  8
_0-3_躯体と製品
  6
PLINE2
 62
    3
 10
304.59159749999998
 20
187.63186849999991
 40
0.1
 50
188.13010200000019
 51
278.29846600000008
  0
LINE
  8
_0-3_躯体と製品
  6
PLINE2
 62
    3
 10
306.30693650000001
 20
187.78100450000002
 11
304.60603049999997
 21
187.53291550000003
  0
LINE
  8
_0-3_躯体と製品
  6
PLINE2
 62
    3
 10
311.21629250000001
 20
188.00858650000001
 11
311.71560749999998
 21
187.98241850000002
  0
LINE
  8
_0-3_躯体と製品
  6
PLINE2
 62
    3
 10
311.24246049999999
 20
188.5079015
 11
311.21629250000001
 21
188.00858650000001
  0
LINE
  8
_0-3_躯体と製品
  6
PLINE2
 62
    3
 10
310.74314550000008
 20
188.53406950000002
 11
311.24246049999999
 21
188.5079015
  0
LINE
  8
_0-3_躯体と製品
  6
PLINE2
 62
    3
 10
310.46732049999997
 20
188.04783850000001
 11
310.74314550000008
 21
188.53406950000002
  0
LINE
  8
_0-3_躯体と製品
  6
PLINE2
 62
    3
 10
311.5065105000001
 20
189.37548150000001
 11
311.07759249999998
 21
188.89205649999991
  0
LINE
  8
_0-3_躯体と製品
  6
PLINE2
 62
    3
 10
311.05397549999998
 20
189.82801550000002
 11
311.52133749999996
 21
189.36065450000001
  0
LINE
  8
_0-3_躯体と製品
  6
PLINE3
 62
    3
 10
299.10919849999999
 20
189.36065450000001
 11
316.35959949999994
 21
189.36065450000001
  0
LINE
  8
_0-3_躯体と製品
  6
PLINE2
 62
    3
 10
309.9680055
 20
188.07400650000002
 11
310.46732049999997
 21
188.04783850000001
  0
LINE
  8
_0-3_躯体と製品
  6
PLINE2
 62
    3
 10
312.2607155
 20
188.83005150000002
 11
304.52133649999996
 21
189.23565449999992
  0
LINE
  8
_0-3_躯体と製品
  6
PLINE2
 62
    3
 10
312.24108949999999
 20
188.45556550000001
 11
312.2607155
 21
188.83005150000002
  0
LINE
  8
_0-3_躯体と製品
  6
PLINE2
 62
    3
 10
311.71560749999998
 20
187.98241850000002
 11
312.24108949999999
 21
188.45556550000001
  0
LINE
  8
_0-3_躯体と製品
  6
PLINE2
 62
    3
 10
311.76140149999998
 20
188.85621950000001
 11
311.71560749999998
 21
187.98241850000002
  0
ARC
  8
_0-3_躯体と製品
  6
CONTINUOUS
 62
    2
 10
297.02133649999996
 20
182.86065450000001
 40
0.5
 50
270
 51
0
  0
ARC
  8
_0-3_躯体と製品
  6
CONTINUOUS
 62
    2
 10
297.18800249999998
 20
181.52732150000003
 40
0.3333329999999999
 50
0
 51
90
  0
LINE
  8
_0-3_躯体と製品
  6
CONTINUOUS
 62
    2
 10
297.52133649999996
 20
181.52732150000003
 11
297.52133649999996
 21
179.02732150000003
  0
LINE
  8
_0-3_躯体と製品
  6
CONTINUOUS
 62
    2
 10
297.52133649999996
 20
179.02732150000003
 11
298.02133649999996
 21
179.02732150000003
  0
LINE
  8
_0-3_躯体と製品
  6
CONTINUOUS
 62
    2
 10
298.02133649999996
 20
181.19398749999991
 11
298.02133649999996
 21
179.02732150000003
  0
ARC
  8
_0-3_躯体と製品
  6
CONTINUOUS
 62
    2
 10
302.2880255
 20
189.36065450000001
 40
1.6000000000000001
 50
180
 51
215.70003899999989
  0
ARC
  8
_0-3_躯体と製品
  6
CONTINUOUS
 62
    2
 10
302.2880255
 20
189.36065450000001
 40
1.6000000000000001
 50
144.299961
 51
180
  0
LINE
  8
_0-3_躯体と製品
  6
PLINE2
 62
    3
 10
307.49759949999986
 20
190.01714850000002
 11
307.47143149999999
 21
190.51646350000001
  0
LINE
  8
_0-3_躯体と製品
  6
PLINE2
 62
    3
 10
306.99828450000001
 20
189.99098050000001
 11
307.49759949999986
 21
190.01714850000002
  0
LINE
  8
_0-3_躯体と製品
  6
PLINE2
 62
    3
 10
306.72245950000001
 20
190.47721150000001
 11
306.99828450000001
 21
189.99098050000001
  0
LINE
  8
_0-3_躯体と製品
  6
PLINE2
 62
    3
 10
306.24931250000009
 20
189.95172850000003
 11
306.22314449999999
 21
190.45104350000003
  0
LINE
  8
_0-3_躯体と製品
  6
PLINE2
 62
    3
 10
305.74999750000001
 20
189.92556050000002
 11
306.24931250000009
 21
189.95172850000003
  0
LINE
  8
_0-3_躯体と製品
  6
PLINE2
 62
    3
 10
305.52133649999996
 20
190.36065449999992
 11
305.74999750000001
 21
189.92556050000002
  0
LINE
  8
_0-3_躯体と製品
  6
PLINE2
 62
    3
 10
312.2607155
 20
189.89125849999991
 11
304.52133649999996
 21
189.48565449999992
  0
LINE
  8
_0-3_躯体と製品
  6
PLINE2
 62
    3
 10
312.24108949999999
 20
190.26574450000001
 11
312.2607155
 21
189.89125849999991
  0
LINE
  8
_0-3_躯体と製品
  6
PLINE2
 62
    3
 10
311.71560749999998
 20
190.73889150000002
 11
312.24108949999999
 21
190.26574450000001
  0
LINE
  8
_0-3_躯体と製品
  6
PLINE2
 62
    3
 10
311.76140149999998
 20
189.86509050000001
 11
311.71560749999998
 21
190.73889150000002
  0
LINE
  8
_0-3_躯体と製品
  6
CONTINUOUS
 62
    2
 10
302.52133649999996
 20
206.82344849999993
 11
302.52133649999996
 21
162.36065350000001
  0
LINE
  8
_0-3_躯体と製品
  6
CONTINUOUS
 62
    2
 10
297.52133649999996
 20
182.86065450000001
 11
297.52133649999996
 21
202.02732250000003
  0
LINE
  8
_0-3_躯体と製品
  6
CONTINUOUS
 62
    2
 10
298.02133649999996
 20
181.92732150000001
 11
298.02133649999996
 21
196.79398850000001
  0
TEXT
  8
_0-5_文字-記号
 62
    7
 10
305.3269658333333
 20
206.66612750000002
 40
2
 41
0.8
 50
0
  1
４
  0
CIRCLE
  8
_0-5_文字-記号
  6
CONTINUOUS
 62
    3
 10
300.8946115
 20
201.27400249999991
 40
0.2
  0
CIRCLE
  8
_0-5_文字-記号
  6
CONTINUOUS
 62
    3
 10
306.07363849999996
 20
207.44612750000002
 40
1.5
  0
LINE
  8
_0-5_文字-記号
  6
CONTINUOUS
 62
    3
 10
300.8946115
 20
201.27400249999991
 11
305.10945749999996
 21
206.29706050000001
  0
TEXT
  8
_0-5_文字-記号
 62
    7
 10
304.92573916666657
 20
202.78021750000002
 40
2
 41
0.8
 50
0
  1
２
  0
CIRCLE
  8
_0-5_文字-記号
  6
CONTINUOUS
 62
    3
 10
301.50784449999998
 20
198.6606554999999
 40
0.2
  0
CIRCLE
  8
_0-5_文字-記号
  6
CONTINUOUS
 62
    3
 10
305.61906549999998
 20
203.56021749999991
 40
1.5
  0
LINE
  8
_0-5_文字-記号
  6
CONTINUOUS
 62
    3
 10
301.50784449999998
 20
198.6606554999999
 11
304.65488349999998
 21
202.41115050000002
  0
TEXT
  8
_0-5_文字-記号
 62
    7
 10
305.06473216666666
 20
194.6228994999999
 40
2
 41
0.8
 50
0
  1
６
  0
CIRCLE
  8
_0-5_文字-記号
  6
CONTINUOUS
 62
    3
 10
300.68802549999998
 20
189.36065450000001
 40
0.2
  0
CIRCLE
  8
_0-5_文字-記号
  6
CONTINUOUS
 62
    3
 10
305.75806749999998
 20
195.40289550000003
 40
1.5
  0
LINE
  8
_0-5_文字-記号
  6
CONTINUOUS
 62
    3
 10
300.68802549999998
 20
189.36065450000001
 11
304.79388549999999
 21
194.25382850000003
  0
TEXT
  8
_0-5_文字-記号
 62
    7
 10
313.0632061666667
 20
181.92564950000002
 40
2
 41
0.8
 50
0
  1
５
  0
CIRCLE
  8
_0-5_文字-記号
  6
CONTINUOUS
 62
    3
 10
309.21903349999997
 20
188.11325850000003
 40
0.2
  0
CIRCLE
  8
_0-5_文字-記号
  6
CONTINUOUS
 62
    3
 10
313.75654149999997
 20
182.70566550000001
 40
1.5
  0
LINE
  8
_0-5_文字-記号
  6
CONTINUOUS
 62
    3
 10
309.21903349999997
 20
188.11325850000003
 11
312.79236050000009
 21
183.85473250000001
  0
TEXT
  8
_0-5_文字-記号
 62
    7
 10
307.55041916666659
 20
172.39476550000001
 40
2
 41
0.8
 50
0
  1
３
  0
CIRCLE
  8
_0-5_文字-記号
  6
CONTINUOUS
 62
    3
 10
301.65469150000001
 20
181.02732150000003
 40
0.2
  0
CIRCLE
  8
_0-5_文字-記号
  6
CONTINUOUS
 62
    3
 10
308.24376949999998
 20
173.17476450000001
 40
1.5
  0
LINE
  8
_0-5_文字-記号
  6
CONTINUOUS
 62
    3
 10
301.65469150000001
 20
181.02732150000003
 11
307.27958749999999
 21
174.32383150000001
  0
TEXT
  8
_0-5_文字-記号
 62
    7
 10
267.19592283333327
 20
187.63667850000002
 40
2
 41
0.8
 50
0
  1
１
  0
CIRCLE
  8
_0-5_文字-記号
  6
CONTINUOUS
 62
    3
 10
273.02420949999998
 20
182.36065449999992
 40
0.2
  0
CIRCLE
  8
_0-5_文字-記号
  6
CONTINUOUS
 62
    3
 10
267.94259849999997
 20
188.41668250000001
 40
1.5
  0
LINE
  8
_0-5_文字-記号
  6
CONTINUOUS
 62
    3
 10
273.02420949999998
 20
182.36065449999992
 11
268.90677949999997
 21
187.26761550000001
  0
TEXT
  8
_0-5_文字-記号
 62
    7
 10
242.60523983333331
 20
171.88499949999991
 40
2
 41
0.8
 50
0
  1
４
  0
CIRCLE
  8
_0-5_文字-記号
  6
CONTINUOUS
 62
    3
 10
248.66616949999997
 20
178.99829250000002
 40
0.2
  0
CIRCLE
  8
_0-5_文字-記号
  6
CONTINUOUS
 62
    3
 10
243.35191049999997
 20
172.66500550000001
 40
1.5
  0
LINE
  8
_0-5_文字-記号
  6
CONTINUOUS
 62
    3
 10
248.66616949999997
 20
178.99829250000002
 11
244.31609249999997
 21
173.81407249999992
  0
TEXT
  8
_0-4_図面枠
 62
    7
 10
317.9244388333334
 20
87.893189500000005
 40
2
 41
0.8
 50
0
  1
〃
  0
TEXT
  8
_0-4_図面枠
 62
    7
 10
313.89778116666656
 20
87.893189500000005
 40
2
 41
0.8
 50
0
  1
６
  0
TEXT
  8
_0-4_図面枠
 62
    7
 10
317.9244388333334
 20
91.893186499999928
 40
2
 41
0.8
 50
0
  1
〃
  0
TEXT
  8
_0-4_図面枠
 62
    7
 10
313.89778116666656
 20
91.893186499999928
 40
2
 41
0.8
 50
0
  1
６
  0
TEXT
  8
_0-4_図面枠
 62
    7
 10
234.40442749999988
 20
82.426517500000017
 40
2
 41
0.8
 50
0
  1
注）　ガスケットＮＡＬはＵＣＮキャップ（Ｂ）にセット済み。
  0
LINE
  8
_0-4_図面枠
  6
CONTINUOUS
 62
    1
 10
321.07109650000007
 20
87.093182499999926
 11
234.40442549999989
 21
87.093182499999926
  0
TEXT
  8
_0-4_図面枠
 62
    7
 10
105.8783775
 20
87.893189500000005
 40
2
 41
0.8
 50
0
  1
ステンタッピンねじ
  0
TEXT
  8
_0-4_図面枠
 62
    7
 10
137.87838049999999
 20
87.893189500000005
 40
2
 41
0.8
 50
0
  1
なべ４×３０
  0
TEXT
  8
_0-4_図面枠
 62
    7
 10
103.4808731666667
 20
87.893189500000005
 40
2
 41
0.8
 50
0
  1
６
  0
LINE
  8
_0-4_図面枠
  6
CONTINUOUS
 62
    1
 10
184.27837349999999
 20
87.093182499999926
 11
100.2783695
 21
87.093182499999926
  0
TEXT
  8
_0-4_図面枠
 62
    7
 10
181.1316988333333
 20
91.893186499999928
 40
2
 41
0.8
 50
0
  1
〃
  0
TEXT
  8
_0-4_図面枠
 62
    7
 10
177.10504916666667
 20
91.893186499999928
 40
2
 41
0.8
 50
0
  1
６
  0
TEXT
  8
_0-4_図面枠
 62
    7
 10
272.0044335
 20
91.893186499999928
 40
2
 41
0.8
 50
0
  1
フィッシャープラグ　Ｓ６
  0
TEXT
  8
_0-4_図面枠
 62
    7
 10
272.0044335
 20
99.893189500000005
 40
2
 41
0.8
 50
0
  1
２ｔ×２５×４０
  0
TEXT
  8
_0-4_図面枠
 62
    7
 10
240.0044335
 20
99.893189500000005
 40
2
 41
0.8
 50
0
  1
アルミ角座金
  0
TEXT
  8
_0-4_図面枠
 62
    7
 10
237.60693316666669
 20
87.893189500000005
 40
2
 41
0.8
 50
0
  1
６
  0
TEXT
  8
_0-4_図面枠
 62
    7
 10
317.9244388333334
 20
99.893189500000005
 40
2
 41
0.8
 50
0
  1
枚
  0
TEXT
  8
_0-4_図面枠
 62
    7
 10
313.89778116666656
 20
99.893189500000005
 40
2
 41
0.8
 50
0
  1
６
  0
LINE
  8
_0-4_図面枠
  6
CONTINUOUS
 62
    1
 10
184.27837349999999
 20
87.093182499999926
 11
184.27837349999999
 21
118.29318350000003
  0
TEXT
  8
_0-4_図面枠
 62
    7
 10
137.87838849999997
 20
99.893189500000005
 40
2
 41
0.8
 50
0
  1
２ｔ×２５×４０
  0
LINE
  8
_0-4_図面枠
  6
CONTINUOUS
 62
    2
 10
184.27837349999999
 20
91.093182499999926
 11
100.2783695
 21
91.093182499999926
  0
TEXT
  8
_0-4_図面枠
 62
    7
 10
105.87838049999999
 20
99.893189500000005
 40
2
 41
0.8
 50
0
  1
アルミ角座金
  0
TEXT
  8
_0-4_図面枠
 62
    7
 10
103.4808731666667
 20
91.893186499999928
 40
2
 41
0.8
 50
0
  1
５
  0
TEXT
  8
_0-4_図面枠
 62
    7
 10
181.1316988333333
 20
99.893189500000005
 40
2
 41
0.8
 50
0
  1
枚
  0
TEXT
  8
_0-4_図面枠
 62
    7
 10
177.10504916666667
 20
99.893189500000005
 40
2
 41
0.8
 50
0
  1
６
  0
LINE
  8
_0-4_図面枠
  6
CONTINUOUS
 62
    1
 10
184.27837349999999
 20
118.29318350000003
 11
100.2783695
 21
118.29318350000003
  0
TEXT
  8
_0-4_図面枠
 62
    7
 10
117.45171083333338
 20
115.09319050000002
 40
2
 41
0.8
 50
0
  1
部材名称
  0
TEXT
  8
_0-4_図面枠
 62
    7
 10
174.62504916666671
 20
115.09319050000002
 40
2
 41
0.8
 50
0
  1
使用
  0
TEXT
  8
_0-4_図面枠
 62
    7
 10
164.4117108333333
 20
115.09319050000002
 40
2
 41
0.8
 50
0
  1
定　尺
  0
TEXT
  8
_0-4_図面枠
 62
    7
 10
146.41171883333328
 20
115.09319050000002
 40
2
 41
0.8
 50
0
  1
規　格
  0
TEXT
  8
_0-4_図面枠
 62
    7
 10
81.616572499999961
 20
229.78868650000004
 40
2
 41
0.8
 50
0
  1
◇内壁－内壁（１００ＫＫＮ－Ａ）　Ｓ＝１／３
  0
TEXT
  8
_0-4_図面枠
 62
    7
 10
77.188295499999981
 20
236.00880950000004
 40
2
 41
0.8
 50
0
  1
（アルミ１００タイプ）
  0
LINE
  8
_0-4_図面枠
  6
CONTINUOUS
 62
    1
 10
210.00806649999998
 20
241.41628450000002
 11
210.00806649999998
 21
55.583715500000011
  0
LINE
  8
_0-4_図面枠
  6
CONTINUOUS
 62
    1
 10
74.548677499999997
 20
241.41628450000002
 11
74.548677499999997
 21
55.583715500000011
  0
LINE
  8
_0-4_図面枠
  6
CONTINUOUS
 62
    1
 10
345.46745550000003
 20
241.41628450000002
 11
74.532544499999972
 21
241.41628450000002
  0
LINE
  8
_0-4_図面枠
  6
CONTINUOUS
 62
    1
 10
345.46745550000003
 20
55.583715500000011
 11
345.46745550000003
 21
241.41628450000002
  0
LINE
  8
_0-4_図面枠
  6
CONTINUOUS
 62
    1
 10
74.532544499999972
 20
55.583715500000011
 11
345.46745550000003
 21
55.583715500000011
  0
LINE
  8
_0-4_図面枠
  6
CONTINUOUS
 62
    1
 10
321.07109650000007
 20
118.29318350000003
 11
234.40442549999989
 21
118.29318350000003
  0
TEXT
  8
_0-4_図面枠
 62
    7
 10
251.5777788333333
 20
115.09320649999992
 40
2
 41
0.8
 50
0
  1
部材名称
  0
TEXT
  8
_0-4_図面枠
 62
    7
 10
311.41778116666671
 20
115.09320649999992
 40
2
 41
0.8
 50
0
  1
使用
  0
TEXT
  8
_0-4_図面枠
 62
    7
 10
301.20445083333328
 20
115.09320649999992
 40
2
 41
0.8
 50
0
  1
定　尺
  0
TEXT
  8
_0-4_図面枠
 62
    7
 10
280.53779483333329
 20
115.09320649999992
 40
2
 41
0.8
 50
0
  1
規　格
  0
TEXT
  8
_0-4_図面枠
 62
    7
 10
218.74785750000001
 20
228.81183350000003
 40
2
 41
0.8
 50
0
  1
◇内壁コーナー（１００ＫＣＮ－Ａ）　Ｓ＝１／３
  0
TEXT
  8
_0-4_図面枠
 62
    7
 10
212.89484549999997
 20
235.64615450000002
 40
2
 41
0.8
 50
0
  1
（アルミ１００タイプ）
  0
LINE
  8
_0-4_図面枠
  6
CONTINUOUS
 62
    2
 10
184.27837349999999
 20
95.093182500000012
 11
100.2783695
 21
95.093182500000012
  0
LINE
  8
_0-4_図面枠
  6
CONTINUOUS
 62
    2
 10
184.27837349999999
 20
99.093182500000012
 11
100.2783695
 21
99.093182500000012
  0
LINE
  8
_0-4_図面枠
  6
CONTINUOUS
 62
    2
 10
184.27837349999999
 20
103.09318350000001
 11
100.2783695
 21
103.09318350000001
  0
LINE
  8
_0-4_図面枠
  6
CONTINUOUS
 62
    2
 10
184.27837349999999
 20
107.09318350000001
 11
100.2783695
 21
107.09318350000001
  0
LINE
  8
_0-4_図面枠
  6
CONTINUOUS
 62
    1
 10
184.27837349999999
 20
111.09318349999992
 11
100.2783695
 21
111.09318349999992
  0
TEXT
  8
_0-4_図面枠
 62
    7
 10
105.8783775
 20
95.893186499999928
 40
2
 41
0.8
 50
0
  1
ガスケットＮＡＬ
  0
TEXT
  8
_0-4_図面枠
 62
    7
 10
105.8783775
 20
91.893186499999928
 40
2
 41
0.8
 50
0
  1
アンカープラグ
  0
TEXT
  8
_0-4_図面枠
 62
    7
 10
105.8783775
 20
103.89318950000001
 40
2
 41
0.8
 50
0
  1
ＵＵＮホルダー（Ｂ）Ｋ
  0
TEXT
  8
_0-4_図面枠
 62
    7
 10
105.8783775
 20
107.89318950000001
 40
2
 41
0.8
 50
0
  1
ＵＵＮキャップ（Ｂ）
  0
TEXT
  8
_0-4_図面枠
 62
    7
 10
103.42634950000007
 20
95.893186499999928
 40
2
 41
0.8
 50
0
  1
４
  0
TEXT
  8
_0-4_図面枠
 62
    7
 10
103.5330161666667
 20
99.893189500000005
 40
2
 41
0.8
 50
0
  1
３
  0
TEXT
  8
_0-4_図面枠
 62
    7
 10
103.5330161666667
 20
103.89318950000001
 40
2
 41
0.8
 50
0
  1
２
  0
TEXT
  8
_0-4_図面枠
 62
    7
 10
101.82634949999999
 20
107.89318950000001
 40
2
 41
0.8
 50
0
  1
　１
  0
TEXT
  8
_0-4_図面枠
 62
    7
 10
181.1316988333333
 20
95.893186499999928
 40
2
 41
0.8
 50
0
  1
本
  0
TEXT
  8
_0-4_図面枠
 62
    7
 10
177.10504916666667
 20
95.893186499999928
 40
2
 41
0.8
 50
0
  1
２
  0
TEXT
  8
_0-4_図面枠
 62
    7
 10
137.87838049999999
 20
91.893186499999928
 40
2
 41
0.8
 50
0
  1
フィッシャープラグＳ６
  0
TEXT
  8
_0-4_図面枠
 62
    7
 10
181.1316988333333
 20
87.893189500000005
 40
2
 41
0.8
 50
0
  1
〃
  0
TEXT
  8
_0-4_図面枠
 62
    7
 10
181.1316988333333
 20
103.89318950000001
 40
2
 41
0.8
 50
0
  1
個
  0
TEXT
  8
_0-4_図面枠
 62
    7
 10
181.1316988333333
 20
107.89318950000001
 40
2
 41
0.8
 50
0
  1
本
  0
TEXT
  8
_0-4_図面枠
 62
    7
 10
177.10504916666667
 20
87.893189500000005
 40
2
 41
0.8
 50
0
  1
６
  0
TEXT
  8
_0-4_図面枠
 62
    7
 10
177.10504916666667
 20
103.89318950000001
 40
2
 41
0.8
 50
0
  1
６
  0
TEXT
  8
_0-4_図面枠
 62
    7
 10
177.31838249999998
 20
107.89318950000001
 40
2
 41
0.8
 50
0
  1
１
  0
TEXT
  8
_0-4_図面枠
 62
    7
 10
163.50504416666666
 20
95.893186499999928
 40
2
 41
0.8
 50
0
  1
３０００
  0
TEXT
  8
_0-4_図面枠
 62
    7
 10
163.50504416666666
 20
107.89318950000001
 40
2
 41
0.8
 50
0
  1
３０００
  0
LINE
  8
_0-4_図面枠
  6
CONTINUOUS
 62
    1
 10
105.07837050000001
 20
87.093182499999926
 11
105.07837050000001
 21
118.29318350000003
  0
LINE
  8
_0-4_図面枠
  6
CONTINUOUS
 62
    1
 10
100.2783695
 20
87.093182499999926
 11
100.2783695
 21
118.29318350000003
  0
TEXT
  8
_0-4_図面枠
 62
    7
 10
180.00163083333331
 20
115.09319050000002
 40
2
 41
0.8
 50
0
  1
単位
  0
LINE
  8
_0-4_図面枠
  6
CONTINUOUS
 62
    1
 10
179.47837349999998
 20
87.093182499999926
 11
179.47837349999998
 21
118.29318350000003
  0
TEXT
  8
_0-4_図面枠
 62
    7
 10
174.57171583333331
 20
111.89318649999993
 40
2
 41
0.8
 50
0
  1
数量
  0
LINE
  8
_0-4_図面枠
  6
CONTINUOUS
 62
    1
 10
173.0783735
 20
87.093182499999926
 11
173.0783735
 21
118.29318350000003
  0
TEXT
  8
_0-4_図面枠
 62
    7
 10
163.45171083333338
 20
111.89318649999993
 40
2
 41
0.8
 50
0
  1
（ｍｍ）
  0
LINE
  8
_0-4_図面枠
  6
CONTINUOUS
 62
    1
 10
161.0783725
 20
87.093182499999926
 11
161.0783725
 21
118.29318350000003
  0
LINE
  8
_0-4_図面枠
  6
CONTINUOUS
 62
    1
 10
137.0783715
 20
87.093182499999926
 11
137.0783715
 21
118.29318350000003
  0
LINE
  8
_0-4_図面枠
  6
CONTINUOUS
 62
    2
 10
321.07109650000007
 20
91.093182499999926
 11
234.40442549999989
 21
91.093182499999926
  0
LINE
  8
_0-4_図面枠
  6
CONTINUOUS
 62
    2
 10
321.07109650000007
 20
95.093182500000012
 11
234.40442549999989
 21
95.093182500000012
  0
LINE
  8
_0-4_図面枠
  6
CONTINUOUS
 62
    2
 10
321.07109650000007
 20
99.093182500000012
 11
234.40442549999989
 21
99.093182500000012
  0
LINE
  8
_0-4_図面枠
  6
CONTINUOUS
 62
    2
 10
321.07109650000007
 20
103.09318350000001
 11
234.40442549999989
 21
103.09318350000001
  0
LINE
  8
_0-4_図面枠
  6
CONTINUOUS
 62
    2
 10
321.07109650000007
 20
107.09318350000001
 11
234.40442549999989
 21
107.09318350000001
  0
LINE
  8
_0-4_図面枠
  6
CONTINUOUS
 62
    1
 10
321.07109650000007
 20
111.09318349999992
 11
234.40442549999989
 21
111.09318349999992
  0
TEXT
  8
_0-4_図面枠
 62
    7
 10
237.51316816666667
 20
91.819200500000022
 40
2
 41
0.8
 50
0
  1
５
  0
TEXT
  8
_0-4_図面枠
 62
    7
 10
240.00444849999997
 20
95.893186499999928
 40
2
 41
0.8
 50
0
  1
ガスケットＮＡＬ
  0
TEXT
  8
_0-4_図面枠
 62
    7
 10
240.00444849999997
 20
87.893189500000005
 40
2
 41
0.8
 50
0
  1
ステンタッピンねじ
  0
TEXT
  8
_0-4_図面枠
 62
    7
 10
240.00444849999997
 20
91.893186499999928
 40
2
 41
0.8
 50
0
  1
アンカープラグ
  0
TEXT
  8
_0-4_図面枠
 62
    7
 10
237.4065015000001
 20
95.819196500000004
 40
2
 41
0.8
 50
0
  1
４
  0
TEXT
  8
_0-4_図面枠
 62
    7
 10
237.51316816666667
 20
99.819196500000004
 40
2
 41
0.8
 50
0
  1
３
  0
TEXT
  8
_0-4_図面枠
 62
    7
 10
240.00444849999997
 20
103.89318950000001
 40
2
 41
0.8
 50
0
  1
ＵＵＮホルダー（Ｂ）Ｋ
  0
TEXT
  8
_0-4_図面枠
 62
    7
 10
240.00444849999997
 20
107.89318950000001
 40
2
 41
0.8
 50
0
  1
ＵＣＮキャップ（Ｂ）
  0
TEXT
  8
_0-4_図面枠
 62
    7
 10
237.51316816666667
 20
103.81920050000002
 40
2
 41
0.8
 50
0
  1
２
  0
TEXT
  8
_0-4_図面枠
 62
    7
 10
235.80650150000008
 20
107.81920050000002
 40
2
 41
0.8
 50
0
  1
　１
  0
TEXT
  8
_0-4_図面枠
 62
    7
 10
272.0044335
 20
87.893189500000005
 40
2
 41
0.8
 50
0
  1
なべ４×３０
  0
TEXT
  8
_0-4_図面枠
 62
    7
 10
300.2977841666667
 20
95.893186499999928
 40
2
 41
0.8
 50
0
  1
３０００
  0
TEXT
  8
_0-4_図面枠
 62
    7
 10
317.9244388333334
 20
95.893186499999928
 40
2
 41
0.8
 50
0
  1
本
  0
TEXT
  8
_0-4_図面枠
 62
    7
 10
313.89778116666656
 20
95.893186499999928
 40
2
 41
0.8
 50
0
  1
２
  0
TEXT
  8
_0-4_図面枠
 62
    7
 10
317.9244388333334
 20
103.89318950000001
 40
2
 41
0.8
 50
0
  1
個
  0
TEXT
  8
_0-4_図面枠
 62
    7
 10
317.9244388333334
 20
107.89318950000001
 40
2
 41
0.8
 50
0
  1
本
  0
TEXT
  8
_0-4_図面枠
 62
    7
 10
313.89778116666656
 20
103.89318950000001
 40
2
 41
0.8
 50
0
  1
６
  0
TEXT
  8
_0-4_図面枠
 62
    7
 10
314.11111449999999
 20
107.89318950000001
 40
2
 41
0.8
 50
0
  1
１
  0
TEXT
  8
_0-4_図面枠
 62
    7
 10
300.2977841666667
 20
107.89318950000001
 40
2
 41
0.8
 50
0
  1
３０００
  0
LINE
  8
_0-4_図面枠
  6
CONTINUOUS
 62
    1
 10
239.20442550000001
 20
87.093182499999926
 11
239.20442550000001
 21
118.29318350000003
  0
LINE
  8
_0-4_図面枠
  6
CONTINUOUS
 62
    1
 10
234.40442549999989
 20
87.093182499999926
 11
234.40442549999989
 21
118.29318350000003
  0
TEXT
  8
_0-4_図面枠
 62
    7
 10
316.79434783333329
 20
115.09320649999992
 40
2
 41
0.8
 50
0
  1
単位
  0
TEXT
  8
_0-4_図面枠
 62
    7
 10
311.36444783333326
 20
111.89319750000001
 40
2
 41
0.8
 50
0
  1
数量
  0
TEXT
  8
_0-4_図面枠
 62
    7
 10
300.24445083333336
 20
111.89319750000001
 40
2
 41
0.8
 50
0
  1
（ｍｍ）
  0
LINE
  8
_0-4_図面枠
  6
CONTINUOUS
 62
    1
 10
321.07109650000007
 20
87.093182499999926
 11
321.07109650000007
 21
118.29318350000003
  0
LINE
  8
_0-4_図面枠
  6
CONTINUOUS
 62
    1
 10
316.2710965
 20
87.093182499999926
 11
316.2710965
 21
118.29318350000003
  0
LINE
  8
_0-4_図面枠
  6
CONTINUOUS
 62
    1
 10
309.87109549999997
 20
87.093182499999926
 11
309.87109549999997
 21
118.29318350000003
  0
LINE
  8
_0-4_図面枠
  6
CONTINUOUS
 62
    1
 10
297.87109549999997
 20
87.093182499999926
 11
297.87109549999997
 21
118.29318350000003
  0
LINE
  8
_0-4_図面枠
  6
CONTINUOUS
 62
    1
 10
271.20442750000007
 20
87.093182499999926
 11
271.20442750000007
 21
118.29318350000003
  0
TEXT
  8
_0-4_図面枠
 62
    7
 10
100.27837049999999
 20
82.426515500000022
 40
2
 41
0.8
 50
0
  1
注）　ガスケットＮＡＬはＵＵＮキャップ（Ｂ）にセット済み。
  0
INSERT
  2
-001-_D4
  8
_0-0_0
 10
-196.83463489796031
 20
-47.246304310990183
 41
0.5
 42
0.5
 50
0
  0
INSERT
  2
-002-_D5
  8
_0-0_0
 10
-196.83463489796031
 20
-47.246304310990183
 41
0.5
 42
0.5
 50
0
  0
INSERT
  2
-003-_D6
  8
_0-0_0
 10
-196.83463489796031
 20
-47.246304310990183
 41
0.5
 42
0.5
 50
0
  0
INSERT
  2
-004-_D7
  8
_0-0_0
 10
-196.83463489796031
 20
-47.246304310990183
 41
0.5
 42
0.5
 50
0
  0
INSERT
  2
-005-_D8
  8
_0-0_0
 10
-196.83463489796031
 20
-47.246304310990183
 41
0.5
 42
0.5
 50
0
  0
INSERT
  2
-006-_D9
  8
_0-0_0
 10
-196.83463489796031
 20
-47.246304310990183
 41
0.5
 42
0.5
 50
0
  0
INSERT
  2
-007-_D10
  8
_0-0_0
 10
-196.83463489796031
 20
-47.246304310990183
 41
0.5
 42
0.5
 50
0
  0
INSERT
  2
-008-_D11
  8
_0-0_0
 10
-196.83463489796031
 20
-47.246304310990183
 41
0.5
 42
0.5
 50
0
  0
INSERT
  2
-009-_D12
  8
_0-0_0
 10
-196.83463489796031
 20
-47.246304310990183
 41
0.5
 42
0.5
 50
0
  0
INSERT
  2
-010-_D13
  8
_0-0_0
 10
-196.83463489796031
 20
-47.246304310990183
 41
0.5
 42
0.5
 50
0
  0
INSERT
  2
-011-_D14
  8
_0-0_0
 10
-196.83463489796031
 20
-47.246304310990183
 41
0.5
 42
0.5
 50
0
  0
INSERT
  2
-012-_D15
  8
_0-0_0
 10
-196.83463489796031
 20
-47.246304310990183
 41
0.5
 42
0.5
 50
0
  0
ENDSEC
  0
EOF
