  0
SECTION
  2
HEADER
  9
$ACADVER
  1
AC1015
  9
$ACADMAINTVER
 70
    13
  9
$DWGCODEPAGE
  3
ANSI_932
  9
$INSBASE
 10
0.0
 20
0.0
 30
0.0
  9
$EXTMIN
 10
3.479920415533683
 20
-284.2473446101036
 30
-0.0000000349181948
  9
$EXTMAX
 10
827.509461901511
 20
291.7747657000725
 30
0.0000000814935747
  9
$LIMMIN
 10
0.0
 20
0.0
  9
$LIMMAX
 10
420.0
 20
297.0
  9
$ORTHOMODE
 70
     0
  9
$REGENMODE
 70
     1
  9
$FILLMODE
 70
     1
  9
$QTEXTMODE
 70
     0
  9
$MIRRTEXT
 70
     1
  9
$LTSCALE
 40
1.0
  9
$ATTMODE
 70
     1
  9
$TEXTSIZE
 40
0.2
  9
$TRACEWID
 40
0.05
  9
$TEXTSTYLE
  7
STANDARD
  9
$CLAYER
  8
0
  9
$CELTYPE
  6
CONTINUOUS
  9
$CECOLOR
 62
   256
  9
$CELTSCALE
 40
1.0
  9
$DISPSILH
 70
     0
  9
$DIMSCALE
 40
1.0
  9
$DIMASZ
 40
0.18
  9
$DIMEXO
 40
0.0625
  9
$DIMDLI
 40
0.38
  9
$DIMRND
 40
0.0
  9
$DIMDLE
 40
0.0
  9
$DIMEXE
 40
0.18
  9
$DIMTP
 40
0.0
  9
$DIMTM
 40
0.0
  9
$DIMTXT
 40
0.18
  9
$DIMCEN
 40
0.09
  9
$DIMTSZ
 40
0.0
  9
$DIMTOL
 70
     0
  9
$DIMLIM
 70
     0
  9
$DIMTIH
 70
     1
  9
$DIMTOH
 70
     1
  9
$DIMSE1
 70
     0
  9
$DIMSE2
 70
     0
  9
$DIMTAD
 70
     0
  9
$DIMZIN
 70
     0
  9
$DIMBLK
  1

  9
$DIMASO
 70
     1
  9
$DIMSHO
 70
     1
  9
$DIMPOST
  1

  9
$DIMAPOST
  1

  9
$DIMALT
 70
     0
  9
$DIMALTD
 70
     2
  9
$DIMALTF
 40
25.4
  9
$DIMLFAC
 40
1.0
  9
$DIMTOFL
 70
     0
  9
$DIMTVP
 40
0.0
  9
$DIMTIX
 70
     0
  9
$DIMSOXD
 70
     0
  9
$DIMSAH
 70
     0
  9
$DIMBLK1
  1

  9
$DIMBLK2
  1

  9
$DIMSTYLE
  2
Standard
  9
$DIMCLRD
 70
     0
  9
$DIMCLRE
 70
     0
  9
$DIMCLRT
 70
     0
  9
$DIMTFAC
 40
1.0
  9
$DIMGAP
 40
0.09
  9
$DIMJUST
 70
     0
  9
$DIMSD1
 70
     0
  9
$DIMSD2
 70
     0
  9
$DIMTOLJ
 70
     1
  9
$DIMTZIN
 70
     0
  9
$DIMALTZ
 70
     0
  9
$DIMALTTZ
 70
     0
  9
$DIMUPT
 70
     0
  9
$DIMDEC
 70
     4
  9
$DIMTDEC
 70
     4
  9
$DIMALTU
 70
     2
  9
$DIMALTTD
 70
     2
  9
$DIMTXSTY
  7
STANDARD
  9
$DIMAUNIT
 70
     0
  9
$DIMADEC
 70
     0
  9
$DIMALTRND
 40
0.0
  9
$DIMAZIN
 70
     0
  9
$DIMDSEP
 70
    46
  9
$DIMATFIT
 70
     3
  9
$DIMFRAC
 70
     0
  9
$DIMLDRBLK
  1

  9
$DIMLUNIT
 70
     2
  9
$DIMLWD
 70
    -2
  9
$DIMLWE
 70
    -2
  9
$DIMTMOVE
 70
     0
  9
$LUNITS
 70
     2
  9
$LUPREC
 70
     4
  9
$SKETCHINC
 40
0.1
  9
$FILLETRAD
 40
0.0
  9
$AUNITS
 70
     0
  9
$AUPREC
 70
     0
  9
$MENU
  1
.
  9
$ELEVATION
 40
0.0
  9
$PELEVATION
 40
0.0
  9
$THICKNESS
 40
0.0
  9
$LIMCHECK
 70
     0
  9
$CHAMFERA
 40
0.0
  9
$CHAMFERB
 40
0.0
  9
$CHAMFERC
 40
0.0
  9
$CHAMFERD
 40
0.0
  9
$SKPOLY
 70
     0
  9
$TDCREATE
 40
2453971.469628356
  9
$TDUCREATE
 40
2453971.094628356
  9
$TDUPDATE
 40
2453971.547615555
  9
$TDUUPDATE
 40
2453971.172615555
  9
$TDINDWG
 40
0.0016666667
  9
$TDUSRTIMER
 40
0.0016666667
  9
$USRTIMER
 70
     1
  9
$ANGBASE
 50
0.0
  9
$ANGDIR
 70
     0
  9
$PDMODE
 70
     0
  9
$PDSIZE
 40
0.0
  9
$PLINEWID
 40
0.0
  9
$SPLFRAME
 70
     0
  9
$SPLINETYPE
 70
     6
  9
$SPLINESEGS
 70
     8
  9
$HANDSEED
  5
692
  9
$SURFTAB1
 70
     6
  9
$SURFTAB2
 70
     6
  9
$SURFTYPE
 70
     6
  9
$SURFU
 70
     6
  9
$SURFV
 70
     6
  9
$UCSBASE
  2

  9
$UCSNAME
  2

  9
$UCSORG
 10
0.0
 20
0.0
 30
0.0
  9
$UCSXDIR
 10
1.0
 20
0.0
 30
0.0
  9
$UCSYDIR
 10
0.0
 20
1.0
 30
0.0
  9
$UCSORTHOREF
  2

  9
$UCSORTHOVIEW
 70
     0
  9
$UCSORGTOP
 10
0.0
 20
0.0
 30
0.0
  9
$UCSORGBOTTOM
 10
0.0
 20
0.0
 30
0.0
  9
$UCSORGLEFT
 10
0.0
 20
0.0
 30
0.0
  9
$UCSORGRIGHT
 10
0.0
 20
0.0
 30
0.0
  9
$UCSORGFRONT
 10
0.0
 20
0.0
 30
0.0
  9
$UCSORGBACK
 10
0.0
 20
0.0
 30
0.0
  9
$PUCSBASE
  2

  9
$PUCSNAME
  2

  9
$PUCSORG
 10
0.0
 20
0.0
 30
0.0
  9
$PUCSXDIR
 10
1.0
 20
0.0
 30
0.0
  9
$PUCSYDIR
 10
0.0
 20
1.0
 30
0.0
  9
$PUCSORTHOREF
  2

  9
$PUCSORTHOVIEW
 70
     0
  9
$PUCSORGTOP
 10
0.0
 20
0.0
 30
0.0
  9
$PUCSORGBOTTOM
 10
0.0
 20
0.0
 30
0.0
  9
$PUCSORGLEFT
 10
0.0
 20
0.0
 30
0.0
  9
$PUCSORGRIGHT
 10
0.0
 20
0.0
 30
0.0
  9
$PUCSORGFRONT
 10
0.0
 20
0.0
 30
0.0
  9
$PUCSORGBACK
 10
0.0
 20
0.0
 30
0.0
  9
$USERI1
 70
     0
  9
$USERI2
 70
     0
  9
$USERI3
 70
     0
  9
$USERI4
 70
     0
  9
$USERI5
 70
     0
  9
$USERR1
 40
0.0
  9
$USERR2
 40
0.0
  9
$USERR3
 40
0.0
  9
$USERR4
 40
0.0
  9
$USERR5
 40
0.0
  9
$WORLDVIEW
 70
     1
  9
$SHADEDGE
 70
     3
  9
$SHADEDIF
 70
    70
  9
$TILEMODE
 70
     1
  9
$MAXACTVP
 70
    64
  9
$PINSBASE
 10
0.0
 20
0.0
 30
0.0
  9
$PLIMCHECK
 70
     0
  9
$PEXTMIN
 10
1.000000000000000E+20
 20
1.000000000000000E+20
 30
1.000000000000000E+20
  9
$PEXTMAX
 10
-1.000000000000000E+20
 20
-1.000000000000000E+20
 30
-1.000000000000000E+20
  9
$PLIMMIN
 10
0.0
 20
0.0
  9
$PLIMMAX
 10
12.0
 20
9.0
  9
$UNITMODE
 70
     0
  9
$VISRETAIN
 70
     1
  9
$PLINEGEN
 70
     0
  9
$PSLTSCALE
 70
     1
  9
$TREEDEPTH
 70
  3020
  9
$CMLSTYLE
  2
Standard
  9
$CMLJUST
 70
     0
  9
$CMLSCALE
 40
1.0
  9
$PROXYGRAPHICS
 70
     1
  9
$MEASUREMENT
 70
     0
  9
$CELWEIGHT
370
    -1
  9
$ENDCAPS
280
     0
  9
$JOINSTYLE
280
     0
  9
$LWDISPLAY
290
     0
  9
$INSUNITS
 70
     0
  9
$HYPERLINKBASE
  1

  9
$STYLESHEET
  1
monochrome.ctb
  9
$XEDIT
290
     1
  9
$CEPSNTYPE
380
     0
  9
$PSTYLEMODE
290
     1
  9
$FINGERPRINTGUID
  2
{6BEDE388-105E-4B2B-8821-F6B8A91C76C1}
  9
$VERSIONGUID
  2
{05351EF6-7654-4DC8-8898-BF8DFDCEC8C4}
  9
$EXTNAMES
290
     1
  9
$PSVPSCALE
 40
0.0
  9
$OLESTARTUP
290
     0
  0
ENDSEC
  0
SECTION
  2
CLASSES
  0
CLASS
  1
ACDBDICTIONARYWDFLT
  2
AcDbDictionaryWithDefault
  3
AutoCAD 2000
 90
        0
280
     0
281
     0
  0
CLASS
  1
ACDBPLACEHOLDER
  2
AcDbPlaceHolder
  3
AutoCAD 2000
 90
        0
280
     0
281
     0
  0
CLASS
  1
LAYOUT
  2
AcDbLayout
  3
AutoCAD 2000
 90
        0
280
     0
281
     0
  0
CLASS
  1
DICTIONARYVAR
  2
AcDbDictionaryVar
  3
AutoCAD 2000
 90
        0
280
     0
281
     0
  0
ENDSEC
  0
SECTION
  2
TABLES
  0
TABLE
  2
VPORT
  5
8
330
0
100
AcDbSymbolTable
 70
     2
  0
VPORT
  5
691
330
8
100
AcDbSymbolTableRecord
100
AcDbViewportTableRecord
  2
*Active
 70
     0
 10
0.0
 20
0.0
 11
1.0
 21
1.0
 12
415.4946911585223
 22
3.763710544984462
 13
0.0
 23
0.0
 14
1.0
 24
1.0
 15
0.0
 25
0.0
 16
0.0
 26
0.0
 36
1.0
 17
0.0
 27
0.0
 37
0.0
 40
580.4192256560553
 41
1.569426751592356
 42
50.0
 43
0.0
 44
0.0
 50
0.0
 51
0.0
 71
     0
 72
   100
 73
     1
 74
     1
 75
     0
 76
     0
 77
     0
 78
     0
281
     0
 65
     1
110
0.0
120
0.0
130
0.0
111
1.0
121
0.0
131
0.0
112
0.0
122
1.0
132
0.0
 79
     0
146
0.0
  0
ENDTAB
  0
TABLE
  2
LTYPE
  5
5
330
0
100
AcDbSymbolTable
 70
    35
  0
LTYPE
  5
13
330
5
100
AcDbSymbolTableRecord
100
AcDbLinetypeTableRecord
  2
ByBlock
 70
     0
  3

 72
    65
 73
     0
 40
0.0
  0
LTYPE
  5
14
330
5
100
AcDbSymbolTableRecord
100
AcDbLinetypeTableRecord
  2
ByLayer
 70
     0
  3

 72
    65
 73
     0
 40
0.0
  0
LTYPE
  5
15
330
5
100
AcDbSymbolTableRecord
100
AcDbLinetypeTableRecord
  2
CONTINUOUS
 70
     0
  3
実線
 72
    65
 73
     0
 40
0.0
  0
LTYPE
  5
22
330
5
100
AcDbSymbolTableRecord
100
AcDbLinetypeTableRecord
  2
DASHED1
 70
     0
  3
--  --  --  --  --  --  --  --  
 72
    65
 73
     2
 40
2.5
 49
1.25
 74
     0
 49
-1.25
 74
     0
  0
LTYPE
  5
23
330
5
100
AcDbSymbolTableRecord
100
AcDbLinetypeTableRecord
  2
DASHED2
 70
     0
  3
----    ----    ----    ----    
 72
    65
 73
     2
 40
5.0
 49
2.5
 74
     0
 49
-2.5
 74
     0
  0
LTYPE
  5
24
330
5
100
AcDbSymbolTableRecord
100
AcDbLinetypeTableRecord
  2
DASHED3
 70
     0
  3
------  ------  ------  ------  
 72
    65
 73
     2
 40
5.0
 49
3.75
 74
     0
 49
-1.25
 74
     0
  0
LTYPE
  5
25
330
5
100
AcDbSymbolTableRecord
100
AcDbLinetypeTableRecord
  2
CENTER1
 70
     0
  3
----- - ----- - ----- - ----- - 
 72
    65
 73
     4
 40
10.0
 49
6.25
 74
     0
 49
-1.25
 74
     0
 49
1.25
 74
     0
 49
-1.25
 74
     0
  0
LTYPE
  5
26
330
5
100
AcDbSymbolTableRecord
100
AcDbLinetypeTableRecord
  2
CENTER2
 70
     0
  3
----------  --  ----------  --  
 72
    65
 73
     4
 40
20.0
 49
12.5
 74
     0
 49
-2.5
 74
     0
 49
2.5
 74
     0
 49
-2.5
 74
     0
  0
LTYPE
  5
27
330
5
100
AcDbSymbolTableRecord
100
AcDbLinetypeTableRecord
  2
PHANTOM1
 70
     0
  3
--- - - --- - - --- - - --- - - 
 72
    65
 73
     6
 40
10.0
 49
3.25
 74
     0
 49
-1.25
 74
     0
 49
1.25
 74
     0
 49
-1.25
 74
     0
 49
1.25
 74
     0
 49
-1.25
 74
     0
  0
LTYPE
  5
28
330
5
100
AcDbSymbolTableRecord
100
AcDbLinetypeTableRecord
  2
PHANTOM2
 70
     0
  3
--------  -  -  --------  -  -  
 72
    65
 73
     6
 40
20.0
 49
10.0
 74
     0
 49
-2.5
 74
     0
 49
1.25
 74
     0
 49
-2.5
 74
     0
 49
1.25
 74
     0
 49
-2.5
 74
     0
  0
LTYPE
  5
29
330
5
100
AcDbSymbolTableRecord
100
AcDbLinetypeTableRecord
  2
DOT
 70
     0
  3
-   -   -   -   -   -   -   -   
 72
    65
 73
     2
 40
2.5
 49
0.625
 74
     0
 49
-1.875
 74
     0
  0
LTYPE
  5
2A
330
5
100
AcDbSymbolTableRecord
100
AcDbLinetypeTableRecord
  2
DUMMY
 70
     0
  3
ダミー
 72
    65
 73
     0
 40
0.0
  0
LTYPE
  5
2B
330
5
100
AcDbSymbolTableRecord
100
AcDbLinetypeTableRecord
  2
RAND1
 70
     0
  3
ランダム線1
 72
    65
 73
     4
 40
10.0
 49
1.0
 74
     0
 49
-2.0
 74
     0
 49
3.0
 74
     0
 49
-4.0
 74
     0
  0
LTYPE
  5
2C
330
5
100
AcDbSymbolTableRecord
100
AcDbLinetypeTableRecord
  2
RAND2
 70
     0
  3
ランダム線2
 72
    65
 73
     4
 40
14.0
 49
2.0
 74
     0
 49
-3.0
 74
     0
 49
4.0
 74
     0
 49
-5.0
 74
     0
  0
LTYPE
  5
2D
330
5
100
AcDbSymbolTableRecord
100
AcDbLinetypeTableRecord
  2
RAND3
 70
     0
  3
ランダム線3
 72
    65
 73
     4
 40
18.0
 49
3.0
 74
     0
 49
-4.0
 74
     0
 49
5.0
 74
     0
 49
-6.0
 74
     0
  0
LTYPE
  5
2E
330
5
100
AcDbSymbolTableRecord
100
AcDbLinetypeTableRecord
  2
RAND4
 70
     0
  3
ランダム線4
 72
    65
 73
     4
 40
22.0
 49
4.0
 74
     0
 49
-5.0
 74
     0
 49
6.0
 74
     0
 49
-7.0
 74
     0
  0
LTYPE
  5
2F
330
5
100
AcDbSymbolTableRecord
100
AcDbLinetypeTableRecord
  2
RAND5
 70
     0
  3
ランダム線5
 72
    65
 73
     4
 40
26.0
 49
5.0
 74
     0
 49
-6.0
 74
     0
 49
7.0
 74
     0
 49
-8.0
 74
     0
  0
LTYPE
  5
30
330
5
100
AcDbSymbolTableRecord
100
AcDbLinetypeTableRecord
  2
LONG1
 70
     0
  3
----------  --  ----------  --  
 72
    65
 73
     4
 40
40.0
 49
32.5
 74
     0
 49
-2.5
 74
     0
 49
2.5
 74
     0
 49
-2.5
 74
     0
  0
LTYPE
  5
31
330
5
100
AcDbSymbolTableRecord
100
AcDbLinetypeTableRecord
  2
LONG2
 70
     0
  3
--------  -  -  --------  -  -  
 72
    65
 73
     6
 40
40.0
 49
30.0
 74
     0
 49
-2.5
 74
     0
 49
1.25
 74
     0
 49
-2.5
 74
     0
 49
1.25
 74
     0
 49
-2.5
 74
     0
  0
LTYPE
  5
32
330
5
100
AcDbSymbolTableRecord
100
AcDbLinetypeTableRecord
  2
LONG3
 70
     0
  3
+++++++++++++++..+++++++++++++++
 72
    65
 73
     2
 40
40.0
 49
37.5
 74
     0
 49
-2.5
 74
     0
  0
LTYPE
  5
33
330
5
100
AcDbSymbolTableRecord
100
AcDbLinetypeTableRecord
  2
LONG4
 70
     0
  3
+++++++++++++++..+++++++++++++++
 72
    65
 73
     2
 40
80.0
 49
75.0
 74
     0
 49
-5.0
 74
     0
  0
LTYPE
  5
34
330
5
100
AcDbSymbolTableRecord
100
AcDbLinetypeTableRecord
  2
LONG5
 70
     0
  3
----------  --  ----------  --  
 72
    65
 73
     4
 40
60.0
 49
37.5
 74
     0
 49
-7.5
 74
     0
 49
7.5
 74
     0
 49
-7.5
 74
     0
  0
LTYPE
  5
35
330
5
100
AcDbSymbolTableRecord
100
AcDbLinetypeTableRecord
  2
DASHED
 70
     0
  3
-------   -------------   ------
 72
    65
 73
     2
 40
7.5
 49
6.0
 74
     0
 49
-1.5
 74
     0
  0
LTYPE
  5
36
330
5
100
AcDbSymbolTableRecord
100
AcDbLinetypeTableRecord
  2
DASHED_SPACED
 70
     0
  3
----        --------        ----
 72
    65
 73
     2
 40
12.0
 49
6.0
 74
     0
 49
-6.0
 74
     0
  0
LTYPE
  5
37
330
5
100
AcDbSymbolTableRecord
100
AcDbLinetypeTableRecord
  2
LONG_DASHED_DOTTED
 70
     0
  3
------------- --- --------------
 72
    65
 73
     4
 40
15.25
 49
12.0
 74
     0
 49
-1.5
 74
     0
 49
0.25
 74
     0
 49
-1.5
 74
     0
  0
LTYPE
  5
38
330
5
100
AcDbSymbolTableRecord
100
AcDbLinetypeTableRecord
  2
LONG_DASHED_DOUBLE-DOTTED
 70
     0
  3
----------- --- --- ------------
 72
    65
 73
     6
 40
17.0
 49
12.0
 74
     0
 49
-1.5
 74
     0
 49
0.25
 74
     0
 49
-1.5
 74
     0
 49
0.25
 74
     0
 49
-1.5
 74
     0
  0
LTYPE
  5
39
330
5
100
AcDbSymbolTableRecord
100
AcDbLinetypeTableRecord
  2
LONG_DASHED_TRIPLICATE-DOTTED
 70
     0
  3
--------- --- --- --- ----------
 72
    65
 73
     8
 40
18.75
 49
12.0
 74
     0
 49
-1.5
 74
     0
 49
0.25
 74
     0
 49
-1.5
 74
     0
 49
0.25
 74
     0
 49
-1.5
 74
     0
 49
0.25
 74
     0
 49
-1.5
 74
     0
  0
LTYPE
  5
3A
330
5
100
AcDbSymbolTableRecord
100
AcDbLinetypeTableRecord
  2
DOTTED
 70
     0
  3
   -       -       -       -    
 72
    65
 73
     2
 40
1.75
 49
0.25
 74
     0
 49
-1.5
 74
     0
  0
LTYPE
  5
3B
330
5
100
AcDbSymbolTableRecord
100
AcDbLinetypeTableRecord
  2
CHAIN
 70
     0
  3
-------------- -- --------------
 72
    65
 73
     4
 40
18.5
 49
12.0
 74
     0
 49
-1.5
 74
     0
 49
3.5
 74
     0
 49
-1.5
 74
     0
  0
LTYPE
  5
3C
330
5
100
AcDbSymbolTableRecord
100
AcDbLinetypeTableRecord
  2
CHAIN_DOUBLE_DASH
 70
     0
  3
------------ -- -- -------------
 72
    65
 73
     6
 40
23.5
 49
12.0
 74
     0
 49
-1.5
 74
     0
 49
3.5
 74
     0
 49
-1.5
 74
     0
 49
3.5
 74
     0
 49
-1.5
 74
     0
  0
LTYPE
  5
3D
330
5
100
AcDbSymbolTableRecord
100
AcDbLinetypeTableRecord
  2
DASHED_DOTTED
 70
     0
  3
-----------     -     ----------
 72
    65
 73
     4
 40
9.25
 49
6.0
 74
     0
 49
-1.5
 74
     0
 49
0.25
 74
     0
 49
-1.5
 74
     0
  0
LTYPE
  5
3E
330
5
100
AcDbSymbolTableRecord
100
AcDbLinetypeTableRecord
  2
DOUBLE-DASHED_DOTTED
 70
     0
  3
------   -----------   -   -----
 72
    65
 73
     6
 40
16.75
 49
6.0
 74
     0
 49
-1.5
 74
     0
 49
6.0
 74
     0
 49
-1.5
 74
     0
 49
0.25
 74
     0
 49
-1.5
 74
     0
  0
LTYPE
  5
3F
330
5
100
AcDbSymbolTableRecord
100
AcDbLinetypeTableRecord
  2
DASHED_DOUBLE-DOTTED
 70
     0
  3
---------    -    -    ---------
 72
    65
 73
     6
 40
11.0
 49
6.0
 74
     0
 49
-1.5
 74
     0
 49
0.25
 74
     0
 49
-1.5
 74
     0
 49
0.25
 74
     0
 49
-1.5
 74
     0
  0
LTYPE
  5
40
330
5
100
AcDbSymbolTableRecord
100
AcDbLinetypeTableRecord
  2
DOUBLE-DASHED_DOUBLE-DOTTED
 70
     0
  3
-----   ---------   -   -   ----
 72
    65
 73
     8
 40
18.5
 49
6.0
 74
     0
 49
-1.5
 74
     0
 49
6.0
 74
     0
 49
-1.5
 74
     0
 49
0.25
 74
     0
 49
-1.5
 74
     0
 49
0.25
 74
     0
 49
-1.5
 74
     0
  0
LTYPE
  5
41
330
5
100
AcDbSymbolTableRecord
100
AcDbLinetypeTableRecord
  2
DASHED_TRIPLICATE-DOTTED
 70
     0
  3
-------    -    -    -    ------
 72
    65
 73
     8
 40
12.75
 49
6.0
 74
     0
 49
-1.5
 74
     0
 49
0.25
 74
     0
 49
-1.5
 74
     0
 49
0.25
 74
     0
 49
-1.5
 74
     0
 49
0.25
 74
     0
 49
-1.5
 74
     0
  0
LTYPE
  5
42
330
5
100
AcDbSymbolTableRecord
100
AcDbLinetypeTableRecord
  2
DOUBLE-DASHED_TRIPLICATE-DOTTED
 70
     0
  3
-----  ---------  -  -  -  -----
 72
    65
 73
    10
 40
20.24999999999999
 49
6.0
 74
     0
 49
-1.5
 74
     0
 49
6.0
 74
     0
 49
-1.5
 74
     0
 49
0.25
 74
     0
 49
-1.5
 74
     0
 49
0.25
 74
     0
 49
-1.5
 74
     0
 49
0.25
 74
     0
 49
-1.5
 74
     0
  0
LTYPE
  5
43
330
5
100
AcDbSymbolTableRecord
100
AcDbLinetypeTableRecord
  2
UNDEFINED
 70
     0
  3
--------------------------------
 72
    65
 73
     0
 40
0.0
  0
ENDTAB
  0
TABLE
  2
LAYER
  5
2
330
0
100
AcDbSymbolTable
 70
    14
  0
LAYER
  5
10
330
2
100
AcDbSymbolTableRecord
100
AcDbLayerTableRecord
  2
0
 70
     0
 62
     7
  6
CONTINUOUS
370
    -3
390
F
  0
LAYER
  5
45
330
2
100
AcDbSymbolTableRecord
100
AcDbLayerTableRecord
  2
_1-0_躯体
 70
     0
 62
     7
  6
CONTINUOUS
370
    -3
390
F
  0
LAYER
  5
46
330
2
100
AcDbSymbolTableRecord
100
AcDbLayerTableRecord
  2
_1-1_耐火帯
 70
     0
 62
     7
  6
CONTINUOUS
370
    -3
390
F
  0
LAYER
  5
47
330
2
100
AcDbSymbolTableRecord
100
AcDbLayerTableRecord
  2
_1-2_________
 70
     0
 62
     7
  6
CONTINUOUS
370
    -3
390
F
  0
LAYER
  5
48
330
2
100
AcDbSymbolTableRecord
100
AcDbLayerTableRecord
  2
_1-3_止水補助板
 70
     0
 62
     7
  6
CONTINUOUS
370
    -3
390
F
  0
LAYER
  5
49
330
2
100
AcDbSymbolTableRecord
100
AcDbLayerTableRecord
  2
_1-4_FYY____
 70
     0
 62
     7
  6
CONTINUOUS
370
    -3
390
F
  0
LAYER
  5
4A
330
2
100
AcDbSymbolTableRecord
100
AcDbLayerTableRecord
  2
_1-5_FYY_______
 70
     0
 62
     7
  6
CONTINUOUS
370
    -3
390
F
  0
LAYER
  5
4B
330
2
100
AcDbSymbolTableRecord
100
AcDbLayerTableRecord
  2
_1-6______
 70
     0
 62
     7
  6
CONTINUOUS
370
    -3
390
F
  0
LAYER
  5
4C
330
2
100
AcDbSymbolTableRecord
100
AcDbLayerTableRecord
  2
_1-7_____________
 70
     0
 62
     7
  6
CONTINUOUS
370
    -3
390
F
  0
LAYER
  5
4D
330
2
100
AcDbSymbolTableRecord
100
AcDbLayerTableRecord
  2
_1-8_水切______
 70
     0
 62
     7
  6
CONTINUOUS
370
    -3
390
F
  0
LAYER
  5
4E
330
2
100
AcDbSymbolTableRecord
100
AcDbLayerTableRecord
  2
_1-9_FYY_____
 70
     0
 62
     7
  6
CONTINUOUS
370
    -3
390
F
  0
LAYER
  5
4F
330
2
100
AcDbSymbolTableRecord
100
AcDbLayerTableRecord
  2
_1-E_寸法
 70
     0
 62
     7
  6
CONTINUOUS
370
    -3
390
F
  0
LAYER
  5
50
330
2
100
AcDbSymbolTableRecord
100
AcDbLayerTableRecord
  2
_1-F_表__文字
 70
     0
 62
     7
  6
CONTINUOUS
370
    -3
390
F
  0
LAYER
  5
51
330
2
100
AcDbSymbolTableRecord
100
AcDbLayerTableRecord
  2
ADD_LINE
 70
     0
 62
     7
  6
CONTINUOUS
370
    -3
390
F
  0
ENDTAB
  0
TABLE
  2
STYLE
  5
3
330
0
100
AcDbSymbolTable
 70
     2
  0
STYLE
  5
11
330
3
100
AcDbSymbolTableRecord
100
AcDbTextStyleTableRecord
  2
STANDARD
 70
     0
 40
0.0
 41
1.0
 50
0.0
 71
     0
 42
0.2
  3
txt
  4
bigfont.shx
  0
STYLE
  5
44
330
3
100
AcDbSymbolTableRecord
100
AcDbTextStyleTableRecord
  2
TATEGAKI
 70
     4
 40
0.0
 41
1.0
 50
0.0
 71
     0
 42
1.0
  3
txt
  4
bigfont.shx
  0
ENDTAB
  0
TABLE
  2
VIEW
  5
6
330
0
100
AcDbSymbolTable
 70
     0
  0
ENDTAB
  0
TABLE
  2
UCS
  5
7
330
0
100
AcDbSymbolTable
 70
     0
  0
ENDTAB
  0
TABLE
  2
APPID
  5
9
330
0
100
AcDbSymbolTable
 70
     1
  0
APPID
  5
12
330
9
100
AcDbSymbolTableRecord
100
AcDbRegAppTableRecord
  2
ACAD
 70
     0
  0
ENDTAB
  0
TABLE
  2
DIMSTYLE
  5
A
330
0
100
AcDbSymbolTable
 70
     1
100
AcDbDimStyleTable
 71
     0
  0
DIMSTYLE
105
687
330
A
100
AcDbSymbolTableRecord
100
AcDbDimStyleTableRecord
  2
Standard
 70
     0
340
11
  0
ENDTAB
  0
TABLE
  2
BLOCK_RECORD
  5
1
330
0
100
AcDbSymbolTable
 70
     0
  0
BLOCK_RECORD
  5
1E
330
1
100
AcDbSymbolTableRecord
100
AcDbBlockTableRecord
  2
*Model_Space
340
21
  0
BLOCK_RECORD
  5
1A
330
1
100
AcDbSymbolTableRecord
100
AcDbBlockTableRecord
  2
*Paper_Space
340
1D
  0
ENDTAB
  0
ENDSEC
  0
SECTION
  2
BLOCKS
  0
BLOCK
  5
1F
330
1E
100
AcDbEntity
  8
0
100
AcDbBlockBegin
  2
*Model_Space
 70
     0
 10
0.0
 20
0.0
 30
0.0
  3
*Model_Space
  1

  0
ENDBLK
  5
20
330
1E
100
AcDbEntity
  8
0
100
AcDbBlockEnd
  0
BLOCK
  5
1B
330
1A
100
AcDbEntity
 67
     1
  8
0
100
AcDbBlockBegin
  2
*Paper_Space
 70
     0
 10
0.0
 20
0.0
 30
0.0
  3
*Paper_Space
  1

  0
ENDBLK
  5
1C
330
1A
100
AcDbEntity
 67
     1
  8
0
100
AcDbBlockEnd
  0
ENDSEC
  0
SECTION
  2
ENTITIES
  0
LINE
  5
55
330
1E
100
AcDbEntity
  8
_1-E_寸法
  6
Continuous
 62
     4
100
AcDbLine
 10
785.9082297101198
 20
107.762824274647
 30
0.0
 11
785.2136369994521
 21
103.823593262598
 31
0.0
  0
LINE
  5
56
330
1E
100
AcDbEntity
  8
_1-E_寸法
  6
Continuous
 62
     4
100
AcDbLine
 10
785.9082297101198
 20
107.762824274647
 30
0.0
 11
786.6028224207875
 21
103.823593262598
 31
0.0
  0
LINE
  5
57
330
1E
100
AcDbEntity
  8
_1-E_寸法
  6
Continuous
 62
     4
100
AcDbLine
 10
785.9082297101198
 20
64.88066424030342
 30
0.0
 11
785.2136369994521
 21
68.81989525235218
 31
0.0
  0
LINE
  5
58
330
1E
100
AcDbEntity
  8
_1-E_寸法
  6
Continuous
 62
     4
100
AcDbLine
 10
785.9082297101198
 20
64.88066424030342
 30
0.0
 11
786.6028224207875
 21
68.81989525235218
 31
0.0
  0
LINE
  5
59
330
1E
100
AcDbEntity
  8
_1-E_寸法
  6
Continuous
 62
     4
100
AcDbLine
 10
785.9082297101198
 20
64.88066424030342
 30
0.0
 11
785.9082297101198
 21
107.7366562965253
 31
0.0
  0
TEXT
  5
5A
330
1E
100
AcDbEntity
  8
_1-E_寸法
 62
     7
100
AcDbText
 10
785.9082297101198
 20
83.05866026841442
 30
0.0
 40
5.0
  1
44
 50
90.0
100
AcDbText
  0
LINE
  5
5B
330
1E
100
AcDbEntity
  8
_1-E_寸法
  6
Continuous
 62
     4
100
AcDbLine
 10
789.9082297101198
 20
107.762824274647
 30
0.0
 11
674.6119561887455
 21
107.762824274647
 31
0.0
  0
TEXT
  5
5C
330
1E
100
AcDbEntity
  8
_1-F_表__文字
 62
     7
100
AcDbText
 10
23.05473841925463
 20
263.2324564313993
 30
0.0
 40
5.0
  1
　　屋根－屋根
100
AcDbText
  0
TEXT
  5
5D
330
1E
100
AcDbEntity
  8
_1-F_表__文字
 62
     7
100
AcDbText
 10
23.05473841925463
 20
253.2324564313993
 30
0.0
 40
5.0
  1
　　耐火帯付　Ｓ＝１／２
100
AcDbText
  0
LINE
  5
5E
330
1E
100
AcDbEntity
  8
_1-F_表__文字
  6
Continuous
 62
     7
100
AcDbLine
 10
3.508229710120246
 20
-284.237175725353
 30
0.0
 11
827.5082297101201
 21
-284.237175725353
 31
0.0
  0
LINE
  5
5F
330
1E
100
AcDbEntity
  8
_1-F_表__文字
  6
Continuous
 62
     7
100
AcDbLine
 10
827.5082297101201
 20
-284.237175725353
 30
0.0
 11
827.5082297101201
 21
291.7628242746467
 31
0.0
  0
LINE
  5
60
330
1E
100
AcDbEntity
  8
_1-F_表__文字
  6
Continuous
 62
     7
100
AcDbLine
 10
827.5082297101201
 20
291.7628242746467
 30
0.0
 11
3.508229710120246
 21
291.7628242746467
 31
0.0
  0
LINE
  5
61
330
1E
100
AcDbEntity
  8
_1-F_表__文字
  6
Continuous
 62
     7
100
AcDbLine
 10
3.508229710120246
 20
291.7628242746467
 30
0.0
 11
3.508229710120246
 21
-284.237175725353
 31
0.0
  0
TEXT
  5
62
330
1E
100
AcDbEntity
  8
_1-F_表__文字
 62
     7
100
AcDbText
 10
23.05473841925463
 20
273.2324564313996
 30
0.0
 40
5.0
  1
◇アルミ２００タイプ（２００ＦＹＹ－Ａ）
100
AcDbText
  0
LINE
  5
63
330
1E
100
AcDbEntity
  8
_1-F_表__文字
  6
Continuous
 62
     7
100
AcDbLine
 10
680.5082297101201
 20
-67.23717572535298
 30
0.0
 11
515.5082297101199
 21
-67.23717572535298
 31
0.0
  0
LINE
  5
64
330
1E
100
AcDbEntity
  8
_1-F_表__文字
  6
Continuous
 62
     7
100
AcDbLine
 10
680.5082297101201
 20
-175.2371757253529
 30
0.0
 11
515.5082297101199
 21
-175.2371757253529
 31
0.0
  0
LINE
  5
65
330
1E
100
AcDbEntity
  8
_1-F_表__文字
  6
Continuous
 62
     7
100
AcDbLine
 10
680.5082297101201
 20
-163.2371757253529
 30
0.0
 11
515.5082297101199
 21
-163.2371757253529
 31
0.0
  0
LINE
  5
66
330
1E
100
AcDbEntity
  8
_1-F_表__文字
  6
Continuous
 62
     7
100
AcDbLine
 10
680.5082297101201
 20
-151.2371757253529
 30
0.0
 11
515.5082297101199
 21
-151.2371757253529
 31
0.0
  0
LINE
  5
67
330
1E
100
AcDbEntity
  8
_1-F_表__文字
  6
Continuous
 62
     7
100
AcDbLine
 10
680.5082297101201
 20
-139.2371757253529
 30
0.0
 11
515.5082297101199
 21
-139.2371757253529
 31
0.0
  0
LINE
  5
68
330
1E
100
AcDbEntity
  8
_1-F_表__文字
  6
Continuous
 62
     7
100
AcDbLine
 10
680.5082297101201
 20
-127.2371757253529
 30
0.0
 11
515.5082297101199
 21
-127.2371757253529
 31
0.0
  0
LINE
  5
69
330
1E
100
AcDbEntity
  8
_1-F_表__文字
  6
Continuous
 62
     7
100
AcDbLine
 10
680.5082297101201
 20
-115.2371757253529
 30
0.0
 11
515.5082297101199
 21
-115.2371757253529
 31
0.0
  0
LINE
  5
6A
330
1E
100
AcDbEntity
  8
_1-F_表__文字
  6
Continuous
 62
     7
100
AcDbLine
 10
680.5082297101201
 20
-103.2371757253529
 30
0.0
 11
515.5082297101199
 21
-103.2371757253529
 31
0.0
  0
LINE
  5
6B
330
1E
100
AcDbEntity
  8
_1-F_表__文字
  6
Continuous
 62
     7
100
AcDbLine
 10
680.5082297101201
 20
-91.23717572535298
 30
0.0
 11
515.5082297101199
 21
-91.23717572535298
 31
0.0
  0
LINE
  5
6C
330
1E
100
AcDbEntity
  8
_1-F_表__文字
  6
Continuous
 62
     7
100
AcDbLine
 10
680.5082297101201
 20
-79.23717572535299
 30
0.0
 11
515.5082297101199
 21
-79.23717572535299
 31
0.0
  0
TEXT
  5
6D
330
1E
100
AcDbEntity
  8
_1-F_表__文字
 62
     7
100
AcDbText
 10
602.5082297101201
 20
-76.23717572535298
 30
0.0
 40
5.0
  1
Ｗ
100
AcDbText
  0
TEXT
  5
6E
330
1E
100
AcDbEntity
  8
_1-F_表__文字
 62
     7
100
AcDbText
 10
538.5082292101202
 20
-76.23717572535298
 30
0.0
 40
5.0
  1
タ　イ　プ
100
AcDbText
  0
TEXT
  5
6F
330
1E
100
AcDbEntity
  8
_1-F_表__文字
 62
     7
100
AcDbText
 10
660.5082297101201
 20
-172.2371757253529
 30
0.0
 40
5.0
  1
275
100
AcDbText
  0
TEXT
  5
70
330
1E
100
AcDbEntity
  8
_1-F_表__文字
 62
     7
100
AcDbText
 10
660.5082297101201
 20
-160.2371757253529
 30
0.0
 40
5.0
  1
250
100
AcDbText
  0
TEXT
  5
71
330
1E
100
AcDbEntity
  8
_1-F_表__文字
 62
     7
100
AcDbText
 10
660.5082297101201
 20
-148.2371757253529
 30
0.0
 40
5.0
  1
225
100
AcDbText
  0
TEXT
  5
72
330
1E
100
AcDbEntity
  8
_1-F_表__文字
 62
     7
100
AcDbText
 10
660.5082297101201
 20
-136.2371757253529
 30
0.0
 40
5.0
  1
200
100
AcDbText
  0
TEXT
  5
73
330
1E
100
AcDbEntity
  8
_1-F_表__文字
 62
     7
100
AcDbText
 10
660.5082297101201
 20
-124.2371757253529
 30
0.0
 40
5.0
  1
175
100
AcDbText
  0
TEXT
  5
74
330
1E
100
AcDbEntity
  8
_1-F_表__文字
 62
     7
100
AcDbText
 10
660.5082297101201
 20
-112.2371757253529
 30
0.0
 40
5.0
  1
150
100
AcDbText
  0
TEXT
  5
75
330
1E
100
AcDbEntity
  8
_1-F_表__文字
 62
     7
100
AcDbText
 10
660.5082297101201
 20
-100.2371757253529
 30
0.0
 40
5.0
  1
125
100
AcDbText
  0
TEXT
  5
76
330
1E
100
AcDbEntity
  8
_1-F_表__文字
 62
     7
100
AcDbText
 10
660.5082297101201
 20
-88.23717572535299
 30
0.0
 40
5.0
  1
100
100
AcDbText
  0
TEXT
  5
77
330
1E
100
AcDbEntity
  8
_1-F_表__文字
 62
     7
100
AcDbText
 10
662.5082297101201
 20
-76.23717572535298
 30
0.0
 40
5.0
  1
Ｃ
100
AcDbText
  0
TEXT
  5
78
330
1E
100
AcDbEntity
  8
_1-F_表__文字
 62
     7
100
AcDbText
 10
632.50822971012
 20
-76.23717572535298
 30
0.0
 40
5.0
  1
Ｂ
100
AcDbText
  0
TEXT
  5
79
330
1E
100
AcDbEntity
  8
_1-F_表__文字
 62
     7
100
AcDbText
 10
632.2582297101202
 20
-88.23717572535299
 30
0.0
 40
5.0
  1
40
100
AcDbText
  0
TEXT
  5
7A
330
1E
100
AcDbEntity
  8
_1-F_表__文字
 62
     7
100
AcDbText
 10
632.2582297101202
 20
-100.2371757253529
 30
0.0
 40
5.0
  1
50
100
AcDbText
  0
TEXT
  5
7B
330
1E
100
AcDbEntity
  8
_1-F_表__文字
 62
     7
100
AcDbText
 10
632.50822971012
 20
-112.2371757253529
 30
0.0
 40
5.0
  1
〃
100
AcDbText
  0
TEXT
  5
7C
330
1E
100
AcDbEntity
  8
_1-F_表__文字
 62
     7
100
AcDbText
 10
632.50822971012
 20
-124.2371757253529
 30
0.0
 40
5.0
  1
〃
100
AcDbText
  0
TEXT
  5
7D
330
1E
100
AcDbEntity
  8
_1-F_表__文字
 62
     7
100
AcDbText
 10
632.50822971012
 20
-136.2371757253529
 30
0.0
 40
5.0
  1
〃
100
AcDbText
  0
TEXT
  5
7E
330
1E
100
AcDbEntity
  8
_1-F_表__文字
 62
     7
100
AcDbText
 10
632.50822971012
 20
-148.2371757253529
 30
0.0
 40
5.0
  1
〃
100
AcDbText
  0
TEXT
  5
7F
330
1E
100
AcDbEntity
  8
_1-F_表__文字
 62
     7
100
AcDbText
 10
632.50822971012
 20
-160.2371757253529
 30
0.0
 40
5.0
  1
〃
100
AcDbText
  0
TEXT
  5
80
330
1E
100
AcDbEntity
  8
_1-F_表__文字
 62
     7
100
AcDbText
 10
632.50822971012
 20
-172.2371757253529
 30
0.0
 40
5.0
  1
〃
100
AcDbText
  0
TEXT
  5
81
330
1E
100
AcDbEntity
  8
_1-F_表__文字
 62
     7
100
AcDbText
 10
525.2582297101201
 20
-88.23717572535299
 30
0.0
 40
5.0
  1
200ＦＹＹ－Ａ550
100
AcDbText
  0
TEXT
  5
82
330
1E
100
AcDbEntity
  8
_1-F_表__文字
 62
     7
100
AcDbText
 10
600.5082297101201
 20
-88.23717572535299
 30
0.0
 40
5.0
  1
550
100
AcDbText
  0
TEXT
  5
83
330
1E
100
AcDbEntity
  8
_1-F_表__文字
 62
     7
100
AcDbText
 10
600.5082297101201
 20
-172.2371757253529
 30
0.0
 40
5.0
  1
900
100
AcDbText
  0
TEXT
  5
84
330
1E
100
AcDbEntity
  8
_1-F_表__文字
 62
     7
100
AcDbText
 10
600.5082297101201
 20
-160.2371757253529
 30
0.0
 40
5.0
  1
850
100
AcDbText
  0
TEXT
  5
85
330
1E
100
AcDbEntity
  8
_1-F_表__文字
 62
     7
100
AcDbText
 10
600.5082297101201
 20
-148.2371757253529
 30
0.0
 40
5.0
  1
800
100
AcDbText
  0
TEXT
  5
86
330
1E
100
AcDbEntity
  8
_1-F_表__文字
 62
     7
100
AcDbText
 10
600.5082297101201
 20
-136.2371757253529
 30
0.0
 40
5.0
  1
750
100
AcDbText
  0
TEXT
  5
87
330
1E
100
AcDbEntity
  8
_1-F_表__文字
 62
     7
100
AcDbText
 10
600.5082297101201
 20
-124.2371757253529
 30
0.0
 40
5.0
  1
700
100
AcDbText
  0
TEXT
  5
88
330
1E
100
AcDbEntity
  8
_1-F_表__文字
 62
     7
100
AcDbText
 10
600.5082297101201
 20
-112.2371757253529
 30
0.0
 40
5.0
  1
650
100
AcDbText
  0
TEXT
  5
89
330
1E
100
AcDbEntity
  8
_1-F_表__文字
 62
     7
100
AcDbText
 10
600.5082297101201
 20
-100.2371757253529
 30
0.0
 40
5.0
  1
600
100
AcDbText
  0
TEXT
  5
8A
330
1E
100
AcDbEntity
  8
_1-F_表__文字
 62
     7
100
AcDbText
 10
525.2582297101201
 20
-100.2371757253529
 30
0.0
 40
5.0
  1
 　　〃　　　600
100
AcDbText
  0
TEXT
  5
8B
330
1E
100
AcDbEntity
  8
_1-F_表__文字
 62
     7
100
AcDbText
 10
525.2582297101201
 20
-112.2371757253529
 30
0.0
 40
5.0
  1
 　　〃　　　650
100
AcDbText
  0
TEXT
  5
8C
330
1E
100
AcDbEntity
  8
_1-F_表__文字
 62
     7
100
AcDbText
 10
525.2582297101201
 20
-124.2371757253529
 30
0.0
 40
5.0
  1
 　　〃　　　700
100
AcDbText
  0
TEXT
  5
8D
330
1E
100
AcDbEntity
  8
_1-F_表__文字
 62
     7
100
AcDbText
 10
525.2582297101201
 20
-136.2371757253529
 30
0.0
 40
5.0
  1
 　　〃　　　750
100
AcDbText
  0
TEXT
  5
8E
330
1E
100
AcDbEntity
  8
_1-F_表__文字
 62
     7
100
AcDbText
 10
525.2582297101201
 20
-148.2371757253529
 30
0.0
 40
5.0
  1
 　　〃　　　800
100
AcDbText
  0
TEXT
  5
8F
330
1E
100
AcDbEntity
  8
_1-F_表__文字
 62
     7
100
AcDbText
 10
525.2582297101201
 20
-160.2371757253529
 30
0.0
 40
5.0
  1
 　　〃　　　850
100
AcDbText
  0
TEXT
  5
90
330
1E
100
AcDbEntity
  8
_1-F_表__文字
 62
     7
100
AcDbText
 10
525.2582297101201
 20
-172.2371757253529
 30
0.0
 40
5.0
  1
 　　〃　　　900
100
AcDbText
  0
LINE
  5
91
330
1E
100
AcDbEntity
  8
_1-F_表__文字
  6
Continuous
 62
     7
100
AcDbLine
 10
515.5082297101199
 20
-67.23717572535298
 30
0.0
 11
515.5082297101199
 21
-175.2371757253529
 31
0.0
  0
LINE
  5
92
330
1E
100
AcDbEntity
  8
_1-F_表__文字
  6
Continuous
 62
     7
100
AcDbLine
 10
680.5082297101201
 20
-67.23717572535298
 30
0.0
 11
680.5082297101201
 21
-175.2371757253529
 31
0.0
  0
LINE
  5
93
330
1E
100
AcDbEntity
  8
_1-F_表__文字
  6
Continuous
 62
     7
100
AcDbLine
 10
620.50822971012
 20
-67.23717572535298
 30
0.0
 11
620.50822971012
 21
-175.2371757253529
 31
0.0
  0
LINE
  5
94
330
1E
100
AcDbEntity
  8
_1-F_表__文字
  6
Continuous
 62
     7
100
AcDbLine
 10
590.50822971012
 20
-67.23717572535298
 30
0.0
 11
590.50822971012
 21
-175.2371757253529
 31
0.0
  0
LINE
  5
95
330
1E
100
AcDbEntity
  8
_1-F_表__文字
  6
Continuous
 62
     7
100
AcDbLine
 10
650.5082297101201
 20
-67.23717572535298
 30
0.0
 11
650.5082297101201
 21
-175.2371757253529
 31
0.0
  0
ARC
  5
96
330
1E
100
AcDbEntity
  8
_1-1_耐火帯
  6
Continuous
 62
     7
100
AcDbCircle
 10
491.90822971012
 20
76.76282427464702
 30
0.0
 40
4.0
100
AcDbArc
 50
0.0
 51
119.1310602236898
  0
ARC
  5
97
330
1E
100
AcDbEntity
  8
_1-1_耐火帯
  6
Continuous
 62
     7
100
AcDbCircle
 10
491.90822971012
 20
72.26282427464702
 30
0.0
 40
4.0
100
AcDbArc
 50
270.0
 51
0.0
  0
LINE
  5
98
330
1E
100
AcDbEntity
  8
_1-1_耐火帯
  6
DASHED1
 62
     4
100
AcDbLine
 10
523.10822971012
 20
109.3628242746468
 30
0.0
 11
523.10822971012
 21
109.062824274647
 31
0.0
  0
LINE
  5
99
330
1E
100
AcDbEntity
  8
_1-1_耐火帯
  6
DASHED1
 62
     4
100
AcDbLine
 10
523.10822971012
 20
109.3628242746468
 30
0.0
 11
528.7082297101197
 21
109.3628242746468
 31
0.0
  0
LINE
  5
9A
330
1E
100
AcDbEntity
  8
_1-1_耐火帯
  6
DASHED1
 62
     4
100
AcDbLine
 10
523.10822971012
 20
109.062824274647
 30
0.0
 11
528.7082297101197
 21
109.062824274647
 31
0.0
  0
LINE
  5
9B
330
1E
100
AcDbEntity
  8
_1-1_耐火帯
  6
DASHED1
 62
     4
100
AcDbLine
 10
524.7082297101202
 20
89.18884927464683
 30
0.0
 11
524.7082297101202
 21
88.41282427464681
 31
0.0
  0
LINE
  5
9C
330
1E
100
AcDbEntity
  8
_1-1_耐火帯
  6
DASHED1
 62
     4
100
AcDbLine
 10
527.10822971012
 20
89.11837927464683
 30
0.0
 11
527.10822971012
 21
89.89440427464705
 31
0.0
  0
LINE
  5
9D
330
1E
100
AcDbEntity
  8
_1-1_耐火帯
  6
DASHED1
 62
     4
100
AcDbLine
 10
524.7082297101202
 20
87.77773927464705
 30
0.0
 11
527.10822971012
 21
88.48329427464705
 31
0.0
  0
LINE
  5
9E
330
1E
100
AcDbEntity
  8
_1-1_耐火帯
  6
DASHED1
 62
     4
100
AcDbLine
 10
524.7082297101202
 20
88.41282427464681
 30
0.0
 11
527.10822971012
 21
89.11837927464683
 31
0.0
  0
LINE
  5
9F
330
1E
100
AcDbEntity
  8
_1-1_耐火帯
  6
DASHED1
 62
     4
100
AcDbLine
 10
524.1582297101198
 20
88.09528427464682
 30
0.0
 11
527.6582297101198
 21
88.80083927464704
 31
0.0
  0
LINE
  5
A0
330
1E
100
AcDbEntity
  8
_1-1_耐火帯
  6
DASHED1
 62
     4
100
AcDbLine
 10
524.1582297101198
 20
88.09528427464682
 30
0.0
 11
524.7082297101202
 21
87.77773927464705
 31
0.0
  0
LINE
  5
A1
330
1E
100
AcDbEntity
  8
_1-1_耐火帯
  6
DASHED1
 62
     4
100
AcDbLine
 10
524.1582297101198
 20
88.09528427464682
 30
0.0
 11
524.7082297101202
 21
88.41282427464681
 31
0.0
  0
LINE
  5
A2
330
1E
100
AcDbEntity
  8
_1-1_耐火帯
  6
DASHED1
 62
     4
100
AcDbLine
 10
527.6582297101198
 20
88.80083927464704
 30
0.0
 11
527.10822971012
 21
88.48329427464705
 31
0.0
  0
LINE
  5
A3
330
1E
100
AcDbEntity
  8
_1-1_耐火帯
  6
DASHED1
 62
     4
100
AcDbLine
 10
527.10822971012
 20
89.11837927464683
 30
0.0
 11
527.6582297101198
 21
88.80083927464704
 31
0.0
  0
LINE
  5
A4
330
1E
100
AcDbEntity
  8
_1-1_耐火帯
  6
DASHED1
 62
     4
100
AcDbLine
 10
524.7082297101202
 20
90.59996427464705
 30
0.0
 11
524.7082297101202
 21
89.82393427464705
 31
0.0
  0
LINE
  5
A5
330
1E
100
AcDbEntity
  8
_1-1_耐火帯
  6
DASHED1
 62
     4
100
AcDbLine
 10
527.10822971012
 20
90.52948927464706
 30
0.0
 11
527.10822971012
 21
91.30551927464706
 31
0.0
  0
LINE
  5
A6
330
1E
100
AcDbEntity
  8
_1-1_耐火帯
  6
DASHED1
 62
     4
100
AcDbLine
 10
524.7082297101202
 20
89.18884927464683
 30
0.0
 11
527.10822971012
 21
89.89440427464705
 31
0.0
  0
LINE
  5
A7
330
1E
100
AcDbEntity
  8
_1-1_耐火帯
  6
DASHED1
 62
     4
100
AcDbLine
 10
524.7082297101202
 20
89.82393427464705
 30
0.0
 11
527.10822971012
 21
90.52948927464706
 31
0.0
  0
LINE
  5
A8
330
1E
100
AcDbEntity
  8
_1-1_耐火帯
  6
DASHED1
 62
     4
100
AcDbLine
 10
524.1582297101198
 20
89.50639427464706
 30
0.0
 11
527.6582297101198
 21
90.21194927464682
 31
0.0
  0
LINE
  5
A9
330
1E
100
AcDbEntity
  8
_1-1_耐火帯
  6
DASHED1
 62
     4
100
AcDbLine
 10
524.1582297101198
 20
89.50639427464706
 30
0.0
 11
524.7082297101202
 21
89.18884927464683
 31
0.0
  0
LINE
  5
AA
330
1E
100
AcDbEntity
  8
_1-1_耐火帯
  6
DASHED1
 62
     4
100
AcDbLine
 10
524.1582297101198
 20
89.50639427464706
 30
0.0
 11
524.7082297101202
 21
89.82393427464705
 31
0.0
  0
LINE
  5
AB
330
1E
100
AcDbEntity
  8
_1-1_耐火帯
  6
DASHED1
 62
     4
100
AcDbLine
 10
527.6582297101198
 20
90.21194927464682
 30
0.0
 11
527.10822971012
 21
89.89440427464705
 31
0.0
  0
LINE
  5
AC
330
1E
100
AcDbEntity
  8
_1-1_耐火帯
  6
DASHED1
 62
     4
100
AcDbLine
 10
527.10822971012
 20
90.52948927464706
 30
0.0
 11
527.6582297101198
 21
90.21194927464682
 31
0.0
  0
LINE
  5
AD
330
1E
100
AcDbEntity
  8
_1-1_耐火帯
  6
DASHED1
 62
     4
100
AcDbLine
 10
524.7082297101202
 20
92.01107427464682
 30
0.0
 11
524.7082297101202
 21
91.23504927464706
 31
0.0
  0
LINE
  5
AE
330
1E
100
AcDbEntity
  8
_1-1_耐火帯
  6
DASHED1
 62
     4
100
AcDbLine
 10
527.10822971012
 20
91.94060427464705
 30
0.0
 11
527.10822971012
 21
92.71662927464706
 31
0.0
  0
LINE
  5
AF
330
1E
100
AcDbEntity
  8
_1-1_耐火帯
  6
DASHED1
 62
     4
100
AcDbLine
 10
524.7082297101202
 20
90.59996427464705
 30
0.0
 11
527.10822971012
 21
91.30551927464706
 31
0.0
  0
LINE
  5
B0
330
1E
100
AcDbEntity
  8
_1-1_耐火帯
  6
DASHED1
 62
     4
100
AcDbLine
 10
524.7082297101202
 20
91.23504927464706
 30
0.0
 11
527.10822971012
 21
91.94060427464705
 31
0.0
  0
LINE
  5
B1
330
1E
100
AcDbEntity
  8
_1-1_耐火帯
  6
DASHED1
 62
     4
100
AcDbLine
 10
524.1582297101198
 20
90.91750427464706
 30
0.0
 11
527.6582297101198
 21
91.62305927464705
 31
0.0
  0
LINE
  5
B2
330
1E
100
AcDbEntity
  8
_1-1_耐火帯
  6
DASHED1
 62
     4
100
AcDbLine
 10
524.1582297101198
 20
90.91750427464706
 30
0.0
 11
524.7082297101202
 21
90.59996427464705
 31
0.0
  0
LINE
  5
B3
330
1E
100
AcDbEntity
  8
_1-1_耐火帯
  6
DASHED1
 62
     4
100
AcDbLine
 10
524.1582297101198
 20
90.91750427464706
 30
0.0
 11
524.7082297101202
 21
91.23504927464706
 31
0.0
  0
LINE
  5
B4
330
1E
100
AcDbEntity
  8
_1-1_耐火帯
  6
DASHED1
 62
     4
100
AcDbLine
 10
527.6582297101198
 20
91.62305927464705
 30
0.0
 11
527.10822971012
 21
91.30551927464706
 31
0.0
  0
LINE
  5
B5
330
1E
100
AcDbEntity
  8
_1-1_耐火帯
  6
DASHED1
 62
     4
100
AcDbLine
 10
527.10822971012
 20
91.94060427464705
 30
0.0
 11
527.6582297101198
 21
91.62305927464705
 31
0.0
  0
LINE
  5
B6
330
1E
100
AcDbEntity
  8
_1-1_耐火帯
  6
DASHED1
 62
     4
100
AcDbLine
 10
524.7082297101202
 20
93.422184274647
 30
0.0
 11
524.7082297101202
 21
92.64615927464706
 31
0.0
  0
LINE
  5
B7
330
1E
100
AcDbEntity
  8
_1-1_耐火帯
  6
DASHED1
 62
     4
100
AcDbLine
 10
527.10822971012
 20
93.351714274647
 30
0.0
 11
527.10822971012
 21
94.12773927464701
 31
0.0
  0
LINE
  5
B8
330
1E
100
AcDbEntity
  8
_1-1_耐火帯
  6
DASHED1
 62
     4
100
AcDbLine
 10
524.7082297101202
 20
92.01107427464682
 30
0.0
 11
527.10822971012
 21
92.71662927464706
 31
0.0
  0
LINE
  5
B9
330
1E
100
AcDbEntity
  8
_1-1_耐火帯
  6
DASHED1
 62
     4
100
AcDbLine
 10
524.7082297101202
 20
92.64615927464706
 30
0.0
 11
527.10822971012
 21
93.351714274647
 31
0.0
  0
LINE
  5
BA
330
1E
100
AcDbEntity
  8
_1-1_耐火帯
  6
DASHED1
 62
     4
100
AcDbLine
 10
524.1582297101198
 20
92.32861427464701
 30
0.0
 11
527.6582297101198
 21
93.034169274647
 31
0.0
  0
LINE
  5
BB
330
1E
100
AcDbEntity
  8
_1-1_耐火帯
  6
DASHED1
 62
     4
100
AcDbLine
 10
524.1582297101198
 20
92.32861427464701
 30
0.0
 11
524.7082297101202
 21
92.01107427464682
 31
0.0
  0
LINE
  5
BC
330
1E
100
AcDbEntity
  8
_1-1_耐火帯
  6
DASHED1
 62
     4
100
AcDbLine
 10
524.1582297101198
 20
92.32861427464701
 30
0.0
 11
524.7082297101202
 21
92.64615927464706
 31
0.0
  0
LINE
  5
BD
330
1E
100
AcDbEntity
  8
_1-1_耐火帯
  6
DASHED1
 62
     4
100
AcDbLine
 10
527.6582297101198
 20
93.034169274647
 30
0.0
 11
527.10822971012
 21
92.71662927464706
 31
0.0
  0
LINE
  5
BE
330
1E
100
AcDbEntity
  8
_1-1_耐火帯
  6
DASHED1
 62
     4
100
AcDbLine
 10
527.10822971012
 20
93.351714274647
 30
0.0
 11
527.6582297101198
 21
93.034169274647
 31
0.0
  0
LINE
  5
BF
330
1E
100
AcDbEntity
  8
_1-1_耐火帯
  6
DASHED1
 62
     4
100
AcDbLine
 10
524.7082297101202
 20
94.83329427464701
 30
0.0
 11
524.7082297101202
 21
94.05726927464701
 31
0.0
  0
LINE
  5
C0
330
1E
100
AcDbEntity
  8
_1-1_耐火帯
  6
DASHED1
 62
     4
100
AcDbLine
 10
527.10822971012
 20
94.76282427464701
 30
0.0
 11
527.10822971012
 21
95.53884927464702
 31
0.0
  0
LINE
  5
C1
330
1E
100
AcDbEntity
  8
_1-1_耐火帯
  6
DASHED1
 62
     4
100
AcDbLine
 10
524.7082297101202
 20
93.422184274647
 30
0.0
 11
527.10822971012
 21
94.12773927464701
 31
0.0
  0
LINE
  5
C2
330
1E
100
AcDbEntity
  8
_1-1_耐火帯
  6
DASHED1
 62
     4
100
AcDbLine
 10
524.7082297101202
 20
94.05726927464701
 30
0.0
 11
527.10822971012
 21
94.76282427464701
 31
0.0
  0
LINE
  5
C3
330
1E
100
AcDbEntity
  8
_1-1_耐火帯
  6
DASHED1
 62
     4
100
AcDbLine
 10
524.1582297101198
 20
93.73972427464702
 30
0.0
 11
527.6582297101198
 21
94.44528427464701
 31
0.0
  0
LINE
  5
C4
330
1E
100
AcDbEntity
  8
_1-1_耐火帯
  6
DASHED1
 62
     4
100
AcDbLine
 10
524.1582297101198
 20
93.73972427464702
 30
0.0
 11
524.7082297101202
 21
93.422184274647
 31
0.0
  0
LINE
  5
C5
330
1E
100
AcDbEntity
  8
_1-1_耐火帯
  6
DASHED1
 62
     4
100
AcDbLine
 10
524.1582297101198
 20
93.73972427464702
 30
0.0
 11
524.7082297101202
 21
94.05726927464701
 31
0.0
  0
LINE
  5
C6
330
1E
100
AcDbEntity
  8
_1-1_耐火帯
  6
DASHED1
 62
     4
100
AcDbLine
 10
527.10822971012
 20
94.12773927464701
 30
0.0
 11
527.6582297101198
 21
94.44528427464701
 31
0.0
  0
LINE
  5
C7
330
1E
100
AcDbEntity
  8
_1-1_耐火帯
  6
DASHED1
 62
     4
100
AcDbLine
 10
527.10822971012
 20
94.76282427464701
 30
0.0
 11
527.6582297101198
 21
94.44528427464701
 31
0.0
  0
LINE
  5
C8
330
1E
100
AcDbEntity
  8
_1-1_耐火帯
  6
DASHED1
 62
     4
100
AcDbLine
 10
524.7082297101202
 20
96.2444042746468
 30
0.0
 11
524.7082297101202
 21
95.46837927464702
 31
0.0
  0
LINE
  5
C9
330
1E
100
AcDbEntity
  8
_1-1_耐火帯
  6
DASHED1
 62
     4
100
AcDbLine
 10
527.10822971012
 20
96.1739342746468
 30
0.0
 11
527.10822971012
 21
96.9499642746468
 31
0.0
  0
LINE
  5
CA
330
1E
100
AcDbEntity
  8
_1-1_耐火帯
  6
DASHED1
 62
     4
100
AcDbLine
 10
524.7082297101202
 20
94.83329427464701
 30
0.0
 11
527.10822971012
 21
95.53884927464702
 31
0.0
  0
LINE
  5
CB
330
1E
100
AcDbEntity
  8
_1-1_耐火帯
  6
DASHED1
 62
     4
100
AcDbLine
 10
524.7082297101202
 20
95.46837927464702
 30
0.0
 11
527.10822971012
 21
96.1739342746468
 31
0.0
  0
LINE
  5
CC
330
1E
100
AcDbEntity
  8
_1-1_耐火帯
  6
DASHED1
 62
     4
100
AcDbLine
 10
524.1582297101198
 20
95.15083927464678
 30
0.0
 11
527.6582297101198
 21
95.85639427464679
 31
0.0
  0
LINE
  5
CD
330
1E
100
AcDbEntity
  8
_1-1_耐火帯
  6
DASHED1
 62
     4
100
AcDbLine
 10
524.1582297101198
 20
95.15083927464678
 30
0.0
 11
524.7082297101202
 21
94.83329427464701
 31
0.0
  0
LINE
  5
CE
330
1E
100
AcDbEntity
  8
_1-1_耐火帯
  6
DASHED1
 62
     4
100
AcDbLine
 10
524.1582297101198
 20
95.15083927464678
 30
0.0
 11
524.7082297101202
 21
95.46837927464702
 31
0.0
  0
LINE
  5
CF
330
1E
100
AcDbEntity
  8
_1-1_耐火帯
  6
DASHED1
 62
     4
100
AcDbLine
 10
527.6582297101198
 20
95.85639427464679
 30
0.0
 11
527.10822971012
 21
95.53884927464702
 31
0.0
  0
LINE
  5
D0
330
1E
100
AcDbEntity
  8
_1-1_耐火帯
  6
DASHED1
 62
     4
100
AcDbLine
 10
527.10822971012
 20
96.1739342746468
 30
0.0
 11
527.6582297101198
 21
95.85639427464679
 31
0.0
  0
LINE
  5
D1
330
1E
100
AcDbEntity
  8
_1-1_耐火帯
  6
DASHED1
 62
     4
100
AcDbLine
 10
524.7082297101202
 20
97.65551927464702
 30
0.0
 11
524.7082297101202
 21
96.87948927464681
 31
0.0
  0
LINE
  5
D2
330
1E
100
AcDbEntity
  8
_1-1_耐火帯
  6
DASHED1
 62
     4
100
AcDbLine
 10
527.10822971012
 20
97.58504927464702
 30
0.0
 11
527.10822971012
 21
98.36107427464703
 31
0.0
  0
LINE
  5
D3
330
1E
100
AcDbEntity
  8
_1-1_耐火帯
  6
DASHED1
 62
     4
100
AcDbLine
 10
524.7082297101202
 20
96.2444042746468
 30
0.0
 11
527.10822971012
 21
96.9499642746468
 31
0.0
  0
LINE
  5
D4
330
1E
100
AcDbEntity
  8
_1-1_耐火帯
  6
DASHED1
 62
     4
100
AcDbLine
 10
524.7082297101202
 20
96.87948927464681
 30
0.0
 11
527.10822971012
 21
97.58504927464702
 31
0.0
  0
LINE
  5
D5
330
1E
100
AcDbEntity
  8
_1-1_耐火帯
  6
DASHED1
 62
     4
100
AcDbLine
 10
524.1582297101198
 20
96.56194927464703
 30
0.0
 11
527.6582297101198
 21
97.26750427464702
 31
0.0
  0
LINE
  5
D6
330
1E
100
AcDbEntity
  8
_1-1_耐火帯
  6
DASHED1
 62
     4
100
AcDbLine
 10
524.1582297101198
 20
96.56194927464703
 30
0.0
 11
524.7082297101202
 21
96.2444042746468
 31
0.0
  0
LINE
  5
D7
330
1E
100
AcDbEntity
  8
_1-1_耐火帯
  6
DASHED1
 62
     4
100
AcDbLine
 10
524.1582297101198
 20
96.56194927464703
 30
0.0
 11
524.7082297101202
 21
96.87948927464681
 31
0.0
  0
LINE
  5
D8
330
1E
100
AcDbEntity
  8
_1-1_耐火帯
  6
DASHED1
 62
     4
100
AcDbLine
 10
527.6582297101198
 20
97.26750427464702
 30
0.0
 11
527.10822971012
 21
96.9499642746468
 31
0.0
  0
LINE
  5
D9
330
1E
100
AcDbEntity
  8
_1-1_耐火帯
  6
DASHED1
 62
     4
100
AcDbLine
 10
527.10822971012
 20
97.58504927464702
 30
0.0
 11
527.6582297101198
 21
97.26750427464702
 31
0.0
  0
LINE
  5
DA
330
1E
100
AcDbEntity
  8
_1-1_耐火帯
  6
DASHED1
 62
     4
100
AcDbLine
 10
524.7082297101202
 20
99.06662927464703
 30
0.0
 11
524.7082297101202
 21
98.29060427464703
 31
0.0
  0
LINE
  5
DB
330
1E
100
AcDbEntity
  8
_1-1_耐火帯
  6
DASHED1
 62
     4
100
AcDbLine
 10
527.10822971012
 20
98.99615927464679
 30
0.0
 11
527.10822971012
 21
99.77218427464681
 31
0.0
  0
LINE
  5
DC
330
1E
100
AcDbEntity
  8
_1-1_耐火帯
  6
DASHED1
 62
     4
100
AcDbLine
 10
524.7082297101202
 20
97.65551927464702
 30
0.0
 11
527.10822971012
 21
98.36107427464703
 31
0.0
  0
LINE
  5
DD
330
1E
100
AcDbEntity
  8
_1-1_耐火帯
  6
DASHED1
 62
     4
100
AcDbLine
 10
524.7082297101202
 20
98.29060427464703
 30
0.0
 11
527.10822971012
 21
98.99615927464679
 31
0.0
  0
LINE
  5
DE
330
1E
100
AcDbEntity
  8
_1-1_耐火帯
  6
DASHED1
 62
     4
100
AcDbLine
 10
524.1582297101198
 20
97.9730592746468
 30
0.0
 11
527.6582297101198
 21
98.67861427464681
 31
0.0
  0
LINE
  5
DF
330
1E
100
AcDbEntity
  8
_1-1_耐火帯
  6
DASHED1
 62
     4
100
AcDbLine
 10
524.1582297101198
 20
97.9730592746468
 30
0.0
 11
524.7082297101202
 21
97.65551927464702
 31
0.0
  0
LINE
  5
E0
330
1E
100
AcDbEntity
  8
_1-1_耐火帯
  6
DASHED1
 62
     4
100
AcDbLine
 10
524.1582297101198
 20
97.9730592746468
 30
0.0
 11
524.7082297101202
 21
98.29060427464703
 31
0.0
  0
LINE
  5
E1
330
1E
100
AcDbEntity
  8
_1-1_耐火帯
  6
DASHED1
 62
     4
100
AcDbLine
 10
527.6582297101198
 20
98.67861427464681
 30
0.0
 11
527.10822971012
 21
98.36107427464703
 31
0.0
  0
LINE
  5
E2
330
1E
100
AcDbEntity
  8
_1-1_耐火帯
  6
DASHED1
 62
     4
100
AcDbLine
 10
527.10822971012
 20
98.99615927464679
 30
0.0
 11
527.6582297101198
 21
98.67861427464681
 31
0.0
  0
LINE
  5
E3
330
1E
100
AcDbEntity
  8
_1-1_耐火帯
  6
DASHED1
 62
     4
100
AcDbLine
 10
524.7082297101202
 20
100.4777392746468
 30
0.0
 11
524.7082297101202
 21
99.70171427464681
 31
0.0
  0
LINE
  5
E4
330
1E
100
AcDbEntity
  8
_1-1_耐火帯
  6
DASHED1
 62
     4
100
AcDbLine
 10
527.10822971012
 20
100.4072692746468
 30
0.0
 11
527.10822971012
 21
101.1832942746468
 31
0.0
  0
LINE
  5
E5
330
1E
100
AcDbEntity
  8
_1-1_耐火帯
  6
DASHED1
 62
     4
100
AcDbLine
 10
524.7082297101202
 20
99.06662927464703
 30
0.0
 11
527.10822971012
 21
99.77218427464681
 31
0.0
  0
LINE
  5
E6
330
1E
100
AcDbEntity
  8
_1-1_耐火帯
  6
DASHED1
 62
     4
100
AcDbLine
 10
524.7082297101202
 20
99.70171427464681
 30
0.0
 11
527.10822971012
 21
100.4072692746468
 31
0.0
  0
LINE
  5
E7
330
1E
100
AcDbEntity
  8
_1-1_耐火帯
  6
DASHED1
 62
     4
100
AcDbLine
 10
524.1582297101198
 20
99.38416927464681
 30
0.0
 11
527.6582297101198
 21
100.0897242746468
 31
0.0
  0
LINE
  5
E8
330
1E
100
AcDbEntity
  8
_1-1_耐火帯
  6
DASHED1
 62
     4
100
AcDbLine
 10
524.1582297101198
 20
99.38416927464681
 30
0.0
 11
524.7082297101202
 21
99.06662927464703
 31
0.0
  0
LINE
  5
E9
330
1E
100
AcDbEntity
  8
_1-1_耐火帯
  6
DASHED1
 62
     4
100
AcDbLine
 10
524.1582297101198
 20
99.38416927464681
 30
0.0
 11
524.7082297101202
 21
99.70171427464681
 31
0.0
  0
LINE
  5
EA
330
1E
100
AcDbEntity
  8
_1-1_耐火帯
  6
DASHED1
 62
     4
100
AcDbLine
 10
527.6582297101198
 20
100.0897242746468
 30
0.0
 11
527.10822971012
 21
99.77218427464681
 31
0.0
  0
LINE
  5
EB
330
1E
100
AcDbEntity
  8
_1-1_耐火帯
  6
DASHED1
 62
     4
100
AcDbLine
 10
527.10822971012
 20
100.4072692746468
 30
0.0
 11
527.6582297101198
 21
100.0897242746468
 31
0.0
  0
LINE
  5
EC
330
1E
100
AcDbEntity
  8
_1-1_耐火帯
  6
DASHED1
 62
     4
100
AcDbLine
 10
524.7082297101202
 20
101.8888492746468
 30
0.0
 11
524.7082297101202
 21
101.1128242746468
 31
0.0
  0
LINE
  5
ED
330
1E
100
AcDbEntity
  8
_1-1_耐火帯
  6
DASHED1
 62
     4
100
AcDbLine
 10
527.10822971012
 20
101.8183792746468
 30
0.0
 11
527.10822971012
 21
102.594404274647
 31
0.0
  0
LINE
  5
EE
330
1E
100
AcDbEntity
  8
_1-1_耐火帯
  6
DASHED1
 62
     4
100
AcDbLine
 10
524.7082297101202
 20
100.4777392746468
 30
0.0
 11
527.10822971012
 21
101.1832942746468
 31
0.0
  0
LINE
  5
EF
330
1E
100
AcDbEntity
  8
_1-1_耐火帯
  6
DASHED1
 62
     4
100
AcDbLine
 10
524.7082297101202
 20
101.1128242746468
 30
0.0
 11
527.10822971012
 21
101.8183792746468
 31
0.0
  0
LINE
  5
F0
330
1E
100
AcDbEntity
  8
_1-1_耐火帯
  6
DASHED1
 62
     4
100
AcDbLine
 10
524.1582297101198
 20
100.7952842746468
 30
0.0
 11
527.6582297101198
 21
101.5008392746468
 31
0.0
  0
LINE
  5
F1
330
1E
100
AcDbEntity
  8
_1-1_耐火帯
  6
DASHED1
 62
     4
100
AcDbLine
 10
524.1582297101198
 20
100.7952842746468
 30
0.0
 11
524.7082297101202
 21
100.4777392746468
 31
0.0
  0
LINE
  5
F2
330
1E
100
AcDbEntity
  8
_1-1_耐火帯
  6
DASHED1
 62
     4
100
AcDbLine
 10
524.1582297101198
 20
100.7952842746468
 30
0.0
 11
524.7082297101202
 21
101.1128242746468
 31
0.0
  0
LINE
  5
F3
330
1E
100
AcDbEntity
  8
_1-1_耐火帯
  6
DASHED1
 62
     4
100
AcDbLine
 10
527.6582297101198
 20
101.5008392746468
 30
0.0
 11
527.10822971012
 21
101.1832942746468
 31
0.0
  0
LINE
  5
F4
330
1E
100
AcDbEntity
  8
_1-1_耐火帯
  6
DASHED1
 62
     4
100
AcDbLine
 10
527.10822971012
 20
101.8183792746468
 30
0.0
 11
527.6582297101198
 21
101.5008392746468
 31
0.0
  0
LINE
  5
F5
330
1E
100
AcDbEntity
  8
_1-1_耐火帯
  6
DASHED1
 62
     4
100
AcDbLine
 10
524.7082297101202
 20
103.299964274647
 30
0.0
 11
524.7082297101202
 21
102.5239342746468
 31
0.0
  0
LINE
  5
F6
330
1E
100
AcDbEntity
  8
_1-1_耐火帯
  6
DASHED1
 62
     4
100
AcDbLine
 10
527.10822971012
 20
103.2294892746468
 30
0.0
 11
527.10822971012
 21
104.005519274647
 31
0.0
  0
LINE
  5
F7
330
1E
100
AcDbEntity
  8
_1-1_耐火帯
  6
DASHED1
 62
     4
100
AcDbLine
 10
524.7082297101202
 20
101.8888492746468
 30
0.0
 11
527.10822971012
 21
102.594404274647
 31
0.0
  0
LINE
  5
F8
330
1E
100
AcDbEntity
  8
_1-1_耐火帯
  6
DASHED1
 62
     4
100
AcDbLine
 10
524.7082297101202
 20
102.5239342746468
 30
0.0
 11
527.10822971012
 21
103.2294892746468
 31
0.0
  0
LINE
  5
F9
330
1E
100
AcDbEntity
  8
_1-1_耐火帯
  6
DASHED1
 62
     4
100
AcDbLine
 10
524.1582297101198
 20
102.2063942746468
 30
0.0
 11
527.6582297101198
 21
102.9119492746468
 31
0.0
  0
LINE
  5
FA
330
1E
100
AcDbEntity
  8
_1-1_耐火帯
  6
DASHED1
 62
     4
100
AcDbLine
 10
524.1582297101198
 20
102.2063942746468
 30
0.0
 11
524.7082297101202
 21
101.8888492746468
 31
0.0
  0
LINE
  5
FB
330
1E
100
AcDbEntity
  8
_1-1_耐火帯
  6
DASHED1
 62
     4
100
AcDbLine
 10
524.1582297101198
 20
102.2063942746468
 30
0.0
 11
524.7082297101202
 21
102.5239342746468
 31
0.0
  0
LINE
  5
FC
330
1E
100
AcDbEntity
  8
_1-1_耐火帯
  6
DASHED1
 62
     4
100
AcDbLine
 10
527.6582297101198
 20
102.9119492746468
 30
0.0
 11
527.10822971012
 21
102.594404274647
 31
0.0
  0
LINE
  5
FD
330
1E
100
AcDbEntity
  8
_1-1_耐火帯
  6
DASHED1
 62
     4
100
AcDbLine
 10
527.10822971012
 20
103.2294892746468
 30
0.0
 11
527.6582297101198
 21
102.9119492746468
 31
0.0
  0
LINE
  5
FE
330
1E
100
AcDbEntity
  8
_1-1_耐火帯
  6
DASHED1
 62
     4
100
AcDbLine
 10
524.7082297101202
 20
104.7110742746468
 30
0.0
 11
524.7082297101202
 21
103.935049274647
 31
0.0
  0
LINE
  5
FF
330
1E
100
AcDbEntity
  8
_1-1_耐火帯
  6
DASHED1
 62
     4
100
AcDbLine
 10
527.10822971012
 20
104.6406042746468
 30
0.0
 11
527.10822971012
 21
105.4166292746468
 31
0.0
  0
LINE
  5
100
330
1E
100
AcDbEntity
  8
_1-1_耐火帯
  6
DASHED1
 62
     4
100
AcDbLine
 10
524.7082297101202
 20
103.299964274647
 30
0.0
 11
527.10822971012
 21
104.005519274647
 31
0.0
  0
LINE
  5
101
330
1E
100
AcDbEntity
  8
_1-1_耐火帯
  6
DASHED1
 62
     4
100
AcDbLine
 10
524.7082297101202
 20
103.935049274647
 30
0.0
 11
527.10822971012
 21
104.6406042746468
 31
0.0
  0
LINE
  5
102
330
1E
100
AcDbEntity
  8
_1-1_耐火帯
  6
DASHED1
 62
     4
100
AcDbLine
 10
524.1582297101198
 20
103.6175042746468
 30
0.0
 11
527.6582297101198
 21
104.3230592746468
 31
0.0
  0
LINE
  5
103
330
1E
100
AcDbEntity
  8
_1-1_耐火帯
  6
DASHED1
 62
     4
100
AcDbLine
 10
524.1582297101198
 20
103.6175042746468
 30
0.0
 11
524.7082297101202
 21
103.299964274647
 31
0.0
  0
LINE
  5
104
330
1E
100
AcDbEntity
  8
_1-1_耐火帯
  6
DASHED1
 62
     4
100
AcDbLine
 10
524.1582297101198
 20
103.6175042746468
 30
0.0
 11
524.7082297101202
 21
103.935049274647
 31
0.0
  0
LINE
  5
105
330
1E
100
AcDbEntity
  8
_1-1_耐火帯
  6
DASHED1
 62
     4
100
AcDbLine
 10
527.6582297101198
 20
104.3230592746468
 30
0.0
 11
527.10822971012
 21
104.005519274647
 31
0.0
  0
LINE
  5
106
330
1E
100
AcDbEntity
  8
_1-1_耐火帯
  6
DASHED1
 62
     4
100
AcDbLine
 10
527.10822971012
 20
104.6406042746468
 30
0.0
 11
527.6582297101198
 21
104.3230592746468
 31
0.0
  0
LINE
  5
107
330
1E
100
AcDbEntity
  8
_1-1_耐火帯
  6
DASHED1
 62
     4
100
AcDbLine
 10
524.7082297101202
 20
106.1221842746468
 30
0.0
 11
527.10822971012
 21
106.8277392746468
 31
0.0
  0
LINE
  5
108
330
1E
100
AcDbEntity
  8
_1-1_耐火帯
  6
DASHED1
 62
     4
100
AcDbLine
 10
524.7082297101202
 20
106.7572692746468
 30
0.0
 11
527.10822971012
 21
107.462824274647
 31
0.0
  0
LINE
  5
109
330
1E
100
AcDbEntity
  8
_1-1_耐火帯
  6
DASHED1
 62
     4
100
AcDbLine
 10
524.1582297101198
 20
106.439724274647
 30
0.0
 11
527.6582297101198
 21
107.1452842746468
 31
0.0
  0
LINE
  5
10A
330
1E
100
AcDbEntity
  8
_1-1_耐火帯
  6
DASHED1
 62
     4
100
AcDbLine
 10
524.1582297101198
 20
106.439724274647
 30
0.0
 11
524.7082297101202
 21
106.1221842746468
 31
0.0
  0
LINE
  5
10B
330
1E
100
AcDbEntity
  8
_1-1_耐火帯
  6
DASHED1
 62
     4
100
AcDbLine
 10
524.1582297101198
 20
106.439724274647
 30
0.0
 11
524.7082297101202
 21
106.7572692746468
 31
0.0
  0
LINE
  5
10C
330
1E
100
AcDbEntity
  8
_1-1_耐火帯
  6
DASHED1
 62
     4
100
AcDbLine
 10
527.6582297101198
 20
107.1452842746468
 30
0.0
 11
527.10822971012
 21
106.8277392746468
 31
0.0
  0
LINE
  5
10D
330
1E
100
AcDbEntity
  8
_1-1_耐火帯
  6
DASHED1
 62
     4
100
AcDbLine
 10
527.10822971012
 20
107.462824274647
 30
0.0
 11
527.6582297101198
 21
107.1452842746468
 31
0.0
  0
LINE
  5
10E
330
1E
100
AcDbEntity
  8
_1-1_耐火帯
  6
DASHED1
 62
     4
100
AcDbLine
 10
525.0591197101199
 20
84.91645427464703
 30
0.0
 11
526.7898247101199
 21
85.62578927464683
 31
0.0
  0
LINE
  5
10F
330
1E
100
AcDbEntity
  8
_1-1_耐火帯
  6
DASHED1
 62
     4
100
AcDbLine
 10
527.4009397101198
 20
85.97861427464705
 30
0.0
 11
524.4414647101199
 21
85.27305927464704
 31
0.0
  0
LINE
  5
110
330
1E
100
AcDbEntity
  8
_1-1_耐火帯
  6
DASHED1
 62
     4
100
AcDbLine
 10
524.9914647101199
 20
85.59060427464681
 30
0.0
 11
526.8509397101199
 21
86.29615927464682
 31
0.0
  0
LINE
  5
111
330
1E
100
AcDbEntity
  8
_1-1_耐火帯
  6
DASHED1
 62
     4
100
AcDbLine
 10
526.9184697101199
 20
87.03689927464683
 30
0.0
 11
524.9174997101199
 21
86.32756927464702
 31
0.0
  0
LINE
  5
112
330
1E
100
AcDbEntity
  8
_1-1_耐火帯
  6
DASHED1
 62
     4
100
AcDbLine
 10
524.2998447101198
 20
86.68416927464704
 30
0.0
 11
527.5295847101197
 21
87.38972427464682
 31
0.0
  0
LINE
  5
113
330
1E
100
AcDbEntity
  8
_1-1_耐火帯
  6
DASHED1
 62
     4
100
AcDbLine
 10
526.97958471012
 20
87.70726927464705
 30
0.0
 11
524.8498447101202
 21
87.00171427464704
 31
0.0
  0
LINE
  5
114
330
1E
100
AcDbEntity
  8
_1-1_耐火帯
  6
DASHED1
 62
     4
100
AcDbLine
 10
526.97958471012
 20
87.70726927464705
 30
0.0
 11
527.04873471012
 21
88.46580427464681
 31
0.0
  0
LINE
  5
115
330
1E
100
AcDbEntity
  8
_1-1_耐火帯
  6
DASHED1
 62
     4
100
AcDbLine
 10
526.8509397101199
 20
86.29615927464682
 30
0.0
 11
526.9184697101199
 21
87.03689927464683
 31
0.0
  0
LINE
  5
116
330
1E
100
AcDbEntity
  8
_1-1_耐火帯
  6
DASHED1
 62
     4
100
AcDbLine
 10
524.9174997101199
 20
86.32756927464702
 30
0.0
 11
524.9914647101199
 21
85.59060427464681
 31
0.0
  0
LINE
  5
117
330
1E
100
AcDbEntity
  8
_1-1_耐火帯
  6
DASHED1
 62
     4
100
AcDbLine
 10
524.77013971012
 20
87.79593927464702
 30
0.0
 11
524.8498447101202
 21
87.00171427464704
 31
0.0
  0
LINE
  5
118
330
1E
100
AcDbEntity
  8
_1-1_耐火帯
  6
DASHED1
 62
     4
100
AcDbLine
 10
524.4414647101199
 20
85.27305927464704
 30
0.0
 11
525.0591197101199
 21
84.91645427464703
 31
0.0
  0
LINE
  5
119
330
1E
100
AcDbEntity
  8
_1-1_耐火帯
  6
DASHED1
 62
     4
100
AcDbLine
 10
524.9914647101199
 20
85.59060427464681
 30
0.0
 11
524.4414647101199
 21
85.27305927464704
 31
0.0
  0
LINE
  5
11A
330
1E
100
AcDbEntity
  8
_1-1_耐火帯
  6
DASHED1
 62
     4
100
AcDbLine
 10
524.2998447101198
 20
86.68416927464704
 30
0.0
 11
524.9174997101199
 21
86.32756927464702
 31
0.0
  0
LINE
  5
11B
330
1E
100
AcDbEntity
  8
_1-1_耐火帯
  6
DASHED1
 62
     4
100
AcDbLine
 10
524.2998447101198
 20
86.68416927464704
 30
0.0
 11
524.8498447101202
 21
87.00171427464704
 31
0.0
  0
LINE
  5
11C
330
1E
100
AcDbEntity
  8
_1-1_耐火帯
  6
DASHED1
 62
     4
100
AcDbLine
 10
527.4009397101198
 20
85.97861427464705
 30
0.0
 11
526.7898247101199
 21
85.62578927464683
 31
0.0
  0
LINE
  5
11D
330
1E
100
AcDbEntity
  8
_1-1_耐火帯
  6
DASHED1
 62
     4
100
AcDbLine
 10
526.8509397101199
 20
86.29615927464682
 30
0.0
 11
527.4009397101198
 21
85.97861427464705
 31
0.0
  0
LINE
  5
11E
330
1E
100
AcDbEntity
  8
_1-1_耐火帯
  6
DASHED1
 62
     4
100
AcDbLine
 10
527.5295847101197
 20
87.38972427464682
 30
0.0
 11
526.9184697101199
 21
87.03689927464683
 31
0.0
  0
LINE
  5
11F
330
1E
100
AcDbEntity
  8
_1-1_耐火帯
  6
DASHED1
 62
     4
100
AcDbLine
 10
526.97958471012
 20
87.70726927464705
 30
0.0
 11
527.5295847101197
 21
87.38972427464682
 31
0.0
  0
LINE
  5
120
330
1E
100
AcDbEntity
  8
_1-1_耐火帯
  6
DASHED1
 62
     4
100
AcDbLine
 10
524.7082297101202
 20
107.462824274647
 30
0.0
 11
524.7082297101202
 21
106.7572692746468
 31
0.0
  0
LINE
  5
121
330
1E
100
AcDbEntity
  8
_1-1_耐火帯
  6
DASHED1
 62
     4
100
AcDbLine
 10
524.7082297101202
 20
106.1221842746468
 30
0.0
 11
524.7082297101202
 21
105.3461592746468
 31
0.0
  0
LINE
  5
122
330
1E
100
AcDbEntity
  8
_1-1_耐火帯
  6
DASHED1
 62
     4
100
AcDbLine
 10
527.10822971012
 20
106.051714274647
 30
0.0
 11
527.10822971012
 21
106.8277392746468
 31
0.0
  0
LINE
  5
123
330
1E
100
AcDbEntity
  8
_1-1_耐火帯
  6
DASHED1
 62
     4
100
AcDbLine
 10
524.7082297101202
 20
104.7110742746468
 30
0.0
 11
527.10822971012
 21
105.4166292746468
 31
0.0
  0
LINE
  5
124
330
1E
100
AcDbEntity
  8
_1-1_耐火帯
  6
DASHED1
 62
     4
100
AcDbLine
 10
524.7082297101202
 20
105.3461592746468
 30
0.0
 11
527.10822971012
 21
106.051714274647
 31
0.0
  0
LINE
  5
125
330
1E
100
AcDbEntity
  8
_1-1_耐火帯
  6
DASHED1
 62
     4
100
AcDbLine
 10
524.1582297101198
 20
105.0286142746468
 30
0.0
 11
527.6582297101198
 21
105.7341692746468
 31
0.0
  0
LINE
  5
126
330
1E
100
AcDbEntity
  8
_1-1_耐火帯
  6
DASHED1
 62
     4
100
AcDbLine
 10
524.1582297101198
 20
105.0286142746468
 30
0.0
 11
524.7082297101202
 21
104.7110742746468
 31
0.0
  0
LINE
  5
127
330
1E
100
AcDbEntity
  8
_1-1_耐火帯
  6
DASHED1
 62
     4
100
AcDbLine
 10
524.1582297101198
 20
105.0286142746468
 30
0.0
 11
524.7082297101202
 21
105.3461592746468
 31
0.0
  0
LINE
  5
128
330
1E
100
AcDbEntity
  8
_1-1_耐火帯
  6
DASHED1
 62
     4
100
AcDbLine
 10
527.6582297101198
 20
105.7341692746468
 30
0.0
 11
527.10822971012
 21
105.4166292746468
 31
0.0
  0
LINE
  5
129
330
1E
100
AcDbEntity
  8
_1-1_耐火帯
  6
DASHED1
 62
     4
100
AcDbLine
 10
527.10822971012
 20
106.051714274647
 30
0.0
 11
527.6582297101198
 21
105.7341692746468
 31
0.0
  0
LINE
  5
12A
330
1E
100
AcDbEntity
  8
_1-1_耐火帯
  6
DASHED1
 62
     4
100
AcDbLine
 10
525.9082297101198
 20
82.46282427464706
 30
0.0
 11
525.0591197101199
 21
84.91645427464703
 31
0.0
  0
LINE
  5
12B
330
1E
100
AcDbEntity
  8
_1-1_耐火帯
  6
DASHED1
 62
     4
100
AcDbLine
 10
526.7898247101199
 20
85.62578927464683
 30
0.0
 11
525.9082297101198
 21
82.46282427464706
 31
0.0
  0
LINE
  5
12C
330
1E
100
AcDbEntity
  8
_1-1_耐火帯
  6
DASHED1
 62
     4
100
AcDbLine
 10
523.10822971012
 20
109.062824274647
 30
0.0
 11
524.7082297101202
 21
107.462824274647
 31
0.0
  0
LINE
  5
12D
330
1E
100
AcDbEntity
  8
_1-1_耐火帯
  6
DASHED1
 62
     4
100
AcDbLine
 10
524.7082297101202
 20
107.462824274647
 30
0.0
 11
527.10822971012
 21
107.462824274647
 31
0.0
  0
LINE
  5
12E
330
1E
100
AcDbEntity
  8
_1-1_耐火帯
  6
DASHED1
 62
     4
100
AcDbLine
 10
528.7082297101197
 20
109.3628242746468
 30
0.0
 11
528.7082297101197
 21
109.062824274647
 31
0.0
  0
LINE
  5
12F
330
1E
100
AcDbEntity
  8
_1-1_耐火帯
  6
DASHED1
 62
     4
100
AcDbLine
 10
528.7082297101197
 20
109.062824274647
 30
0.0
 11
527.10822971012
 21
107.462824274647
 31
0.0
  0
LINE
  5
130
330
1E
100
AcDbEntity
  8
_1-3_止水補助板
  6
Continuous
 62
     7
100
AcDbLine
 10
505.8640332555917
 20
111.3628242746468
 30
0.0
 11
494.5289826831007
 21
110.3589252375538
 31
0.0
  0
LINE
  5
131
330
1E
100
AcDbEntity
  8
_1-3_止水補助板
  6
Continuous
 62
     7
100
AcDbLine
 10
494.6172032685421
 20
109.3628242746468
 30
0.0
 11
505.9082297101199
 21
110.3628242746468
 31
0.0
  0
ARC
  5
132
330
1E
100
AcDbEntity
  8
_1-3_止水補助板
  6
Continuous
 62
     7
100
AcDbCircle
 10
494.7054238539828
 20
108.3667233117398
 30
0.0
 40
1.0
100
AcDbArc
 50
95.06124691988748
 51
175.0
  0
LINE
  5
133
330
1E
100
AcDbEntity
  8
_1-3_止水補助板
  6
Continuous
 62
     7
100
AcDbLine
 10
493.709229155891
 20
108.4538790544874
 30
0.0
 11
493.2257009029907
 21
102.9271258339734
 31
0.0
  0
ARC
  5
134
330
1E
100
AcDbEntity
  8
_1-3_止水補助板
  6
Continuous
 62
     7
100
AcDbCircle
 10
494.7054238539828
 20
108.3667233117398
 30
0.0
 40
2.0
100
AcDbArc
 50
95.0612469198864
 51
175.0
  0
LINE
  5
135
330
1E
100
AcDbEntity
  8
_1-3_止水補助板
  6
Continuous
 62
     7
100
AcDbLine
 10
492.7130344577994
 20
108.5410347972352
 30
0.0
 11
492.2349899373678
 21
103.0769609256548
 31
0.0
  0
LINE
  5
136
330
1E
100
AcDbEntity
  8
_1-5_FYY_______
  6
Continuous
 62
     3
100
AcDbLine
 10
609.9082297101197
 20
126.049886011557
 30
0.0
 11
609.9082297101197
 21
118.762824274647
 31
0.0
  0
LINE
  5
137
330
1E
100
AcDbEntity
  8
_1-5_FYY_______
  6
Continuous
 62
     3
100
AcDbLine
 10
604.9082297101198
 20
116.6628242746468
 30
0.0
 11
609.4082297101198
 21
116.6628242746468
 31
0.0
  0
LINE
  5
138
330
1E
100
AcDbEntity
  8
_1-5_FYY_______
  6
Continuous
 62
     3
100
AcDbLine
 10
604.9082297101198
 20
116.6628242746468
 30
0.0
 11
604.9082297101198
 21
118.262824274647
 31
0.0
  0
LINE
  5
139
330
1E
100
AcDbEntity
  8
_1-5_FYY_______
  6
Continuous
 62
     3
100
AcDbLine
 10
604.9082297101198
 20
118.262824274647
 30
0.0
 11
609.4082297101198
 21
118.262824274647
 31
0.0
  0
ARC
  5
13A
330
1E
100
AcDbEntity
  8
_1-5_FYY_______
  6
Continuous
 62
     3
100
AcDbCircle
 10
609.4082297101198
 20
118.762824274647
 30
0.0
 40
2.1
100
AcDbArc
 50
270.0
 51
0.0
  0
ARC
  5
13B
330
1E
100
AcDbEntity
  8
_1-5_FYY_______
  6
Continuous
 62
     3
100
AcDbCircle
 10
609.4082297101198
 20
118.762824274647
 30
0.0
 40
0.5
100
AcDbArc
 50
270.0
 51
0.0
  0
LINE
  5
13C
330
1E
100
AcDbEntity
  8
_1-5_FYY_______
  6
Continuous
 62
     3
100
AcDbLine
 10
636.9082297101198
 20
116.6628242746468
 30
0.0
 11
632.4082297101198
 21
116.6628242746468
 31
0.0
  0
LINE
  5
13D
330
1E
100
AcDbEntity
  8
_1-5_FYY_______
  6
Continuous
 62
     3
100
AcDbLine
 10
632.4082297101198
 20
118.262824274647
 30
0.0
 11
636.9082297101198
 21
118.262824274647
 31
0.0
  0
LINE
  5
13E
330
1E
100
AcDbEntity
  8
_1-5_FYY_______
  6
Continuous
 62
     3
100
AcDbLine
 10
636.9082297101198
 20
118.262824274647
 30
0.0
 11
636.9082297101198
 21
116.6628242746468
 31
0.0
  0
ARC
  5
13F
330
1E
100
AcDbEntity
  8
_1-5_FYY_______
  6
Continuous
 62
     3
100
AcDbCircle
 10
632.4082297101198
 20
118.762824274647
 30
0.0
 40
2.1
100
AcDbArc
 50
180.0
 51
270.0
  0
ARC
  5
140
330
1E
100
AcDbEntity
  8
_1-5_FYY_______
  6
Continuous
 62
     3
100
AcDbCircle
 10
632.4082297101198
 20
118.762824274647
 30
0.0
 40
0.5
100
AcDbArc
 50
180.0
 51
270.0
  0
LINE
  5
141
330
1E
100
AcDbEntity
  8
_1-5_FYY_______
  6
Continuous
 62
     3
100
AcDbLine
 10
611.50822971012
 20
126.049886011557
 30
0.0
 11
611.50822971012
 21
118.762824274647
 31
0.0
  0
ARC
  5
142
330
1E
100
AcDbEntity
  8
_1-5_FYY_______
  6
Continuous
 62
     3
100
AcDbCircle
 10
612.00822971012
 20
126.049886011557
 30
0.0
 40
0.5
100
AcDbArc
 50
87.00000000000001
 51
180.0
  0
LINE
  5
143
330
1E
100
AcDbEntity
  8
_1-5_FYY_______
  6
Continuous
 62
     3
100
AcDbLine
 10
630.3082297101203
 20
125.1170275403188
 30
0.0
 11
630.3082297101203
 21
118.762824274647
 31
0.0
  0
ARC
  5
144
330
1E
100
AcDbEntity
  8
_1-5_FYY_______
  6
Continuous
 62
     3
100
AcDbCircle
 10
629.8082297101203
 20
125.1170275403188
 30
0.0
 40
0.5
100
AcDbArc
 50
0.0000000000000636
 51
87.00000000000004
  0
ARC
  5
145
330
1E
100
AcDbEntity
  8
_1-5_FYY_______
  6
Continuous
 62
     3
100
AcDbCircle
 10
612.00822971012
 20
126.049886011557
 30
0.0
 40
2.1
100
AcDbArc
 50
87.00000000000001
 51
180.0
  0
LINE
  5
146
330
1E
100
AcDbEntity
  8
_1-5_FYY_______
  6
Continuous
 62
     3
100
AcDbLine
 10
631.9082297101198
 20
125.1170275403188
 30
0.0
 11
631.9082297101198
 21
118.762824274647
 31
0.0
  0
ARC
  5
147
330
1E
100
AcDbEntity
  8
_1-5_FYY_______
  6
Continuous
 62
     3
100
AcDbCircle
 10
629.8082297101203
 20
125.1170275403188
 30
0.0
 40
2.1
100
AcDbArc
 50
0.0000000000000636
 51
87.00000000000004
  0
LINE
  5
148
330
1E
100
AcDbEntity
  8
_1-5_FYY_______
  6
Continuous
 62
     3
100
AcDbLine
 10
625.3135161275164
 20
123.8505269786994
 30
0.0
 11
616.1261244077742
 21
124.3320177761343
 31
0.0
  0
LINE
  5
149
330
1E
100
AcDbEntity
  8
_1-5_FYY_______
  6
Continuous
 62
     3
100
AcDbLine
 10
616.1784603640175
 20
125.330647310889
 30
0.0
 11
616.1261244077742
 21
124.3320177761343
 31
0.0
  0
ARC
  5
14A
330
1E
100
AcDbEntity
  8
_1-5_FYY_______
  6
Continuous
 62
     3
100
AcDbCircle
 10
615.1798308292629
 20
125.3829832671319
 30
0.0
 40
1.0
100
AcDbArc
 50
357.0
 51
87.00000000000011
  0
LINE
  5
14B
330
1E
100
AcDbEntity
  8
_1-5_FYY_______
  6
Continuous
 62
     3
100
AcDbLine
 10
625.3658520837594
 20
124.8491565134542
 30
0.0
 11
625.3135161275164
 21
123.8505269786994
 31
0.0
  0
ARC
  5
14C
330
1E
100
AcDbEntity
  8
_1-5_FYY_______
  6
Continuous
 62
     3
100
AcDbCircle
 10
626.3644816185141
 20
124.796820557211
 30
0.0
 40
1.0
100
AcDbArc
 50
87.00000000000001
 51
177.0
  0
LINE
  5
14D
330
1E
100
AcDbEntity
  8
_1-5_FYY_______
  6
Continuous
 62
     3
100
AcDbLine
 10
629.8343976882415
 20
125.616342307696
 30
0.0
 11
612.0343976882411
 21
126.5492007789339
 31
0.0
  0
LINE
  5
14E
330
1E
100
AcDbEntity
  8
_1-5_FYY_______
  6
Continuous
 62
     3
100
AcDbLine
 10
629.9181352182301
 20
127.2141495633034
 30
0.0
 11
612.1181352182302
 21
128.1470080345416
 31
0.0
  0
LINE
  5
14F
330
1E
100
AcDbEntity
  8
_1-5_FYY_______
  6
DASHED1
 62
     7
100
AcDbLine
 10
617.9123411058561
 20
127.8433465712624
 30
0.0
 11
617.7239316633816
 21
124.248280246146
 31
0.0
  0
LINE
  5
150
330
1E
100
AcDbEntity
  8
_1-5_FYY_______
  6
DASHED1
 62
     7
100
AcDbLine
 10
623.9041183143838
 20
127.5293308338045
 30
0.0
 11
623.7157088719091
 21
123.9342645086882
 31
0.0
  0
LINE
  5
151
330
1E
100
AcDbEntity
  8
_1-5_FYY_______
  6
Continuous
 62
     4
100
AcDbLine
 10
606.9082297101198
 20
118.262824274647
 30
0.0
 11
606.9082297101198
 21
116.6628242746468
 31
0.0
  0
LINE
  5
152
330
1E
100
AcDbEntity
  8
_1-5_FYY_______
  6
Continuous
 62
     4
100
AcDbLine
 10
634.9082297101197
 20
118.262824274647
 30
0.0
 11
634.9082297101197
 21
116.6628242746468
 31
0.0
  0
LINE
  5
153
330
1E
100
AcDbEntity
  8
_1-4_FYY____
  6
DASHED1
 62
     7
100
AcDbLine
 10
624.9582297101199
 20
109.762824274647
 30
0.0
 11
624.9582297101199
 21
100.4628242746467
 31
0.0
  0
LINE
  5
154
330
1E
100
AcDbEntity
  8
_1-4_FYY____
  6
DASHED1
 62
     7
100
AcDbLine
 10
616.8582297101201
 20
109.762824274647
 30
0.0
 11
616.8582297101201
 21
100.4628242746467
 31
0.0
  0
LINE
  5
155
330
1E
100
AcDbEntity
  8
_1-4_FYY____
  6
DASHED1
 62
     7
100
AcDbLine
 10
625.6582297101198
 20
99.76282427464703
 30
0.0
 11
624.9582297101199
 21
100.4628242746467
 31
0.0
  0
LINE
  5
156
330
1E
100
AcDbEntity
  8
_1-4_FYY____
  6
DASHED1
 62
     7
100
AcDbLine
 10
625.6582297101198
 20
81.13465027464679
 30
0.0
 11
625.6582297101198
 21
99.76282427464703
 31
0.0
  0
LINE
  5
157
330
1E
100
AcDbEntity
  8
_1-4_FYY____
  6
DASHED1
 62
     7
100
AcDbLine
 10
625.4082297101198
 20
69.26282427464679
 30
0.0
 11
625.4082297101198
 21
70.12612827464682
 31
0.0
  0
LINE
  5
158
330
1E
100
AcDbEntity
  8
_1-4_FYY____
  6
DASHED1
 62
     7
100
AcDbLine
 10
627.5332597101201
 20
70.50082827464677
 30
0.0
 11
625.6582297101198
 21
81.13465027464679
 31
0.0
  0
LINE
  5
159
330
1E
100
AcDbEntity
  8
_1-4_FYY____
  6
DASHED1
 62
     7
100
AcDbLine
 10
621.4082297101198
 20
80.76282427464702
 30
0.0
 11
620.4082297101198
 21
80.76282427464702
 31
0.0
  0
LINE
  5
15A
330
1E
100
AcDbEntity
  8
_1-4_FYY____
  6
DASHED1
 62
     7
100
AcDbLine
 10
616.1582297101197
 20
99.76282427464703
 30
0.0
 11
616.8582297101201
 21
100.4628242746467
 31
0.0
  0
LINE
  5
15B
330
1E
100
AcDbEntity
  8
_1-4_FYY____
  6
DASHED1
 62
     7
100
AcDbLine
 10
616.1582297101197
 20
81.13465027464679
 30
0.0
 11
616.1582297101197
 21
99.76282427464703
 31
0.0
  0
LINE
  5
15C
330
1E
100
AcDbEntity
  8
_1-4_FYY____
  6
DASHED1
 62
     7
100
AcDbLine
 10
617.4082297101198
 20
68.26282427464701
 30
0.0
 11
624.4082297101198
 21
68.26282427464701
 31
0.0
  0
ARC
  5
15D
330
1E
100
AcDbEntity
  8
_1-4_FYY____
  6
DASHED1
 62
     7
100
AcDbCircle
 10
617.4082297101198
 20
69.26282427464679
 30
0.0
 40
1.0
100
AcDbArc
 50
180.0
 51
270.0
  0
LINE
  5
15E
330
1E
100
AcDbEntity
  8
_1-4_FYY____
  6
DASHED1
 62
     7
100
AcDbLine
 10
616.4082297101198
 20
69.26282427464679
 30
0.0
 11
616.4082297101198
 21
70.12612827464682
 31
0.0
  0
LINE
  5
15F
330
1E
100
AcDbEntity
  8
_1-4_FYY____
  6
DASHED1
 62
     7
100
AcDbLine
 10
614.2831997101202
 20
70.50082827464677
 30
0.0
 11
618.4686327101197
 21
69.76282427464702
 31
0.0
  0
LINE
  5
160
330
1E
100
AcDbEntity
  8
_1-4_FYY____
  6
DASHED1
 62
     7
100
AcDbLine
 10
621.4082297101198
 20
80.76282427464702
 30
0.0
 11
623.3478267101201
 21
69.76282427464702
 31
0.0
  0
LINE
  5
161
330
1E
100
AcDbEntity
  8
_1-4_FYY____
  6
DASHED1
 62
     7
100
AcDbLine
 10
620.4082297101198
 20
80.76282427464702
 30
0.0
 11
618.4686327101197
 21
69.76282427464702
 31
0.0
  0
LINE
  5
162
330
1E
100
AcDbEntity
  8
_1-4_FYY____
  6
DASHED1
 62
     7
100
AcDbLine
 10
614.2831997101202
 20
70.50082827464677
 30
0.0
 11
616.1582297101197
 21
81.13465027464679
 31
0.0
  0
LINE
  5
163
330
1E
100
AcDbEntity
  8
_1-4_FYY____
  6
DASHED1
 62
     7
100
AcDbLine
 10
625.6582297101198
 20
99.76282427464703
 30
0.0
 11
616.1582297101197
 21
99.76282427464703
 31
0.0
  0
LINE
  5
164
330
1E
100
AcDbEntity
  8
_1-4_FYY____
  6
DASHED1
 62
     7
100
AcDbLine
 10
624.9582297101199
 20
100.4628242746467
 30
0.0
 11
616.8582297101201
 21
100.4628242746467
 31
0.0
  0
LINE
  5
165
330
1E
100
AcDbEntity
  8
_1-4_FYY____
  6
DASHED1
 62
     7
100
AcDbLine
 10
627.5332597101201
 20
70.50082827464677
 30
0.0
 11
623.3478267101201
 21
69.76282427464702
 31
0.0
  0
ARC
  5
166
330
1E
100
AcDbEntity
  8
_1-4_FYY____
  6
DASHED1
 62
     7
100
AcDbCircle
 10
624.4082297101198
 20
69.26282427464679
 30
0.0
 40
1.0
100
AcDbArc
 50
270.0
 51
0.0
  0
ARC
  5
167
330
1E
100
AcDbEntity
  8
_1-4_FYY____
  6
Continuous
 62
     3
100
AcDbCircle
 10
649.4655399767027
 20
112.762824274647
 30
0.0
 40
0.5
100
AcDbArc
 50
270.0
 51
350.0
  0
LINE
  5
168
330
1E
100
AcDbEntity
  8
_1-4_FYY____
  6
Continuous
 62
     3
100
AcDbLine
 10
649.4655399767027
 20
112.2628242746467
 30
0.0
 11
646.4192601410454
 21
112.2628242746467
 31
0.0
  0
LINE
  5
169
330
1E
100
AcDbEntity
  8
_1-4_FYY____
  6
Continuous
 62
     3
100
AcDbLine
 10
649.957943853209
 20
112.6760001858133
 30
0.0
 11
650.3651385247687
 21
114.9853159236779
 31
0.0
  0
ARC
  5
16A
330
1E
100
AcDbEntity
  8
_1-4_FYY____
  6
Continuous
 62
     3
100
AcDbCircle
 10
646.4192601410454
 20
112.762824274647
 30
0.0
 40
0.5
100
AcDbArc
 50
170.0
 51
270.0
  0
LINE
  5
16B
330
1E
100
AcDbEntity
  8
_1-4_FYY____
  6
Continuous
 62
     3
100
AcDbLine
 10
645.9268562645394
 20
112.8496483634804
 30
0.0
 11
646.4259075127202
 21
115.6799086343456
 31
0.0
  0
ARC
  5
16C
330
1E
100
AcDbEntity
  8
_1-4_FYY____
  6
Continuous
 62
     3
100
AcDbCircle
 10
643.8806936113311
 20
112.762824274647
 30
0.0
 40
0.5
100
AcDbArc
 50
270.0
 51
350.0
  0
LINE
  5
16D
330
1E
100
AcDbEntity
  8
_1-4_FYY____
  6
Continuous
 62
     3
100
AcDbLine
 10
643.8806936113311
 20
112.2628242746467
 30
0.0
 11
639.9082297101198
 21
112.2628242746467
 31
0.0
  0
LINE
  5
16E
330
1E
100
AcDbEntity
  8
_1-4_FYY____
  6
Continuous
 62
     3
100
AcDbLine
 10
644.3730974878372
 20
112.6760001858133
 30
0.0
 11
645.5130524606191
 21
119.1410060981355
 31
0.0
  0
LINE
  5
16F
330
1E
100
AcDbEntity
  8
_1-4_FYY____
  6
Continuous
 62
     3
100
AcDbLine
 10
646.5995556903871
 20
116.6647163873576
 30
0.0
 11
646.107151813881
 21
116.7515404761912
 31
0.0
  0
LINE
  5
170
330
1E
100
AcDbEntity
  8
_1-4_FYY____
  6
Continuous
 62
     3
100
AcDbLine
 10
651.0311905789421
 20
115.8832995878564
 30
0.0
 11
650.538786702436
 21
115.97012367669
 31
0.0
  0
LINE
  5
171
330
1E
100
AcDbEntity
  8
_1-4_FYY____
  6
Continuous
 62
     3
100
AcDbLine
 10
646.7732038680542
 20
117.6495241403698
 30
0.0
 11
646.2807999915478
 21
117.7363482292036
 31
0.0
  0
LINE
  5
172
330
1E
100
AcDbEntity
  8
_1-4_FYY____
  6
Continuous
 62
     3
100
AcDbLine
 10
651.2048387566091
 20
116.8681073408687
 30
0.0
 11
650.712434880103
 21
116.9549314297021
 31
0.0
  0
LINE
  5
173
330
1E
100
AcDbEntity
  8
_1-4_FYY____
  6
Continuous
 62
     3
100
AcDbLine
 10
651.4082297101198
 20
112.2628242746467
 30
0.0
 11
652.4067067317048
 21
117.9254688544672
 31
0.0
  0
LINE
  5
174
330
1E
100
AcDbEntity
  8
_1-4_FYY____
  6
Continuous
 62
     3
100
AcDbLine
 10
650.712434880103
 20
116.9549314297021
 30
0.0
 11
650.9294951021866
 21
118.1859411209675
 31
0.0
  0
LINE
  5
175
330
1E
100
AcDbEntity
  8
_1-4_FYY____
  6
Continuous
 62
     3
100
AcDbLine
 10
646.7732038680542
 20
117.6495241403698
 30
0.0
 11
646.9902640901379
 21
118.8805338316352
 31
0.0
  0
LINE
  5
176
330
1E
100
AcDbEntity
  8
_1-4_FYY____
  6
Continuous
 62
     3
100
AcDbLine
 10
651.0311905789421
 20
115.8832995878564
 30
0.0
 11
650.3651385247687
 21
114.9853159236779
 31
0.0
  0
LINE
  5
177
330
1E
100
AcDbEntity
  8
_1-4_FYY____
  6
Continuous
 62
     3
100
AcDbLine
 10
651.2048387566091
 20
116.8681073408687
 30
0.0
 11
650.538786702436
 21
115.97012367669
 31
0.0
  0
ARC
  5
178
330
1E
100
AcDbEntity
  8
_1-4_FYY____
  6
Continuous
 62
     3
100
AcDbCircle
 10
646.2516582753785
 20
119.0107699648853
 30
0.0
 40
0.7500000000000013
100
AcDbArc
 50
350.0000000000001
 51
170.0000000000002
  0
ARC
  5
179
330
1E
100
AcDbEntity
  8
_1-4_FYY____
  6
Continuous
 62
     3
100
AcDbCircle
 10
651.6681009169454
 20
118.0557049877172
 30
0.0
 40
0.7499999999999978
100
AcDbArc
 50
350.0
 51
170.0
  0
LINE
  5
17A
330
1E
100
AcDbEntity
  8
_1-4_FYY____
  6
Continuous
 62
     3
100
AcDbLine
 10
651.4082297101198
 20
109.762824274647
 30
0.0
 11
651.4082297101198
 21
112.2628242746467
 31
0.0
  0
LINE
  5
17B
330
1E
100
AcDbEntity
  8
_1-4_FYY____
  6
Continuous
 62
     3
100
AcDbLine
 10
602.9082297101198
 20
109.762824274647
 30
0.0
 11
604.4082297101198
 21
109.762824274647
 31
0.0
  0
LINE
  5
17C
330
1E
100
AcDbEntity
  8
_1-4_FYY____
  6
Continuous
 62
     3
100
AcDbLine
 10
604.4082297101198
 20
109.762824274647
 30
0.0
 11
604.4082297101198
 21
110.262824274647
 31
0.0
  0
LINE
  5
17D
330
1E
100
AcDbEntity
  8
_1-4_FYY____
  6
Continuous
 62
     3
100
AcDbLine
 10
604.4082297101198
 20
110.262824274647
 30
0.0
 11
615.9082297101198
 21
110.262824274647
 31
0.0
  0
LINE
  5
17E
330
1E
100
AcDbEntity
  8
_1-4_FYY____
  6
Continuous
 62
     3
100
AcDbLine
 10
615.9082297101198
 20
110.262824274647
 30
0.0
 11
615.9082297101198
 21
109.762824274647
 31
0.0
  0
ARC
  5
17F
330
1E
100
AcDbEntity
  8
_1-4_FYY____
  6
Continuous
 62
     3
100
AcDbCircle
 10
607.6582297101198
 20
119.012824274647
 30
0.0
 40
0.75
100
AcDbArc
 50
270.0
 51
90.0
  0
ARC
  5
180
330
1E
100
AcDbEntity
  8
_1-4_FYY____
  6
Continuous
 62
     3
100
AcDbCircle
 10
606.6582297101198
 20
115.012824274647
 30
0.0
 40
0.75
100
AcDbArc
 50
270.0
 51
90.0
  0
ARC
  5
181
330
1E
100
AcDbEntity
  8
_1-4_FYY____
  6
Continuous
 62
     3
100
AcDbCircle
 10
604.70822971012
 20
117.9628242746467
 30
0.0
 40
0.2999999999999998
100
AcDbArc
 50
90.0
 51
180.0
  0
LINE
  5
182
330
1E
100
AcDbEntity
  8
_1-4_FYY____
  6
Continuous
 62
     3
100
AcDbLine
 10
604.70822971012
 20
118.262824274647
 30
0.0
 11
607.6582297101198
 21
118.262824274647
 31
0.0
  0
LINE
  5
183
330
1E
100
AcDbEntity
  8
_1-4_FYY____
  6
Continuous
 62
     3
100
AcDbLine
 10
604.70822971012
 20
115.7628242746467
 30
0.0
 11
606.6582297101198
 21
115.7628242746467
 31
0.0
  0
ARC
  5
184
330
1E
100
AcDbEntity
  8
_1-4_FYY____
  6
Continuous
 62
     3
100
AcDbCircle
 10
604.70822971012
 20
116.0628242746468
 30
0.0
 40
0.2999999999999998
100
AcDbArc
 50
180.0
 51
270.0
  0
LINE
  5
185
330
1E
100
AcDbEntity
  8
_1-4_FYY____
  6
Continuous
 62
     3
100
AcDbLine
 10
604.4082297101198
 20
116.0628242746468
 30
0.0
 11
604.4082297101198
 21
117.9628242746467
 31
0.0
  0
ARC
  5
186
330
1E
100
AcDbEntity
  8
_1-4_FYY____
  6
Continuous
 62
     3
100
AcDbCircle
 10
604.70822971012
 20
113.9628242746467
 30
0.0
 40
0.2999999999999998
100
AcDbArc
 50
90.0
 51
180.0
  0
LINE
  5
187
330
1E
100
AcDbEntity
  8
_1-4_FYY____
  6
Continuous
 62
     3
100
AcDbLine
 10
604.70822971012
 20
114.262824274647
 30
0.0
 11
606.6582297101198
 21
114.262824274647
 31
0.0
  0
ARC
  5
188
330
1E
100
AcDbEntity
  8
_1-4_FYY____
  6
Continuous
 62
     3
100
AcDbCircle
 10
604.70822971012
 20
112.5628242746468
 30
0.0
 40
0.2999999999999998
100
AcDbArc
 50
180.0
 51
270.0
  0
LINE
  5
189
330
1E
100
AcDbEntity
  8
_1-4_FYY____
  6
Continuous
 62
     3
100
AcDbLine
 10
604.4082297101198
 20
112.5628242746468
 30
0.0
 11
604.4082297101198
 21
113.9628242746467
 31
0.0
  0
LINE
  5
18A
330
1E
100
AcDbEntity
  8
_1-4_FYY____
  6
Continuous
 62
     3
100
AcDbLine
 10
603.4082297101198
 20
119.7628242746467
 30
0.0
 11
607.6582297101198
 21
119.7628242746467
 31
0.0
  0
ARC
  5
18B
330
1E
100
AcDbEntity
  8
_1-4_FYY____
  6
Continuous
 62
     3
100
AcDbCircle
 10
603.4082297101198
 20
119.2628242746467
 30
0.0
 40
0.5
100
AcDbArc
 50
90.0
 51
180.0
  0
LINE
  5
18C
330
1E
100
AcDbEntity
  8
_1-4_FYY____
  6
Continuous
 62
     3
100
AcDbLine
 10
602.9082297101198
 20
119.2628242746467
 30
0.0
 11
602.9082297101198
 21
109.762824274647
 31
0.0
  0
LINE
  5
18D
330
1E
100
AcDbEntity
  8
_1-4_FYY____
  6
Continuous
 62
     3
100
AcDbLine
 10
615.9082297101198
 20
109.762824274647
 30
0.0
 11
625.9082297101198
 21
109.762824274647
 31
0.0
  0
LINE
  5
18E
330
1E
100
AcDbEntity
  8
_1-4_FYY____
  6
Continuous
 62
     3
100
AcDbLine
 10
621.4082297101198
 20
112.2628242746467
 30
0.0
 11
637.10822971012
 21
112.2628242746467
 31
0.0
  0
LINE
  5
18F
330
1E
100
AcDbEntity
  8
_1-4_FYY____
  6
Continuous
 62
     3
100
AcDbLine
 10
604.70822971012
 20
112.2628242746467
 30
0.0
 11
620.4082297101198
 21
112.2628242746467
 31
0.0
  0
LINE
  5
190
330
1E
100
AcDbEntity
  8
_1-4_FYY____
  6
Continuous
 62
     3
100
AcDbLine
 10
625.9082297101198
 20
109.762824274647
 30
0.0
 11
625.9082297101198
 21
110.262824274647
 31
0.0
  0
LINE
  5
191
330
1E
100
AcDbEntity
  8
_1-4_FYY____
  6
Continuous
 62
     3
100
AcDbLine
 10
625.9082297101198
 20
110.262824274647
 30
0.0
 11
637.4082297101198
 21
110.262824274647
 31
0.0
  0
LINE
  5
192
330
1E
100
AcDbEntity
  8
_1-4_FYY____
  6
Continuous
 62
     3
100
AcDbLine
 10
637.4082297101198
 20
110.262824274647
 30
0.0
 11
637.4082297101198
 21
109.762824274647
 31
0.0
  0
LINE
  5
193
330
1E
100
AcDbEntity
  8
_1-4_FYY____
  6
Continuous
 62
     3
100
AcDbLine
 10
637.4082297101198
 20
109.762824274647
 30
0.0
 11
639.4082297101198
 21
109.762824274647
 31
0.0
  0
ARC
  5
194
330
1E
100
AcDbEntity
  8
_1-4_FYY____
  6
Continuous
 62
     3
100
AcDbCircle
 10
638.4082297101198
 20
127.7628242746468
 30
0.0
 40
1.0
100
AcDbArc
 50
0.0000000000000063
 51
180.0
  0
LINE
  5
195
330
1E
100
AcDbEntity
  8
_1-4_FYY____
  6
Continuous
 62
     3
100
AcDbLine
 10
649.9082297101198
 20
110.762824274647
 30
0.0
 11
649.9082297101198
 21
109.762824274647
 31
0.0
  0
LINE
  5
196
330
1E
100
AcDbEntity
  8
_1-4_FYY____
  6
Continuous
 62
     3
100
AcDbLine
 10
649.9082297101198
 20
109.762824274647
 30
0.0
 11
651.4082297101198
 21
109.762824274647
 31
0.0
  0
LINE
  5
197
330
1E
100
AcDbEntity
  8
_1-4_FYY____
  6
Continuous
 62
     3
100
AcDbLine
 10
620.9082297101198
 20
111.7628242746467
 30
0.0
 11
621.4082297101198
 21
112.2628242746467
 31
0.0
  0
LINE
  5
198
330
1E
100
AcDbEntity
  8
_1-4_FYY____
  6
Continuous
 62
     3
100
AcDbLine
 10
639.4082297101198
 20
109.762824274647
 30
0.0
 11
639.4082297101198
 21
110.762824274647
 31
0.0
  0
LINE
  5
199
330
1E
100
AcDbEntity
  8
_1-4_FYY____
  6
Continuous
 62
     3
100
AcDbLine
 10
639.4082297101198
 20
110.762824274647
 30
0.0
 11
649.9082297101198
 21
110.762824274647
 31
0.0
  0
LINE
  5
19A
330
1E
100
AcDbEntity
  8
_1-4_FYY____
  6
Continuous
 62
     3
100
AcDbLine
 10
639.4082297101198
 20
112.762824274647
 30
0.0
 11
639.4082297101198
 21
127.7628242746468
 31
0.0
  0
ARC
  5
19B
330
1E
100
AcDbEntity
  8
_1-4_FYY____
  6
Continuous
 62
     3
100
AcDbCircle
 10
639.9082297101198
 20
112.762824274647
 30
0.0
 40
0.5
100
AcDbArc
 50
180.0
 51
270.0
  0
ARC
  5
19C
330
1E
100
AcDbEntity
  8
_1-4_FYY____
  6
Continuous
 62
     3
100
AcDbCircle
 10
637.10822971012
 20
112.5628242746468
 30
0.0
 40
0.2999999999999998
100
AcDbArc
 50
270.0
 51
0.0
  0
LINE
  5
19D
330
1E
100
AcDbEntity
  8
_1-4_FYY____
  6
Continuous
 62
     3
100
AcDbLine
 10
636.9082297101198
 20
119.7628242746467
 30
0.0
 11
634.1582297101198
 21
119.7628242746467
 31
0.0
  0
ARC
  5
19E
330
1E
100
AcDbEntity
  8
_1-4_FYY____
  6
Continuous
 62
     3
100
AcDbCircle
 10
636.9082297101198
 20
120.2628242746467
 30
0.0
 40
0.5
100
AcDbArc
 50
270.0
 51
0.0
  0
LINE
  5
19F
330
1E
100
AcDbEntity
  8
_1-4_FYY____
  6
Continuous
 62
     3
100
AcDbLine
 10
637.4082297101198
 20
120.2628242746467
 30
0.0
 11
637.4082297101198
 21
127.7628242746468
 31
0.0
  0
ARC
  5
1A0
330
1E
100
AcDbEntity
  8
_1-4_FYY____
  6
Continuous
 62
     3
100
AcDbCircle
 10
634.1582297101198
 20
119.012824274647
 30
0.0
 40
0.75
100
AcDbArc
 50
90.0
 51
270.0
  0
ARC
  5
1A1
330
1E
100
AcDbEntity
  8
_1-4_FYY____
  6
Continuous
 62
     3
100
AcDbCircle
 10
635.1582297101198
 20
115.012824274647
 30
0.0
 40
0.75
100
AcDbArc
 50
90.0
 51
270.0
  0
LINE
  5
1A2
330
1E
100
AcDbEntity
  8
_1-4_FYY____
  6
Continuous
 62
     3
100
AcDbLine
 10
637.10822971012
 20
114.262824274647
 30
0.0
 11
635.1582297101198
 21
114.262824274647
 31
0.0
  0
ARC
  5
1A3
330
1E
100
AcDbEntity
  8
_1-4_FYY____
  6
Continuous
 62
     3
100
AcDbCircle
 10
637.10822971012
 20
113.9628242746467
 30
0.0
 40
0.2999999999999998
100
AcDbArc
 50
0.0000000000000127
 51
90.00000000000005
  0
LINE
  5
1A4
330
1E
100
AcDbEntity
  8
_1-4_FYY____
  6
Continuous
 62
     3
100
AcDbLine
 10
637.4082297101198
 20
113.9628242746467
 30
0.0
 11
637.4082297101198
 21
112.5628242746468
 31
0.0
  0
LINE
  5
1A5
330
1E
100
AcDbEntity
  8
_1-4_FYY____
  6
Continuous
 62
     3
100
AcDbLine
 10
637.10822971012
 20
115.7628242746467
 30
0.0
 11
635.1582297101198
 21
115.7628242746467
 31
0.0
  0
ARC
  5
1A6
330
1E
100
AcDbEntity
  8
_1-4_FYY____
  6
Continuous
 62
     3
100
AcDbCircle
 10
637.10822971012
 20
116.0628242746468
 30
0.0
 40
0.2999999999999998
100
AcDbArc
 50
270.0
 51
0.0
  0
LINE
  5
1A7
330
1E
100
AcDbEntity
  8
_1-4_FYY____
  6
Continuous
 62
     3
100
AcDbLine
 10
637.4082297101198
 20
117.9628242746467
 30
0.0
 11
637.4082297101198
 21
116.0628242746468
 31
0.0
  0
ARC
  5
1A8
330
1E
100
AcDbEntity
  8
_1-4_FYY____
  6
Continuous
 62
     3
100
AcDbCircle
 10
637.10822971012
 20
117.9628242746467
 30
0.0
 40
0.2999999999999998
100
AcDbArc
 50
0.0000000000000127
 51
90.00000000000005
  0
LINE
  5
1A9
330
1E
100
AcDbEntity
  8
_1-4_FYY____
  6
Continuous
 62
     3
100
AcDbLine
 10
637.10822971012
 20
118.262824274647
 30
0.0
 11
634.1582297101198
 21
118.262824274647
 31
0.0
  0
LINE
  5
1AA
330
1E
100
AcDbEntity
  8
_1-4_FYY____
  6
Continuous
 62
     3
100
AcDbLine
 10
620.9082297101198
 20
111.7628242746467
 30
0.0
 11
620.4082297101198
 21
112.2628242746467
 31
0.0
  0
LINE
  5
1AB
330
1E
100
AcDbEntity
  8
_1-4_FYY____
  6
Continuous
 62
     3
100
AcDbLine
 10
646.107151813881
 20
116.7515404761912
 30
0.0
 11
646.4259075127202
 21
115.6799086343456
 31
0.0
  0
LINE
  5
1AC
330
1E
100
AcDbEntity
  8
_1-4_FYY____
  6
Continuous
 62
     3
100
AcDbLine
 10
646.2807999915478
 20
117.7363482292036
 30
0.0
 11
646.5995556903871
 21
116.6647163873576
 31
0.0
  0
LINE
  5
1AD
330
1E
100
AcDbEntity
  8
_1-7_____________
  6
DASHED1
 62
     4
100
AcDbLine
 10
624.6862600138855
 20
153.3159964145641
 30
0.0
 11
623.4406642553038
 21
129.5486134874053
 31
0.0
  0
LINE
  5
1AE
330
1E
100
AcDbEntity
  8
_1-7_____________
  6
DASHED1
 62
     7
100
AcDbLine
 10
625.253980904394
 20
153.2862434234399
 30
0.0
 11
624.0083851458118
 21
129.5188604962811
 31
0.0
  0
LINE
  5
1AF
330
1E
100
AcDbEntity
  8
_1-7_____________
  6
DASHED1
 62
     7
100
AcDbLine
 10
619.2622036958661
 20
153.6002591608978
 30
0.0
 11
618.0166079372841
 21
129.832876233739
 31
0.0
  0
LINE
  5
1B0
330
1E
100
AcDbEntity
  8
_1-7_____________
  6
DASHED1
 62
     4
100
AcDbLine
 10
619.8299245863739
 20
153.5705061697735
 30
0.0
 11
618.5843288277922
 21
129.8031232426148
 31
0.0
  0
ARC
  5
1B1
330
1E
100
AcDbEntity
  8
_1-7_____________
  6
DASHED1
 62
     7
100
AcDbCircle
 10
632.8218645259405
 20
151.087157226166
 30
0.0
 40
1.0
100
AcDbArc
 50
37.6268473622831
 51
86.99999999999999
  0
LINE
  5
1B2
330
1E
100
AcDbEntity
  8
_1-7_____________
  6
DASHED1
 62
     7
100
AcDbLine
 10
611.600115353082
 20
154.0018121956135
 30
0.0
 11
632.9160692471784
 21
152.8846903887244
 31
0.0
  0
ARC
  5
1B3
330
1E
100
AcDbEntity
  8
_1-7_____________
  6
DASHED1
 62
     7
100
AcDbCircle
 10
611.5059106318447
 20
152.2042790330553
 30
0.0
 40
1.8
100
AcDbArc
 50
87.00000000000001
 51
136.3731526377168
  0
LINE
  5
1B4
330
1E
100
AcDbEntity
  8
_1-7_____________
  6
DASHED1
 62
     7
100
AcDbLine
 10
611.5582465880876
 20
153.20290856781
 30
0.0
 11
632.8742004821838
 21
152.0857867609205
 31
0.0
  0
LINE
  5
1B5
330
1E
100
AcDbEntity
  8
_1-7_____________
  6
DASHED1
 62
     7
100
AcDbLine
 10
610.7820619882821
 20
152.8942378298052
 30
0.0
 11
597.852110894524
 21
139.3291849532623
 31
0.0
  0
ARC
  5
1B6
330
1E
100
AcDbEntity
  8
_1-7_____________
  6
DASHED1
 62
     7
100
AcDbCircle
 10
611.5059106318447
 20
152.2042790330553
 30
0.0
 40
1.0
100
AcDbArc
 50
87.00000000000001
 51
136.3731526377168
  0
ARC
  5
1B7
330
1E
100
AcDbEntity
  8
_1-7_____________
  6
DASHED1
 62
     7
100
AcDbCircle
 10
596.5491833526161
 20
140.5711108047275
 30
0.0
 40
1.0
100
AcDbArc
 50
217.626848732867
 51
316.373152637717
  0
ARC
  5
1B8
330
1E
100
AcDbEntity
  8
_1-7_____________
  6
DASHED1
 62
     7
100
AcDbCircle
 10
596.5491833526161
 20
140.5711108047275
 30
0.0
 40
1.8
100
AcDbArc
 50
217.6268481237184
 51
316.3731526377168
  0
LINE
  5
1B9
330
1E
100
AcDbEntity
  8
_1-7_____________
  6
DASHED1
 62
     7
100
AcDbLine
 10
649.2743851241844
 20
139.4359001265472
 30
0.0
 11
647.2045087174024
 21
137.2643541785151
 31
0.0
  0
LINE
  5
1BA
330
1E
100
AcDbEntity
  8
_1-7_____________
  6
DASHED1
 62
     7
100
AcDbLine
 10
649.8534640390565
 20
138.8839330891703
 30
0.0
 11
649.2743851241844
 21
139.4359001265472
 31
0.0
  0
LINE
  5
1BB
330
1E
100
AcDbEntity
  8
_1-7_____________
  6
DASHED1
 62
     7
100
AcDbLine
 10
649.8534640390565
 20
138.8839330891703
 30
0.0
 11
647.7835876322525
 21
136.7123871411154
 31
0.0
  0
ARC
  5
1BC
330
1E
100
AcDbEntity
  8
_1-7_____________
  6
DASHED1
 62
     7
100
AcDbCircle
 10
646.4806600903446
 20
137.9543129925803
 30
0.0
 40
1.0
100
AcDbArc
 50
217.626847362283
 51
316.3731512671328
  0
ARC
  5
1BD
330
1E
100
AcDbEntity
  8
_1-7_____________
  6
DASHED1
 62
     7
100
AcDbCircle
 10
646.4806600903446
 20
137.9543129925803
 30
0.0
 40
1.8
100
AcDbArc
 50
217.6268473622833
 51
316.3731518762815
  0
LINE
  5
1BE
330
1E
100
AcDbEntity
  8
_1-7_____________
  6
DASHED1
 62
     7
100
AcDbLine
 10
634.2474711097971
 20
152.1860866452216
 30
0.0
 11
645.6886564472507
 21
137.3437966297148
 31
0.0
  0
LINE
  5
1BF
330
1E
100
AcDbEntity
  8
_1-7_____________
  6
DASHED1
 62
     7
100
AcDbLine
 10
633.6138681836388
 20
151.6976735700857
 30
0.0
 11
645.0550535210924
 21
136.8553835545792
 31
0.0
  0
ARC
  5
1C0
330
1E
100
AcDbEntity
  8
_1-7_____________
  6
DASHED1
 62
     7
100
AcDbCircle
 10
632.8218645259405
 20
151.087157226166
 30
0.0
 40
1.8
100
AcDbArc
 50
37.6268473622831
 51
86.99999999999999
  0
LINE
  5
1C1
330
1E
100
AcDbEntity
  8
_1-7_____________
  6
DASHED1
 62
     7
100
AcDbLine
 10
593.9256306631344
 20
142.3366054339332
 30
0.0
 11
595.7571797095222
 21
139.9605944418622
 31
0.0
  0
LINE
  5
1C2
330
1E
100
AcDbEntity
  8
_1-7_____________
  6
DASHED1
 62
     7
100
AcDbLine
 10
610.2029830734318
 20
153.4462048672052
 30
0.0
 11
597.2730319961786
 21
139.8811520079775
 31
0.0
  0
ARC
  5
1C3
330
1E
100
AcDbEntity
  8
_1-7_____________
  6
DASHED1
 62
     7
100
AcDbCircle
 10
621.0741635524451
 20
156.6474305516175
 30
0.0
 40
0.5999999999999998
100
AcDbArc
 50
357.0
 51
100.700233
  0
ARC
  5
1C4
330
1E
100
AcDbEntity
  8
_1-7_____________
  6
DASHED1
 62
     7
100
AcDbCircle
 10
623.7704632962824
 20
156.5061234697618
 30
0.0
 40
0.5999999999999998
100
AcDbArc
 50
73.29976700000003
 51
177.0
  0
LINE
  5
1C5
330
1E
100
AcDbEntity
  8
_1-7_____________
  6
DASHED1
 62
     7
100
AcDbLine
 10
623.169231650827
 20
156.498333827416
 30
0.0
 11
621.6712873486951
 21
156.5768377617803
 31
0.0
  0
ARC
  5
1C6
330
1E
100
AcDbEntity
  8
_1-7_____________
  6
DASHED1
 62
     7
100
AcDbCircle
 10
620.4448616049622
 20
153.343153273634
 30
0.0
 40
3.45
100
AcDbArc
 50
126.309124
 51
173.7621629999999
  0
ARC
  5
1C7
330
1E
100
AcDbEntity
  8
_1-7_____________
  6
DASHED1
 62
     7
100
AcDbCircle
 10
624.0561976102181
 20
153.1493819936798
 30
0.0
 40
3.45
100
AcDbArc
 50
0.3127430000000253
 51
47.82048900000003
  0
ARC
  5
1C8
330
1E
100
AcDbEntity
  8
_1-7_____________
  6
DASHED1
 62
     7
100
AcDbCircle
 10
622.1324860574827
 20
151.0465414073874
 30
0.0
 40
6.299999999999998
100
AcDbArc
 50
47.69686900000002
 51
126.309371
  0
LINE
  5
1C9
330
1E
100
AcDbEntity
  8
_1-7_____________
  6
Continuous
 62
     4
100
AcDbLine
 10
623.4519754270149
 20
118.901930597538
 30
0.0
 11
617.4601982184875
 21
119.2159463349956
 31
0.0
  0
LINE
  5
1CA
330
1E
100
AcDbEntity
  8
_1-7_____________
  6
Continuous
 62
     7
100
AcDbLine
 10
618.0166079372841
 20
129.832876233739
 30
0.0
 11
617.9123411058561
 21
127.8433465712624
 31
0.0
  0
LINE
  5
1CB
330
1E
100
AcDbEntity
  8
_1-7_____________
  6
Continuous
 62
     7
100
AcDbLine
 10
617.7239316633816
 20
124.248280246146
 30
0.0
 11
617.4601982184875
 21
119.2159463349956
 31
0.0
  0
LINE
  5
1CC
330
1E
100
AcDbEntity
  8
_1-7_____________
  6
Continuous
 62
     7
100
AcDbLine
 10
624.0083851458118
 20
129.5188604962811
 30
0.0
 11
623.9041183143836
 21
127.5293308338045
 31
0.0
  0
LINE
  5
1CD
330
1E
100
AcDbEntity
  8
_1-7_____________
  6
Continuous
 62
     7
100
AcDbLine
 10
623.7157088719088
 20
123.9342645086882
 30
0.0
 11
623.4519754270149
 21
118.901930597538
 31
0.0
  0
LINE
  5
1CE
330
1E
100
AcDbEntity
  8
_1-7_____________
  6
Continuous
 62
     4
100
AcDbLine
 10
618.5843288277922
 20
129.8031232426148
 30
0.0
 11
618.4800619963638
 21
127.8135935801382
 31
0.0
  0
LINE
  5
1CF
330
1E
100
AcDbEntity
  8
_1-7_____________
  6
Continuous
 62
     4
100
AcDbLine
 10
623.4406642553038
 20
129.5486134874053
 30
0.0
 11
623.3363974238754
 21
127.5590838249288
 31
0.0
  0
POINT
  5
1D0
330
1E
100
AcDbEntity
  8
_1-7_____________
 62
     4
100
AcDbPoint
 10
620.9082297101198
 20
127.6863387025335
 30
0.0
  0
ARC
  5
1D1
330
1E
100
AcDbEntity
  8
_1-3_止水補助板
  6
Continuous
 62
     7
100
AcDbCircle
 10
670.8796699362213
 20
106.7632321881862
 30
0.0
 40
1.0
100
AcDbArc
 50
4.999999999999943
 51
88.36342295838333
  0
LINE
  5
1D2
330
1E
100
AcDbEntity
  8
_1-7_____________
  6
DASHED1
 62
     7
100
AcDbLine
 10
593.2920277369565
 20
141.8481923588226
 30
0.0
 11
593.9256306631344
 21
142.3366054339332
 31
0.0
  0
LINE
  5
1D3
330
1E
100
AcDbEntity
  8
_1-7_____________
  6
DASHED1
 62
     7
100
AcDbLine
 10
593.2920277369565
 20
141.8481923588226
 30
0.0
 11
595.1235767833641
 21
139.4721813667264
 31
0.0
  0
ARC
  5
1D4
330
1E
100
AcDbEntity
  8
_1-1_耐火帯
  6
Continuous
 62
     7
100
AcDbCircle
 10
299.9082297101197
 20
76.76282427464702
 30
0.0
 40
4.0
100
AcDbArc
 50
60.8689397763102
 51
180.0
  0
ARC
  5
1D5
330
1E
100
AcDbEntity
  8
_1-1_耐火帯
  6
Continuous
 62
     7
100
AcDbCircle
 10
299.9082297101197
 20
72.26282427464702
 30
0.0
 40
4.0
100
AcDbArc
 50
180.0
 51
270.0
  0
LINE
  5
1D6
330
1E
100
AcDbEntity
  8
_1-3_止水補助板
  6
Continuous
 62
     7
100
AcDbLine
 10
285.9524261646479
 20
111.3628242746468
 30
0.0
 11
297.2874767371391
 21
110.3589252375538
 31
0.0
  0
LINE
  5
1D7
330
1E
100
AcDbEntity
  8
_1-3_止水補助板
  6
Continuous
 62
     7
100
AcDbLine
 10
297.1992561516976
 20
109.3628242746468
 30
0.0
 11
285.9082297101197
 21
110.3628242746468
 31
0.0
  0
ARC
  5
1D8
330
1E
100
AcDbEntity
  8
_1-3_止水補助板
  6
Continuous
 62
     7
100
AcDbCircle
 10
297.1110355662568
 20
108.3667233117398
 30
0.0
 40
1.0
100
AcDbArc
 50
4.999999999999957
 51
84.93875308011253
  0
LINE
  5
1D9
330
1E
100
AcDbEntity
  8
_1-3_止水補助板
  6
Continuous
 62
     7
100
AcDbLine
 10
298.1072302643486
 20
108.4538790544874
 30
0.0
 11
298.590758517249
 21
102.9271258339734
 31
0.0
  0
ARC
  5
1DA
330
1E
100
AcDbEntity
  8
_1-3_止水補助板
  6
Continuous
 62
     7
100
AcDbCircle
 10
297.1110355662568
 20
108.3667233117398
 30
0.0
 40
2.0
100
AcDbArc
 50
4.999999999999957
 51
84.93875308011361
  0
LINE
  5
1DB
330
1E
100
AcDbEntity
  8
_1-3_止水補助板
  6
Continuous
 62
     7
100
AcDbLine
 10
299.1034249624404
 20
108.5410347972352
 30
0.0
 11
299.5814694828719
 21
103.0769609256548
 31
0.0
  0
LINE
  5
1DC
330
1E
100
AcDbEntity
  8
_1-5_FYY_______
  6
Continuous
 62
     3
100
AcDbLine
 10
181.9082297101198
 20
126.049886011557
 30
0.0
 11
181.9082297101198
 21
118.762824274647
 31
0.0
  0
LINE
  5
1DD
330
1E
100
AcDbEntity
  8
_1-5_FYY_______
  6
Continuous
 62
     3
100
AcDbLine
 10
186.9082297101199
 20
116.6628242746468
 30
0.0
 11
182.4082297101199
 21
116.6628242746468
 31
0.0
  0
LINE
  5
1DE
330
1E
100
AcDbEntity
  8
_1-5_FYY_______
  6
Continuous
 62
     3
100
AcDbLine
 10
186.9082297101199
 20
116.6628242746468
 30
0.0
 11
186.9082297101199
 21
118.262824274647
 31
0.0
  0
LINE
  5
1DF
330
1E
100
AcDbEntity
  8
_1-5_FYY_______
  6
Continuous
 62
     3
100
AcDbLine
 10
186.9082297101199
 20
118.262824274647
 30
0.0
 11
182.4082297101199
 21
118.262824274647
 31
0.0
  0
ARC
  5
1E0
330
1E
100
AcDbEntity
  8
_1-5_FYY_______
  6
Continuous
 62
     3
100
AcDbCircle
 10
182.4082297101199
 20
118.762824274647
 30
0.0
 40
2.1
100
AcDbArc
 50
180.0
 51
270.0
  0
ARC
  5
1E1
330
1E
100
AcDbEntity
  8
_1-5_FYY_______
  6
Continuous
 62
     3
100
AcDbCircle
 10
182.4082297101199
 20
118.762824274647
 30
0.0
 40
0.5
100
AcDbArc
 50
180.0
 51
270.0
  0
LINE
  5
1E2
330
1E
100
AcDbEntity
  8
_1-5_FYY_______
  6
Continuous
 62
     3
100
AcDbLine
 10
154.9082297101198
 20
116.6628242746468
 30
0.0
 11
159.4082297101198
 21
116.6628242746468
 31
0.0
  0
LINE
  5
1E3
330
1E
100
AcDbEntity
  8
_1-5_FYY_______
  6
Continuous
 62
     3
100
AcDbLine
 10
159.4082297101198
 20
118.262824274647
 30
0.0
 11
154.9082297101198
 21
118.262824274647
 31
0.0
  0
LINE
  5
1E4
330
1E
100
AcDbEntity
  8
_1-5_FYY_______
  6
Continuous
 62
     3
100
AcDbLine
 10
154.9082297101198
 20
118.262824274647
 30
0.0
 11
154.9082297101198
 21
116.6628242746468
 31
0.0
  0
ARC
  5
1E5
330
1E
100
AcDbEntity
  8
_1-5_FYY_______
  6
Continuous
 62
     3
100
AcDbCircle
 10
159.4082297101198
 20
118.762824274647
 30
0.0
 40
2.1
100
AcDbArc
 50
270.0
 51
0.0
  0
ARC
  5
1E6
330
1E
100
AcDbEntity
  8
_1-5_FYY_______
  6
Continuous
 62
     3
100
AcDbCircle
 10
159.4082297101198
 20
118.762824274647
 30
0.0
 40
0.5
100
AcDbArc
 50
270.0
 51
0.0
  0
LINE
  5
1E7
330
1E
100
AcDbEntity
  8
_1-5_FYY_______
  6
Continuous
 62
     3
100
AcDbLine
 10
180.3082297101198
 20
126.049886011557
 30
0.0
 11
180.3082297101198
 21
118.762824274647
 31
0.0
  0
ARC
  5
1E8
330
1E
100
AcDbEntity
  8
_1-5_FYY_______
  6
Continuous
 62
     3
100
AcDbCircle
 10
179.8082297101198
 20
126.049886011557
 30
0.0
 40
0.5
100
AcDbArc
 50
0.0
 51
92.99999999999998
  0
LINE
  5
1E9
330
1E
100
AcDbEntity
  8
_1-5_FYY_______
  6
Continuous
 62
     3
100
AcDbLine
 10
161.5082297101199
 20
125.1170275403188
 30
0.0
 11
161.5082297101199
 21
118.762824274647
 31
0.0
  0
ARC
  5
1EA
330
1E
100
AcDbEntity
  8
_1-5_FYY_______
  6
Continuous
 62
     3
100
AcDbCircle
 10
162.0082297101199
 20
125.1170275403188
 30
0.0
 40
0.5
100
AcDbArc
 50
92.99999999999995
 51
179.9999999999999
  0
ARC
  5
1EB
330
1E
100
AcDbEntity
  8
_1-5_FYY_______
  6
Continuous
 62
     3
100
AcDbCircle
 10
179.8082297101198
 20
126.049886011557
 30
0.0
 40
2.1
100
AcDbArc
 50
0.0
 51
92.99999999999998
  0
LINE
  5
1EC
330
1E
100
AcDbEntity
  8
_1-5_FYY_______
  6
Continuous
 62
     3
100
AcDbLine
 10
159.9082297101198
 20
125.1170275403188
 30
0.0
 11
159.9082297101198
 21
118.762824274647
 31
0.0
  0
ARC
  5
1ED
330
1E
100
AcDbEntity
  8
_1-5_FYY_______
  6
Continuous
 62
     3
100
AcDbCircle
 10
162.0082297101199
 20
125.1170275403188
 30
0.0
 40
2.1
100
AcDbArc
 50
92.99999999999995
 51
179.9999999999999
  0
LINE
  5
1EE
330
1E
100
AcDbEntity
  8
_1-5_FYY_______
  6
Continuous
 62
     3
100
AcDbLine
 10
166.5029432927235
 20
123.8505269786994
 30
0.0
 11
175.6903350124654
 21
124.3320177761343
 31
0.0
  0
LINE
  5
1EF
330
1E
100
AcDbEntity
  8
_1-5_FYY_______
  6
Continuous
 62
     3
100
AcDbLine
 10
175.6379990562227
 20
125.330647310889
 30
0.0
 11
175.6903350124654
 21
124.3320177761343
 31
0.0
  0
ARC
  5
1F0
330
1E
100
AcDbEntity
  8
_1-5_FYY_______
  6
Continuous
 62
     3
100
AcDbCircle
 10
176.6366285909771
 20
125.3829832671319
 30
0.0
 40
1.0
100
AcDbArc
 50
92.99999999999993
 51
182.9999999999999
  0
LINE
  5
1F1
330
1E
100
AcDbEntity
  8
_1-5_FYY_______
  6
Continuous
 62
     3
100
AcDbLine
 10
166.4506073364804
 20
124.8491565134542
 30
0.0
 11
166.5029432927235
 21
123.8505269786994
 31
0.0
  0
ARC
  5
1F2
330
1E
100
AcDbEntity
  8
_1-5_FYY_______
  6
Continuous
 62
     3
100
AcDbCircle
 10
165.451977801726
 20
124.796820557211
 30
0.0
 40
1.0
100
AcDbArc
 50
2.999999999999965
 51
92.99999999999998
  0
LINE
  5
1F3
330
1E
100
AcDbEntity
  8
_1-5_FYY_______
  6
Continuous
 62
     3
100
AcDbLine
 10
161.9820617319984
 20
125.616342307696
 30
0.0
 11
179.7820617319984
 21
126.5492007789339
 31
0.0
  0
LINE
  5
1F4
330
1E
100
AcDbEntity
  8
_1-5_FYY_______
  6
Continuous
 62
     3
100
AcDbLine
 10
161.8983242020098
 20
127.2141495633034
 30
0.0
 11
179.6983242020096
 21
128.1470080345416
 31
0.0
  0
LINE
  5
1F5
330
1E
100
AcDbEntity
  8
_1-5_FYY_______
  6
DASHED1
 62
     7
100
AcDbLine
 10
173.9041183143837
 20
127.8433465712624
 30
0.0
 11
174.0925277568582
 21
124.248280246146
 31
0.0
  0
LINE
  5
1F6
330
1E
100
AcDbEntity
  8
_1-5_FYY_______
  6
DASHED1
 62
     7
100
AcDbLine
 10
167.9123411058562
 20
127.5293308338045
 30
0.0
 11
168.1007505483307
 21
123.9342645086882
 31
0.0
  0
LINE
  5
1F7
330
1E
100
AcDbEntity
  8
_1-5_FYY_______
  6
Continuous
 62
     4
100
AcDbLine
 10
184.9082297101199
 20
118.262824274647
 30
0.0
 11
184.9082297101199
 21
116.6628242746468
 31
0.0
  0
LINE
  5
1F8
330
1E
100
AcDbEntity
  8
_1-5_FYY_______
  6
Continuous
 62
     4
100
AcDbLine
 10
156.9082297101198
 20
118.262824274647
 30
0.0
 11
156.9082297101198
 21
116.6628242746468
 31
0.0
  0
LINE
  5
1F9
330
1E
100
AcDbEntity
  8
_1-4_FYY____
  6
DASHED1
 62
     7
100
AcDbLine
 10
166.8582297101199
 20
109.762824274647
 30
0.0
 11
166.8582297101199
 21
100.4628242746467
 31
0.0
  0
LINE
  5
1FA
330
1E
100
AcDbEntity
  8
_1-4_FYY____
  6
DASHED1
 62
     7
100
AcDbLine
 10
174.9582297101198
 20
109.762824274647
 30
0.0
 11
174.9582297101198
 21
100.4628242746467
 31
0.0
  0
LINE
  5
1FB
330
1E
100
AcDbEntity
  8
_1-4_FYY____
  6
DASHED1
 62
     7
100
AcDbLine
 10
166.1582297101198
 20
99.76282427464703
 30
0.0
 11
166.8582297101199
 21
100.4628242746467
 31
0.0
  0
LINE
  5
1FC
330
1E
100
AcDbEntity
  8
_1-4_FYY____
  6
DASHED1
 62
     7
100
AcDbLine
 10
166.1582297101198
 20
81.13465027464679
 30
0.0
 11
166.1582297101198
 21
99.76282427464703
 31
0.0
  0
LINE
  5
1FD
330
1E
100
AcDbEntity
  8
_1-4_FYY____
  6
DASHED1
 62
     7
100
AcDbLine
 10
166.4082297101198
 20
69.26282427464679
 30
0.0
 11
166.4082297101198
 21
70.12612827464682
 31
0.0
  0
LINE
  5
1FE
330
1E
100
AcDbEntity
  8
_1-4_FYY____
  6
DASHED1
 62
     7
100
AcDbLine
 10
164.2831997101199
 20
70.50082827464677
 30
0.0
 11
166.1582297101198
 21
81.13465027464679
 31
0.0
  0
LINE
  5
1FF
330
1E
100
AcDbEntity
  8
_1-4_FYY____
  6
DASHED1
 62
     7
100
AcDbLine
 10
170.4082297101198
 20
80.76282427464702
 30
0.0
 11
171.4082297101198
 21
80.76282427464702
 31
0.0
  0
LINE
  5
200
330
1E
100
AcDbEntity
  8
_1-4_FYY____
  6
DASHED1
 62
     7
100
AcDbLine
 10
175.6582297101198
 20
99.76282427464703
 30
0.0
 11
174.9582297101198
 21
100.4628242746467
 31
0.0
  0
LINE
  5
201
330
1E
100
AcDbEntity
  8
_1-4_FYY____
  6
DASHED1
 62
     7
100
AcDbLine
 10
175.6582297101198
 20
81.13465027464679
 30
0.0
 11
175.6582297101198
 21
99.76282427464703
 31
0.0
  0
LINE
  5
202
330
1E
100
AcDbEntity
  8
_1-4_FYY____
  6
DASHED1
 62
     7
100
AcDbLine
 10
174.4082297101198
 20
68.26282427464701
 30
0.0
 11
167.4082297101198
 21
68.26282427464701
 31
0.0
  0
ARC
  5
203
330
1E
100
AcDbEntity
  8
_1-4_FYY____
  6
DASHED1
 62
     7
100
AcDbCircle
 10
174.4082297101198
 20
69.26282427464679
 30
0.0
 40
1.0
100
AcDbArc
 50
270.0
 51
0.0
  0
LINE
  5
204
330
1E
100
AcDbEntity
  8
_1-4_FYY____
  6
DASHED1
 62
     7
100
AcDbLine
 10
175.4082297101198
 20
69.26282427464679
 30
0.0
 11
175.4082297101198
 21
70.12612827464682
 31
0.0
  0
LINE
  5
205
330
1E
100
AcDbEntity
  8
_1-4_FYY____
  6
DASHED1
 62
     7
100
AcDbLine
 10
177.5332597101198
 20
70.50082827464677
 30
0.0
 11
173.3478267101198
 21
69.76282427464702
 31
0.0
  0
LINE
  5
206
330
1E
100
AcDbEntity
  8
_1-4_FYY____
  6
DASHED1
 62
     7
100
AcDbLine
 10
170.4082297101198
 20
80.76282427464702
 30
0.0
 11
168.4686327101197
 21
69.76282427464702
 31
0.0
  0
LINE
  5
207
330
1E
100
AcDbEntity
  8
_1-4_FYY____
  6
DASHED1
 62
     7
100
AcDbLine
 10
171.4082297101198
 20
80.76282427464702
 30
0.0
 11
173.3478267101198
 21
69.76282427464702
 31
0.0
  0
LINE
  5
208
330
1E
100
AcDbEntity
  8
_1-4_FYY____
  6
DASHED1
 62
     7
100
AcDbLine
 10
177.5332597101198
 20
70.50082827464677
 30
0.0
 11
175.6582297101198
 21
81.13465027464679
 31
0.0
  0
LINE
  5
209
330
1E
100
AcDbEntity
  8
_1-4_FYY____
  6
DASHED1
 62
     7
100
AcDbLine
 10
166.1582297101198
 20
99.76282427464703
 30
0.0
 11
175.6582297101198
 21
99.76282427464703
 31
0.0
  0
LINE
  5
20A
330
1E
100
AcDbEntity
  8
_1-4_FYY____
  6
DASHED1
 62
     7
100
AcDbLine
 10
166.8582297101199
 20
100.4628242746467
 30
0.0
 11
174.9582297101198
 21
100.4628242746467
 31
0.0
  0
LINE
  5
20B
330
1E
100
AcDbEntity
  8
_1-4_FYY____
  6
DASHED1
 62
     7
100
AcDbLine
 10
164.2831997101199
 20
70.50082827464677
 30
0.0
 11
168.4686327101197
 21
69.76282427464702
 31
0.0
  0
ARC
  5
20C
330
1E
100
AcDbEntity
  8
_1-4_FYY____
  6
DASHED1
 62
     7
100
AcDbCircle
 10
167.4082297101198
 20
69.26282427464679
 30
0.0
 40
1.0
100
AcDbArc
 50
180.0
 51
270.0
  0
ARC
  5
20D
330
1E
100
AcDbEntity
  8
_1-4_FYY____
  6
Continuous
 62
     3
100
AcDbCircle
 10
142.3509194435373
 20
112.762824274647
 30
0.0
 40
0.5
100
AcDbArc
 50
190.0
 51
270.0
  0
LINE
  5
20E
330
1E
100
AcDbEntity
  8
_1-4_FYY____
  6
Continuous
 62
     3
100
AcDbLine
 10
142.3509194435373
 20
112.2628242746467
 30
0.0
 11
145.3971992791943
 21
112.2628242746467
 31
0.0
  0
LINE
  5
20F
330
1E
100
AcDbEntity
  8
_1-4_FYY____
  6
Continuous
 62
     3
100
AcDbLine
 10
141.8585155670311
 20
112.6760001858133
 30
0.0
 11
141.4513208954708
 21
114.9853159236779
 31
0.0
  0
ARC
  5
210
330
1E
100
AcDbEntity
  8
_1-4_FYY____
  6
Continuous
 62
     3
100
AcDbCircle
 10
145.3971992791943
 20
112.762824274647
 30
0.0
 40
0.5
100
AcDbArc
 50
270.0
 51
9.999999999999987
  0
LINE
  5
211
330
1E
100
AcDbEntity
  8
_1-4_FYY____
  6
Continuous
 62
     3
100
AcDbLine
 10
145.8896031557005
 20
112.8496483634804
 30
0.0
 11
145.3905519075196
 21
115.6799086343456
 31
0.0
  0
ARC
  5
212
330
1E
100
AcDbEntity
  8
_1-4_FYY____
  6
Continuous
 62
     3
100
AcDbCircle
 10
147.9357658089088
 20
112.762824274647
 30
0.0
 40
0.5
100
AcDbArc
 50
190.0
 51
270.0
  0
LINE
  5
213
330
1E
100
AcDbEntity
  8
_1-4_FYY____
  6
Continuous
 62
     3
100
AcDbLine
 10
147.9357658089088
 20
112.2628242746467
 30
0.0
 11
151.9082297101198
 21
112.2628242746467
 31
0.0
  0
LINE
  5
214
330
1E
100
AcDbEntity
  8
_1-4_FYY____
  6
Continuous
 62
     3
100
AcDbLine
 10
147.4433619324025
 20
112.6760001858133
 30
0.0
 11
146.3034069596205
 21
119.1410060981355
 31
0.0
  0
LINE
  5
215
330
1E
100
AcDbEntity
  8
_1-4_FYY____
  6
Continuous
 62
     3
100
AcDbLine
 10
145.2169037298528
 20
116.6647163873576
 30
0.0
 11
145.7093076063589
 21
116.7515404761912
 31
0.0
  0
LINE
  5
216
330
1E
100
AcDbEntity
  8
_1-4_FYY____
  6
Continuous
 62
     3
100
AcDbLine
 10
140.7852688412978
 20
115.8832995878564
 30
0.0
 11
141.277672717804
 21
115.97012367669
 31
0.0
  0
LINE
  5
217
330
1E
100
AcDbEntity
  8
_1-4_FYY____
  6
Continuous
 62
     3
100
AcDbLine
 10
145.0432555521857
 20
117.6495241403698
 30
0.0
 11
145.5356594286919
 21
117.7363482292036
 31
0.0
  0
LINE
  5
218
330
1E
100
AcDbEntity
  8
_1-4_FYY____
  6
Continuous
 62
     3
100
AcDbLine
 10
140.6116206636308
 20
116.8681073408687
 30
0.0
 11
141.104024540137
 21
116.9549314297021
 31
0.0
  0
LINE
  5
219
330
1E
100
AcDbEntity
  8
_1-4_FYY____
  6
Continuous
 62
     3
100
AcDbLine
 10
140.4082297101199
 20
112.2628242746467
 30
0.0
 11
139.409752688535
 21
117.9254688544672
 31
0.0
  0
LINE
  5
21A
330
1E
100
AcDbEntity
  8
_1-4_FYY____
  6
Continuous
 62
     3
100
AcDbLine
 10
141.104024540137
 20
116.9549314297021
 30
0.0
 11
140.8869643180534
 21
118.1859411209675
 31
0.0
  0
LINE
  5
21B
330
1E
100
AcDbEntity
  8
_1-4_FYY____
  6
Continuous
 62
     3
100
AcDbLine
 10
145.0432555521857
 20
117.6495241403698
 30
0.0
 11
144.8261953301022
 21
118.8805338316352
 31
0.0
  0
LINE
  5
21C
330
1E
100
AcDbEntity
  8
_1-4_FYY____
  6
Continuous
 62
     3
100
AcDbLine
 10
140.7852688412978
 20
115.8832995878564
 30
0.0
 11
141.4513208954708
 21
114.9853159236779
 31
0.0
  0
LINE
  5
21D
330
1E
100
AcDbEntity
  8
_1-4_FYY____
  6
Continuous
 62
     3
100
AcDbLine
 10
140.6116206636308
 20
116.8681073408687
 30
0.0
 11
141.277672717804
 21
115.97012367669
 31
0.0
  0
ARC
  5
21E
330
1E
100
AcDbEntity
  8
_1-4_FYY____
  6
Continuous
 62
     3
100
AcDbCircle
 10
145.5648011448612
 20
119.0107699648853
 30
0.0
 40
0.7500000000000013
100
AcDbArc
 50
9.999999999999824
 51
189.9999999999998
  0
ARC
  5
21F
330
1E
100
AcDbEntity
  8
_1-4_FYY____
  6
Continuous
 62
     3
100
AcDbCircle
 10
140.1483585032942
 20
118.0557049877172
 30
0.0
 40
0.7499999999999976
100
AcDbArc
 50
9.999999999999923
 51
189.9999999999999
  0
LINE
  5
220
330
1E
100
AcDbEntity
  8
_1-4_FYY____
  6
Continuous
 62
     3
100
AcDbLine
 10
140.4082297101199
 20
109.762824274647
 30
0.0
 11
140.4082297101199
 21
112.2628242746467
 31
0.0
  0
LINE
  5
221
330
1E
100
AcDbEntity
  8
_1-4_FYY____
  6
Continuous
 62
     3
100
AcDbLine
 10
188.9082297101199
 20
109.762824274647
 30
0.0
 11
187.4082297101199
 21
109.762824274647
 31
0.0
  0
LINE
  5
222
330
1E
100
AcDbEntity
  8
_1-4_FYY____
  6
Continuous
 62
     3
100
AcDbLine
 10
187.4082297101199
 20
109.762824274647
 30
0.0
 11
187.4082297101199
 21
110.262824274647
 31
0.0
  0
LINE
  5
223
330
1E
100
AcDbEntity
  8
_1-4_FYY____
  6
Continuous
 62
     3
100
AcDbLine
 10
187.4082297101199
 20
110.262824274647
 30
0.0
 11
175.9082297101198
 21
110.262824274647
 31
0.0
  0
LINE
  5
224
330
1E
100
AcDbEntity
  8
_1-4_FYY____
  6
Continuous
 62
     3
100
AcDbLine
 10
175.9082297101198
 20
110.262824274647
 30
0.0
 11
175.9082297101198
 21
109.762824274647
 31
0.0
  0
ARC
  5
225
330
1E
100
AcDbEntity
  8
_1-4_FYY____
  6
Continuous
 62
     3
100
AcDbCircle
 10
184.1582297101199
 20
119.012824274647
 30
0.0
 40
0.75
100
AcDbArc
 50
90.0
 51
270.0
  0
ARC
  5
226
330
1E
100
AcDbEntity
  8
_1-4_FYY____
  6
Continuous
 62
     3
100
AcDbCircle
 10
185.1582297101199
 20
115.012824274647
 30
0.0
 40
0.75
100
AcDbArc
 50
90.0
 51
270.0
  0
ARC
  5
227
330
1E
100
AcDbEntity
  8
_1-4_FYY____
  6
Continuous
 62
     3
100
AcDbCircle
 10
187.1082297101199
 20
117.9628242746467
 30
0.0
 40
0.2999999999999998
100
AcDbArc
 50
0.0
 51
90.0
  0
LINE
  5
228
330
1E
100
AcDbEntity
  8
_1-4_FYY____
  6
Continuous
 62
     3
100
AcDbLine
 10
187.1082297101199
 20
118.262824274647
 30
0.0
 11
184.1582297101199
 21
118.262824274647
 31
0.0
  0
LINE
  5
229
330
1E
100
AcDbEntity
  8
_1-4_FYY____
  6
Continuous
 62
     3
100
AcDbLine
 10
187.1082297101199
 20
115.7628242746467
 30
0.0
 11
185.1582297101199
 21
115.7628242746467
 31
0.0
  0
ARC
  5
22A
330
1E
100
AcDbEntity
  8
_1-4_FYY____
  6
Continuous
 62
     3
100
AcDbCircle
 10
187.1082297101199
 20
116.0628242746468
 30
0.0
 40
0.2999999999999998
100
AcDbArc
 50
270.0
 51
0.0
  0
LINE
  5
22B
330
1E
100
AcDbEntity
  8
_1-4_FYY____
  6
Continuous
 62
     3
100
AcDbLine
 10
187.4082297101199
 20
116.0628242746468
 30
0.0
 11
187.4082297101199
 21
117.9628242746467
 31
0.0
  0
ARC
  5
22C
330
1E
100
AcDbEntity
  8
_1-4_FYY____
  6
Continuous
 62
     3
100
AcDbCircle
 10
187.1082297101199
 20
113.9628242746467
 30
0.0
 40
0.2999999999999998
100
AcDbArc
 50
0.0
 51
90.0
  0
LINE
  5
22D
330
1E
100
AcDbEntity
  8
_1-4_FYY____
  6
Continuous
 62
     3
100
AcDbLine
 10
187.1082297101199
 20
114.262824274647
 30
0.0
 11
185.1582297101199
 21
114.262824274647
 31
0.0
  0
ARC
  5
22E
330
1E
100
AcDbEntity
  8
_1-4_FYY____
  6
Continuous
 62
     3
100
AcDbCircle
 10
187.1082297101199
 20
112.5628242746468
 30
0.0
 40
0.2999999999999998
100
AcDbArc
 50
270.0
 51
0.0
  0
LINE
  5
22F
330
1E
100
AcDbEntity
  8
_1-4_FYY____
  6
Continuous
 62
     3
100
AcDbLine
 10
187.4082297101199
 20
112.5628242746468
 30
0.0
 11
187.4082297101199
 21
113.9628242746467
 31
0.0
  0
LINE
  5
230
330
1E
100
AcDbEntity
  8
_1-4_FYY____
  6
Continuous
 62
     3
100
AcDbLine
 10
188.4082297101199
 20
119.7628242746467
 30
0.0
 11
184.1582297101199
 21
119.7628242746467
 31
0.0
  0
ARC
  5
231
330
1E
100
AcDbEntity
  8
_1-4_FYY____
  6
Continuous
 62
     3
100
AcDbCircle
 10
188.4082297101199
 20
119.2628242746467
 30
0.0
 40
0.5
100
AcDbArc
 50
0.0
 51
90.0
  0
LINE
  5
232
330
1E
100
AcDbEntity
  8
_1-4_FYY____
  6
Continuous
 62
     3
100
AcDbLine
 10
188.9082297101199
 20
119.2628242746467
 30
0.0
 11
188.9082297101199
 21
109.762824274647
 31
0.0
  0
LINE
  5
233
330
1E
100
AcDbEntity
  8
_1-4_FYY____
  6
Continuous
 62
     3
100
AcDbLine
 10
175.9082297101198
 20
109.762824274647
 30
0.0
 11
165.9082297101198
 21
109.762824274647
 31
0.0
  0
LINE
  5
234
330
1E
100
AcDbEntity
  8
_1-4_FYY____
  6
Continuous
 62
     3
100
AcDbLine
 10
170.4082297101198
 20
112.2628242746467
 30
0.0
 11
154.7082297101198
 21
112.2628242746467
 31
0.0
  0
LINE
  5
235
330
1E
100
AcDbEntity
  8
_1-4_FYY____
  6
Continuous
 62
     3
100
AcDbLine
 10
187.1082297101199
 20
112.2628242746467
 30
0.0
 11
171.4082297101198
 21
112.2628242746467
 31
0.0
  0
LINE
  5
236
330
1E
100
AcDbEntity
  8
_1-4_FYY____
  6
Continuous
 62
     3
100
AcDbLine
 10
165.9082297101198
 20
109.762824274647
 30
0.0
 11
165.9082297101198
 21
110.262824274647
 31
0.0
  0
LINE
  5
237
330
1E
100
AcDbEntity
  8
_1-4_FYY____
  6
Continuous
 62
     3
100
AcDbLine
 10
165.9082297101198
 20
110.262824274647
 30
0.0
 11
154.4082297101198
 21
110.262824274647
 31
0.0
  0
LINE
  5
238
330
1E
100
AcDbEntity
  8
_1-4_FYY____
  6
Continuous
 62
     3
100
AcDbLine
 10
154.4082297101198
 20
110.262824274647
 30
0.0
 11
154.4082297101198
 21
109.762824274647
 31
0.0
  0
LINE
  5
239
330
1E
100
AcDbEntity
  8
_1-4_FYY____
  6
Continuous
 62
     3
100
AcDbLine
 10
154.4082297101198
 20
109.762824274647
 30
0.0
 11
152.4082297101198
 21
109.762824274647
 31
0.0
  0
ARC
  5
23A
330
1E
100
AcDbEntity
  8
_1-4_FYY____
  6
Continuous
 62
     3
100
AcDbCircle
 10
153.4082297101198
 20
127.7628242746468
 30
0.0
 40
1.0
100
AcDbArc
 50
0.0
 51
180.0
  0
LINE
  5
23B
330
1E
100
AcDbEntity
  8
_1-4_FYY____
  6
Continuous
 62
     3
100
AcDbLine
 10
141.9082297101198
 20
110.762824274647
 30
0.0
 11
141.9082297101198
 21
109.762824274647
 31
0.0
  0
LINE
  5
23C
330
1E
100
AcDbEntity
  8
_1-4_FYY____
  6
Continuous
 62
     3
100
AcDbLine
 10
141.9082297101198
 20
109.762824274647
 30
0.0
 11
140.4082297101199
 21
109.762824274647
 31
0.0
  0
LINE
  5
23D
330
1E
100
AcDbEntity
  8
_1-4_FYY____
  6
Continuous
 62
     3
100
AcDbLine
 10
170.9082297101198
 20
111.7628242746467
 30
0.0
 11
170.4082297101198
 21
112.2628242746467
 31
0.0
  0
LINE
  5
23E
330
1E
100
AcDbEntity
  8
_1-4_FYY____
  6
Continuous
 62
     3
100
AcDbLine
 10
152.4082297101198
 20
109.762824274647
 30
0.0
 11
152.4082297101198
 21
110.762824274647
 31
0.0
  0
LINE
  5
23F
330
1E
100
AcDbEntity
  8
_1-4_FYY____
  6
Continuous
 62
     3
100
AcDbLine
 10
152.4082297101198
 20
110.762824274647
 30
0.0
 11
141.9082297101198
 21
110.762824274647
 31
0.0
  0
LINE
  5
240
330
1E
100
AcDbEntity
  8
_1-4_FYY____
  6
Continuous
 62
     3
100
AcDbLine
 10
152.4082297101198
 20
112.762824274647
 30
0.0
 11
152.4082297101198
 21
127.7628242746468
 31
0.0
  0
ARC
  5
241
330
1E
100
AcDbEntity
  8
_1-4_FYY____
  6
Continuous
 62
     3
100
AcDbCircle
 10
151.9082297101198
 20
112.762824274647
 30
0.0
 40
0.5
100
AcDbArc
 50
270.0
 51
0.0
  0
ARC
  5
242
330
1E
100
AcDbEntity
  8
_1-4_FYY____
  6
Continuous
 62
     3
100
AcDbCircle
 10
154.7082297101198
 20
112.5628242746468
 30
0.0
 40
0.2999999999999998
100
AcDbArc
 50
180.0
 51
270.0
  0
LINE
  5
243
330
1E
100
AcDbEntity
  8
_1-4_FYY____
  6
Continuous
 62
     3
100
AcDbLine
 10
154.9082297101198
 20
119.7628242746467
 30
0.0
 11
157.6582297101198
 21
119.7628242746467
 31
0.0
  0
ARC
  5
244
330
1E
100
AcDbEntity
  8
_1-4_FYY____
  6
Continuous
 62
     3
100
AcDbCircle
 10
154.9082297101198
 20
120.2628242746467
 30
0.0
 40
0.5
100
AcDbArc
 50
180.0
 51
270.0
  0
LINE
  5
245
330
1E
100
AcDbEntity
  8
_1-4_FYY____
  6
Continuous
 62
     3
100
AcDbLine
 10
154.4082297101198
 20
120.2628242746467
 30
0.0
 11
154.4082297101198
 21
127.7628242746468
 31
0.0
  0
ARC
  5
246
330
1E
100
AcDbEntity
  8
_1-4_FYY____
  6
Continuous
 62
     3
100
AcDbCircle
 10
157.6582297101198
 20
119.012824274647
 30
0.0
 40
0.75
100
AcDbArc
 50
270.0
 51
90.0
  0
ARC
  5
247
330
1E
100
AcDbEntity
  8
_1-4_FYY____
  6
Continuous
 62
     3
100
AcDbCircle
 10
156.6582297101198
 20
115.012824274647
 30
0.0
 40
0.75
100
AcDbArc
 50
270.0
 51
90.0
  0
LINE
  5
248
330
1E
100
AcDbEntity
  8
_1-4_FYY____
  6
Continuous
 62
     3
100
AcDbLine
 10
154.7082297101198
 20
114.262824274647
 30
0.0
 11
156.6582297101198
 21
114.262824274647
 31
0.0
  0
ARC
  5
249
330
1E
100
AcDbEntity
  8
_1-4_FYY____
  6
Continuous
 62
     3
100
AcDbCircle
 10
154.7082297101198
 20
113.9628242746467
 30
0.0
 40
0.2999999999999998
100
AcDbArc
 50
90.0
 51
180.0
  0
LINE
  5
24A
330
1E
100
AcDbEntity
  8
_1-4_FYY____
  6
Continuous
 62
     3
100
AcDbLine
 10
154.4082297101198
 20
113.9628242746467
 30
0.0
 11
154.4082297101198
 21
112.5628242746468
 31
0.0
  0
LINE
  5
24B
330
1E
100
AcDbEntity
  8
_1-4_FYY____
  6
Continuous
 62
     3
100
AcDbLine
 10
154.7082297101198
 20
115.7628242746467
 30
0.0
 11
156.6582297101198
 21
115.7628242746467
 31
0.0
  0
ARC
  5
24C
330
1E
100
AcDbEntity
  8
_1-4_FYY____
  6
Continuous
 62
     3
100
AcDbCircle
 10
154.7082297101198
 20
116.0628242746468
 30
0.0
 40
0.2999999999999998
100
AcDbArc
 50
180.0
 51
270.0
  0
LINE
  5
24D
330
1E
100
AcDbEntity
  8
_1-4_FYY____
  6
Continuous
 62
     3
100
AcDbLine
 10
154.4082297101198
 20
117.9628242746467
 30
0.0
 11
154.4082297101198
 21
116.0628242746468
 31
0.0
  0
ARC
  5
24E
330
1E
100
AcDbEntity
  8
_1-4_FYY____
  6
Continuous
 62
     3
100
AcDbCircle
 10
154.7082297101198
 20
117.9628242746467
 30
0.0
 40
0.2999999999999998
100
AcDbArc
 50
90.0
 51
180.0
  0
LINE
  5
24F
330
1E
100
AcDbEntity
  8
_1-4_FYY____
  6
Continuous
 62
     3
100
AcDbLine
 10
154.7082297101198
 20
118.262824274647
 30
0.0
 11
157.6582297101198
 21
118.262824274647
 31
0.0
  0
LINE
  5
250
330
1E
100
AcDbEntity
  8
_1-4_FYY____
  6
Continuous
 62
     3
100
AcDbLine
 10
170.9082297101198
 20
111.7628242746467
 30
0.0
 11
171.4082297101198
 21
112.2628242746467
 31
0.0
  0
LINE
  5
251
330
1E
100
AcDbEntity
  8
_1-4_FYY____
  6
Continuous
 62
     3
100
AcDbLine
 10
145.7093076063589
 20
116.7515404761912
 30
0.0
 11
145.3905519075196
 21
115.6799086343456
 31
0.0
  0
LINE
  5
252
330
1E
100
AcDbEntity
  8
_1-4_FYY____
  6
Continuous
 62
     3
100
AcDbLine
 10
145.5356594286919
 20
117.7363482292036
 30
0.0
 11
145.2169037298528
 21
116.6647163873576
 31
0.0
  0
LINE
  5
253
330
1E
100
AcDbEntity
  8
_1-7_____________
  6
DASHED1
 62
     4
100
AcDbLine
 10
167.1301994063542
 20
153.3159964145641
 30
0.0
 11
168.3757951649362
 21
129.5486134874053
 31
0.0
  0
LINE
  5
254
330
1E
100
AcDbEntity
  8
_1-7_____________
  6
DASHED1
 62
     7
100
AcDbLine
 10
166.562478515846
 20
153.2862434234399
 30
0.0
 11
167.8080742744281
 21
129.5188604962811
 31
0.0
  0
LINE
  5
255
330
1E
100
AcDbEntity
  8
_1-7_____________
  6
DASHED1
 62
     7
100
AcDbLine
 10
172.5542557243736
 20
153.6002591608978
 30
0.0
 11
173.7998514829557
 21
129.832876233739
 31
0.0
  0
LINE
  5
256
330
1E
100
AcDbEntity
  8
_1-7_____________
  6
DASHED1
 62
     4
100
AcDbLine
 10
171.9865348338657
 20
153.5705061697735
 30
0.0
 11
173.2321305924478
 21
129.8031232426148
 31
0.0
  0
ARC
  5
257
330
1E
100
AcDbEntity
  8
_1-7_____________
  6
DASHED1
 62
     7
100
AcDbCircle
 10
158.994594894299
 20
151.087157226166
 30
0.0
 40
1.0
100
AcDbArc
 50
93.00000000000006
 51
142.3731526377169
  0
LINE
  5
258
330
1E
100
AcDbEntity
  8
_1-7_____________
  6
DASHED1
 62
     7
100
AcDbLine
 10
180.2163440671579
 20
154.0018121956135
 30
0.0
 11
158.9003901730617
 21
152.8846903887244
 31
0.0
  0
ARC
  5
259
330
1E
100
AcDbEntity
  8
_1-7_____________
  6
DASHED1
 62
     7
100
AcDbCircle
 10
180.310548788395
 20
152.2042790330553
 30
0.0
 40
1.8
100
AcDbArc
 50
43.62684736228313
 51
92.99999999999998
  0
LINE
  5
25A
330
1E
100
AcDbEntity
  8
_1-7_____________
  6
DASHED1
 62
     7
100
AcDbLine
 10
180.2582128321522
 20
153.20290856781
 30
0.0
 11
158.942258938056
 21
152.0857867609205
 31
0.0
  0
LINE
  5
25B
330
1E
100
AcDbEntity
  8
_1-7_____________
  6
DASHED1
 62
     7
100
AcDbLine
 10
181.0343974319576
 20
152.8942378298052
 30
0.0
 11
193.9643485257158
 21
139.3291849532623
 31
0.0
  0
ARC
  5
25C
330
1E
100
AcDbEntity
  8
_1-7_____________
  6
DASHED1
 62
     7
100
AcDbCircle
 10
180.310548788395
 20
152.2042790330553
 30
0.0
 40
1.0
100
AcDbArc
 50
43.62684736228313
 51
92.99999999999998
  0
ARC
  5
25D
330
1E
100
AcDbEntity
  8
_1-7_____________
  6
DASHED1
 62
     7
100
AcDbCircle
 10
195.2672760676239
 20
140.5711108047275
 30
0.0
 40
1.0
100
AcDbArc
 50
223.6268473622829
 51
322.3731512671328
  0
ARC
  5
25E
330
1E
100
AcDbEntity
  8
_1-7_____________
  6
DASHED1
 62
     7
100
AcDbCircle
 10
195.2672760676239
 20
140.5711108047275
 30
0.0
 40
1.8
100
AcDbArc
 50
223.6268473622833
 51
322.3731518762816
  0
LINE
  5
25F
330
1E
100
AcDbEntity
  8
_1-7_____________
  6
DASHED1
 62
     7
100
AcDbLine
 10
142.5420742960554
 20
139.4359001265472
 30
0.0
 11
144.6119507028373
 21
137.2643541785151
 31
0.0
  0
LINE
  5
260
330
1E
100
AcDbEntity
  8
_1-7_____________
  6
DASHED1
 62
     7
100
AcDbLine
 10
141.9629953811833
 20
138.8839330891703
 30
0.0
 11
142.5420742960554
 21
139.4359001265472
 31
0.0
  0
LINE
  5
261
330
1E
100
AcDbEntity
  8
_1-7_____________
  6
DASHED1
 62
     7
100
AcDbLine
 10
141.9629953811833
 20
138.8839330891703
 30
0.0
 11
144.0328717879871
 21
136.7123871411154
 31
0.0
  0
ARC
  5
262
330
1E
100
AcDbEntity
  8
_1-7_____________
  6
DASHED1
 62
     7
100
AcDbCircle
 10
145.3357993298952
 20
137.9543129925803
 30
0.0
 40
1.0
100
AcDbArc
 50
223.626848732867
 51
322.3731526377171
  0
ARC
  5
263
330
1E
100
AcDbEntity
  8
_1-7_____________
  6
DASHED1
 62
     7
100
AcDbCircle
 10
145.3357993298952
 20
137.9543129925803
 30
0.0
 40
1.8
100
AcDbArc
 50
223.6268481237183
 51
322.3731526377168
  0
LINE
  5
264
330
1E
100
AcDbEntity
  8
_1-7_____________
  6
DASHED1
 62
     7
100
AcDbLine
 10
157.5689883104427
 20
152.1860866452216
 30
0.0
 11
146.1278029729889
 21
137.3437966297148
 31
0.0
  0
LINE
  5
265
330
1E
100
AcDbEntity
  8
_1-7_____________
  6
DASHED1
 62
     7
100
AcDbLine
 10
158.2025912366011
 20
151.6976735700857
 30
0.0
 11
146.7614058991472
 21
136.8553835545792
 31
0.0
  0
ARC
  5
266
330
1E
100
AcDbEntity
  8
_1-7_____________
  6
DASHED1
 62
     7
100
AcDbCircle
 10
158.994594894299
 20
151.087157226166
 30
0.0
 40
1.8
100
AcDbArc
 50
93.00000000000006
 51
142.3731526377169
  0
LINE
  5
267
330
1E
100
AcDbEntity
  8
_1-7_____________
  6
DASHED1
 62
     7
100
AcDbLine
 10
197.8908287571054
 20
142.3366054339332
 30
0.0
 11
196.0592797107175
 21
139.9605944418622
 31
0.0
  0
LINE
  5
268
330
1E
100
AcDbEntity
  8
_1-7_____________
  6
DASHED1
 62
     7
100
AcDbLine
 10
181.6134763468079
 20
153.4462048672052
 30
0.0
 11
194.5434274240612
 21
139.8811520079775
 31
0.0
  0
ARC
  5
269
330
1E
100
AcDbEntity
  8
_1-7_____________
  6
DASHED1
 62
     7
100
AcDbCircle
 10
170.7422958677945
 20
156.6474305516175
 30
0.0
 40
0.5999999999999998
100
AcDbArc
 50
79.299767
 51
183.0
  0
ARC
  5
26A
330
1E
100
AcDbEntity
  8
_1-7_____________
  6
DASHED1
 62
     7
100
AcDbCircle
 10
168.0459961239573
 20
156.5061234697618
 30
0.0
 40
0.5999999999999998
100
AcDbArc
 50
2.999999999999965
 51
106.7002329999998
  0
LINE
  5
26B
330
1E
100
AcDbEntity
  8
_1-7_____________
  6
DASHED1
 62
     7
100
AcDbLine
 10
168.6472277694129
 20
156.498333827416
 30
0.0
 11
170.1451720715446
 21
156.5768377617803
 31
0.0
  0
ARC
  5
26C
330
1E
100
AcDbEntity
  8
_1-7_____________
  6
DASHED1
 62
     7
100
AcDbCircle
 10
171.3715978152776
 20
153.343153273634
 30
0.0
 40
3.45
100
AcDbArc
 50
6.23783699999999
 51
53.69087599999998
  0
ARC
  5
26D
330
1E
100
AcDbEntity
  8
_1-7_____________
  6
DASHED1
 62
     7
100
AcDbCircle
 10
167.7602618100217
 20
153.1493819936798
 30
0.0
 40
3.45
100
AcDbArc
 50
132.1795109999999
 51
179.6872569999999
  0
ARC
  5
26E
330
1E
100
AcDbEntity
  8
_1-7_____________
  6
DASHED1
 62
     7
100
AcDbCircle
 10
169.683973362757
 20
151.0465414073874
 30
0.0
 40
6.299999999999998
100
AcDbArc
 50
53.69062899999999
 51
132.303131
  0
LINE
  5
26F
330
1E
100
AcDbEntity
  8
_1-7_____________
  6
Continuous
 62
     4
100
AcDbLine
 10
168.364483993225
 20
118.901930597538
 30
0.0
 11
174.3562612017525
 21
119.2159463349956
 31
0.0
  0
LINE
  5
270
330
1E
100
AcDbEntity
  8
_1-7_____________
  6
Continuous
 62
     7
100
AcDbLine
 10
173.7998514829557
 20
129.832876233739
 30
0.0
 11
173.9041183143837
 21
127.8433465712624
 31
0.0
  0
LINE
  5
271
330
1E
100
AcDbEntity
  8
_1-7_____________
  6
Continuous
 62
     7
100
AcDbLine
 10
174.0925277568584
 20
124.248280246146
 30
0.0
 11
174.3562612017525
 21
119.2159463349956
 31
0.0
  0
LINE
  5
272
330
1E
100
AcDbEntity
  8
_1-7_____________
  6
Continuous
 62
     7
100
AcDbLine
 10
167.8080742744281
 20
129.5188604962811
 30
0.0
 11
167.9123411058564
 21
127.5293308338045
 31
0.0
  0
LINE
  5
273
330
1E
100
AcDbEntity
  8
_1-7_____________
  6
Continuous
 62
     7
100
AcDbLine
 10
168.1007505483309
 20
123.9342645086882
 30
0.0
 11
168.364483993225
 21
118.901930597538
 31
0.0
  0
LINE
  5
274
330
1E
100
AcDbEntity
  8
_1-7_____________
  6
Continuous
 62
     4
100
AcDbLine
 10
173.2321305924478
 20
129.8031232426148
 30
0.0
 11
173.3363974238758
 21
127.8135935801382
 31
0.0
  0
LINE
  5
275
330
1E
100
AcDbEntity
  8
_1-7_____________
  6
Continuous
 62
     4
100
AcDbLine
 10
168.3757951649362
 20
129.5486134874053
 30
0.0
 11
168.4800619963642
 21
127.5590838249288
 31
0.0
  0
POINT
  5
276
330
1E
100
AcDbEntity
  8
_1-7_____________
 62
     4
100
AcDbPoint
 10
170.9082297101198
 20
127.6863387025335
 30
0.0
  0
ARC
  5
277
330
1E
100
AcDbEntity
  8
_1-3_止水補助板
  6
Continuous
 62
     7
100
AcDbCircle
 10
120.9367894840187
 20
106.7632321881862
 30
0.0
 40
1.0
100
AcDbArc
 50
91.63657704161671
 51
175.0
  0
LINE
  5
278
330
1E
100
AcDbEntity
  8
_1-7_____________
  6
DASHED1
 62
     7
100
AcDbLine
 10
198.524431683283
 20
141.8481923588226
 30
0.0
 11
197.8908287571054
 21
142.3366054339332
 31
0.0
  0
LINE
  5
279
330
1E
100
AcDbEntity
  8
_1-7_____________
  6
DASHED1
 62
     7
100
AcDbLine
 10
198.524431683283
 20
141.8481923588226
 30
0.0
 11
196.6928826368758
 21
139.4721813667264
 31
0.0
  0
ARC
  5
27A
330
1E
100
AcDbEntity
  8
_1-1_耐火帯
  6
Continuous
 62
     7
100
AcDbCircle
 10
299.9082297101197
 20
51.5016337151614
 30
0.0
 40
1.761190559485403
100
AcDbArc
 50
90.0
 51
206.8710117095108
  0
ARC
  5
27B
330
1E
100
AcDbEntity
  8
_1-1_耐火帯
  6
Continuous
 62
     7
100
AcDbCircle
 10
305.5082297101196
 20
43.42255760798019
 30
0.0
 40
7.340266666666629
100
AcDbArc
 50
32.1062702222369
 51
90.0
  0
ARC
  5
27C
330
1E
100
AcDbEntity
  8
_1-1_耐火帯
  6
Continuous
 62
     7
100
AcDbCircle
 10
491.90822971012
 20
51.5016337151614
 30
0.0
 40
1.761190559485403
100
AcDbArc
 50
333.128988290489
 51
90.0
  0
ARC
  5
27D
330
1E
100
AcDbEntity
  8
_1-1_耐火帯
  6
Continuous
 62
     7
100
AcDbCircle
 10
395.90822971012
 20
100.1441576079806
 30
0.0
 40
109.3813333333336
100
AcDbArc
 50
206.8710117095112
 51
333.1289882904886
  0
ARC
  5
27E
330
1E
100
AcDbEntity
  8
_1-1_耐火帯
  6
Continuous
 62
     7
100
AcDbCircle
 10
486.3082297101201
 20
43.42255760798019
 30
0.0
 40
7.340266666666629
100
AcDbArc
 50
90.0
 51
147.893729777763
  0
ARC
  5
27F
330
1E
100
AcDbEntity
  8
_1-1_耐火帯
  6
Continuous
 62
     7
100
AcDbCircle
 10
395.90822971012
 20
100.1441576079806
 30
0.0
 40
99.38133333333365
100
AcDbArc
 50
212.1062702222368
 51
327.8937297777631
  0
ARC
  5
280
330
1E
100
AcDbEntity
  8
_1-3_止水補助板
  6
Continuous
 62
     7
100
AcDbCircle
 10
395.9082297101198
 20
100.3343634479455
 30
0.0
 40
94.57153917329874
100
AcDbArc
 50
192.2004687273806
 51
347.9498994794443
  0
LINE
  5
281
330
1E
100
AcDbEntity
  8
_1-3_止水補助板
  6
Continuous
 62
     7
100
AcDbLine
 10
299.5814694828719
 20
103.0769609256548
 30
0.0
 11
304.4500818401262
 21
80.55962877335327
 31
0.0
  0
LINE
  5
282
330
1E
100
AcDbEntity
  8
_1-3_止水補助板
  6
Continuous
 62
     7
100
AcDbLine
 10
492.2349899373678
 20
103.0769609256548
 30
0.0
 11
487.3663775801136
 21
80.55962877335288
 31
0.0
  0
ARC
  5
283
330
1E
100
AcDbEntity
  8
_1-3_止水補助板
  6
Continuous
 62
     7
100
AcDbCircle
 10
395.9082297101198
 20
100.3343634479455
 30
0.0
 40
93.57153917329874
100
AcDbArc
 50
192.2004687273804
 51
347.7995312726193
  0
LINE
  5
284
330
1E
100
AcDbEntity
  8
_1-0_躯体
  6
Continuous
 62
     7
100
AcDbLine
 10
670.9082297101198
 20
107.762824274647
 30
0.0
 11
495.9082297101198
 21
107.762824274647
 31
0.0
  0
LINE
  5
285
330
1E
100
AcDbEntity
  8
_1-0_躯体
  6
Continuous
 62
     7
100
AcDbLine
 10
120.9082297101198
 20
107.762824274647
 30
0.0
 11
295.9082297101197
 21
107.762824274647
 31
0.0
  0
LINE
  5
286
330
1E
100
AcDbEntity
  8
_1-6______
  6
Continuous
 62
     7
100
AcDbLine
 10
388.4185081994606
 20
168.6183029399032
 30
0.0
 11
388.6278520244323
 21
164.6237848008848
 31
0.0
  0
LINE
  5
287
330
1E
100
AcDbEntity
  8
_1-6______
  6
Continuous
 62
     7
100
AcDbLine
 10
388.4185081994606
 20
168.6183029399032
 30
0.0
 11
395.90822971012
 21
169.0108226117254
 31
0.0
  0
LINE
  5
288
330
1E
100
AcDbEntity
  8
_1-6______
  6
Continuous
 62
     7
100
AcDbLine
 10
403.3979512207794
 20
168.6183029399032
 30
0.0
 11
403.1886073958075
 21
164.6237848008848
 31
0.0
  0
LINE
  5
289
330
1E
100
AcDbEntity
  8
_1-6______
  6
Continuous
 62
     7
100
AcDbLine
 10
403.3979512207794
 20
168.6183029399032
 30
0.0
 11
395.90822971012
 21
169.0108226117254
 31
0.0
  0
LINE
  5
28A
330
1E
100
AcDbEntity
  8
_1-6______
  6
Continuous
 62
     4
100
AcDbLine
 10
403.3508842455217
 20
167.720211551542
 30
0.0
 11
402.4005196854053
 21
168.6705761116588
 31
0.0
  0
LINE
  5
28B
330
1E
100
AcDbEntity
  8
_1-6______
  6
Continuous
 62
     4
100
AcDbLine
 10
403.2804592698657
 20
166.3764229648245
 30
0.0
 11
400.9080912637119
 21
168.7487909709782
 31
0.0
  0
LINE
  5
28C
330
1E
100
AcDbEntity
  8
_1-6______
  6
Continuous
 62
     4
100
AcDbLine
 10
403.2100342942103
 20
165.0326343781068
 30
0.0
 11
399.4156628420191
 21
168.8270058302982
 31
0.0
  0
LINE
  5
28D
330
1E
100
AcDbEntity
  8
_1-6______
  6
Continuous
 62
     4
100
AcDbLine
 10
402.1502524312595
 20
164.6782026786844
 30
0.0
 11
397.9232344203259
 21
168.905220689618
 31
0.0
  0
LINE
  5
28E
330
1E
100
AcDbEntity
  8
_1-6______
  6
Continuous
 62
     4
100
AcDbLine
 10
400.6578240095664
 20
164.756417538004
 30
0.0
 11
396.4308059986326
 21
168.9834355489382
 31
0.0
  0
LINE
  5
28F
330
1E
100
AcDbEntity
  8
_1-6______
  6
Continuous
 62
     4
100
AcDbLine
 10
399.1653955878732
 20
164.834632397324
 30
0.0
 11
395.0349709270332
 21
168.965057058164
 31
0.0
  0
LINE
  5
290
330
1E
100
AcDbEntity
  8
_1-6______
  6
Continuous
 62
     4
100
AcDbLine
 10
397.67296716618
 20
164.9128472566435
 30
0.0
 11
393.6911823403154
 21
168.8946320825085
 31
0.0
  0
LINE
  5
291
330
1E
100
AcDbEntity
  8
_1-6______
  6
Continuous
 62
     4
100
AcDbLine
 10
396.1805387444882
 20
164.991062115964
 30
0.0
 11
392.3473937535989
 21
168.8242071068532
 31
0.0
  0
LINE
  5
292
330
1E
100
AcDbEntity
  8
_1-6______
  6
Continuous
 62
     4
100
AcDbLine
 10
394.8096292792466
 20
164.9477580188321
 30
0.0
 11
391.0036051668818
 21
168.753782131197
 31
0.0
  0
LINE
  5
293
330
1E
100
AcDbEntity
  8
_1-6______
  6
Continuous
 62
     4
100
AcDbLine
 10
389.184063566119
 20
169.1591101695865
 30
0.0
 11
388.5954778787406
 21
169.7476958569652
 31
0.0
  0
LINE
  5
294
330
1E
100
AcDbEntity
  8
_1-6______
  6
Continuous
 62
     4
100
AcDbLine
 10
393.4658406925294
 20
164.8773330431763
 30
0.0
 11
389.6598165801644
 21
168.6833571555414
 31
0.0
  0
LINE
  5
295
330
1E
100
AcDbEntity
  8
_1-6______
  6
Continuous
 62
     4
100
AcDbLine
 10
392.1220521058115
 20
164.8069080675205
 30
0.0
 11
388.4244730327502
 21
168.5044871405819
 31
0.0
  0
LINE
  5
296
330
1E
100
AcDbEntity
  8
_1-6______
  6
Continuous
 62
     4
100
AcDbLine
 10
390.7782635190944
 20
164.7364830918646
 30
0.0
 11
388.5026878920704
 21
167.0120587188888
 31
0.0
  0
LINE
  5
297
330
1E
100
AcDbEntity
  8
_1-6______
  6
Continuous
 62
     4
100
AcDbLine
 10
389.4344749323764
 20
164.6660581162092
 30
0.0
 11
388.5809027513902
 21
165.5196302971954
 31
0.0
  0
LINE
  5
298
330
1E
100
AcDbEntity
  8
_1-6______
  6
Continuous
 62
     7
100
AcDbLine
 10
403.2789262172752
 20
170.8533461357744
 30
0.0
 11
403.1886073958075
 21
169.1299603578753
 31
0.0
  0
LINE
  5
299
330
1E
100
AcDbEntity
  8
_1-6______
  6
Continuous
 62
     4
100
AcDbLine
 10
398.8872855906521
 20
169.3553830816648
 30
0.0
 11
397.0635905993061
 21
171.179078073011
 31
0.0
  0
LINE
  5
29A
330
1E
100
AcDbEntity
  8
_1-6______
  6
Continuous
 62
     4
100
AcDbLine
 10
403.2673357662534
 20
170.6321871555556
 30
0.0
 11
403.0333042860769
 21
170.8662186357318
 31
0.0
  0
LINE
  5
29B
330
1E
100
AcDbEntity
  8
_1-6______
  6
Continuous
 62
     4
100
AcDbLine
 10
403.1969107905976
 20
169.2883985688393
 30
0.0
 11
401.5408758643856
 21
170.9444334950516
 31
0.0
  0
LINE
  5
29C
330
1E
100
AcDbEntity
  8
_1-6______
  6
Continuous
 62
     4
100
AcDbLine
 10
401.8721424340382
 20
169.1989533630255
 30
0.0
 11
400.0484474426924
 21
171.0226483543713
 31
0.0
  0
LINE
  5
29D
330
1E
100
AcDbEntity
  8
_1-6______
  6
Continuous
 62
     4
100
AcDbLine
 10
400.3797140123452
 20
169.2771682223453
 30
0.0
 11
398.5560190209994
 21
171.1008632136912
 31
0.0
  0
LINE
  5
29E
330
1E
100
AcDbEntity
  8
_1-6______
  6
Continuous
 62
     4
100
AcDbLine
 10
397.3948571689589
 20
169.4335979409849
 30
0.0
 11
395.5979081008554
 21
171.2305470090884
 31
0.0
  0
LINE
  5
29F
330
1E
100
AcDbEntity
  8
_1-6______
  6
Continuous
 62
     7
100
AcDbLine
 10
388.5371578253641
 20
170.8605087670779
 30
0.0
 11
388.6278520244323
 21
169.1299603578753
 31
0.0
  0
LINE
  5
2A0
330
1E
100
AcDbEntity
  8
_1-6______
  6
Continuous
 62
     4
100
AcDbLine
 10
395.9030064997046
 20
169.5112350478658
 30
0.0
 11
394.2541195141377
 21
171.1601220334325
 31
0.0
  0
LINE
  5
2A1
330
1E
100
AcDbEntity
  8
_1-6______
  6
Continuous
 62
     4
100
AcDbLine
 10
394.5592179129874
 20
169.44081007221
 30
0.0
 11
392.9103309274201
 21
171.089697057777
 31
0.0
  0
LINE
  5
2A2
330
1E
100
AcDbEntity
  8
_1-6______
  6
Continuous
 62
     4
100
AcDbLine
 10
393.2154293262699
 20
169.3703850965539
 30
0.0
 11
391.5665423407027
 21
171.0192720821212
 31
0.0
  0
LINE
  5
2A3
330
1E
100
AcDbEntity
  8
_1-6______
  6
Continuous
 62
     4
100
AcDbLine
 10
391.871640739554
 20
169.2999601208985
 30
0.0
 11
390.222753753987
 21
170.9488471064654
 31
0.0
  0
LINE
  5
2A4
330
1E
100
AcDbEntity
  8
_1-6______
  6
Continuous
 62
     4
100
AcDbLine
 10
390.5278521528366
 20
169.2295351452424
 30
0.0
 11
388.8789651672692
 21
170.8784221308098
 31
0.0
  0
LINE
  5
2A5
330
1E
100
AcDbEntity
  8
_1-1_耐火帯
  6
DASHED1
 62
     4
100
AcDbLine
 10
263.1082297101198
 20
109.3628242746468
 30
0.0
 11
263.1082297101198
 21
109.062824274647
 31
0.0
  0
LINE
  5
2A6
330
1E
100
AcDbEntity
  8
_1-1_耐火帯
  6
DASHED1
 62
     4
100
AcDbLine
 10
263.1082297101198
 20
109.3628242746468
 30
0.0
 11
268.7082297101196
 21
109.3628242746468
 31
0.0
  0
LINE
  5
2A7
330
1E
100
AcDbEntity
  8
_1-1_耐火帯
  6
DASHED1
 62
     4
100
AcDbLine
 10
263.1082297101198
 20
109.062824274647
 30
0.0
 11
268.7082297101196
 21
109.062824274647
 31
0.0
  0
LINE
  5
2A8
330
1E
100
AcDbEntity
  8
_1-1_耐火帯
  6
DASHED1
 62
     4
100
AcDbLine
 10
264.70822971012
 20
89.18884927464683
 30
0.0
 11
264.70822971012
 21
88.41282427464681
 31
0.0
  0
LINE
  5
2A9
330
1E
100
AcDbEntity
  8
_1-1_耐火帯
  6
DASHED1
 62
     4
100
AcDbLine
 10
267.1082297101198
 20
89.11837927464683
 30
0.0
 11
267.1082297101198
 21
89.89440427464705
 31
0.0
  0
LINE
  5
2AA
330
1E
100
AcDbEntity
  8
_1-1_耐火帯
  6
DASHED1
 62
     4
100
AcDbLine
 10
264.70822971012
 20
87.77773927464705
 30
0.0
 11
267.1082297101198
 21
88.48329427464705
 31
0.0
  0
LINE
  5
2AB
330
1E
100
AcDbEntity
  8
_1-1_耐火帯
  6
DASHED1
 62
     4
100
AcDbLine
 10
264.70822971012
 20
88.41282427464681
 30
0.0
 11
267.1082297101198
 21
89.11837927464683
 31
0.0
  0
LINE
  5
2AC
330
1E
100
AcDbEntity
  8
_1-1_耐火帯
  6
DASHED1
 62
     4
100
AcDbLine
 10
264.1582297101197
 20
88.09528427464682
 30
0.0
 11
267.6582297101197
 21
88.80083927464704
 31
0.0
  0
LINE
  5
2AD
330
1E
100
AcDbEntity
  8
_1-1_耐火帯
  6
DASHED1
 62
     4
100
AcDbLine
 10
264.1582297101197
 20
88.09528427464682
 30
0.0
 11
264.70822971012
 21
87.77773927464705
 31
0.0
  0
LINE
  5
2AE
330
1E
100
AcDbEntity
  8
_1-1_耐火帯
  6
DASHED1
 62
     4
100
AcDbLine
 10
264.1582297101197
 20
88.09528427464682
 30
0.0
 11
264.70822971012
 21
88.41282427464681
 31
0.0
  0
LINE
  5
2AF
330
1E
100
AcDbEntity
  8
_1-1_耐火帯
  6
DASHED1
 62
     4
100
AcDbLine
 10
267.6582297101197
 20
88.80083927464704
 30
0.0
 11
267.1082297101198
 21
88.48329427464705
 31
0.0
  0
LINE
  5
2B0
330
1E
100
AcDbEntity
  8
_1-1_耐火帯
  6
DASHED1
 62
     4
100
AcDbLine
 10
267.1082297101198
 20
89.11837927464683
 30
0.0
 11
267.6582297101197
 21
88.80083927464704
 31
0.0
  0
LINE
  5
2B1
330
1E
100
AcDbEntity
  8
_1-1_耐火帯
  6
DASHED1
 62
     4
100
AcDbLine
 10
264.70822971012
 20
90.59996427464705
 30
0.0
 11
264.70822971012
 21
89.82393427464705
 31
0.0
  0
LINE
  5
2B2
330
1E
100
AcDbEntity
  8
_1-1_耐火帯
  6
DASHED1
 62
     4
100
AcDbLine
 10
267.1082297101198
 20
90.52948927464706
 30
0.0
 11
267.1082297101198
 21
91.30551927464706
 31
0.0
  0
LINE
  5
2B3
330
1E
100
AcDbEntity
  8
_1-1_耐火帯
  6
DASHED1
 62
     4
100
AcDbLine
 10
264.70822971012
 20
89.18884927464683
 30
0.0
 11
267.1082297101198
 21
89.89440427464705
 31
0.0
  0
LINE
  5
2B4
330
1E
100
AcDbEntity
  8
_1-1_耐火帯
  6
DASHED1
 62
     4
100
AcDbLine
 10
264.70822971012
 20
89.82393427464705
 30
0.0
 11
267.1082297101198
 21
90.52948927464706
 31
0.0
  0
LINE
  5
2B5
330
1E
100
AcDbEntity
  8
_1-1_耐火帯
  6
DASHED1
 62
     4
100
AcDbLine
 10
264.1582297101197
 20
89.50639427464706
 30
0.0
 11
267.6582297101197
 21
90.21194927464682
 31
0.0
  0
LINE
  5
2B6
330
1E
100
AcDbEntity
  8
_1-1_耐火帯
  6
DASHED1
 62
     4
100
AcDbLine
 10
264.1582297101197
 20
89.50639427464706
 30
0.0
 11
264.70822971012
 21
89.18884927464683
 31
0.0
  0
LINE
  5
2B7
330
1E
100
AcDbEntity
  8
_1-1_耐火帯
  6
DASHED1
 62
     4
100
AcDbLine
 10
264.1582297101197
 20
89.50639427464706
 30
0.0
 11
264.70822971012
 21
89.82393427464705
 31
0.0
  0
LINE
  5
2B8
330
1E
100
AcDbEntity
  8
_1-1_耐火帯
  6
DASHED1
 62
     4
100
AcDbLine
 10
267.6582297101197
 20
90.21194927464682
 30
0.0
 11
267.1082297101198
 21
89.89440427464705
 31
0.0
  0
LINE
  5
2B9
330
1E
100
AcDbEntity
  8
_1-1_耐火帯
  6
DASHED1
 62
     4
100
AcDbLine
 10
267.1082297101198
 20
90.52948927464706
 30
0.0
 11
267.6582297101197
 21
90.21194927464682
 31
0.0
  0
LINE
  5
2BA
330
1E
100
AcDbEntity
  8
_1-1_耐火帯
  6
DASHED1
 62
     4
100
AcDbLine
 10
264.70822971012
 20
92.01107427464682
 30
0.0
 11
264.70822971012
 21
91.23504927464706
 31
0.0
  0
LINE
  5
2BB
330
1E
100
AcDbEntity
  8
_1-1_耐火帯
  6
DASHED1
 62
     4
100
AcDbLine
 10
267.1082297101198
 20
91.94060427464705
 30
0.0
 11
267.1082297101198
 21
92.71662927464706
 31
0.0
  0
LINE
  5
2BC
330
1E
100
AcDbEntity
  8
_1-1_耐火帯
  6
DASHED1
 62
     4
100
AcDbLine
 10
264.70822971012
 20
90.59996427464705
 30
0.0
 11
267.1082297101198
 21
91.30551927464706
 31
0.0
  0
LINE
  5
2BD
330
1E
100
AcDbEntity
  8
_1-1_耐火帯
  6
DASHED1
 62
     4
100
AcDbLine
 10
264.70822971012
 20
91.23504927464706
 30
0.0
 11
267.1082297101198
 21
91.94060427464705
 31
0.0
  0
LINE
  5
2BE
330
1E
100
AcDbEntity
  8
_1-1_耐火帯
  6
DASHED1
 62
     4
100
AcDbLine
 10
264.1582297101197
 20
90.91750427464706
 30
0.0
 11
267.6582297101197
 21
91.62305927464705
 31
0.0
  0
LINE
  5
2BF
330
1E
100
AcDbEntity
  8
_1-1_耐火帯
  6
DASHED1
 62
     4
100
AcDbLine
 10
264.1582297101197
 20
90.91750427464706
 30
0.0
 11
264.70822971012
 21
90.59996427464705
 31
0.0
  0
LINE
  5
2C0
330
1E
100
AcDbEntity
  8
_1-1_耐火帯
  6
DASHED1
 62
     4
100
AcDbLine
 10
264.1582297101197
 20
90.91750427464706
 30
0.0
 11
264.70822971012
 21
91.23504927464706
 31
0.0
  0
LINE
  5
2C1
330
1E
100
AcDbEntity
  8
_1-1_耐火帯
  6
DASHED1
 62
     4
100
AcDbLine
 10
267.6582297101197
 20
91.62305927464705
 30
0.0
 11
267.1082297101198
 21
91.30551927464706
 31
0.0
  0
LINE
  5
2C2
330
1E
100
AcDbEntity
  8
_1-1_耐火帯
  6
DASHED1
 62
     4
100
AcDbLine
 10
267.1082297101198
 20
91.94060427464705
 30
0.0
 11
267.6582297101197
 21
91.62305927464705
 31
0.0
  0
LINE
  5
2C3
330
1E
100
AcDbEntity
  8
_1-1_耐火帯
  6
DASHED1
 62
     4
100
AcDbLine
 10
264.70822971012
 20
93.422184274647
 30
0.0
 11
264.70822971012
 21
92.64615927464706
 31
0.0
  0
LINE
  5
2C4
330
1E
100
AcDbEntity
  8
_1-1_耐火帯
  6
DASHED1
 62
     4
100
AcDbLine
 10
267.1082297101198
 20
93.351714274647
 30
0.0
 11
267.1082297101198
 21
94.12773927464701
 31
0.0
  0
LINE
  5
2C5
330
1E
100
AcDbEntity
  8
_1-1_耐火帯
  6
DASHED1
 62
     4
100
AcDbLine
 10
264.70822971012
 20
92.01107427464682
 30
0.0
 11
267.1082297101198
 21
92.71662927464706
 31
0.0
  0
LINE
  5
2C6
330
1E
100
AcDbEntity
  8
_1-1_耐火帯
  6
DASHED1
 62
     4
100
AcDbLine
 10
264.70822971012
 20
92.64615927464706
 30
0.0
 11
267.1082297101198
 21
93.351714274647
 31
0.0
  0
LINE
  5
2C7
330
1E
100
AcDbEntity
  8
_1-1_耐火帯
  6
DASHED1
 62
     4
100
AcDbLine
 10
264.1582297101197
 20
92.32861427464701
 30
0.0
 11
267.6582297101197
 21
93.034169274647
 31
0.0
  0
LINE
  5
2C8
330
1E
100
AcDbEntity
  8
_1-1_耐火帯
  6
DASHED1
 62
     4
100
AcDbLine
 10
264.1582297101197
 20
92.32861427464701
 30
0.0
 11
264.70822971012
 21
92.01107427464682
 31
0.0
  0
LINE
  5
2C9
330
1E
100
AcDbEntity
  8
_1-1_耐火帯
  6
DASHED1
 62
     4
100
AcDbLine
 10
264.1582297101197
 20
92.32861427464701
 30
0.0
 11
264.70822971012
 21
92.64615927464706
 31
0.0
  0
LINE
  5
2CA
330
1E
100
AcDbEntity
  8
_1-1_耐火帯
  6
DASHED1
 62
     4
100
AcDbLine
 10
267.6582297101197
 20
93.034169274647
 30
0.0
 11
267.1082297101198
 21
92.71662927464706
 31
0.0
  0
LINE
  5
2CB
330
1E
100
AcDbEntity
  8
_1-1_耐火帯
  6
DASHED1
 62
     4
100
AcDbLine
 10
267.1082297101198
 20
93.351714274647
 30
0.0
 11
267.6582297101197
 21
93.034169274647
 31
0.0
  0
LINE
  5
2CC
330
1E
100
AcDbEntity
  8
_1-1_耐火帯
  6
DASHED1
 62
     4
100
AcDbLine
 10
264.70822971012
 20
94.83329427464701
 30
0.0
 11
264.70822971012
 21
94.05726927464701
 31
0.0
  0
LINE
  5
2CD
330
1E
100
AcDbEntity
  8
_1-1_耐火帯
  6
DASHED1
 62
     4
100
AcDbLine
 10
267.1082297101198
 20
94.76282427464701
 30
0.0
 11
267.1082297101198
 21
95.53884927464702
 31
0.0
  0
LINE
  5
2CE
330
1E
100
AcDbEntity
  8
_1-1_耐火帯
  6
DASHED1
 62
     4
100
AcDbLine
 10
264.70822971012
 20
93.422184274647
 30
0.0
 11
267.1082297101198
 21
94.12773927464701
 31
0.0
  0
LINE
  5
2CF
330
1E
100
AcDbEntity
  8
_1-1_耐火帯
  6
DASHED1
 62
     4
100
AcDbLine
 10
264.70822971012
 20
94.05726927464701
 30
0.0
 11
267.1082297101198
 21
94.76282427464701
 31
0.0
  0
LINE
  5
2D0
330
1E
100
AcDbEntity
  8
_1-1_耐火帯
  6
DASHED1
 62
     4
100
AcDbLine
 10
264.1582297101197
 20
93.73972427464702
 30
0.0
 11
267.6582297101197
 21
94.44528427464701
 31
0.0
  0
LINE
  5
2D1
330
1E
100
AcDbEntity
  8
_1-1_耐火帯
  6
DASHED1
 62
     4
100
AcDbLine
 10
264.1582297101197
 20
93.73972427464702
 30
0.0
 11
264.70822971012
 21
93.422184274647
 31
0.0
  0
LINE
  5
2D2
330
1E
100
AcDbEntity
  8
_1-1_耐火帯
  6
DASHED1
 62
     4
100
AcDbLine
 10
264.1582297101197
 20
93.73972427464702
 30
0.0
 11
264.70822971012
 21
94.05726927464701
 31
0.0
  0
LINE
  5
2D3
330
1E
100
AcDbEntity
  8
_1-1_耐火帯
  6
DASHED1
 62
     4
100
AcDbLine
 10
267.1082297101198
 20
94.12773927464701
 30
0.0
 11
267.6582297101197
 21
94.44528427464701
 31
0.0
  0
LINE
  5
2D4
330
1E
100
AcDbEntity
  8
_1-1_耐火帯
  6
DASHED1
 62
     4
100
AcDbLine
 10
267.1082297101198
 20
94.76282427464701
 30
0.0
 11
267.6582297101197
 21
94.44528427464701
 31
0.0
  0
LINE
  5
2D5
330
1E
100
AcDbEntity
  8
_1-1_耐火帯
  6
DASHED1
 62
     4
100
AcDbLine
 10
264.70822971012
 20
96.2444042746468
 30
0.0
 11
264.70822971012
 21
95.46837927464702
 31
0.0
  0
LINE
  5
2D6
330
1E
100
AcDbEntity
  8
_1-1_耐火帯
  6
DASHED1
 62
     4
100
AcDbLine
 10
267.1082297101198
 20
96.1739342746468
 30
0.0
 11
267.1082297101198
 21
96.9499642746468
 31
0.0
  0
LINE
  5
2D7
330
1E
100
AcDbEntity
  8
_1-1_耐火帯
  6
DASHED1
 62
     4
100
AcDbLine
 10
264.70822971012
 20
94.83329427464701
 30
0.0
 11
267.1082297101198
 21
95.53884927464702
 31
0.0
  0
LINE
  5
2D8
330
1E
100
AcDbEntity
  8
_1-1_耐火帯
  6
DASHED1
 62
     4
100
AcDbLine
 10
264.70822971012
 20
95.46837927464702
 30
0.0
 11
267.1082297101198
 21
96.1739342746468
 31
0.0
  0
LINE
  5
2D9
330
1E
100
AcDbEntity
  8
_1-1_耐火帯
  6
DASHED1
 62
     4
100
AcDbLine
 10
264.1582297101197
 20
95.15083927464678
 30
0.0
 11
267.6582297101197
 21
95.85639427464679
 31
0.0
  0
LINE
  5
2DA
330
1E
100
AcDbEntity
  8
_1-1_耐火帯
  6
DASHED1
 62
     4
100
AcDbLine
 10
264.1582297101197
 20
95.15083927464678
 30
0.0
 11
264.70822971012
 21
94.83329427464701
 31
0.0
  0
LINE
  5
2DB
330
1E
100
AcDbEntity
  8
_1-1_耐火帯
  6
DASHED1
 62
     4
100
AcDbLine
 10
264.1582297101197
 20
95.15083927464678
 30
0.0
 11
264.70822971012
 21
95.46837927464702
 31
0.0
  0
LINE
  5
2DC
330
1E
100
AcDbEntity
  8
_1-1_耐火帯
  6
DASHED1
 62
     4
100
AcDbLine
 10
267.6582297101197
 20
95.85639427464679
 30
0.0
 11
267.1082297101198
 21
95.53884927464702
 31
0.0
  0
LINE
  5
2DD
330
1E
100
AcDbEntity
  8
_1-1_耐火帯
  6
DASHED1
 62
     4
100
AcDbLine
 10
267.1082297101198
 20
96.1739342746468
 30
0.0
 11
267.6582297101197
 21
95.85639427464679
 31
0.0
  0
LINE
  5
2DE
330
1E
100
AcDbEntity
  8
_1-1_耐火帯
  6
DASHED1
 62
     4
100
AcDbLine
 10
264.70822971012
 20
97.65551927464702
 30
0.0
 11
264.70822971012
 21
96.87948927464681
 31
0.0
  0
LINE
  5
2DF
330
1E
100
AcDbEntity
  8
_1-1_耐火帯
  6
DASHED1
 62
     4
100
AcDbLine
 10
267.1082297101198
 20
97.58504927464702
 30
0.0
 11
267.1082297101198
 21
98.36107427464703
 31
0.0
  0
LINE
  5
2E0
330
1E
100
AcDbEntity
  8
_1-1_耐火帯
  6
DASHED1
 62
     4
100
AcDbLine
 10
264.70822971012
 20
96.2444042746468
 30
0.0
 11
267.1082297101198
 21
96.9499642746468
 31
0.0
  0
LINE
  5
2E1
330
1E
100
AcDbEntity
  8
_1-1_耐火帯
  6
DASHED1
 62
     4
100
AcDbLine
 10
264.70822971012
 20
96.87948927464681
 30
0.0
 11
267.1082297101198
 21
97.58504927464702
 31
0.0
  0
LINE
  5
2E2
330
1E
100
AcDbEntity
  8
_1-1_耐火帯
  6
DASHED1
 62
     4
100
AcDbLine
 10
264.1582297101197
 20
96.56194927464703
 30
0.0
 11
267.6582297101197
 21
97.26750427464702
 31
0.0
  0
LINE
  5
2E3
330
1E
100
AcDbEntity
  8
_1-1_耐火帯
  6
DASHED1
 62
     4
100
AcDbLine
 10
264.1582297101197
 20
96.56194927464703
 30
0.0
 11
264.70822971012
 21
96.2444042746468
 31
0.0
  0
LINE
  5
2E4
330
1E
100
AcDbEntity
  8
_1-1_耐火帯
  6
DASHED1
 62
     4
100
AcDbLine
 10
264.1582297101197
 20
96.56194927464703
 30
0.0
 11
264.70822971012
 21
96.87948927464681
 31
0.0
  0
LINE
  5
2E5
330
1E
100
AcDbEntity
  8
_1-1_耐火帯
  6
DASHED1
 62
     4
100
AcDbLine
 10
267.6582297101197
 20
97.26750427464702
 30
0.0
 11
267.1082297101198
 21
96.9499642746468
 31
0.0
  0
LINE
  5
2E6
330
1E
100
AcDbEntity
  8
_1-1_耐火帯
  6
DASHED1
 62
     4
100
AcDbLine
 10
267.1082297101198
 20
97.58504927464702
 30
0.0
 11
267.6582297101197
 21
97.26750427464702
 31
0.0
  0
LINE
  5
2E7
330
1E
100
AcDbEntity
  8
_1-1_耐火帯
  6
DASHED1
 62
     4
100
AcDbLine
 10
264.70822971012
 20
99.06662927464703
 30
0.0
 11
264.70822971012
 21
98.29060427464703
 31
0.0
  0
LINE
  5
2E8
330
1E
100
AcDbEntity
  8
_1-1_耐火帯
  6
DASHED1
 62
     4
100
AcDbLine
 10
267.1082297101198
 20
98.99615927464679
 30
0.0
 11
267.1082297101198
 21
99.77218427464681
 31
0.0
  0
LINE
  5
2E9
330
1E
100
AcDbEntity
  8
_1-1_耐火帯
  6
DASHED1
 62
     4
100
AcDbLine
 10
264.70822971012
 20
97.65551927464702
 30
0.0
 11
267.1082297101198
 21
98.36107427464703
 31
0.0
  0
LINE
  5
2EA
330
1E
100
AcDbEntity
  8
_1-1_耐火帯
  6
DASHED1
 62
     4
100
AcDbLine
 10
264.70822971012
 20
98.29060427464703
 30
0.0
 11
267.1082297101198
 21
98.99615927464679
 31
0.0
  0
LINE
  5
2EB
330
1E
100
AcDbEntity
  8
_1-1_耐火帯
  6
DASHED1
 62
     4
100
AcDbLine
 10
264.1582297101197
 20
97.9730592746468
 30
0.0
 11
267.6582297101197
 21
98.67861427464681
 31
0.0
  0
LINE
  5
2EC
330
1E
100
AcDbEntity
  8
_1-1_耐火帯
  6
DASHED1
 62
     4
100
AcDbLine
 10
264.1582297101197
 20
97.9730592746468
 30
0.0
 11
264.70822971012
 21
97.65551927464702
 31
0.0
  0
LINE
  5
2ED
330
1E
100
AcDbEntity
  8
_1-1_耐火帯
  6
DASHED1
 62
     4
100
AcDbLine
 10
264.1582297101197
 20
97.9730592746468
 30
0.0
 11
264.70822971012
 21
98.29060427464703
 31
0.0
  0
LINE
  5
2EE
330
1E
100
AcDbEntity
  8
_1-1_耐火帯
  6
DASHED1
 62
     4
100
AcDbLine
 10
267.6582297101197
 20
98.67861427464681
 30
0.0
 11
267.1082297101198
 21
98.36107427464703
 31
0.0
  0
LINE
  5
2EF
330
1E
100
AcDbEntity
  8
_1-1_耐火帯
  6
DASHED1
 62
     4
100
AcDbLine
 10
267.1082297101198
 20
98.99615927464679
 30
0.0
 11
267.6582297101197
 21
98.67861427464681
 31
0.0
  0
LINE
  5
2F0
330
1E
100
AcDbEntity
  8
_1-1_耐火帯
  6
DASHED1
 62
     4
100
AcDbLine
 10
264.70822971012
 20
100.4777392746468
 30
0.0
 11
264.70822971012
 21
99.70171427464681
 31
0.0
  0
LINE
  5
2F1
330
1E
100
AcDbEntity
  8
_1-1_耐火帯
  6
DASHED1
 62
     4
100
AcDbLine
 10
267.1082297101198
 20
100.4072692746468
 30
0.0
 11
267.1082297101198
 21
101.1832942746468
 31
0.0
  0
LINE
  5
2F2
330
1E
100
AcDbEntity
  8
_1-1_耐火帯
  6
DASHED1
 62
     4
100
AcDbLine
 10
264.70822971012
 20
99.06662927464703
 30
0.0
 11
267.1082297101198
 21
99.77218427464681
 31
0.0
  0
LINE
  5
2F3
330
1E
100
AcDbEntity
  8
_1-1_耐火帯
  6
DASHED1
 62
     4
100
AcDbLine
 10
264.70822971012
 20
99.70171427464681
 30
0.0
 11
267.1082297101198
 21
100.4072692746468
 31
0.0
  0
LINE
  5
2F4
330
1E
100
AcDbEntity
  8
_1-1_耐火帯
  6
DASHED1
 62
     4
100
AcDbLine
 10
264.1582297101197
 20
99.38416927464681
 30
0.0
 11
267.6582297101197
 21
100.0897242746468
 31
0.0
  0
LINE
  5
2F5
330
1E
100
AcDbEntity
  8
_1-1_耐火帯
  6
DASHED1
 62
     4
100
AcDbLine
 10
264.1582297101197
 20
99.38416927464681
 30
0.0
 11
264.70822971012
 21
99.06662927464703
 31
0.0
  0
LINE
  5
2F6
330
1E
100
AcDbEntity
  8
_1-1_耐火帯
  6
DASHED1
 62
     4
100
AcDbLine
 10
264.1582297101197
 20
99.38416927464681
 30
0.0
 11
264.70822971012
 21
99.70171427464681
 31
0.0
  0
LINE
  5
2F7
330
1E
100
AcDbEntity
  8
_1-1_耐火帯
  6
DASHED1
 62
     4
100
AcDbLine
 10
267.6582297101197
 20
100.0897242746468
 30
0.0
 11
267.1082297101198
 21
99.77218427464681
 31
0.0
  0
LINE
  5
2F8
330
1E
100
AcDbEntity
  8
_1-1_耐火帯
  6
DASHED1
 62
     4
100
AcDbLine
 10
267.1082297101198
 20
100.4072692746468
 30
0.0
 11
267.6582297101197
 21
100.0897242746468
 31
0.0
  0
LINE
  5
2F9
330
1E
100
AcDbEntity
  8
_1-1_耐火帯
  6
DASHED1
 62
     4
100
AcDbLine
 10
264.70822971012
 20
101.8888492746468
 30
0.0
 11
264.70822971012
 21
101.1128242746468
 31
0.0
  0
LINE
  5
2FA
330
1E
100
AcDbEntity
  8
_1-1_耐火帯
  6
DASHED1
 62
     4
100
AcDbLine
 10
267.1082297101198
 20
101.8183792746468
 30
0.0
 11
267.1082297101198
 21
102.594404274647
 31
0.0
  0
LINE
  5
2FB
330
1E
100
AcDbEntity
  8
_1-1_耐火帯
  6
DASHED1
 62
     4
100
AcDbLine
 10
264.70822971012
 20
100.4777392746468
 30
0.0
 11
267.1082297101198
 21
101.1832942746468
 31
0.0
  0
LINE
  5
2FC
330
1E
100
AcDbEntity
  8
_1-1_耐火帯
  6
DASHED1
 62
     4
100
AcDbLine
 10
264.70822971012
 20
101.1128242746468
 30
0.0
 11
267.1082297101198
 21
101.8183792746468
 31
0.0
  0
LINE
  5
2FD
330
1E
100
AcDbEntity
  8
_1-1_耐火帯
  6
DASHED1
 62
     4
100
AcDbLine
 10
264.1582297101197
 20
100.7952842746468
 30
0.0
 11
267.6582297101197
 21
101.5008392746468
 31
0.0
  0
LINE
  5
2FE
330
1E
100
AcDbEntity
  8
_1-1_耐火帯
  6
DASHED1
 62
     4
100
AcDbLine
 10
264.1582297101197
 20
100.7952842746468
 30
0.0
 11
264.70822971012
 21
100.4777392746468
 31
0.0
  0
LINE
  5
2FF
330
1E
100
AcDbEntity
  8
_1-1_耐火帯
  6
DASHED1
 62
     4
100
AcDbLine
 10
264.1582297101197
 20
100.7952842746468
 30
0.0
 11
264.70822971012
 21
101.1128242746468
 31
0.0
  0
LINE
  5
300
330
1E
100
AcDbEntity
  8
_1-1_耐火帯
  6
DASHED1
 62
     4
100
AcDbLine
 10
267.6582297101197
 20
101.5008392746468
 30
0.0
 11
267.1082297101198
 21
101.1832942746468
 31
0.0
  0
LINE
  5
301
330
1E
100
AcDbEntity
  8
_1-1_耐火帯
  6
DASHED1
 62
     4
100
AcDbLine
 10
267.1082297101198
 20
101.8183792746468
 30
0.0
 11
267.6582297101197
 21
101.5008392746468
 31
0.0
  0
LINE
  5
302
330
1E
100
AcDbEntity
  8
_1-1_耐火帯
  6
DASHED1
 62
     4
100
AcDbLine
 10
264.70822971012
 20
103.299964274647
 30
0.0
 11
264.70822971012
 21
102.5239342746468
 31
0.0
  0
LINE
  5
303
330
1E
100
AcDbEntity
  8
_1-1_耐火帯
  6
DASHED1
 62
     4
100
AcDbLine
 10
267.1082297101198
 20
103.2294892746468
 30
0.0
 11
267.1082297101198
 21
104.005519274647
 31
0.0
  0
LINE
  5
304
330
1E
100
AcDbEntity
  8
_1-1_耐火帯
  6
DASHED1
 62
     4
100
AcDbLine
 10
264.70822971012
 20
101.8888492746468
 30
0.0
 11
267.1082297101198
 21
102.594404274647
 31
0.0
  0
LINE
  5
305
330
1E
100
AcDbEntity
  8
_1-1_耐火帯
  6
DASHED1
 62
     4
100
AcDbLine
 10
264.70822971012
 20
102.5239342746468
 30
0.0
 11
267.1082297101198
 21
103.2294892746468
 31
0.0
  0
LINE
  5
306
330
1E
100
AcDbEntity
  8
_1-1_耐火帯
  6
DASHED1
 62
     4
100
AcDbLine
 10
264.1582297101197
 20
102.2063942746468
 30
0.0
 11
267.6582297101197
 21
102.9119492746468
 31
0.0
  0
LINE
  5
307
330
1E
100
AcDbEntity
  8
_1-1_耐火帯
  6
DASHED1
 62
     4
100
AcDbLine
 10
264.1582297101197
 20
102.2063942746468
 30
0.0
 11
264.70822971012
 21
101.8888492746468
 31
0.0
  0
LINE
  5
308
330
1E
100
AcDbEntity
  8
_1-1_耐火帯
  6
DASHED1
 62
     4
100
AcDbLine
 10
264.1582297101197
 20
102.2063942746468
 30
0.0
 11
264.70822971012
 21
102.5239342746468
 31
0.0
  0
LINE
  5
309
330
1E
100
AcDbEntity
  8
_1-1_耐火帯
  6
DASHED1
 62
     4
100
AcDbLine
 10
267.6582297101197
 20
102.9119492746468
 30
0.0
 11
267.1082297101198
 21
102.594404274647
 31
0.0
  0
LINE
  5
30A
330
1E
100
AcDbEntity
  8
_1-1_耐火帯
  6
DASHED1
 62
     4
100
AcDbLine
 10
267.1082297101198
 20
103.2294892746468
 30
0.0
 11
267.6582297101197
 21
102.9119492746468
 31
0.0
  0
LINE
  5
30B
330
1E
100
AcDbEntity
  8
_1-1_耐火帯
  6
DASHED1
 62
     4
100
AcDbLine
 10
264.70822971012
 20
104.7110742746468
 30
0.0
 11
264.70822971012
 21
103.935049274647
 31
0.0
  0
LINE
  5
30C
330
1E
100
AcDbEntity
  8
_1-1_耐火帯
  6
DASHED1
 62
     4
100
AcDbLine
 10
267.1082297101198
 20
104.6406042746468
 30
0.0
 11
267.1082297101198
 21
105.4166292746468
 31
0.0
  0
LINE
  5
30D
330
1E
100
AcDbEntity
  8
_1-1_耐火帯
  6
DASHED1
 62
     4
100
AcDbLine
 10
264.70822971012
 20
103.299964274647
 30
0.0
 11
267.1082297101198
 21
104.005519274647
 31
0.0
  0
LINE
  5
30E
330
1E
100
AcDbEntity
  8
_1-1_耐火帯
  6
DASHED1
 62
     4
100
AcDbLine
 10
264.70822971012
 20
103.935049274647
 30
0.0
 11
267.1082297101198
 21
104.6406042746468
 31
0.0
  0
LINE
  5
30F
330
1E
100
AcDbEntity
  8
_1-1_耐火帯
  6
DASHED1
 62
     4
100
AcDbLine
 10
264.1582297101197
 20
103.6175042746468
 30
0.0
 11
267.6582297101197
 21
104.3230592746468
 31
0.0
  0
LINE
  5
310
330
1E
100
AcDbEntity
  8
_1-1_耐火帯
  6
DASHED1
 62
     4
100
AcDbLine
 10
264.1582297101197
 20
103.6175042746468
 30
0.0
 11
264.70822971012
 21
103.299964274647
 31
0.0
  0
LINE
  5
311
330
1E
100
AcDbEntity
  8
_1-1_耐火帯
  6
DASHED1
 62
     4
100
AcDbLine
 10
264.1582297101197
 20
103.6175042746468
 30
0.0
 11
264.70822971012
 21
103.935049274647
 31
0.0
  0
LINE
  5
312
330
1E
100
AcDbEntity
  8
_1-1_耐火帯
  6
DASHED1
 62
     4
100
AcDbLine
 10
267.6582297101197
 20
104.3230592746468
 30
0.0
 11
267.1082297101198
 21
104.005519274647
 31
0.0
  0
LINE
  5
313
330
1E
100
AcDbEntity
  8
_1-1_耐火帯
  6
DASHED1
 62
     4
100
AcDbLine
 10
267.1082297101198
 20
104.6406042746468
 30
0.0
 11
267.6582297101197
 21
104.3230592746468
 31
0.0
  0
LINE
  5
314
330
1E
100
AcDbEntity
  8
_1-1_耐火帯
  6
DASHED1
 62
     4
100
AcDbLine
 10
264.70822971012
 20
106.1221842746468
 30
0.0
 11
267.1082297101198
 21
106.8277392746468
 31
0.0
  0
LINE
  5
315
330
1E
100
AcDbEntity
  8
_1-1_耐火帯
  6
DASHED1
 62
     4
100
AcDbLine
 10
264.70822971012
 20
106.7572692746468
 30
0.0
 11
267.1082297101198
 21
107.462824274647
 31
0.0
  0
LINE
  5
316
330
1E
100
AcDbEntity
  8
_1-1_耐火帯
  6
DASHED1
 62
     4
100
AcDbLine
 10
264.1582297101197
 20
106.439724274647
 30
0.0
 11
267.6582297101197
 21
107.1452842746468
 31
0.0
  0
LINE
  5
317
330
1E
100
AcDbEntity
  8
_1-1_耐火帯
  6
DASHED1
 62
     4
100
AcDbLine
 10
264.1582297101197
 20
106.439724274647
 30
0.0
 11
264.70822971012
 21
106.1221842746468
 31
0.0
  0
LINE
  5
318
330
1E
100
AcDbEntity
  8
_1-1_耐火帯
  6
DASHED1
 62
     4
100
AcDbLine
 10
264.1582297101197
 20
106.439724274647
 30
0.0
 11
264.70822971012
 21
106.7572692746468
 31
0.0
  0
LINE
  5
319
330
1E
100
AcDbEntity
  8
_1-1_耐火帯
  6
DASHED1
 62
     4
100
AcDbLine
 10
267.6582297101197
 20
107.1452842746468
 30
0.0
 11
267.1082297101198
 21
106.8277392746468
 31
0.0
  0
LINE
  5
31A
330
1E
100
AcDbEntity
  8
_1-1_耐火帯
  6
DASHED1
 62
     4
100
AcDbLine
 10
267.1082297101198
 20
107.462824274647
 30
0.0
 11
267.6582297101197
 21
107.1452842746468
 31
0.0
  0
LINE
  5
31B
330
1E
100
AcDbEntity
  8
_1-1_耐火帯
  6
DASHED1
 62
     4
100
AcDbLine
 10
265.05911971012
 20
84.91645427464703
 30
0.0
 11
266.7898247101197
 21
85.62578927464683
 31
0.0
  0
LINE
  5
31C
330
1E
100
AcDbEntity
  8
_1-1_耐火帯
  6
DASHED1
 62
     4
100
AcDbLine
 10
267.4009397101198
 20
85.97861427464705
 30
0.0
 11
264.4414647101198
 21
85.27305927464704
 31
0.0
  0
LINE
  5
31D
330
1E
100
AcDbEntity
  8
_1-1_耐火帯
  6
DASHED1
 62
     4
100
AcDbLine
 10
264.9914647101197
 20
85.59060427464681
 30
0.0
 11
266.8509397101197
 21
86.29615927464682
 31
0.0
  0
LINE
  5
31E
330
1E
100
AcDbEntity
  8
_1-1_耐火帯
  6
DASHED1
 62
     4
100
AcDbLine
 10
266.91846971012
 20
87.03689927464683
 30
0.0
 11
264.9174997101197
 21
86.32756927464702
 31
0.0
  0
LINE
  5
31F
330
1E
100
AcDbEntity
  8
_1-1_耐火帯
  6
DASHED1
 62
     4
100
AcDbLine
 10
264.2998447101197
 20
86.68416927464704
 30
0.0
 11
267.5295847101198
 21
87.38972427464682
 31
0.0
  0
LINE
  5
320
330
1E
100
AcDbEntity
  8
_1-1_耐火帯
  6
DASHED1
 62
     4
100
AcDbLine
 10
266.9795847101198
 20
87.70726927464705
 30
0.0
 11
264.84984471012
 21
87.00171427464704
 31
0.0
  0
LINE
  5
321
330
1E
100
AcDbEntity
  8
_1-1_耐火帯
  6
DASHED1
 62
     4
100
AcDbLine
 10
266.9795847101198
 20
87.70726927464705
 30
0.0
 11
267.0487347101198
 21
88.46580427464681
 31
0.0
  0
LINE
  5
322
330
1E
100
AcDbEntity
  8
_1-1_耐火帯
  6
DASHED1
 62
     4
100
AcDbLine
 10
266.8509397101197
 20
86.29615927464682
 30
0.0
 11
266.91846971012
 21
87.03689927464683
 31
0.0
  0
LINE
  5
323
330
1E
100
AcDbEntity
  8
_1-1_耐火帯
  6
DASHED1
 62
     4
100
AcDbLine
 10
264.9174997101197
 20
86.32756927464702
 30
0.0
 11
264.9914647101197
 21
85.59060427464681
 31
0.0
  0
LINE
  5
324
330
1E
100
AcDbEntity
  8
_1-1_耐火帯
  6
DASHED1
 62
     4
100
AcDbLine
 10
264.7701397101197
 20
87.79593927464702
 30
0.0
 11
264.84984471012
 21
87.00171427464704
 31
0.0
  0
LINE
  5
325
330
1E
100
AcDbEntity
  8
_1-1_耐火帯
  6
DASHED1
 62
     4
100
AcDbLine
 10
264.4414647101198
 20
85.27305927464704
 30
0.0
 11
265.05911971012
 21
84.91645427464703
 31
0.0
  0
LINE
  5
326
330
1E
100
AcDbEntity
  8
_1-1_耐火帯
  6
DASHED1
 62
     4
100
AcDbLine
 10
264.9914647101197
 20
85.59060427464681
 30
0.0
 11
264.4414647101198
 21
85.27305927464704
 31
0.0
  0
LINE
  5
327
330
1E
100
AcDbEntity
  8
_1-1_耐火帯
  6
DASHED1
 62
     4
100
AcDbLine
 10
264.2998447101197
 20
86.68416927464704
 30
0.0
 11
264.9174997101197
 21
86.32756927464702
 31
0.0
  0
LINE
  5
328
330
1E
100
AcDbEntity
  8
_1-1_耐火帯
  6
DASHED1
 62
     4
100
AcDbLine
 10
264.2998447101197
 20
86.68416927464704
 30
0.0
 11
264.84984471012
 21
87.00171427464704
 31
0.0
  0
LINE
  5
329
330
1E
100
AcDbEntity
  8
_1-1_耐火帯
  6
DASHED1
 62
     4
100
AcDbLine
 10
267.4009397101198
 20
85.97861427464705
 30
0.0
 11
266.7898247101197
 21
85.62578927464683
 31
0.0
  0
LINE
  5
32A
330
1E
100
AcDbEntity
  8
_1-1_耐火帯
  6
DASHED1
 62
     4
100
AcDbLine
 10
266.8509397101197
 20
86.29615927464682
 30
0.0
 11
267.4009397101198
 21
85.97861427464705
 31
0.0
  0
LINE
  5
32B
330
1E
100
AcDbEntity
  8
_1-1_耐火帯
  6
DASHED1
 62
     4
100
AcDbLine
 10
267.5295847101198
 20
87.38972427464682
 30
0.0
 11
266.91846971012
 21
87.03689927464683
 31
0.0
  0
LINE
  5
32C
330
1E
100
AcDbEntity
  8
_1-1_耐火帯
  6
DASHED1
 62
     4
100
AcDbLine
 10
266.9795847101198
 20
87.70726927464705
 30
0.0
 11
267.5295847101198
 21
87.38972427464682
 31
0.0
  0
LINE
  5
32D
330
1E
100
AcDbEntity
  8
_1-1_耐火帯
  6
DASHED1
 62
     4
100
AcDbLine
 10
264.70822971012
 20
107.462824274647
 30
0.0
 11
264.70822971012
 21
106.7572692746468
 31
0.0
  0
LINE
  5
32E
330
1E
100
AcDbEntity
  8
_1-1_耐火帯
  6
DASHED1
 62
     4
100
AcDbLine
 10
264.70822971012
 20
106.1221842746468
 30
0.0
 11
264.70822971012
 21
105.3461592746468
 31
0.0
  0
LINE
  5
32F
330
1E
100
AcDbEntity
  8
_1-1_耐火帯
  6
DASHED1
 62
     4
100
AcDbLine
 10
267.1082297101198
 20
106.051714274647
 30
0.0
 11
267.1082297101198
 21
106.8277392746468
 31
0.0
  0
LINE
  5
330
330
1E
100
AcDbEntity
  8
_1-1_耐火帯
  6
DASHED1
 62
     4
100
AcDbLine
 10
264.70822971012
 20
104.7110742746468
 30
0.0
 11
267.1082297101198
 21
105.4166292746468
 31
0.0
  0
LINE
  5
331
330
1E
100
AcDbEntity
  8
_1-1_耐火帯
  6
DASHED1
 62
     4
100
AcDbLine
 10
264.70822971012
 20
105.3461592746468
 30
0.0
 11
267.1082297101198
 21
106.051714274647
 31
0.0
  0
LINE
  5
332
330
1E
100
AcDbEntity
  8
_1-1_耐火帯
  6
DASHED1
 62
     4
100
AcDbLine
 10
264.1582297101197
 20
105.0286142746468
 30
0.0
 11
267.6582297101197
 21
105.7341692746468
 31
0.0
  0
LINE
  5
333
330
1E
100
AcDbEntity
  8
_1-1_耐火帯
  6
DASHED1
 62
     4
100
AcDbLine
 10
264.1582297101197
 20
105.0286142746468
 30
0.0
 11
264.70822971012
 21
104.7110742746468
 31
0.0
  0
LINE
  5
334
330
1E
100
AcDbEntity
  8
_1-1_耐火帯
  6
DASHED1
 62
     4
100
AcDbLine
 10
264.1582297101197
 20
105.0286142746468
 30
0.0
 11
264.70822971012
 21
105.3461592746468
 31
0.0
  0
LINE
  5
335
330
1E
100
AcDbEntity
  8
_1-1_耐火帯
  6
DASHED1
 62
     4
100
AcDbLine
 10
267.6582297101197
 20
105.7341692746468
 30
0.0
 11
267.1082297101198
 21
105.4166292746468
 31
0.0
  0
LINE
  5
336
330
1E
100
AcDbEntity
  8
_1-1_耐火帯
  6
DASHED1
 62
     4
100
AcDbLine
 10
267.1082297101198
 20
106.051714274647
 30
0.0
 11
267.6582297101197
 21
105.7341692746468
 31
0.0
  0
LINE
  5
337
330
1E
100
AcDbEntity
  8
_1-1_耐火帯
  6
DASHED1
 62
     4
100
AcDbLine
 10
265.9082297101197
 20
82.46282427464706
 30
0.0
 11
265.05911971012
 21
84.91645427464703
 31
0.0
  0
LINE
  5
338
330
1E
100
AcDbEntity
  8
_1-1_耐火帯
  6
DASHED1
 62
     4
100
AcDbLine
 10
266.7898247101197
 20
85.62578927464683
 30
0.0
 11
265.9082297101197
 21
82.46282427464706
 31
0.0
  0
LINE
  5
339
330
1E
100
AcDbEntity
  8
_1-1_耐火帯
  6
DASHED1
 62
     4
100
AcDbLine
 10
263.1082297101198
 20
109.062824274647
 30
0.0
 11
264.70822971012
 21
107.462824274647
 31
0.0
  0
LINE
  5
33A
330
1E
100
AcDbEntity
  8
_1-1_耐火帯
  6
DASHED1
 62
     4
100
AcDbLine
 10
264.70822971012
 20
107.462824274647
 30
0.0
 11
267.1082297101198
 21
107.462824274647
 31
0.0
  0
LINE
  5
33B
330
1E
100
AcDbEntity
  8
_1-1_耐火帯
  6
DASHED1
 62
     4
100
AcDbLine
 10
268.7082297101196
 20
109.3628242746468
 30
0.0
 11
268.7082297101196
 21
109.062824274647
 31
0.0
  0
LINE
  5
33C
330
1E
100
AcDbEntity
  8
_1-1_耐火帯
  6
DASHED1
 62
     4
100
AcDbLine
 10
268.7082297101196
 20
109.062824274647
 30
0.0
 11
267.1082297101198
 21
107.462824274647
 31
0.0
  0
LINE
  5
33D
330
1E
100
AcDbEntity
  8
_1-2_________
  6
Continuous
 62
     3
100
AcDbLine
 10
155.9082297101198
 20
108.762824274647
 30
0.0
 11
155.9082297101198
 21
107.762824274647
 31
0.0
  0
LINE
  5
33E
330
1E
100
AcDbEntity
  8
_1-2_________
  6
Continuous
 62
     3
100
AcDbLine
 10
185.9082297101199
 20
108.762824274647
 30
0.0
 11
155.9082297101198
 21
108.762824274647
 31
0.0
  0
LINE
  5
33F
330
1E
100
AcDbEntity
  8
_1-2_________
  6
Continuous
 62
     3
100
AcDbLine
 10
185.9082297101199
 20
107.762824274647
 30
0.0
 11
185.9082297101199
 21
108.762824274647
 31
0.0
  0
LINE
  5
340
330
1E
100
AcDbEntity
  8
_1-2_________
  6
Continuous
 62
     3
100
AcDbLine
 10
155.9082297101198
 20
107.762824274647
 30
0.0
 11
185.9082297101199
 21
107.762824274647
 31
0.0
  0
LINE
  5
341
330
1E
100
AcDbEntity
  8
_1-2_________
  6
Continuous
 62
     4
100
AcDbLine
 10
156.783767371979
 20
107.7628242746474
 30
0.0
 11
155.9082297101201
 21
108.6383619365062
 31
0.0
  0
LINE
  5
342
330
1E
100
AcDbEntity
  8
_1-2_________
  6
Continuous
 62
     4
100
AcDbLine
 10
158.1979809343522
 20
107.7628242746474
 30
0.0
 11
157.1979809343524
 21
108.7628242746471
 31
0.0
  0
LINE
  5
343
330
1E
100
AcDbEntity
  8
_1-2_________
  6
Continuous
 62
     4
100
AcDbLine
 10
159.6121944967259
 20
107.762824274647
 30
0.0
 11
158.6121944967261
 21
108.7628242746467
 31
0.0
  0
LINE
  5
344
330
1E
100
AcDbEntity
  8
_1-2_________
  6
Continuous
 62
     4
100
AcDbLine
 10
161.0264080590995
 20
107.7628242746465
 30
0.0
 11
160.0264080590993
 21
108.762824274647
 31
0.0
  0
LINE
  5
345
330
1E
100
AcDbEntity
  8
_1-2_________
  6
Continuous
 62
     4
100
AcDbLine
 10
162.4406216214728
 20
107.7628242746467
 30
0.0
 11
161.4406216214726
 21
108.762824274647
 31
0.0
  0
LINE
  5
346
330
1E
100
AcDbEntity
  8
_1-2_________
  6
Continuous
 62
     4
100
AcDbLine
 10
163.8548351838459
 20
107.762824274647
 30
0.0
 11
162.8548351838457
 21
108.7628242746471
 31
0.0
  0
LINE
  5
347
330
1E
100
AcDbEntity
  8
_1-2_________
  6
Continuous
 62
     4
100
AcDbLine
 10
165.2690487462192
 20
107.762824274647
 30
0.0
 11
164.269048746219
 21
108.7628242746471
 31
0.0
  0
LINE
  5
348
330
1E
100
AcDbEntity
  8
_1-2_________
  6
Continuous
 62
     4
100
AcDbLine
 10
166.683262308591
 20
107.7628242746465
 30
0.0
 11
165.6832623085914
 21
108.7628242746464
 31
0.0
  0
LINE
  5
349
330
1E
100
AcDbEntity
  8
_1-2_________
  6
Continuous
 62
     4
100
AcDbLine
 10
168.0974758709644
 20
107.7628242746465
 30
0.0
 11
167.0974758709646
 21
108.7628242746465
 31
0.0
  0
LINE
  5
34A
330
1E
100
AcDbEntity
  8
_1-2_________
  6
Continuous
 62
     4
100
AcDbLine
 10
169.5116894333374
 20
107.7628242746467
 30
0.0
 11
168.5116894333376
 21
108.7628242746465
 31
0.0
  0
LINE
  5
34B
330
1E
100
AcDbEntity
  8
_1-2_________
  6
Continuous
 62
     4
100
AcDbLine
 10
170.9259029957108
 20
107.762824274647
 30
0.0
 11
169.925902995711
 21
108.7628242746465
 31
0.0
  0
LINE
  5
34C
330
1E
100
AcDbEntity
  8
_1-2_________
  6
Continuous
 62
     4
100
AcDbLine
 10
172.3401165580848
 20
107.7628242746462
 30
0.0
 11
171.3401165580844
 21
108.7628242746465
 31
0.0
  0
LINE
  5
34D
330
1E
100
AcDbEntity
  8
_1-2_________
  6
Continuous
 62
     4
100
AcDbLine
 10
173.7543301204578
 20
107.7628242746464
 30
0.0
 11
172.7543301204576
 21
108.7628242746465
 31
0.0
  0
LINE
  5
34E
330
1E
100
AcDbEntity
  8
_1-2_________
  6
Continuous
 62
     4
100
AcDbLine
 10
175.168543682831
 20
107.7628242746465
 30
0.0
 11
174.1685436828308
 21
108.7628242746467
 31
0.0
  0
LINE
  5
34F
330
1E
100
AcDbEntity
  8
_1-2_________
  6
Continuous
 62
     4
100
AcDbLine
 10
176.5827572452043
 20
107.7628242746465
 30
0.0
 11
175.5827572452041
 21
108.762824274647
 31
0.0
  0
LINE
  5
350
330
1E
100
AcDbEntity
  8
_1-2_________
  6
Continuous
 62
     4
100
AcDbLine
 10
177.9969708075753
 20
107.7628242746471
 30
0.0
 11
176.9969708075756
 21
108.7628242746467
 31
0.0
  0
LINE
  5
351
330
1E
100
AcDbEntity
  8
_1-2_________
  6
Continuous
 62
     4
100
AcDbLine
 10
179.4111843699488
 20
107.7628242746471
 30
0.0
 11
178.411184369949
 21
108.762824274647
 31
0.0
  0
LINE
  5
352
330
1E
100
AcDbEntity
  8
_1-2_________
  6
Continuous
 62
     4
100
AcDbLine
 10
180.8253979323218
 20
107.7628242746474
 30
0.0
 11
179.8253979323221
 21
108.762824274647
 31
0.0
  0
LINE
  5
353
330
1E
100
AcDbEntity
  8
_1-2_________
  6
Continuous
 62
     4
100
AcDbLine
 10
182.2396114946952
 20
107.7628242746474
 30
0.0
 11
181.2396114946954
 21
108.762824274647
 31
0.0
  0
LINE
  5
354
330
1E
100
AcDbEntity
  8
_1-2_________
  6
Continuous
 62
     4
100
AcDbLine
 10
183.653825057069
 20
107.762824274647
 30
0.0
 11
182.6538250570687
 21
108.7628242746471
 31
0.0
  0
LINE
  5
355
330
1E
100
AcDbEntity
  8
_1-2_________
  6
Continuous
 62
     4
100
AcDbLine
 10
185.0680386194421
 20
107.762824274647
 30
0.0
 11
184.0680386194419
 21
108.7628242746474
 31
0.0
  0
LINE
  5
356
330
1E
100
AcDbEntity
  8
_1-2_________
  6
Continuous
 62
     4
100
AcDbLine
 10
185.9082297101201
 20
108.3368467463423
 30
0.0
 11
185.4822521818149
 21
108.7628242746474
 31
0.0
  0
LINE
  5
357
330
1E
100
AcDbEntity
  8
_1-2_________
  6
Continuous
 62
     4
100
AcDbLine
 10
255.9082297101196
 20
110.329927299906
 30
0.0
 11
256.8753327353783
 21
109.362824274647
 31
0.0
  0
LINE
  5
358
330
1E
100
AcDbEntity
  8
_1-2_________
  6
Continuous
 62
     4
100
AcDbLine
 10
257.2895462977518
 20
110.3628242746468
 30
0.0
 11
258.2895462977516
 21
109.3628242746472
 31
0.0
  0
LINE
  5
359
330
1E
100
AcDbEntity
  8
_1-2_________
  6
Continuous
 62
     4
100
AcDbLine
 10
258.7037598601252
 20
110.362824274647
 30
0.0
 11
259.7037598601248
 21
109.3628242746474
 31
0.0
  0
LINE
  5
35A
330
1E
100
AcDbEntity
  8
_1-2_________
  6
Continuous
 62
     4
100
AcDbLine
 10
260.1179734224984
 20
110.362824274647
 30
0.0
 11
261.1179734224986
 21
109.3628242746468
 31
0.0
  0
LINE
  5
35B
330
1E
100
AcDbEntity
  8
_1-2_________
  6
Continuous
 62
     4
100
AcDbLine
 10
261.5321869848715
 20
110.3628242746472
 30
0.0
 11
262.5321869848717
 21
109.3628242746468
 31
0.0
  0
LINE
  5
35C
330
1E
100
AcDbEntity
  8
_1-2_________
  6
Continuous
 62
     4
100
AcDbLine
 10
262.9464005472448
 20
110.3628242746474
 30
0.0
 11
263.9464005472449
 21
109.3628242746472
 31
0.0
  0
LINE
  5
35D
330
1E
100
AcDbEntity
  8
_1-2_________
  6
Continuous
 62
     4
100
AcDbLine
 10
264.3606141096166
 20
110.362824274647
 30
0.0
 11
265.3606141096168
 21
109.3628242746468
 31
0.0
  0
LINE
  5
35E
330
1E
100
AcDbEntity
  8
_1-2_________
  6
Continuous
 62
     4
100
AcDbLine
 10
265.7748276719908
 20
110.3628242746461
 30
0.0
 11
266.7748276719904
 21
109.3628242746465
 31
0.0
  0
LINE
  5
35F
330
1E
100
AcDbEntity
  8
_1-2_________
  6
Continuous
 62
     4
100
AcDbLine
 10
267.1890412343639
 20
110.3628242746464
 30
0.0
 11
268.1890412343636
 21
109.3628242746468
 31
0.0
  0
LINE
  5
360
330
1E
100
AcDbEntity
  8
_1-2_________
  6
Continuous
 62
     4
100
AcDbLine
 10
268.603254796737
 20
110.3628242746465
 30
0.0
 11
269.6032547967368
 21
109.3628242746468
 31
0.0
  0
LINE
  5
361
330
1E
100
AcDbEntity
  8
_1-2_________
  6
Continuous
 62
     4
100
AcDbLine
 10
270.0174683591102
 20
110.3628242746465
 30
0.0
 11
271.01746835911
 21
109.3628242746468
 31
0.0
  0
LINE
  5
362
330
1E
100
AcDbEntity
  8
_1-2_________
  6
Continuous
 62
     4
100
AcDbLine
 10
271.4316819214837
 20
110.3628242746465
 30
0.0
 11
272.431681921484
 21
109.3628242746461
 31
0.0
  0
LINE
  5
363
330
1E
100
AcDbEntity
  8
_1-2_________
  6
Continuous
 62
     4
100
AcDbLine
 10
272.845895483857
 20
110.3628242746465
 30
0.0
 11
273.8458954838571
 21
109.3628242746464
 31
0.0
  0
LINE
  5
364
330
1E
100
AcDbEntity
  8
_1-2_________
  6
Continuous
 62
     4
100
AcDbLine
 10
274.2601090462278
 20
110.3628242746474
 30
0.0
 11
275.260109046228
 21
109.3628242746472
 31
0.0
  0
LINE
  5
365
330
1E
100
AcDbEntity
  8
_1-2_________
  6
Continuous
 62
     4
100
AcDbLine
 10
275.6743226086016
 20
110.3628242746468
 30
0.0
 11
276.6743226086014
 21
109.362824274647
 31
0.0
  0
LINE
  5
366
330
1E
100
AcDbEntity
  8
_1-2_________
  6
Continuous
 62
     4
100
AcDbLine
 10
277.0885361709748
 20
110.3628242746468
 30
0.0
 11
278.0885361709746
 21
109.3628242746474
 31
0.0
  0
LINE
  5
367
330
1E
100
AcDbEntity
  8
_1-2_________
  6
Continuous
 62
     4
100
AcDbLine
 10
278.5027497333481
 20
110.362824274647
 30
0.0
 11
279.5027497333478
 21
109.3628242746474
 31
0.0
  0
LINE
  5
368
330
1E
100
AcDbEntity
  8
_1-2_________
  6
Continuous
 62
     4
100
AcDbLine
 10
279.9169632957211
 20
110.3628242746472
 30
0.0
 11
280.9169632957209
 21
109.3628242746474
 31
0.0
  0
LINE
  5
369
330
1E
100
AcDbEntity
  8
_1-2_________
  6
Continuous
 62
     4
100
AcDbLine
 10
281.3311768580948
 20
110.3628242746468
 30
0.0
 11
282.3311768580952
 21
109.3628242746465
 31
0.0
  0
LINE
  5
36A
330
1E
100
AcDbEntity
  8
_1-2_________
  6
Continuous
 62
     4
100
AcDbLine
 10
282.7453904204682
 20
110.362824274647
 30
0.0
 11
283.7453904204684
 21
109.3628242746468
 31
0.0
  0
LINE
  5
36B
330
1E
100
AcDbEntity
  8
_1-2_________
  6
Continuous
 62
     4
100
AcDbLine
 10
284.1596039828412
 20
110.3628242746472
 30
0.0
 11
285.1596039828418
 21
109.3628242746468
 31
0.0
  0
LINE
  5
36C
330
1E
100
AcDbEntity
  8
_1-2_________
  6
Continuous
 62
     4
100
AcDbLine
 10
285.5738175452131
 20
110.3628242746468
 30
0.0
 11
285.9082297101196
 21
110.0284121097404
 31
0.0
  0
LINE
  5
36D
330
1E
100
AcDbEntity
  8
_1-2_________
  6
Continuous
 62
     3
100
AcDbLine
 10
285.9082297101197
 20
110.3628242746468
 30
0.0
 11
255.9082297101197
 21
110.3628242746468
 31
0.0
  0
LINE
  5
36E
330
1E
100
AcDbEntity
  8
_1-2_________
  6
Continuous
 62
     3
100
AcDbLine
 10
255.9082297101197
 20
110.3628242746468
 30
0.0
 11
255.9082297101197
 21
109.3628242746468
 31
0.0
  0
LINE
  5
36F
330
1E
100
AcDbEntity
  8
_1-2_________
  6
Continuous
 62
     3
100
AcDbLine
 10
255.9082297101197
 20
109.3628242746468
 30
0.0
 11
285.9082297101197
 21
109.3628242746468
 31
0.0
  0
LINE
  5
370
330
1E
100
AcDbEntity
  8
_1-2_________
  6
Continuous
 62
     3
100
AcDbLine
 10
285.9082297101197
 20
109.3628242746468
 30
0.0
 11
285.9082297101197
 21
110.3628242746468
 31
0.0
  0
LINE
  5
371
330
1E
100
AcDbEntity
  8
_1-2_________
  6
Continuous
 62
     3
100
AcDbLine
 10
635.9082297101202
 20
108.762824274647
 30
0.0
 11
635.9082297101202
 21
107.762824274647
 31
0.0
  0
LINE
  5
372
330
1E
100
AcDbEntity
  8
_1-2_________
  6
Continuous
 62
     3
100
AcDbLine
 10
605.9082297101201
 20
108.762824274647
 30
0.0
 11
635.9082297101202
 21
108.762824274647
 31
0.0
  0
LINE
  5
373
330
1E
100
AcDbEntity
  8
_1-2_________
  6
Continuous
 62
     3
100
AcDbLine
 10
605.9082297101201
 20
107.762824274647
 30
0.0
 11
605.9082297101201
 21
108.762824274647
 31
0.0
  0
LINE
  5
374
330
1E
100
AcDbEntity
  8
_1-2_________
  6
Continuous
 62
     3
100
AcDbLine
 10
635.9082297101202
 20
107.762824274647
 30
0.0
 11
605.9082297101201
 21
107.762824274647
 31
0.0
  0
LINE
  5
375
330
1E
100
AcDbEntity
  8
_1-2_________
  6
Continuous
 62
     4
100
AcDbLine
 10
635.032692048261
 20
107.7628242746474
 30
0.0
 11
635.9082297101198
 21
108.6383619365062
 31
0.0
  0
LINE
  5
376
330
1E
100
AcDbEntity
  8
_1-2_________
  6
Continuous
 62
     4
100
AcDbLine
 10
633.6184784858877
 20
107.7628242746474
 30
0.0
 11
634.6184784858875
 21
108.7628242746471
 31
0.0
  0
LINE
  5
377
330
1E
100
AcDbEntity
  8
_1-2_________
  6
Continuous
 62
     4
100
AcDbLine
 10
632.2042649235141
 20
107.762824274647
 30
0.0
 11
633.2042649235138
 21
108.7628242746467
 31
0.0
  0
LINE
  5
378
330
1E
100
AcDbEntity
  8
_1-2_________
  6
Continuous
 62
     4
100
AcDbLine
 10
630.7900513611404
 20
107.7628242746465
 30
0.0
 11
631.7900513611405
 21
108.762824274647
 31
0.0
  0
LINE
  5
379
330
1E
100
AcDbEntity
  8
_1-2_________
  6
Continuous
 62
     4
100
AcDbLine
 10
629.3758377987671
 20
107.7628242746467
 30
0.0
 11
630.3758377987671
 21
108.762824274647
 31
0.0
  0
LINE
  5
37A
330
1E
100
AcDbEntity
  8
_1-2_________
  6
Continuous
 62
     4
100
AcDbLine
 10
627.9616242363941
 20
107.762824274647
 30
0.0
 11
628.9616242363944
 21
108.7628242746471
 31
0.0
  0
LINE
  5
37B
330
1E
100
AcDbEntity
  8
_1-2_________
  6
Continuous
 62
     4
100
AcDbLine
 10
626.5474106740208
 20
107.762824274647
 30
0.0
 11
627.5474106740211
 21
108.7628242746471
 31
0.0
  0
LINE
  5
37C
330
1E
100
AcDbEntity
  8
_1-2_________
  6
Continuous
 62
     4
100
AcDbLine
 10
625.1331971116491
 20
107.7628242746465
 30
0.0
 11
626.1331971116484
 21
108.7628242746464
 31
0.0
  0
LINE
  5
37D
330
1E
100
AcDbEntity
  8
_1-2_________
  6
Continuous
 62
     4
100
AcDbLine
 10
623.7189835492755
 20
107.7628242746465
 30
0.0
 11
624.7189835492754
 21
108.7628242746465
 31
0.0
  0
LINE
  5
37E
330
1E
100
AcDbEntity
  8
_1-2_________
  6
Continuous
 62
     4
100
AcDbLine
 10
622.3047699869026
 20
107.7628242746467
 30
0.0
 11
623.3047699869022
 21
108.7628242746465
 31
0.0
  0
LINE
  5
37F
330
1E
100
AcDbEntity
  8
_1-2_________
  6
Continuous
 62
     4
100
AcDbLine
 10
620.8905564245294
 20
107.762824274647
 30
0.0
 11
621.890556424529
 21
108.7628242746465
 31
0.0
  0
LINE
  5
380
330
1E
100
AcDbEntity
  8
_1-2_________
  6
Continuous
 62
     4
100
AcDbLine
 10
619.4763428621552
 20
107.7628242746462
 30
0.0
 11
620.4763428621555
 21
108.7628242746465
 31
0.0
  0
LINE
  5
381
330
1E
100
AcDbEntity
  8
_1-2_________
  6
Continuous
 62
     4
100
AcDbLine
 10
618.0621292997821
 20
107.7628242746464
 30
0.0
 11
619.062129299782
 21
108.7628242746465
 31
0.0
  0
LINE
  5
382
330
1E
100
AcDbEntity
  8
_1-2_________
  6
Continuous
 62
     4
100
AcDbLine
 10
616.6479157374087
 20
107.7628242746465
 30
0.0
 11
617.6479157374094
 21
108.7628242746467
 31
0.0
  0
LINE
  5
383
330
1E
100
AcDbEntity
  8
_1-2_________
  6
Continuous
 62
     4
100
AcDbLine
 10
615.2337021750359
 20
107.7628242746465
 30
0.0
 11
616.2337021750361
 21
108.762824274647
 31
0.0
  0
LINE
  5
384
330
1E
100
AcDbEntity
  8
_1-2_________
  6
Continuous
 62
     4
100
AcDbLine
 10
613.8194886126645
 20
107.7628242746471
 30
0.0
 11
614.8194886126645
 21
108.7628242746467
 31
0.0
  0
LINE
  5
385
330
1E
100
AcDbEntity
  8
_1-2_________
  6
Continuous
 62
     4
100
AcDbLine
 10
612.4052750502913
 20
107.7628242746471
 30
0.0
 11
613.405275050291
 21
108.762824274647
 31
0.0
  0
LINE
  5
386
330
1E
100
AcDbEntity
  8
_1-2_________
  6
Continuous
 62
     4
100
AcDbLine
 10
610.9910614879181
 20
107.7628242746474
 30
0.0
 11
611.991061487918
 21
108.762824274647
 31
0.0
  0
LINE
  5
387
330
1E
100
AcDbEntity
  8
_1-2_________
  6
Continuous
 62
     4
100
AcDbLine
 10
609.5768479255448
 20
107.7628242746474
 30
0.0
 11
610.5768479255446
 21
108.762824274647
 31
0.0
  0
LINE
  5
388
330
1E
100
AcDbEntity
  8
_1-2_________
  6
Continuous
 62
     4
100
AcDbLine
 10
608.162634363171
 20
107.762824274647
 30
0.0
 11
609.1626343631711
 21
108.7628242746471
 31
0.0
  0
LINE
  5
389
330
1E
100
AcDbEntity
  8
_1-2_________
  6
Continuous
 62
     4
100
AcDbLine
 10
606.748420800798
 20
107.762824274647
 30
0.0
 11
607.7484208007981
 21
108.7628242746474
 31
0.0
  0
LINE
  5
38A
330
1E
100
AcDbEntity
  8
_1-2_________
  6
Continuous
 62
     4
100
AcDbLine
 10
605.9082297101198
 20
108.3368467463423
 30
0.0
 11
606.3342072384251
 21
108.7628242746474
 31
0.0
  0
LINE
  5
38B
330
1E
100
AcDbEntity
  8
_1-2_________
  6
Continuous
 62
     4
100
AcDbLine
 10
535.9082297101206
 20
110.329927299906
 30
0.0
 11
534.9411266848616
 21
109.362824274647
 31
0.0
  0
LINE
  5
38C
330
1E
100
AcDbEntity
  8
_1-2_________
  6
Continuous
 62
     4
100
AcDbLine
 10
534.5269131224881
 20
110.3628242746468
 30
0.0
 11
533.5269131224885
 21
109.3628242746472
 31
0.0
  0
LINE
  5
38D
330
1E
100
AcDbEntity
  8
_1-2_________
  6
Continuous
 62
     4
100
AcDbLine
 10
533.1126995601151
 20
110.362824274647
 30
0.0
 11
532.112699560115
 21
109.3628242746474
 31
0.0
  0
LINE
  5
38E
330
1E
100
AcDbEntity
  8
_1-2_________
  6
Continuous
 62
     4
100
AcDbLine
 10
531.6984859977416
 20
110.362824274647
 30
0.0
 11
530.6984859977415
 21
109.3628242746468
 31
0.0
  0
LINE
  5
38F
330
1E
100
AcDbEntity
  8
_1-2_________
  6
Continuous
 62
     4
100
AcDbLine
 10
530.2842724353685
 20
110.3628242746472
 30
0.0
 11
529.2842724353682
 21
109.3628242746468
 31
0.0
  0
LINE
  5
390
330
1E
100
AcDbEntity
  8
_1-2_________
  6
Continuous
 62
     4
100
AcDbLine
 10
528.8700588729949
 20
110.3628242746474
 30
0.0
 11
527.8700588729948
 21
109.3628242746472
 31
0.0
  0
LINE
  5
391
330
1E
100
AcDbEntity
  8
_1-2_________
  6
Continuous
 62
     4
100
AcDbLine
 10
527.4558453106234
 20
110.362824274647
 30
0.0
 11
526.4558453106231
 21
109.3628242746468
 31
0.0
  0
LINE
  5
392
330
1E
100
AcDbEntity
  8
_1-2_________
  6
Continuous
 62
     4
100
AcDbLine
 10
526.0416317482493
 20
110.3628242746461
 30
0.0
 11
525.0416317482494
 21
109.3628242746465
 31
0.0
  0
LINE
  5
393
330
1E
100
AcDbEntity
  8
_1-2_________
  6
Continuous
 62
     4
100
AcDbLine
 10
524.6274181858759
 20
110.3628242746464
 30
0.0
 11
523.6274181858764
 21
109.3628242746468
 31
0.0
  0
LINE
  5
394
330
1E
100
AcDbEntity
  8
_1-2_________
  6
Continuous
 62
     4
100
AcDbLine
 10
523.2132046235027
 20
110.3628242746465
 30
0.0
 11
522.2132046235032
 21
109.3628242746468
 31
0.0
  0
LINE
  5
395
330
1E
100
AcDbEntity
  8
_1-2_________
  6
Continuous
 62
     4
100
AcDbLine
 10
521.7989910611297
 20
110.3628242746465
 30
0.0
 11
520.7989910611299
 21
109.3628242746468
 31
0.0
  0
LINE
  5
396
330
1E
100
AcDbEntity
  8
_1-2_________
  6
Continuous
 62
     4
100
AcDbLine
 10
520.3847774987561
 20
110.3628242746465
 30
0.0
 11
519.3847774987559
 21
109.3628242746461
 31
0.0
  0
LINE
  5
397
330
1E
100
AcDbEntity
  8
_1-2_________
  6
Continuous
 62
     4
100
AcDbLine
 10
518.9705639363827
 20
110.3628242746465
 30
0.0
 11
517.9705639363826
 21
109.3628242746464
 31
0.0
  0
LINE
  5
398
330
1E
100
AcDbEntity
  8
_1-2_________
  6
Continuous
 62
     4
100
AcDbLine
 10
517.5563503740123
 20
110.3628242746474
 30
0.0
 11
516.5563503740119
 21
109.3628242746472
 31
0.0
  0
LINE
  5
399
330
1E
100
AcDbEntity
  8
_1-2_________
  6
Continuous
 62
     4
100
AcDbLine
 10
516.1421368116381
 20
110.3628242746468
 30
0.0
 11
515.1421368116384
 21
109.362824274647
 31
0.0
  0
LINE
  5
39A
330
1E
100
AcDbEntity
  8
_1-2_________
  6
Continuous
 62
     4
100
AcDbLine
 10
514.7279232492651
 20
110.3628242746468
 30
0.0
 11
513.7279232492653
 21
109.3628242746474
 31
0.0
  0
LINE
  5
39B
330
1E
100
AcDbEntity
  8
_1-2_________
  6
Continuous
 62
     4
100
AcDbLine
 10
513.3137096868917
 20
110.362824274647
 30
0.0
 11
512.3137096868922
 21
109.3628242746474
 31
0.0
  0
LINE
  5
39C
330
1E
100
AcDbEntity
  8
_1-2_________
  6
Continuous
 62
     4
100
AcDbLine
 10
511.8994961245185
 20
110.3628242746472
 30
0.0
 11
510.899496124519
 21
109.3628242746474
 31
0.0
  0
LINE
  5
39D
330
1E
100
AcDbEntity
  8
_1-2_________
  6
Continuous
 62
     4
100
AcDbLine
 10
510.4852825621452
 20
110.3628242746468
 30
0.0
 11
509.4852825621445
 21
109.3628242746465
 31
0.0
  0
LINE
  5
39E
330
1E
100
AcDbEntity
  8
_1-2_________
  6
Continuous
 62
     4
100
AcDbLine
 10
509.0710689997718
 20
110.362824274647
 30
0.0
 11
508.0710689997716
 21
109.3628242746468
 31
0.0
  0
LINE
  5
39F
330
1E
100
AcDbEntity
  8
_1-2_________
  6
Continuous
 62
     4
100
AcDbLine
 10
507.6568554373986
 20
110.3628242746472
 30
0.0
 11
506.6568554373981
 21
109.3628242746468
 31
0.0
  0
LINE
  5
3A0
330
1E
100
AcDbEntity
  8
_1-2_________
  6
Continuous
 62
     4
100
AcDbLine
 10
506.2426418750268
 20
110.3628242746468
 30
0.0
 11
505.9082297101205
 21
110.0284121097404
 31
0.0
  0
LINE
  5
3A1
330
1E
100
AcDbEntity
  8
_1-2_________
  6
Continuous
 62
     3
100
AcDbLine
 10
505.9082297101199
 20
110.3628242746468
 30
0.0
 11
535.9082297101202
 21
110.3628242746468
 31
0.0
  0
LINE
  5
3A2
330
1E
100
AcDbEntity
  8
_1-2_________
  6
Continuous
 62
     3
100
AcDbLine
 10
535.9082297101202
 20
110.3628242746468
 30
0.0
 11
535.9082297101202
 21
109.3628242746468
 31
0.0
  0
LINE
  5
3A3
330
1E
100
AcDbEntity
  8
_1-2_________
  6
Continuous
 62
     3
100
AcDbLine
 10
535.9082297101202
 20
109.3628242746468
 30
0.0
 11
505.9082297101199
 21
109.3628242746468
 31
0.0
  0
LINE
  5
3A4
330
1E
100
AcDbEntity
  8
_1-2_________
  6
Continuous
 62
     3
100
AcDbLine
 10
505.9082297101199
 20
109.3628242746468
 30
0.0
 11
505.9082297101199
 21
110.3628242746468
 31
0.0
  0
LINE
  5
3A5
330
1E
100
AcDbEntity
  8
_1-E_寸法
  6
Continuous
 62
     4
100
AcDbLine
 10
499.8474607221687
 20
-32.931768436021
 30
0.0
 11
491.968998698071
 21
-31.54258301468542
 31
0.0
  0
LINE
  5
3A6
330
1E
100
AcDbEntity
  8
_1-E_寸法
  6
Continuous
 62
     4
100
AcDbLine
 10
499.8474607221687
 20
-31.54258301468542
 30
0.0
 11
491.968998698071
 21
-32.931768436021
 31
0.0
  0
LINE
  5
3A7
330
1E
100
AcDbEntity
  8
_1-E_寸法
  6
Continuous
 62
     4
100
AcDbLine
 10
674.8474607221685
 20
-32.931768436021
 30
0.0
 11
666.9689986980712
 21
-31.54258301468542
 31
0.0
  0
LINE
  5
3A8
330
1E
100
AcDbEntity
  8
_1-E_寸法
  6
Continuous
 62
     4
100
AcDbLine
 10
674.8474607221685
 20
-31.54258301468542
 30
0.0
 11
666.9689986980712
 21
-32.931768436021
 31
0.0
  0
LINE
  5
3A9
330
1E
100
AcDbEntity
  8
_1-E_寸法
  6
Continuous
 62
     4
100
AcDbLine
 10
45.90822971011989
 20
-32.23717572535298
 30
0.0
 11
745.9082297101198
 21
-32.23717572535298
 31
0.0
  0
LINE
  5
3AA
330
1E
100
AcDbEntity
  8
_1-E_寸法
  6
Continuous
 62
     4
100
AcDbLine
 10
745.9082297101198
 20
-32.23717572535298
 30
0.0
 11
741.9689986980712
 21
-31.54258301468542
 31
0.0
  0
LINE
  5
3AB
330
1E
100
AcDbEntity
  8
_1-E_寸法
  6
Continuous
 62
     4
100
AcDbLine
 10
745.9082297101198
 20
-32.23717572535298
 30
0.0
 11
741.9689986980712
 21
-32.931768436021
 31
0.0
  0
TEXT
  5
3AC
330
1E
100
AcDbEntity
  8
_1-E_寸法
 62
     7
100
AcDbText
 10
701.9082297101198
 20
-32.23717572535298
 30
0.0
 40
5.0
  1
75≦
100
AcDbText
  0
TEXT
  5
3AD
330
1E
100
AcDbEntity
  8
_1-E_寸法
 62
     7
100
AcDbText
 10
576.9082297101198
 20
-32.23717572535298
 30
0.0
 40
5.0
  1
≦Ｃ
100
AcDbText
  0
TEXT
  5
3AE
330
1E
100
AcDbEntity
  8
_1-E_寸法
 62
     7
100
AcDbText
 10
390.90822971012
 20
-32.23717572535298
 30
0.0
 40
5.0
  1
200
100
AcDbText
  0
LINE
  5
3AF
330
1E
100
AcDbEntity
  8
_1-E_寸法
  6
Continuous
 62
     4
100
AcDbLine
 10
291.968998698071
 20
-32.931768436021
 30
0.0
 11
299.8474607221686
 21
-31.54258301468542
 31
0.0
  0
LINE
  5
3B0
330
1E
100
AcDbEntity
  8
_1-E_寸法
  6
Continuous
 62
     4
100
AcDbLine
 10
291.968998698071
 20
-31.54258301468542
 30
0.0
 11
299.8474607221686
 21
-32.931768436021
 31
0.0
  0
LINE
  5
3B1
330
1E
100
AcDbEntity
  8
_1-E_寸法
  6
Continuous
 62
     4
100
AcDbLine
 10
116.968998698071
 20
-32.931768436021
 30
0.0
 11
124.8474607221687
 21
-31.54258301468542
 31
0.0
  0
LINE
  5
3B2
330
1E
100
AcDbEntity
  8
_1-E_寸法
  6
Continuous
 62
     4
100
AcDbLine
 10
116.968998698071
 20
-31.54258301468542
 30
0.0
 11
124.8474607221687
 21
-32.931768436021
 31
0.0
  0
LINE
  5
3B3
330
1E
100
AcDbEntity
  8
_1-E_寸法
  6
Continuous
 62
     4
100
AcDbLine
 10
45.90822971011989
 20
-32.23717572535298
 30
0.0
 11
49.84746072216871
 21
-31.54258301468542
 31
0.0
  0
LINE
  5
3B4
330
1E
100
AcDbEntity
  8
_1-E_寸法
  6
Continuous
 62
     4
100
AcDbLine
 10
45.90822971011989
 20
-32.23717572535298
 30
0.0
 11
49.84746072216871
 21
-32.931768436021
 31
0.0
  0
TEXT
  5
3B5
330
1E
100
AcDbEntity
  8
_1-E_寸法
 62
     7
100
AcDbText
 10
76.90822971011988
 20
-32.23717572535298
 30
0.0
 40
5.0
  1
75≦
100
AcDbText
  0
TEXT
  5
3B6
330
1E
100
AcDbEntity
  8
_1-E_寸法
 62
     7
100
AcDbText
 10
201.9082297101197
 20
-32.23717572535298
 30
0.0
 40
5.0
  1
≦Ｃ
100
AcDbText
  0
LINE
  5
3B7
330
1E
100
AcDbEntity
  8
_1-0_躯体
  6
Continuous
 62
     7
100
AcDbLine
 10
120.9082297101198
 20
107.762824274647
 30
0.0
 11
120.9082297101198
 21
-52.23717572535298
 31
0.0
  0
LINE
  5
3B8
330
1E
100
AcDbEntity
  8
_1-0_躯体
  6
Continuous
 62
     7
100
AcDbLine
 10
670.9082297101198
 20
107.762824274647
 30
0.0
 11
670.9082297101198
 21
-52.23717572535298
 31
0.0
  0
LINE
  5
3B9
330
1E
100
AcDbEntity
  8
_1-0_躯体
  6
Continuous
 62
     7
100
AcDbLine
 10
495.9082297101198
 20
107.762824274647
 30
0.0
 11
495.9082297101198
 21
-52.23717572535298
 31
0.0
  0
LINE
  5
3BA
330
1E
100
AcDbEntity
  8
_1-0_躯体
  6
Continuous
 62
     7
100
AcDbLine
 10
295.9082297101197
 20
107.762824274647
 30
0.0
 11
295.9082297101197
 21
-52.23717572535298
 31
0.0
  0
LINE
  5
3BB
330
1E
100
AcDbEntity
  8
_1-1_耐火帯
  6
Continuous
 62
     3
100
AcDbLine
 10
494.6172032685418
 20
109.3628242746468
 30
0.0
 11
486.3082297101199
 21
70.93382156694599
 31
0.0
  0
LINE
  5
3BC
330
1E
100
AcDbEntity
  8
_1-1_耐火帯
  6
Continuous
 62
     3
100
AcDbLine
 10
535.9082297101198
 20
109.3628242746468
 30
0.0
 11
535.9082297101198
 21
107.762824274647
 31
0.0
  0
LINE
  5
3BD
330
1E
100
AcDbEntity
  8
_1-1_耐火帯
  6
Continuous
 62
     3
100
AcDbLine
 10
535.9082297101198
 20
109.3628242746468
 30
0.0
 11
494.6172032685418
 21
109.3628242746468
 31
0.0
  0
LINE
  5
3BE
330
1E
100
AcDbEntity
  8
_1-1_耐火帯
  6
Continuous
 62
     3
100
AcDbLine
 10
535.9082297101198
 20
107.762824274647
 30
0.0
 11
495.9082297101198
 21
107.762824274647
 31
0.0
  0
LINE
  5
3BF
330
1E
100
AcDbEntity
  8
_1-1_耐火帯
  6
Continuous
 62
     3
100
AcDbLine
 10
495.9082297101198
 20
107.762824274647
 30
0.0
 11
487.90822971012
 21
70.76282427464701
 31
0.0
  0
LINE
  5
3C0
330
1E
100
AcDbEntity
  8
_1-1_耐火帯
  6
Continuous
 62
     3
100
AcDbLine
 10
486.3082297101199
 20
70.93382156694599
 30
0.0
 11
486.3082297101199
 21
50.76282427464684
 31
0.0
  0
LINE
  5
3C1
330
1E
100
AcDbEntity
  8
_1-1_耐火帯
  6
Continuous
 62
     3
100
AcDbLine
 10
487.90822971012
 20
50.76282427464684
 30
0.0
 11
486.3082297101199
 21
50.76282427464684
 31
0.0
  0
LINE
  5
3C2
330
1E
100
AcDbEntity
  8
_1-1_耐火帯
  6
Continuous
 62
     3
100
AcDbLine
 10
487.90822971012
 20
70.76282427464701
 30
0.0
 11
487.90822971012
 21
50.76282427464684
 31
0.0
  0
LINE
  5
3C3
330
1E
100
AcDbEntity
  8
_1-1_耐火帯
  6
Continuous
 62
     3
100
AcDbLine
 10
491.90822971012
 20
68.26282427464701
 30
0.0
 11
491.90822971012
 21
53.26282427464701
 31
0.0
  0
LINE
  5
3C4
330
1E
100
AcDbEntity
  8
_1-1_耐火帯
  6
Continuous
 62
     3
100
AcDbLine
 10
491.90822971012
 20
53.26282427464701
 30
0.0
 11
493.50822971012
 21
53.26282427464701
 31
0.0
  0
LINE
  5
3C5
330
1E
100
AcDbEntity
  8
_1-1_耐火帯
  6
Continuous
 62
     3
100
AcDbLine
 10
493.50822971012
 20
53.26282427464701
 30
0.0
 11
493.50822971012
 21
68.26282427464701
 31
0.0
  0
LINE
  5
3C6
330
1E
100
AcDbEntity
  8
_1-1_耐火帯
  6
Continuous
 62
     3
100
AcDbLine
 10
493.50822971012
 20
68.26282427464701
 30
0.0
 11
491.90822971012
 21
68.26282427464701
 31
0.0
  0
LINE
  5
3C7
330
1E
100
AcDbEntity
  8
_1-1_耐火帯
  6
Continuous
 62
     3
100
AcDbLine
 10
493.50822971012
 20
65.76282427464701
 30
0.0
 11
494.0082297101199
 21
65.76282427464701
 31
0.0
  0
ARC
  5
3C8
330
1E
100
AcDbEntity
  8
_1-1_耐火帯
  6
Continuous
 62
     3
100
AcDbCircle
 10
494.0082297101199
 20
65.26282427464678
 30
0.0
 40
0.5
100
AcDbArc
 50
0.0
 51
90.0
  0
ARC
  5
3C9
330
1E
100
AcDbEntity
  8
_1-1_耐火帯
  6
Continuous
 62
     3
100
AcDbCircle
 10
494.0082297101199
 20
56.26282427464701
 30
0.0
 40
0.5
100
AcDbArc
 50
270.0
 51
0.0
  0
LINE
  5
3CA
330
1E
100
AcDbEntity
  8
_1-1_耐火帯
  6
Continuous
 62
     3
100
AcDbLine
 10
494.5082297101199
 20
65.26282427464678
 30
0.0
 11
494.5082297101199
 21
56.26282427464701
 31
0.0
  0
LINE
  5
3CB
330
1E
100
AcDbEntity
  8
_1-1_耐火帯
  6
Continuous
 62
     3
100
AcDbLine
 10
493.50822971012
 20
55.76282427464701
 30
0.0
 11
494.0082297101199
 21
55.76282427464701
 31
0.0
  0
LINE
  5
3CC
330
1E
100
AcDbEntity
  8
_1-1_耐火帯
  6
Continuous
 62
     3
100
AcDbLine
 10
486.3082297101199
 20
63.26282427464679
 30
0.0
 11
485.80822971012
 21
63.26282427464679
 31
0.0
  0
ARC
  5
3CD
330
1E
100
AcDbEntity
  8
_1-1_耐火帯
  6
Continuous
 62
     3
100
AcDbCircle
 10
485.80822971012
 20
62.26282427464702
 30
0.0
 40
1.0
100
AcDbArc
 50
90.0
 51
180.0
  0
LINE
  5
3CE
330
1E
100
AcDbEntity
  8
_1-1_耐火帯
  6
Continuous
 62
     3
100
AcDbLine
 10
484.8082297101199
 20
62.26282427464702
 30
0.0
 11
484.8082297101199
 21
59.26282427464702
 31
0.0
  0
ARC
  5
3CF
330
1E
100
AcDbEntity
  8
_1-1_耐火帯
  6
Continuous
 62
     3
100
AcDbCircle
 10
485.80822971012
 20
59.26282427464702
 30
0.0
 40
1.0
100
AcDbArc
 50
180.0
 51
270.0
  0
LINE
  5
3D0
330
1E
100
AcDbEntity
  8
_1-1_耐火帯
  6
Continuous
 62
     3
100
AcDbLine
 10
485.80822971012
 20
58.26282427464701
 30
0.0
 11
486.3082297101199
 21
58.26282427464701
 31
0.0
  0
LINE
  5
3D1
330
1E
100
AcDbEntity
  8
_1-1_耐火帯
  6
Continuous
 62
     3
100
AcDbLine
 10
297.199256151698
 20
109.3628242746468
 30
0.0
 11
305.5082297101196
 21
70.93382156694599
 31
0.0
  0
LINE
  5
3D2
330
1E
100
AcDbEntity
  8
_1-1_耐火帯
  6
Continuous
 62
     3
100
AcDbLine
 10
255.9082297101197
 20
109.3628242746468
 30
0.0
 11
255.9082297101197
 21
107.762824274647
 31
0.0
  0
LINE
  5
3D3
330
1E
100
AcDbEntity
  8
_1-1_耐火帯
  6
Continuous
 62
     3
100
AcDbLine
 10
255.9082297101197
 20
109.3628242746468
 30
0.0
 11
297.199256151698
 21
109.3628242746468
 31
0.0
  0
LINE
  5
3D4
330
1E
100
AcDbEntity
  8
_1-1_耐火帯
  6
Continuous
 62
     3
100
AcDbLine
 10
255.9082297101197
 20
107.762824274647
 30
0.0
 11
295.9082297101197
 21
107.762824274647
 31
0.0
  0
LINE
  5
3D5
330
1E
100
AcDbEntity
  8
_1-1_耐火帯
  6
Continuous
 62
     3
100
AcDbLine
 10
295.9082297101197
 20
107.762824274647
 30
0.0
 11
303.9082297101197
 21
70.76282427464701
 31
0.0
  0
LINE
  5
3D6
330
1E
100
AcDbEntity
  8
_1-1_耐火帯
  6
Continuous
 62
     3
100
AcDbLine
 10
305.5082297101196
 20
70.93382156694599
 30
0.0
 11
305.5082297101196
 21
50.76282427464684
 31
0.0
  0
LINE
  5
3D7
330
1E
100
AcDbEntity
  8
_1-1_耐火帯
  6
Continuous
 62
     3
100
AcDbLine
 10
303.9082297101197
 20
50.76282427464684
 30
0.0
 11
305.5082297101196
 21
50.76282427464684
 31
0.0
  0
LINE
  5
3D8
330
1E
100
AcDbEntity
  8
_1-1_耐火帯
  6
Continuous
 62
     3
100
AcDbLine
 10
303.9082297101197
 20
70.76282427464701
 30
0.0
 11
303.9082297101197
 21
50.76282427464684
 31
0.0
  0
LINE
  5
3D9
330
1E
100
AcDbEntity
  8
_1-1_耐火帯
  6
Continuous
 62
     3
100
AcDbLine
 10
299.9082297101197
 20
68.26282427464701
 30
0.0
 11
299.9082297101197
 21
53.26282427464701
 31
0.0
  0
LINE
  5
3DA
330
1E
100
AcDbEntity
  8
_1-1_耐火帯
  6
Continuous
 62
     3
100
AcDbLine
 10
299.9082297101197
 20
53.26282427464701
 30
0.0
 11
298.3082297101196
 21
53.26282427464701
 31
0.0
  0
LINE
  5
3DB
330
1E
100
AcDbEntity
  8
_1-1_耐火帯
  6
Continuous
 62
     3
100
AcDbLine
 10
298.3082297101196
 20
53.26282427464701
 30
0.0
 11
298.3082297101196
 21
68.26282427464701
 31
0.0
  0
LINE
  5
3DC
330
1E
100
AcDbEntity
  8
_1-1_耐火帯
  6
Continuous
 62
     3
100
AcDbLine
 10
298.3082297101196
 20
68.26282427464701
 30
0.0
 11
299.9082297101197
 21
68.26282427464701
 31
0.0
  0
LINE
  5
3DD
330
1E
100
AcDbEntity
  8
_1-1_耐火帯
  6
Continuous
 62
     3
100
AcDbLine
 10
298.3082297101196
 20
65.76282427464701
 30
0.0
 11
297.8082297101196
 21
65.76282427464701
 31
0.0
  0
ARC
  5
3DE
330
1E
100
AcDbEntity
  8
_1-1_耐火帯
  6
Continuous
 62
     3
100
AcDbCircle
 10
297.8082297101196
 20
65.26282427464678
 30
0.0
 40
0.5
100
AcDbArc
 50
90.0
 51
180.0
  0
ARC
  5
3DF
330
1E
100
AcDbEntity
  8
_1-1_耐火帯
  6
Continuous
 62
     3
100
AcDbCircle
 10
297.8082297101196
 20
56.26282427464701
 30
0.0
 40
0.5
100
AcDbArc
 50
180.0
 51
270.0
  0
LINE
  5
3E0
330
1E
100
AcDbEntity
  8
_1-1_耐火帯
  6
Continuous
 62
     3
100
AcDbLine
 10
297.3082297101196
 20
65.26282427464678
 30
0.0
 11
297.3082297101196
 21
56.26282427464701
 31
0.0
  0
LINE
  5
3E1
330
1E
100
AcDbEntity
  8
_1-1_耐火帯
  6
Continuous
 62
     3
100
AcDbLine
 10
298.3082297101196
 20
55.76282427464701
 30
0.0
 11
297.8082297101196
 21
55.76282427464701
 31
0.0
  0
LINE
  5
3E2
330
1E
100
AcDbEntity
  8
_1-1_耐火帯
  6
Continuous
 62
     3
100
AcDbLine
 10
305.5082297101196
 20
63.26282427464679
 30
0.0
 11
306.0082297101196
 21
63.26282427464679
 31
0.0
  0
ARC
  5
3E3
330
1E
100
AcDbEntity
  8
_1-1_耐火帯
  6
Continuous
 62
     3
100
AcDbCircle
 10
306.0082297101196
 20
62.26282427464702
 30
0.0
 40
1.0
100
AcDbArc
 50
0.0000000000000127
 51
90.00000000000005
  0
LINE
  5
3E4
330
1E
100
AcDbEntity
  8
_1-1_耐火帯
  6
Continuous
 62
     3
100
AcDbLine
 10
307.0082297101196
 20
62.26282427464702
 30
0.0
 11
307.0082297101196
 21
59.26282427464702
 31
0.0
  0
ARC
  5
3E5
330
1E
100
AcDbEntity
  8
_1-1_耐火帯
  6
Continuous
 62
     3
100
AcDbCircle
 10
306.0082297101196
 20
59.26282427464702
 30
0.0
 40
1.0
100
AcDbArc
 50
270.0
 51
0.0
  0
LINE
  5
3E6
330
1E
100
AcDbEntity
  8
_1-1_耐火帯
  6
Continuous
 62
     3
100
AcDbLine
 10
306.0082297101196
 20
58.26282427464701
 30
0.0
 11
305.5082297101196
 21
58.26282427464701
 31
0.0
  0
TEXT
  5
3E7
330
1E
100
AcDbEntity
  8
_1-F_表__文字
 62
     7
100
AcDbText
 10
302.0082297101199
 20
-76.23717572535298
 30
0.0
 40
5.0
  1
規　格
100
AcDbText
  0
TEXT
  5
3E8
330
1E
100
AcDbEntity
  8
_1-F_表__文字
 62
     7
100
AcDbText
 10
201.0082297101199
 20
-76.23717572535298
 30
0.0
 40
5.0
  1
部材名称
100
AcDbText
  0
LINE
  5
3E9
330
1E
100
AcDbEntity
  8
_1-F_表__文字
  6
Continuous
 62
     7
100
AcDbLine
 10
413.5082297101199
 20
-259.237175725353
 30
0.0
 11
413.5082297101199
 21
-67.23717572535298
 31
0.0
  0
LINE
  5
3EA
330
1E
100
AcDbEntity
  8
_1-F_表__文字
  6
Continuous
 62
     7
100
AcDbLine
 10
395.5082297101199
 20
-259.237175725353
 30
0.0
 11
395.5082297101199
 21
-67.23717572535298
 31
0.0
  0
LINE
  5
3EB
330
1E
100
AcDbEntity
  8
_1-F_表__文字
  6
Continuous
 62
     7
100
AcDbLine
 10
360.5082297101199
 20
-259.237175725353
 30
0.0
 11
360.5082297101199
 21
-67.23717572535298
 31
0.0
  0
LINE
  5
3EC
330
1E
100
AcDbEntity
  8
_1-F_表__文字
  6
Continuous
 62
     7
100
AcDbLine
 10
359.5082297101199
 20
-259.237175725353
 30
0.0
 11
359.5082297101199
 21
-67.23717572535298
 31
0.0
  0
TEXT
  5
3ED
330
1E
100
AcDbEntity
  8
_1-F_表__文字
 62
     7
100
AcDbText
 10
269.5082297101199
 20
-208.2371757253529
 30
0.0
 40
5.0
  1
Ｍ6×40
100
AcDbText
  0
TEXT
  5
3EE
330
1E
100
AcDbEntity
  8
_1-F_表__文字
 62
     7
100
AcDbText
 10
269.5082297101199
 20
-256.2371757253529
 30
0.0
 40
5.0
  1
ｔ1.0×ｗ30
100
AcDbText
  0
TEXT
  5
3EF
330
1E
100
AcDbEntity
  8
_1-F_表__文字
 62
     7
100
AcDbText
 10
269.5082297101199
 20
-232.237175725353
 30
0.0
 40
5.0
  1
1.5×18×6.5穴
100
AcDbText
  0
TEXT
  5
3F0
330
1E
100
AcDbEntity
  8
_1-F_表__文字
 62
     7
100
AcDbText
 10
269.5082297101199
 20
-220.2371757253529
 30
0.0
 40
5.0
  1
ＡＧ－660
100
AcDbText
  0
TEXT
  5
3F1
330
1E
100
AcDbEntity
  8
_1-F_表__文字
 62
     7
100
AcDbText
 10
269.5082297101199
 20
-172.2371757253529
 30
0.0
 40
5.0
  1
ＰＳ
100
AcDbText
  0
LINE
  5
3F2
330
1E
100
AcDbEntity
  8
_1-F_表__文字
  6
Continuous
 62
     7
100
AcDbLine
 10
264.5082297101199
 20
-259.237175725353
 30
0.0
 11
264.5082297101199
 21
-67.23717572535298
 31
0.0
  0
TEXT
  5
3F3
330
1E
100
AcDbEntity
  8
_1-F_表__文字
 62
     7
100
AcDbText
 10
169.5082297101201
 20
-256.2371757253529
 30
0.0
 40
5.0
  1
ブチルテープ
100
AcDbText
  0
TEXT
  5
3F4
330
1E
100
AcDbEntity
  8
_1-F_表__文字
 62
     7
100
AcDbText
 10
169.5082297101201
 20
-244.2371757253529
 30
0.0
 40
5.0
  1
耐火帯
100
AcDbText
  0
TEXT
  5
3F5
330
1E
100
AcDbEntity
  8
_1-F_表__文字
 62
     7
100
AcDbText
 10
169.5082297101201
 20
-232.237175725353
 30
0.0
 40
5.0
  1
ステンワッシャー
100
AcDbText
  0
TEXT
  5
3F6
330
1E
100
AcDbEntity
  8
_1-F_表__文字
 62
     7
100
AcDbText
 10
169.5082297101201
 20
-220.2371757253529
 30
0.0
 40
5.0
  1
アジャストアンカー
100
AcDbText
  0
TEXT
  5
3F7
330
1E
100
AcDbEntity
  8
_1-F_表__文字
 62
     7
100
AcDbText
 10
169.5082297101201
 20
-208.2371757253529
 30
0.0
 40
5.0
  1
ステン六角ボルト
100
AcDbText
  0
TEXT
  5
3F8
330
1E
100
AcDbEntity
  8
_1-F_表__文字
 62
     7
100
AcDbText
 10
169.5082297101201
 20
-196.237175725353
 30
0.0
 40
5.0
  1
ステン小ネジ
100
AcDbText
  0
TEXT
  5
3F9
330
1E
100
AcDbEntity
  8
_1-F_表__文字
 62
     7
100
AcDbText
 10
169.5082297101201
 20
-184.2371757253529
 30
0.0
 40
5.0
  1
止水補助板
100
AcDbText
  0
TEXT
  5
3FA
330
1E
100
AcDbEntity
  8
_1-F_表__文字
 62
     7
100
AcDbText
 10
169.5082297101201
 20
-172.2371757253529
 30
0.0
 40
5.0
  1
止水補助板
100
AcDbText
  0
TEXT
  5
3FB
330
1E
100
AcDbEntity
  8
_1-F_表__文字
 62
     7
100
AcDbText
 10
169.5082297101201
 20
-160.2371757253529
 30
0.0
 40
5.0
  1
ＦＹＹ水切ジョイント
100
AcDbText
  0
TEXT
  5
3FC
330
1E
100
AcDbEntity
  8
_1-F_表__文字
 62
     7
100
AcDbText
 10
169.5082297101201
 20
-148.2371757253529
 30
0.0
 40
5.0
  1
ＦＹＹフレームナット
100
AcDbText
  0
TEXT
  5
3FD
330
1E
100
AcDbEntity
  8
_1-F_表__文字
 62
     7
100
AcDbText
 10
169.5082297101201
 20
-124.2371757253529
 30
0.0
 40
5.0
  1
ＦＹＹホルダー
100
AcDbText
  0
TEXT
  5
3FE
330
1E
100
AcDbEntity
  8
_1-F_表__文字
 62
     7
100
AcDbText
 10
169.5082297101201
 20
-100.2371757253529
 30
0.0
 40
5.0
  1
ＦＹＹフレーム
100
AcDbText
  0
TEXT
  5
3FF
330
1E
100
AcDbEntity
  8
_1-F_表__文字
 62
     7
100
AcDbText
 10
169.5082297101201
 20
-88.23717572535299
 30
0.0
 40
5.0
  1
ＦＹＹキヤップＡ
100
AcDbText
  0
LINE
  5
400
330
1E
100
AcDbEntity
  8
_1-F_表__文字
  6
Continuous
 62
     7
100
AcDbLine
 10
164.5082297101201
 20
-259.237175725353
 30
0.0
 11
164.5082297101201
 21
-67.23717572535298
 31
0.0
  0
TEXT
  5
401
330
1E
100
AcDbEntity
  8
_1-F_表__文字
 62
     7
100
AcDbText
 10
169.5082297101201
 20
-136.2371757253529
 30
0.0
 40
5.0
  1
ＦＹＹホルダースプリング
100
AcDbText
  0
TEXT
  5
402
330
1E
100
AcDbEntity
  8
_1-F_表__文字
 62
     7
100
AcDbText
 10
269.5082297101199
 20
-196.237175725353
 30
0.0
 40
5.0
  1
ナベＭ6×35
100
AcDbText
  0
LINE
  5
403
330
1E
100
AcDbEntity
  8
_1-F_表__文字
  6
Continuous
 62
     7
100
AcDbLine
 10
427.5082297101201
 20
-247.2371757253529
 30
0.0
 11
360.5082297101199
 21
-247.2371757253529
 31
0.0
  0
LINE
  5
404
330
1E
100
AcDbEntity
  8
_1-F_表__文字
  6
Continuous
 62
     7
100
AcDbLine
 10
427.5082297101201
 20
-115.2371757253529
 30
0.0
 11
360.5082297101199
 21
-115.2371757253529
 31
0.0
  0
LINE
  5
405
330
1E
100
AcDbEntity
  8
_1-F_表__文字
  6
Continuous
 62
     7
100
AcDbLine
 10
427.5082297101201
 20
-103.2371757253529
 30
0.0
 11
360.5082297101199
 21
-103.2371757253529
 31
0.0
  0
LINE
  5
406
330
1E
100
AcDbEntity
  8
_1-F_表__文字
  6
Continuous
 62
     7
100
AcDbLine
 10
427.5082297101201
 20
-91.23717572535298
 30
0.0
 11
360.5082297101199
 21
-91.23717572535298
 31
0.0
  0
LINE
  5
407
330
1E
100
AcDbEntity
  8
_1-F_表__文字
  6
Continuous
 62
     7
100
AcDbLine
 10
427.5082297101201
 20
-79.23717572535299
 30
0.0
 11
360.5082297101199
 21
-79.23717572535299
 31
0.0
  0
LINE
  5
408
330
1E
100
AcDbEntity
  8
_1-F_表__文字
  6
Continuous
 62
     7
100
AcDbLine
 10
427.5082297101201
 20
-199.2371757253529
 30
0.0
 11
360.5082297101199
 21
-199.2371757253529
 31
0.0
  0
LINE
  5
409
330
1E
100
AcDbEntity
  8
_1-F_表__文字
  6
Continuous
 62
     7
100
AcDbLine
 10
427.5082297101201
 20
-187.2371757253529
 30
0.0
 11
360.5082297101199
 21
-187.2371757253529
 31
0.0
  0
LINE
  5
40A
330
1E
100
AcDbEntity
  8
_1-F_表__文字
  6
Continuous
 62
     7
100
AcDbLine
 10
427.5082297101201
 20
-163.2371757253529
 30
0.0
 11
360.5082297101199
 21
-163.2371757253529
 31
0.0
  0
LINE
  5
40B
330
1E
100
AcDbEntity
  8
_1-F_表__文字
  6
Continuous
 62
     7
100
AcDbLine
 10
427.5082297101201
 20
-151.2371757253529
 30
0.0
 11
360.5082297101199
 21
-151.2371757253529
 31
0.0
  0
LINE
  5
40C
330
1E
100
AcDbEntity
  8
_1-F_表__文字
  6
Continuous
 62
     7
100
AcDbLine
 10
427.5082297101201
 20
-139.2371757253529
 30
0.0
 11
360.5082297101199
 21
-139.2371757253529
 31
0.0
  0
LINE
  5
40D
330
1E
100
AcDbEntity
  8
_1-F_表__文字
  6
Continuous
 62
     7
100
AcDbLine
 10
427.5082297101201
 20
-127.2371757253529
 30
0.0
 11
360.5082297101199
 21
-127.2371757253529
 31
0.0
  0
LINE
  5
40E
330
1E
100
AcDbEntity
  8
_1-F_表__文字
  6
Continuous
 62
     7
100
AcDbLine
 10
427.5082297101201
 20
-175.2371757253529
 30
0.0
 11
360.5082297101199
 21
-175.2371757253529
 31
0.0
  0
LINE
  5
40F
330
1E
100
AcDbEntity
  8
_1-F_表__文字
  6
Continuous
 62
     7
100
AcDbLine
 10
427.5082297101201
 20
-235.2371757253529
 30
0.0
 11
360.5082297101199
 21
-235.2371757253529
 31
0.0
  0
LINE
  5
410
330
1E
100
AcDbEntity
  8
_1-F_表__文字
  6
Continuous
 62
     7
100
AcDbLine
 10
427.5082297101201
 20
-223.2371757253529
 30
0.0
 11
360.5082297101199
 21
-223.2371757253529
 31
0.0
  0
LINE
  5
411
330
1E
100
AcDbEntity
  8
_1-F_表__文字
  6
Continuous
 62
     7
100
AcDbLine
 10
427.5082297101201
 20
-211.2371757253529
 30
0.0
 11
360.5082297101199
 21
-211.2371757253529
 31
0.0
  0
LINE
  5
412
330
1E
100
AcDbEntity
  8
_1-F_表__文字
  6
Continuous
 62
     7
100
AcDbLine
 10
427.5082297101201
 20
-259.237175725353
 30
0.0
 11
360.5082297101199
 21
-259.237175725353
 31
0.0
  0
LINE
  5
413
330
1E
100
AcDbEntity
  8
_1-F_表__文字
  6
Continuous
 62
     7
100
AcDbLine
 10
427.5082297101201
 20
-67.23717572535298
 30
0.0
 11
360.5082297101199
 21
-67.23717572535298
 31
0.0
  0
LINE
  5
414
330
1E
100
AcDbEntity
  8
_1-F_表__文字
  6
Continuous
 62
     7
100
AcDbLine
 10
481.5082297101201
 20
-259.237175725353
 30
0.0
 11
481.5082297101201
 21
-67.23717572535298
 31
0.0
  0
LINE
  5
415
330
1E
100
AcDbEntity
  8
_1-F_表__文字
  6
Continuous
 62
     7
100
AcDbLine
 10
463.5082297101202
 20
-259.237175725353
 30
0.0
 11
463.5082297101202
 21
-67.23717572535298
 31
0.0
  0
LINE
  5
416
330
1E
100
AcDbEntity
  8
_1-F_表__文字
  6
Continuous
 62
     7
100
AcDbLine
 10
428.5082297101202
 20
-259.237175725353
 30
0.0
 11
428.5082297101202
 21
-67.23717572535298
 31
0.0
  0
LINE
  5
417
330
1E
100
AcDbEntity
  8
_1-F_表__文字
  6
Continuous
 62
     7
100
AcDbLine
 10
427.5082297101201
 20
-259.237175725353
 30
0.0
 11
427.5082297101201
 21
-67.23717572535298
 31
0.0
  0
LINE
  5
418
330
1E
100
AcDbEntity
  8
_1-F_表__文字
  6
Continuous
 62
     7
100
AcDbLine
 10
428.5082297101202
 20
-247.2371757253529
 30
0.0
 11
495.5082297101202
 21
-247.2371757253529
 31
0.0
  0
LINE
  5
419
330
1E
100
AcDbEntity
  8
_1-F_表__文字
  6
Continuous
 62
     7
100
AcDbLine
 10
428.5082297101202
 20
-235.2371757253529
 30
0.0
 11
495.5082297101202
 21
-235.2371757253529
 31
0.0
  0
LINE
  5
41A
330
1E
100
AcDbEntity
  8
_1-F_表__文字
  6
Continuous
 62
     7
100
AcDbLine
 10
428.5082297101202
 20
-223.2371757253529
 30
0.0
 11
495.5082297101202
 21
-223.2371757253529
 31
0.0
  0
LINE
  5
41B
330
1E
100
AcDbEntity
  8
_1-F_表__文字
  6
Continuous
 62
     7
100
AcDbLine
 10
428.5082297101202
 20
-199.2371757253529
 30
0.0
 11
495.5082297101202
 21
-199.2371757253529
 31
0.0
  0
LINE
  5
41C
330
1E
100
AcDbEntity
  8
_1-F_表__文字
  6
Continuous
 62
     7
100
AcDbLine
 10
428.5082297101202
 20
-187.2371757253529
 30
0.0
 11
495.5082297101202
 21
-187.2371757253529
 31
0.0
  0
LINE
  5
41D
330
1E
100
AcDbEntity
  8
_1-F_表__文字
  6
Continuous
 62
     7
100
AcDbLine
 10
428.5082297101202
 20
-151.2371757253529
 30
0.0
 11
495.5082297101202
 21
-151.2371757253529
 31
0.0
  0
LINE
  5
41E
330
1E
100
AcDbEntity
  8
_1-F_表__文字
  6
Continuous
 62
     7
100
AcDbLine
 10
428.5082297101202
 20
-139.2371757253529
 30
0.0
 11
495.5082297101202
 21
-139.2371757253529
 31
0.0
  0
LINE
  5
41F
330
1E
100
AcDbEntity
  8
_1-F_表__文字
  6
Continuous
 62
     7
100
AcDbLine
 10
428.5082297101202
 20
-175.2371757253529
 30
0.0
 11
495.5082297101202
 21
-175.2371757253529
 31
0.0
  0
LINE
  5
420
330
1E
100
AcDbEntity
  8
_1-F_表__文字
  6
Continuous
 62
     7
100
AcDbLine
 10
428.5082297101202
 20
-211.2371757253529
 30
0.0
 11
495.5082297101202
 21
-211.2371757253529
 31
0.0
  0
LINE
  5
421
330
1E
100
AcDbEntity
  8
_1-F_表__文字
  6
Continuous
 62
     7
100
AcDbLine
 10
428.5082297101202
 20
-127.2371757253529
 30
0.0
 11
495.5082297101202
 21
-127.2371757253529
 31
0.0
  0
LINE
  5
422
330
1E
100
AcDbEntity
  8
_1-F_表__文字
  6
Continuous
 62
     7
100
AcDbLine
 10
428.5082297101202
 20
-115.2371757253529
 30
0.0
 11
495.5082297101202
 21
-115.2371757253529
 31
0.0
  0
LINE
  5
423
330
1E
100
AcDbEntity
  8
_1-F_表__文字
  6
Continuous
 62
     7
100
AcDbLine
 10
428.5082297101202
 20
-103.2371757253529
 30
0.0
 11
495.5082297101202
 21
-103.2371757253529
 31
0.0
  0
LINE
  5
424
330
1E
100
AcDbEntity
  8
_1-F_表__文字
  6
Continuous
 62
     7
100
AcDbLine
 10
428.5082297101202
 20
-91.23717572535298
 30
0.0
 11
495.5082297101202
 21
-91.23717572535298
 31
0.0
  0
LINE
  5
425
330
1E
100
AcDbEntity
  8
_1-F_表__文字
  6
Continuous
 62
     7
100
AcDbLine
 10
428.5082297101202
 20
-79.23717572535299
 30
0.0
 11
495.5082297101202
 21
-79.23717572535299
 31
0.0
  0
LINE
  5
426
330
1E
100
AcDbEntity
  8
_1-F_表__文字
  6
Continuous
 62
     7
100
AcDbLine
 10
428.5082297101202
 20
-163.2371757253529
 30
0.0
 11
495.5082297101202
 21
-163.2371757253529
 31
0.0
  0
LINE
  5
427
330
1E
100
AcDbEntity
  8
_1-F_表__文字
  6
Continuous
 62
     7
100
AcDbLine
 10
428.5082297101202
 20
-259.237175725353
 30
0.0
 11
495.5082297101202
 21
-259.237175725353
 31
0.0
  0
LINE
  5
428
330
1E
100
AcDbEntity
  8
_1-F_表__文字
  6
Continuous
 62
     7
100
AcDbLine
 10
428.5082297101202
 20
-67.23717572535298
 30
0.0
 11
495.5082297101202
 21
-67.23717572535298
 31
0.0
  0
LINE
  5
429
330
1E
100
AcDbEntity
  8
_1-F_表__文字
  6
Continuous
 62
     7
100
AcDbLine
 10
495.5082297101202
 20
-259.237175725353
 30
0.0
 11
495.5082297101202
 21
-67.23717572535298
 31
0.0
  0
TEXT
  5
42A
330
1E
100
AcDbEntity
  8
_1-F_表__文字
 62
     7
100
AcDbText
 10
417.5082297101202
 20
-256.2371757253529
 30
0.0
 40
5.0
  1
巻
100
AcDbText
  0
TEXT
  5
42B
330
1E
100
AcDbEntity
  8
_1-F_表__文字
 62
     7
100
AcDbText
 10
417.5082297101202
 20
-244.2371757253529
 30
0.0
 40
5.0
  1
本
100
AcDbText
  0
TEXT
  5
42C
330
1E
100
AcDbEntity
  8
_1-F_表__文字
 62
     7
100
AcDbText
 10
417.5082297101202
 20
-232.237175725353
 30
0.0
 40
5.0
  1
枚
100
AcDbText
  0
TEXT
  5
42D
330
1E
100
AcDbEntity
  8
_1-F_表__文字
 62
     7
100
AcDbText
 10
417.5082297101202
 20
-220.2371757253529
 30
0.0
 40
5.0
  1
〃
100
AcDbText
  0
TEXT
  5
42E
330
1E
100
AcDbEntity
  8
_1-F_表__文字
 62
     7
100
AcDbText
 10
417.5082297101202
 20
-208.2371757253529
 30
0.0
 40
5.0
  1
〃
100
AcDbText
  0
TEXT
  5
42F
330
1E
100
AcDbEntity
  8
_1-F_表__文字
 62
     7
100
AcDbText
 10
417.5082297101202
 20
-196.237175725353
 30
0.0
 40
5.0
  1
本
100
AcDbText
  0
TEXT
  5
430
330
1E
100
AcDbEntity
  8
_1-F_表__文字
 62
     7
100
AcDbText
 10
417.5082297101202
 20
-184.2371757253529
 30
0.0
 40
5.0
  1
〃
100
AcDbText
  0
TEXT
  5
431
330
1E
100
AcDbEntity
  8
_1-F_表__文字
 62
     7
100
AcDbText
 10
417.5082297101202
 20
-172.2371757253529
 30
0.0
 40
5.0
  1
枚
100
AcDbText
  0
TEXT
  5
432
330
1E
100
AcDbEntity
  8
_1-F_表__文字
 62
     7
100
AcDbText
 10
417.5082297101202
 20
-160.2371757253529
 30
0.0
 40
5.0
  1
〃
100
AcDbText
  0
TEXT
  5
433
330
1E
100
AcDbEntity
  8
_1-F_表__文字
 62
     7
100
AcDbText
 10
417.5082297101202
 20
-148.2371757253529
 30
0.0
 40
5.0
  1
〃
100
AcDbText
  0
TEXT
  5
434
330
1E
100
AcDbEntity
  8
_1-F_表__文字
 62
     7
100
AcDbText
 10
417.5082297101202
 20
-136.2371757253529
 30
0.0
 40
5.0
  1
〃
100
AcDbText
  0
TEXT
  5
435
330
1E
100
AcDbEntity
  8
_1-F_表__文字
 62
     7
100
AcDbText
 10
417.5082297101202
 20
-124.2371757253529
 30
0.0
 40
5.0
  1
個
100
AcDbText
  0
TEXT
  5
436
330
1E
100
AcDbEntity
  8
_1-F_表__文字
 62
     7
100
AcDbText
 10
417.5082297101202
 20
-112.2371757253529
 30
0.0
 40
5.0
  1
〃
100
AcDbText
  0
TEXT
  5
437
330
1E
100
AcDbEntity
  8
_1-F_表__文字
 62
     7
100
AcDbText
 10
417.5082297101202
 20
-100.2371757253529
 30
0.0
 40
5.0
  1
〃
100
AcDbText
  0
TEXT
  5
438
330
1E
100
AcDbEntity
  8
_1-F_表__文字
 62
     7
100
AcDbText
 10
417.5082297101202
 20
-88.23717572535299
 30
0.0
 40
5.0
  1
本
100
AcDbText
  0
TEXT
  5
439
330
1E
100
AcDbEntity
  8
_1-F_表__文字
 62
     7
100
AcDbText
 10
485.5082297101201
 20
-256.2371757253529
 30
0.0
 40
5.0
  1
巻
100
AcDbText
  0
TEXT
  5
43A
330
1E
100
AcDbEntity
  8
_1-F_表__文字
 62
     7
100
AcDbText
 10
485.5082297101201
 20
-244.2371757253529
 30
0.0
 40
5.0
  1
本
100
AcDbText
  0
TEXT
  5
43B
330
1E
100
AcDbEntity
  8
_1-F_表__文字
 62
     7
100
AcDbText
 10
485.5082297101201
 20
-232.237175725353
 30
0.0
 40
5.0
  1
枚
100
AcDbText
  0
TEXT
  5
43C
330
1E
100
AcDbEntity
  8
_1-F_表__文字
 62
     7
100
AcDbText
 10
485.5082297101201
 20
-220.2371757253529
 30
0.0
 40
5.0
  1
〃
100
AcDbText
  0
TEXT
  5
43D
330
1E
100
AcDbEntity
  8
_1-F_表__文字
 62
     7
100
AcDbText
 10
485.5082297101201
 20
-208.2371757253529
 30
0.0
 40
5.0
  1
〃
100
AcDbText
  0
TEXT
  5
43E
330
1E
100
AcDbEntity
  8
_1-F_表__文字
 62
     7
100
AcDbText
 10
485.5082297101201
 20
-196.237175725353
 30
0.0
 40
5.0
  1
本
100
AcDbText
  0
TEXT
  5
43F
330
1E
100
AcDbEntity
  8
_1-F_表__文字
 62
     7
100
AcDbText
 10
485.5082297101201
 20
-184.2371757253529
 30
0.0
 40
5.0
  1
〃
100
AcDbText
  0
TEXT
  5
440
330
1E
100
AcDbEntity
  8
_1-F_表__文字
 62
     7
100
AcDbText
 10
485.5082297101201
 20
-172.2371757253529
 30
0.0
 40
5.0
  1
枚
100
AcDbText
  0
TEXT
  5
441
330
1E
100
AcDbEntity
  8
_1-F_表__文字
 62
     7
100
AcDbText
 10
485.5082297101201
 20
-160.2371757253529
 30
0.0
 40
5.0
  1
〃
100
AcDbText
  0
TEXT
  5
442
330
1E
100
AcDbEntity
  8
_1-F_表__文字
 62
     7
100
AcDbText
 10
485.5082297101201
 20
-148.2371757253529
 30
0.0
 40
5.0
  1
〃
100
AcDbText
  0
TEXT
  5
443
330
1E
100
AcDbEntity
  8
_1-F_表__文字
 62
     7
100
AcDbText
 10
485.5082297101201
 20
-136.2371757253529
 30
0.0
 40
5.0
  1
〃
100
AcDbText
  0
TEXT
  5
444
330
1E
100
AcDbEntity
  8
_1-F_表__文字
 62
     7
100
AcDbText
 10
485.5082297101201
 20
-124.2371757253529
 30
0.0
 40
5.0
  1
個
100
AcDbText
  0
TEXT
  5
445
330
1E
100
AcDbEntity
  8
_1-F_表__文字
 62
     7
100
AcDbText
 10
485.5082297101201
 20
-112.2371757253529
 30
0.0
 40
5.0
  1
〃
100
AcDbText
  0
TEXT
  5
446
330
1E
100
AcDbEntity
  8
_1-F_表__文字
 62
     7
100
AcDbText
 10
485.5082297101201
 20
-100.2371757253529
 30
0.0
 40
5.0
  1
〃
100
AcDbText
  0
TEXT
  5
447
330
1E
100
AcDbEntity
  8
_1-F_表__文字
 62
     7
100
AcDbText
 10
485.5082297101201
 20
-88.23717572535299
 30
0.0
 40
5.0
  1
本
100
AcDbText
  0
TEXT
  5
448
330
1E
100
AcDbEntity
  8
_1-F_表__文字
 62
     7
100
AcDbText
 10
482.0082297101201
 20
-76.23717572535298
 30
0.0
 40
5.0
  1
単位
100
AcDbText
  0
TEXT
  5
449
330
1E
100
AcDbEntity
  8
_1-F_表__文字
 62
     7
100
AcDbText
 10
414.0082297101201
 20
-76.23717572535298
 30
0.0
 40
5.0
  1
単位
100
AcDbText
  0
TEXT
  5
44A
330
1E
100
AcDbEntity
  8
_1-F_表__文字
 62
     7
100
AcDbText
 10
371.2582297101199
 20
-256.2371757253529
 30
0.0
 40
5.0
  1
6000
100
AcDbText
  0
TEXT
  5
44B
330
1E
100
AcDbEntity
  8
_1-F_表__文字
 62
     7
100
AcDbText
 10
371.2582297101199
 20
-244.2371757253529
 30
0.0
 40
5.0
  1
3000
100
AcDbText
  0
TEXT
  5
44C
330
1E
100
AcDbEntity
  8
_1-F_表__文字
 62
     7
100
AcDbText
 10
371.2582297101199
 20
-184.2371757253529
 30
0.0
 40
5.0
  1
3100
100
AcDbText
  0
TEXT
  5
44D
330
1E
100
AcDbEntity
  8
_1-F_表__文字
 62
     7
100
AcDbText
 10
371.2582297101199
 20
-172.2371757253529
 30
0.0
 40
5.0
  1
3060
100
AcDbText
  0
TEXT
  5
44E
330
1E
100
AcDbEntity
  8
_1-F_表__文字
 62
     7
100
AcDbText
 10
371.2582297101199
 20
-112.2371757253529
 30
0.0
 40
5.0
  1
3010
100
AcDbText
  0
TEXT
  5
44F
330
1E
100
AcDbEntity
  8
_1-F_表__文字
 62
     7
100
AcDbText
 10
371.2582297101199
 20
-100.2371757253529
 30
0.0
 40
5.0
  1
3000
100
AcDbText
  0
TEXT
  5
450
330
1E
100
AcDbEntity
  8
_1-F_表__文字
 62
     7
100
AcDbText
 10
439.2582297101202
 20
-256.2371757253529
 30
0.0
 40
5.0
  1
6000
100
AcDbText
  0
TEXT
  5
451
330
1E
100
AcDbEntity
  8
_1-F_表__文字
 62
     7
100
AcDbText
 10
439.2582297101202
 20
-244.2371757253529
 30
0.0
 40
5.0
  1
2000
100
AcDbText
  0
TEXT
  5
452
330
1E
100
AcDbEntity
  8
_1-F_表__文字
 62
     7
100
AcDbText
 10
439.2582297101202
 20
-184.2371757253529
 30
0.0
 40
5.0
  1
2100
100
AcDbText
  0
TEXT
  5
453
330
1E
100
AcDbEntity
  8
_1-F_表__文字
 62
     7
100
AcDbText
 10
439.2582297101202
 20
-172.2371757253529
 30
0.0
 40
5.0
  1
2060
100
AcDbText
  0
TEXT
  5
454
330
1E
100
AcDbEntity
  8
_1-F_表__文字
 62
     7
100
AcDbText
 10
439.2582297101202
 20
-112.2371757253529
 30
0.0
 40
5.0
  1
2010
100
AcDbText
  0
TEXT
  5
455
330
1E
100
AcDbEntity
  8
_1-F_表__文字
 62
     7
100
AcDbText
 10
439.2582297101202
 20
-100.2371757253529
 30
0.0
 40
5.0
  1
2000
100
AcDbText
  0
TEXT
  5
456
330
1E
100
AcDbEntity
  8
_1-F_表__文字
 62
     7
100
AcDbText
 10
439.2582297101202
 20
-88.23717572535299
 30
0.0
 40
5.0
  1
2000
100
AcDbText
  0
TEXT
  5
457
330
1E
100
AcDbEntity
  8
_1-F_表__文字
 62
     7
100
AcDbText
 10
432.2582297101202
 20
-76.23717572535298
 30
0.0
 40
5.0
  1
定尺(mm)
100
AcDbText
  0
TEXT
  5
458
330
1E
100
AcDbEntity
  8
_1-F_表__文字
 62
     7
100
AcDbText
 10
371.2582297101199
 20
-88.23717572535299
 30
0.0
 40
5.0
  1
3000
100
AcDbText
  0
TEXT
  5
459
330
1E
100
AcDbEntity
  8
_1-F_表__文字
 62
     7
100
AcDbText
 10
364.2582297101199
 20
-76.23717572535298
 30
0.0
 40
5.0
  1
定尺(mm)
100
AcDbText
  0
TEXT
  5
45A
330
1E
100
AcDbEntity
  8
_1-F_表__文字
 62
     7
100
AcDbText
 10
398.0082297101199
 20
-76.23717572535298
 30
0.0
 40
5.0
  1
入数
100
AcDbText
  0
TEXT
  5
45B
330
1E
100
AcDbEntity
  8
_1-F_表__文字
 62
     7
100
AcDbText
 10
401.2582297101199
 20
-88.23717572535299
 30
0.0
 40
5.0
  1
 1
100
AcDbText
  0
TEXT
  5
45C
330
1E
100
AcDbEntity
  8
_1-F_表__文字
 62
     7
100
AcDbText
 10
401.2582297101199
 20
-100.2371757253529
 30
0.0
 40
5.0
  1
 2
100
AcDbText
  0
TEXT
  5
45D
330
1E
100
AcDbEntity
  8
_1-F_表__文字
 62
     7
100
AcDbText
 10
401.2582297101199
 20
-112.2371757253529
 30
0.0
 40
5.0
  1
 2
100
AcDbText
  0
TEXT
  5
45E
330
1E
100
AcDbEntity
  8
_1-F_表__文字
 62
     7
100
AcDbText
 10
401.2582297101199
 20
-124.2371757253529
 30
0.0
 40
5.0
  1
 6
100
AcDbText
  0
TEXT
  5
45F
330
1E
100
AcDbEntity
  8
_1-F_表__文字
 62
     7
100
AcDbText
 10
401.2582297101199
 20
-136.2371757253529
 30
0.0
 40
5.0
  1
12
100
AcDbText
  0
TEXT
  5
460
330
1E
100
AcDbEntity
  8
_1-F_表__文字
 62
     7
100
AcDbText
 10
401.2582297101199
 20
-148.2371757253529
 30
0.0
 40
5.0
  1
12
100
AcDbText
  0
TEXT
  5
461
330
1E
100
AcDbEntity
  8
_1-F_表__文字
 62
     7
100
AcDbText
 10
401.2582297101199
 20
-160.2371757253529
 30
0.0
 40
5.0
  1
 1
100
AcDbText
  0
TEXT
  5
462
330
1E
100
AcDbEntity
  8
_1-F_表__文字
 62
     7
100
AcDbText
 10
401.2582297101199
 20
-172.2371757253529
 30
0.0
 40
5.0
  1
 2
100
AcDbText
  0
TEXT
  5
463
330
1E
100
AcDbEntity
  8
_1-F_表__文字
 62
     7
100
AcDbText
 10
401.2582297101199
 20
-196.237175725353
 30
0.0
 40
5.0
  1
12
100
AcDbText
  0
TEXT
  5
464
330
1E
100
AcDbEntity
  8
_1-F_表__文字
 62
     7
100
AcDbText
 10
401.2582297101199
 20
-208.2371757253529
 30
0.0
 40
5.0
  1
12
100
AcDbText
  0
TEXT
  5
465
330
1E
100
AcDbEntity
  8
_1-F_表__文字
 62
     7
100
AcDbText
 10
401.2582297101199
 20
-220.2371757253529
 30
0.0
 40
5.0
  1
12
100
AcDbText
  0
TEXT
  5
466
330
1E
100
AcDbEntity
  8
_1-F_表__文字
 62
     7
100
AcDbText
 10
401.2582297101199
 20
-232.237175725353
 30
0.0
 40
5.0
  1
12
100
AcDbText
  0
TEXT
  5
467
330
1E
100
AcDbEntity
  8
_1-F_表__文字
 62
     7
100
AcDbText
 10
401.2582297101199
 20
-256.2371757253529
 30
0.0
 40
5.0
  1
 1
100
AcDbText
  0
TEXT
  5
468
330
1E
100
AcDbEntity
  8
_1-F_表__文字
 62
     7
100
AcDbText
 10
401.2582297101199
 20
-244.2371757253529
 30
0.0
 40
5.0
  1
 1
100
AcDbText
  0
TEXT
  5
469
330
1E
100
AcDbEntity
  8
_1-F_表__文字
 62
     7
100
AcDbText
 10
469.2582297101202
 20
-256.2371757253529
 30
0.0
 40
5.0
  1
 1
100
AcDbText
  0
TEXT
  5
46A
330
1E
100
AcDbEntity
  8
_1-F_表__文字
 62
     7
100
AcDbText
 10
469.2582297101202
 20
-244.2371757253529
 30
0.0
 40
5.0
  1
 1
100
AcDbText
  0
TEXT
  5
46B
330
1E
100
AcDbEntity
  8
_1-F_表__文字
 62
     7
100
AcDbText
 10
469.2582297101202
 20
-232.237175725353
 30
0.0
 40
5.0
  1
10
100
AcDbText
  0
TEXT
  5
46C
330
1E
100
AcDbEntity
  8
_1-F_表__文字
 62
     7
100
AcDbText
 10
469.2582297101202
 20
-220.2371757253529
 30
0.0
 40
5.0
  1
10
100
AcDbText
  0
TEXT
  5
46D
330
1E
100
AcDbEntity
  8
_1-F_表__文字
 62
     7
100
AcDbText
 10
469.2582297101202
 20
-208.2371757253529
 30
0.0
 40
5.0
  1
10
100
AcDbText
  0
TEXT
  5
46E
330
1E
100
AcDbEntity
  8
_1-F_表__文字
 62
     7
100
AcDbText
 10
469.2582297101202
 20
-196.237175725353
 30
0.0
 40
5.0
  1
 8
100
AcDbText
  0
TEXT
  5
46F
330
1E
100
AcDbEntity
  8
_1-F_表__文字
 62
     7
100
AcDbText
 10
469.2582297101202
 20
-184.2371757253529
 30
0.0
 40
5.0
  1
 1
100
AcDbText
  0
TEXT
  5
470
330
1E
100
AcDbEntity
  8
_1-F_表__文字
 62
     7
100
AcDbText
 10
469.2582297101202
 20
-172.2371757253529
 30
0.0
 40
5.0
  1
 2
100
AcDbText
  0
TEXT
  5
471
330
1E
100
AcDbEntity
  8
_1-F_表__文字
 62
     7
100
AcDbText
 10
469.2582297101202
 20
-160.2371757253529
 30
0.0
 40
5.0
  1
 1
100
AcDbText
  0
TEXT
  5
472
330
1E
100
AcDbEntity
  8
_1-F_表__文字
 62
     7
100
AcDbText
 10
469.2582297101202
 20
-148.2371757253529
 30
0.0
 40
5.0
  1
 8
100
AcDbText
  0
TEXT
  5
473
330
1E
100
AcDbEntity
  8
_1-F_表__文字
 62
     7
100
AcDbText
 10
469.2582297101202
 20
-136.2371757253529
 30
0.0
 40
5.0
  1
 8
100
AcDbText
  0
TEXT
  5
474
330
1E
100
AcDbEntity
  8
_1-F_表__文字
 62
     7
100
AcDbText
 10
469.2582297101202
 20
-124.2371757253529
 30
0.0
 40
5.0
  1
 4
100
AcDbText
  0
TEXT
  5
475
330
1E
100
AcDbEntity
  8
_1-F_表__文字
 62
     7
100
AcDbText
 10
469.2582297101202
 20
-112.2371757253529
 30
0.0
 40
5.0
  1
 2
100
AcDbText
  0
TEXT
  5
476
330
1E
100
AcDbEntity
  8
_1-F_表__文字
 62
     7
100
AcDbText
 10
469.2582297101202
 20
-100.2371757253529
 30
0.0
 40
5.0
  1
 2
100
AcDbText
  0
TEXT
  5
477
330
1E
100
AcDbEntity
  8
_1-F_表__文字
 62
     7
100
AcDbText
 10
469.2582297101202
 20
-88.23717572535299
 30
0.0
 40
5.0
  1
 1
100
AcDbText
  0
TEXT
  5
478
330
1E
100
AcDbEntity
  8
_1-F_表__文字
 62
     7
100
AcDbText
 10
466.0082297101202
 20
-76.23717572535298
 30
0.0
 40
5.0
  1
入数
100
AcDbText
  0
LINE
  5
479
330
1E
100
AcDbEntity
  8
_1-F_表__文字
  6
Continuous
 62
     7
100
AcDbLine
 10
359.5082297101199
 20
-247.2371757253529
 30
0.0
 11
150.5082297101201
 21
-247.2371757253529
 31
0.0
  0
LINE
  5
47A
330
1E
100
AcDbEntity
  8
_1-F_表__文字
  6
Continuous
 62
     7
100
AcDbLine
 10
359.5082297101199
 20
-115.2371757253529
 30
0.0
 11
150.5082297101201
 21
-115.2371757253529
 31
0.0
  0
LINE
  5
47B
330
1E
100
AcDbEntity
  8
_1-F_表__文字
  6
Continuous
 62
     7
100
AcDbLine
 10
359.5082297101199
 20
-103.2371757253529
 30
0.0
 11
150.5082297101201
 21
-103.2371757253529
 31
0.0
  0
LINE
  5
47C
330
1E
100
AcDbEntity
  8
_1-F_表__文字
  6
Continuous
 62
     7
100
AcDbLine
 10
359.5082297101199
 20
-91.23717572535298
 30
0.0
 11
150.5082297101201
 21
-91.23717572535298
 31
0.0
  0
LINE
  5
47D
330
1E
100
AcDbEntity
  8
_1-F_表__文字
  6
Continuous
 62
     7
100
AcDbLine
 10
359.5082297101199
 20
-79.23717572535299
 30
0.0
 11
150.5082297101201
 21
-79.23717572535299
 31
0.0
  0
LINE
  5
47E
330
1E
100
AcDbEntity
  8
_1-F_表__文字
  6
Continuous
 62
     7
100
AcDbLine
 10
359.5082297101199
 20
-199.2371757253529
 30
0.0
 11
150.5082297101201
 21
-199.2371757253529
 31
0.0
  0
LINE
  5
47F
330
1E
100
AcDbEntity
  8
_1-F_表__文字
  6
Continuous
 62
     7
100
AcDbLine
 10
359.5082297101199
 20
-187.2371757253529
 30
0.0
 11
150.5082297101201
 21
-187.2371757253529
 31
0.0
  0
LINE
  5
480
330
1E
100
AcDbEntity
  8
_1-F_表__文字
  6
Continuous
 62
     7
100
AcDbLine
 10
359.5082297101199
 20
-163.2371757253529
 30
0.0
 11
150.5082297101201
 21
-163.2371757253529
 31
0.0
  0
LINE
  5
481
330
1E
100
AcDbEntity
  8
_1-F_表__文字
  6
Continuous
 62
     7
100
AcDbLine
 10
359.5082297101199
 20
-151.2371757253529
 30
0.0
 11
150.5082297101201
 21
-151.2371757253529
 31
0.0
  0
LINE
  5
482
330
1E
100
AcDbEntity
  8
_1-F_表__文字
  6
Continuous
 62
     7
100
AcDbLine
 10
359.5082297101199
 20
-139.2371757253529
 30
0.0
 11
150.5082297101201
 21
-139.2371757253529
 31
0.0
  0
LINE
  5
483
330
1E
100
AcDbEntity
  8
_1-F_表__文字
  6
Continuous
 62
     7
100
AcDbLine
 10
359.5082297101199
 20
-127.2371757253529
 30
0.0
 11
150.5082297101201
 21
-127.2371757253529
 31
0.0
  0
LINE
  5
484
330
1E
100
AcDbEntity
  8
_1-F_表__文字
  6
Continuous
 62
     7
100
AcDbLine
 10
359.5082297101199
 20
-175.2371757253529
 30
0.0
 11
150.5082297101201
 21
-175.2371757253529
 31
0.0
  0
LINE
  5
485
330
1E
100
AcDbEntity
  8
_1-F_表__文字
  6
Continuous
 62
     7
100
AcDbLine
 10
359.5082297101199
 20
-235.2371757253529
 30
0.0
 11
150.5082297101201
 21
-235.2371757253529
 31
0.0
  0
LINE
  5
486
330
1E
100
AcDbEntity
  8
_1-F_表__文字
  6
Continuous
 62
     7
100
AcDbLine
 10
359.5082297101199
 20
-223.2371757253529
 30
0.0
 11
150.5082297101201
 21
-223.2371757253529
 31
0.0
  0
LINE
  5
487
330
1E
100
AcDbEntity
  8
_1-F_表__文字
  6
Continuous
 62
     7
100
AcDbLine
 10
359.5082297101199
 20
-211.2371757253529
 30
0.0
 11
150.5082297101201
 21
-211.2371757253529
 31
0.0
  0
LINE
  5
488
330
1E
100
AcDbEntity
  8
_1-F_表__文字
  6
Continuous
 62
     7
100
AcDbLine
 10
359.5082297101199
 20
-259.237175725353
 30
0.0
 11
150.5082297101201
 21
-259.237175725353
 31
0.0
  0
LINE
  5
489
330
1E
100
AcDbEntity
  8
_1-F_表__文字
  6
Continuous
 62
     7
100
AcDbLine
 10
359.5082297101199
 20
-67.23717572535298
 30
0.0
 11
150.5082297101201
 21
-67.23717572535298
 31
0.0
  0
LINE
  5
48A
330
1E
100
AcDbEntity
  8
_1-F_表__文字
  6
Continuous
 62
     7
100
AcDbLine
 10
150.5082297101201
 20
-259.237175725353
 30
0.0
 11
150.5082297101201
 21
-67.23717572535298
 31
0.0
  0
TEXT
  5
48B
330
1E
100
AcDbEntity
  8
_1-F_表__文字
 62
     7
100
AcDbText
 10
154.2582297101201
 20
-244.2371757253529
 30
0.0
 40
5.0
  1
14
100
AcDbText
  0
TEXT
  5
48C
330
1E
100
AcDbEntity
  8
_1-F_表__文字
 62
     7
100
AcDbText
 10
154.2582297101201
 20
-232.237175725353
 30
0.0
 40
5.0
  1
13
100
AcDbText
  0
TEXT
  5
48D
330
1E
100
AcDbEntity
  8
_1-F_表__文字
 62
     7
100
AcDbText
 10
154.2582297101201
 20
-220.2371757253529
 30
0.0
 40
5.0
  1
12
100
AcDbText
  0
TEXT
  5
48E
330
1E
100
AcDbEntity
  8
_1-F_表__文字
 62
     7
100
AcDbText
 10
154.2582297101201
 20
-208.2371757253529
 30
0.0
 40
5.0
  1
11
100
AcDbText
  0
TEXT
  5
48F
330
1E
100
AcDbEntity
  8
_1-F_表__文字
 62
     7
100
AcDbText
 10
154.2582297101201
 20
-196.237175725353
 30
0.0
 40
5.0
  1
10
100
AcDbText
  0
TEXT
  5
490
330
1E
100
AcDbEntity
  8
_1-F_表__文字
 62
     7
100
AcDbText
 10
154.2582297101201
 20
-184.2371757253529
 30
0.0
 40
5.0
  1
 9
100
AcDbText
  0
TEXT
  5
491
330
1E
100
AcDbEntity
  8
_1-F_表__文字
 62
     7
100
AcDbText
 10
154.2582297101201
 20
-172.2371757253529
 30
0.0
 40
5.0
  1
 8
100
AcDbText
  0
TEXT
  5
492
330
1E
100
AcDbEntity
  8
_1-F_表__文字
 62
     7
100
AcDbText
 10
154.2582297101201
 20
-160.2371757253529
 30
0.0
 40
5.0
  1
 7
100
AcDbText
  0
TEXT
  5
493
330
1E
100
AcDbEntity
  8
_1-F_表__文字
 62
     7
100
AcDbText
 10
154.2582297101201
 20
-148.2371757253529
 30
0.0
 40
5.0
  1
 6
100
AcDbText
  0
TEXT
  5
494
330
1E
100
AcDbEntity
  8
_1-F_表__文字
 62
     7
100
AcDbText
 10
154.2582297101201
 20
-136.2371757253529
 30
0.0
 40
5.0
  1
 5
100
AcDbText
  0
TEXT
  5
495
330
1E
100
AcDbEntity
  8
_1-F_表__文字
 62
     7
100
AcDbText
 10
154.2582297101201
 20
-124.2371757253529
 30
0.0
 40
5.0
  1
 4
100
AcDbText
  0
TEXT
  5
496
330
1E
100
AcDbEntity
  8
_1-F_表__文字
 62
     7
100
AcDbText
 10
154.2582297101201
 20
-112.2371757253529
 30
0.0
 40
5.0
  1
 3
100
AcDbText
  0
TEXT
  5
497
330
1E
100
AcDbEntity
  8
_1-F_表__文字
 62
     7
100
AcDbText
 10
154.2582297101201
 20
-100.2371757253529
 30
0.0
 40
5.0
  1
 2
100
AcDbText
  0
TEXT
  5
498
330
1E
100
AcDbEntity
  8
_1-F_表__文字
 62
     7
100
AcDbText
 10
154.5082297101201
 20
-256.2371757253529
 30
0.0
 40
5.0
  1
※
100
AcDbText
  0
TEXT
  5
499
330
1E
100
AcDbEntity
  8
_1-F_表__文字
 62
     7
100
AcDbText
 10
152.50822971012
 20
-76.23717572535298
 30
0.0
 40
5.0
  1
No.
100
AcDbText
  0
TEXT
  5
49A
330
1E
100
AcDbEntity
  8
_1-F_表__文字
 62
     7
100
AcDbText
 10
154.2582297101201
 20
-88.23717572535299
 30
0.0
 40
5.0
  1
 1
100
AcDbText
  0
TEXT
  5
49B
330
1E
100
AcDbEntity
  8
_1-F_表__文字
 62
     7
100
AcDbText
 10
401.2582297101199
 20
-184.2371757253529
 30
0.0
 40
5.0
  1
 1
100
AcDbText
  0
TEXT
  5
49C
330
1E
100
AcDbEntity
  8
_1-F_表__文字
 62
     7
100
AcDbText
 10
269.5082297101199
 20
-184.2371757253529
 30
0.0
 40
5.0
  1
ＦＳ400～700
100
AcDbText
  0
TEXT
  5
49D
330
1E
100
AcDbEntity
  8
_1-F_表__文字
 62
     7
100
AcDbText
 10
269.5082297101199
 20
-88.23717572535299
 30
0.0
 40
5.0
  1
200ＦＹＹ－Ａ550～900
100
AcDbText
  0
TEXT
  5
49E
330
1E
100
AcDbEntity
  8
_1-F_表__文字
 62
     7
100
AcDbText
 10
269.5082297101199
 20
-124.2371757253529
 30
0.0
 40
5.0
  1
200ＦＹＹＨ－550～900
100
AcDbText
  0
TEXT
  5
49F
330
1E
100
AcDbEntity
  8
_1-F_表__文字
 62
     7
100
AcDbText
 10
269.5082297101199
 20
-160.2371757253529
 30
0.0
 40
5.0
  1
200ＦＹＹＪ－500～900
100
AcDbText
  0
TEXT
  5
4A0
330
1E
100
AcDbEntity
  8
_1-F_表__文字
 62
     7
100
AcDbText
 10
269.5082297101199
 20
-244.2371757253529
 30
0.0
 40
5.0
  1
01－03(02)－20
100
AcDbText
  0
LINE
  5
4A1
330
1E
100
AcDbEntity
  8
_1-6______
  6
Continuous
 62
     3
100
AcDbLine
 10
74.88137181385383
 20
152.6872040721684
 30
0.0
 11
395.90822971012
 21
169.5115087847244
 31
0.0
  0
LINE
  5
4A2
330
1E
100
AcDbEntity
  8
_1-6______
  6
Continuous
 62
     3
100
AcDbLine
 10
76.34677858865625
 20
124.7255770990404
 30
0.0
 11
74.88137181385383
 21
152.6872040721684
 31
0.0
  0
LINE
  5
4A3
330
1E
100
AcDbEntity
  8
_1-6______
  6
DASHED1
 62
     7
100
AcDbLine
 10
81.15675041557873
 20
128.482460251896
 30
0.0
 11
81.2090863718218
 21
127.4838307171414
 31
0.0
  0
LINE
  5
4A4
330
1E
100
AcDbEntity
  8
_1-6______
  6
DASHED1
 62
     7
100
AcDbLine
 10
101.1293411106701
 20
129.529179376755
 30
0.0
 11
81.15675041557873
 21
128.482460251896
 31
0.0
  0
LINE
  5
4A5
330
1E
100
AcDbEntity
  8
_1-6______
  6
DASHED1
 62
     7
100
AcDbLine
 10
101.1293411106701
 20
129.529179376755
 30
0.0
 11
101.1816770669132
 21
128.5305498420004
 31
0.0
  0
LINE
  5
4A6
330
1E
100
AcDbEntity
  8
_1-6______
  6
DASHED1
 62
     7
100
AcDbLine
 10
104.6768804385542
 20
128.7137256888506
 30
0.0
 11
101.1816770669132
 21
128.5305498420004
 31
0.0
  0
ARC
  5
4A7
330
1E
100
AcDbEntity
  8
_1-6______
  6
DASHED1
 62
     7
100
AcDbCircle
 10
104.5983765041897
 20
130.2116699909823
 30
0.0
 40
1.5
100
AcDbArc
 50
273.0
 51
93.0
  0
LINE
  5
4A8
330
1E
100
AcDbEntity
  8
_1-6______
  6
Continuous
 62
     3
100
AcDbLine
 10
66.08258416796324
 20
126.1034549137938
 30
0.0
 11
66.66577671088252
 21
123.5773704840755
 31
0.0
  0
LINE
  5
4A9
330
1E
100
AcDbEntity
  8
_1-6______
  6
Continuous
 62
     3
100
AcDbLine
 10
74.2186796285396
 20
127.1174790234408
 30
0.0
 11
66.54360122223424
 21
126.7152452083432
 31
0.0
  0
LINE
  5
4AA
330
1E
100
AcDbEntity
  8
_1-6______
  6
Continuous
 62
     3
100
AcDbLine
 10
63.30296771401576
 20
126.5454108027074
 30
0.0
 11
64.48031414608252
 21
126.6071129146588
 31
0.0
  0
LINE
  5
4AB
330
1E
100
AcDbEntity
  8
_1-6______
  6
Continuous
 62
     3
100
AcDbLine
 10
64.78832595239104
 20
126.3750093705354
 30
0.0
 11
65.49653263314038
 21
123.3074292188632
 31
0.0
  0
ARC
  5
4AC
330
1E
100
AcDbEntity
  8
_1-6______
  6
Continuous
 62
     3
100
AcDbCircle
 10
74.24484760666115
 20
126.6181642560636
 30
0.0
 40
0.5
100
AcDbArc
 50
3.000000000000066
 51
92.99999999999993
  0
LINE
  5
4AD
330
1E
100
AcDbEntity
  8
_1-6______
  6
Continuous
 62
     3
100
AcDbLine
 10
74.74416237403835
 20
126.6443322341852
 30
0.0
 11
74.7964983302814
 21
125.6457026994306
 31
0.0
  0
ARC
  5
4AE
330
1E
100
AcDbEntity
  8
_1-6______
  6
Continuous
 62
     3
100
AcDbCircle
 10
74.03550378168944
 20
130.612682395082
 30
0.0
 40
0.5
100
AcDbArc
 50
273.0
 51
2.999999999999965
  0
LINE
  5
4AF
330
1E
100
AcDbEntity
  8
_1-6______
  6
Continuous
 62
     3
100
AcDbLine
 10
74.06167175981095
 20
130.1133676277045
 30
0.0
 11
62.37968445227699
 21
129.5011406153039
 31
0.0
  0
LINE
  5
4B0
330
1E
100
AcDbEntity
  8
_1-6______
  6
Continuous
 62
     3
100
AcDbLine
 10
74.53481854906662
 20
130.6388503732034
 30
0.0
 11
74.43014663658075
 21
132.6361094427123
 31
0.0
  0
LINE
  5
4B1
330
1E
100
AcDbEntity
  8
_1-6______
  6
Continuous
 62
     3
100
AcDbLine
 10
53.03122227177327
 20
78.88066424030364
 30
0.0
 11
57.41377369350566
 21
78.88066424030364
 31
0.0
  0
LINE
  5
4B2
330
1E
100
AcDbEntity
  8
_1-6______
  6
Continuous
 62
     3
100
AcDbLine
 10
62.37715606952503
 20
125.7546929587704
 30
0.0
 11
52.54214847140637
 21
79.48462008571215
 31
0.0
  0
LINE
  5
4B3
330
1E
100
AcDbEntity
  8
_1-6______
  6
Continuous
 62
     3
100
AcDbLine
 10
59.60224951880451
 20
127.1289870834936
 30
0.0
 11
47.64629941555045
 21
70.88066424030365
 31
0.0
  0
ARC
  5
4B4
330
1E
100
AcDbEntity
  8
_1-6______
  6
Continuous
 62
     3
100
AcDbCircle
 10
74.929461403958
 20
132.662277420834
 30
0.0
 40
0.5
100
AcDbArc
 50
92.99999999999986
 51
183.0
  0
LINE
  5
4B5
330
1E
100
AcDbEntity
  8
_1-6______
  6
Continuous
 62
     3
100
AcDbLine
 10
74.90329342583669
 20
133.1615921882113
 30
0.0
 11
75.40260819321388
 21
133.1877601663328
 31
0.0
  0
ARC
  5
4B6
330
1E
100
AcDbEntity
  8
_1-6______
  6
Continuous
 62
     3
100
AcDbCircle
 10
75.42877617133538
 20
132.6884453989554
 30
0.0
 40
0.5
100
AcDbArc
 50
3.000000000000015
 51
92.99999999999993
  0
ARC
  5
4B7
330
1E
100
AcDbEntity
  8
_1-6______
  6
Continuous
 62
     3
100
AcDbCircle
 10
62.53669232100588
 20
126.5052520110403
 30
0.0
 40
3.0
100
AcDbArc
 50
92.99999999999998
 51
167.9999999999999
  0
ARC
  5
4B8
330
1E
100
AcDbEntity
  8
_1-6______
  6
Continuous
 62
     3
100
AcDbCircle
 10
63.35530367025881
 20
125.5467812679528
 30
0.0
 40
1.0
100
AcDbArc
 50
92.99999999999995
 51
167.9999999999999
  0
ARC
  5
4B9
330
1E
100
AcDbEntity
  8
_1-6______
  6
Continuous
 62
     3
100
AcDbCircle
 10
75.29581309765859
 20
125.671870677552
 30
0.0
 40
0.5
100
AcDbArc
 50
183.0000000000001
 51
272.9999999999999
  0
LINE
  5
4BA
330
1E
100
AcDbEntity
  8
_1-6______
  6
Continuous
 62
     3
100
AcDbLine
 10
75.32198107578008
 20
125.1725559101748
 30
0.0
 11
75.82129584315753
 21
125.198723888296
 31
0.0
  0
ARC
  5
4BB
330
1E
100
AcDbEntity
  8
_1-6______
  6
Continuous
 62
     3
100
AcDbCircle
 10
75.79512786503601
 20
125.6980386556734
 30
0.0
 40
0.5
100
AcDbArc
 50
272.9999999999999
 51
3.000000000000015
  0
ARC
  5
4BC
330
1E
100
AcDbEntity
  8
_1-6______
  6
Continuous
 62
     3
100
AcDbCircle
 10
52.56359783609928
 20
77.18066424030337
 30
0.0
 40
0.5
100
AcDbArc
 50
89.99999999999998
 51
167.9999999999999
  0
LINE
  5
4BD
330
1E
100
AcDbEntity
  8
_1-6______
  6
Continuous
 62
     3
100
AcDbLine
 10
52.07452403573237
 20
77.28462008571217
 30
0.0
 11
50.64629941555045
 21
70.56535153450642
 31
0.0
  0
LINE
  5
4BE
330
1E
100
AcDbEntity
  8
_1-6______
  6
Continuous
 62
     3
100
AcDbLine
 10
52.56359783609928
 20
77.68066424030337
 30
0.0
 11
61.81377369350578
 21
77.68066424030337
 31
0.0
  0
ARC
  5
4BF
330
1E
100
AcDbEntity
  8
_1-6______
  6
Continuous
 62
     3
100
AcDbCircle
 10
53.03122227177327
 20
79.38066424030364
 30
0.0
 40
0.5
100
AcDbArc
 50
167.9999999999999
 51
270.0
  0
LINE
  5
4C0
330
1E
100
AcDbEntity
  8
_1-6______
  6
Continuous
 62
     3
100
AcDbLine
 10
61.81377369350578
 20
78.88066424030364
 30
0.0
 11
59.41377369350567
 21
78.88066424030364
 31
0.0
  0
LINE
  5
4C1
330
1E
100
AcDbEntity
  8
_1-6______
  6
Continuous
 62
     3
100
AcDbLine
 10
57.41377369350566
 20
79.88066424030364
 30
0.0
 11
59.41377369350567
 21
78.88066424030364
 31
0.0
  0
LINE
  5
4C2
330
1E
100
AcDbEntity
  8
_1-6______
  6
Continuous
 62
     3
100
AcDbLine
 10
57.41377369350566
 20
78.88066424030364
 30
0.0
 11
57.41377369350566
 21
79.88066424030364
 31
0.0
  0
ARC
  5
4C3
330
1E
100
AcDbEntity
  8
_1-6______
  6
Continuous
 62
     3
100
AcDbCircle
 10
50.14629941555045
 20
69.38066424030364
 30
0.0
 40
2.5
100
AcDbArc
 50
180.0
 51
270.0
  0
LINE
  5
4C4
330
1E
100
AcDbEntity
  8
_1-6______
  6
Continuous
 62
     3
100
AcDbLine
 10
50.14629941555045
 20
66.88066424030342
 30
0.0
 11
50.64629941555045
 21
66.88066424030342
 31
0.0
  0
LINE
  5
4C5
330
1E
100
AcDbEntity
  8
_1-6______
  6
Continuous
 62
     3
100
AcDbLine
 10
47.64629941555045
 20
69.38066424030364
 30
0.0
 11
47.64629941555045
 21
70.88066424030365
 31
0.0
  0
LINE
  5
4C6
330
1E
100
AcDbEntity
  8
_1-6______
  6
Continuous
 62
     3
100
AcDbLine
 10
50.64629941555045
 20
70.56535153450642
 30
0.0
 11
50.64629941555045
 21
66.88066424030342
 31
0.0
  0
ARC
  5
4C7
330
1E
100
AcDbEntity
  8
_1-6______
  6
Continuous
 62
     3
100
AcDbCircle
 10
61.81377369350578
 20
78.28066424030339
 30
0.0
 40
0.6000000000000015
100
AcDbArc
 50
270.0
 51
90.0
  0
ARC
  5
4C8
330
1E
100
AcDbEntity
  8
_1-6______
  6
Continuous
 62
     3
100
AcDbCircle
 10
64.49601493295545
 20
126.3075240542322
 30
0.0
 40
0.2999999999999998
100
AcDbArc
 50
12.99999999999998
 51
92.99999999999998
  0
ARC
  5
4C9
330
1E
100
AcDbEntity
  8
_1-6______
  6
Continuous
 62
     3
100
AcDbCircle
 10
66.56976920035576
 20
126.215930440966
 30
0.0
 40
0.5
100
AcDbArc
 50
92.99999999999995
 51
193.0
  0
ARC
  5
4CA
330
1E
100
AcDbEntity
  8
_1-6______
  6
Continuous
 62
     3
100
AcDbCircle
 10
66.08115467201155
 20
123.4423998514694
 30
0.0
 40
0.5999999999999983
100
AcDbArc
 50
193.0000000000013
 51
13.00000000000126
  0
LINE
  5
4CB
330
1E
100
AcDbEntity
  8
_1-6______
  6
DASHED1
 62
     7
100
AcDbLine
 10
81.2090863718218
 20
127.4838307171414
 30
0.0
 11
76.21593869804887
 21
127.2221509359269
 31
0.0
  0
LINE
  5
4CC
330
1E
100
AcDbEntity
  8
_1-6______
  6
DASHED1
 62
     7
100
AcDbLine
 10
104.5198725698254
 20
131.7096142931146
 30
0.0
 11
76.05893082932023
 21
130.2180395401903
 31
0.0
  0
ARC
  5
4CD
330
1E
100
AcDbEntity
  8
_1-3_止水補助板
  6
Continuous
 62
     7
100
AcDbCircle
 10
69.00957187220801
 20
111.2806642403032
 30
0.0
 40
2.1
100
AcDbArc
 50
4.999999999999995
 51
90.0
  0
LINE
  5
4CE
330
1E
100
AcDbEntity
  8
_1-3_止水補助板
  6
Continuous
 62
     7
100
AcDbLine
 10
69.00957187220801
 20
113.3806642403036
 30
0.0
 11
68.41377369350567
 21
113.3806642403036
 31
0.0
  0
ARC
  5
4CF
330
1E
100
AcDbEntity
  8
_1-3_止水補助板
  6
Continuous
 62
     7
100
AcDbCircle
 10
69.00957187220801
 20
111.2806642403032
 30
0.0
 40
1.1
100
AcDbArc
 50
4.999999999999995
 51
90.0
  0
LINE
  5
4D0
330
1E
100
AcDbEntity
  8
_1-3_止水補助板
  6
Continuous
 62
     7
100
AcDbLine
 10
69.00957187220801
 20
112.3806642403036
 30
0.0
 11
68.41377369350567
 21
112.3806642403036
 31
0.0
  0
LINE
  5
4D1
330
1E
100
AcDbEntity
  8
_1-3_止水補助板
  6
Continuous
 62
     7
100
AcDbLine
 10
68.41377369350567
 20
115.8806642403036
 30
0.0
 11
68.41377369350567
 21
113.3806642403036
 31
0.0
  0
LINE
  5
4D2
330
1E
100
AcDbEntity
  8
_1-3_止水補助板
  6
Continuous
 62
     7
100
AcDbLine
 10
66.91377369350568
 20
111.8806642403036
 30
0.0
 11
65.26268869350571
 21
112.4040372403036
 31
0.0
  0
LINE
  5
4D3
330
1E
100
AcDbEntity
  8
_1-3_止水補助板
  6
Continuous
 62
     7
100
AcDbLine
 10
66.91377369350568
 20
111.8806642403036
 30
0.0
 11
66.91377369350568
 21
109.8806642403036
 31
0.0
  0
LINE
  5
4D4
330
1E
100
AcDbEntity
  8
_1-3_止水補助板
  6
Continuous
 62
     7
100
AcDbLine
 10
66.91377369350568
 20
113.8806642403036
 30
0.0
 11
66.91377369350568
 21
115.8806642403036
 31
0.0
  0
ARC
  5
4D5
330
1E
100
AcDbEntity
  8
_1-3_止水補助板
  6
Continuous
 62
     7
100
AcDbCircle
 10
67.41377369350567
 20
115.8806642403036
 30
0.0
 40
0.5
100
AcDbArc
 50
90.0
 51
180.0
  0
LINE
  5
4D6
330
1E
100
AcDbEntity
  8
_1-3_止水補助板
  6
Continuous
 62
     7
100
AcDbLine
 10
67.91377369350567
 20
116.3806642403036
 30
0.0
 11
67.41377369350567
 21
116.3806642403036
 31
0.0
  0
LINE
  5
4D7
330
1E
100
AcDbEntity
  8
_1-3_止水補助板
  6
Continuous
 62
     7
100
AcDbLine
 10
67.91377369350567
 20
109.3806642403036
 30
0.0
 11
67.41377369350567
 21
109.3806642403036
 31
0.0
  0
ARC
  5
4D8
330
1E
100
AcDbEntity
  8
_1-3_止水補助板
  6
Continuous
 62
     7
100
AcDbCircle
 10
67.41377369350567
 20
109.8806642403036
 30
0.0
 40
0.5
100
AcDbArc
 50
180.0
 51
270.0
  0
ARC
  5
4D9
330
1E
100
AcDbEntity
  8
_1-3_止水補助板
  6
Continuous
 62
     7
100
AcDbCircle
 10
67.91377369350567
 20
109.8806642403036
 30
0.0
 40
0.5
100
AcDbArc
 50
270.0
 51
0.0
  0
ARC
  5
4DA
330
1E
100
AcDbEntity
  8
_1-3_止水補助板
  6
Continuous
 62
     7
100
AcDbCircle
 10
67.91377369350567
 20
115.8806642403036
 30
0.0
 40
0.5
100
AcDbArc
 50
0.0
 51
90.0
  0
LINE
  5
4DB
330
1E
100
AcDbEntity
  8
_1-3_止水補助板
  6
Continuous
 62
     7
100
AcDbLine
 10
68.41377369350567
 20
109.8806642403036
 30
0.0
 11
68.41377369350567
 21
112.3806642403036
 31
0.0
  0
ARC
  5
4DC
330
1E
100
AcDbEntity
  8
_1-3_止水補助板
  6
Continuous
 62
     7
100
AcDbCircle
 10
65.41377369350567
 20
112.8806642403036
 30
0.0
 40
0.5
100
AcDbArc
 50
107.587954
 51
252.412046
  0
LINE
  5
4DD
330
1E
100
AcDbEntity
  8
_1-3_止水補助板
  6
Continuous
 62
     7
100
AcDbLine
 10
66.91377369350568
 20
113.8806642403036
 30
0.0
 11
65.26268869350571
 21
113.3572912403033
 31
0.0
  0
ARC
  5
4DE
330
1E
100
AcDbEntity
  8
_1-3_止水補助板
  6
Continuous
 62
     3
100
AcDbCircle
 10
69.01377369350581
 20
111.2806642403034
 30
0.0
 40
0.5999999999999998
100
AcDbArc
 50
0.0
 51
180.0
  0
ARC
  5
4DF
330
1E
100
AcDbEntity
  8
_1-3_止水補助板
  6
Continuous
 62
     3
100
AcDbCircle
 10
69.01377369350581
 20
115.4806642403033
 30
0.0
 40
0.5999999999999998
100
AcDbArc
 50
180.0
 51
0.0
  0
LINE
  5
4E0
330
1E
100
AcDbEntity
  8
_1-3_止水補助板
  6
Continuous
 62
     3
100
AcDbLine
 10
69.61377369350572
 20
111.2806642403034
 30
0.0
 11
69.61377369350572
 21
109.1806642403033
 31
0.0
  0
LINE
  5
4E1
330
1E
100
AcDbEntity
  8
_1-3_止水補助板
  6
Continuous
 62
     3
100
AcDbLine
 10
68.41377369350567
 20
111.2806642403034
 30
0.0
 11
68.41377369350567
 21
109.6806642403033
 31
0.0
  0
ARC
  5
4E2
330
1E
100
AcDbEntity
  8
_1-3_止水補助板
  6
Continuous
 62
     3
100
AcDbCircle
 10
68.11377369350572
 20
109.6806642403033
 30
0.0
 40
0.2999999999999998
100
AcDbArc
 50
270.0
 51
0.0000000000000127
  0
LINE
  5
4E3
330
1E
100
AcDbEntity
  8
_1-3_止水補助板
  6
Continuous
 62
     3
100
AcDbLine
 10
68.41377369350567
 20
115.4806642403033
 30
0.0
 11
68.41377369350567
 21
117.0806642403034
 31
0.0
  0
ARC
  5
4E4
330
1E
100
AcDbEntity
  8
_1-3_止水補助板
  6
Continuous
 62
     3
100
AcDbCircle
 10
68.11377369350572
 20
117.0806642403034
 30
0.0
 40
0.2999999999999998
100
AcDbArc
 50
0.0
 51
90.0
  0
LINE
  5
4E5
330
1E
100
AcDbEntity
  8
_1-3_止水補助板
  6
Continuous
 62
     3
100
AcDbLine
 10
69.61377369350572
 20
115.4806642403033
 30
0.0
 11
69.61377369350572
 21
117.5806642403034
 31
0.0
  0
LINE
  5
4E6
330
1E
100
AcDbEntity
  8
_1-3_止水補助板
  6
Continuous
 62
     3
100
AcDbLine
 10
57.41377369350566
 20
79.38066424030364
 30
0.0
 11
55.79250569350581
 21
79.78598124030338
 31
0.0
  0
ARC
  5
4E7
330
1E
100
AcDbEntity
  8
_1-3_止水補助板
  6
Continuous
 62
     3
100
AcDbCircle
 10
55.91377369350565
 20
80.27105224030362
 30
0.0
 40
0.5
100
AcDbArc
 50
180.0
 51
255.963757
  0
LINE
  5
4E8
330
1E
100
AcDbEntity
  8
_1-3_止水補助板
  6
Continuous
 62
     3
100
AcDbLine
 10
57.41377369350566
 20
79.88066424030364
 30
0.0
 11
57.41377369350566
 21
79.38066424030364
 31
0.0
  0
LINE
  5
4E9
330
1E
100
AcDbEntity
  8
_1-3_止水補助板
  6
Continuous
 62
     3
100
AcDbLine
 10
55.41377369350565
 20
80.58066424030341
 30
0.0
 11
55.41377369350565
 21
80.27105224030362
 31
0.0
  0
LINE
  5
4EA
330
1E
100
AcDbEntity
  8
_1-3_止水補助板
  6
Continuous
 62
     3
100
AcDbLine
 10
62.41377369350567
 20
79.88066424030364
 30
0.0
 11
57.41377369350566
 21
79.88066424030364
 31
0.0
  0
ARC
  5
4EB
330
1E
100
AcDbEntity
  8
_1-3_止水補助板
  6
Continuous
 62
     3
100
AcDbCircle
 10
55.71377369350563
 20
80.58066424030341
 30
0.0
 40
0.2999999999999998
100
AcDbArc
 50
90.0
 51
180.0
  0
ARC
  5
4EC
330
1E
100
AcDbEntity
  8
_1-3_止水補助板
  6
Continuous
 62
     3
100
AcDbCircle
 10
62.41377369350567
 20
79.38066424030364
 30
0.0
 40
0.5
100
AcDbArc
 50
0.0
 51
90.0
  0
LINE
  5
4ED
330
1E
100
AcDbEntity
  8
_1-3_止水補助板
  6
Continuous
 62
     3
100
AcDbLine
 10
62.91377369350567
 20
79.38066424030364
 30
0.0
 11
62.91377369350567
 21
70.5806642403034
 31
0.0
  0
LINE
  5
4EE
330
1E
100
AcDbEntity
  8
_1-3_止水補助板
  6
Continuous
 62
     3
100
AcDbLine
 10
62.41377369350567
 20
80.88066424030364
 30
0.0
 11
55.71377369350563
 21
80.88066424030364
 31
0.0
  0
ARC
  5
4EF
330
1E
100
AcDbEntity
  8
_1-3_止水補助板
  6
Continuous
 62
     3
100
AcDbCircle
 10
62.41377369350567
 20
81.38066424030364
 30
0.0
 40
0.5
100
AcDbArc
 50
270.0
 51
0.0000000000000127
  0
LINE
  5
4F0
330
1E
100
AcDbEntity
  8
_1-3_止水補助板
  6
Continuous
 62
     3
100
AcDbLine
 10
58.01377369350581
 20
68.38066424030341
 30
0.0
 11
61.91377369350568
 21
68.38066424030341
 31
0.0
  0
ARC
  5
4F1
330
1E
100
AcDbEntity
  8
_1-3_止水補助板
  6
Continuous
 62
     3
100
AcDbCircle
 10
61.91377369350568
 20
70.88066424030365
 30
0.0
 40
2.5
100
AcDbArc
 50
270.0
 51
0.0000000000000127
  0
LINE
  5
4F2
330
1E
100
AcDbEntity
  8
_1-3_止水補助板
  6
Continuous
 62
     3
100
AcDbLine
 10
62.91377369350567
 20
125.6306642403036
 30
0.0
 11
62.91377369350567
 21
81.38066424030364
 31
0.0
  0
LINE
  5
4F3
330
1E
100
AcDbEntity
  8
_1-3_止水補助板
  6
Continuous
 62
     3
100
AcDbLine
 10
68.11377369350572
 20
117.3806642403036
 30
0.0
 11
64.71377369350562
 21
117.3806642403036
 31
0.0
  0
LINE
  5
4F4
330
1E
100
AcDbEntity
  8
_1-3_止水補助板
  6
Continuous
 62
     3
100
AcDbLine
 10
68.11377369350572
 20
109.3806642403036
 30
0.0
 11
64.71377369350562
 21
109.3806642403036
 31
0.0
  0
ARC
  5
4F5
330
1E
100
AcDbEntity
  8
_1-3_止水補助板
  6
Continuous
 62
     3
100
AcDbCircle
 10
64.71377369350562
 20
109.6806642403033
 30
0.0
 40
0.2999999999999998
100
AcDbArc
 50
180.0
 51
270.0
  0
LINE
  5
4F6
330
1E
100
AcDbEntity
  8
_1-3_止水補助板
  6
Continuous
 62
     3
100
AcDbLine
 10
64.41377369350568
 20
117.0806642403034
 30
0.0
 11
64.41377369350568
 21
109.6806642403033
 31
0.0
  0
ARC
  5
4F7
330
1E
100
AcDbEntity
  8
_1-3_止水補助板
  6
Continuous
 62
     3
100
AcDbCircle
 10
64.71377369350562
 20
117.0806642403034
 30
0.0
 40
0.2999999999999998
100
AcDbArc
 50
90.0
 51
180.0
  0
LINE
  5
4F8
330
1E
100
AcDbEntity
  8
_1-3_止水補助板
  6
Continuous
 62
     3
100
AcDbLine
 10
64.91377369350567
 20
108.1806642403033
 30
0.0
 11
68.61377369350572
 21
108.1806642403033
 31
0.0
  0
ARC
  5
4F9
330
1E
100
AcDbEntity
  8
_1-3_止水補助板
  6
Continuous
 62
     3
100
AcDbCircle
 10
68.61377369350572
 20
109.1806642403033
 30
0.0
 40
1.0
100
AcDbArc
 50
270.0
 51
0.0000000000000127
  0
ARC
  5
4FA
330
1E
100
AcDbEntity
  8
_1-3_止水補助板
  6
Continuous
 62
     3
100
AcDbCircle
 10
64.91377369350567
 20
107.6806642403033
 30
0.0
 40
0.5
100
AcDbArc
 50
90.0
 51
180.0
  0
LINE
  5
4FB
330
1E
100
AcDbEntity
  8
_1-3_止水補助板
  6
Continuous
 62
     3
100
AcDbLine
 10
64.91377369350567
 20
118.5806642403034
 30
0.0
 11
68.61377369350572
 21
118.5806642403034
 31
0.0
  0
ARC
  5
4FC
330
1E
100
AcDbEntity
  8
_1-3_止水補助板
  6
Continuous
 62
     3
100
AcDbCircle
 10
68.61377369350572
 20
117.5806642403034
 30
0.0
 40
1.0
100
AcDbArc
 50
0.0
 51
90.0
  0
ARC
  5
4FD
330
1E
100
AcDbEntity
  8
_1-3_止水補助板
  6
Continuous
 62
     3
100
AcDbCircle
 10
64.91377369350567
 20
119.0806642403034
 30
0.0
 40
0.5
100
AcDbArc
 50
180.0
 51
270.0
  0
LINE
  5
4FE
330
1E
100
AcDbEntity
  8
_1-3_止水補助板
  6
Continuous
 62
     3
100
AcDbLine
 10
64.41377369350568
 20
119.0806642403034
 30
0.0
 11
64.41377369350568
 21
125.6306642403036
 31
0.0
  0
ARC
  5
4FF
330
1E
100
AcDbEntity
  8
_1-3_止水補助板
  6
Continuous
 62
     3
100
AcDbCircle
 10
63.66377369350567
 20
125.6306642403036
 30
0.0
 40
0.7499999999999999
100
AcDbArc
 50
0.0
 51
180.0
  0
LINE
  5
500
330
1E
100
AcDbEntity
  8
_1-3_止水補助板
  6
Continuous
 62
     3
100
AcDbLine
 10
64.41377369350568
 20
107.6806642403033
 30
0.0
 11
64.41377369350568
 21
70.88066424030365
 31
0.0
  0
ARC
  5
501
330
1E
100
AcDbEntity
  8
_1-3_止水補助板
  6
Continuous
 62
     3
100
AcDbCircle
 10
58.01377369350581
 20
68.98066424030338
 30
0.0
 40
0.5999999999999998
100
AcDbArc
 50
90.00000000000005
 51
270.0
  0
LINE
  5
502
330
1E
100
AcDbEntity
  8
_1-3_止水補助板
  6
Continuous
 62
     3
100
AcDbLine
 10
58.01377369350581
 20
69.58066424030341
 30
0.0
 11
61.91377369350568
 21
69.58066424030341
 31
0.0
  0
ARC
  5
503
330
1E
100
AcDbEntity
  8
_1-3_止水補助板
  6
Continuous
 62
     3
100
AcDbCircle
 10
61.91377369350568
 20
70.5806642403034
 30
0.0
 40
1.0
100
AcDbArc
 50
270.0
 51
0.0000000000000127
  0
LINE
  5
504
330
1E
100
AcDbEntity
  8
_1-6______
  6
DASHED1
 62
     4
100
AcDbLine
 10
110.9847965676086
 20
132.5491127760708
 30
0.0
 11
110.8905918463714
 21
134.346645938629
 31
0.0
  0
LINE
  5
505
330
1E
100
AcDbEntity
  8
_1-6______
  6
Continuous
 62
     4
100
AcDbLine
 10
89.32084621456949
 20
153.4439448595246
 30
0.0
 11
89.83533470064259
 21
153.9584333455974
 31
0.0
  0
LINE
  5
506
330
1E
100
AcDbEntity
  8
_1-6______
  6
Continuous
 62
     7
100
AcDbLine
 10
89.86081483517255
 20
153.4722434158124
 30
0.0
 11
89.77012063610443
 21
155.2027918250148
 31
0.0
  0
LINE
  5
507
330
1E
100
AcDbEntity
  8
_1-6______
  6
Continuous
 62
     7
100
AcDbLine
 10
74.88137181385383
 20
152.6872040721684
 30
0.0
 11
74.79067761478581
 21
154.4177524813705
 31
0.0
  0
LINE
  5
508
330
1E
100
AcDbEntity
  8
_1-6______
  6
Continuous
 62
     4
100
AcDbLine
 10
87.8284177928786
 20
153.3657300002051
 30
0.0
 11
89.6596923145875
 21
155.1970045219142
 31
0.0
  0
LINE
  5
509
330
1E
100
AcDbEntity
  8
_1-6______
  6
Continuous
 62
     4
100
AcDbLine
 10
86.33598937118499
 20
153.287515140885
 30
0.0
 11
88.16726389289424
 21
155.1187896625941
 31
0.0
  0
LINE
  5
50A
330
1E
100
AcDbEntity
  8
_1-6______
  6
Continuous
 62
     4
100
AcDbLine
 10
84.84356094949163
 20
153.2093002815646
 30
0.0
 11
86.67483547120111
 21
155.0405748032744
 31
0.0
  0
LINE
  5
50B
330
1E
100
AcDbEntity
  8
_1-6______
  6
Continuous
 62
     4
100
AcDbLine
 10
83.35113252779846
 20
153.1310854222452
 30
0.0
 11
85.18240704950803
 21
154.9623599439548
 31
0.0
  0
LINE
  5
50C
330
1E
100
AcDbEntity
  8
_1-6______
  6
Continuous
 62
     4
100
AcDbLine
 10
81.85870410610558
 20
153.0528705629253
 30
0.0
 11
83.68997862781494
 21
154.8841450846348
 31
0.0
  0
LINE
  5
50D
330
1E
100
AcDbEntity
  8
_1-6______
  6
Continuous
 62
     4
100
AcDbLine
 10
80.36627568441259
 20
152.9746557036055
 30
0.0
 11
82.19755020612188
 21
154.8059302253148
 31
0.0
  0
LINE
  5
50E
330
1E
100
AcDbEntity
  8
_1-6______
  6
Continuous
 62
     4
100
AcDbLine
 10
78.87384726271925
 20
152.8964408442855
 30
0.0
 11
80.70512178442875
 21
154.7277153659952
 31
0.0
  0
LINE
  5
50F
330
1E
100
AcDbEntity
  8
_1-6______
  6
Continuous
 62
     4
100
AcDbLine
 10
77.3814188410261
 20
152.818225984966
 30
0.0
 11
79.2126933627355
 21
154.6495005066754
 31
0.0
  0
LINE
  5
510
330
1E
100
AcDbEntity
  8
_1-6______
  6
Continuous
 62
     4
100
AcDbLine
 10
75.88899041933501
 20
152.7400111256463
 30
0.0
 11
77.72026494104415
 21
154.5712856473556
 31
0.0
  0
LINE
  5
511
330
1E
100
AcDbEntity
  8
_1-6______
  6
Continuous
 62
     4
100
AcDbLine
 10
74.85849452271629
 20
153.123728791401
 30
0.0
 11
76.22783651935101
 21
154.4930707880355
 31
0.0
  0
LINE
  5
512
330
1E
100
AcDbEntity
  8
_1-6______
  6
DASHED1
 62
     4
100
AcDbLine
 10
290.7381128234318
 20
141.9695848998008
 30
0.0
 11
290.6439081021945
 21
143.767118062359
 31
0.0
  0
LINE
  5
513
330
1E
100
AcDbEntity
  8
_1-6______
  6
DASHED1
 62
     4
100
AcDbLine
 10
74.95987574821824
 20
151.1892597700365
 30
0.0
 11
395.90822971012
 21
168.0094502657274
 31
0.0
  0
LINE
  5
514
330
1E
100
AcDbEntity
  8
_1-6______
  6
Continuous
 62
     3
100
AcDbLine
 10
76.34677858865625
 20
124.7255770990404
 30
0.0
 11
395.90822971012
 21
141.4730830967826
 31
0.0
  0
LINE
  5
515
330
1E
100
AcDbEntity
  8
_1-6______
  6
Continuous
 62
     3
100
AcDbLine
 10
75.11688361694703
 20
148.193371165773
 30
0.0
 11
395.90822971012
 21
165.0053332277335
 31
0.0
  0
LINE
  5
516
330
1E
100
AcDbEntity
  8
_1-6______
  6
Continuous
 62
     3
100
AcDbLine
 10
75.19538755131151
 20
146.695426863641
 30
0.0
 11
395.90822971012
 21
163.5032747087368
 31
0.0
  0
LINE
  5
517
330
1E
100
AcDbEntity
  8
_1-6______
  6
DASHED1
 62
     4
100
AcDbLine
 10
75.93855812996126
 20
132.5148874701259
 30
0.0
 11
395.90822971012
 21
149.2837873955662
 31
0.0
  0
LINE
  5
518
330
1E
100
AcDbEntity
  8
_1-6______
  6
DASHED1
 62
     4
100
AcDbLine
 10
76.03276285119858
 20
130.7173543075678
 30
0.0
 11
395.90822971012
 21
147.48131717277
 31
0.0
  0
LINE
  5
519
330
1E
100
AcDbEntity
  8
_1-6______
  6
DASHED1
 62
     4
100
AcDbLine
 10
76.21593869804887
 20
127.2221509359269
 30
0.0
 11
395.90822971012
 21
143.9765139617774
 31
0.0
  0
LINE
  5
51A
330
1E
100
AcDbEntity
  8
_1-6______
  6
DASHED1
 62
     4
100
AcDbLine
 10
76.29444263241331
 20
125.724206633795
 30
0.0
 11
395.90822971012
 21
142.4744554427805
 31
0.0
  0
LINE
  5
51B
330
1E
100
AcDbEntity
  8
_1-3_止水補助板
  6
Continuous
 62
     7
100
AcDbLine
 10
70.10538604010895
 20
111.376535557326
 30
0.0
 11
72.14610007192636
 21
88.05106743867616
 31
0.0
  0
LINE
  5
51C
330
1E
100
AcDbEntity
  8
_1-3_止水補助板
  6
Continuous
 62
     7
100
AcDbLine
 10
71.10158073820075
 20
111.4636913000736
 30
0.0
 11
73.14229477001792
 21
88.13822318142422
 31
0.0
  0
LINE
  5
51D
330
1E
100
AcDbEntity
  8
_1-3_止水補助板
  6
Continuous
 62
     7
100
AcDbLine
 10
119.9405947859272
 20
106.850387930934
 30
0.0
 11
118.2958673608639
 21
88.05106743867616
 31
0.0
  0
ARC
  5
51E
330
1E
100
AcDbEntity
  8
_1-3_止水補助板
  6
Continuous
 62
     7
100
AcDbCircle
 10
95.22098371639515
 20
90.06985816974719
 30
0.0
 40
23.16302595132232
100
AcDbArc
 50
185.0000000000004
 51
354.9999999999996
  0
LINE
  5
51F
330
1E
100
AcDbEntity
  8
_1-3_止水補助板
  6
Continuous
 62
     7
100
AcDbLine
 10
118.9444000878353
 20
106.9375436736816
 30
0.0
 11
117.2996726627723
 21
88.13822318142422
 31
0.0
  0
ARC
  5
520
330
1E
100
AcDbEntity
  8
_1-3_止水補助板
  6
Continuous
 62
     7
100
AcDbCircle
 10
95.22098371639515
 20
90.06985816974719
 30
0.0
 40
22.16302595132232
100
AcDbArc
 50
185.0
 51
355.0000000000001
  0
LINE
  5
521
330
1E
100
AcDbEntity
  8
_1-6______
  6
Continuous
 62
     3
100
AcDbLine
 10
715.4696808315837
 20
124.7255770990404
 30
0.0
 11
716.935087606386
 21
152.6872040721684
 31
0.0
  0
LINE
  5
522
330
1E
100
AcDbEntity
  8
_1-6______
  6
DASHED1
 62
     7
100
AcDbLine
 10
710.6597090046611
 20
128.482460251896
 30
0.0
 11
710.607373048418
 21
127.4838307171414
 31
0.0
  0
LINE
  5
523
330
1E
100
AcDbEntity
  8
_1-6______
  6
DASHED1
 62
     7
100
AcDbLine
 10
690.6871183095697
 20
129.529179376755
 30
0.0
 11
710.6597090046611
 21
128.482460251896
 31
0.0
  0
LINE
  5
524
330
1E
100
AcDbEntity
  8
_1-6______
  6
DASHED1
 62
     7
100
AcDbLine
 10
690.6871183095697
 20
129.529179376755
 30
0.0
 11
690.6347823533266
 21
128.5305498420004
 31
0.0
  0
LINE
  5
525
330
1E
100
AcDbEntity
  8
_1-6______
  6
DASHED1
 62
     7
100
AcDbLine
 10
687.1395789816855
 20
128.7137256888506
 30
0.0
 11
690.6347823533266
 21
128.5305498420004
 31
0.0
  0
ARC
  5
526
330
1E
100
AcDbEntity
  8
_1-6______
  6
DASHED1
 62
     7
100
AcDbCircle
 10
687.2180829160502
 20
130.2116699909823
 30
0.0
 40
1.499999999999999
100
AcDbArc
 50
86.99999999999999
 51
267.0
  0
LINE
  5
527
330
1E
100
AcDbEntity
  8
_1-6______
  6
Continuous
 62
     3
100
AcDbLine
 10
725.7338752522765
 20
126.1034549137938
 30
0.0
 11
725.1506827093574
 21
123.5773704840755
 31
0.0
  0
LINE
  5
528
330
1E
100
AcDbEntity
  8
_1-6______
  6
Continuous
 62
     3
100
AcDbLine
 10
717.5977797917005
 20
127.1174790234408
 30
0.0
 11
725.2728581980055
 21
126.7152452083432
 31
0.0
  0
LINE
  5
529
330
1E
100
AcDbEntity
  8
_1-6______
  6
Continuous
 62
     3
100
AcDbLine
 10
728.5134917062241
 20
126.5454108027074
 30
0.0
 11
727.3361452741576
 21
126.6071129146588
 31
0.0
  0
LINE
  5
52A
330
1E
100
AcDbEntity
  8
_1-6______
  6
Continuous
 62
     3
100
AcDbLine
 10
727.0281334678489
 20
126.3750093705354
 30
0.0
 11
726.3199267870994
 21
123.3074292188632
 31
0.0
  0
ARC
  5
52B
330
1E
100
AcDbEntity
  8
_1-6______
  6
Continuous
 62
     3
100
AcDbCircle
 10
717.5716118135788
 20
126.6181642560636
 30
0.0
 40
0.5
100
AcDbArc
 50
87.00000000000008
 51
176.9999999999999
  0
LINE
  5
52C
330
1E
100
AcDbEntity
  8
_1-6______
  6
Continuous
 62
     3
100
AcDbLine
 10
717.0722970462015
 20
126.6443322341852
 30
0.0
 11
717.0199610899585
 21
125.6457026994306
 31
0.0
  0
ARC
  5
52D
330
1E
100
AcDbEntity
  8
_1-6______
  6
Continuous
 62
     3
100
AcDbCircle
 10
717.7809556385504
 20
130.612682395082
 30
0.0
 40
0.5
100
AcDbArc
 50
177.0
 51
267.0
  0
LINE
  5
52E
330
1E
100
AcDbEntity
  8
_1-6______
  6
Continuous
 62
     3
100
AcDbLine
 10
717.7547876604288
 20
130.1133676277045
 30
0.0
 11
729.4367749679628
 21
129.5011406153039
 31
0.0
  0
LINE
  5
52F
330
1E
100
AcDbEntity
  8
_1-6______
  6
Continuous
 62
     3
100
AcDbLine
 10
717.2816408711733
 20
130.6388503732034
 30
0.0
 11
717.3863127836592
 21
132.6361094427123
 31
0.0
  0
LINE
  5
530
330
1E
100
AcDbEntity
  8
_1-6______
  6
Continuous
 62
     3
100
AcDbLine
 10
738.7852371484669
 20
78.88066424030364
 30
0.0
 11
734.4026857267343
 21
78.88066424030364
 31
0.0
  0
LINE
  5
531
330
1E
100
AcDbEntity
  8
_1-6______
  6
Continuous
 62
     3
100
AcDbLine
 10
729.439303350715
 20
125.7546929587704
 30
0.0
 11
739.2743109488333
 21
79.48462008571215
 31
0.0
  0
LINE
  5
532
330
1E
100
AcDbEntity
  8
_1-6______
  6
Continuous
 62
     3
100
AcDbLine
 10
732.214209901435
 20
127.1289870834936
 30
0.0
 11
744.1701600046894
 21
70.88066424030365
 31
0.0
  0
ARC
  5
533
330
1E
100
AcDbEntity
  8
_1-6______
  6
Continuous
 62
     3
100
AcDbCircle
 10
716.8869980162822
 20
132.662277420834
 30
0.0
 40
0.5
100
AcDbArc
 50
357.0
 51
87.00000000000015
  0
LINE
  5
534
330
1E
100
AcDbEntity
  8
_1-6______
  6
Continuous
 62
     3
100
AcDbLine
 10
716.9131659944031
 20
133.1615921882113
 30
0.0
 11
716.4138512270262
 21
133.1877601663328
 31
0.0
  0
ARC
  5
535
330
1E
100
AcDbEntity
  8
_1-6______
  6
Continuous
 62
     3
100
AcDbCircle
 10
716.3876832489046
 20
132.6884453989554
 30
0.0
 40
0.5
100
AcDbArc
 50
87.00000000000008
 51
176.9999999999999
  0
ARC
  5
536
330
1E
100
AcDbEntity
  8
_1-6______
  6
Continuous
 62
     3
100
AcDbCircle
 10
729.279767099234
 20
126.5052520110403
 30
0.0
 40
3.0
100
AcDbArc
 50
12.00000000000001
 51
87.00000000000001
  0
ARC
  5
537
330
1E
100
AcDbEntity
  8
_1-6______
  6
Continuous
 62
     3
100
AcDbCircle
 10
728.4611557499811
 20
125.5467812679528
 30
0.0
 40
1.0
100
AcDbArc
 50
12.00000000000001
 51
87.00000000000004
  0
ARC
  5
538
330
1E
100
AcDbEntity
  8
_1-6______
  6
Continuous
 62
     3
100
AcDbCircle
 10
716.5206463225812
 20
125.671870677552
 30
0.0
 40
0.5
100
AcDbArc
 50
267.0
 51
356.9999999999998
  0
LINE
  5
539
330
1E
100
AcDbEntity
  8
_1-6______
  6
Continuous
 62
     3
100
AcDbLine
 10
716.4944783444597
 20
125.1725559101748
 30
0.0
 11
715.9951635770823
 21
125.198723888296
 31
0.0
  0
ARC
  5
53A
330
1E
100
AcDbEntity
  8
_1-6______
  6
Continuous
 62
     3
100
AcDbCircle
 10
716.0213315552038
 20
125.6980386556734
 30
0.0
 40
0.5
100
AcDbArc
 50
176.9999999999999
 51
267.0
  0
ARC
  5
53B
330
1E
100
AcDbEntity
  8
_1-6______
  6
Continuous
 62
     3
100
AcDbCircle
 10
739.2528615841408
 20
77.18066424030337
 30
0.0
 40
0.5
100
AcDbArc
 50
12.00000000000001
 51
90.00000000000005
  0
LINE
  5
53C
330
1E
100
AcDbEntity
  8
_1-6______
  6
Continuous
 62
     3
100
AcDbLine
 10
739.7419353845075
 20
77.28462008571217
 30
0.0
 11
741.1701600046893
 21
70.56535153450642
 31
0.0
  0
LINE
  5
53D
330
1E
100
AcDbEntity
  8
_1-6______
  6
Continuous
 62
     3
100
AcDbLine
 10
739.2528615841408
 20
77.68066424030337
 30
0.0
 11
730.002685726734
 21
77.68066424030337
 31
0.0
  0
ARC
  5
53E
330
1E
100
AcDbEntity
  8
_1-6______
  6
Continuous
 62
     3
100
AcDbCircle
 10
738.7852371484669
 20
79.38066424030364
 30
0.0
 40
0.5
100
AcDbArc
 50
270.0
 51
12.00000000000001
  0
LINE
  5
53F
330
1E
100
AcDbEntity
  8
_1-6______
  6
Continuous
 62
     3
100
AcDbLine
 10
730.002685726734
 20
78.88066424030364
 30
0.0
 11
732.4026857267342
 21
78.88066424030364
 31
0.0
  0
LINE
  5
540
330
1E
100
AcDbEntity
  8
_1-6______
  6
Continuous
 62
     3
100
AcDbLine
 10
734.4026857267343
 20
79.88066424030364
 30
0.0
 11
732.4026857267342
 21
78.88066424030364
 31
0.0
  0
LINE
  5
541
330
1E
100
AcDbEntity
  8
_1-6______
  6
Continuous
 62
     3
100
AcDbLine
 10
734.4026857267343
 20
78.88066424030364
 30
0.0
 11
734.4026857267343
 21
79.88066424030364
 31
0.0
  0
ARC
  5
542
330
1E
100
AcDbEntity
  8
_1-6______
  6
Continuous
 62
     3
100
AcDbCircle
 10
741.6701600046893
 20
69.38066424030364
 30
0.0
 40
2.5
100
AcDbArc
 50
270.0
 51
0.0
  0
LINE
  5
543
330
1E
100
AcDbEntity
  8
_1-6______
  6
Continuous
 62
     3
100
AcDbLine
 10
741.6701600046893
 20
66.88066424030342
 30
0.0
 11
741.1701600046893
 21
66.88066424030342
 31
0.0
  0
LINE
  5
544
330
1E
100
AcDbEntity
  8
_1-6______
  6
Continuous
 62
     3
100
AcDbLine
 10
744.1701600046894
 20
69.38066424030364
 30
0.0
 11
744.1701600046894
 21
70.88066424030365
 31
0.0
  0
LINE
  5
545
330
1E
100
AcDbEntity
  8
_1-6______
  6
Continuous
 62
     3
100
AcDbLine
 10
741.1701600046893
 20
70.56535153450642
 30
0.0
 11
741.1701600046893
 21
66.88066424030342
 31
0.0
  0
ARC
  5
546
330
1E
100
AcDbEntity
  8
_1-6______
  6
Continuous
 62
     3
100
AcDbCircle
 10
730.002685726734
 20
78.28066424030339
 30
0.0
 40
0.6000000000000015
100
AcDbArc
 50
90.0
 51
270.0
  0
ARC
  5
547
330
1E
100
AcDbEntity
  8
_1-6______
  6
Continuous
 62
     3
100
AcDbCircle
 10
727.3204444872845
 20
126.3075240542322
 30
0.0
 40
0.2999999999999998
100
AcDbArc
 50
87.00000000000001
 51
167.0
  0
ARC
  5
548
330
1E
100
AcDbEntity
  8
_1-6______
  6
Continuous
 62
     3
100
AcDbCircle
 10
725.2466902198842
 20
126.215930440966
 30
0.0
 40
0.5
100
AcDbArc
 50
347.0
 51
87.00000000000004
  0
ARC
  5
549
330
1E
100
AcDbEntity
  8
_1-6______
  6
Continuous
 62
     3
100
AcDbCircle
 10
725.7353047482284
 20
123.4423998514694
 30
0.0
 40
0.5999999999999983
100
AcDbArc
 50
166.9999999999987
 51
346.9999999999986
  0
LINE
  5
54A
330
1E
100
AcDbEntity
  8
_1-6______
  6
DASHED1
 62
     7
100
AcDbLine
 10
710.607373048418
 20
127.4838307171414
 30
0.0
 11
715.600520722191
 21
127.2221509359269
 31
0.0
  0
LINE
  5
54B
330
1E
100
AcDbEntity
  8
_1-6______
  6
DASHED1
 62
     7
100
AcDbLine
 10
687.2965868504146
 20
131.7096142931146
 30
0.0
 11
715.7575285909198
 21
130.2180395401903
 31
0.0
  0
ARC
  5
54C
330
1E
100
AcDbEntity
  8
_1-3_止水補助板
  6
Continuous
 62
     7
100
AcDbCircle
 10
722.8068875480321
 20
111.2806642403032
 30
0.0
 40
2.1
100
AcDbArc
 50
90.00000000000005
 51
175.0
  0
LINE
  5
54D
330
1E
100
AcDbEntity
  8
_1-3_止水補助板
  6
Continuous
 62
     7
100
AcDbLine
 10
722.8068875480321
 20
113.3806642403036
 30
0.0
 11
723.4026857267342
 21
113.3806642403036
 31
0.0
  0
ARC
  5
54E
330
1E
100
AcDbEntity
  8
_1-3_止水補助板
  6
Continuous
 62
     7
100
AcDbCircle
 10
722.8068875480321
 20
111.2806642403032
 30
0.0
 40
1.1
100
AcDbArc
 50
90.00000000000005
 51
175.0
  0
LINE
  5
54F
330
1E
100
AcDbEntity
  8
_1-3_止水補助板
  6
Continuous
 62
     7
100
AcDbLine
 10
722.8068875480321
 20
112.3806642403036
 30
0.0
 11
723.4026857267342
 21
112.3806642403036
 31
0.0
  0
LINE
  5
550
330
1E
100
AcDbEntity
  8
_1-3_止水補助板
  6
Continuous
 62
     7
100
AcDbLine
 10
723.4026857267342
 20
115.8806642403036
 30
0.0
 11
723.4026857267342
 21
113.3806642403036
 31
0.0
  0
LINE
  5
551
330
1E
100
AcDbEntity
  8
_1-3_止水補助板
  6
Continuous
 62
     7
100
AcDbLine
 10
724.9026857267343
 20
111.8806642403036
 30
0.0
 11
726.5537707267342
 21
112.4040372403036
 31
0.0
  0
LINE
  5
552
330
1E
100
AcDbEntity
  8
_1-3_止水補助板
  6
Continuous
 62
     7
100
AcDbLine
 10
724.9026857267343
 20
111.8806642403036
 30
0.0
 11
724.9026857267343
 21
109.8806642403036
 31
0.0
  0
LINE
  5
553
330
1E
100
AcDbEntity
  8
_1-3_止水補助板
  6
Continuous
 62
     7
100
AcDbLine
 10
724.9026857267343
 20
113.8806642403036
 30
0.0
 11
724.9026857267343
 21
115.8806642403036
 31
0.0
  0
ARC
  5
554
330
1E
100
AcDbEntity
  8
_1-3_止水補助板
  6
Continuous
 62
     7
100
AcDbCircle
 10
724.4026857267343
 20
115.8806642403036
 30
0.0
 40
0.5
100
AcDbArc
 50
0.0000000000000127
 51
90.00000000000005
  0
LINE
  5
555
330
1E
100
AcDbEntity
  8
_1-3_止水補助板
  6
Continuous
 62
     7
100
AcDbLine
 10
723.9026857267342
 20
116.3806642403036
 30
0.0
 11
724.4026857267343
 21
116.3806642403036
 31
0.0
  0
LINE
  5
556
330
1E
100
AcDbEntity
  8
_1-3_止水補助板
  6
Continuous
 62
     7
100
AcDbLine
 10
723.9026857267342
 20
109.3806642403036
 30
0.0
 11
724.4026857267343
 21
109.3806642403036
 31
0.0
  0
ARC
  5
557
330
1E
100
AcDbEntity
  8
_1-3_止水補助板
  6
Continuous
 62
     7
100
AcDbCircle
 10
724.4026857267343
 20
109.8806642403036
 30
0.0
 40
0.5
100
AcDbArc
 50
270.0
 51
0.0000000000000254
  0
ARC
  5
558
330
1E
100
AcDbEntity
  8
_1-3_止水補助板
  6
Continuous
 62
     7
100
AcDbCircle
 10
723.9026857267342
 20
109.8806642403036
 30
0.0
 40
0.5
100
AcDbArc
 50
180.0
 51
270.0
  0
ARC
  5
559
330
1E
100
AcDbEntity
  8
_1-3_止水補助板
  6
Continuous
 62
     7
100
AcDbCircle
 10
723.9026857267342
 20
115.8806642403036
 30
0.0
 40
0.5
100
AcDbArc
 50
90.00000000000005
 51
180.0
  0
LINE
  5
55A
330
1E
100
AcDbEntity
  8
_1-3_止水補助板
  6
Continuous
 62
     7
100
AcDbLine
 10
723.4026857267342
 20
109.8806642403036
 30
0.0
 11
723.4026857267342
 21
112.3806642403036
 31
0.0
  0
ARC
  5
55B
330
1E
100
AcDbEntity
  8
_1-3_止水補助板
  6
Continuous
 62
     7
100
AcDbCircle
 10
726.4026857267343
 20
112.8806642403036
 30
0.0
 40
0.5
100
AcDbArc
 50
287.5879540000001
 51
72.41204600000003
  0
LINE
  5
55C
330
1E
100
AcDbEntity
  8
_1-3_止水補助板
  6
Continuous
 62
     7
100
AcDbLine
 10
724.9026857267343
 20
113.8806642403036
 30
0.0
 11
726.5537707267342
 21
113.3572912403033
 31
0.0
  0
ARC
  5
55D
330
1E
100
AcDbEntity
  8
_1-3_止水補助板
  6
Continuous
 62
     3
100
AcDbCircle
 10
722.8026857267342
 20
111.2806642403034
 30
0.0
 40
0.5999999999999998
100
AcDbArc
 50
0.0000000000000254
 51
180.0
  0
ARC
  5
55E
330
1E
100
AcDbEntity
  8
_1-3_止水補助板
  6
Continuous
 62
     3
100
AcDbCircle
 10
722.8026857267342
 20
115.4806642403033
 30
0.0
 40
0.5999999999999998
100
AcDbArc
 50
179.9999999999999
 51
0.0
  0
LINE
  5
55F
330
1E
100
AcDbEntity
  8
_1-3_止水補助板
  6
Continuous
 62
     3
100
AcDbLine
 10
722.2026857267342
 20
111.2806642403034
 30
0.0
 11
722.2026857267342
 21
109.1806642403033
 31
0.0
  0
LINE
  5
560
330
1E
100
AcDbEntity
  8
_1-3_止水補助板
  6
Continuous
 62
     3
100
AcDbLine
 10
723.4026857267342
 20
111.2806642403034
 30
0.0
 11
723.4026857267342
 21
109.6806642403033
 31
0.0
  0
ARC
  5
561
330
1E
100
AcDbEntity
  8
_1-3_止水補助板
  6
Continuous
 62
     3
100
AcDbCircle
 10
723.7026857267342
 20
109.6806642403033
 30
0.0
 40
0.2999999999999998
100
AcDbArc
 50
180.0
 51
270.0
  0
LINE
  5
562
330
1E
100
AcDbEntity
  8
_1-3_止水補助板
  6
Continuous
 62
     3
100
AcDbLine
 10
723.4026857267342
 20
115.4806642403033
 30
0.0
 11
723.4026857267342
 21
117.0806642403034
 31
0.0
  0
ARC
  5
563
330
1E
100
AcDbEntity
  8
_1-3_止水補助板
  6
Continuous
 62
     3
100
AcDbCircle
 10
723.7026857267342
 20
117.0806642403034
 30
0.0
 40
0.2999999999999998
100
AcDbArc
 50
90.00000000000005
 51
180.0
  0
LINE
  5
564
330
1E
100
AcDbEntity
  8
_1-3_止水補助板
  6
Continuous
 62
     3
100
AcDbLine
 10
722.2026857267342
 20
115.4806642403033
 30
0.0
 11
722.2026857267342
 21
117.5806642403034
 31
0.0
  0
LINE
  5
565
330
1E
100
AcDbEntity
  8
_1-3_止水補助板
  6
Continuous
 62
     3
100
AcDbLine
 10
734.4026857267343
 20
79.38066424030364
 30
0.0
 11
736.0239537267342
 21
79.78598124030338
 31
0.0
  0
ARC
  5
566
330
1E
100
AcDbEntity
  8
_1-3_止水補助板
  6
Continuous
 62
     3
100
AcDbCircle
 10
735.9026857267342
 20
80.27105224030362
 30
0.0
 40
0.5
100
AcDbArc
 50
284.036243
 51
0.0000000000000254
  0
LINE
  5
567
330
1E
100
AcDbEntity
  8
_1-3_止水補助板
  6
Continuous
 62
     3
100
AcDbLine
 10
734.4026857267343
 20
79.88066424030364
 30
0.0
 11
734.4026857267343
 21
79.38066424030364
 31
0.0
  0
LINE
  5
568
330
1E
100
AcDbEntity
  8
_1-3_止水補助板
  6
Continuous
 62
     3
100
AcDbLine
 10
736.4026857267342
 20
80.58066424030341
 30
0.0
 11
736.4026857267342
 21
80.27105224030362
 31
0.0
  0
LINE
  5
569
330
1E
100
AcDbEntity
  8
_1-3_止水補助板
  6
Continuous
 62
     3
100
AcDbLine
 10
729.4026857267343
 20
79.88066424030364
 30
0.0
 11
734.4026857267343
 21
79.88066424030364
 31
0.0
  0
ARC
  5
56A
330
1E
100
AcDbEntity
  8
_1-3_止水補助板
  6
Continuous
 62
     3
100
AcDbCircle
 10
736.1026857267342
 20
80.58066424030341
 30
0.0
 40
0.2999999999999998
100
AcDbArc
 50
0.0000000000000127
 51
90.00000000000005
  0
ARC
  5
56B
330
1E
100
AcDbEntity
  8
_1-3_止水補助板
  6
Continuous
 62
     3
100
AcDbCircle
 10
729.4026857267343
 20
79.38066424030364
 30
0.0
 40
0.5
100
AcDbArc
 50
90.00000000000005
 51
180.0
  0
LINE
  5
56C
330
1E
100
AcDbEntity
  8
_1-3_止水補助板
  6
Continuous
 62
     3
100
AcDbLine
 10
728.9026857267343
 20
79.38066424030364
 30
0.0
 11
728.9026857267343
 21
70.5806642403034
 31
0.0
  0
LINE
  5
56D
330
1E
100
AcDbEntity
  8
_1-3_止水補助板
  6
Continuous
 62
     3
100
AcDbLine
 10
729.4026857267343
 20
80.88066424030364
 30
0.0
 11
736.1026857267342
 21
80.88066424030364
 31
0.0
  0
ARC
  5
56E
330
1E
100
AcDbEntity
  8
_1-3_止水補助板
  6
Continuous
 62
     3
100
AcDbCircle
 10
729.4026857267343
 20
81.38066424030364
 30
0.0
 40
0.5
100
AcDbArc
 50
180.0
 51
270.0
  0
LINE
  5
56F
330
1E
100
AcDbEntity
  8
_1-3_止水補助板
  6
Continuous
 62
     3
100
AcDbLine
 10
733.8026857267342
 20
68.38066424030341
 30
0.0
 11
729.9026857267343
 21
68.38066424030341
 31
0.0
  0
ARC
  5
570
330
1E
100
AcDbEntity
  8
_1-3_止水補助板
  6
Continuous
 62
     3
100
AcDbCircle
 10
729.9026857267343
 20
70.88066424030365
 30
0.0
 40
2.5
100
AcDbArc
 50
180.0
 51
270.0
  0
LINE
  5
571
330
1E
100
AcDbEntity
  8
_1-3_止水補助板
  6
Continuous
 62
     3
100
AcDbLine
 10
728.9026857267343
 20
125.6306642403036
 30
0.0
 11
728.9026857267343
 21
81.38066424030364
 31
0.0
  0
LINE
  5
572
330
1E
100
AcDbEntity
  8
_1-3_止水補助板
  6
Continuous
 62
     3
100
AcDbLine
 10
723.7026857267342
 20
117.3806642403036
 30
0.0
 11
727.1026857267342
 21
117.3806642403036
 31
0.0
  0
LINE
  5
573
330
1E
100
AcDbEntity
  8
_1-3_止水補助板
  6
Continuous
 62
     3
100
AcDbLine
 10
723.7026857267342
 20
109.3806642403036
 30
0.0
 11
727.1026857267342
 21
109.3806642403036
 31
0.0
  0
ARC
  5
574
330
1E
100
AcDbEntity
  8
_1-3_止水補助板
  6
Continuous
 62
     3
100
AcDbCircle
 10
727.1026857267342
 20
109.6806642403033
 30
0.0
 40
0.2999999999999998
100
AcDbArc
 50
270.0
 51
0.0
  0
LINE
  5
575
330
1E
100
AcDbEntity
  8
_1-3_止水補助板
  6
Continuous
 62
     3
100
AcDbLine
 10
727.4026857267342
 20
117.0806642403034
 30
0.0
 11
727.4026857267342
 21
109.6806642403033
 31
0.0
  0
ARC
  5
576
330
1E
100
AcDbEntity
  8
_1-3_止水補助板
  6
Continuous
 62
     3
100
AcDbCircle
 10
727.1026857267342
 20
117.0806642403034
 30
0.0
 40
0.2999999999999998
100
AcDbArc
 50
0.0000000000000127
 51
90.00000000000005
  0
LINE
  5
577
330
1E
100
AcDbEntity
  8
_1-3_止水補助板
  6
Continuous
 62
     3
100
AcDbLine
 10
726.9026857267342
 20
108.1806642403033
 30
0.0
 11
723.2026857267342
 21
108.1806642403033
 31
0.0
  0
ARC
  5
578
330
1E
100
AcDbEntity
  8
_1-3_止水補助板
  6
Continuous
 62
     3
100
AcDbCircle
 10
723.2026857267342
 20
109.1806642403033
 30
0.0
 40
1.0
100
AcDbArc
 50
180.0
 51
270.0
  0
ARC
  5
579
330
1E
100
AcDbEntity
  8
_1-3_止水補助板
  6
Continuous
 62
     3
100
AcDbCircle
 10
726.9026857267342
 20
107.6806642403033
 30
0.0
 40
0.5
100
AcDbArc
 50
0.0000000000000127
 51
90.00000000000005
  0
LINE
  5
57A
330
1E
100
AcDbEntity
  8
_1-3_止水補助板
  6
Continuous
 62
     3
100
AcDbLine
 10
726.9026857267342
 20
118.5806642403034
 30
0.0
 11
723.2026857267342
 21
118.5806642403034
 31
0.0
  0
ARC
  5
57B
330
1E
100
AcDbEntity
  8
_1-3_止水補助板
  6
Continuous
 62
     3
100
AcDbCircle
 10
723.2026857267342
 20
117.5806642403034
 30
0.0
 40
1.0
100
AcDbArc
 50
90.00000000000005
 51
180.0
  0
ARC
  5
57C
330
1E
100
AcDbEntity
  8
_1-3_止水補助板
  6
Continuous
 62
     3
100
AcDbCircle
 10
726.9026857267342
 20
119.0806642403034
 30
0.0
 40
0.5
100
AcDbArc
 50
270.0
 51
0.0
  0
LINE
  5
57D
330
1E
100
AcDbEntity
  8
_1-3_止水補助板
  6
Continuous
 62
     3
100
AcDbLine
 10
727.4026857267342
 20
119.0806642403034
 30
0.0
 11
727.4026857267342
 21
125.6306642403036
 31
0.0
  0
ARC
  5
57E
330
1E
100
AcDbEntity
  8
_1-3_止水補助板
  6
Continuous
 62
     3
100
AcDbCircle
 10
728.1526857267343
 20
125.6306642403036
 30
0.0
 40
0.7499999999999999
100
AcDbArc
 50
0.0000000000000254
 51
180.0
  0
LINE
  5
57F
330
1E
100
AcDbEntity
  8
_1-3_止水補助板
  6
Continuous
 62
     3
100
AcDbLine
 10
727.4026857267342
 20
107.6806642403033
 30
0.0
 11
727.4026857267342
 21
70.88066424030365
 31
0.0
  0
ARC
  5
580
330
1E
100
AcDbEntity
  8
_1-3_止水補助板
  6
Continuous
 62
     3
100
AcDbCircle
 10
733.8026857267342
 20
68.98066424030338
 30
0.0
 40
0.5999999999999998
100
AcDbArc
 50
270.0
 51
90.0
  0
LINE
  5
581
330
1E
100
AcDbEntity
  8
_1-3_止水補助板
  6
Continuous
 62
     3
100
AcDbLine
 10
733.8026857267342
 20
69.58066424030341
 30
0.0
 11
729.9026857267343
 21
69.58066424030341
 31
0.0
  0
ARC
  5
582
330
1E
100
AcDbEntity
  8
_1-3_止水補助板
  6
Continuous
 62
     3
100
AcDbCircle
 10
729.9026857267343
 20
70.5806642403034
 30
0.0
 40
1.0
100
AcDbArc
 50
180.0
 51
270.0
  0
LINE
  5
583
330
1E
100
AcDbEntity
  8
_1-6______
  6
DASHED1
 62
     4
100
AcDbLine
 10
680.8316628526314
 20
132.5491127760708
 30
0.0
 11
680.9258675738686
 21
134.346645938629
 31
0.0
  0
LINE
  5
584
330
1E
100
AcDbEntity
  8
_1-6______
  6
Continuous
 62
     4
100
AcDbLine
 10
702.4956132056703
 20
153.4439448595246
 30
0.0
 11
701.9811247195972
 21
153.9584333455974
 31
0.0
  0
LINE
  5
585
330
1E
100
AcDbEntity
  8
_1-6______
  6
Continuous
 62
     7
100
AcDbLine
 10
701.9556445850675
 20
153.4722434158124
 30
0.0
 11
702.0463387841354
 21
155.2027918250148
 31
0.0
  0
LINE
  5
586
330
1E
100
AcDbEntity
  8
_1-6______
  6
Continuous
 62
     7
100
AcDbLine
 10
716.935087606386
 20
152.6872040721684
 30
0.0
 11
717.0257818054541
 21
154.4177524813705
 31
0.0
  0
LINE
  5
587
330
1E
100
AcDbEntity
  8
_1-6______
  6
Continuous
 62
     4
100
AcDbLine
 10
703.9880416273615
 20
153.3657300002051
 30
0.0
 11
702.1567671056523
 21
155.1970045219142
 31
0.0
  0
LINE
  5
588
330
1E
100
AcDbEntity
  8
_1-6______
  6
Continuous
 62
     4
100
AcDbLine
 10
705.480470049055
 20
153.287515140885
 30
0.0
 11
703.6491955273456
 21
155.1187896625941
 31
0.0
  0
LINE
  5
589
330
1E
100
AcDbEntity
  8
_1-6______
  6
Continuous
 62
     4
100
AcDbLine
 10
706.9728984707485
 20
153.2093002815646
 30
0.0
 11
705.141623949039
 21
155.0405748032744
 31
0.0
  0
LINE
  5
58A
330
1E
100
AcDbEntity
  8
_1-6______
  6
Continuous
 62
     4
100
AcDbLine
 10
708.4653268924414
 20
153.1310854222452
 30
0.0
 11
706.6340523707318
 21
154.9623599439548
 31
0.0
  0
LINE
  5
58B
330
1E
100
AcDbEntity
  8
_1-6______
  6
Continuous
 62
     4
100
AcDbLine
 10
709.9577553141341
 20
153.0528705629253
 30
0.0
 11
708.1264807924251
 21
154.8841450846348
 31
0.0
  0
LINE
  5
58C
330
1E
100
AcDbEntity
  8
_1-6______
  6
Continuous
 62
     4
100
AcDbLine
 10
711.4501837358274
 20
152.9746557036055
 30
0.0
 11
709.6189092141182
 21
154.8059302253148
 31
0.0
  0
LINE
  5
58D
330
1E
100
AcDbEntity
  8
_1-6______
  6
Continuous
 62
     4
100
AcDbLine
 10
712.9426121575204
 20
152.8964408442855
 30
0.0
 11
711.1113376358112
 21
154.7277153659952
 31
0.0
  0
LINE
  5
58E
330
1E
100
AcDbEntity
  8
_1-6______
  6
Continuous
 62
     4
100
AcDbLine
 10
714.4350405792138
 20
152.818225984966
 30
0.0
 11
712.6037660575044
 21
154.6495005066754
 31
0.0
  0
LINE
  5
58F
330
1E
100
AcDbEntity
  8
_1-6______
  6
Continuous
 62
     4
100
AcDbLine
 10
715.927469000905
 20
152.7400111256463
 30
0.0
 11
714.096194479196
 21
154.5712856473556
 31
0.0
  0
LINE
  5
590
330
1E
100
AcDbEntity
  8
_1-6______
  6
Continuous
 62
     4
100
AcDbLine
 10
716.9579648975238
 20
153.123728791401
 30
0.0
 11
715.588622900889
 21
154.4930707880355
 31
0.0
  0
LINE
  5
591
330
1E
100
AcDbEntity
  8
_1-3_止水補助板
  6
Continuous
 62
     7
100
AcDbLine
 10
721.7110733801311
 20
111.376535557326
 30
0.0
 11
719.6703593483134
 21
88.05106743867616
 31
0.0
  0
LINE
  5
592
330
1E
100
AcDbEntity
  8
_1-3_止水補助板
  6
Continuous
 62
     7
100
AcDbLine
 10
720.7148786820392
 20
111.4636913000736
 30
0.0
 11
718.6741646502222
 21
88.13822318142422
 31
0.0
  0
LINE
  5
593
330
1E
100
AcDbEntity
  8
_1-6______
  6
DASHED1
 62
     4
100
AcDbLine
 10
501.078346596808
 20
141.9695848998008
 30
0.0
 11
501.1725513180453
 21
143.767118062359
 31
0.0
  0
LINE
  5
594
330
1E
100
AcDbEntity
  8
_1-6______
  6
Continuous
 62
     3
100
AcDbLine
 10
716.935087606386
 20
152.6872040721684
 30
0.0
 11
395.90822971012
 21
169.5115087847244
 31
0.0
  0
LINE
  5
595
330
1E
100
AcDbEntity
  8
_1-6______
  6
Continuous
 62
     3
100
AcDbLine
 10
715.4696808315837
 20
124.7255770990404
 30
0.0
 11
395.90822971012
 21
141.4730830967826
 31
0.0
  0
LINE
  5
596
330
1E
100
AcDbEntity
  8
_1-6______
  6
DASHED1
 62
     4
100
AcDbLine
 10
716.8565836720219
 20
151.1892597700365
 30
0.0
 11
395.90822971012
 21
168.0094502657274
 31
0.0
  0
LINE
  5
597
330
1E
100
AcDbEntity
  8
_1-6______
  6
Continuous
 62
     3
100
AcDbLine
 10
716.6995758032927
 20
148.1933711657728
 30
0.0
 11
395.90822971012
 21
165.0053332277335
 31
0.0
  0
LINE
  5
598
330
1E
100
AcDbEntity
  8
_1-6______
  6
Continuous
 62
     3
100
AcDbLine
 10
716.6210718689284
 20
146.6954268636411
 30
0.0
 11
395.90822971012
 21
163.5032747087368
 31
0.0
  0
LINE
  5
599
330
1E
100
AcDbEntity
  8
_1-6______
  6
DASHED1
 62
     4
100
AcDbLine
 10
715.8779012902788
 20
132.5148874701259
 30
0.0
 11
395.90822971012
 21
149.2837873955662
 31
0.0
  0
LINE
  5
59A
330
1E
100
AcDbEntity
  8
_1-6______
  6
DASHED1
 62
     4
100
AcDbLine
 10
715.7836965690414
 20
130.7173543075678
 30
0.0
 11
395.90822971012
 21
147.48131717277
 31
0.0
  0
LINE
  5
59B
330
1E
100
AcDbEntity
  8
_1-6______
  6
DASHED1
 62
     4
100
AcDbLine
 10
715.600520722191
 20
127.2221509359269
 30
0.0
 11
395.90822971012
 21
143.9765139617774
 31
0.0
  0
LINE
  5
59C
330
1E
100
AcDbEntity
  8
_1-6______
  6
DASHED1
 62
     4
100
AcDbLine
 10
715.5220167878265
 20
125.724206633795
 30
0.0
 11
395.90822971012
 21
142.4744554427805
 31
0.0
  0
LINE
  5
59D
330
1E
100
AcDbEntity
  8
_1-3_止水補助板
  6
Continuous
 62
     7
100
AcDbLine
 10
671.8758646343128
 20
106.850387930934
 30
0.0
 11
673.5205920593757
 21
88.05106743867639
 31
0.0
  0
ARC
  5
59E
330
1E
100
AcDbEntity
  8
_1-3_止水補助板
  6
Continuous
 62
     7
100
AcDbCircle
 10
696.5954757038448
 20
90.06985816974719
 30
0.0
 40
23.16302595132232
100
AcDbArc
 50
185.0000000000001
 51
354.9999999999993
  0
LINE
  5
59F
330
1E
100
AcDbEntity
  8
_1-3_止水補助板
  6
Continuous
 62
     7
100
AcDbLine
 10
672.8720593324044
 20
106.9375436736816
 30
0.0
 11
674.5167867574675
 21
88.13822318142422
 31
0.0
  0
ARC
  5
5A0
330
1E
100
AcDbEntity
  8
_1-3_止水補助板
  6
Continuous
 62
     7
100
AcDbCircle
 10
696.5954757038448
 20
90.06985816974719
 30
0.0
 40
22.16302595132232
100
AcDbArc
 50
185.0
 51
355.0
  0
LINE
  5
5A1
330
1E
100
AcDbEntity
  8
_1-9_FYY_____
  6
Continuous
 62
     3
100
AcDbLine
 10
45.90822971011989
 20
152.0337705401588
 30
0.0
 11
45.90822971011989
 21
67.88066424030342
 31
0.0
  0
LINE
  5
5A2
330
1E
100
AcDbEntity
  8
_1-9_FYY_____
  6
Continuous
 62
     3
100
AcDbLine
 10
48.90822971011989
 20
64.88066424030342
 30
0.0
 11
55.90822971011989
 21
64.88066424030342
 31
0.0
  0
LINE
  5
5A3
330
1E
100
AcDbEntity
  8
_1-9_FYY_____
  6
Continuous
 62
     3
100
AcDbLine
 10
742.9082297101198
 20
64.88066424030342
 30
0.0
 11
735.9082297101198
 21
64.88066424030342
 31
0.0
  0
ARC
  5
5A4
330
1E
100
AcDbEntity
  8
_1-9_FYY_____
  6
Continuous
 62
     3
100
AcDbCircle
 10
742.9082297101198
 20
152.0337705401588
 30
0.0
 40
3.0
100
AcDbArc
 50
0.0
 51
86.99999999999999
  0
ARC
  5
5A5
330
1E
100
AcDbEntity
  8
_1-9_FYY_____
  6
Continuous
 62
     3
100
AcDbCircle
 10
742.9082297101198
 20
67.88066424030342
 30
0.0
 40
3.0
100
AcDbArc
 50
270.0
 51
0.0
  0
ARC
  5
5A6
330
1E
100
AcDbEntity
  8
_1-9_FYY_____
  6
Continuous
 62
     3
100
AcDbCircle
 10
742.9082297101198
 20
152.0337705401588
 30
0.0
 40
1.0
100
AcDbArc
 50
0.0
 51
86.99999999999999
  0
LINE
  5
5A7
330
1E
100
AcDbEntity
  8
_1-9_FYY_____
  6
Continuous
 62
     3
100
AcDbLine
 10
743.9082297101198
 20
67.88066424030342
 30
0.0
 11
743.9082297101198
 21
152.0337705401588
 31
0.0
  0
LINE
  5
5A8
330
1E
100
AcDbEntity
  8
_1-9_FYY_____
  6
Continuous
 62
     3
100
AcDbLine
 10
742.9082297101198
 20
66.88066424030342
 30
0.0
 11
735.9082297101198
 21
66.88066424030342
 31
0.0
  0
ARC
  5
5A9
330
1E
100
AcDbEntity
  8
_1-9_FYY_____
  6
Continuous
 62
     3
100
AcDbCircle
 10
742.9082297101198
 20
67.88066424030342
 30
0.0
 40
1.0
100
AcDbArc
 50
270.0
 51
0.0
  0
LINE
  5
5AA
330
1E
100
AcDbEntity
  8
_1-9_FYY_____
  6
Continuous
 62
     3
100
AcDbLine
 10
735.9082297101198
 20
64.88066424030342
 30
0.0
 11
735.9082297101198
 21
66.88066424030342
 31
0.0
  0
POINT
  5
5AB
330
1E
100
AcDbEntity
  8
_1-9_FYY_____
 62
     4
100
AcDbPoint
 10
745.9082297101198
 20
154.8806642403034
 30
0.0
  0
LINE
  5
5AC
330
1E
100
AcDbEntity
  8
_1-9_FYY_____
  6
Continuous
 62
     3
100
AcDbLine
 10
745.9082297101198
 20
152.0337705401588
 30
0.0
 11
745.9082297101198
 21
67.88066424030342
 31
0.0
  0
ARC
  5
5AD
330
1E
100
AcDbEntity
  8
_1-8_水切______
  6
DASHED1
 62
     7
100
AcDbCircle
 10
722.0714093443906
 20
146.6168617738599
 30
0.0
 40
3.0
100
AcDbArc
 50
10.12467165539782
 51
86.99999999999999
  0
ARC
  5
5AE
330
1E
100
AcDbEntity
  8
_1-8_水切______
  6
DASHED1
 62
     7
100
AcDbCircle
 10
722.0714093443906
 20
146.6168617738599
 30
0.0
 40
7.5
100
AcDbArc
 50
10.12467165539782
 51
86.99999999999999
  0
LINE
  5
5AF
330
1E
100
AcDbEntity
  8
_1-8_水切______
  6
DASHED1
 62
     7
100
AcDbLine
 10
725.0246920709164
 20
147.1442336893107
 30
0.0
 11
738.9783056203316
 21
69.0039978125846
 31
0.0
  0
LINE
  5
5B0
330
1E
100
AcDbEntity
  8
_1-8_水切______
  6
DASHED1
 62
     7
100
AcDbLine
 10
743.4082297101198
 20
69.79505568576098
 30
0.0
 11
738.9783056203953
 21
69.00399781222882
 31
0.0
  0
LINE
  5
5B1
330
1E
100
AcDbEntity
  8
_1-8_水切______
  6
DASHED1
 62
     7
100
AcDbLine
 10
729.4546161607044
 20
147.9352915624876
 30
0.0
 11
743.4082297101198
 21
69.79505568576098
 31
0.0
  0
LINE
  5
5B2
330
1E
100
AcDbEntity
  8
_1-9_FYY_____
  6
Continuous
 62
     3
100
AcDbLine
 10
743.0652375788487
 20
155.0296591444224
 30
0.0
 11
395.90822971012
 21
173.2233869893675
 31
0.0
  0
LINE
  5
5B3
330
1E
100
AcDbEntity
  8
_1-9_FYY_____
  6
Continuous
 62
     3
100
AcDbLine
 10
742.9605656663631
 20
153.0324000749131
 30
0.0
 11
395.90822971012
 21
171.220642297372
 31
0.0
  0
ARC
  5
5B4
330
1E
100
AcDbEntity
  8
_1-9_FYY_____
  6
Continuous
 62
     3
100
AcDbCircle
 10
48.90822971011989
 20
152.0337705401588
 30
0.0
 40
3.0
100
AcDbArc
 50
93.0
 51
180.0
  0
ARC
  5
5B5
330
1E
100
AcDbEntity
  8
_1-9_FYY_____
  6
Continuous
 62
     3
100
AcDbCircle
 10
48.90822971011989
 20
67.88066424030342
 30
0.0
 40
3.0
100
AcDbArc
 50
180.0
 51
270.0
  0
ARC
  5
5B6
330
1E
100
AcDbEntity
  8
_1-9_FYY_____
  6
Continuous
 62
     3
100
AcDbCircle
 10
48.90822971011989
 20
152.0337705401588
 30
0.0
 40
1.0
100
AcDbArc
 50
93.0
 51
180.0
  0
LINE
  5
5B7
330
1E
100
AcDbEntity
  8
_1-9_FYY_____
  6
Continuous
 62
     3
100
AcDbLine
 10
47.90822971011989
 20
67.88066424030342
 30
0.0
 11
47.90822971011989
 21
152.0337705401588
 31
0.0
  0
LINE
  5
5B8
330
1E
100
AcDbEntity
  8
_1-9_FYY_____
  6
Continuous
 62
     3
100
AcDbLine
 10
48.90822971011989
 20
66.88066424030342
 30
0.0
 11
55.90822971011989
 21
66.88066424030342
 31
0.0
  0
ARC
  5
5B9
330
1E
100
AcDbEntity
  8
_1-9_FYY_____
  6
Continuous
 62
     3
100
AcDbCircle
 10
48.90822971011989
 20
67.88066424030342
 30
0.0
 40
1.0
100
AcDbArc
 50
180.0
 51
270.0
  0
LINE
  5
5BA
330
1E
100
AcDbEntity
  8
_1-9_FYY_____
  6
Continuous
 62
     3
100
AcDbLine
 10
55.90822971011989
 20
64.88066424030342
 30
0.0
 11
55.90822971011989
 21
66.88066424030342
 31
0.0
  0
POINT
  5
5BB
330
1E
100
AcDbEntity
  8
_1-9_FYY_____
 62
     4
100
AcDbPoint
 10
45.90822971011989
 20
154.8806642403034
 30
0.0
  0
ARC
  5
5BC
330
1E
100
AcDbEntity
  8
_1-8_水切______
  6
DASHED1
 62
     7
100
AcDbCircle
 10
69.74505007584908
 20
146.6168617738599
 30
0.0
 40
3.0
100
AcDbArc
 50
93.0
 51
169.875328344602
  0
ARC
  5
5BD
330
1E
100
AcDbEntity
  8
_1-8_水切______
  6
DASHED1
 62
     7
100
AcDbCircle
 10
69.74505007584908
 20
146.6168617738599
 30
0.0
 40
7.5
100
AcDbArc
 50
93.0
 51
169.875328344602
  0
LINE
  5
5BE
330
1E
100
AcDbEntity
  8
_1-8_水切______
  6
DASHED1
 62
     7
100
AcDbLine
 10
66.79176734932359
 20
147.1442336893107
 30
0.0
 11
52.83815379990819
 21
69.0039978125846
 31
0.0
  0
LINE
  5
5BF
330
1E
100
AcDbEntity
  8
_1-8_水切______
  6
DASHED1
 62
     7
100
AcDbLine
 10
48.40822971012009
 20
69.79505568576098
 30
0.0
 11
52.83815379984473
 21
69.00399781222882
 31
0.0
  0
LINE
  5
5C0
330
1E
100
AcDbEntity
  8
_1-8_水切______
  6
DASHED1
 62
     7
100
AcDbLine
 10
62.36184325953551
 20
147.9352915624876
 30
0.0
 11
48.40822971012009
 21
69.79505568576098
 31
0.0
  0
LINE
  5
5C1
330
1E
100
AcDbEntity
  8
_1-9_FYY_____
  6
Continuous
 62
     3
100
AcDbLine
 10
48.75122184139121
 20
155.0296591444224
 30
0.0
 11
395.90822971012
 21
173.2233869893675
 31
0.0
  0
LINE
  5
5C2
330
1E
100
AcDbEntity
  8
_1-9_FYY_____
  6
Continuous
 62
     3
100
AcDbLine
 10
48.85589375387707
 20
153.0324000749131
 30
0.0
 11
395.90822971012
 21
171.220642297372
 31
0.0
  0
POINT
  5
5C3
330
1E
100
AcDbEntity
  8
_1-9_FYY_____
 62
     4
100
AcDbPoint
 10
745.9082297101198
 20
64.88066424030342
 30
0.0
  0
POINT
  5
5C4
330
1E
100
AcDbEntity
  8
_1-9_FYY_____
 62
     4
100
AcDbPoint
 10
45.90822971011989
 20
64.88066424030342
 30
0.0
  0
LINE
  5
5C5
330
1E
100
AcDbEntity
  8
_1-8_水切______
  6
DASHED1
 62
     7
100
AcDbLine
 10
69.35253040402693
 20
154.1065832845193
 30
0.0
 11
74.79204526405567
 21
154.3916561787106
 31
0.0
  0
LINE
  5
5C6
330
1E
100
AcDbEntity
  8
_1-8_水切______
  6
DASHED1
 62
     7
100
AcDbLine
 10
69.58804220712015
 20
149.6127503781236
 30
0.0
 11
75.02755706714889
 21
149.897823272315
 31
0.0
  0
LINE
  5
5C7
330
1E
100
AcDbEntity
  8
_1-8_水切______
  6
DASHED1
 62
     7
100
AcDbLine
 10
722.4639290162131
 20
154.1065832845193
 30
0.0
 11
717.0244141561844
 21
154.3916561787106
 31
0.0
  0
LINE
  5
5C8
330
1E
100
AcDbEntity
  8
_1-8_水切______
  6
DASHED1
 62
     7
100
AcDbLine
 10
722.2284172131199
 20
149.6127503781236
 30
0.0
 11
716.7889023530912
 21
149.897823272315
 31
0.0
  0
TEXT
  5
5C9
330
1E
100
AcDbEntity
  8
_1-F_表__文字
 62
     7
100
AcDbText
 10
307.4082297101199
 20
175.5941367906016
 30
0.0
 40
5.0
  1
勾配３度
100
AcDbText
  0
LINE
  5
5CA
330
1E
100
AcDbEntity
  8
_1-E_寸法
  6
Continuous
 62
     4
100
AcDbLine
 10
745.9082297101198
 20
-36.23717572535298
 30
0.0
 11
745.9082297101198
 21
62.88066424030342
 31
0.0
  0
LINE
  5
5CB
330
1E
100
AcDbEntity
  8
_1-E_寸法
  6
Continuous
 62
     4
100
AcDbLine
 10
45.90822971011989
 20
-36.23717572535298
 30
0.0
 11
45.90822971011989
 21
62.88066424030342
 31
0.0
  0
POINT
  5
5CC
330
1E
100
AcDbEntity
  8
_1-6______
 62
     4
100
AcDbPoint
 10
395.90822971012
 20
173.2233869893675
 30
0.0
  0
TEXT
  5
5CD
330
1E
100
AcDbEntity
  8
_1-E_寸法
 62
     7
100
AcDbText
 10
392.9082297101198
 20
232.7628242746468
 30
0.0
 40
5.0
  1
Ｗ
100
AcDbText
  0
LINE
  5
5CE
330
1E
100
AcDbEntity
  8
_1-E_寸法
  6
Continuous
 62
     4
100
AcDbLine
 10
745.9082297101198
 20
232.7628242746468
 30
0.0
 11
741.9689986980712
 21
233.4574169853148
 31
0.0
  0
LINE
  5
5CF
330
1E
100
AcDbEntity
  8
_1-E_寸法
  6
Continuous
 62
     4
100
AcDbLine
 10
745.9082297101198
 20
232.7628242746468
 30
0.0
 11
741.9689986980712
 21
232.0682315639792
 31
0.0
  0
LINE
  5
5D0
330
1E
100
AcDbEntity
  8
_1-E_寸法
  6
Continuous
 62
     4
100
AcDbLine
 10
45.90822971011989
 20
232.7628242746468
 30
0.0
 11
49.84746072216871
 21
233.4574169853148
 31
0.0
  0
LINE
  5
5D1
330
1E
100
AcDbEntity
  8
_1-E_寸法
  6
Continuous
 62
     4
100
AcDbLine
 10
45.90822971011989
 20
232.7628242746468
 30
0.0
 11
49.84746072216871
 21
232.0682315639792
 31
0.0
  0
LINE
  5
5D2
330
1E
100
AcDbEntity
  8
_1-E_寸法
  6
Continuous
 62
     4
100
AcDbLine
 10
45.90822971011989
 20
232.7628242746468
 30
0.0
 11
745.9082297101198
 21
232.7628242746468
 31
0.0
  0
LINE
  5
5D3
330
1E
100
AcDbEntity
  8
_1-E_寸法
  6
Continuous
 62
     4
100
AcDbLine
 10
45.90822971011989
 20
236.7628242746468
 30
0.0
 11
45.90822971011989
 21
156.8806642403034
 31
0.0
  0
LINE
  5
5D4
330
1E
100
AcDbEntity
  8
_1-E_寸法
  6
Continuous
 62
     4
100
AcDbLine
 10
745.9082297101198
 20
236.7628242746468
 30
0.0
 11
745.9082297101198
 21
156.8806642403034
 31
0.0
  0
LINE
  5
5D5
330
1E
100
AcDbEntity
  8
_1-E_寸法
  6
Continuous
 62
     4
100
AcDbLine
 10
670.9082297101198
 20
47.76282427464701
 30
0.0
 11
666.9689986980712
 21
48.45741698531458
 31
0.0
  0
LINE
  5
5D6
330
1E
100
AcDbEntity
  8
_1-E_寸法
  6
Continuous
 62
     4
100
AcDbLine
 10
670.9082297101198
 20
47.76282427464701
 30
0.0
 11
666.9689986980712
 21
47.06823156397916
 31
0.0
  0
LINE
  5
5D7
330
1E
100
AcDbEntity
  8
_1-E_寸法
  6
Continuous
 62
     4
100
AcDbLine
 10
620.9082297101198
 20
47.76282427464701
 30
0.0
 11
670.9082297101198
 21
47.76282427464701
 31
0.0
  0
LINE
  5
5D8
330
1E
100
AcDbEntity
  8
_1-E_寸法
  6
Continuous
 62
     4
100
AcDbLine
 10
620.9082297101198
 20
47.76282427464701
 30
0.0
 11
624.8474607221685
 21
48.45741698531458
 31
0.0
  0
LINE
  5
5D9
330
1E
100
AcDbEntity
  8
_1-E_寸法
  6
Continuous
 62
     4
100
AcDbLine
 10
620.9082297101198
 20
47.76282427464701
 30
0.0
 11
624.8474607221685
 21
47.06823156397916
 31
0.0
  0
TEXT
  5
5DA
330
1E
100
AcDbEntity
  8
_1-E_寸法
 62
     7
100
AcDbText
 10
642.9082297101198
 20
47.76282427464701
 30
0.0
 40
5.0
  1
Ｂ
100
AcDbText
  0
LINE
  5
5DB
330
1E
100
AcDbEntity
  8
_1-E_寸法
  6
Continuous
 62
     4
100
AcDbLine
 10
120.9082297101198
 20
47.76282427464701
 30
0.0
 11
124.8474607221687
 21
48.45741698531458
 31
0.0
  0
LINE
  5
5DC
330
1E
100
AcDbEntity
  8
_1-E_寸法
  6
Continuous
 62
     4
100
AcDbLine
 10
120.9082297101198
 20
47.76282427464701
 30
0.0
 11
124.8474607221687
 21
47.06823156397916
 31
0.0
  0
LINE
  5
5DD
330
1E
100
AcDbEntity
  8
_1-E_寸法
  6
Continuous
 62
     4
100
AcDbLine
 10
170.9082297101198
 20
47.76282427464701
 30
0.0
 11
120.9082297101198
 21
47.76282427464701
 31
0.0
  0
LINE
  5
5DE
330
1E
100
AcDbEntity
  8
_1-E_寸法
  6
Continuous
 62
     4
100
AcDbLine
 10
170.9082297101198
 20
47.76282427464701
 30
0.0
 11
166.968998698071
 21
48.45741698531458
 31
0.0
  0
LINE
  5
5DF
330
1E
100
AcDbEntity
  8
_1-E_寸法
  6
Continuous
 62
     4
100
AcDbLine
 10
170.9082297101198
 20
47.76282427464701
 30
0.0
 11
166.968998698071
 21
47.06823156397916
 31
0.0
  0
TEXT
  5
5E0
330
1E
100
AcDbEntity
  8
_1-E_寸法
 62
     7
100
AcDbText
 10
142.9082297101198
 20
47.76282427464701
 30
0.0
 40
5.0
  1
Ｂ
100
AcDbText
  0
LINE
  5
5E1
330
1E
100
AcDbEntity
  8
_1-E_寸法
  6
Continuous
 62
     4
100
AcDbLine
 10
265.9082297101197
 20
67.76282427464701
 30
0.0
 11
295.9082297101197
 21
67.76282427464701
 31
0.0
  0
LINE
  5
5E2
330
1E
100
AcDbEntity
  8
_1-E_寸法
  6
Continuous
 62
     4
100
AcDbLine
 10
265.9082297101197
 20
67.76282427464701
 30
0.0
 11
269.8474607221686
 21
68.45741698531458
 31
0.0
  0
LINE
  5
5E3
330
1E
100
AcDbEntity
  8
_1-E_寸法
  6
Continuous
 62
     4
100
AcDbLine
 10
265.9082297101197
 20
67.76282427464701
 30
0.0
 11
269.8474607221686
 21
67.06823156397923
 31
0.0
  0
LINE
  5
5E4
330
1E
100
AcDbEntity
  8
_1-E_寸法
  6
Continuous
 62
     4
100
AcDbLine
 10
295.9082297101197
 20
67.76282427464701
 30
0.0
 11
291.968998698071
 21
68.45741698531458
 31
0.0
  0
LINE
  5
5E5
330
1E
100
AcDbEntity
  8
_1-E_寸法
  6
Continuous
 62
     4
100
AcDbLine
 10
295.9082297101197
 20
67.76282427464701
 30
0.0
 11
291.968998698071
 21
67.06823156397923
 31
0.0
  0
TEXT
  5
5E6
330
1E
100
AcDbEntity
  8
_1-E_寸法
 62
     7
100
AcDbText
 10
277.6582297101197
 20
68.16282427464682
 30
0.0
 40
5.0
  1
30
100
AcDbText
  0
LINE
  5
5E7
330
1E
100
AcDbEntity
  8
_1-E_寸法
  6
Continuous
 62
     4
100
AcDbLine
 10
495.9082297101198
 20
67.76282427464701
 30
0.0
 11
525.9082297101198
 21
67.76282427464701
 31
0.0
  0
LINE
  5
5E8
330
1E
100
AcDbEntity
  8
_1-E_寸法
  6
Continuous
 62
     4
100
AcDbLine
 10
495.9082297101198
 20
67.76282427464701
 30
0.0
 11
499.8474607221687
 21
68.45741698531458
 31
0.0
  0
LINE
  5
5E9
330
1E
100
AcDbEntity
  8
_1-E_寸法
  6
Continuous
 62
     4
100
AcDbLine
 10
495.9082297101198
 20
67.76282427464701
 30
0.0
 11
499.8474607221687
 21
67.06823156397923
 31
0.0
  0
LINE
  5
5EA
330
1E
100
AcDbEntity
  8
_1-E_寸法
  6
Continuous
 62
     4
100
AcDbLine
 10
525.9082297101198
 20
67.76282427464701
 30
0.0
 11
521.9689986980712
 21
68.45741698531458
 31
0.0
  0
LINE
  5
5EB
330
1E
100
AcDbEntity
  8
_1-E_寸法
  6
Continuous
 62
     4
100
AcDbLine
 10
525.9082297101198
 20
67.76282427464701
 30
0.0
 11
521.9689986980712
 21
67.06823156397923
 31
0.0
  0
TEXT
  5
5EC
330
1E
100
AcDbEntity
  8
_1-E_寸法
 62
     7
100
AcDbText
 10
507.6582297101199
 20
68.16282427464682
 30
0.0
 40
5.0
  1
30
100
AcDbText
  0
LINE
  5
5ED
330
1E
100
AcDbEntity
  8
_1-E_寸法
  6
Continuous
 62
     4
100
AcDbLine
 10
805.9082297101202
 20
64.88066424030342
 30
0.0
 11
805.2136369994524
 21
68.81989525235218
 31
0.0
  0
LINE
  5
5EE
330
1E
100
AcDbEntity
  8
_1-E_寸法
  6
Continuous
 62
     4
100
AcDbLine
 10
805.9082297101202
 20
64.88066424030342
 30
0.0
 11
806.602822420788
 21
68.81989525235218
 31
0.0
  0
LINE
  5
5EF
330
1E
100
AcDbEntity
  8
_1-E_寸法
  6
Continuous
 62
     4
100
AcDbLine
 10
805.9082297101202
 20
154.8806642403034
 30
0.0
 11
805.2136369994524
 21
150.9414332282545
 31
0.0
  0
LINE
  5
5F0
330
1E
100
AcDbEntity
  8
_1-E_寸法
  6
Continuous
 62
     4
100
AcDbLine
 10
805.9082297101202
 20
154.8806642403034
 30
0.0
 11
806.602822420788
 21
150.9414332282545
 31
0.0
  0
LINE
  5
5F1
330
1E
100
AcDbEntity
  8
_1-E_寸法
  6
Continuous
 62
     4
100
AcDbLine
 10
805.9082297101202
 20
64.88066424030342
 30
0.0
 11
805.9082297101202
 21
154.8806642403034
 31
0.0
  0
TEXT
  5
5F2
330
1E
100
AcDbEntity
  8
_1-E_寸法
 62
     7
100
AcDbText
 10
805.9082297101202
 20
106.6306642403034
 30
0.0
 40
5.0
  1
90
 50
90.0
100
AcDbText
  0
LINE
  5
5F3
330
1E
100
AcDbEntity
  8
_1-E_寸法
  6
Continuous
 62
     4
100
AcDbLine
 10
809.9082297101197
 20
154.8806642403034
 30
0.0
 11
747.9082297101198
 21
154.8806642403034
 31
0.0
  0
LINE
  5
5F4
330
1E
100
AcDbEntity
  8
_1-E_寸法
  6
Continuous
 62
     4
100
AcDbLine
 10
809.9082297101197
 20
64.88066424030342
 30
0.0
 11
747.9082297101198
 21
64.88066424030342
 31
0.0
  0
LINE
  5
5F5
330
1E
100
AcDbEntity
  8
_1-3_止水補助板
  6
Continuous
 62
     7
100
AcDbLine
 10
620.9082297101198
 20
108.762824274647
 30
0.0
 11
620.9082297101198
 21
109.762824274647
 31
0.0
  0
ARC
  5
5F6
330
1E
100
AcDbEntity
  8
_1-3_止水補助板
  6
Continuous
 62
     7
100
AcDbCircle
 10
599.9082297101198
 20
118.0128242746467
 30
0.0
 40
9.25
100
AcDbArc
 50
270.0
 51
288.9246444160511
  0
ARC
  5
5F7
330
1E
100
AcDbEntity
  8
_1-3_止水補助板
  6
Continuous
 62
     7
100
AcDbCircle
 10
605.9082297101198
 20
100.5128242746467
 30
0.0
 40
9.25
100
AcDbArc
 50
90.0
 51
108.9246444160511
  0
ARC
  5
5F8
330
1E
100
AcDbEntity
  8
_1-3_止水補助板
  6
Continuous
 62
     7
100
AcDbCircle
 10
605.9082297101198
 20
100.5128242746467
 30
0.0
 40
8.25
100
AcDbArc
 50
90.0
 51
108.9246444160511
  0
ARC
  5
5F9
330
1E
100
AcDbEntity
  8
_1-3_止水補助板
  6
Continuous
 62
     7
100
AcDbCircle
 10
599.9082297101198
 20
118.0128242746467
 30
0.0
 40
10.25
100
AcDbArc
 50
270.0
 51
288.9246444160511
  0
LINE
  5
5FA
330
1E
100
AcDbEntity
  8
_1-3_止水補助板
  6
Continuous
 62
     7
100
AcDbLine
 10
635.9082297101198
 20
109.762824274647
 30
0.0
 11
605.9082297101198
 21
109.762824274647
 31
0.0
  0
ARC
  5
5FB
330
1E
100
AcDbEntity
  8
_1-3_止水補助板
  6
Continuous
 62
     7
100
AcDbCircle
 10
635.9082297101198
 20
100.5128242746467
 30
0.0
 40
9.25
100
AcDbArc
 50
71.07535558394876
 51
90.0
  0
ARC
  5
5FC
330
1E
100
AcDbEntity
  8
_1-3_止水補助板
  6
Continuous
 62
     7
100
AcDbCircle
 10
641.9082297101198
 20
118.0128242746467
 30
0.0
 40
9.25
100
AcDbArc
 50
251.0753555839486
 51
270.0
  0
ARC
  5
5FD
330
1E
100
AcDbEntity
  8
_1-3_止水補助板
  6
Continuous
 62
     7
100
AcDbCircle
 10
635.9082297101198
 20
100.5128242746467
 30
0.0
 40
8.25
100
AcDbArc
 50
71.07535558394873
 51
90.0
  0
ARC
  5
5FE
330
1E
100
AcDbEntity
  8
_1-3_止水補助板
  6
Continuous
 62
     7
100
AcDbCircle
 10
641.9082297101198
 20
118.0128242746467
 30
0.0
 40
10.25
100
AcDbArc
 50
251.0753555839486
 51
270.0
  0
ARC
  5
5FF
330
1E
100
AcDbEntity
  8
_1-3_止水補助板
  6
Continuous
 62
     7
100
AcDbCircle
 10
545.9082297101201
 20
119.0282088900314
 30
0.0
 40
10.26538461538453
100
AcDbArc
 50
240.8515676039221
 51
270.0
  0
LINE
  5
600
330
1E
100
AcDbEntity
  8
_1-3_止水補助板
  6
Continuous
 62
     7
100
AcDbLine
 10
599.9082297101198
 20
108.762824274647
 30
0.0
 11
545.9082297101201
 21
108.762824274647
 31
0.0
  0
ARC
  5
601
330
1E
100
AcDbEntity
  8
_1-3_止水補助板
  6
Continuous
 62
     7
100
AcDbCircle
 10
535.9082297101202
 20
101.0974396592621
 30
0.0
 40
9.265384615384537
100
AcDbArc
 50
60.85156760392226
 51
90.0
  0
ARC
  5
602
330
1E
100
AcDbEntity
  8
_1-3_止水補助板
  6
Continuous
 62
     7
100
AcDbCircle
 10
545.9082297101201
 20
119.0282088900314
 30
0.0
 40
11.26538461538453
100
AcDbArc
 50
240.8515676039221
 51
270.0
  0
LINE
  5
603
330
1E
100
AcDbEntity
  8
_1-3_止水補助板
  6
Continuous
 62
     7
100
AcDbLine
 10
641.9082297101198
 20
108.762824274647
 30
0.0
 11
670.9200616156074
 21
108.762824274647
 31
0.0
  0
ARC
  5
604
330
1E
100
AcDbEntity
  8
_1-3_止水補助板
  6
Continuous
 62
     7
100
AcDbCircle
 10
670.8796699362213
 20
106.7632321881862
 30
0.0
 40
2.0
100
AcDbArc
 50
5.000000000000019
 51
88.84278494683899
  0
ARC
  5
605
330
1E
100
AcDbEntity
  8
_1-3_止水補助板
  6
Continuous
 62
     7
100
AcDbCircle
 10
535.9082297101202
 20
101.0974396592621
 30
0.0
 40
10.26538461538453
100
AcDbArc
 50
60.85156760392226
 51
90.0
  0
LINE
  5
606
330
1E
100
AcDbEntity
  8
_1-3_止水補助板
  6
Continuous
 62
     7
100
AcDbLine
 10
505.864033255592
 20
111.3628242746468
 30
0.0
 11
535.9082297101202
 21
111.3628242746468
 31
0.0
  0
LINE
  5
607
330
1E
100
AcDbEntity
  8
_1-3_止水補助板
  6
Continuous
 62
     7
100
AcDbLine
 10
170.90822971012
 20
108.762824274647
 30
0.0
 11
170.90822971012
 21
109.762824274647
 31
0.0
  0
ARC
  5
608
330
1E
100
AcDbEntity
  8
_1-3_止水補助板
  6
Continuous
 62
     7
100
AcDbCircle
 10
191.90822971012
 20
118.0128242746467
 30
0.0
 40
9.25
100
AcDbArc
 50
251.0753555839486
 51
270.0
  0
ARC
  5
609
330
1E
100
AcDbEntity
  8
_1-3_止水補助板
  6
Continuous
 62
     7
100
AcDbCircle
 10
185.9082297101199
 20
100.5128242746467
 30
0.0
 40
9.25
100
AcDbArc
 50
71.07535558394873
 51
90.0
  0
ARC
  5
60A
330
1E
100
AcDbEntity
  8
_1-3_止水補助板
  6
Continuous
 62
     7
100
AcDbCircle
 10
185.9082297101199
 20
100.5128242746467
 30
0.0
 40
8.25
100
AcDbArc
 50
71.07535558394873
 51
90.0
  0
ARC
  5
60B
330
1E
100
AcDbEntity
  8
_1-3_止水補助板
  6
Continuous
 62
     7
100
AcDbCircle
 10
191.90822971012
 20
118.0128242746467
 30
0.0
 40
10.25
100
AcDbArc
 50
251.0753555839486
 51
270.0
  0
LINE
  5
60C
330
1E
100
AcDbEntity
  8
_1-3_止水補助板
  6
Continuous
 62
     7
100
AcDbLine
 10
155.9082297101201
 20
109.762824274647
 30
0.0
 11
185.9082297101199
 21
109.762824274647
 31
0.0
  0
ARC
  5
60D
330
1E
100
AcDbEntity
  8
_1-3_止水補助板
  6
Continuous
 62
     7
100
AcDbCircle
 10
155.9082297101201
 20
100.5128242746467
 30
0.0
 40
9.25
100
AcDbArc
 50
90.00000000000005
 51
108.9246444160511
  0
ARC
  5
60E
330
1E
100
AcDbEntity
  8
_1-3_止水補助板
  6
Continuous
 62
     7
100
AcDbCircle
 10
149.9082297101201
 20
118.0128242746467
 30
0.0
 40
9.25
100
AcDbArc
 50
270.0
 51
288.9246444160511
  0
ARC
  5
60F
330
1E
100
AcDbEntity
  8
_1-3_止水補助板
  6
Continuous
 62
     7
100
AcDbCircle
 10
155.9082297101201
 20
100.5128242746467
 30
0.0
 40
8.25
100
AcDbArc
 50
90.0
 51
108.9246444160511
  0
ARC
  5
610
330
1E
100
AcDbEntity
  8
_1-3_止水補助板
  6
Continuous
 62
     7
100
AcDbCircle
 10
149.9082297101201
 20
118.0128242746467
 30
0.0
 40
10.25
100
AcDbArc
 50
270.0
 51
288.9246444160511
  0
ARC
  5
611
330
1E
100
AcDbEntity
  8
_1-3_止水補助板
  6
Continuous
 62
     7
100
AcDbCircle
 10
245.9082297101197
 20
119.0282088900314
 30
0.0
 40
10.26538461538453
100
AcDbArc
 50
270.0
 51
299.1484323960778
  0
LINE
  5
612
330
1E
100
AcDbEntity
  8
_1-3_止水補助板
  6
Continuous
 62
     7
100
AcDbLine
 10
191.90822971012
 20
108.762824274647
 30
0.0
 11
245.9082297101197
 21
108.762824274647
 31
0.0
  0
ARC
  5
613
330
1E
100
AcDbEntity
  8
_1-3_止水補助板
  6
Continuous
 62
     7
100
AcDbCircle
 10
255.9082297101197
 20
101.0974396592621
 30
0.0
 40
9.265384615384537
100
AcDbArc
 50
90.0
 51
119.1484323960777
  0
ARC
  5
614
330
1E
100
AcDbEntity
  8
_1-3_止水補助板
  6
Continuous
 62
     7
100
AcDbCircle
 10
245.9082297101197
 20
119.0282088900314
 30
0.0
 40
11.26538461538453
100
AcDbArc
 50
270.0
 51
299.1484323960778
  0
ARC
  5
615
330
1E
100
AcDbEntity
  8
_1-3_止水補助板
  6
Continuous
 62
     7
100
AcDbCircle
 10
255.9082297101197
 20
101.0974396592621
 30
0.0
 40
10.26538461538453
100
AcDbArc
 50
90.0
 51
119.1484323960777
  0
LINE
  5
616
330
1E
100
AcDbEntity
  8
_1-3_止水補助板
  6
Continuous
 62
     7
100
AcDbLine
 10
285.9524261646478
 20
111.3628242746468
 30
0.0
 11
255.9082297101197
 21
111.3628242746468
 31
0.0
  0
ARC
  5
617
330
1E
100
AcDbEntity
  8
_1-3_止水補助板
  6
Continuous
 62
     7
100
AcDbCircle
 10
120.9367894840187
 20
106.7632321881862
 30
0.0
 40
2.0
100
AcDbArc
 50
91.15721505316264
 51
174.9999999999999
  0
LINE
  5
618
330
1E
100
AcDbEntity
  8
_1-3_止水補助板
  6
Continuous
 62
     7
100
AcDbLine
 10
149.9082297101201
 20
108.762824274647
 30
0.0
 11
120.8963978046323
 21
108.762824274647
 31
0.0
  0
TEXT
  5
619
330
1E
100
AcDbEntity
  8
_1-F_表__文字
 62
     7
100
AcDbText
 10
366.5082297101199
 20
-67.23717572535298
 30
0.0
 40
5.0
  1
（3000mmセット）
100
AcDbText
  0
TEXT
  5
61A
330
1E
100
AcDbEntity
  8
_1-F_表__文字
 62
     7
100
AcDbText
 10
434.5082297101201
 20
-67.23717572535298
 30
0.0
 40
5.0
  1
（2000mmセット）
100
AcDbText
  0
TEXT
  5
61B
330
1E
100
AcDbEntity
  8
_1-F_表__文字
 62
     7
100
AcDbText
 10
639.5082297101201
 20
-67.23717572535298
 30
0.0
 40
5.0
  1
（単位：mm）
100
AcDbText
  0
LINE
  5
61C
330
1E
100
AcDbEntity
  8
_1-F_表__文字
  6
Continuous
 62
     4
100
AcDbLine
 10
345.90822971012
 20
175.6098597552054
 30
0.0
 11
295.90822971012
 21
175.6098597552054
 31
0.0
  0
LINE
  5
61D
330
1E
100
AcDbEntity
  8
_1-F_表__文字
  6
Continuous
 62
     4
100
AcDbLine
 10
295.90822971012
 20
172.9894707910532
 30
0.0
 11
295.90822971012
 21
175.6098597552054
 31
0.0
  0
LINE
  5
61E
330
1E
100
AcDbEntity
  8
_1-F_表__文字
  6
Continuous
 62
     4
100
AcDbLine
 10
345.90822971012
 20
175.6098597552054
 30
0.0
 11
295.90822971012
 21
172.9894707910532
 31
0.0
  0
LINE
  5
61F
330
1E
100
AcDbEntity
  8
_1-5_FYY_______
  6
CENTER1
 62
     4
100
AcDbLine
 10
169.1835898483827
 20
160.5944276414484
 30
0.0
 11
171.5362611850352
 21
115.7027842854785
 31
0.0
  0
LINE
  5
620
330
1E
100
AcDbEntity
  8
_1-4_FYY____
  6
CENTER1
 62
     4
100
AcDbLine
 10
170.9082297101198
 20
132.6863387025335
 30
0.0
 11
170.9082297101198
 21
43.76282427464701
 31
0.0
  0
LINE
  5
621
330
1E
100
AcDbEntity
  8
_1-1_耐火帯
  6
CENTER1
 62
     4
100
AcDbLine
 10
265.9082297101197
 20
116.8016734324831
 30
0.0
 11
265.9082297101197
 21
63.76282427464701
 31
0.0
  0
LINE
  5
622
330
1E
100
AcDbEntity
  8
_1-1_耐火帯
  6
CENTER1
 62
     4
100
AcDbLine
 10
290.9130347631488
 20
60.76282427464701
 30
0.0
 11
312.3148798942394
 21
60.76282427464701
 31
0.0
  0
LINE
  5
623
330
1E
100
AcDbEntity
  8
_1-0_躯体
  6
CENTER1
 62
     4
100
AcDbLine
 10
395.90822971012
 20
203.8087335173074
 30
0.0
 11
395.90822971012
 21
-19.23717572535298
 31
0.0
  0
LINE
  5
624
330
1E
100
AcDbEntity
  8
_1-1_耐火帯
  6
CENTER1
 62
     4
100
AcDbLine
 10
500.9034246570908
 20
60.76282427464701
 30
0.0
 11
479.5015795260006
 21
60.76282427464701
 31
0.0
  0
LINE
  5
625
330
1E
100
AcDbEntity
  8
_1-1_耐火帯
  6
CENTER1
 62
     4
100
AcDbLine
 10
525.9082297101198
 20
116.8016734324831
 30
0.0
 11
525.9082297101198
 21
63.76282427464701
 31
0.0
  0
LINE
  5
626
330
1E
100
AcDbEntity
  8
_1-5_FYY_______
  6
CENTER1
 62
     4
100
AcDbLine
 10
622.6328695718572
 20
160.5944276414484
 30
0.0
 11
620.2801982352048
 21
115.7027842854785
 31
0.0
  0
LINE
  5
627
330
1E
100
AcDbEntity
  8
_1-4_FYY____
  6
CENTER1
 62
     4
100
AcDbLine
 10
620.9082297101198
 20
132.6863387025335
 30
0.0
 11
620.9082297101198
 21
43.76282427464701
 31
0.0
  0
LINE
  5
628
330
1E
100
AcDbEntity
  8
_1-4_FYY____
  6
Continuous
 62
     7
100
AcDbLine
 10
611.9082297101198
 20
113.762824274647
 30
0.0
 11
629.9082297101198
 21
113.762824274647
 31
0.0
  0
LINE
  5
629
330
1E
100
AcDbEntity
  8
_1-4_FYY____
  6
Continuous
 62
     7
100
AcDbLine
 10
629.9082297101198
 20
113.762824274647
 30
0.0
 11
629.9082297101198
 21
112.2628242746467
 31
0.0
  0
LINE
  5
62A
330
1E
100
AcDbEntity
  8
_1-4_FYY____
  6
Continuous
 62
     7
100
AcDbLine
 10
611.9082297101198
 20
113.762824274647
 30
0.0
 11
611.9082297101198
 21
112.2628242746467
 31
0.0
  0
ARC
  5
62B
330
1E
100
AcDbEntity
  8
_1-4_FYY____
  6
Continuous
 62
     7
100
AcDbCircle
 10
620.9082297101198
 20
109.1516712350912
 30
0.0
 40
9.553418012635717
100
AcDbArc
 50
72.41204622604604
 51
107.5879537739539
  0
ARC
  5
62C
330
1E
100
AcDbEntity
  8
_1-4_FYY____
  6
Continuous
 62
     7
100
AcDbCircle
 10
616.5781026911978
 20
116.1492664992988
 30
0.0
 40
2.5558227484282
100
AcDbArc
 50
55.61575253203377
 51
124.384247467965
  0
ARC
  5
62D
330
1E
100
AcDbEntity
  8
_1-4_FYY____
  6
Continuous
 62
     7
100
AcDbCircle
 10
625.2383567290421
 20
116.1492664992988
 30
0.0
 40
2.5558227484282
100
AcDbArc
 50
55.61575253203493
 51
124.3842474679662
  0
LINE
  5
62E
330
1E
100
AcDbEntity
  8
_1-4_FYY____
  6
Continuous
 62
     7
100
AcDbLine
 10
615.1347270182237
 20
118.2585072603428
 30
0.0
 11
615.1347270182237
 21
113.762824274647
 31
0.0
  0
LINE
  5
62F
330
1E
100
AcDbEntity
  8
_1-4_FYY____
  6
Continuous
 62
     7
100
AcDbLine
 10
616.00822971012
 20
118.762824274647
 30
0.0
 11
615.1347270182237
 21
118.2585072603428
 31
0.0
  0
LINE
  5
630
330
1E
100
AcDbEntity
  8
_1-4_FYY____
  6
Continuous
 62
     7
100
AcDbLine
 10
616.00822971012
 20
118.762824274647
 30
0.0
 11
625.8082297101203
 21
118.762824274647
 31
0.0
  0
LINE
  5
631
330
1E
100
AcDbEntity
  8
_1-4_FYY____
  6
Continuous
 62
     7
100
AcDbLine
 10
625.8082297101203
 20
118.762824274647
 30
0.0
 11
626.6817324020162
 21
118.2585072603428
 31
0.0
  0
LINE
  5
632
330
1E
100
AcDbEntity
  8
_1-4_FYY____
  6
Continuous
 62
     7
100
AcDbLine
 10
618.0214783641718
 20
118.2585072603428
 30
0.0
 11
618.0214783641718
 21
113.762824274647
 31
0.0
  0
LINE
  5
633
330
1E
100
AcDbEntity
  8
_1-4_FYY____
  6
Continuous
 62
     7
100
AcDbLine
 10
623.7949810560681
 20
118.2585072603425
 30
0.0
 11
623.7949810560681
 21
113.762824274647
 31
0.0
  0
LINE
  5
634
330
1E
100
AcDbEntity
  8
_1-4_FYY____
  6
Continuous
 62
     7
100
AcDbLine
 10
626.6817324020162
 20
118.2585072603428
 30
0.0
 11
626.6817324020162
 21
113.762824274647
 31
0.0
  0
CIRCLE
  5
635
330
1E
100
AcDbEntity
  8
_1-F_表__文字
  6
Continuous
 62
     4
100
AcDbCircle
 10
670.8815704488799
 20
141.3610183747513
 30
0.0
 40
0.9
  0
CIRCLE
  5
636
330
1E
100
AcDbEntity
  8
_1-F_表__文字
  6
Continuous
 62
     4
100
AcDbCircle
 10
622.9626747475524
 20
143.2259939619148
 30
0.0
 40
0.9
  0
CIRCLE
  5
637
330
1E
100
AcDbEntity
  8
_1-F_表__文字
  6
Continuous
 62
     4
100
AcDbCircle
 10
618.7822187341177
 20
82.68016287650022
 30
0.0
 40
0.9
  0
CIRCLE
  5
638
330
1E
100
AcDbEntity
  8
_1-F_表__文字
  6
Continuous
 62
     4
100
AcDbCircle
 10
638.512058738509
 20
145.948246605346
 30
0.0
 40
0.9
  0
CIRCLE
  5
639
330
1E
100
AcDbEntity
  8
_1-F_表__文字
  6
Continuous
 62
     4
100
AcDbCircle
 10
625.2456405388154
 20
115.8633964219051
 30
0.0
 40
0.9
  0
CIRCLE
  5
63A
330
1E
100
AcDbEntity
  8
_1-F_表__文字
  6
Continuous
 62
     4
100
AcDbCircle
 10
631.0857124382638
 20
123.2514391862673
 30
0.0
 40
0.9
  0
CIRCLE
  5
63B
330
1E
100
AcDbEntity
  8
_1-F_表__文字
  6
Continuous
 62
     4
100
AcDbCircle
 10
687.8068855604898
 20
170.6765240821734
 30
0.0
 40
6.0
  0
LINE
  5
63C
330
1E
100
AcDbEntity
  8
_1-F_表__文字
  6
Continuous
 62
     4
100
AcDbLine
 10
670.8815704488799
 20
141.3610183747513
 30
0.0
 11
684.8068855604898
 21
165.4803716594668
 31
0.0
  0
CIRCLE
  5
63D
330
1E
100
AcDbEntity
  8
_1-F_表__文字
  6
Continuous
 62
     4
100
AcDbCircle
 10
638.4299212942988
 20
121.5141612606028
 30
0.0
 40
0.9
  0
CIRCLE
  5
63E
330
1E
100
AcDbEntity
  8
_1-F_表__文字
  6
Continuous
 62
     4
100
AcDbCircle
 10
666.2429755497488
 20
169.6877843447115
 30
0.0
 40
6.0
  0
LINE
  5
63F
330
1E
100
AcDbEntity
  8
_1-F_表__文字
  6
Continuous
 62
     4
100
AcDbLine
 10
638.4299212942988
 20
121.5141612606028
 30
0.0
 11
663.2429755497488
 21
164.491631922005
 31
0.0
  0
CIRCLE
  5
640
330
1E
100
AcDbEntity
  8
_1-F_表__文字
  6
Continuous
 62
     4
100
AcDbCircle
 10
659.799148510885
 20
182.8185676363812
 30
0.0
 40
6.0
  0
LINE
  5
641
330
1E
100
AcDbEntity
  8
_1-F_表__文字
  6
Continuous
 62
     4
100
AcDbLine
 10
638.512058738509
 20
145.948246605346
 30
0.0
 11
656.7991485108851
 21
177.6224152136743
 31
0.0
  0
CIRCLE
  5
642
330
1E
100
AcDbEntity
  8
_1-F_表__文字
  6
Continuous
 62
     4
100
AcDbCircle
 10
643.7882072865845
 20
179.2968744141971
 30
0.0
 40
6.0
  0
LINE
  5
643
330
1E
100
AcDbEntity
  8
_1-F_表__文字
  6
Continuous
 62
     4
100
AcDbLine
 10
622.9626747475524
 20
143.2259939619148
 30
0.0
 11
640.7882072865845
 21
174.1007219914903
 31
0.0
  0
CIRCLE
  5
644
330
1E
100
AcDbEntity
  8
_1-F_表__文字
  6
Continuous
 62
     4
100
AcDbCircle
 10
645.867398570032
 20
97.64880778450839
 30
0.0
 40
6.0
  0
LINE
  5
645
330
1E
100
AcDbEntity
  8
_1-F_表__文字
  6
Continuous
 62
     4
100
AcDbLine
 10
631.0857124382638
 20
123.2514391862673
 30
0.0
 11
642.867398570032
 21
102.844960207215
 31
0.0
  0
CIRCLE
  5
646
330
1E
100
AcDbEntity
  8
_1-F_表__文字
  6
Continuous
 62
     4
100
AcDbCircle
 10
644.6680262036718
 20
82.22283764617641
 30
0.0
 40
6.0
  0
LINE
  5
647
330
1E
100
AcDbEntity
  8
_1-F_表__文字
  6
Continuous
 62
     4
100
AcDbLine
 10
625.2456405388154
 20
115.8633964219051
 30
0.0
 11
641.6680262036718
 21
87.41899006888287
 31
0.0
  0
CIRCLE
  5
648
330
1E
100
AcDbEntity
  8
_1-F_表__文字
  6
Continuous
 62
     4
100
AcDbCircle
 10
605.7406045393711
 20
60.09142447848785
 30
0.0
 40
6.0
  0
LINE
  5
649
330
1E
100
AcDbEntity
  8
_1-F_表__文字
  6
Continuous
 62
     4
100
AcDbLine
 10
618.7822187341177
 20
82.68016287650022
 30
0.0
 11
608.7406045393711
 21
65.28757690119443
 31
0.0
  0
CIRCLE
  5
64A
330
1E
100
AcDbEntity
  8
_1-F_表__文字
  6
Continuous
 62
     4
100
AcDbCircle
 10
613.7864779570982
 20
112.9989812072244
 30
0.0
 40
0.9
  0
CIRCLE
  5
64B
330
1E
100
AcDbEntity
  8
_1-F_表__文字
  6
Continuous
 62
     4
100
AcDbCircle
 10
601.089224325219
 20
91.00669280022101
 30
0.0
 40
6.0
  0
LINE
  5
64C
330
1E
100
AcDbEntity
  8
_1-F_表__文字
  6
Continuous
 62
     4
100
AcDbLine
 10
613.7864779570982
 20
112.9989812072244
 30
0.0
 11
604.0892243252191
 21
96.20284522292758
 31
0.0
  0
TEXT
  5
64D
330
1E
100
AcDbEntity
  8
_1-F_表__文字
 62
     7
100
AcDbText
 10
656.7991485108851
 20
179.8185676363812
 30
0.0
 40
5.0
  1
５
100
AcDbText
  0
TEXT
  5
64E
330
1E
100
AcDbEntity
  8
_1-F_表__文字
 62
     7
100
AcDbText
 10
640.5382072865844
 20
176.296874414197
 30
0.0
 40
5.0
  1
10
100
AcDbText
  0
TEXT
  5
64F
330
1E
100
AcDbEntity
  8
_1-F_表__文字
 62
     7
100
AcDbText
 10
684.8068855604898
 20
167.6765240821734
 30
0.0
 40
5.0
  1
４
100
AcDbText
  0
TEXT
  5
650
330
1E
100
AcDbEntity
  8
_1-F_表__文字
 62
     7
100
AcDbText
 10
663.2429755497488
 20
166.6877843447115
 30
0.0
 40
5.0
  1
２
100
AcDbText
  0
TEXT
  5
651
330
1E
100
AcDbEntity
  8
_1-F_表__文字
 62
     7
100
AcDbText
 10
642.867398570032
 20
94.64880778450838
 30
0.0
 40
5.0
  1
６
100
AcDbText
  0
TEXT
  5
652
330
1E
100
AcDbEntity
  8
_1-F_表__文字
 62
     7
100
AcDbText
 10
597.8392243252191
 20
88.00669280022082
 30
0.0
 40
5.0
  1
13
100
AcDbText
  0
TEXT
  5
653
330
1E
100
AcDbEntity
  8
_1-F_表__文字
 62
     7
100
AcDbText
 10
641.4180262036718
 20
79.22283764617617
 30
0.0
 40
5.0
  1
11
100
AcDbText
  0
TEXT
  5
654
330
1E
100
AcDbEntity
  8
_1-F_表__文字
 62
     7
100
AcDbText
 10
602.4906045393711
 20
57.09142447848785
 30
0.0
 40
5.0
  1
12
100
AcDbText
  0
CIRCLE
  5
655
330
1E
100
AcDbEntity
  8
_1-F_表__文字
  6
Continuous
 62
     4
100
AcDbCircle
 10
757.2540668254001
 20
203.5212546168452
 30
0.0
 40
6.0
  0
LINE
  5
656
330
1E
100
AcDbEntity
  8
_1-F_表__文字
  6
Continuous
 62
     4
100
AcDbLine
 10
729.1175856819982
 20
154.7874397302692
 30
0.0
 11
754.2540668254003
 21
198.3251021941383
 31
0.0
  0
CIRCLE
  5
657
330
1E
100
AcDbEntity
  8
_1-F_表__文字
  6
Continuous
 62
     4
100
AcDbCircle
 10
729.1175856819982
 20
154.7874397302692
 30
0.0
 40
0.9
  0
TEXT
  5
658
330
1E
100
AcDbEntity
  8
_1-F_表__文字
 62
     7
100
AcDbText
 10
754.2540668254003
 20
200.5212546168452
 30
0.0
 40
5.0
  1
１
100
AcDbText
  0
CIRCLE
  5
659
330
1E
100
AcDbEntity
  8
_1-F_表__文字
  6
Continuous
 62
     4
100
AcDbCircle
 10
729.3309398920991
 20
137.3524501768692
 30
0.0
 40
0.9
  0
LINE
  5
65A
330
1E
100
AcDbEntity
  8
_1-F_表__文字
  6
Continuous
 62
     4
100
AcDbLine
 10
729.3309398920991
 20
137.3524501768692
 30
0.0
 11
752.967421035501
 21
178.292036429385
 31
0.0
  0
TEXT
  5
65B
330
1E
100
AcDbEntity
  8
_1-F_表__文字
 62
     7
100
AcDbText
 10
752.967421035501
 20
180.4881888520918
 30
0.0
 40
5.0
  1
７
100
AcDbText
  0
CIRCLE
  5
65C
330
1E
100
AcDbEntity
  8
_1-F_表__文字
  6
Continuous
 62
     4
100
AcDbCircle
 10
755.967421035501
 20
183.4881888520918
 30
0.0
 40
6.0
  0
LINE
  5
65D
330
1E
100
AcDbEntity
  8
_1-4_FYY____
  6
Continuous
 62
     7
100
AcDbLine
 10
161.9082297101198
 20
113.762824274647
 30
0.0
 11
179.9082297101199
 21
113.762824274647
 31
0.0
  0
LINE
  5
65E
330
1E
100
AcDbEntity
  8
_1-4_FYY____
  6
Continuous
 62
     7
100
AcDbLine
 10
179.9082297101199
 20
113.762824274647
 30
0.0
 11
179.9082297101199
 21
112.2628242746467
 31
0.0
  0
LINE
  5
65F
330
1E
100
AcDbEntity
  8
_1-4_FYY____
  6
Continuous
 62
     7
100
AcDbLine
 10
161.9082297101198
 20
113.762824274647
 30
0.0
 11
161.9082297101198
 21
112.2628242746467
 31
0.0
  0
ARC
  5
660
330
1E
100
AcDbEntity
  8
_1-4_FYY____
  6
Continuous
 62
     7
100
AcDbCircle
 10
170.9082297101198
 20
109.1516712350912
 30
0.0
 40
9.553418012635717
100
AcDbArc
 50
72.41204622604604
 51
107.5879537739539
  0
ARC
  5
661
330
1E
100
AcDbEntity
  8
_1-4_FYY____
  6
Continuous
 62
     7
100
AcDbCircle
 10
166.5781026911977
 20
116.1492664992988
 30
0.0
 40
2.5558227484282
100
AcDbArc
 50
55.61575253203377
 51
124.384247467965
  0
ARC
  5
662
330
1E
100
AcDbEntity
  8
_1-4_FYY____
  6
Continuous
 62
     7
100
AcDbCircle
 10
175.2383567290419
 20
116.1492664992988
 30
0.0
 40
2.5558227484282
100
AcDbArc
 50
55.61575253203493
 51
124.3842474679662
  0
LINE
  5
663
330
1E
100
AcDbEntity
  8
_1-4_FYY____
  6
Continuous
 62
     7
100
AcDbLine
 10
165.1347270182236
 20
118.2585072603428
 30
0.0
 11
165.1347270182236
 21
113.762824274647
 31
0.0
  0
LINE
  5
664
330
1E
100
AcDbEntity
  8
_1-4_FYY____
  6
Continuous
 62
     7
100
AcDbLine
 10
166.0082297101198
 20
118.762824274647
 30
0.0
 11
165.1347270182236
 21
118.2585072603428
 31
0.0
  0
LINE
  5
665
330
1E
100
AcDbEntity
  8
_1-4_FYY____
  6
Continuous
 62
     7
100
AcDbLine
 10
166.0082297101198
 20
118.762824274647
 30
0.0
 11
175.8082297101199
 21
118.762824274647
 31
0.0
  0
LINE
  5
666
330
1E
100
AcDbEntity
  8
_1-4_FYY____
  6
Continuous
 62
     7
100
AcDbLine
 10
175.8082297101199
 20
118.762824274647
 30
0.0
 11
176.681732402016
 21
118.2585072603428
 31
0.0
  0
LINE
  5
667
330
1E
100
AcDbEntity
  8
_1-4_FYY____
  6
Continuous
 62
     7
100
AcDbLine
 10
168.0214783641717
 20
118.2585072603428
 30
0.0
 11
168.0214783641717
 21
113.762824274647
 31
0.0
  0
LINE
  5
668
330
1E
100
AcDbEntity
  8
_1-4_FYY____
  6
Continuous
 62
     7
100
AcDbLine
 10
173.794981056068
 20
118.2585072603425
 30
0.0
 11
173.794981056068
 21
113.762824274647
 31
0.0
  0
LINE
  5
669
330
1E
100
AcDbEntity
  8
_1-4_FYY____
  6
Continuous
 62
     7
100
AcDbLine
 10
176.681732402016
 20
118.2585072603428
 30
0.0
 11
176.681732402016
 21
113.762824274647
 31
0.0
  0
LINE
  5
66A
330
1E
100
AcDbEntity
  8
_1-7_____________
  6
Continuous
 62
     7
100
AcDbLine
 10
168.364483993225
 20
118.901930597538
 30
0.0
 11
168.5189772163196
 21
118.762824274647
 31
0.0
  0
LINE
  5
66B
330
1E
100
AcDbEntity
  8
_1-7_____________
  6
Continuous
 62
     4
100
AcDbLine
 10
168.6684714388388
 20
123.9640174998122
 30
0.0
 11
168.9410544253918
 21
118.762824274647
 31
0.0
  0
LINE
  5
66C
330
1E
100
AcDbEntity
  8
_1-7_____________
  6
Continuous
 62
     4
100
AcDbLine
 10
173.5248068663504
 20
124.2185272550218
 30
0.0
 11
173.8107281439797
 21
118.762824274647
 31
0.0
  0
LINE
  5
66D
330
1E
100
AcDbEntity
  8
_1-7_____________
  6
Continuous
 62
     7
100
AcDbLine
 10
173.948268266054
 20
118.762824274647
 30
0.0
 11
174.3562612017525
 21
119.2159463349956
 31
0.0
  0
LINE
  5
66E
330
1E
100
AcDbEntity
  8
_1-7_____________
  6
Continuous
 62
     7
100
AcDbLine
 10
617.8681911541862
 20
118.762824274647
 30
0.0
 11
617.4601982184875
 21
119.2159463349956
 31
0.0
  0
LINE
  5
66F
330
1E
100
AcDbEntity
  8
_1-7_____________
  6
Continuous
 62
     4
100
AcDbLine
 10
618.2916525538894
 20
124.2185272550218
 30
0.0
 11
618.0057312762602
 21
118.762824274647
 31
0.0
  0
LINE
  5
670
330
1E
100
AcDbEntity
  8
_1-7_____________
  6
Continuous
 62
     4
100
AcDbLine
 10
623.1479879814007
 20
123.9640174998122
 30
0.0
 11
622.8754049948482
 21
118.762824274647
 31
0.0
  0
LINE
  5
671
330
1E
100
AcDbEntity
  8
_1-7_____________
  6
Continuous
 62
     7
100
AcDbLine
 10
623.4519754270149
 20
118.901930597538
 30
0.0
 11
623.2974822039201
 21
118.762824274647
 31
0.0
  0
CIRCLE
  5
672
330
1E
100
AcDbEntity
  8
_1-F_表__文字
  6
Continuous
 62
     4
100
AcDbCircle
 10
331.1724267101309
 20
32.13494292459142
 30
0.0
 40
0.9
  0
LINE
  5
673
330
1E
100
AcDbEntity
  8
_1-F_表__文字
  6
Continuous
 62
     4
100
AcDbLine
 10
331.1724267101309
 20
32.13494292459142
 30
0.0
 11
345.0557138965527
 21
56.18150170754399
 31
0.0
  0
CIRCLE
  5
674
330
1E
100
AcDbEntity
  8
_1-F_表__文字
  6
Continuous
 62
     4
100
AcDbCircle
 10
348.0557138965528
 20
61.37765413025062
 30
0.0
 40
6.0
  0
TEXT
  5
675
330
1E
100
AcDbEntity
  8
_1-F_表__文字
 62
     7
100
AcDbText
 10
345.0557138965527
 20
58.37765413025062
 30
0.0
 40
5.0
  1
９
100
AcDbText
  0
CIRCLE
  5
676
330
1E
100
AcDbEntity
  8
_1-F_表__文字
  6
Continuous
 62
     4
100
AcDbCircle
 10
342.5505384107946
 20
12.43735170086199
 30
0.0
 40
0.9
  0
LINE
  5
677
330
1E
100
AcDbEntity
  8
_1-F_表__文字
  6
Continuous
 62
     4
100
AcDbLine
 10
342.5505384107946
 20
12.43735170086199
 30
0.0
 11
354.376389133236
 21
32.9203259948552
 31
0.0
  0
TEXT
  5
678
330
1E
100
AcDbEntity
  8
_1-F_表__文字
 62
     7
100
AcDbText
 10
354.1263891332358
 20
35.11647841756183
 30
0.0
 40
5.0
  1
14
100
AcDbText
  0
CIRCLE
  5
679
330
1E
100
AcDbEntity
  8
_1-F_表__文字
  6
Continuous
 62
     4
100
AcDbCircle
 10
357.3763891332358
 20
38.11647841756183
 30
0.0
 40
6.0
  0
TEXT
  5
67A
330
1E
100
AcDbEntity
  8
_1-F_表__文字
 62
     7
100
AcDbText
 10
169.5082297101201
 20
-112.2371757253529
 30
0.0
 40
5.0
  1
止水補助板ホルダーＡＬ
100
AcDbText
  0
CIRCLE
  5
67B
330
1E
100
AcDbEntity
  8
_1-F_表__文字
  6
Continuous
 62
     4
100
AcDbCircle
 10
728.1346199436845
 20
89.77099250178156
 30
0.0
 40
0.9
  0
LINE
  5
67C
330
1E
100
AcDbEntity
  8
_1-F_表__文字
  6
Continuous
 62
     4
100
AcDbLine
 10
728.1346199436845
 20
89.77099250178156
 30
0.0
 11
753.102633760041
 21
133.0168609957924
 31
0.0
  0
TEXT
  5
67D
330
1E
100
AcDbEntity
  8
_1-F_表__文字
 62
     7
100
AcDbText
 10
753.102633760041
 20
135.213013418499
 30
0.0
 40
5.0
  1
３
100
AcDbText
  0
CIRCLE
  5
67E
330
1E
100
AcDbEntity
  8
_1-F_表__文字
  6
Continuous
 62
     4
100
AcDbCircle
 10
756.102633760041
 20
138.2130134184992
 30
0.0
 40
6.0
  0
CIRCLE
  5
67F
330
1E
100
AcDbEntity
  8
_1-F_表__文字
  6
Continuous
 62
     4
100
AcDbCircle
 10
710.4385000255222
 20
72.13600291267141
 30
0.0
 40
0.9
  0
LINE
  5
680
330
1E
100
AcDbEntity
  8
_1-F_表__文字
  6
Continuous
 62
     4
100
AcDbLine
 10
710.4385000255222
 20
72.13600291267141
 30
0.0
 11
720.8959475621526
 21
54.02317246174158
 31
0.0
  0
CIRCLE
  5
681
330
1E
100
AcDbEntity
  8
_1-F_表__文字
  6
Continuous
 62
     4
100
AcDbCircle
 10
723.8959475621526
 20
48.82702003903506
 30
0.0
 40
6.0
  0
TEXT
  5
682
330
1E
100
AcDbEntity
  8
_1-F_表__文字
 62
     7
100
AcDbText
 10
720.8959475621526
 20
45.82702003903506
 30
0.0
 40
5.0
  1
８
100
AcDbText
  0
CIRCLE
  5
683
330
1E
100
AcDbEntity
  8
_1-F_表__文字
  6
Continuous
 62
     4
100
AcDbCircle
 10
81.37795939471789
 20
72.13600291267153
 30
0.0
 40
0.9
  0
LINE
  5
684
330
1E
100
AcDbEntity
  8
_1-F_表__文字
  6
Continuous
 62
     4
100
AcDbLine
 10
81.37795939471789
 20
72.13600291267153
 30
0.0
 11
70.92051185808749
 21
54.02317246174158
 31
0.0
  0
CIRCLE
  5
685
330
1E
100
AcDbEntity
  8
_1-F_表__文字
  6
Continuous
 62
     4
100
AcDbCircle
 10
67.92051185808744
 20
48.82702003903506
 30
0.0
 40
6.0
  0
TEXT
  5
686
330
1E
100
AcDbEntity
  8
_1-F_表__文字
 62
     7
100
AcDbText
 10
64.9205118580874
 20
45.82702003903506
 30
0.0
 40
5.0
  1
８
100
AcDbText
  0
ENDSEC
  0
SECTION
  2
OBJECTS
  0
DICTIONARY
  5
C
330
0
100
AcDbDictionary
281
     1
  3
ACAD_GROUP
350
D
  3
ACAD_LAYOUT
350
19
  3
ACAD_MLINESTYLE
350
16
  3
ACAD_PLOTSETTINGS
350
18
  3
ACAD_PLOTSTYLENAME
350
E
  3
AcDbVariableDictionary
350
689
  0
DICTIONARY
  5
D
102
{ACAD_REACTORS
330
C
102
}
330
C
100
AcDbDictionary
281
     1
  0
DICTIONARY
  5
19
102
{ACAD_REACTORS
330
C
102
}
330
C
100
AcDbDictionary
281
     1
  3
Model
350
21
  3
ﾚｲｱｳﾄ1
350
1D
  0
DICTIONARY
  5
16
102
{ACAD_REACTORS
330
C
102
}
330
C
100
AcDbDictionary
281
     1
  3
Standard
350
17
  0
DICTIONARY
  5
18
102
{ACAD_REACTORS
330
C
102
}
330
C
100
AcDbDictionary
281
     1
  0
ACDBDICTIONARYWDFLT
  5
E
102
{ACAD_REACTORS
330
C
102
}
330
C
100
AcDbDictionary
281
     1
  3
Normal
350
F
100
AcDbDictionaryWithDefault
340
F
  0
DICTIONARY
  5
689
102
{ACAD_REACTORS
330
C
102
}
330
C
100
AcDbDictionary
281
     1
  3
DIMASSOC
350
68A
  0
LAYOUT
  5
21
102
{ACAD_REACTORS
330
19
102
}
330
19
100
AcDbPlotSettings
  1

  2
DocuCentre 350 I
  4
A4
  6

 40
4.900083065032958
 41
4.900057315826416
 42
4.90008544921875
 43
4.90008544921875
 44
210.0156707763671
 45
297.0106506347656
 46
0.0
 47
0.0
 48
0.0
 49
0.0
140
0.0
141
0.0
142
1.0
143
1.0
 70
 11952
 72
     0
 73
     1
 74
     0
  7
monochrome.ctb
 75
     0
147
1.0
148
-3182.240989594563
149
7275.725917989297
100
AcDbLayout
  1
Model
 70
     1
 71
     0
 10
0.0
 20
0.0
 11
12.0
 21
9.0
 12
0.0
 22
0.0
 32
0.0
 14
0.0
 24
0.0
 34
0.0
 15
0.0
 25
0.0
 35
0.0
146
0.0
 13
0.0
 23
0.0
 33
0.0
 16
1.0
 26
0.0
 36
0.0
 17
0.0
 27
1.0
 37
0.0
 76
     0
330
1E
  0
LAYOUT
  5
1D
102
{ACAD_REACTORS
330
19
102
}
330
19
100
AcDbPlotSettings
  1

  2
DocuCentre 350 I
  4

  6

 40
0.0
 41
0.0
 42
0.0
 43
0.0
 44
0.0
 45
0.0
 46
0.0
 47
0.0
 48
0.0
 49
0.0
140
0.0
141
0.0
142
1.0
143
1.0
 70
   688
 72
     0
 73
     0
 74
     5
  7
monochrome.ctb
 75
    16
147
1.0
148
0.0
149
0.0
100
AcDbLayout
  1
ﾚｲｱｳﾄ1
 70
     1
 71
     1
 10
0.0
 20
0.0
 11
12.0
 21
9.0
 12
0.0
 22
0.0
 32
0.0
 14
1.000000000000000E+20
 24
1.000000000000000E+20
 34
1.000000000000000E+20
 15
-1.000000000000000E+20
 25
-1.000000000000000E+20
 35
-1.000000000000000E+20
146
0.0
 13
0.0
 23
0.0
 33
0.0
 16
1.0
 26
0.0
 36
0.0
 17
0.0
 27
1.0
 37
0.0
 76
     0
330
1A
  0
MLINESTYLE
  5
17
102
{ACAD_REACTORS
330
16
102
}
330
16
100
AcDbMlineStyle
  2
STANDARD
 70
     0
  3

 62
   256
 51
90.0
 52
90.0
 71
     2
 49
0.5
 62
   256
  6
BYLAYER
 49
-0.5
 62
   256
  6
BYLAYER
  0
ACDBPLACEHOLDER
  5
F
102
{ACAD_REACTORS
330
E
102
}
330
E
  0
DICTIONARYVAR
  5
68A
102
{ACAD_REACTORS
330
689
102
}
330
689
100
DictionaryVariables
280
     0
  1
1
  0
ENDSEC
  0
EOF
