  0
SECTION
  2
HEADER
  9
$ACADVER
  1
AC1009
  9
$INSBASE
 10
0
 20
0
 30
0
  9
$EXTMIN
 10
0
 20
0
  9
$EXTMAX
 10
420
 20
297
  9
$LIMMIN
 10
0
 20
0
  9
$LIMMAX
 10
420
 20
297
  9
$LTSCALE
 40
1
  0
ENDSEC
  0
SECTION
  2
TABLES
  0
TABLE
  2
LTYPE
 70
     9
  0
LTYPE
  2
CONTINUOUS
 70
    64
  3
実線
 72
    65
 73
     0
 40
0.0
  0
LTYPE
  2
DASHED1
 70
    64
  3
--  --  --  --  --  --  --  --  
 72
    65
 73
     2
 40
2.5
 49
1.25
 49
-1.25
  0
LTYPE
  2
DASHED2
 70
    64
  3
----    ----    ----    ----    
 72
    65
 73
     2
 40
5.0
 49
2.5
 49
-2.5
  0
LTYPE
  2
DASHED3
 70
    64
  3
------  ------  ------  ------  
 72
    65
 73
     2
 40
5.0
 49
3.75
 49
-1.25
  0
LTYPE
  2
CENTER1
 70
    64
  3
----- - ----- - ----- - ----- - 
 72
    65
 73
     4
 40
10.0
 49
6.25
 49
-1.25
 49
1.25
 49
-1.25
  0
LTYPE
  2
CENTER2
 70
    64
  3
----------  --  ----------  --  
 72
    65
 73
     4
 40
20.0
 49
12.5
 49
-2.5
 49
2.5
 49
-2.5
  0
LTYPE
  2
PHANTOM1
 70
    64
  3
--- - - --- - - --- - - --- - - 
 72
    65
 73
     6
 40
10.0
 49
3.25
 49
-1.25
 49
1.25
 49
-1.25
 49
1.25
 49
-1.25
  0
LTYPE
  2
PHANTOM2
 70
    64
  3
--------  -  -  --------  -  -  
 72
    65
 73
     6
 40
20.0
 49
10.0
 49
-2.5
 49
1.25
 49
-2.5
 49
1.25
 49
-2.5
  0
LTYPE
  2
DOT
 70
    64
  3
-   -   -   -   -   -   -   -   
 72
    65
 73
     2
 40
2.5
 49
0.625
 49
-1.875
  0
LTYPE
  2
DUMMY
 70
    64
  3
ダミー
 72
    65
 73
     0
 40
0.0
  0
LTYPE
  2
RAND1
 70
    64
  3
ランダム線1
 72
    65
 73
     4
 40
10.0
 49
1.0
 49
-2.0
 49
3.0
 49
-4.0
  0
LTYPE
  2
RAND2
 70
    64
  3
ランダム線2
 72
    65
 73
     4
 40
14.0
 49
2.0
 49
-3.0
 49
4.0
 49
-5.0
  0
LTYPE
  2
RAND3
 70
    64
  3
ランダム線3
 72
    65
 73
     4
 40
18.0
 49
3.0
 49
-4.0
 49
5.0
 49
-6.0
  0
LTYPE
  2
RAND4
 70
    64
  3
ランダム線4
 72
    65
 73
     4
 40
22.0
 49
4.0
 49
-5.0
 49
6.0
 49
-7.0
  0
LTYPE
  2
RAND5
 70
    64
  3
ランダム線5
 72
    65
 73
     4
 40
26.0
 49
5.0
 49
-6.0
 49
7.0
 49
-8.0
  0
LTYPE
  2
LONG1
 70
    64
  3
----------  --  ----------  --  
 72
    65
 73
     4
 40
40.0
 49
32.5
 49
-2.5
 49
2.5
 49
-2.5
  0
LTYPE
  2
LONG2
 70
    64
  3
--------  -  -  --------  -  -  
 72
    65
 73
     6
 40
40.0
 49
30.0
 49
-2.5
 49
1.25
 49
-2.5
 49
1.25
 49
-2.5
  0
LTYPE
  2
LONG3
 70
    64
  3
+++++++++++++++..+++++++++++++++
 72
    65
 73
     2
 40
40.0
 49
37.5
 49
-2.5
  0
LTYPE
  2
LONG4
 70
    64
  3
+++++++++++++++..+++++++++++++++
 72
    65
 73
     2
 40
80.0
 49
75.0
 49
-5.0
  0
LTYPE
  2
LONG5
 70
    64
  3
----------  --  ----------  --  
 72
    65
 73
     4
 40
60.0
 49
37.5
 49
-7.5
 49
7.5
 49
-7.5
  0
LTYPE
  2
dashed
 70
   64
  3
-------   -------------   ------
 72
   65
 73
    2
 40
7.5
 49
6
 49
-1.5
  0
LTYPE
  2
dashed_spaced
 70
   64
  3
----        --------        ----
 72
   65
 73
    2
 40
12
 49
6
 49
-6
  0
LTYPE
  2
long_dashed_dotted
 70
   64
  3
------------- --- --------------
 72
   65
 73
    4
 40
15.25
 49
12
 49
-1.5
 49
0.25
 49
-1.5
  0
LTYPE
  2
long_dashed_double-dotted
 70
   64
  3
----------- --- --- ------------
 72
   65
 73
    6
 40
17
 49
12
 49
-1.5
 49
0.25
 49
-1.5
 49
0.25
 49
-1.5
  0
LTYPE
  2
long_dashed_triplicate-dotted
 70
   64
  3
--------- --- --- --- ----------
 72
   65
 73
    8
 40
18.75
 49
12
 49
-1.5
 49
0.25
 49
-1.5
 49
0.25
 49
-1.5
 49
0.25
 49
-1.5
  0
LTYPE
  2
dotted
 70
   64
  3
   -       -       -       -    
 72
   65
 73
    2
 40
1.75
 49
0.25
 49
-1.5
  0
LTYPE
  2
chain
 70
   64
  3
-------------- -- --------------
 72
   65
 73
    4
 40
18.5
 49
12
 49
-1.5
 49
3.5
 49
-1.5
  0
LTYPE
  2
chain_double_dash
 70
   64
  3
------------ -- -- -------------
 72
   65
 73
    6
 40
23.5
 49
12
 49
-1.5
 49
3.5
 49
-1.5
 49
3.5
 49
-1.5
  0
LTYPE
  2
dashed_dotted
 70
   64
  3
-----------     -     ----------
 72
   65
 73
    4
 40
9.25
 49
6
 49
-1.5
 49
0.25
 49
-1.5
  0
LTYPE
  2
double-dashed_dotted
 70
   64
  3
------   -----------   -   -----
 72
   65
 73
    6
 40
16.75
 49
6
 49
-1.5
 49
6
 49
-1.5
 49
0.25
 49
-1.5
  0
LTYPE
  2
dashed_double-dotted
 70
   64
  3
---------    -    -    ---------
 72
   65
 73
    6
 40
11
 49
6
 49
-1.5
 49
0.25
 49
-1.5
 49
0.25
 49
-1.5
  0
LTYPE
  2
double-dashed_double-dotted
 70
   64
  3
-----   ---------   -   -   ----
 72
   65
 73
    8
 40
18.5
 49
6
 49
-1.5
 49
6
 49
-1.5
 49
0.25
 49
-1.5
 49
0.25
 49
-1.5
  0
LTYPE
  2
dashed_triplicate-dotted
 70
   64
  3
-------    -    -    -    ------
 72
   65
 73
    8
 40
12.75
 49
6
 49
-1.5
 49
0.25
 49
-1.5
 49
0.25
 49
-1.5
 49
0.25
 49
-1.5
  0
LTYPE
  2
double-dashed_triplicate-dotted
 70
   64
  3
-----  ---------  -  -  -  -----
 72
   65
 73
   10
 40
20.25
 49
6
 49
-1.5
 49
6
 49
-1.5
 49
0.25
 49
-1.5
 49
0.25
 49
-1.5
 49
0.25
 49
-1.5
  0
LTYPE
  2
undefined
 70
   64
  3
--------------------------------
 72
   65
 73
    0
 40
0
  0
ENDTAB
  0
TABLE
  2
STYLE
  5
3
100
AcDbSymbolTable
 70
     1
  0
STYLE
  5
10
100
AcDbSymbolTableRecord
100
AcDbTextStyleTableRecord
  2
STANDARD
 70
     0
 40
0.0
 41
1.0
 50
0.0
 71
     0
 42
0.2
  3
txt
  4
bigfont.shx
  0
STYLE
  5
26
100
AcDbSymbolTableRecord
100
AcDbTextStyleTableRecord
  2
TATEGAKI
 70
    68
 40
0.0
 41
1.0
 50
0.0
 71
     0
 42
1.0
  3
txt
  4
bigfont.shx
  0
ENDTAB
  0
TABLE
  2
LAYER
 70
    9
  0
LAYER
  2
_0-0_図面枠
 70
   64
 62
    7
  6
CONTINUOUS
  0
LAYER
  2
_1-0_躯体
 70
   64
 62
    7
  6
CONTINUOUS
  0
LAYER
  2
_1-3_止水補助板
 70
   64
 62
    7
  6
CONTINUOUS
  0
LAYER
  2
_1-4_フレ__ム
 70
   64
 62
    7
  6
CONTINUOUS
  0
LAYER
  2
_1-7_カバ__
 70
   64
 62
    7
  6
CONTINUOUS
  0
LAYER
  2
_1-8_小物
 70
   64
 62
    7
  6
CONTINUOUS
  0
LAYER
  2
_1-9_センタ__プレ__ト
 70
   64
 62
    7
  6
CONTINUOUS
  0
LAYER
  2
_1-f_寸法
 70
   64
 62
    7
  6
CONTINUOUS
  0
LAYER
  2
ADD_LINE
 70
   64
 62
    7
  6
CONTINUOUS
  0
ENDTAB
  0
ENDSEC
  0
SECTION
  2
BLOCKS
  0
BLOCK
  2
-000-
 70
   64
 10
0
 20
0
 30
0
  0
LINE
  8
_0-0_図面枠
  6
CONTINUOUS
 62
    7
 10
-21.739611258569283
 20
123.45090259426559
 11
-22.269941344419294
 21
123.1447495523156
  0
LINE
  8
_0-0_図面枠
  6
CONTINUOUS
 62
    7
 10
-20.833744600669291
 20
121.49924270821555
 11
-21.739611258569283
 21
123.45090259426559
  0
LINE
  8
_0-0_図面枠
  6
CONTINUOUS
 62
    7
 10
-24.214484992719292
 20
122.02218839856556
 11
-20.833744600669291
 21
121.49924270821555
  0
LINE
  8
_0-0_図面枠
  6
CONTINUOUS
 62
    7
 10
-23.684154906819288
 20
122.3283414405156
 11
-24.214484992719292
 21
122.02218839856556
  0
LINE
  8
_0-0_図面枠
  6
CONTINUOUS
 62
    7
 10
-28.280348984519293
 20
124.98166780391557
 11
-23.684154906819288
 21
122.3283414405156
  0
LINE
  8
_0-0_図面枠
  6
CONTINUOUS
 62
    7
 10
-32.876543062219298
 20
122.3283414405156
 11
-28.280348984519293
 21
124.98166780391557
  0
LINE
  8
_0-0_図面枠
  6
CONTINUOUS
 62
    7
 10
-32.346212976369287
 20
122.02218839856556
 11
-32.876543062219298
 21
122.3283414405156
  0
LINE
  8
_0-0_図面枠
  6
CONTINUOUS
 62
    7
 10
-35.726953368369294
 20
121.49924270821555
 11
-32.346212976369287
 21
122.02218839856556
  0
LINE
  8
_0-0_図面枠
  6
CONTINUOUS
 62
    7
 10
-34.821086710519296
 20
123.45090259426559
 11
-35.726953368369294
 21
121.49924270821555
  0
LINE
  8
_0-0_図面枠
  6
CONTINUOUS
 62
    7
 10
-34.290756624619291
 20
123.1447495523156
 11
-34.821086710519296
 21
123.45090259426559
  0
LINE
  8
_0-0_図面枠
  6
CONTINUOUS
 62
    7
 10
-29.694562546919286
 20
125.79807591576559
 11
-34.290756624619291
 21
123.1447495523156
  0
LINE
  8
_0-0_図面枠
  6
CONTINUOUS
 62
    7
 10
-34.290756624619291
 20
128.45140227916556
 11
-29.694562546919286
 21
125.79807591576559
  0
LINE
  8
_0-0_図面枠
  6
CONTINUOUS
 62
    7
 10
-34.821086710519296
 20
128.1452492372656
 11
-34.290756624619291
 21
128.45140227916556
  0
LINE
  8
_0-0_図面枠
  6
CONTINUOUS
 62
    7
 10
-35.726953368369294
 20
130.09690912331558
 11
-34.821086710519296
 21
128.1452492372656
  0
LINE
  8
_0-0_図面枠
  6
CONTINUOUS
 62
    7
 10
-32.346212976369287
 20
129.57396343296557
 11
-35.726953368369294
 21
130.09690912331558
  0
LINE
  8
_0-0_図面枠
  6
CONTINUOUS
 62
    7
 10
-32.876543062219298
 20
129.26781039101559
 11
-32.346212976369287
 21
129.57396343296557
  0
LINE
  8
_0-0_図面枠
  6
CONTINUOUS
 62
    7
 10
-28.280348984519293
 20
126.6144840275656
 11
-32.876543062219298
 21
129.26781039101559
  0
LINE
  8
_0-0_図面枠
  6
CONTINUOUS
 62
    7
 10
-23.684154906819288
 20
129.26781039101559
 11
-28.280348984519293
 21
126.6144840275656
  0
LINE
  8
_0-0_図面枠
  6
CONTINUOUS
 62
    7
 10
-24.214484992719292
 20
129.57396343296557
 11
-23.684154906819288
 21
129.26781039101559
  0
LINE
  8
_0-0_図面枠
  6
CONTINUOUS
 62
    7
 10
-20.833744600669291
 20
130.09690912331558
 11
-24.214484992719292
 21
129.57396343296557
  0
LINE
  8
_0-0_図面枠
  6
CONTINUOUS
 62
    7
 10
-21.739611258569283
 20
128.1452492372656
 11
-20.833744600669291
 21
130.09690912331558
  0
LINE
  8
_0-0_図面枠
  6
CONTINUOUS
 62
    7
 10
-22.269941344419294
 20
128.45140227916556
 11
-21.739611258569283
 21
128.1452492372656
  0
LINE
  8
_0-0_図面枠
  6
CONTINUOUS
 62
    7
 10
-26.866135422169293
 20
125.79807591576559
 11
-22.269941344419294
 21
128.45140227916556
  0
LINE
  8
_0-0_図面枠
  6
CONTINUOUS
 62
    7
 10
-22.269941344419294
 20
123.1447495523156
 11
-26.866135422169293
 21
125.79807591576559
  0
LINE
  8
_0-0_図面枠
  6
CONTINUOUS
 62
    7
 10
-35.726953368369294
 20
121.49924270821555
 11
-35.726953368369294
 21
120.88683709931558
  0
LINE
  8
_0-0_図面枠
  6
CONTINUOUS
 62
    7
 10
-32.346212976369287
 20
122.02218839856556
 11
-32.346212976369287
 21
121.4097827896656
  0
LINE
  8
_0-0_図面枠
  6
CONTINUOUS
 62
    7
 10
-35.726953368369294
 20
120.88683709931558
 11
-32.346212976369287
 21
121.4097827896656
  0
LINE
  8
_0-0_図面枠
  6
CONTINUOUS
 62
    7
 10
-24.214484992719292
 20
122.02218839856556
 11
-24.214484992719292
 21
121.4097827896656
  0
LINE
  8
_0-0_図面枠
  6
CONTINUOUS
 62
    7
 10
-20.833744600669291
 20
121.49924270821555
 11
-20.833744600669291
 21
120.88683709931558
  0
LINE
  8
_0-0_図面枠
  6
CONTINUOUS
 62
    7
 10
-24.214484992719292
 20
121.4097827896656
 11
-20.833744600669291
 21
120.88683709931558
  0
LINE
  8
_0-0_図面枠
  6
CONTINUOUS
 62
    7
 10
-28.280348984519293
 20
124.98166780391557
 11
-28.280348984519293
 21
124.36926219501561
  0
LINE
  8
_0-0_図面枠
  6
CONTINUOUS
 62
    7
 10
-32.346212976369287
 20
122.0220888735156
 11
-28.280348984519293
 21
124.36926219501561
  0
LINE
  8
_0-0_図面枠
  6
CONTINUOUS
 62
    7
 10
-28.280348984519293
 20
124.36926219501561
 11
-24.214484992719292
 21
122.0220888735156
  0
LINE
  8
_0-0_図面枠
  6
CONTINUOUS
 62
    7
 10
-34.290756624619291
 20
128.45140227916556
 11
-34.290756624619291
 21
127.8389966702656
  0
LINE
  8
_0-0_図面枠
  6
CONTINUOUS
 62
    7
 10
-34.290756624619291
 20
127.8389966702656
 11
-30.224978833369306
 21
125.49187311131561
  0
LINE
  8
_0-0_図面枠
  6
CONTINUOUS
 62
    7
 10
-22.269941344419294
 20
128.45140227916556
 11
-22.269941344419294
 21
127.8389966702656
  0
LINE
  8
_0-0_図面枠
  6
CONTINUOUS
 62
    7
 10
-26.335719135719302
 20
125.49187311131561
 11
-22.269941344419294
 21
127.8389966702656
  0
LINE
  8
_0-0_図面枠
  6
CONTINUOUS
 62
    7
 10
-21.739611258569283
 20
128.1452492372656
 11
-21.739611258569283
 21
127.53284362831556
  0
LINE
  8
_0-0_図面枠
  6
CONTINUOUS
 62
    7
 10
-22.269941344419294
 20
127.8389966702656
 11
-21.739611258569283
 21
127.53284362831556
  0
LINE
  8
_0-0_図面枠
  6
CONTINUOUS
 62
    7
 10
-20.833744600669291
 20
130.09690912331558
 11
-20.833744600669291
 21
129.48450351441556
  0
LINE
  8
_0-0_図面枠
  6
CONTINUOUS
 62
    7
 10
-21.739611258569283
 20
127.53284362831556
 11
-20.833744600669291
 21
129.48450351441556
  0
LINE
  8
_0-0_図面枠
  6
CONTINUOUS
 62
    7
 10
-34.821086710519296
 20
128.1452492372656
 11
-34.821086710519296
 21
127.53284362831556
  0
LINE
  8
_0-0_図面枠
  6
CONTINUOUS
 62
    7
 10
-34.821086710519296
 20
127.53284362831556
 11
-34.290756624619291
 21
127.8389966702656
  0
LINE
  8
_0-0_図面枠
  6
CONTINUOUS
 62
    7
 10
-35.726953368369294
 20
130.09690912331558
 11
-35.726953368369294
 21
129.48450351441556
  0
LINE
  8
_0-0_図面枠
  6
CONTINUOUS
 62
    7
 10
-35.726953368369294
 20
129.48450351441556
 11
-34.821086710519296
 21
127.53284362831556
  0
LINE
  8
_0-0_図面枠
  6
CONTINUOUS
 62
    7
 10
-24.214484992719292
 20
129.57396343296557
 11
-24.214484992719292
 21
128.9616573490656
  0
LINE
  8
_0-0_図面枠
  6
CONTINUOUS
 62
    7
 10
-32.346212976369287
 20
129.57396343296557
 11
-32.346212976369287
 21
128.9616573490656
  0
LINE
  8
ADD_LINE
  6
DOT
 62
    4
 10
-35.726953368369294
 20
130.09690912331558
 11
-20.834148028223836
 21
121.49854395119388
  0
LINE
  8
ADD_LINE
  6
DOT
 62
    4
 10
-20.833744600669291
 20
130.09690912331558
 11
-35.726549940814749
 21
121.49854395119388
  0
ENDBLK
  0
BLOCK
  2
-001-_1_
 70
   64
 10
0
 20
0
 30
0
  0
LINE
  8
_1-4_フレ__ム
  6
CONTINUOUS
 62
    4
 10
-158.50000000000026
 20
61.100000000000051
 11
-158.33333333333374
 21
60.433333333333394
  0
LINE
  8
_1-4_フレ__ム
  6
CONTINUOUS
 62
    4
 10
-158.33333333333374
 20
61.100000000000051
 11
-158.50000000000026
 21
61.100000000000051
  0
LINE
  8
_1-4_フレ__ム
  6
CONTINUOUS
 62
    4
 10
-158.33333333333374
 20
62.100000000000051
 11
-158.33333333333374
 21
61.100000000000051
  0
ARC
  8
_1-4_フレ__ム
  6
CONTINUOUS
 62
    4
 10
-158.83333333333366
 20
62.100000000000051
 40
0.5
 50
0
 51
180
  0
LINE
  8
_1-4_フレ__ム
  6
CONTINUOUS
 62
    4
 10
-159.3333333333336
 20
61.100000000000051
 11
-159.3333333333336
 21
62.100000000000051
  0
LINE
  8
_1-4_フレ__ム
  6
CONTINUOUS
 62
    4
 10
-159.16666666666708
 20
61.100000000000051
 11
-159.3333333333336
 21
61.100000000000051
  0
LINE
  8
_1-4_フレ__ム
  6
CONTINUOUS
 62
    4
 10
-159.3333333333336
 20
60.433333333333394
 11
-159.16666666666708
 21
61.100000000000051
  0
ARC
  8
_1-4_フレ__ム
  6
CONTINUOUS
 62
    4
 10
-180.83333333333402
 20
62.5
 40
0.3333333333333333
 50
90
 51
180
  0
LINE
  8
_1-4_フレ__ム
  6
CONTINUOUS
 62
    4
 10
-177.66666666666731
 20
62.833333333333314
 11
-180.83333333333402
 21
62.833333333333314
  0
ARC
  8
_1-4_フレ__ム
  6
CONTINUOUS
 62
    4
 10
-177.66666666666731
 20
63.5
 40
0.6666666666666666
 50
270
 51
0
  0
LINE
  8
_1-4_フレ__ム
  6
CONTINUOUS
 62
    4
 10
-179.40000000000057
 20
63.666666666666657
 11
-178.16666666666723
 21
63.666666666666657
  0
LINE
  8
_1-4_フレ__ム
  6
CONTINUOUS
 62
    4
 10
-179.50000000000071
 20
63.566666666666606
 11
-179.40000000000057
 21
63.666666666666657
  0
LINE
  8
_1-4_フレ__ム
  6
CONTINUOUS
 62
    4
 10
-179.60000000000076
 20
63.666666666666657
 11
-179.50000000000071
 21
63.566666666666606
  0
LINE
  8
_1-4_フレ__ム
  6
CONTINUOUS
 62
    4
 10
-180.83333333333402
 20
63.666666666666657
 11
-179.60000000000076
 21
63.666666666666657
  0
ARC
  8
_1-4_フレ__ム
  6
CONTINUOUS
 62
    4
 10
-182.16666666666737
 20
62.666666666666657
 40
0.1666666666666666
 50
270
 51
0
  0
ARC
  8
_1-4_フレ__ム
  6
CONTINUOUS
 62
    4
 10
-183.08333333333397
 20
64.75
 40
0.25
 50
0
 51
180
  0
LINE
  8
_1-4_フレ__ム
  6
CONTINUOUS
 62
    4
 10
-183.33333333333402
 20
62.166666666666657
 11
-183.33333333333402
 21
64.75
  0
ARC
  8
_1-4_フレ__ム
  6
CONTINUOUS
 62
    4
 10
-183.16666666666723
 20
62.166666666666657
 40
0.1666666666666666
 50
180
 51
270
  0
LINE
  8
_1-4_フレ__ム
  6
CONTINUOUS
 62
    4
 10
-182.33333333333388
 20
62
 11
-183.16666666666723
 21
62
  0
ARC
  8
_1-4_フレ__ム
  6
CONTINUOUS
 62
    4
 10
-182.33333333333388
 20
61.666666666666657
 40
0.3333333333333333
 50
0
 51
90
  0
ARC
  8
_1-4_フレ__ム
  6
CONTINUOUS
 62
    4
 10
-158.66666666666708
 20
55.833333333333314
 40
0.3333333333333333
 50
270
 51
0
  0
ARC
  8
_1-4_フレ__ム
  6
CONTINUOUS
 62
    4
 10
-180.50000000000071
 20
57
 40
0.6666666666666666
 50
180
 51
270
  0
LINE
  8
_1-4_フレ__ム
  6
CONTINUOUS
 62
    4
 10
-158.66666666666708
 20
55.5
 11
-182.00000000000071
 21
55.5
  0
ARC
  8
_1-4_フレ__ム
  6
CONTINUOUS
 62
    4
 10
-160.33333333333374
 20
57.333333333333314
 40
1
 50
270
 51
0
  0
LINE
  8
_1-4_フレ__ム
  6
CONTINUOUS
 62
    4
 10
-170.00000000000074
 20
56.233333333333263
 11
-169.90000000000049
 21
56.333333333333314
  0
LINE
  8
_1-4_フレ__ム
  6
CONTINUOUS
 62
    4
 10
-170.10000000000031
 20
56.333333333333314
 11
-170.00000000000074
 21
56.233333333333263
  0
LINE
  8
_1-4_フレ__ム
  6
CONTINUOUS
 62
    4
 10
-169.90000000000049
 20
56.333333333333314
 11
-160.33333333333374
 21
56.333333333333314
  0
LINE
  8
_1-4_フレ__ム
  6
CONTINUOUS
 62
    4
 10
-180.50000000000071
 20
56.333333333333314
 11
-170.10000000000031
 21
56.333333333333314
  0
LINE
  8
_1-4_フレ__ム
  6
CONTINUOUS
 62
    4
 10
-181.16666666666737
 20
62.5
 11
-181.16666666666737
 21
57
  0
LINE
  8
_1-4_フレ__ム
  6
CONTINUOUS
 62
    4
 10
-182.00000000000071
 20
55.5
 11
-182.00000000000071
 21
61.666666666666657
  0
LINE
  8
_1-4_フレ__ム
  6
CONTINUOUS
 62
    4
 10
-159.3333333333336
 20
57.333333333333314
 11
-159.3333333333336
 21
60.433333333333394
  0
LINE
  8
_1-4_フレ__ム
  6
CONTINUOUS
 62
    4
 10
-158.33333333333374
 20
60.433333333333394
 11
-158.33333333333374
 21
55.833333333333314
  0
LINE
  8
_1-4_フレ__ム
  6
CONTINUOUS
 62
    4
 10
-177.00000000000074
 20
64.166666666666657
 11
-177.00000000000074
 21
63.5
  0
LINE
  8
_1-4_フレ__ム
  6
CONTINUOUS
 62
    4
 10
-178.16666666666723
 20
64.166666666666657
 11
-177.00000000000074
 21
64.166666666666657
  0
LINE
  8
_1-4_フレ__ム
  6
CONTINUOUS
 62
    4
 10
-178.16666666666723
 20
63.666666666666657
 11
-178.16666666666723
 21
64.166666666666657
  0
LINE
  8
_1-4_フレ__ム
  6
CONTINUOUS
 62
    4
 10
-180.83333333333402
 20
64.166666666666657
 11
-180.83333333333402
 21
63.666666666666657
  0
LINE
  8
_1-4_フレ__ム
  6
CONTINUOUS
 62
    4
 10
-182.00000000000071
 20
64.166666666666657
 11
-180.83333333333402
 21
64.166666666666657
  0
LINE
  8
_1-4_フレ__ム
  6
CONTINUOUS
 62
    4
 10
-182.00000000000071
 20
62.666666666666657
 11
-182.00000000000071
 21
64.166666666666657
  0
LINE
  8
_1-4_フレ__ム
  6
CONTINUOUS
 62
    4
 10
-182.83333333333402
 20
64.75
 11
-182.83333333333402
 21
62.5
  0
LINE
  8
_1-4_フレ__ム
  6
CONTINUOUS
 62
    4
 10
-182.83333333333402
 20
62.5
 11
-182.16666666666737
 21
62.5
  0
LINE
  8
_1-4_フレ__ム
  6
CENTER2
 62
    4
 10
-179.50000000000074
 20
64.666666666666657
 11
-179.50000000000074
 21
61.833333333333314
  0
LINE
  8
_1-4_フレ__ム
  6
CENTER2
 62
    4
 10
-170.00000000000051
 20
58
 11
-170.00000000000051
 21
53.833333333333314
  0
ENDBLK
  0
BLOCK
  2
-002-_2_
 70
   64
 10
0
 20
0
 30
0
  0
LINE
  8
_1-7_カバ__
  6
CONTINUOUS
 62
    4
 10
-182.66666666666706
 20
64.833333333333314
 11
-182.33333333333374
 21
65.166666666666657
  0
LINE
  8
_1-7_カバ__
  6
CONTINUOUS
 62
    4
 10
-182.66666666666706
 20
63.000000000000057
 11
-182.66666666666706
 21
64.833333333333314
  0
ARC
  8
_1-7_カバ__
  6
CONTINUOUS
 62
    4
 10
-182.50000000000054
 20
63.000000000000057
 40
0.1666666666666666
 50
180
 51
270
  0
LINE
  8
_1-7_カバ__
  6
CONTINUOUS
 62
    4
 10
-182.16666666666706
 20
62.833333333333258
 11
-182.50000000000054
 21
62.833333333333258
  0
ARC
  8
_1-7_カバ__
  6
CONTINUOUS
 62
    4
 10
-182.16666666666706
 20
63.000000000000057
 40
0.1666666666666666
 50
270
 51
0
  0
LINE
  8
_1-7_カバ__
  6
CONTINUOUS
 62
    4
 10
-158.3333333333338
 20
64.666666666666742
 11
-158.3333333333338
 21
64.166666666666657
  0
LINE
  8
_1-7_カバ__
  6
CONTINUOUS
 62
    4
 10
-158.83333333333374
 20
65.166666666666657
 11
-158.3333333333338
 21
64.666666666666742
  0
LINE
  8
_1-7_カバ__
  6
CONTINUOUS
 62
    4
 10
-179.50000000000051
 20
65.066666666666663
 11
-179.4000000000006
 21
65.166666666666657
  0
LINE
  8
_1-7_カバ__
  6
CONTINUOUS
 62
    4
 10
-179.60000000000059
 20
65.166666666666657
 11
-179.50000000000051
 21
65.066666666666663
  0
LINE
  8
_1-7_カバ__
  6
CONTINUOUS
 62
    4
 10
-182.33333333333374
 20
65.166666666666657
 11
-179.60000000000059
 21
65.166666666666657
  0
LINE
  8
_1-7_カバ__
  6
CONTINUOUS
 62
    4
 10
-161.66666666666714
 20
65.166666666666657
 11
-158.83333333333374
 21
65.166666666666657
  0
LINE
  8
_1-7_カバ__
  6
CONTINUOUS
 62
    4
 10
-163.66666666666723
 20
65.166666666666657
 11
-162.66666666666703
 21
65.166666666666657
  0
LINE
  8
_1-7_カバ__
  6
CONTINUOUS
 62
    4
 10
-165.66666666666703
 20
65.166666666666657
 11
-164.66666666666703
 21
65.166666666666657
  0
LINE
  8
_1-7_カバ__
  6
CONTINUOUS
 62
    4
 10
-162.66666666666703
 20
65.066666666666663
 11
-161.66666666666714
 21
65.066666666666663
  0
LINE
  8
_1-7_カバ__
  6
CONTINUOUS
 62
    4
 10
-164.66666666666703
 20
65.066666666666663
 11
-163.66666666666723
 21
65.066666666666663
  0
LINE
  8
_1-7_カバ__
  6
CONTINUOUS
 62
    4
 10
-164.66666666666703
 20
65.066666666666663
 11
-164.66666666666703
 21
65.166666666666657
  0
LINE
  8
_1-7_カバ__
  6
CONTINUOUS
 62
    4
 10
-163.66666666666723
 20
65.066666666666663
 11
-163.66666666666723
 21
65.166666666666657
  0
LINE
  8
_1-7_カバ__
  6
CONTINUOUS
 62
    4
 10
-162.66666666666703
 20
65.066666666666663
 11
-162.66666666666703
 21
65.166666666666657
  0
LINE
  8
_1-7_カバ__
  6
CONTINUOUS
 62
    4
 10
-161.66666666666714
 20
65.066666666666663
 11
-161.66666666666714
 21
65.166666666666657
  0
LINE
  8
_1-7_カバ__
  6
CONTINUOUS
 62
    4
 10
-167.66666666666703
 20
65.166666666666657
 11
-166.66666666666714
 21
65.166666666666657
  0
LINE
  8
_1-7_カバ__
  6
CONTINUOUS
 62
    4
 10
-169.66666666666703
 20
65.166666666666657
 11
-168.66666666666725
 21
65.166666666666657
  0
LINE
  8
_1-7_カバ__
  6
CONTINUOUS
 62
    4
 10
-166.66666666666714
 20
65.066666666666663
 11
-165.66666666666703
 21
65.066666666666663
  0
LINE
  8
_1-7_カバ__
  6
CONTINUOUS
 62
    4
 10
-168.66666666666725
 20
65.066666666666663
 11
-167.66666666666703
 21
65.066666666666663
  0
LINE
  8
_1-7_カバ__
  6
CONTINUOUS
 62
    4
 10
-168.66666666666725
 20
65.066666666666663
 11
-168.66666666666725
 21
65.166666666666657
  0
LINE
  8
_1-7_カバ__
  6
CONTINUOUS
 62
    4
 10
-167.66666666666703
 20
65.066666666666663
 11
-167.66666666666703
 21
65.166666666666657
  0
LINE
  8
_1-7_カバ__
  6
CONTINUOUS
 62
    4
 10
-166.66666666666714
 20
65.066666666666663
 11
-166.66666666666714
 21
65.166666666666657
  0
LINE
  8
_1-7_カバ__
  6
CONTINUOUS
 62
    4
 10
-165.66666666666703
 20
65.066666666666663
 11
-165.66666666666703
 21
65.166666666666657
  0
LINE
  8
_1-7_カバ__
  6
CONTINUOUS
 62
    4
 10
-171.66666666666691
 20
65.166666666666657
 11
-170.66666666666703
 21
65.166666666666657
  0
LINE
  8
_1-7_カバ__
  6
CONTINUOUS
 62
    4
 10
-173.66666666666691
 20
65.166666666666657
 11
-172.66666666666703
 21
65.166666666666657
  0
LINE
  8
_1-7_カバ__
  6
CONTINUOUS
 62
    4
 10
-170.66666666666703
 20
65.066666666666663
 11
-169.66666666666703
 21
65.066666666666663
  0
LINE
  8
_1-7_カバ__
  6
CONTINUOUS
 62
    4
 10
-172.66666666666703
 20
65.066666666666663
 11
-171.66666666666691
 21
65.066666666666663
  0
LINE
  8
_1-7_カバ__
  6
CONTINUOUS
 62
    4
 10
-172.66666666666703
 20
65.066666666666663
 11
-172.66666666666703
 21
65.166666666666657
  0
LINE
  8
_1-7_カバ__
  6
CONTINUOUS
 62
    4
 10
-171.66666666666691
 20
65.066666666666663
 11
-171.66666666666691
 21
65.166666666666657
  0
LINE
  8
_1-7_カバ__
  6
CONTINUOUS
 62
    4
 10
-170.66666666666703
 20
65.066666666666663
 11
-170.66666666666703
 21
65.166666666666657
  0
LINE
  8
_1-7_カバ__
  6
CONTINUOUS
 62
    4
 10
-169.66666666666703
 20
65.066666666666663
 11
-169.66666666666703
 21
65.166666666666657
  0
LINE
  8
_1-7_カバ__
  6
CONTINUOUS
 62
    4
 10
-175.66666666666691
 20
65.166666666666657
 11
-174.66666666666703
 21
65.166666666666657
  0
LINE
  8
_1-7_カバ__
  6
CONTINUOUS
 62
    4
 10
-174.66666666666703
 20
65.066666666666663
 11
-173.66666666666691
 21
65.066666666666663
  0
LINE
  8
_1-7_カバ__
  6
CONTINUOUS
 62
    4
 10
-176.66666666666691
 20
65.066666666666663
 11
-175.66666666666691
 21
65.066666666666663
  0
LINE
  8
_1-7_カバ__
  6
CONTINUOUS
 62
    4
 10
-176.66666666666691
 20
65.066666666666663
 11
-176.66666666666691
 21
65.166666666666657
  0
LINE
  8
_1-7_カバ__
  6
CONTINUOUS
 62
    4
 10
-175.66666666666691
 20
65.066666666666663
 11
-175.66666666666691
 21
65.166666666666657
  0
LINE
  8
_1-7_カバ__
  6
CONTINUOUS
 62
    4
 10
-174.66666666666703
 20
65.066666666666663
 11
-174.66666666666703
 21
65.166666666666657
  0
LINE
  8
_1-7_カバ__
  6
CONTINUOUS
 62
    4
 10
-173.66666666666691
 20
65.066666666666663
 11
-173.66666666666691
 21
65.166666666666657
  0
LINE
  8
_1-7_カバ__
  6
CONTINUOUS
 62
    4
 10
-179.4000000000006
 20
65.166666666666657
 11
-176.66666666666691
 21
65.166666666666657
  0
LINE
  8
_1-7_カバ__
  6
CONTINUOUS
 62
    4
 10
-158.3333333333338
 20
64.166666666666657
 11
-182.00000000000054
 21
64.166666666666657
  0
LINE
  8
_1-7_カバ__
  6
CONTINUOUS
 62
    4
 10
-182.00000000000054
 20
64.166666666666657
 11
-182.00000000000071
 21
63.000000000000057
  0
LINE
  8
_1-7_カバ__
  6
CENTER2
 62
    4
 10
-179.50000000000063
 20
66.833333333333314
 11
-179.50000000000063
 21
62.5
  0
LINE
  8
_1-7_カバ__
  6
DASHED1
 62
    4
 10
-178.58333333333397
 20
64.333333333333314
 11
-180.41666666666728
 21
64.333333333333314
  0
LINE
  8
_1-7_カバ__
  6
DASHED1
 62
    4
 10
-181.25000000000063
 20
65.166666666666657
 11
-180.41666666666728
 21
64.333333333333314
  0
LINE
  8
_1-7_カバ__
  6
DASHED1
 62
    4
 10
-177.75000000000063
 20
65.166666666666657
 11
-178.58333333333397
 21
64.333333333333314
  0
LINE
  8
_1-7_カバ__
  6
DASHED1
 62
    4
 10
-178.58333333333397
 20
64.333333333333314
 11
-178.58333333333397
 21
64.166666666666657
  0
LINE
  8
_1-7_カバ__
  6
DASHED1
 62
    4
 10
-180.41666666666728
 20
64.333333333333314
 11
-180.41666666666728
 21
64.166666666666657
  0
ENDBLK
  0
BLOCK
  2
-003-HATCHING
 70
   64
 10
0
 20
0
 30
0
  0
LINE
  8
_1-0_躯体
  6
CONTINUOUS
 62
    4
 10
-158.33333333333383
 20
54.246560698096289
 11
-159.07989403143011
 21
53.5
  0
LINE
  8
_1-0_躯体
  6
CONTINUOUS
 62
    4
 10
-158.35603640634554
 20
55.166666666666657
 11
-160.0227030730122
 21
53.5
  0
LINE
  8
_1-0_躯体
  6
CONTINUOUS
 62
    4
 10
-159.29884544792756
 20
55.166666666666657
 11
-160.96551211459422
 21
53.5
  0
LINE
  8
_1-0_躯体
  6
CONTINUOUS
 62
    4
 10
-160.24165448950964
 20
55.166666666666657
 11
-161.90832115617633
 21
53.5
  0
LINE
  8
_1-0_躯体
  6
CONTINUOUS
 62
    4
 10
-161.18446353109169
 20
55.166666666666657
 11
-162.85113019775838
 21
53.5
  0
LINE
  8
_1-0_躯体
  6
CONTINUOUS
 62
    4
 10
-162.12727257267377
 20
55.166666666666657
 11
-163.79393923934046
 21
53.5
  0
LINE
  8
_1-0_躯体
  6
CONTINUOUS
 62
    4
 10
-163.07008161425586
 20
55.166666666666657
 11
-164.73674828092251
 21
53.5
  0
LINE
  8
_1-0_躯体
  6
CONTINUOUS
 62
    4
 10
-164.01289065583791
 20
55.166666666666657
 11
-165.67955732250456
 21
53.5
  0
LINE
  8
_1-0_躯体
  6
CONTINUOUS
 62
    4
 10
-164.95569969741996
 20
55.166666666666657
 11
-166.62236636408664
 21
53.5
  0
LINE
  8
_1-0_躯体
  6
CONTINUOUS
 62
    4
 10
-165.89850873900201
 20
55.166666666666657
 11
-167.5651754056687
 21
53.5
  0
LINE
  8
_1-0_躯体
  6
CONTINUOUS
 62
    4
 10
-166.84131778058406
 20
55.166666666666657
 11
-168.50798444725075
 21
53.5
  0
LINE
  8
_1-0_躯体
  6
CONTINUOUS
 62
    4
 10
-167.78412682216617
 20
55.166666666666657
 11
-169.4507934888328
 21
53.5
  0
LINE
  8
_1-0_躯体
  6
CONTINUOUS
 62
    4
 10
-168.72693586374822
 20
55.166666666666657
 11
-170.39360253041491
 21
53.5
  0
LINE
  8
_1-0_躯体
  6
CONTINUOUS
 62
    4
 10
-169.66974490533028
 20
55.166666666666657
 11
-171.33641157199696
 21
53.5
  0
LINE
  8
_1-0_躯体
  6
CONTINUOUS
 62
    4
 10
-170.61255394691233
 20
55.166666666666657
 11
-172.27922061357901
 21
53.5
  0
LINE
  8
_1-0_躯体
  6
CONTINUOUS
 62
    4
 10
-171.55536298849444
 20
55.166666666666657
 11
-173.22202965516107
 21
53.5
  0
LINE
  8
_1-0_躯体
  6
CONTINUOUS
 62
    4
 10
-172.49817203007649
 20
55.166666666666657
 11
-174.16483869674312
 21
53.5
  0
LINE
  8
_1-0_躯体
  6
CONTINUOUS
 62
    4
 10
-173.44098107165854
 20
55.166666666666657
 11
-175.10764773832523
 21
53.5
  0
LINE
  8
_1-0_躯体
  6
CONTINUOUS
 62
    4
 10
-174.38379011324059
 20
55.166666666666657
 11
-176.05045677990728
 21
53.5
  0
LINE
  8
_1-0_躯体
  6
CONTINUOUS
 62
    4
 10
-175.3265991548227
 20
55.166666666666657
 11
-176.99326582148933
 21
53.5
  0
LINE
  8
_1-0_躯体
  6
CONTINUOUS
 62
    4
 10
-176.26940819640475
 20
55.166666666666657
 11
-177.93607486307144
 21
53.5
  0
LINE
  8
_1-0_躯体
  6
CONTINUOUS
 62
    4
 10
-177.21221723798681
 20
55.166666666666657
 11
-178.87888390465346
 21
53.5
  0
LINE
  8
_1-0_躯体
  6
CONTINUOUS
 62
    4
 10
-178.15502627956886
 20
55.166666666666657
 11
-179.82169294623552
 21
53.5
  0
LINE
  8
_1-0_躯体
  6
CONTINUOUS
 62
    4
 10
-179.09783532115091
 20
55.166666666666657
 11
-180.7645019878176
 21
53.5
  0
LINE
  8
_1-0_躯体
  6
CONTINUOUS
 62
    4
 10
-180.04064436273299
 20
55.166666666666657
 11
-181.70731102939968
 21
53.5
  0
LINE
  8
_1-0_躯体
  6
CONTINUOUS
 62
    4
 10
-180.98345340431507
 20
55.166666666666657
 11
-182.65012007098173
 21
53.5
  0
LINE
  8
_1-0_躯体
  6
CONTINUOUS
 62
    4
 10
-181.92626244589712
 20
55.166666666666657
 11
-183.59292911256378
 21
53.5
  0
LINE
  8
_1-0_躯体
  6
CONTINUOUS
 62
    4
 10
-182.86907148747918
 20
55.166666666666657
 11
-184.53573815414583
 21
53.5
  0
LINE
  8
_1-0_躯体
  6
CONTINUOUS
 62
    4
 10
-183.81188052906123
 20
55.166666666666657
 11
-185.47854719572788
 21
53.5
  0
LINE
  8
_1-0_躯体
  6
CONTINUOUS
 62
    4
 10
-184.75468957064328
 20
55.166666666666657
 11
-186.42135623730996
 21
53.5
  0
LINE
  8
_1-0_躯体
  6
CONTINUOUS
 62
    4
 10
-185.69749861222536
 20
55.166666666666657
 11
-186.66666666666711
 21
54.197498612224905
  0
LINE
  8
_1-0_躯体
  6
CONTINUOUS
 62
    4
 10
-186.64030765380741
 20
55.166666666666657
 11
-186.66666666666711
 21
55.140307653806985
  0
ENDBLK
  0
BLOCK
  2
-004-_3_
 70
   64
 10
0
 20
0
 30
0
  0
LINE
  8
_1-8_小物
  6
CONTINUOUS
 62
    4
 10
-157.83333333333383
 20
62.0999993333335
 11
-157.83333333333383
 21
60.433333333333394
  0
LINE
  8
_1-8_小物
  6
CONTINUOUS
 62
    4
 10
-157.83333333333383
 20
60.433333333333394
 11
-158.3333333333336
 21
60.433333333333394
  0
LINE
  8
_1-8_小物
  6
CONTINUOUS
 62
    4
 10
-159.33333333333374
 20
60.433333333333394
 11
-159.83333333333374
 21
60.433333333333394
  0
LINE
  8
_1-8_小物
  6
CONTINUOUS
 62
    4
 10
-159.83333333333374
 20
60.433333333333394
 11
-159.83333333333374
 21
62.0999993333335
  0
ARC
  8
_1-8_小物
  6
CONTINUOUS
 62
    4
 10
-158.83333333333366
 20
62.0999993333335
 40
0.566667
 50
0
 51
180
  0
ARC
  8
_1-8_小物
  6
CONTINUOUS
 62
    4
 10
-158.83333333333366
 20
62.0999993333335
 40
1
 50
0
 51
180
  0
LINE
  8
_1-8_小物
  6
CONTINUOUS
 62
    4
 10
-159.33333133333389
 20
61.099999333333386
 11
-159.25205033333367
 21
61.099999333333386
  0
ARC
  8
_1-8_小物
  6
CONTINUOUS
 62
    4
 10
-159.25205033333367
 20
61.033333333333445
 40
0.066667
 50
345.96359800000118
 51
90
  0
LINE
  8
_1-8_小物
  6
CONTINUOUS
 62
    4
 10
-159.33333333333374
 20
60.433333333333394
 11
-159.18737433333365
 21
61.017164333333454
  0
LINE
  8
_1-8_小物
  6
CONTINUOUS
 62
    4
 10
-158.3333333333336
 20
61.099999333333386
 11
-158.41461533333361
 21
61.099999333333386
  0
ARC
  8
_1-8_小物
  6
CONTINUOUS
 62
    4
 10
-158.41461533333361
 20
61.033333333333445
 40
0.066667
 50
90
 51
194.03619200001785
  0
LINE
  8
_1-8_小物
  6
CONTINUOUS
 62
    4
 10
-158.33333433333362
 20
60.433333333333394
 11
-158.47929133333389
 21
61.017164333333454
  0
LINE
  8
_1-8_小物
  6
CONTINUOUS
 62
    4
 10
-159.33333133333389
 20
61.099999333333386
 11
-159.39999833333357
 21
61.099999333333386
  0
LINE
  8
_1-8_小物
  6
CONTINUOUS
 62
    4
 10
-159.39999833333357
 20
61.099999333333386
 11
-159.40000033333365
 21
62.0999993333335
  0
LINE
  8
_1-8_小物
  6
CONTINUOUS
 62
    4
 10
-158.33333433333362
 20
61.099999333333386
 11
-158.26666633333369
 21
61.099999333333386
  0
LINE
  8
_1-8_小物
  6
CONTINUOUS
 62
    4
 10
-158.26666633333369
 20
61.099999333333386
 11
-158.26666633333369
 21
62.0999993333335
  0
ENDBLK
  0
BLOCK
  2
-005-_4_
 70
   64
 10
0
 20
0
 30
0
  0
LINE
  8
_1-8_小物
  6
CONTINUOUS
 62
    4
 10
-167.00000000000017
 20
56.833333333333314
 11
-173.00000000000045
 21
56.833333333333314
  0
LINE
  8
_1-8_小物
  6
CONTINUOUS
 62
    4
 10
-167.00000000000017
 20
56.333333333333314
 11
-173.00000000000045
 21
56.333333333333314
  0
LINE
  8
_1-8_小物
  6
CONTINUOUS
 62
    4
 10
-167.00000000000017
 20
56.833333333333314
 11
-167.00000000000017
 21
56.333333333333314
  0
LINE
  8
_1-8_小物
  6
CONTINUOUS
 62
    4
 10
-173.00000000000045
 20
56.833333333333314
 11
-173.00000000000045
 21
56.333333333333314
  0
LINE
  8
_1-8_小物
  6
CONTINUOUS
 62
    4
 10
-169.08333333333354
 20
56.833333333333314
 11
-169.08333333333354
 21
56.333333333333314
  0
LINE
  8
_1-8_小物
  6
CONTINUOUS
 62
    4
 10
-170.91666666666714
 20
56.833333333333314
 11
-170.91666666666714
 21
56.333333333333314
  0
LINE
  8
_1-8_小物
  6
CONTINUOUS
 62
    4
 10
-168.50000000000023
 20
56.833333333333314
 11
-168.53630426126699
 21
57.24829293833335
  0
LINE
  8
_1-8_小物
  6
CONTINUOUS
 62
    4
 10
-171.46369573876706
 20
57.24829293833335
 11
-171.50000000000017
 21
56.833333333333314
  0
ARC
  8
_1-8_小物
  6
CONTINUOUS
 62
    4
 10
-171.13495148836734
 20
57.219531543233245
 40
0.3299999999999999
 50
127.36755803205445
 51
175.00000000119871
  0
ARC
  8
_1-8_小物
  6
CONTINUOUS
 62
    4
 10
-168.86504851163369
 20
57.219531543233245
 40
0.3299999999999999
 50
4.9999999988008561
 51
52.63244196794556
  0
ARC
  8
_1-8_小物
  6
CONTINUOUS
 62
    4
 10
-170.00000000000051
 20
55.733333333333292
 40
2.1999999999999997
 50
52.632441967704345
 51
68.266383543397751
  0
ARC
  8
_1-8_小物
  6
CONTINUOUS
 62
    4
 10
-170.00000000000051
 20
55.733333333333292
 40
2.1999999999999997
 50
111.74840859090261
 51
127.36755803230515
  0
LINE
  8
_1-8_小物
  6
CONTINUOUS
 62
    4
 10
-169.89500000000032
 20
57.919709043200044
 11
-169.89500000000032
 21
57.774437413199905
  0
LINE
  8
_1-8_小物
  6
CONTINUOUS
 62
    4
 10
-169.77923710603335
 20
57.919709043200044
 11
-169.89500000000032
 21
57.919709043200044
  0
LINE
  8
_1-8_小物
  6
CONTINUOUS
 62
    4
 10
-169.18583224383372
 20
57.774437413199905
 11
-169.77923710603335
 21
57.919709043200044
  0
LINE
  8
_1-8_小物
  6
CONTINUOUS
 62
    4
 10
-170.22076289400036
 20
57.919709043200044
 11
-170.65406631656714
 21
57.831230436066733
  0
LINE
  8
_1-8_小物
  6
CONTINUOUS
 62
    4
 10
-170.65406631656714
 20
57.831230436066733
 11
-170.81416775619999
 21
57.774437413199905
  0
LINE
  8
_1-8_小物
  6
CONTINUOUS
 62
    4
 10
-170.10500000000036
 20
57.919709043200044
 11
-170.22076289400036
 21
57.919709043200044
  0
LINE
  8
_1-8_小物
  6
CONTINUOUS
 62
    4
 10
-170.10500000000036
 20
57.774437413199905
 11
-170.10500000000036
 21
57.919709043200044
  0
LINE
  8
_1-8_小物
  6
CONTINUOUS
 62
    4
 10
-169.89500000000032
 20
57.774437413199905
 11
-170.00000000000051
 21
57.776139138000019
  0
LINE
  8
_1-8_小物
  6
CONTINUOUS
 62
    4
 10
-170.00000000000051
 20
57.776139138000019
 11
-170.10500000000036
 21
57.774437413199905
  0
LINE
  8
_1-8_小物
  6
CONTINUOUS
 62
    4
 10
-168.53630426126699
 20
57.24829293833335
 11
-171.46369573876706
 21
57.24829293833335
  0
LINE
  8
_1-8_小物
  6
CONTINUOUS
 62
    4
 10
-170.00000000000051
 20
57.481801815566712
 11
-171.33523704516716
 21
57.481801815566712
  0
LINE
  8
_1-8_小物
  6
CONTINUOUS
 62
    4
 10
-168.66476295486689
 20
57.481801815566712
 11
-170.00000000000051
 21
57.481801815566712
  0
ENDBLK
  0
BLOCK
  2
-006-_5_
 70
   64
 10
0
 20
0
 30
0
  0
LINE
  8
_1-8_小物
  6
CONTINUOUS
 62
    4
 10
-168.19724166666725
 20
43.573391666666595
 11
-168.16235166666763
 21
42.907638333333267
  0
LINE
  8
_1-8_小物
  6
CONTINUOUS
 62
    4
 10
-168.24957833333417
 20
44.572021666666529
 11
-168.89788500000083
 21
44.204254999999904
  0
LINE
  8
_1-8_小物
  6
CONTINUOUS
 62
    4
 10
-168.89788500000083
 20
44.204254999999904
 11
-168.86299500000058
 21
43.538501666666576
  0
LINE
  8
_1-8_小物
  6
CONTINUOUS
 62
    4
 10
-168.86299500000058
 20
43.538501666666576
 11
-168.19724166666725
 21
43.573391666666595
  0
LINE
  8
_1-8_小物
  6
CONTINUOUS
 62
    4
 10
-168.28446833333408
 20
45.237774999999971
 11
-168.24957833333417
 21
44.572021666666529
  0
LINE
  8
_1-8_小物
  6
CONTINUOUS
 62
    4
 10
-168.33680500000071
 20
46.236403333333357
 11
-168.98511166666765
 21
45.86863666666639
  0
LINE
  8
_1-8_小物
  6
CONTINUOUS
 62
    4
 10
-168.98511166666765
 20
45.86863666666639
 11
-168.95022166666746
 21
45.20288333333329
  0
LINE
  8
_1-8_小物
  6
CONTINUOUS
 62
    4
 10
-168.95022166666746
 20
45.20288333333329
 11
-168.28446833333408
 21
45.237774999999971
  0
LINE
  8
_1-8_小物
  6
CONTINUOUS
 62
    4
 10
-168.3716950000009
 20
46.902156666666684
 11
-168.33680500000071
 21
46.236403333333357
  0
LINE
  8
_1-8_小物
  6
CONTINUOUS
 62
    4
 10
-168.42403166666725
 20
47.900786666666392
 11
-169.0723383333339
 21
47.533019999999993
  0
LINE
  8
_1-8_小物
  6
CONTINUOUS
 62
    4
 10
-169.0723383333339
 20
47.533019999999993
 11
-169.03744833333428
 21
46.867266666666666
  0
LINE
  8
_1-8_小物
  6
CONTINUOUS
 62
    4
 10
-169.03744833333428
 20
46.867266666666666
 11
-168.3716950000009
 21
46.902156666666684
  0
LINE
  8
_1-8_小物
  6
CONTINUOUS
 62
    4
 10
-168.45892166666744
 20
48.566539999999947
 11
-168.42403166666725
 21
47.900786666666392
  0
LINE
  8
_1-8_小物
  6
CONTINUOUS
 62
    4
 10
-168.51125833333407
 20
49.565169999999995
 11
-169.15956500000073
 21
49.197401666666593
  0
LINE
  8
_1-8_小物
  6
CONTINUOUS
 62
    4
 10
-169.15956500000073
 20
49.197401666666593
 11
-169.12467500000082
 21
48.531648333333266
  0
LINE
  8
_1-8_小物
  6
CONTINUOUS
 62
    4
 10
-169.12467500000082
 20
48.531648333333266
 11
-168.45892166666744
 21
48.566539999999947
  0
LINE
  8
_1-8_小物
  6
CONTINUOUS
 62
    4
 10
-168.54614833333403
 20
50.230921666666546
 11
-168.51125833333407
 21
49.565169999999995
  0
LINE
  8
_1-8_小物
  6
CONTINUOUS
 62
    4
 10
-169.24679166666755
 20
50.861784999999855
 11
-169.21190166666736
 21
50.196031666666528
  0
LINE
  8
_1-8_小物
  6
CONTINUOUS
 62
    4
 10
-169.21190166666736
 20
50.196031666666528
 11
-168.54614833333403
 21
50.230921666666546
  0
LINE
  8
_1-8_小物
  6
CONTINUOUS
 62
    4
 10
-168.66666666666748
 20
51.166666666666657
 11
-169.24679166666755
 21
50.861784999999855
  0
LINE
  8
_1-8_小物
  6
CONTINUOUS
 62
    4
 10
-171.80275833333405
 20
43.573391666666595
 11
-171.83764833333396
 21
42.907638333333267
  0
LINE
  8
_1-8_小物
  6
CONTINUOUS
 62
    4
 10
-171.75042166666742
 20
44.572021666666529
 11
-171.10211500000077
 21
44.204254999999904
  0
LINE
  8
_1-8_小物
  6
CONTINUOUS
 62
    4
 10
-171.10211500000077
 20
44.204254999999904
 11
-171.13700500000101
 21
43.538501666666576
  0
LINE
  8
_1-8_小物
  6
CONTINUOUS
 62
    4
 10
-171.13700500000101
 20
43.538501666666576
 11
-171.80275833333405
 21
43.573391666666595
  0
LINE
  8
_1-8_小物
  6
CONTINUOUS
 62
    4
 10
-171.71553166666723
 20
45.237774999999971
 11
-171.75042166666742
 21
44.572021666666529
  0
LINE
  8
_1-8_小物
  6
CONTINUOUS
 62
    4
 10
-171.66319500000088
 20
46.236403333333357
 11
-171.01488833333423
 21
45.86863666666639
  0
LINE
  8
_1-8_小物
  6
CONTINUOUS
 62
    4
 10
-171.01488833333423
 20
45.86863666666639
 11
-171.04977833333385
 21
45.20288333333329
  0
LINE
  8
_1-8_小物
  6
CONTINUOUS
 62
    4
 10
-171.04977833333385
 20
45.20288333333329
 11
-171.71553166666723
 21
45.237774999999971
  0
LINE
  8
_1-8_小物
  6
CONTINUOUS
 62
    4
 10
-171.62830500000098
 20
46.902156666666684
 11
-171.66319500000088
 21
46.236403333333357
  0
LINE
  8
_1-8_小物
  6
CONTINUOUS
 62
    4
 10
-171.57596833333434
 20
47.900786666666392
 11
-170.9276616666674
 21
47.533019999999993
  0
LINE
  8
_1-8_小物
  6
CONTINUOUS
 62
    4
 10
-170.9276616666674
 20
47.533019999999993
 11
-170.96255166666731
 21
46.867266666666666
  0
LINE
  8
_1-8_小物
  6
CONTINUOUS
 62
    4
 10
-170.96255166666731
 20
46.867266666666666
 11
-171.62830500000098
 21
46.902156666666684
  0
LINE
  8
_1-8_小物
  6
CONTINUOUS
 62
    4
 10
-171.54107833333416
 20
48.566539999999947
 11
-171.57596833333434
 21
47.900786666666392
  0
LINE
  8
_1-8_小物
  6
CONTINUOUS
 62
    4
 10
-171.48874166666718
 20
49.565169999999995
 11
-170.84043500000058
 21
49.197401666666593
  0
LINE
  8
_1-8_小物
  6
CONTINUOUS
 62
    4
 10
-170.84043500000058
 20
49.197401666666593
 11
-170.87532500000077
 21
48.531648333333266
  0
LINE
  8
_1-8_小物
  6
CONTINUOUS
 62
    4
 10
-170.87532500000077
 20
48.531648333333266
 11
-171.54107833333416
 21
48.566539999999947
  0
LINE
  8
_1-8_小物
  6
CONTINUOUS
 62
    4
 10
-171.45385166666762
 20
50.230921666666546
 11
-171.48874166666718
 21
49.565169999999995
  0
LINE
  8
_1-8_小物
  6
CONTINUOUS
 62
    4
 10
-170.75320833333404
 20
50.861784999999855
 11
-170.78809833333423
 21
50.196031666666528
  0
LINE
  8
_1-8_小物
  6
CONTINUOUS
 62
    4
 10
-170.78809833333423
 20
50.196031666666528
 11
-171.45385166666762
 21
50.230921666666546
  0
LINE
  8
_1-8_小物
  6
CONTINUOUS
 62
    4
 10
-170.01976833333407
 20
43.186434999999875
 11
-169.37520166666752
 21
43.758324999999928
  0
LINE
  8
_1-8_小物
  6
CONTINUOUS
 62
    4
 10
-170.6231483333342
 20
43.789813333333342
 11
-170.00000000000051
 21
43.166666666666544
  0
LINE
  8
_1-8_小物
  6
CONTINUOUS
 62
    4
 10
-171.33333333333383
 20
51.166666666666657
 11
-170.75320833333404
 21
50.861784999999855
  0
LINE
  8
_1-8_小物
  6
CONTINUOUS
 62
    4
 10
-168.45892166666744
 20
48.566539999999947
 11
-167.89380000000097
 21
50.119199999999779
  0
LINE
  8
_1-8_小物
  6
CONTINUOUS
 62
    4
 10
-168.81364833333396
 20
48.566539999999947
 11
-168.20703000000066
 21
50.233206666666575
  0
LINE
  8
_1-8_小物
  6
CONTINUOUS
 62
    4
 10
-171.54107833333416
 20
48.566539999999947
 11
-172.10620000000068
 21
50.119199999999779
  0
LINE
  8
_1-8_小物
  6
CONTINUOUS
 62
    4
 10
-171.18635166666769
 20
48.566539999999947
 11
-171.79297000000093
 21
50.233206666666575
  0
LINE
  8
_1-8_小物
  6
CONTINUOUS
 62
    4
 10
-169.32741833333409
 20
42.846579999999818
 11
-168.16235166666763
 21
42.907638333333267
  0
LINE
  8
_1-8_小物
  6
CONTINUOUS
 62
    4
 10
-168.16235166666763
 20
42.907638333333267
 11
-168.79321333333417
 21
42.206995000000035
  0
LINE
  8
_1-8_小物
  6
CONTINUOUS
 62
    4
 10
-168.79321333333417
 20
42.206995000000035
 11
-169.29252833333391
 21
42.180826666666491
  0
LINE
  8
_1-8_小物
  6
CONTINUOUS
 62
    4
 10
-169.29252833333391
 20
42.180826666666491
 11
-169.83333333333383
 21
52.499999999999801
  0
LINE
  8
_1-8_小物
  6
CONTINUOUS
 62
    4
 10
-168.66666666666748
 20
51.166666666666657
 11
-168.66666666666748
 21
52.499999999999801
  0
LINE
  8
_1-8_小物
  6
CONTINUOUS
 62
    4
 10
-170.6725816666675
 20
42.846579999999818
 11
-171.83764833333396
 21
42.907638333333267
  0
LINE
  8
_1-8_小物
  6
CONTINUOUS
 62
    4
 10
-171.83764833333396
 20
42.907638333333267
 11
-171.20678666666743
 21
42.206995000000035
  0
LINE
  8
_1-8_小物
  6
CONTINUOUS
 62
    4
 10
-171.20678666666743
 20
42.206995000000035
 11
-170.7074716666674
 21
42.180826666666491
  0
LINE
  8
_1-8_小物
  6
CONTINUOUS
 62
    4
 10
-170.7074716666674
 20
42.180826666666491
 11
-170.16666666666748
 21
52.499999999999801
  0
LINE
  8
_1-8_小物
  6
CONTINUOUS
 62
    4
 10
-171.33333333333383
 20
51.166666666666657
 11
-171.33333333333383
 21
52.499999999999801
  0
LINE
  8
_1-8_小物
  6
CONTINUOUS
 62
    4
 10
-172.10620000000068
 20
50.119199999999779
 11
-172.43698500000079
 21
52.387073333333461
  0
ARC
  8
_1-8_小物
  6
CONTINUOUS
 62
    4
 10
-172.30504833333413
 20
52.406318333333303
 40
0.1333333333333333
 50
98.130101999953808
 51
188.29846600002489
  0
LINE
  8
_1-8_小物
  6
CONTINUOUS
 62
    4
 10
-172.32390500000099
 20
52.538311666666601
 11
-172.25829666666738
 21
52.547683333333367
  0
ARC
  8
_1-8_小物
  6
CONTINUOUS
 62
    4
 10
-172.23944000000046
 20
52.415689999999955
 40
0.1333333333333333
 50
8.130102000040166
 51
98.13010200021462
  0
LINE
  8
_1-8_小物
  6
CONTINUOUS
 62
    4
 10
-172.10744666666739
 20
52.434546666666535
 11
-171.79297000000093
 21
50.233206666666575
  0
LINE
  8
_1-8_小物
  6
CONTINUOUS
 62
    4
 10
-167.89380000000097
 20
50.119199999999779
 11
-167.5630150000008
 21
52.387073333333461
  0
ARC
  8
_1-8_小物
  6
CONTINUOUS
 62
    4
 10
-167.69495166666746
 20
52.406318333333303
 40
0.1333333333333333
 50
351.70153399996479
 51
81.869898000034084
  0
LINE
  8
_1-8_小物
  6
CONTINUOUS
 62
    4
 10
-167.67609666666755
 20
52.538311666666601
 11
-167.74170333333421
 21
52.547683333333367
  0
ARC
  8
_1-8_小物
  6
CONTINUOUS
 62
    4
 10
-167.76056000000051
 20
52.415689999999955
 40
0.1333333333333333
 50
81.869898000034112
 51
171.86989799999611
  0
LINE
  8
_1-8_小物
  6
CONTINUOUS
 62
    4
 10
-167.89255333333421
 20
52.434546666666535
 11
-168.20703000000066
 21
50.233206666666575
  0
LINE
  8
_1-8_小物
  6
CONTINUOUS
 62
    4
 10
-167.89380000000097
 20
50.119199999999779
 11
-167.5630150000008
 21
52.387073333333461
  0
ARC
  8
_1-8_小物
  6
CONTINUOUS
 62
    4
 10
-167.69495166666746
 20
52.406318333333303
 40
0.1333333333333333
 50
351.70153399996479
 51
81.869898000034084
  0
LINE
  8
_1-8_小物
  6
CONTINUOUS
 62
    4
 10
-167.67609666666755
 20
52.538311666666601
 11
-167.74170333333421
 21
52.547683333333367
  0
ARC
  8
_1-8_小物
  6
CONTINUOUS
 62
    4
 10
-167.76056000000051
 20
52.415689999999955
 40
0.1333333333333333
 50
81.869898000034112
 51
171.86989799999611
  0
LINE
  8
_1-8_小物
  6
CONTINUOUS
 62
    4
 10
-167.89255333333421
 20
52.434546666666535
 11
-168.20703000000066
 21
50.233206666666575
  0
LINE
  8
_1-8_小物
  6
CONTINUOUS
 62
    4
 10
-168.33333333333383
 20
55.166666666666657
 11
-168.66666666666748
 21
53.500000000000028
  0
LINE
  8
_1-8_小物
  6
CONTINUOUS
 62
    4
 10
-168.66666666666748
 20
55.166666666666657
 11
-168.66666666666748
 21
52.499999999999801
  0
LINE
  8
_1-8_小物
  6
CONTINUOUS
 62
    4
 10
-169.83333333333383
 20
52.499999999999801
 11
-170.00000000000051
 21
52.499999999999801
  0
LINE
  8
_1-8_小物
  6
CONTINUOUS
 62
    4
 10
-170.00000000000051
 20
53.500000000000028
 11
-170.00000000000051
 21
55.166666666666657
  0
LINE
  8
_1-8_小物
  6
CONTINUOUS
 62
    4
 10
-169.66666666666748
 20
55.166666666666657
 11
-170.00000000000051
 21
53.500000000000028
  0
LINE
  8
_1-8_小物
  6
CONTINUOUS
 62
    4
 10
-170.33333333333411
 20
55.166666666666657
 11
-170.00000000000051
 21
53.500000000000028
  0
LINE
  8
_1-8_小物
  6
CONTINUOUS
 62
    4
 10
-171.66666666666714
 20
55.166666666666657
 11
-171.33333333333383
 21
53.500000000000028
  0
LINE
  8
_1-8_小物
  6
CONTINUOUS
 62
    4
 10
-171.33333333333383
 20
55.166666666666657
 11
-171.33333333333383
 21
52.499999999999801
  0
LINE
  8
_1-8_小物
  6
CONTINUOUS
 62
    4
 10
-170.16666666666748
 20
52.499999999999801
 11
-170.00000000000051
 21
52.499999999999801
  0
LINE
  8
_1-8_小物
  6
CONTINUOUS
 62
    4
 10
-168.33333333333383
 20
55.166666666666657
 11
-171.66666666666714
 21
55.166666666666657
  0
ENDBLK
  0
BLOCK
  2
-007-_6_
 70
   64
 10
0
 20
0
 30
0
  0
LINE
  8
_1-8_小物
  6
CONTINUOUS
 62
    4
 10
-177.833333333334
 20
65.166666666666657
 11
-181.16666666666723
 21
65.166666666666657
  0
LINE
  8
_1-8_小物
  6
CONTINUOUS
 62
    4
 10
-179.5000000000006
 20
59.833333333333314
 11
-180.18333333333391
 21
60.227856017279578
  0
LINE
  8
_1-8_小物
  6
CONTINUOUS
 62
    4
 10
-179.5000000000006
 20
59.833333333333314
 11
-178.81666666666732
 21
60.227856017279578
  0
LINE
  8
_1-8_小物
  6
CONTINUOUS
 62
    4
 10
-178.9033333333339
 20
62.902460573114269
 11
-178.70000000000053
 21
62.785065859669317
  0
LINE
  8
_1-8_小物
  6
CONTINUOUS
 62
    4
 10
-178.70000000000053
 20
62.785065859669317
 11
-178.9033333333339
 21
62.667671146224336
  0
LINE
  8
_1-8_小物
  6
CONTINUOUS
 62
    4
 10
-180.09666666666732
 20
62.233333333333348
 11
-180.30000000000069
 21
62.3507280467783
  0
LINE
  8
_1-8_小物
  6
CONTINUOUS
 62
    4
 10
-180.30000000000069
 20
62.3507280467783
 11
-180.09666666666732
 21
62.468122760223252
  0
LINE
  8
_1-8_小物
  6
CONTINUOUS
 62
    4
 10
-180.09666666666732
 20
62.468122760223252
 11
-178.9033333333339
 21
62.902460573114269
  0
LINE
  8
_1-8_小物
  6
CONTINUOUS
 62
    4
 10
-180.09666666666732
 20
62.233333333333348
 11
-178.9033333333339
 21
62.667671146224336
  0
LINE
  8
_1-8_小物
  6
CONTINUOUS
 62
    4
 10
-178.70000000000053
 20
62.785065859669317
 11
-180.30000000000069
 21
62.3507280467783
  0
LINE
  8
_1-8_小物
  6
CONTINUOUS
 62
    4
 10
-178.9033333333339
 20
63.402460573114269
 11
-178.70000000000053
 21
63.285065859669317
  0
LINE
  8
_1-8_小物
  6
CONTINUOUS
 62
    4
 10
-178.70000000000053
 20
63.285065859669317
 11
-178.9033333333339
 21
63.167671146224336
  0
LINE
  8
_1-8_小物
  6
CONTINUOUS
 62
    4
 10
-180.09666666666732
 20
62.733333333333348
 11
-180.30000000000069
 21
62.8507280467783
  0
LINE
  8
_1-8_小物
  6
CONTINUOUS
 62
    4
 10
-180.30000000000069
 20
62.8507280467783
 11
-180.09666666666732
 21
62.968122760223252
  0
LINE
  8
_1-8_小物
  6
CONTINUOUS
 62
    4
 10
-180.09666666666732
 20
62.968122760223252
 11
-178.9033333333339
 21
63.402460573114269
  0
LINE
  8
_1-8_小物
  6
CONTINUOUS
 62
    4
 10
-180.09666666666732
 20
62.733333333333348
 11
-178.9033333333339
 21
63.167671146224336
  0
LINE
  8
_1-8_小物
  6
CONTINUOUS
 62
    4
 10
-178.70000000000053
 20
63.285065859669317
 11
-180.30000000000069
 21
62.8507280467783
  0
LINE
  8
_1-8_小物
  6
CONTINUOUS
 62
    4
 10
-178.9033333333339
 20
63.902460573114269
 11
-178.70000000000053
 21
63.785065859669317
  0
LINE
  8
_1-8_小物
  6
CONTINUOUS
 62
    4
 10
-178.70000000000053
 20
63.785065859669317
 11
-178.9033333333339
 21
63.667671146224336
  0
LINE
  8
_1-8_小物
  6
CONTINUOUS
 62
    4
 10
-180.09666666666732
 20
63.233333333333348
 11
-180.30000000000069
 21
63.3507280467783
  0
LINE
  8
_1-8_小物
  6
CONTINUOUS
 62
    4
 10
-180.30000000000069
 20
63.3507280467783
 11
-180.09666666666732
 21
63.468122760223252
  0
LINE
  8
_1-8_小物
  6
CONTINUOUS
 62
    4
 10
-180.09666666666732
 20
63.468122760223252
 11
-178.9033333333339
 21
63.902460573114269
  0
LINE
  8
_1-8_小物
  6
CONTINUOUS
 62
    4
 10
-180.09666666666732
 20
63.233333333333348
 11
-178.9033333333339
 21
63.667671146224336
  0
LINE
  8
_1-8_小物
  6
CONTINUOUS
 62
    4
 10
-178.70000000000053
 20
63.785065859669317
 11
-180.30000000000069
 21
63.3507280467783
  0
LINE
  8
_1-8_小物
  6
CONTINUOUS
 62
    4
 10
-180.09666666666732
 20
63.733333333333348
 11
-180.30000000000069
 21
63.8507280467783
  0
LINE
  8
_1-8_小物
  6
CONTINUOUS
 62
    4
 10
-180.30000000000069
 20
63.8507280467783
 11
-180.09666666666732
 21
63.968122760223252
  0
LINE
  8
_1-8_小物
  6
CONTINUOUS
 62
    4
 10
-180.18333333333391
 20
62.066666666666663
 11
-180.18333333333391
 21
60.227856017279578
  0
LINE
  8
_1-8_小物
  6
CONTINUOUS
 62
    4
 10
-178.81666666666732
 20
62.066666666666663
 11
-180.18333333333391
 21
62.066666666666663
  0
LINE
  8
_1-8_小物
  6
CONTINUOUS
 62
    4
 10
-178.81666666666732
 20
62.066666666666663
 11
-178.81666666666732
 21
60.227856017279578
  0
LINE
  8
_1-8_小物
  6
CONTINUOUS
 62
    4
 10
-180.09666666666732
 20
63.968122760223252
 11
-179.82591950888914
 21
64.066666666666663
  0
LINE
  8
_1-8_小物
  6
CONTINUOUS
 62
    4
 10
-180.09666666666732
 20
63.733333333333348
 11
-179.5000000000006
 21
63.950502239778871
  0
LINE
  8
_1-8_小物
  6
CONTINUOUS
 62
    4
 10
-179.5000000000006
 20
64.067896953223823
 11
-180.30000000000069
 21
63.8507280467783
  0
LINE
  8
_1-8_小物
  6
CONTINUOUS
 62
    4
 10
-180.09666666666732
 20
64.066666666666663
 11
-180.09666666666732
 21
63.968122760223252
  0
LINE
  8
_1-8_小物
  6
CONTINUOUS
 62
    4
 10
-180.09666666666732
 20
63.733333333333348
 11
-180.09666666666732
 21
63.468122760223252
  0
LINE
  8
_1-8_小物
  6
CONTINUOUS
 62
    4
 10
-180.09666666666732
 20
63.233333333333348
 11
-180.09666666666732
 21
62.968122760223252
  0
LINE
  8
_1-8_小物
  6
CONTINUOUS
 62
    4
 10
-180.09666666666732
 20
62.733333333333348
 11
-180.09666666666732
 21
62.468122760223252
  0
LINE
  8
_1-8_小物
  6
CONTINUOUS
 62
    4
 10
-180.09666666666732
 20
62.233333333333348
 11
-180.09666666666732
 21
62.066666666666663
  0
LINE
  8
_1-8_小物
  6
CONTINUOUS
 62
    4
 10
-178.9033333333339
 20
64.066666666666663
 11
-178.9033333333339
 21
63.902460573114269
  0
LINE
  8
_1-8_小物
  6
CONTINUOUS
 62
    4
 10
-178.9033333333339
 20
62.667671146224336
 11
-178.9033333333339
 21
62.066666666666663
  0
LINE
  8
_1-8_小物
  6
CONTINUOUS
 62
    4
 10
-178.9033333333339
 20
63.167671146224336
 11
-178.9033333333339
 21
62.902460573114269
  0
LINE
  8
_1-8_小物
  6
CONTINUOUS
 62
    4
 10
-178.9033333333339
 20
63.667671146224336
 11
-178.9033333333339
 21
63.402460573114269
  0
LINE
  8
_1-8_小物
  6
CONTINUOUS
 62
    4
 10
-178.91666666666723
 20
62.066666666666663
 11
-178.91666666666723
 21
60.285591044198554
  0
LINE
  8
_1-8_小物
  6
CONTINUOUS
 62
    4
 10
-179.5000000000006
 20
59.948803387171267
 11
-178.91666666666723
 21
60.285591044198554
  0
LINE
  8
_1-8_小物
  6
CONTINUOUS
 62
    4
 10
-179.5000000000006
 20
59.948803387171267
 11
-179.12656356237383
 21
62.066666666666663
  0
LINE
  8
_1-8_小物
  6
CENTER2
 62
    4
 10
-179.5000000000006
 20
65.833640386960099
 11
-179.5000000000006
 21
59.084349393779831
  0
LINE
  8
_1-8_小物
  6
CONTINUOUS
 62
    4
 10
-181.16666666666723
 20
65.166666666666657
 11
-181.16666666666723
 21
65.099999999999966
  0
LINE
  8
_1-8_小物
  6
CONTINUOUS
 62
    4
 10
-177.833333333334
 20
65.099999999999966
 11
-181.16666666666723
 21
65.099999999999966
  0
LINE
  8
_1-8_小物
  6
CONTINUOUS
 62
    4
 10
-177.833333333334
 20
65.166666666666657
 11
-177.833333333334
 21
65.099999999999966
  0
LINE
  8
_1-8_小物
  6
CONTINUOUS
 62
    4
 10
-181.16666666666723
 20
65.099999999999966
 11
-180.13333333333381
 21
64.066666666666663
  0
LINE
  8
_1-8_小物
  6
CONTINUOUS
 62
    4
 10
-178.86666666666738
 20
64.066666666666663
 11
-180.13333333333381
 21
64.066666666666663
  0
LINE
  8
_1-8_小物
  6
CONTINUOUS
 62
    4
 10
-177.833333333334
 20
65.099999999999966
 11
-178.86666666666738
 21
64.066666666666663
  0
ENDBLK
  0
BLOCK
  2
-008-_7_
 70
   64
 10
0
 20
0
 30
0
  0
LINE
  8
_1-8_小物
  6
CONTINUOUS
 62
    4
 10
-78.197241666667821
 20
41.906724999996072
 11
-78.162351666668371
 21
41.240971666662773
  0
LINE
  8
_1-8_小物
  6
CONTINUOUS
 62
    4
 10
-78.24957833333491
 20
42.905354999996035
 11
-78.897885000001395
 21
42.537588333329381
  0
LINE
  8
_1-8_小物
  6
CONTINUOUS
 62
    4
 10
-78.897885000001395
 20
42.537588333329381
 11
-78.862995000001263
 21
41.871834999996082
  0
LINE
  8
_1-8_小物
  6
CONTINUOUS
 62
    4
 10
-78.862995000001263
 20
41.871834999996082
 11
-78.197241666667821
 21
41.906724999996072
  0
LINE
  8
_1-8_小物
  6
CONTINUOUS
 62
    4
 10
-78.284468333334814
 20
43.571108333329477
 11
-78.24957833333491
 21
42.905354999996035
  0
LINE
  8
_1-8_小物
  6
CONTINUOUS
 62
    4
 10
-78.336805000001448
 20
44.569736666662834
 11
-78.985111666668388
 21
44.201969999995868
  0
LINE
  8
_1-8_小物
  6
CONTINUOUS
 62
    4
 10
-78.985111666668388
 20
44.201969999995868
 11
-78.950221666668028
 21
43.536216666662796
  0
LINE
  8
_1-8_小物
  6
CONTINUOUS
 62
    4
 10
-78.950221666668028
 20
43.536216666662796
 11
-78.284468333334814
 21
43.571108333329477
  0
LINE
  8
_1-8_小物
  6
CONTINUOUS
 62
    4
 10
-78.37169500000158
 20
45.23548999999619
 11
-78.336805000001448
 21
44.569736666662834
  0
LINE
  8
_1-8_小物
  6
CONTINUOUS
 62
    4
 10
-78.424031666667986
 20
46.234119999995869
 11
-79.072338333334471
 21
45.866353333329499
  0
LINE
  8
_1-8_小物
  6
CONTINUOUS
 62
    4
 10
-79.072338333334471
 20
45.866353333329499
 11
-79.037448333335021
 21
45.200599999996143
  0
LINE
  8
_1-8_小物
  6
CONTINUOUS
 62
    4
 10
-79.037448333335021
 20
45.200599999996143
 11
-78.37169500000158
 21
45.23548999999619
  0
LINE
  8
_1-8_小物
  6
CONTINUOUS
 62
    4
 10
-78.458921666668118
 20
46.899873333329452
 11
-78.424031666667986
 21
46.234119999995869
  0
LINE
  8
_1-8_小物
  6
CONTINUOUS
 62
    4
 10
-78.511258333334752
 20
47.898503333329501
 11
-79.159565000001464
 21
47.530734999996071
  0
LINE
  8
_1-8_小物
  6
CONTINUOUS
 62
    4
 10
-79.159565000001464
 20
47.530734999996071
 11
-79.12467500000156
 21
46.864981666662771
  0
LINE
  8
_1-8_小物
  6
CONTINUOUS
 62
    4
 10
-79.12467500000156
 20
46.864981666662771
 11
-78.458921666668118
 21
46.899873333329452
  0
LINE
  8
_1-8_小物
  6
CONTINUOUS
 62
    4
 10
-78.546148333334656
 20
48.564254999996024
 11
-78.511258333334752
 21
47.898503333329501
  0
LINE
  8
_1-8_小物
  6
CONTINUOUS
 62
    4
 10
-79.24679166666823
 20
49.195118333329333
 11
-79.211901666668098
 21
48.529364999996034
  0
LINE
  8
_1-8_小物
  6
CONTINUOUS
 62
    4
 10
-79.211901666668098
 20
48.529364999996034
 11
-78.546148333334656
 21
48.564254999996024
  0
LINE
  8
_1-8_小物
  6
CONTINUOUS
 62
    4
 10
-78.66666666666805
 20
49.499999999996163
 11
-79.24679166666823
 21
49.195118333329333
  0
LINE
  8
_1-8_小物
  6
CONTINUOUS
 62
    4
 10
-81.802758333334793
 20
41.906724999996072
 11
-81.837648333334698
 21
41.240971666662773
  0
LINE
  8
_1-8_小物
  6
CONTINUOUS
 62
    4
 10
-81.75042166666816
 20
42.905354999996035
 11
-81.102115000001447
 21
42.537588333329381
  0
LINE
  8
_1-8_小物
  6
CONTINUOUS
 62
    4
 10
-81.102115000001447
 20
42.537588333329381
 11
-81.137005000001579
 21
41.871834999996082
  0
LINE
  8
_1-8_小物
  6
CONTINUOUS
 62
    4
 10
-81.137005000001579
 20
41.871834999996082
 11
-81.802758333334793
 21
41.906724999996072
  0
LINE
  8
_1-8_小物
  6
CONTINUOUS
 62
    4
 10
-81.7155316666678
 20
43.571108333329477
 11
-81.75042166666816
 21
42.905354999996035
  0
LINE
  8
_1-8_小物
  6
CONTINUOUS
 62
    4
 10
-81.663195000001622
 20
44.569736666662834
 11
-81.014888333334909
 21
44.201969999995868
  0
LINE
  8
_1-8_小物
  6
CONTINUOUS
 62
    4
 10
-81.014888333334909
 20
44.201969999995868
 11
-81.049778333334586
 21
43.536216666662796
  0
LINE
  8
_1-8_小物
  6
CONTINUOUS
 62
    4
 10
-81.049778333334586
 20
43.536216666662796
 11
-81.7155316666678
 21
43.571108333329477
  0
LINE
  8
_1-8_小物
  6
CONTINUOUS
 62
    4
 10
-81.628305000001717
 20
45.23548999999619
 11
-81.663195000001622
 21
44.569736666662834
  0
LINE
  8
_1-8_小物
  6
CONTINUOUS
 62
    4
 10
-81.575968333335084
 20
46.234119999995869
 11
-80.927661666668143
 21
45.866353333329499
  0
LINE
  8
_1-8_小物
  6
CONTINUOUS
 62
    4
 10
-80.927661666668143
 20
45.866353333329499
 11
-80.962551666668048
 21
45.200599999996143
  0
LINE
  8
_1-8_小物
  6
CONTINUOUS
 62
    4
 10
-80.962551666668048
 20
45.200599999996143
 11
-81.628305000001717
 21
45.23548999999619
  0
LINE
  8
_1-8_小物
  6
CONTINUOUS
 62
    4
 10
-81.541078333334724
 20
46.899873333329452
 11
-81.575968333335084
 21
46.234119999995869
  0
LINE
  8
_1-8_小物
  6
CONTINUOUS
 62
    4
 10
-81.488741666667863
 20
47.898503333329501
 11
-80.84043500000115
 21
47.530734999996071
  0
LINE
  8
_1-8_小物
  6
CONTINUOUS
 62
    4
 10
-80.84043500000115
 20
47.530734999996071
 11
-80.87532500000151
 21
46.864981666662771
  0
LINE
  8
_1-8_小物
  6
CONTINUOUS
 62
    4
 10
-80.87532500000151
 20
46.864981666662771
 11
-81.541078333334724
 21
46.899873333329452
  0
LINE
  8
_1-8_小物
  6
CONTINUOUS
 62
    4
 10
-81.453851666668186
 20
48.564254999996024
 11
-81.488741666667863
 21
47.898503333329501
  0
LINE
  8
_1-8_小物
  6
CONTINUOUS
 62
    4
 10
-80.753208333334612
 20
49.195118333329333
 11
-80.788098333334972
 21
48.529364999996034
  0
LINE
  8
_1-8_小物
  6
CONTINUOUS
 62
    4
 10
-80.788098333334972
 20
48.529364999996034
 11
-81.453851666668186
 21
48.564254999996024
  0
LINE
  8
_1-8_小物
  6
CONTINUOUS
 62
    4
 10
-80.019768333334639
 20
41.519768333329353
 11
-79.375201666668261
 21
42.091658333329434
  0
LINE
  8
_1-8_小物
  6
CONTINUOUS
 62
    4
 10
-80.623148333334882
 20
42.123146666662819
 11
-80.00000000000108
 21
41.499999999996021
  0
LINE
  8
_1-8_小物
  6
CONTINUOUS
 62
    4
 10
-81.333333333334565
 20
49.499999999996163
 11
-80.753208333334612
 21
49.195118333329333
  0
LINE
  8
_1-8_小物
  6
CONTINUOUS
 62
    4
 10
-78.458921666668118
 20
46.899873333329452
 11
-77.89380000000159
 21
48.452533333329285
  0
LINE
  8
_1-8_小物
  6
CONTINUOUS
 62
    4
 10
-78.813648333334584
 20
46.899873333329452
 11
-78.207030000001339
 21
48.566539999996053
  0
LINE
  8
_1-8_小物
  6
CONTINUOUS
 62
    4
 10
-81.541078333334724
 20
46.899873333329452
 11
-82.106200000001238
 21
48.452533333329285
  0
LINE
  8
_1-8_小物
  6
CONTINUOUS
 62
    4
 10
-81.186351666668259
 20
46.899873333329452
 11
-81.792970000001503
 21
48.566539999996053
  0
LINE
  8
_1-8_小物
  6
CONTINUOUS
 62
    4
 10
-79.327418333334833
 20
41.179913333329324
 11
-78.162351666668371
 21
41.240971666662773
  0
LINE
  8
_1-8_小物
  6
CONTINUOUS
 62
    4
 10
-78.162351666668371
 20
41.240971666662773
 11
-78.793213333334904
 21
40.540328333329512
  0
LINE
  8
_1-8_小物
  6
CONTINUOUS
 62
    4
 10
-78.793213333334904
 20
40.540328333329512
 11
-79.292528333334474
 21
40.514159999995968
  0
LINE
  8
_1-8_小物
  6
CONTINUOUS
 62
    4
 10
-79.292528333334474
 20
40.514159999995968
 11
-79.833333333334565
 21
50.833333333329279
  0
LINE
  8
_1-8_小物
  6
CONTINUOUS
 62
    4
 10
-78.66666666666805
 20
49.499999999996163
 11
-78.66666666666805
 21
50.833333333329279
  0
LINE
  8
_1-8_小物
  6
CONTINUOUS
 62
    4
 10
-80.672581666668236
 20
41.179913333329324
 11
-81.837648333334698
 21
41.240971666662773
  0
LINE
  8
_1-8_小物
  6
CONTINUOUS
 62
    4
 10
-81.837648333334698
 20
41.240971666662773
 11
-81.206786666668165
 21
40.540328333329512
  0
LINE
  8
_1-8_小物
  6
CONTINUOUS
 62
    4
 10
-81.206786666668165
 20
40.540328333329512
 11
-80.707471666668141
 21
40.514159999995968
  0
LINE
  8
_1-8_小物
  6
CONTINUOUS
 62
    4
 10
-80.707471666668141
 20
40.514159999995968
 11
-80.16666666666805
 21
50.833333333329279
  0
LINE
  8
_1-8_小物
  6
CONTINUOUS
 62
    4
 10
-81.333333333334565
 20
49.499999999996163
 11
-81.333333333334565
 21
50.833333333329279
  0
LINE
  8
_1-8_小物
  6
CONTINUOUS
 62
    4
 10
-82.106200000001238
 20
48.452533333329285
 11
-82.436985000001343
 21
50.720406666662967
  0
ARC
  8
_1-8_小物
  6
CONTINUOUS
 62
    4
 10
-82.305048333334682
 20
50.73965166666278
 40
0.1333333333333333
 50
98.130101999959862
 51
188.29846600001193
  0
LINE
  8
_1-8_小物
  6
CONTINUOUS
 62
    4
 10
-82.323905000001716
 20
50.871644999996107
 11
-82.258296666667931
 21
50.881016666662873
  0
ARC
  8
_1-8_小物
  6
CONTINUOUS
 62
    4
 10
-82.239440000001125
 20
50.749023333329461
 40
0.1333333333333333
 50
8.1301020000280779
 51
98.13010200022066
  0
LINE
  8
_1-8_小物
  6
CONTINUOUS
 62
    4
 10
-82.10744666666794
 20
50.76787999999604
 11
-81.792970000001503
 21
48.566539999996053
  0
LINE
  8
_1-8_小物
  6
CONTINUOUS
 62
    4
 10
-77.89380000000159
 20
48.452533333329285
 11
-77.563015000001485
 21
50.720406666662967
  0
ARC
  8
_1-8_小物
  6
CONTINUOUS
 62
    4
 10
-77.694951666668146
 20
50.73965166666278
 40
0.1333333333333333
 50
351.70153399996303
 51
81.869898000046192
  0
LINE
  8
_1-8_小物
  6
CONTINUOUS
 62
    4
 10
-77.676096666668116
 20
50.871644999996107
 11
-77.741703333334897
 21
50.881016666662873
  0
ARC
  8
_1-8_小物
  6
CONTINUOUS
 62
    4
 10
-77.760560000001249
 20
50.749023333329461
 40
0.1333333333333333
 50
81.869898000046192
 51
171.86989800000993
  0
LINE
  8
_1-8_小物
  6
CONTINUOUS
 62
    4
 10
-77.892553333334888
 20
50.76787999999604
 11
-78.207030000001339
 21
48.566539999996053
  0
LINE
  8
_1-8_小物
  6
CONTINUOUS
 62
    4
 10
-77.89380000000159
 20
48.452533333329285
 11
-77.563015000001485
 21
50.720406666662967
  0
ARC
  8
_1-8_小物
  6
CONTINUOUS
 62
    4
 10
-77.694951666668146
 20
50.73965166666278
 40
0.1333333333333333
 50
351.70153399996303
 51
81.869898000046192
  0
LINE
  8
_1-8_小物
  6
CONTINUOUS
 62
    4
 10
-77.676096666668116
 20
50.871644999996107
 11
-77.741703333334897
 21
50.881016666662873
  0
ARC
  8
_1-8_小物
  6
CONTINUOUS
 62
    4
 10
-77.760560000001249
 20
50.749023333329461
 40
0.1333333333333333
 50
81.869898000046192
 51
171.86989800000993
  0
LINE
  8
_1-8_小物
  6
CONTINUOUS
 62
    4
 10
-77.892553333334888
 20
50.76787999999604
 11
-78.207030000001339
 21
48.566539999996053
  0
LINE
  8
_1-8_小物
  6
CONTINUOUS
 62
    4
 10
-78.333333333334565
 20
53.499999999996163
 11
-78.66666666666805
 21
51.833333333329506
  0
LINE
  8
_1-8_小物
  6
CONTINUOUS
 62
    4
 10
-78.66666666666805
 20
53.499999999996163
 11
-78.66666666666805
 21
50.833333333329279
  0
LINE
  8
_1-8_小物
  6
CONTINUOUS
 62
    4
 10
-79.833333333334565
 20
50.833333333329279
 11
-80.00000000000108
 21
50.833333333329279
  0
LINE
  8
_1-8_小物
  6
CONTINUOUS
 62
    4
 10
-80.00000000000108
 20
51.833333333329506
 11
-80.00000000000108
 21
53.499999999996163
  0
LINE
  8
_1-8_小物
  6
CONTINUOUS
 62
    4
 10
-79.66666666666805
 20
53.499999999996163
 11
-80.00000000000108
 21
51.833333333329506
  0
LINE
  8
_1-8_小物
  6
CONTINUOUS
 62
    4
 10
-80.333333333334792
 20
53.499999999996163
 11
-80.00000000000108
 21
51.833333333329506
  0
LINE
  8
_1-8_小物
  6
CONTINUOUS
 62
    4
 10
-81.666666666667822
 20
53.499999999996163
 11
-81.333333333334565
 21
51.833333333329506
  0
LINE
  8
_1-8_小物
  6
CONTINUOUS
 62
    4
 10
-81.333333333334565
 20
53.499999999996163
 11
-81.333333333334565
 21
50.833333333329279
  0
LINE
  8
_1-8_小物
  6
CONTINUOUS
 62
    4
 10
-80.16666666666805
 20
50.833333333329279
 11
-80.00000000000108
 21
50.833333333329279
  0
LINE
  8
_1-8_小物
  6
CONTINUOUS
 62
    4
 10
-78.333333333334565
 20
53.499999999996163
 11
-81.666666666667822
 21
53.499999999996163
  0
ENDBLK
  0
BLOCK
  2
-009-_8_
 70
   64
 10
0
 20
0
 30
0
  0
LINE
  8
_1-8_小物
  6
CONTINUOUS
 62
    4
 10
-77.00000000000108
 20
57.16666666666282
 11
-83.000000000001521
 21
57.16666666666282
  0
LINE
  8
_1-8_小物
  6
CONTINUOUS
 62
    4
 10
-77.00000000000108
 20
56.66666666666282
 11
-83.000000000001521
 21
56.66666666666282
  0
LINE
  8
_1-8_小物
  6
CONTINUOUS
 62
    4
 10
-77.00000000000108
 20
57.16666666666282
 11
-77.00000000000108
 21
56.66666666666282
  0
LINE
  8
_1-8_小物
  6
CONTINUOUS
 62
    4
 10
-83.000000000001521
 20
57.16666666666282
 11
-83.000000000001521
 21
56.66666666666282
  0
LINE
  8
_1-8_小物
  6
CONTINUOUS
 62
    4
 10
-79.083333333334565
 20
57.16666666666282
 11
-79.083333333334565
 21
56.66666666666282
  0
LINE
  8
_1-8_小物
  6
CONTINUOUS
 62
    4
 10
-80.91666666666805
 20
57.16666666666282
 11
-80.91666666666805
 21
56.66666666666282
  0
LINE
  8
_1-8_小物
  6
CONTINUOUS
 62
    4
 10
-78.50000000000108
 20
57.16666666666282
 11
-78.536304261267958
 21
57.581626271662856
  0
LINE
  8
_1-8_小物
  6
CONTINUOUS
 62
    4
 10
-81.463695738768081
 20
57.581626271662856
 11
-81.50000000000108
 21
57.16666666666282
  0
ARC
  8
_1-8_小物
  6
CONTINUOUS
 62
    4
 10
-81.134951488368358
 20
57.552864876562751
 40
0.3299999999999999
 50
127.36755803205445
 51
175.00000000119914
  0
ARC
  8
_1-8_小物
  6
CONTINUOUS
 62
    4
 10
-78.865048511634711
 20
57.552864876562751
 40
0.3299999999999999
 50
4.999999998801286
 51
52.632441967949475
  0
ARC
  8
_1-8_小物
  6
CONTINUOUS
 62
    4
 10
-80.000000000001535
 20
56.066666666662798
 40
2.1999999999999997
 50
52.632441967704935
 51
68.266383543398447
  0
ARC
  8
_1-8_小物
  6
CONTINUOUS
 62
    4
 10
-80.000000000001535
 20
56.066666666662798
 40
2.1999999999999997
 50
111.74840859090331
 51
127.36755803230515
  0
LINE
  8
_1-8_小物
  6
CONTINUOUS
 62
    4
 10
-79.895000000001289
 20
58.25304237652955
 11
-79.895000000001289
 21
58.107770746529411
  0
LINE
  8
_1-8_小物
  6
CONTINUOUS
 62
    4
 10
-79.779237106034259
 20
58.25304237652955
 11
-79.895000000001289
 21
58.25304237652955
  0
LINE
  8
_1-8_小物
  6
CONTINUOUS
 62
    4
 10
-79.185832243834682
 20
58.107770746529411
 11
-79.779237106034259
 21
58.25304237652955
  0
LINE
  8
_1-8_小物
  6
CONTINUOUS
 62
    4
 10
-80.220762894001325
 20
58.25304237652955
 11
-80.654066316568048
 21
58.164563769396239
  0
LINE
  8
_1-8_小物
  6
CONTINUOUS
 62
    4
 10
-80.654066316568048
 20
58.164563769396239
 11
-80.814167756200902
 21
58.107770746529411
  0
LINE
  8
_1-8_小物
  6
CONTINUOUS
 62
    4
 10
-80.105000000001326
 20
58.25304237652955
 11
-80.220762894001325
 21
58.25304237652955
  0
LINE
  8
_1-8_小物
  6
CONTINUOUS
 62
    4
 10
-80.105000000001326
 20
58.107770746529411
 11
-80.105000000001326
 21
58.25304237652955
  0
LINE
  8
_1-8_小物
  6
CONTINUOUS
 62
    4
 10
-79.895000000001289
 20
58.107770746529411
 11
-80.000000000001535
 21
58.109472471329525
  0
LINE
  8
_1-8_小物
  6
CONTINUOUS
 62
    4
 10
-80.000000000001535
 20
58.109472471329525
 11
-80.105000000001326
 21
58.107770746529411
  0
LINE
  8
_1-8_小物
  6
CONTINUOUS
 62
    4
 10
-78.536304261267958
 20
57.581626271662856
 11
-81.463695738768081
 21
57.581626271662856
  0
LINE
  8
_1-8_小物
  6
CONTINUOUS
 62
    4
 10
-80.000000000001535
 20
57.815135148896218
 11
-81.335237045168185
 21
57.815135148896218
  0
LINE
  8
_1-8_小物
  6
CONTINUOUS
 62
    4
 10
-78.664762954867854
 20
57.815135148896218
 11
-80.000000000001535
 21
57.815135148896218
  0
ENDBLK
  0
BLOCK
  2
-010-_9_
 70
   64
 10
0
 20
0
 30
0
  0
LINE
  8
_1-8_小物
  6
CONTINUOUS
 62
    4
 10
-31.530575000001107
 20
41.906724999996072
 11
-31.495685000001572
 21
41.240971666662773
  0
LINE
  8
_1-8_小物
  6
CONTINUOUS
 62
    4
 10
-31.58291166666811
 20
42.905354999996035
 11
-32.231218333334681
 21
42.537588333329381
  0
LINE
  8
_1-8_小物
  6
CONTINUOUS
 62
    4
 10
-32.231218333334681
 20
42.537588333329381
 11
-32.196328333334549
 21
41.871834999996082
  0
LINE
  8
_1-8_小物
  6
CONTINUOUS
 62
    4
 10
-32.196328333334549
 20
41.871834999996082
 11
-31.530575000001107
 21
41.906724999996072
  0
LINE
  8
_1-8_小物
  6
CONTINUOUS
 62
    4
 10
-31.617801666668015
 20
43.571108333329477
 11
-31.58291166666811
 21
42.905354999996035
  0
LINE
  8
_1-8_小物
  6
CONTINUOUS
 62
    4
 10
-31.670138333334648
 20
44.569736666662834
 11
-32.318445000001589
 21
44.201969999995868
  0
LINE
  8
_1-8_小物
  6
CONTINUOUS
 62
    4
 10
-32.318445000001589
 20
44.201969999995868
 11
-32.283555000001314
 21
43.536216666662796
  0
LINE
  8
_1-8_小物
  6
CONTINUOUS
 62
    4
 10
-32.283555000001314
 20
43.536216666662796
 11
-31.617801666668015
 21
43.571108333329477
  0
LINE
  8
_1-8_小物
  6
CONTINUOUS
 62
    4
 10
-31.705028333334866
 20
45.23548999999619
 11
-31.670138333334648
 21
44.569736666662834
  0
LINE
  8
_1-8_小物
  6
CONTINUOUS
 62
    4
 10
-31.757365000001187
 20
46.234119999995869
 11
-32.405671666667757
 21
45.866353333329499
  0
LINE
  8
_1-8_小物
  6
CONTINUOUS
 62
    4
 10
-32.405671666667757
 20
45.866353333329499
 11
-32.370781666668222
 21
45.200599999996143
  0
LINE
  8
_1-8_小物
  6
CONTINUOUS
 62
    4
 10
-32.370781666668222
 20
45.200599999996143
 11
-31.705028333334866
 21
45.23548999999619
  0
LINE
  8
_1-8_小物
  6
CONTINUOUS
 62
    4
 10
-31.792255000001404
 20
46.899873333329452
 11
-31.757365000001187
 21
46.234119999995869
  0
LINE
  8
_1-8_小物
  6
CONTINUOUS
 62
    4
 10
-31.844591666668038
 20
47.898503333329501
 11
-32.492898333334665
 21
47.530734999996071
  0
LINE
  8
_1-8_小物
  6
CONTINUOUS
 62
    4
 10
-32.492898333334665
 20
47.530734999996071
 11
-32.45800833333476
 21
46.864981666662771
  0
LINE
  8
_1-8_小物
  6
CONTINUOUS
 62
    4
 10
-32.45800833333476
 20
46.864981666662771
 11
-31.792255000001404
 21
46.899873333329452
  0
LINE
  8
_1-8_小物
  6
CONTINUOUS
 62
    4
 10
-31.879481666667942
 20
48.564254999996024
 11
-31.844591666668038
 21
47.898503333329501
  0
LINE
  8
_1-8_小物
  6
CONTINUOUS
 62
    4
 10
-32.580125000001516
 20
49.195118333329333
 11
-32.545235000001298
 21
48.529364999996034
  0
LINE
  8
_1-8_小物
  6
CONTINUOUS
 62
    4
 10
-32.545235000001298
 20
48.529364999996034
 11
-31.879481666667942
 21
48.564254999996024
  0
LINE
  8
_1-8_小物
  6
CONTINUOUS
 62
    4
 10
-32.000000000001336
 20
49.499999999996163
 11
-32.580125000001516
 21
49.195118333329333
  0
LINE
  8
_1-8_小物
  6
CONTINUOUS
 62
    4
 10
-35.136091666667994
 20
41.906724999996072
 11
-35.170981666667899
 21
41.240971666662773
  0
LINE
  8
_1-8_小物
  6
CONTINUOUS
 62
    4
 10
-35.083755000001361
 20
42.905354999996035
 11
-34.435448333334733
 21
42.537588333329381
  0
LINE
  8
_1-8_小物
  6
CONTINUOUS
 62
    4
 10
-34.435448333334733
 20
42.537588333329381
 11
-34.470338333334865
 21
41.871834999996082
  0
LINE
  8
_1-8_小物
  6
CONTINUOUS
 62
    4
 10
-34.470338333334865
 20
41.871834999996082
 11
-35.136091666667994
 21
41.906724999996072
  0
LINE
  8
_1-8_小物
  6
CONTINUOUS
 62
    4
 10
-35.048865000001086
 20
43.571108333329477
 11
-35.083755000001361
 21
42.905354999996035
  0
LINE
  8
_1-8_小物
  6
CONTINUOUS
 62
    4
 10
-34.996528333334822
 20
44.569736666662834
 11
-34.348221666668195
 21
44.201969999995868
  0
LINE
  8
_1-8_小物
  6
CONTINUOUS
 62
    4
 10
-34.348221666668195
 20
44.201969999995868
 11
-34.383111666667787
 21
43.536216666662796
  0
LINE
  8
_1-8_小物
  6
CONTINUOUS
 62
    4
 10
-34.383111666667787
 20
43.536216666662796
 11
-35.048865000001086
 21
43.571108333329477
  0
LINE
  8
_1-8_小物
  6
CONTINUOUS
 62
    4
 10
-34.961638333334918
 20
45.23548999999619
 11
-34.996528333334822
 21
44.569736666662834
  0
LINE
  8
_1-8_小物
  6
CONTINUOUS
 62
    4
 10
-34.909301666668284
 20
46.234119999995869
 11
-34.260995000001344
 21
45.866353333329499
  0
LINE
  8
_1-8_小物
  6
CONTINUOUS
 62
    4
 10
-34.260995000001344
 20
45.866353333329499
 11
-34.295885000001249
 21
45.200599999996143
  0
LINE
  8
_1-8_小物
  6
CONTINUOUS
 62
    4
 10
-34.295885000001249
 20
45.200599999996143
 11
-34.961638333334918
 21
45.23548999999619
  0
LINE
  8
_1-8_小物
  6
CONTINUOUS
 62
    4
 10
-34.87441166666801
 20
46.899873333329452
 11
-34.909301666668284
 21
46.234119999995869
  0
LINE
  8
_1-8_小物
  6
CONTINUOUS
 62
    4
 10
-34.822075000001149
 20
47.898503333329501
 11
-34.173768333334436
 21
47.530734999996071
  0
LINE
  8
_1-8_小物
  6
CONTINUOUS
 62
    4
 10
-34.173768333334436
 20
47.530734999996071
 11
-34.208658333334711
 21
46.864981666662771
  0
LINE
  8
_1-8_小物
  6
CONTINUOUS
 62
    4
 10
-34.208658333334711
 20
46.864981666662771
 11
-34.87441166666801
 21
46.899873333329452
  0
LINE
  8
_1-8_小物
  6
CONTINUOUS
 62
    4
 10
-34.787185000001472
 20
48.564254999996024
 11
-34.822075000001149
 21
47.898503333329501
  0
LINE
  8
_1-8_小物
  6
CONTINUOUS
 62
    4
 10
-34.086541666667898
 20
49.195118333329333
 11
-34.121431666668173
 21
48.529364999996034
  0
LINE
  8
_1-8_小物
  6
CONTINUOUS
 62
    4
 10
-34.121431666668173
 20
48.529364999996034
 11
-34.787185000001472
 21
48.564254999996024
  0
LINE
  8
_1-8_小物
  6
CONTINUOUS
 62
    4
 10
-33.353101666667925
 20
41.519768333329353
 11
-32.708535000001461
 21
42.091658333329434
  0
LINE
  8
_1-8_小物
  6
CONTINUOUS
 62
    4
 10
-33.956481666668168
 20
42.123146666662819
 11
-33.333333333334366
 21
41.499999999996021
  0
LINE
  8
_1-8_小物
  6
CONTINUOUS
 62
    4
 10
-34.666666666667766
 20
49.499999999996163
 11
-34.086541666667898
 21
49.195118333329333
  0
LINE
  8
_1-8_小物
  6
CONTINUOUS
 62
    4
 10
-31.792255000001404
 20
46.899873333329452
 11
-31.227133333334876
 21
48.452533333329285
  0
LINE
  8
_1-8_小物
  6
CONTINUOUS
 62
    4
 10
-32.14698166666787
 20
46.899873333329452
 11
-31.540363333334625
 21
48.566539999996053
  0
LINE
  8
_1-8_小物
  6
CONTINUOUS
 62
    4
 10
-34.87441166666801
 20
46.899873333329452
 11
-35.439533333334538
 21
48.452533333329285
  0
LINE
  8
_1-8_小物
  6
CONTINUOUS
 62
    4
 10
-34.519685000001544
 20
46.899873333329452
 11
-35.126303333334789
 21
48.566539999996053
  0
LINE
  8
_1-8_小物
  6
CONTINUOUS
 62
    4
 10
-32.660751666668034
 20
41.179913333329324
 11
-31.495685000001572
 21
41.240971666662773
  0
LINE
  8
_1-8_小物
  6
CONTINUOUS
 62
    4
 10
-31.495685000001572
 20
41.240971666662773
 11
-32.126546666668105
 21
40.540328333329512
  0
LINE
  8
_1-8_小物
  6
CONTINUOUS
 62
    4
 10
-32.126546666668105
 20
40.540328333329512
 11
-32.62586166666776
 21
40.514159999995968
  0
LINE
  8
_1-8_小物
  6
CONTINUOUS
 62
    4
 10
-32.62586166666776
 20
40.514159999995968
 11
-33.166666666667766
 21
50.833333333329279
  0
LINE
  8
_1-8_小物
  6
CONTINUOUS
 62
    4
 10
-32.000000000001336
 20
49.499999999996163
 11
-32.000000000001336
 21
50.833333333329279
  0
LINE
  8
_1-8_小物
  6
CONTINUOUS
 62
    4
 10
-34.005915000001437
 20
41.179913333329324
 11
-35.170981666667899
 21
41.240971666662773
  0
LINE
  8
_1-8_小物
  6
CONTINUOUS
 62
    4
 10
-35.170981666667899
 20
41.240971666662773
 11
-34.540120000001366
 21
40.540328333329512
  0
LINE
  8
_1-8_小物
  6
CONTINUOUS
 62
    4
 10
-34.540120000001366
 20
40.540328333329512
 11
-34.040805000001342
 21
40.514159999995968
  0
LINE
  8
_1-8_小物
  6
CONTINUOUS
 62
    4
 10
-34.040805000001342
 20
40.514159999995968
 11
-33.500000000001336
 21
50.833333333329279
  0
LINE
  8
_1-8_小物
  6
CONTINUOUS
 62
    4
 10
-34.666666666667766
 20
49.499999999996163
 11
-34.666666666667766
 21
50.833333333329279
  0
LINE
  8
_1-8_小物
  6
CONTINUOUS
 62
    4
 10
-35.439533333334538
 20
48.452533333329285
 11
-35.770318333334643
 21
50.720406666662967
  0
ARC
  8
_1-8_小物
  6
CONTINUOUS
 62
    4
 10
-35.638381666667982
 20
50.73965166666278
 40
0.1333333333333333
 50
98.130101999953808
 51
188.29846600001105
  0
LINE
  8
_1-8_小物
  6
CONTINUOUS
 62
    4
 10
-35.657238333335016
 20
50.871644999996107
 11
-35.591630000001231
 21
50.881016666662873
  0
ARC
  8
_1-8_小物
  6
CONTINUOUS
 62
    4
 10
-35.572773333334425
 20
50.749023333329461
 40
0.1333333333333333
 50
8.1301020000280779
 51
98.130102000226714
  0
LINE
  8
_1-8_小物
  6
CONTINUOUS
 62
    4
 10
-35.44078000000124
 20
50.76787999999604
 11
-35.126303333334789
 21
48.566539999996053
  0
LINE
  8
_1-8_小物
  6
CONTINUOUS
 62
    4
 10
-31.227133333334876
 20
48.452533333329285
 11
-30.896348333334771
 21
50.720406666662967
  0
ARC
  8
_1-8_小物
  6
CONTINUOUS
 62
    4
 10
-31.028285000001432
 20
50.73965166666278
 40
0.1333333333333333
 50
351.70153399996479
 51
81.869898000046192
  0
LINE
  8
_1-8_小物
  6
CONTINUOUS
 62
    4
 10
-31.009430000001402
 20
50.871644999996107
 11
-31.075036666668183
 21
50.881016666662873
  0
ARC
  8
_1-8_小物
  6
CONTINUOUS
 62
    4
 10
-31.093893333334449
 20
50.749023333329461
 40
0.1333333333333333
 50
81.869898000046192
 51
171.86989800000819
  0
LINE
  8
_1-8_小物
  6
CONTINUOUS
 62
    4
 10
-31.225886666668174
 20
50.76787999999604
 11
-31.540363333334625
 21
48.566539999996053
  0
LINE
  8
_1-8_小物
  6
CONTINUOUS
 62
    4
 10
-31.227133333334876
 20
48.452533333329285
 11
-30.896348333334771
 21
50.720406666662967
  0
ARC
  8
_1-8_小物
  6
CONTINUOUS
 62
    4
 10
-31.028285000001432
 20
50.73965166666278
 40
0.1333333333333333
 50
351.70153399996479
 51
81.869898000046192
  0
LINE
  8
_1-8_小物
  6
CONTINUOUS
 62
    4
 10
-31.009430000001402
 20
50.871644999996107
 11
-31.075036666668183
 21
50.881016666662873
  0
ARC
  8
_1-8_小物
  6
CONTINUOUS
 62
    4
 10
-31.093893333334449
 20
50.749023333329461
 40
0.1333333333333333
 50
81.869898000046192
 51
171.86989800000819
  0
LINE
  8
_1-8_小物
  6
CONTINUOUS
 62
    4
 10
-31.225886666668174
 20
50.76787999999604
 11
-31.540363333334625
 21
48.566539999996053
  0
LINE
  8
_1-8_小物
  6
CONTINUOUS
 62
    4
 10
-31.666666666667766
 20
53.499999999996163
 11
-32.000000000001336
 21
51.833333333329506
  0
LINE
  8
_1-8_小物
  6
CONTINUOUS
 62
    4
 10
-32.000000000001336
 20
53.499999999996163
 11
-32.000000000001336
 21
50.833333333329279
  0
LINE
  8
_1-8_小物
  6
CONTINUOUS
 62
    4
 10
-33.166666666667766
 20
50.833333333329279
 11
-33.333333333334366
 21
50.833333333329279
  0
LINE
  8
_1-8_小物
  6
CONTINUOUS
 62
    4
 10
-33.333333333334366
 20
51.833333333329506
 11
-33.333333333334366
 21
53.499999999996163
  0
LINE
  8
_1-8_小物
  6
CONTINUOUS
 62
    4
 10
-33.000000000001336
 20
53.499999999996163
 11
-33.333333333334366
 21
51.833333333329506
  0
LINE
  8
_1-8_小物
  6
CONTINUOUS
 62
    4
 10
-33.666666666668078
 20
53.499999999996163
 11
-33.333333333334366
 21
51.833333333329506
  0
LINE
  8
_1-8_小物
  6
CONTINUOUS
 62
    4
 10
-35.000000000001108
 20
53.499999999996163
 11
-34.666666666667766
 21
51.833333333329506
  0
LINE
  8
_1-8_小物
  6
CONTINUOUS
 62
    4
 10
-34.666666666667766
 20
53.499999999996163
 11
-34.666666666667766
 21
50.833333333329279
  0
LINE
  8
_1-8_小物
  6
CONTINUOUS
 62
    4
 10
-33.500000000001336
 20
50.833333333329279
 11
-33.333333333334366
 21
50.833333333329279
  0
LINE
  8
_1-8_小物
  6
CONTINUOUS
 62
    4
 10
-31.666666666667766
 20
53.499999999996163
 11
-35.000000000001108
 21
53.499999999996163
  0
ENDBLK
  0
BLOCK
  2
-011-_10_
 70
   64
 10
0
 20
0
 30
0
  0
LINE
  8
_1-8_小物
  6
CONTINUOUS
 62
    4
 10
-30.333333333334366
 20
56.833333333329449
 11
-36.333333333334679
 21
56.833333333329449
  0
LINE
  8
_1-8_小物
  6
CONTINUOUS
 62
    4
 10
-30.333333333334366
 20
56.333333333329449
 11
-36.333333333334679
 21
56.333333333329449
  0
LINE
  8
_1-8_小物
  6
CONTINUOUS
 62
    4
 10
-30.333333333334366
 20
56.833333333329449
 11
-30.333333333334366
 21
56.333333333329449
  0
LINE
  8
_1-8_小物
  6
CONTINUOUS
 62
    4
 10
-36.333333333334679
 20
56.833333333329449
 11
-36.333333333334679
 21
56.333333333329449
  0
LINE
  8
_1-8_小物
  6
CONTINUOUS
 62
    4
 10
-32.416666666667709
 20
56.833333333329449
 11
-32.416666666667709
 21
56.333333333329449
  0
LINE
  8
_1-8_小物
  6
CONTINUOUS
 62
    4
 10
-34.250000000001336
 20
56.833333333329449
 11
-34.250000000001336
 21
56.333333333329449
  0
LINE
  8
_1-8_小物
  6
CONTINUOUS
 62
    4
 10
-31.833333333334366
 20
56.833333333329449
 11
-31.869637594601244
 21
57.248292938329485
  0
LINE
  8
_1-8_小物
  6
CONTINUOUS
 62
    4
 10
-34.797029072101225
 20
57.248292938329485
 11
-34.833333333334366
 21
56.833333333329449
  0
ARC
  8
_1-8_小物
  6
CONTINUOUS
 62
    4
 10
-34.468284821701502
 20
57.21953154322938
 40
0.3299999999999999
 50
127.36755803205052
 51
175.00000000119871
  0
ARC
  8
_1-8_小物
  6
CONTINUOUS
 62
    4
 10
-32.198381844967855
 20
57.21953154322938
 40
0.3299999999999999
 50
4.9999999988008561
 51
52.63244196794556
  0
ARC
  8
_1-8_小物
  6
CONTINUOUS
 62
    4
 10
-33.333333333334679
 20
55.733333333329426
 40
2.1999999999999997
 50
52.632441967704345
 51
68.266383543397751
  0
ARC
  8
_1-8_小物
  6
CONTINUOUS
 62
    4
 10
-33.333333333334679
 20
55.733333333329426
 40
2.1999999999999997
 50
111.74840859090261
 51
127.36755803230515
  0
LINE
  8
_1-8_小物
  6
CONTINUOUS
 62
    4
 10
-33.228333333334575
 20
57.919709043196178
 11
-33.228333333334575
 21
57.77443741319604
  0
LINE
  8
_1-8_小物
  6
CONTINUOUS
 62
    4
 10
-33.112570439367545
 20
57.919709043196178
 11
-33.228333333334575
 21
57.919709043196178
  0
LINE
  8
_1-8_小物
  6
CONTINUOUS
 62
    4
 10
-32.519165577167968
 20
57.77443741319604
 11
-33.112570439367545
 21
57.919709043196178
  0
LINE
  8
_1-8_小物
  6
CONTINUOUS
 62
    4
 10
-33.554096227334611
 20
57.919709043196178
 11
-33.987399649901334
 21
57.831230436062867
  0
LINE
  8
_1-8_小物
  6
CONTINUOUS
 62
    4
 10
-33.987399649901334
 20
57.831230436062867
 11
-34.147501089534188
 21
57.77443741319604
  0
LINE
  8
_1-8_小物
  6
CONTINUOUS
 62
    4
 10
-33.438333333334612
 20
57.919709043196178
 11
-33.554096227334611
 21
57.919709043196178
  0
LINE
  8
_1-8_小物
  6
CONTINUOUS
 62
    4
 10
-33.438333333334612
 20
57.77443741319604
 11
-33.438333333334612
 21
57.919709043196178
  0
LINE
  8
_1-8_小物
  6
CONTINUOUS
 62
    4
 10
-33.228333333334575
 20
57.77443741319604
 11
-33.333333333334679
 21
57.776139137996154
  0
LINE
  8
_1-8_小物
  6
CONTINUOUS
 62
    4
 10
-33.333333333334679
 20
57.776139137996154
 11
-33.438333333334612
 21
57.77443741319604
  0
LINE
  8
_1-8_小物
  6
CONTINUOUS
 62
    4
 10
-31.869637594601244
 20
57.248292938329485
 11
-34.797029072101225
 21
57.248292938329485
  0
LINE
  8
_1-8_小物
  6
CONTINUOUS
 62
    4
 10
-33.333333333334679
 20
57.481801815562847
 11
-34.668570378501329
 21
57.481801815562847
  0
LINE
  8
_1-8_小物
  6
CONTINUOUS
 62
    4
 10
-31.99809628820114
 20
57.481801815562847
 11
-33.333333333334679
 21
57.481801815562847
  0
ENDBLK
  0
BLOCK
  2
-012-HATCHING_1_
 70
   64
 10
0
 20
0
 30
0
  0
LINE
  8
_1-0_躯体
  6
CONTINUOUS
 62
    4
 10
-18.333333333334224
 20
53.946320556130132
 11
-18.779653889468193
 21
53.499999999996163
  0
LINE
  8
_1-0_躯体
  6
CONTINUOUS
 62
    4
 10
-18.333333333334224
 20
54.889129597712213
 11
-19.722462931050245
 21
53.499999999996163
  0
LINE
  8
_1-0_躯体
  6
CONTINUOUS
 62
    4
 10
-18.998605305965668
 20
55.16666666666282
 11
-20.665271972632326
 21
53.499999999996163
  0
LINE
  8
_1-0_躯体
  6
CONTINUOUS
 62
    4
 10
-19.94141434754772
 20
55.16666666666282
 11
-21.608081014214406
 21
53.499999999996163
  0
LINE
  8
_1-0_躯体
  6
CONTINUOUS
 62
    4
 10
-20.884223389129716
 20
55.16666666666282
 11
-22.550890055796401
 21
53.499999999996163
  0
LINE
  8
_1-0_躯体
  6
CONTINUOUS
 62
    4
 10
-21.827032430711796
 20
55.16666666666282
 11
-23.493699097378453
 21
53.499999999996163
  0
LINE
  8
_1-0_躯体
  6
CONTINUOUS
 62
    4
 10
-22.769841472293876
 20
55.16666666666282
 11
-24.436508138960534
 21
53.499999999996163
  0
LINE
  8
_1-0_躯体
  6
CONTINUOUS
 62
    4
 10
-23.712650513875928
 20
55.16666666666282
 11
-25.379317180542614
 21
53.499999999996163
  0
LINE
  8
_1-0_躯体
  6
CONTINUOUS
 62
    4
 10
-24.655459555458009
 20
55.16666666666282
 11
-26.322126222124666
 21
53.499999999996163
  0
LINE
  8
_1-0_躯体
  6
CONTINUOUS
 62
    4
 10
-25.598268597040089
 20
55.16666666666282
 11
-27.264935263706747
 21
53.499999999996163
  0
LINE
  8
_1-0_躯体
  6
CONTINUOUS
 62
    4
 10
-26.541077638622141
 20
55.16666666666282
 11
-28.207744305288827
 21
53.499999999996163
  0
LINE
  8
_1-0_躯体
  6
CONTINUOUS
 62
    4
 10
-27.483886680204222
 20
55.16666666666282
 11
-29.150553346870822
 21
53.499999999996163
  0
LINE
  8
_1-0_躯体
  6
CONTINUOUS
 62
    4
 10
-28.426695721786302
 20
55.16666666666282
 11
-30.09336238845296
 21
53.499999999996163
  0
LINE
  8
_1-0_躯体
  6
CONTINUOUS
 62
    4
 10
-29.369504763368354
 20
55.16666666666282
 11
-31.03617143003504
 21
53.499999999996163
  0
LINE
  8
_1-0_躯体
  6
CONTINUOUS
 62
    4
 10
-30.31231380495035
 20
55.16666666666282
 11
-31.978980471617035
 21
53.499999999996163
  0
LINE
  8
_1-0_躯体
  6
CONTINUOUS
 62
    4
 10
-31.25512284653243
 20
55.16666666666282
 11
-32.921789513199087
 21
53.499999999996163
  0
LINE
  8
_1-0_躯体
  6
CONTINUOUS
 62
    4
 10
-32.19793188811451
 20
55.16666666666282
 11
-33.864598554781168
 21
53.499999999996163
  0
LINE
  8
_1-0_躯体
  6
CONTINUOUS
 62
    4
 10
-33.140740929696562
 20
55.16666666666282
 11
-34.807407596363248
 21
53.499999999996163
  0
LINE
  8
_1-0_躯体
  6
CONTINUOUS
 62
    4
 10
-34.083549971278643
 20
55.16666666666282
 11
-35.7502166379453
 21
53.499999999996163
  0
LINE
  8
_1-0_躯体
  6
CONTINUOUS
 62
    4
 10
-35.026359012860723
 20
55.16666666666282
 11
-36.693025679527381
 21
53.499999999996163
  0
LINE
  8
_1-0_躯体
  6
CONTINUOUS
 62
    4
 10
-35.969168054442775
 20
55.16666666666282
 11
-37.635834721109461
 21
53.499999999996163
  0
LINE
  8
_1-0_躯体
  6
CONTINUOUS
 62
    4
 10
-36.911977096024856
 20
55.16666666666282
 11
-38.578643762691513
 21
53.499999999996163
  0
LINE
  8
_1-0_躯体
  6
CONTINUOUS
 62
    4
 10
-37.854786137606936
 20
55.16666666666282
 11
-39.521452804273594
 21
53.499999999996163
  0
LINE
  8
_1-0_躯体
  6
CONTINUOUS
 62
    4
 10
-38.797595179188932
 20
55.16666666666282
 11
-40.464261845855589
 21
53.499999999996163
  0
LINE
  8
_1-0_躯体
  6
CONTINUOUS
 62
    4
 10
-39.740404220771069
 20
55.16666666666282
 11
-41.407070887437726
 21
53.499999999996163
  0
LINE
  8
_1-0_躯体
  6
CONTINUOUS
 62
    4
 10
-40.683213262353064
 20
55.16666666666282
 11
-42.349879929019721
 21
53.499999999996163
  0
LINE
  8
_1-0_躯体
  6
CONTINUOUS
 62
    4
 10
-41.626022303935144
 20
55.16666666666282
 11
-43.292688970601802
 21
53.499999999996163
  0
LINE
  8
_1-0_躯体
  6
CONTINUOUS
 62
    4
 10
-42.568831345517196
 20
55.16666666666282
 11
-44.235498012183882
 21
53.499999999996163
  0
LINE
  8
_1-0_躯体
  6
CONTINUOUS
 62
    4
 10
-43.511640387099277
 20
55.16666666666282
 11
-45.178307053765934
 21
53.499999999996163
  0
LINE
  8
_1-0_躯体
  6
CONTINUOUS
 62
    4
 10
-44.454449428681357
 20
55.16666666666282
 11
-46.121116095348015
 21
53.499999999996163
  0
LINE
  8
_1-0_躯体
  6
CONTINUOUS
 62
    4
 10
-45.397258470263409
 20
55.16666666666282
 11
-47.06392513693001
 21
53.499999999996163
  0
LINE
  8
_1-0_躯体
  6
CONTINUOUS
 62
    4
 10
-46.34006751184549
 20
55.16666666666282
 11
-48.006734178512147
 21
53.499999999996163
  0
LINE
  8
_1-0_躯体
  6
CONTINUOUS
 62
    4
 10
-47.28287655342757
 20
55.16666666666282
 11
-48.949543220094228
 21
53.499999999996163
  0
LINE
  8
_1-0_躯体
  6
CONTINUOUS
 62
    4
 10
-48.225685595009566
 20
55.16666666666282
 11
-49.892352261676223
 21
53.499999999996163
  0
LINE
  8
_1-0_躯体
  6
CONTINUOUS
 62
    4
 10
-49.168494636591618
 20
55.16666666666282
 11
-50.835161303258303
 21
53.499999999996163
  0
LINE
  8
_1-0_躯体
  6
CONTINUOUS
 62
    4
 10
-50.111303678173698
 20
55.16666666666282
 11
-51.777970344840355
 21
53.499999999996163
  0
LINE
  8
_1-0_躯体
  6
CONTINUOUS
 62
    4
 10
-51.054112719755778
 20
55.16666666666282
 11
-52.720779386422436
 21
53.499999999996163
  0
LINE
  8
_1-0_躯体
  6
CONTINUOUS
 62
    4
 10
-51.996921761337831
 20
55.16666666666282
 11
-53.663588428004516
 21
53.499999999996163
  0
LINE
  8
_1-0_躯体
  6
CONTINUOUS
 62
    4
 10
-52.939730802919911
 20
55.16666666666282
 11
-54.606397469586568
 21
53.499999999996163
  0
LINE
  8
_1-0_躯体
  6
CONTINUOUS
 62
    4
 10
-53.882539844501991
 20
55.16666666666282
 11
-55.549206511168677
 21
53.499999999996163
  0
LINE
  8
_1-0_躯体
  6
CONTINUOUS
 62
    4
 10
-54.825348886084043
 20
55.16666666666282
 11
-56.492015552750672
 21
53.499999999996163
  0
LINE
  8
_1-0_躯体
  6
CONTINUOUS
 62
    4
 10
-55.768157927666095
 20
55.16666666666282
 11
-57.434824594332781
 21
53.499999999996163
  0
LINE
  8
_1-0_躯体
  6
CONTINUOUS
 62
    4
 10
-56.710966969248148
 20
55.16666666666282
 11
-58.377633635914833
 21
53.499999999996163
  0
LINE
  8
_1-0_躯体
  6
CONTINUOUS
 62
    4
 10
-57.653776010830256
 20
55.16666666666282
 11
-59.320442677496885
 21
53.499999999996163
  0
LINE
  8
_1-0_躯体
  6
CONTINUOUS
 62
    4
 10
-58.596585052412252
 20
55.16666666666282
 11
-60.263251719078937
 21
53.499999999996163
  0
LINE
  8
_1-0_躯体
  6
CONTINUOUS
 62
    4
 10
-59.53939409399436
 20
55.16666666666282
 11
-61.206060760661046
 21
53.499999999996163
  0
LINE
  8
_1-0_躯体
  6
CONTINUOUS
 62
    4
 10
-60.482203135576412
 20
55.16666666666282
 11
-62.148869802243098
 21
53.499999999996163
  0
LINE
  8
_1-0_躯体
  6
CONTINUOUS
 62
    4
 10
-61.425012177158465
 20
55.16666666666282
 11
-63.091678843825093
 21
53.499999999996163
  0
LINE
  8
_1-0_躯体
  6
CONTINUOUS
 62
    4
 10
-62.367821218740517
 20
55.16666666666282
 11
-64.034487885407202
 21
53.499999999996163
  0
LINE
  8
_1-0_躯体
  6
CONTINUOUS
 62
    4
 10
-63.310630260322569
 20
55.16666666666282
 11
-64.977296926989311
 21
53.499999999996163
  0
LINE
  8
_1-0_躯体
  6
CONTINUOUS
 62
    4
 10
-64.253439301904677
 20
55.16666666666282
 11
-65.920105968571306
 21
53.499999999996163
  0
LINE
  8
_1-0_躯体
  6
CONTINUOUS
 62
    4
 10
-65.196248343486729
 20
55.16666666666282
 11
-66.862915010153415
 21
53.499999999996163
  0
LINE
  8
_1-0_躯体
  6
CONTINUOUS
 62
    4
 10
-66.139057385068838
 20
55.16666666666282
 11
-67.805724051735524
 21
53.499999999996163
  0
LINE
  8
_1-0_躯体
  6
CONTINUOUS
 62
    4
 10
-67.08186642665089
 20
55.16666666666282
 11
-68.748533093317519
 21
53.499999999996163
  0
LINE
  8
_1-0_躯体
  6
CONTINUOUS
 62
    4
 10
-68.024675468232886
 20
55.16666666666282
 11
-69.691342134899571
 21
53.499999999996163
  0
LINE
  8
_1-0_躯体
  6
CONTINUOUS
 62
    4
 10
-68.967484509814994
 20
55.16666666666282
 11
-70.634151176481623
 21
53.499999999996163
  0
LINE
  8
_1-0_躯体
  6
CONTINUOUS
 62
    4
 10
-69.910293551397046
 20
55.16666666666282
 11
-71.576960218063732
 21
53.499999999996163
  0
LINE
  8
_1-0_躯体
  6
CONTINUOUS
 62
    4
 10
-70.853102592979099
 20
55.16666666666282
 11
-72.519769259645784
 21
53.499999999996163
  0
LINE
  8
_1-0_躯体
  6
CONTINUOUS
 62
    4
 10
-71.795911634561207
 20
55.16666666666282
 11
-73.462578301227893
 21
53.499999999996163
  0
LINE
  8
_1-0_躯体
  6
CONTINUOUS
 62
    4
 10
-72.738720676143259
 20
55.16666666666282
 11
-74.405387342809945
 21
53.499999999996163
  0
LINE
  8
_1-0_躯体
  6
CONTINUOUS
 62
    4
 10
-73.681529717725311
 20
55.16666666666282
 11
-75.34819638439194
 21
53.499999999996163
  0
LINE
  8
_1-0_躯体
  6
CONTINUOUS
 62
    4
 10
-74.624338759307363
 20
55.16666666666282
 11
-76.291005425974049
 21
53.499999999996163
  0
LINE
  8
_1-0_躯体
  6
CONTINUOUS
 62
    4
 10
-75.567147800889472
 20
55.16666666666282
 11
-77.233814467556158
 21
53.499999999996163
  0
LINE
  8
_1-0_躯体
  6
CONTINUOUS
 62
    4
 10
-76.509956842471524
 20
55.16666666666282
 11
-78.176623509138153
 21
53.499999999996163
  0
LINE
  8
_1-0_躯体
  6
CONTINUOUS
 62
    4
 10
-77.452765884053576
 20
55.16666666666282
 11
-79.119432550720262
 21
53.499999999996163
  0
LINE
  8
_1-0_躯体
  6
CONTINUOUS
 62
    4
 10
-78.395574925635685
 20
55.16666666666282
 11
-80.062241592302371
 21
53.499999999996163
  0
LINE
  8
_1-0_躯体
  6
CONTINUOUS
 62
    4
 10
-79.33838396721768
 20
55.16666666666282
 11
-81.005050633884366
 21
53.499999999996163
  0
LINE
  8
_1-0_躯体
  6
CONTINUOUS
 62
    4
 10
-80.281193008799733
 20
55.16666666666282
 11
-81.947859675466361
 21
53.499999999996163
  0
LINE
  8
_1-0_躯体
  6
CONTINUOUS
 62
    4
 10
-81.224002050381785
 20
55.16666666666282
 11
-82.89066871704847
 21
53.499999999996163
  0
LINE
  8
_1-0_躯体
  6
CONTINUOUS
 62
    4
 10
-82.166811091963879
 20
55.16666666666282
 11
-83.833477758630579
 21
53.499999999996163
  0
LINE
  8
_1-0_躯体
  6
CONTINUOUS
 62
    4
 10
-83.109620133545945
 20
55.16666666666282
 11
-84.776286800212574
 21
53.499999999996163
  0
LINE
  8
_1-0_躯体
  6
CONTINUOUS
 62
    4
 10
-84.052429175127983
 20
55.16666666666282
 11
-85.719095841794683
 21
53.499999999996163
  0
LINE
  8
_1-0_躯体
  6
CONTINUOUS
 62
    4
 10
-84.995238216710092
 20
55.16666666666282
 11
-86.661904883376792
 21
53.499999999996163
  0
LINE
  8
_1-0_躯体
  6
CONTINUOUS
 62
    4
 10
-85.938047258292158
 20
55.16666666666282
 11
-87.604713924958787
 21
53.499999999996163
  0
LINE
  8
_1-0_躯体
  6
CONTINUOUS
 62
    4
 10
-86.880856299874196
 20
55.16666666666282
 11
-88.547522966540896
 21
53.499999999996163
  0
LINE
  8
_1-0_躯体
  6
CONTINUOUS
 62
    4
 10
-87.823665341456262
 20
55.16666666666282
 11
-89.490332008122934
 21
53.499999999996163
  0
LINE
  8
_1-0_躯体
  6
CONTINUOUS
 62
    4
 10
-88.7664743830383
 20
55.16666666666282
 11
-90.433141049705
 21
53.499999999996163
  0
LINE
  8
_1-0_躯体
  6
CONTINUOUS
 62
    4
 10
-89.709283424620367
 20
55.16666666666282
 11
-91.375950091287038
 21
53.499999999996163
  0
LINE
  8
_1-0_躯体
  6
CONTINUOUS
 62
    4
 10
-90.652092466202475
 20
55.16666666666282
 11
-91.666666666667922
 21
54.152092466197388
  0
LINE
  8
_1-0_躯体
  6
CONTINUOUS
 62
    4
 10
-91.594901507784513
 20
55.16666666666282
 11
-91.666666666667922
 21
55.094901507779412
  0
ENDBLK
  0
BLOCK
  2
-013-_11_
 70
   64
 10
0
 20
0
 30
0
  0
LINE
  8
_1-8_小物
  6
CONTINUOUS
 62
    4
 10
-98.833333333334096
 20
62.099999333329635
 11
-98.833333333334096
 21
60.433333333329557
  0
LINE
  8
_1-8_小物
  6
CONTINUOUS
 62
    4
 10
-98.833333333334096
 20
60.433333333329557
 11
-98.333333333334323
 21
60.433333333329557
  0
LINE
  8
_1-8_小物
  6
CONTINUOUS
 62
    4
 10
-97.33333333333421
 20
60.433333333329557
 11
-96.83333333333421
 21
60.433333333329557
  0
LINE
  8
_1-8_小物
  6
CONTINUOUS
 62
    4
 10
-96.83333333333421
 20
60.433333333329557
 11
-96.83333333333421
 21
62.099999333329635
  0
ARC
  8
_1-8_小物
  6
CONTINUOUS
 62
    4
 10
-97.833333333334323
 20
62.099999333329635
 40
0.566667
 50
0
 51
180
  0
ARC
  8
_1-8_小物
  6
CONTINUOUS
 62
    4
 10
-97.833333333334323
 20
62.099999333329635
 40
1
 50
0
 51
180
  0
LINE
  8
_1-8_小物
  6
CONTINUOUS
 62
    4
 10
-97.333335333334091
 20
61.099999333329549
 11
-97.414616333334308
 21
61.099999333329549
  0
ARC
  8
_1-8_小物
  6
CONTINUOUS
 62
    4
 10
-97.414616333334308
 20
61.033333333329608
 40
0.066667
 50
90
 51
194.03640200001951
  0
LINE
  8
_1-8_小物
  6
CONTINUOUS
 62
    4
 10
-97.33333333333421
 20
60.433333333329557
 11
-97.479292333334271
 21
61.017164333329617
  0
LINE
  8
_1-8_小物
  6
CONTINUOUS
 62
    4
 10
-98.333333333334323
 20
61.099999333329549
 11
-98.252051333334336
 21
61.099999333329549
  0
ARC
  8
_1-8_小物
  6
CONTINUOUS
 62
    4
 10
-98.252051333334336
 20
61.033333333329608
 40
0.066667
 50
345.96380800000878
 51
90
  0
LINE
  8
_1-8_小物
  6
CONTINUOUS
 62
    4
 10
-98.333332333334326
 20
60.433333333329557
 11
-98.187375333334032
 21
61.017164333329617
  0
LINE
  8
_1-8_小物
  6
CONTINUOUS
 62
    4
 10
-97.333335333334091
 20
61.099999333329549
 11
-97.26666833333438
 21
61.099999333329549
  0
LINE
  8
_1-8_小物
  6
CONTINUOUS
 62
    4
 10
-97.26666833333438
 20
61.099999333329549
 11
-97.266666333334271
 21
62.099999333329635
  0
LINE
  8
_1-8_小物
  6
CONTINUOUS
 62
    4
 10
-98.333332333334326
 20
61.099999333329549
 11
-98.400000333334262
 21
61.099999333329549
  0
LINE
  8
_1-8_小物
  6
CONTINUOUS
 62
    4
 10
-98.400000333334262
 20
61.099999333329549
 11
-98.400000333334262
 21
62.099999333329635
  0
ENDBLK
  0
BLOCK
  2
-014-_12_
 70
   64
 10
0
 20
0
 30
0
  0
LINE
  8
_1-7_カバ__
  6
CENTER2
 62
    4
 10
-25.500000000000881
 20
66.833333333329506
 11
-25.500000000000881
 21
62.499999999996248
  0
LINE
  8
_1-7_カバ__
  6
CONTINUOUS
 62
    4
 10
-97.83333333333421
 20
65.166666666662792
 11
-98.333333333334508
 21
64.666666666662792
  0
LINE
  8
_1-7_カバ__
  6
CONTINUOUS
 62
    4
 10
-95.000000000000725
 20
65.166666666662792
 11
-97.83333333333421
 21
65.166666666662792
  0
LINE
  8
_1-7_カバ__
  6
CONTINUOUS
 62
    4
 10
-94.000000000000909
 20
65.066666666662854
 11
-95.000000000000725
 21
65.066666666662854
  0
LINE
  8
_1-7_カバ__
  6
CONTINUOUS
 62
    4
 10
-93.000000000000725
 20
65.166666666662792
 11
-94.000000000000909
 21
65.166666666662792
  0
LINE
  8
_1-7_カバ__
  6
CONTINUOUS
 62
    4
 10
-90.000000000000725
 20
65.066666666662854
 11
-91.000000000000909
 21
65.066666666662854
  0
LINE
  8
_1-7_カバ__
  6
CONTINUOUS
 62
    4
 10
-92.000000000000725
 20
65.066666666662854
 11
-93.000000000000725
 21
65.066666666662854
  0
LINE
  8
_1-7_カバ__
  6
CONTINUOUS
 62
    4
 10
-91.000000000000909
 20
65.166666666662792
 11
-92.000000000000725
 21
65.166666666662792
  0
LINE
  8
_1-7_カバ__
  6
CONTINUOUS
 62
    4
 10
-95.000000000000725
 20
65.066666666662854
 11
-95.000000000000725
 21
65.166666666662792
  0
LINE
  8
_1-7_カバ__
  6
CONTINUOUS
 62
    4
 10
-94.000000000000909
 20
65.066666666662854
 11
-94.000000000000909
 21
65.166666666662792
  0
LINE
  8
_1-7_カバ__
  6
CONTINUOUS
 62
    4
 10
-93.000000000000725
 20
65.066666666662854
 11
-93.000000000000725
 21
65.166666666662792
  0
LINE
  8
_1-7_カバ__
  6
CONTINUOUS
 62
    4
 10
-92.000000000000725
 20
65.066666666662854
 11
-92.000000000000725
 21
65.166666666662792
  0
LINE
  8
_1-7_カバ__
  6
CONTINUOUS
 62
    4
 10
-91.000000000000909
 20
65.066666666662854
 11
-91.000000000000909
 21
65.166666666662792
  0
LINE
  8
_1-7_カバ__
  6
CONTINUOUS
 62
    4
 10
-89.000000000000909
 20
65.166666666662792
 11
-90.000000000000725
 21
65.166666666662792
  0
LINE
  8
_1-7_カバ__
  6
CONTINUOUS
 62
    4
 10
-86.000000000000909
 20
65.066666666662854
 11
-87.000000000000725
 21
65.066666666662854
  0
LINE
  8
_1-7_カバ__
  6
CONTINUOUS
 62
    4
 10
-88.000000000000725
 20
65.066666666662854
 11
-89.000000000000909
 21
65.066666666662854
  0
LINE
  8
_1-7_カバ__
  6
CONTINUOUS
 62
    4
 10
-87.000000000000725
 20
65.166666666662792
 11
-88.000000000000725
 21
65.166666666662792
  0
LINE
  8
_1-7_カバ__
  6
CONTINUOUS
 62
    4
 10
-90.000000000000725
 20
65.066666666662854
 11
-90.000000000000725
 21
65.166666666662792
  0
LINE
  8
_1-7_カバ__
  6
CONTINUOUS
 62
    4
 10
-89.000000000000909
 20
65.066666666662854
 11
-89.000000000000909
 21
65.166666666662792
  0
LINE
  8
_1-7_カバ__
  6
CONTINUOUS
 62
    4
 10
-88.000000000000725
 20
65.066666666662854
 11
-88.000000000000725
 21
65.166666666662792
  0
LINE
  8
_1-7_カバ__
  6
CONTINUOUS
 62
    4
 10
-87.000000000000725
 20
65.066666666662854
 11
-87.000000000000725
 21
65.166666666662792
  0
LINE
  8
_1-7_カバ__
  6
CONTINUOUS
 62
    4
 10
-85.000000000000725
 20
65.166666666662792
 11
-86.000000000000909
 21
65.166666666662792
  0
LINE
  8
_1-7_カバ__
  6
CONTINUOUS
 62
    4
 10
-82.000000000000725
 20
65.066666666662854
 11
-83.000000000000725
 21
65.066666666662854
  0
LINE
  8
_1-7_カバ__
  6
CONTINUOUS
 62
    4
 10
-84.000000000000909
 20
65.066666666662854
 11
-85.000000000000725
 21
65.066666666662854
  0
LINE
  8
_1-7_カバ__
  6
CONTINUOUS
 62
    4
 10
-83.000000000000725
 20
65.166666666662792
 11
-84.000000000000909
 21
65.166666666662792
  0
LINE
  8
_1-7_カバ__
  6
CONTINUOUS
 62
    4
 10
-86.000000000000909
 20
65.066666666662854
 11
-86.000000000000909
 21
65.166666666662792
  0
LINE
  8
_1-7_カバ__
  6
CONTINUOUS
 62
    4
 10
-85.000000000000725
 20
65.066666666662854
 11
-85.000000000000725
 21
65.166666666662792
  0
LINE
  8
_1-7_カバ__
  6
CONTINUOUS
 62
    4
 10
-84.000000000000909
 20
65.066666666662854
 11
-84.000000000000909
 21
65.166666666662792
  0
LINE
  8
_1-7_カバ__
  6
CONTINUOUS
 62
    4
 10
-83.000000000000725
 20
65.066666666662854
 11
-83.000000000000725
 21
65.166666666662792
  0
LINE
  8
_1-7_カバ__
  6
CONTINUOUS
 62
    4
 10
-81.000000000000909
 20
65.166666666662792
 11
-82.000000000000725
 21
65.166666666662792
  0
LINE
  8
_1-7_カバ__
  6
CONTINUOUS
 62
    4
 10
-80.000000000000739
 20
65.066666666662854
 11
-81.000000000000909
 21
65.066666666662854
  0
LINE
  8
_1-7_カバ__
  6
CONTINUOUS
 62
    4
 10
-82.000000000000725
 20
65.066666666662854
 11
-82.000000000000725
 21
65.166666666662792
  0
LINE
  8
_1-7_カバ__
  6
CONTINUOUS
 62
    4
 10
-81.000000000000909
 20
65.066666666662854
 11
-81.000000000000909
 21
65.166666666662792
  0
LINE
  8
_1-7_カバ__
  6
CONTINUOUS
 62
    4
 10
-80.000000000000739
 20
65.066666666662854
 11
-80.000000000000739
 21
65.166666666662792
  0
LINE
  8
_1-7_カバ__
  6
CONTINUOUS
 62
    4
 10
-78.000000000000739
 20
65.066666666662854
 11
-79.000000000000568
 21
65.066666666662854
  0
LINE
  8
_1-7_カバ__
  6
CONTINUOUS
 62
    4
 10
-79.000000000000568
 20
65.166666666662792
 11
-80.000000000000739
 21
65.166666666662792
  0
LINE
  8
_1-7_カバ__
  6
CONTINUOUS
 62
    4
 10
-79.000000000000568
 20
65.066666666662854
 11
-79.000000000000568
 21
65.166666666662792
  0
LINE
  8
_1-7_カバ__
  6
CONTINUOUS
 62
    4
 10
-77.000000000000739
 20
65.166666666662792
 11
-78.000000000000739
 21
65.166666666662792
  0
LINE
  8
_1-7_カバ__
  6
CONTINUOUS
 62
    4
 10
-74.000000000000568
 20
65.066666666662854
 11
-75.000000000000739
 21
65.066666666662854
  0
LINE
  8
_1-7_カバ__
  6
CONTINUOUS
 62
    4
 10
-76.000000000000909
 20
65.066666666662854
 11
-77.000000000000739
 21
65.066666666662854
  0
LINE
  8
_1-7_カバ__
  6
CONTINUOUS
 62
    4
 10
-75.000000000000739
 20
65.166666666662792
 11
-76.000000000000909
 21
65.166666666662792
  0
LINE
  8
_1-7_カバ__
  6
CONTINUOUS
 62
    4
 10
-78.000000000000739
 20
65.066666666662854
 11
-78.000000000000739
 21
65.166666666662792
  0
LINE
  8
_1-7_カバ__
  6
CONTINUOUS
 62
    4
 10
-77.000000000000739
 20
65.066666666662854
 11
-77.000000000000739
 21
65.166666666662792
  0
LINE
  8
_1-7_カバ__
  6
CONTINUOUS
 62
    4
 10
-76.000000000000909
 20
65.066666666662854
 11
-76.000000000000909
 21
65.166666666662792
  0
LINE
  8
_1-7_カバ__
  6
CONTINUOUS
 62
    4
 10
-75.000000000000739
 20
65.066666666662854
 11
-75.000000000000739
 21
65.166666666662792
  0
LINE
  8
_1-7_カバ__
  6
CONTINUOUS
 62
    4
 10
-73.000000000000739
 20
65.166666666662792
 11
-74.000000000000568
 21
65.166666666662792
  0
LINE
  8
_1-7_カバ__
  6
CONTINUOUS
 62
    4
 10
-72.000000000000739
 20
65.066666666662854
 11
-73.000000000000739
 21
65.066666666662854
  0
LINE
  8
_1-7_カバ__
  6
CONTINUOUS
 62
    4
 10
-74.000000000000568
 20
65.066666666662854
 11
-74.000000000000568
 21
65.166666666662792
  0
LINE
  8
_1-7_カバ__
  6
CONTINUOUS
 62
    4
 10
-73.000000000000739
 20
65.066666666662854
 11
-73.000000000000739
 21
65.166666666662792
  0
LINE
  8
_1-7_カバ__
  6
CONTINUOUS
 62
    4
 10
-72.000000000000739
 20
65.066666666662854
 11
-72.000000000000739
 21
65.166666666662792
  0
LINE
  8
_1-7_カバ__
  6
CONTINUOUS
 62
    4
 10
-70.000000000000796
 20
65.066666666662854
 11
-71.000000000000568
 21
65.066666666662854
  0
LINE
  8
_1-7_カバ__
  6
CONTINUOUS
 62
    4
 10
-71.000000000000568
 20
65.166666666662792
 11
-72.000000000000739
 21
65.166666666662792
  0
LINE
  8
_1-7_カバ__
  6
CONTINUOUS
 62
    4
 10
-71.000000000000568
 20
65.066666666662854
 11
-71.000000000000568
 21
65.166666666662792
  0
LINE
  8
_1-7_カバ__
  6
CONTINUOUS
 62
    4
 10
-69.000000000000568
 20
65.166666666662792
 11
-70.000000000000796
 21
65.166666666662792
  0
LINE
  8
_1-7_カバ__
  6
CONTINUOUS
 62
    4
 10
-68.000000000000739
 20
65.066666666662854
 11
-69.000000000000568
 21
65.066666666662854
  0
LINE
  8
_1-7_カバ__
  6
CONTINUOUS
 62
    4
 10
-70.000000000000796
 20
65.066666666662854
 11
-70.000000000000796
 21
65.166666666662792
  0
LINE
  8
_1-7_カバ__
  6
CONTINUOUS
 62
    4
 10
-69.000000000000568
 20
65.066666666662854
 11
-69.000000000000568
 21
65.166666666662792
  0
LINE
  8
_1-7_カバ__
  6
CONTINUOUS
 62
    4
 10
-68.000000000000739
 20
65.066666666662854
 11
-68.000000000000739
 21
65.166666666662792
  0
LINE
  8
_1-7_カバ__
  6
CONTINUOUS
 62
    4
 10
-66.000000000000909
 20
65.066666666662854
 11
-67.000000000000739
 21
65.066666666662854
  0
LINE
  8
_1-7_カバ__
  6
CONTINUOUS
 62
    4
 10
-67.000000000000739
 20
65.166666666662792
 11
-68.000000000000739
 21
65.166666666662792
  0
LINE
  8
_1-7_カバ__
  6
CONTINUOUS
 62
    4
 10
-67.000000000000739
 20
65.066666666662854
 11
-67.000000000000739
 21
65.166666666662792
  0
LINE
  8
_1-7_カバ__
  6
CONTINUOUS
 62
    4
 10
-65.000000000000796
 20
65.166666666662792
 11
-66.000000000000909
 21
65.166666666662792
  0
LINE
  8
_1-7_カバ__
  6
CONTINUOUS
 62
    4
 10
-64.000000000000909
 20
65.066666666662854
 11
-65.000000000000796
 21
65.066666666662854
  0
LINE
  8
_1-7_カバ__
  6
CONTINUOUS
 62
    4
 10
-66.000000000000909
 20
65.066666666662854
 11
-66.000000000000909
 21
65.166666666662792
  0
LINE
  8
_1-7_カバ__
  6
CONTINUOUS
 62
    4
 10
-65.000000000000796
 20
65.066666666662854
 11
-65.000000000000796
 21
65.166666666662792
  0
LINE
  8
_1-7_カバ__
  6
CONTINUOUS
 62
    4
 10
-64.000000000000909
 20
65.066666666662854
 11
-64.000000000000909
 21
65.166666666662792
  0
LINE
  8
_1-7_カバ__
  6
CONTINUOUS
 62
    4
 10
-63.000000000000739
 20
65.166666666662792
 11
-64.000000000000909
 21
65.166666666662792
  0
LINE
  8
_1-7_カバ__
  6
CONTINUOUS
 62
    4
 10
-63.000000000000739
 20
65.066666666662854
 11
-63.000000000000739
 21
65.166666666662792
  0
LINE
  8
_1-7_カバ__
  6
CONTINUOUS
 62
    4
 10
-62.000000000000909
 20
65.066666666662854
 11
-63.000000000000739
 21
65.066666666662854
  0
LINE
  8
_1-7_カバ__
  6
CONTINUOUS
 62
    4
 10
-61.000000000000909
 20
65.166666666662792
 11
-62.000000000000909
 21
65.166666666662792
  0
LINE
  8
_1-7_カバ__
  6
CONTINUOUS
 62
    4
 10
-60.000000000000796
 20
65.066666666662854
 11
-61.000000000000909
 21
65.066666666662854
  0
LINE
  8
_1-7_カバ__
  6
CONTINUOUS
 62
    4
 10
-62.000000000000909
 20
65.066666666662854
 11
-62.000000000000909
 21
65.166666666662792
  0
LINE
  8
_1-7_カバ__
  6
CONTINUOUS
 62
    4
 10
-61.000000000000909
 20
65.066666666662854
 11
-61.000000000000909
 21
65.166666666662792
  0
LINE
  8
_1-7_カバ__
  6
CONTINUOUS
 62
    4
 10
-60.000000000000796
 20
65.066666666662854
 11
-60.000000000000796
 21
65.166666666662792
  0
LINE
  8
_1-7_カバ__
  6
CONTINUOUS
 62
    4
 10
-58.000000000001023
 20
65.066666666662854
 11
-59.000000000000909
 21
65.066666666662854
  0
LINE
  8
_1-7_カバ__
  6
CONTINUOUS
 62
    4
 10
-59.000000000000909
 20
65.166666666662792
 11
-60.000000000000796
 21
65.166666666662792
  0
LINE
  8
_1-7_カバ__
  6
CONTINUOUS
 62
    4
 10
-59.000000000000909
 20
65.066666666662854
 11
-59.000000000000909
 21
65.166666666662792
  0
LINE
  8
_1-7_カバ__
  6
CONTINUOUS
 62
    4
 10
-57.000000000000909
 20
65.166666666662792
 11
-58.000000000001023
 21
65.166666666662792
  0
LINE
  8
_1-7_カバ__
  6
CONTINUOUS
 62
    4
 10
-56.000000000000909
 20
65.066666666662854
 11
-57.000000000000909
 21
65.066666666662854
  0
LINE
  8
_1-7_カバ__
  6
CONTINUOUS
 62
    4
 10
-58.000000000001023
 20
65.066666666662854
 11
-58.000000000001023
 21
65.166666666662792
  0
LINE
  8
_1-7_カバ__
  6
CONTINUOUS
 62
    4
 10
-57.000000000000909
 20
65.066666666662854
 11
-57.000000000000909
 21
65.166666666662792
  0
LINE
  8
_1-7_カバ__
  6
CONTINUOUS
 62
    4
 10
-56.000000000000909
 20
65.066666666662854
 11
-56.000000000000909
 21
65.166666666662792
  0
LINE
  8
_1-7_カバ__
  6
CONTINUOUS
 62
    4
 10
-55.000000000000796
 20
65.166666666662792
 11
-56.000000000000909
 21
65.166666666662792
  0
LINE
  8
_1-7_カバ__
  6
CONTINUOUS
 62
    4
 10
-55.000000000000796
 20
65.066666666662854
 11
-55.000000000000796
 21
65.166666666662792
  0
LINE
  8
_1-7_カバ__
  6
CONTINUOUS
 62
    4
 10
-54.000000000001194
 20
65.066666666662854
 11
-55.000000000000796
 21
65.066666666662854
  0
LINE
  8
_1-7_カバ__
  6
CONTINUOUS
 62
    4
 10
-53.000000000001023
 20
65.166666666662792
 11
-54.000000000001194
 21
65.166666666662792
  0
LINE
  8
_1-7_カバ__
  6
CONTINUOUS
 62
    4
 10
-52.000000000001194
 20
65.066666666662854
 11
-53.000000000001023
 21
65.066666666662854
  0
LINE
  8
_1-7_カバ__
  6
CONTINUOUS
 62
    4
 10
-54.000000000001194
 20
65.066666666662854
 11
-54.000000000001194
 21
65.166666666662792
  0
LINE
  8
_1-7_カバ__
  6
CONTINUOUS
 62
    4
 10
-53.000000000001023
 20
65.066666666662854
 11
-53.000000000001023
 21
65.166666666662792
  0
LINE
  8
_1-7_カバ__
  6
CONTINUOUS
 62
    4
 10
-52.000000000001194
 20
65.066666666662854
 11
-52.000000000001194
 21
65.166666666662792
  0
LINE
  8
_1-7_カバ__
  6
CONTINUOUS
 62
    4
 10
-50.000000000001194
 20
65.066666666662854
 11
-51.000000000001023
 21
65.066666666662854
  0
LINE
  8
_1-7_カバ__
  6
CONTINUOUS
 62
    4
 10
-51.000000000001023
 20
65.166666666662792
 11
-52.000000000001194
 21
65.166666666662792
  0
LINE
  8
_1-7_カバ__
  6
CONTINUOUS
 62
    4
 10
-51.000000000001023
 20
65.066666666662854
 11
-51.000000000001023
 21
65.166666666662792
  0
LINE
  8
_1-7_カバ__
  6
CONTINUOUS
 62
    4
 10
-49.000000000001194
 20
65.166666666662792
 11
-50.000000000001194
 21
65.166666666662792
  0
LINE
  8
_1-7_カバ__
  6
CONTINUOUS
 62
    4
 10
-48.000000000001108
 20
65.066666666662854
 11
-49.000000000001194
 21
65.066666666662854
  0
LINE
  8
_1-7_カバ__
  6
CONTINUOUS
 62
    4
 10
-50.000000000001194
 20
65.066666666662854
 11
-50.000000000001194
 21
65.166666666662792
  0
LINE
  8
_1-7_カバ__
  6
CONTINUOUS
 62
    4
 10
-49.000000000001194
 20
65.066666666662854
 11
-49.000000000001194
 21
65.166666666662792
  0
LINE
  8
_1-7_カバ__
  6
CONTINUOUS
 62
    4
 10
-48.000000000001108
 20
65.066666666662854
 11
-48.000000000001108
 21
65.166666666662792
  0
LINE
  8
_1-7_カバ__
  6
CONTINUOUS
 62
    4
 10
-47.000000000001194
 20
65.166666666662792
 11
-48.000000000001108
 21
65.166666666662792
  0
LINE
  8
_1-7_カバ__
  6
CONTINUOUS
 62
    4
 10
-47.000000000001194
 20
65.066666666662854
 11
-47.000000000001194
 21
65.166666666662792
  0
LINE
  8
_1-7_カバ__
  6
CONTINUOUS
 62
    4
 10
-46.000000000001336
 20
65.066666666662854
 11
-47.000000000001194
 21
65.066666666662854
  0
LINE
  8
_1-7_カバ__
  6
CONTINUOUS
 62
    4
 10
-45.000000000001194
 20
65.166666666662792
 11
-46.000000000001336
 21
65.166666666662792
  0
LINE
  8
_1-7_カバ__
  6
CONTINUOUS
 62
    4
 10
-44.000000000001194
 20
65.066666666662854
 11
-45.000000000001194
 21
65.066666666662854
  0
LINE
  8
_1-7_カバ__
  6
CONTINUOUS
 62
    4
 10
-46.000000000001336
 20
65.066666666662854
 11
-46.000000000001336
 21
65.166666666662792
  0
LINE
  8
_1-7_カバ__
  6
CONTINUOUS
 62
    4
 10
-45.000000000001194
 20
65.066666666662854
 11
-45.000000000001194
 21
65.166666666662792
  0
LINE
  8
_1-7_カバ__
  6
CONTINUOUS
 62
    4
 10
-44.000000000001194
 20
65.066666666662854
 11
-44.000000000001194
 21
65.166666666662792
  0
LINE
  8
_1-7_カバ__
  6
CONTINUOUS
 62
    4
 10
-42.000000000001194
 20
65.066666666662854
 11
-43.000000000001108
 21
65.066666666662854
  0
LINE
  8
_1-7_カバ__
  6
CONTINUOUS
 62
    4
 10
-43.000000000001108
 20
65.166666666662792
 11
-44.000000000001194
 21
65.166666666662792
  0
LINE
  8
_1-7_カバ__
  6
CONTINUOUS
 62
    4
 10
-43.000000000001108
 20
65.066666666662854
 11
-43.000000000001108
 21
65.166666666662792
  0
LINE
  8
_1-7_カバ__
  6
CONTINUOUS
 62
    4
 10
-41.000000000001336
 20
65.166666666662792
 11
-42.000000000001194
 21
65.166666666662792
  0
LINE
  8
_1-7_カバ__
  6
CONTINUOUS
 62
    4
 10
-40.000000000001194
 20
65.066666666662854
 11
-41.000000000001336
 21
65.066666666662854
  0
LINE
  8
_1-7_カバ__
  6
CONTINUOUS
 62
    4
 10
-42.000000000001194
 20
65.066666666662854
 11
-42.000000000001194
 21
65.166666666662792
  0
LINE
  8
_1-7_カバ__
  6
CONTINUOUS
 62
    4
 10
-41.000000000001336
 20
65.066666666662854
 11
-41.000000000001336
 21
65.166666666662792
  0
LINE
  8
_1-7_カバ__
  6
CONTINUOUS
 62
    4
 10
-40.000000000001194
 20
65.066666666662854
 11
-40.000000000001194
 21
65.166666666662792
  0
LINE
  8
_1-7_カバ__
  6
CONTINUOUS
 62
    4
 10
-39.000000000001194
 20
65.166666666662792
 11
-40.000000000001194
 21
65.166666666662792
  0
LINE
  8
_1-7_カバ__
  6
CONTINUOUS
 62
    4
 10
-39.000000000001194
 20
65.066666666662854
 11
-39.000000000001194
 21
65.166666666662792
  0
LINE
  8
_1-7_カバ__
  6
CONTINUOUS
 62
    4
 10
-38.000000000001336
 20
65.066666666662854
 11
-39.000000000001194
 21
65.066666666662854
  0
LINE
  8
_1-7_カバ__
  6
CONTINUOUS
 62
    4
 10
-37.000000000001194
 20
65.166666666662792
 11
-38.000000000001336
 21
65.166666666662792
  0
LINE
  8
_1-7_カバ__
  6
CONTINUOUS
 62
    4
 10
-36.000000000001336
 20
65.066666666662854
 11
-37.000000000001194
 21
65.066666666662854
  0
LINE
  8
_1-7_カバ__
  6
CONTINUOUS
 62
    4
 10
-38.000000000001336
 20
65.066666666662854
 11
-38.000000000001336
 21
65.166666666662792
  0
LINE
  8
_1-7_カバ__
  6
CONTINUOUS
 62
    4
 10
-37.000000000001194
 20
65.066666666662854
 11
-37.000000000001194
 21
65.166666666662792
  0
LINE
  8
_1-7_カバ__
  6
CONTINUOUS
 62
    4
 10
-36.000000000001336
 20
65.066666666662854
 11
-36.000000000001336
 21
65.166666666662792
  0
LINE
  8
_1-7_カバ__
  6
CONTINUOUS
 62
    4
 10
-34.000000000001336
 20
65.066666666662854
 11
-35.000000000001194
 21
65.066666666662854
  0
LINE
  8
_1-7_カバ__
  6
CONTINUOUS
 62
    4
 10
-35.000000000001194
 20
65.166666666662792
 11
-36.000000000001336
 21
65.166666666662792
  0
LINE
  8
_1-7_カバ__
  6
CONTINUOUS
 62
    4
 10
-35.000000000001194
 20
65.066666666662854
 11
-35.000000000001194
 21
65.166666666662792
  0
LINE
  8
_1-7_カバ__
  6
CONTINUOUS
 62
    4
 10
-33.000000000001336
 20
65.166666666662792
 11
-34.000000000001336
 21
65.166666666662792
  0
LINE
  8
_1-7_カバ__
  6
CONTINUOUS
 62
    4
 10
-32.000000000001194
 20
65.066666666662854
 11
-33.000000000001336
 21
65.066666666662854
  0
LINE
  8
_1-7_カバ__
  6
CONTINUOUS
 62
    4
 10
-34.000000000001336
 20
65.066666666662854
 11
-34.000000000001336
 21
65.166666666662792
  0
LINE
  8
_1-7_カバ__
  6
CONTINUOUS
 62
    4
 10
-33.000000000001336
 20
65.066666666662854
 11
-33.000000000001336
 21
65.166666666662792
  0
LINE
  8
_1-7_カバ__
  6
CONTINUOUS
 62
    4
 10
-32.000000000001194
 20
65.066666666662854
 11
-32.000000000001194
 21
65.166666666662792
  0
LINE
  8
_1-7_カバ__
  6
CONTINUOUS
 62
    4
 10
-22.333333333334224
 20
64.833333333329534
 11
-22.666666666667709
 21
65.166666666662792
  0
LINE
  8
_1-7_カバ__
  6
CONTINUOUS
 62
    4
 10
-22.333333333334224
 20
62.999999999996163
 11
-22.333333333334224
 21
64.833333333329534
  0
ARC
  8
_1-7_カバ__
  6
CONTINUOUS
 62
    4
 10
-22.500000000000796
 20
62.999999999996163
 40
0.1666666666666666
 50
270
 51
0
  0
LINE
  8
_1-7_カバ__
  6
CONTINUOUS
 62
    4
 10
-22.833333333333826
 20
62.833333333329534
 11
-22.500000000000796
 21
62.833333333329534
  0
ARC
  8
_1-7_カバ__
  6
CONTINUOUS
 62
    4
 10
-22.833333333333826
 20
62.999999999996163
 40
0.1666666666666666
 50
180
 51
270
  0
LINE
  8
_1-7_カバ__
  6
CONTINUOUS
 62
    4
 10
-23.000000000000739
 20
64.066666666662769
 11
-23.000000000000739
 21
62.999999999996163
  0
ARC
  8
_1-7_カバ__
  6
CONTINUOUS
 62
    4
 10
-23.100000000000932
 20
64.066666666662769
 40
0.0999999999999999
 50
0
 51
90
  0
LINE
  8
_1-7_カバ__
  6
CONTINUOUS
 62
    4
 10
-25.500000000001023
 20
65.066666666662854
 11
-25.600000000000932
 21
65.166666666662792
  0
LINE
  8
_1-7_カバ__
  6
CONTINUOUS
 62
    4
 10
-25.40000000000083
 20
65.166666666662792
 11
-25.500000000001023
 21
65.066666666662854
  0
LINE
  8
_1-7_カバ__
  6
CONTINUOUS
 62
    4
 10
-25.600000000000932
 20
65.166666666662792
 11
-30.000000000001194
 21
65.166666666662792
  0
LINE
  8
_1-7_カバ__
  6
CONTINUOUS
 62
    4
 10
-25.40000000000083
 20
65.166666666662792
 11
-22.666666666667709
 21
65.166666666662792
  0
LINE
  8
_1-7_カバ__
  6
CONTINUOUS
 62
    4
 10
-31.000000000001023
 20
65.166666666662792
 11
-32.000000000001194
 21
65.166666666662792
  0
LINE
  8
_1-7_カバ__
  6
CONTINUOUS
 62
    4
 10
-30.000000000001194
 20
65.066666666662854
 11
-31.000000000001023
 21
65.066666666662854
  0
LINE
  8
_1-7_カバ__
  6
CONTINUOUS
 62
    4
 10
-31.000000000001023
 20
65.066666666662854
 11
-31.000000000001023
 21
65.166666666662792
  0
LINE
  8
_1-7_カバ__
  6
CONTINUOUS
 62
    4
 10
-30.000000000001194
 20
65.066666666662854
 11
-30.000000000001194
 21
65.166666666662792
  0
LINE
  8
_1-7_カバ__
  6
CONTINUOUS
 62
    4
 10
-98.333333333334508
 20
64.666666666662792
 11
-98.333333333334508
 21
64.166666666662906
  0
LINE
  8
_1-7_カバ__
  6
CONTINUOUS
 62
    4
 10
-98.333333333334508
 20
64.166666666662906
 11
-23.100000000000932
 21
64.166666666662906
  0
LINE
  8
_1-7_カバ__
  6
DASHED1
 62
    4
 10
-26.416666666667538
 20
64.333333333329534
 11
-24.583333333334224
 21
64.333333333329534
  0
LINE
  8
_1-7_カバ__
  6
DASHED1
 62
    4
 10
-23.750000000000881
 20
65.166666666662906
 11
-24.583333333334224
 21
64.333333333329534
  0
LINE
  8
_1-7_カバ__
  6
DASHED1
 62
    4
 10
-27.250000000000881
 20
65.166666666662906
 11
-26.416666666667538
 21
64.333333333329534
  0
LINE
  8
_1-7_カバ__
  6
DASHED1
 62
    4
 10
-26.416666666667538
 20
64.333333333329534
 11
-26.416666666667538
 21
64.166666666662906
  0
LINE
  8
_1-7_カバ__
  6
DASHED1
 62
    4
 10
-24.583333333334224
 20
64.333333333329534
 11
-24.583333333334224
 21
64.166666666662906
  0
ENDBLK
  0
BLOCK
  2
-015-$QLE
 70
   64
 10
0
 20
0
 30
0
  0
LINE
  8
_1-f_寸法
  6
CONTINUOUS
 62
    4
 10
-28.333333333334451
 20
53.499999999996163
 11
-25.334936490539917
 21
48.306624327022092
  0
LINE
  8
_1-f_寸法
  6
CONTINUOUS
 62
    4
 10
-25.334936490539917
 20
48.306624327022092
 11
13.385063509460025
 21
48.306624327022092
  0
POINT
  8
_1-f_寸法
 62
    4
 10
-28.333333333334451
 20
53.499999999996163
  0
TEXT
  8
_1-f_寸法
 62
    4
 10
-25.014936490539924
 20
48.306624327022092
 40
3.2000000000000002
 41
1
 50
0
  1
ならしモルタル(別途工事)
  0
ENDBLK
  0
BLOCK
  2
-016-_13_
 70
   64
 10
0
 20
0
 30
0
  0
LINE
  8
_1-8_小物
  6
CONTINUOUS
 62
    4
 10
-23.833333333334366
 20
65.16666666666282
 11
-27.166666666667538
 21
65.16666666666282
  0
LINE
  8
_1-8_小物
  6
CONTINUOUS
 62
    4
 10
-25.500000000000966
 20
59.833333333329506
 11
-26.183333333334275
 21
60.227856017275741
  0
LINE
  8
_1-8_小物
  6
CONTINUOUS
 62
    4
 10
-25.500000000000966
 20
59.833333333329506
 11
-24.816666666667629
 21
60.227856017275741
  0
LINE
  8
_1-8_小物
  6
CONTINUOUS
 62
    4
 10
-24.903333333334217
 20
62.902460573110432
 11
-24.700000000000841
 21
62.78506585966548
  0
LINE
  8
_1-8_小物
  6
CONTINUOUS
 62
    4
 10
-24.700000000000841
 20
62.78506585966548
 11
-24.903333333334217
 21
62.667671146220528
  0
LINE
  8
_1-8_小物
  6
CONTINUOUS
 62
    4
 10
-26.096666666667687
 20
62.233333333329512
 11
-26.300000000001063
 21
62.350728046774464
  0
LINE
  8
_1-8_小物
  6
CONTINUOUS
 62
    4
 10
-26.300000000001063
 20
62.350728046774464
 11
-26.096666666667687
 21
62.468122760219444
  0
LINE
  8
_1-8_小物
  6
CONTINUOUS
 62
    4
 10
-26.096666666667687
 20
62.468122760219444
 11
-24.903333333334217
 21
62.902460573110432
  0
LINE
  8
_1-8_小物
  6
CONTINUOUS
 62
    4
 10
-26.096666666667687
 20
62.233333333329512
 11
-24.903333333334217
 21
62.667671146220528
  0
LINE
  8
_1-8_小物
  6
CONTINUOUS
 62
    4
 10
-24.700000000000841
 20
62.78506585966548
 11
-26.300000000001063
 21
62.350728046774464
  0
LINE
  8
_1-8_小物
  6
CONTINUOUS
 62
    4
 10
-24.903333333334217
 20
63.402460573110432
 11
-24.700000000000841
 21
63.28506585966548
  0
LINE
  8
_1-8_小物
  6
CONTINUOUS
 62
    4
 10
-24.700000000000841
 20
63.28506585966548
 11
-24.903333333334217
 21
63.167671146220528
  0
LINE
  8
_1-8_小物
  6
CONTINUOUS
 62
    4
 10
-26.096666666667687
 20
62.733333333329512
 11
-26.300000000001063
 21
62.850728046774464
  0
LINE
  8
_1-8_小物
  6
CONTINUOUS
 62
    4
 10
-26.300000000001063
 20
62.850728046774464
 11
-26.096666666667687
 21
62.968122760219444
  0
LINE
  8
_1-8_小物
  6
CONTINUOUS
 62
    4
 10
-26.096666666667687
 20
62.968122760219444
 11
-24.903333333334217
 21
63.402460573110432
  0
LINE
  8
_1-8_小物
  6
CONTINUOUS
 62
    4
 10
-26.096666666667687
 20
62.733333333329512
 11
-24.903333333334217
 21
63.167671146220528
  0
LINE
  8
_1-8_小物
  6
CONTINUOUS
 62
    4
 10
-24.700000000000841
 20
63.28506585966548
 11
-26.300000000001063
 21
62.850728046774464
  0
LINE
  8
_1-8_小物
  6
CONTINUOUS
 62
    4
 10
-24.903333333334217
 20
63.902460573110432
 11
-24.700000000000841
 21
63.78506585966548
  0
LINE
  8
_1-8_小物
  6
CONTINUOUS
 62
    4
 10
-24.700000000000841
 20
63.78506585966548
 11
-24.903333333334217
 21
63.667671146220528
  0
LINE
  8
_1-8_小物
  6
CONTINUOUS
 62
    4
 10
-26.096666666667687
 20
63.233333333329512
 11
-26.300000000001063
 21
63.350728046774464
  0
LINE
  8
_1-8_小物
  6
CONTINUOUS
 62
    4
 10
-26.300000000001063
 20
63.350728046774464
 11
-26.096666666667687
 21
63.468122760219444
  0
LINE
  8
_1-8_小物
  6
CONTINUOUS
 62
    4
 10
-26.096666666667687
 20
63.468122760219444
 11
-24.903333333334217
 21
63.902460573110432
  0
LINE
  8
_1-8_小物
  6
CONTINUOUS
 62
    4
 10
-26.096666666667687
 20
63.233333333329512
 11
-24.903333333334217
 21
63.667671146220528
  0
LINE
  8
_1-8_小物
  6
CONTINUOUS
 62
    4
 10
-24.700000000000841
 20
63.78506585966548
 11
-26.300000000001063
 21
63.350728046774464
  0
LINE
  8
_1-8_小物
  6
CONTINUOUS
 62
    4
 10
-26.096666666667687
 20
63.733333333329512
 11
-26.300000000001063
 21
63.850728046774464
  0
LINE
  8
_1-8_小物
  6
CONTINUOUS
 62
    4
 10
-26.300000000001063
 20
63.850728046774464
 11
-26.096666666667687
 21
63.968122760219444
  0
LINE
  8
_1-8_小物
  6
CONTINUOUS
 62
    4
 10
-26.183333333334275
 20
62.066666666662854
 11
-26.183333333334275
 21
60.227856017275741
  0
LINE
  8
_1-8_小物
  6
CONTINUOUS
 62
    4
 10
-24.816666666667629
 20
62.066666666662854
 11
-26.183333333334275
 21
62.066666666662854
  0
LINE
  8
_1-8_小物
  6
CONTINUOUS
 62
    4
 10
-24.816666666667629
 20
62.066666666662854
 11
-24.816666666667629
 21
60.227856017275741
  0
LINE
  8
_1-8_小物
  6
CONTINUOUS
 62
    4
 10
-26.096666666667687
 20
63.968122760219444
 11
-25.825919508889513
 21
64.066666666662854
  0
LINE
  8
_1-8_小物
  6
CONTINUOUS
 62
    4
 10
-26.096666666667687
 20
63.733333333329512
 11
-25.500000000000966
 21
63.950502239775034
  0
LINE
  8
_1-8_小物
  6
CONTINUOUS
 62
    4
 10
-25.500000000000966
 20
64.067896953219986
 11
-26.300000000001063
 21
63.850728046774464
  0
LINE
  8
_1-8_小物
  6
CONTINUOUS
 62
    4
 10
-26.096666666667687
 20
64.066666666662854
 11
-26.096666666667687
 21
63.968122760219444
  0
LINE
  8
_1-8_小物
  6
CONTINUOUS
 62
    4
 10
-26.096666666667687
 20
63.733333333329512
 11
-26.096666666667687
 21
63.468122760219444
  0
LINE
  8
_1-8_小物
  6
CONTINUOUS
 62
    4
 10
-26.096666666667687
 20
63.233333333329512
 11
-26.096666666667687
 21
62.968122760219444
  0
LINE
  8
_1-8_小物
  6
CONTINUOUS
 62
    4
 10
-26.096666666667687
 20
62.733333333329512
 11
-26.096666666667687
 21
62.468122760219444
  0
LINE
  8
_1-8_小物
  6
CONTINUOUS
 62
    4
 10
-26.096666666667687
 20
62.233333333329512
 11
-26.096666666667687
 21
62.066666666662854
  0
LINE
  8
_1-8_小物
  6
CONTINUOUS
 62
    4
 10
-24.903333333334217
 20
64.066666666662854
 11
-24.903333333334217
 21
63.902460573110432
  0
LINE
  8
_1-8_小物
  6
CONTINUOUS
 62
    4
 10
-24.903333333334217
 20
62.667671146220528
 11
-24.903333333334217
 21
62.066666666662854
  0
LINE
  8
_1-8_小物
  6
CONTINUOUS
 62
    4
 10
-24.903333333334217
 20
63.167671146220528
 11
-24.903333333334217
 21
62.902460573110432
  0
LINE
  8
_1-8_小物
  6
CONTINUOUS
 62
    4
 10
-24.903333333334217
 20
63.667671146220528
 11
-24.903333333334217
 21
63.402460573110432
  0
LINE
  8
_1-8_小物
  6
CONTINUOUS
 62
    4
 10
-24.916666666667538
 20
62.066666666662854
 11
-24.916666666667538
 21
60.285591044194717
  0
LINE
  8
_1-8_小物
  6
CONTINUOUS
 62
    4
 10
-25.500000000000966
 20
59.948803387167459
 11
-24.916666666667538
 21
60.285591044194717
  0
LINE
  8
_1-8_小物
  6
CONTINUOUS
 62
    4
 10
-25.500000000000966
 20
59.948803387167459
 11
-25.126563562374145
 21
62.066666666662854
  0
LINE
  8
_1-8_小物
  6
CENTER2
 62
    4
 10
-25.500000000000966
 20
65.83364038695629
 11
-25.500000000000966
 21
59.084349393775994
  0
LINE
  8
_1-8_小物
  6
CONTINUOUS
 62
    4
 10
-27.166666666667538
 20
65.16666666666282
 11
-27.166666666667538
 21
65.099999999996157
  0
LINE
  8
_1-8_小物
  6
CONTINUOUS
 62
    4
 10
-23.833333333334366
 20
65.099999999996157
 11
-27.166666666667538
 21
65.099999999996157
  0
LINE
  8
_1-8_小物
  6
CONTINUOUS
 62
    4
 10
-23.833333333334366
 20
65.16666666666282
 11
-23.833333333334366
 21
65.099999999996157
  0
LINE
  8
_1-8_小物
  6
CONTINUOUS
 62
    4
 10
-27.166666666667538
 20
65.099999999996157
 11
-26.133333333334178
 21
64.066666666662854
  0
LINE
  8
_1-8_小物
  6
CONTINUOUS
 62
    4
 10
-24.866666666667754
 20
64.066666666662854
 11
-26.133333333334178
 21
64.066666666662854
  0
LINE
  8
_1-8_小物
  6
CONTINUOUS
 62
    4
 10
-23.833333333334366
 20
65.099999999996157
 11
-24.866666666667754
 21
64.066666666662854
  0
ENDBLK
  0
BLOCK
  2
-017-_14_
 70
   64
 10
0
 20
0
 30
0
  0
LINE
  8
_1-9_センタ__プレ__ト
  6
CENTER2
 62
    4
 10
-125
 20
61.43333266666491
 11
-125
 21
65.93333266666491
  0
LINE
  8
_1-9_センタ__プレ__ト
  6
CONTINUOUS
 62
    4
 10
-125.49999999999994
 20
64.266665999998224
 11
-125
 21
64.266665999998224
  0
LINE
  8
_1-9_センタ__プレ__ト
  6
CONTINUOUS
 62
    4
 10
-127.5
 20
64.266665999998224
 11
-126.5
 21
64.266665999998224
  0
LINE
  8
_1-9_センタ__プレ__ト
  6
CONTINUOUS
 62
    4
 10
-128.49999999999986
 20
64.166665999998258
 11
-128.49999999999986
 21
64.266665999998224
  0
LINE
  8
_1-9_センタ__プレ__ト
  6
CONTINUOUS
 62
    4
 10
-127.5
 20
64.166665999998258
 11
-127.5
 21
64.266665999998224
  0
LINE
  8
_1-9_センタ__プレ__ト
  6
CONTINUOUS
 62
    4
 10
-126.5
 20
64.166665999998258
 11
-126.5
 21
64.266665999998224
  0
LINE
  8
_1-9_センタ__プレ__ト
  6
CONTINUOUS
 62
    4
 10
-126.5
 20
64.166665999998258
 11
-125.49999999999994
 21
64.166665999998258
  0
LINE
  8
_1-9_センタ__プレ__ト
  6
CONTINUOUS
 62
    4
 10
-125.49999999999994
 20
64.166665999998258
 11
-125.49999999999994
 21
64.266665999998224
  0
LINE
  8
_1-9_センタ__プレ__ト
  6
CONTINUOUS
 62
    4
 10
-128.49999999999986
 20
64.166665999998258
 11
-127.5
 21
64.166665999998258
  0
LINE
  8
_1-9_センタ__プレ__ト
  6
CONTINUOUS
 62
    4
 10
-129.5
 20
64.266665999998224
 11
-128.49999999999986
 21
64.266665999998224
  0
LINE
  8
_1-9_センタ__プレ__ト
  6
CONTINUOUS
 62
    4
 10
-129.5
 20
64.166665999998258
 11
-129.5
 21
64.266665999998224
  0
LINE
  8
_1-9_センタ__プレ__ト
  6
CONTINUOUS
 62
    4
 10
-165.16666566673393
 20
62.400365485109262
 11
-165.16666566673393
 21
60.401471573422583
  0
LINE
  8
_1-9_センタ__プレ__ト
  6
CONTINUOUS
 62
    4
 10
-164.49999900000043
 20
60.401471573422583
 11
-165.16666566673393
 21
60.401471573422583
  0
LINE
  8
_1-9_センタ__プレ__ト
  6
CONTINUOUS
 62
    4
 10
-164.49999900000043
 20
61.401471573422583
 11
-164.49999900000043
 21
60.401471573422583
  0
LINE
  8
_1-9_センタ__プレ__ト
  6
CONTINUOUS
 62
    4
 10
-159.83333233333346
 20
63.099999333331482
 11
-164.49999900000043
 21
61.401471573422583
  0
LINE
  8
_1-9_センタ__プレ__ト
  6
CONTINUOUS
 62
    4
 10
-139.49999999999972
 20
64.266665999998224
 11
-138.99999999999972
 21
64.266665999998224
  0
LINE
  8
_1-9_センタ__プレ__ト
  6
CONTINUOUS
 62
    4
 10
-141.49999999999972
 20
64.266665999998224
 11
-140.49999999999994
 21
64.266665999998224
  0
LINE
  8
_1-9_センタ__プレ__ト
  6
CONTINUOUS
 62
    4
 10
-142.5
 20
64.166665999998258
 11
-142.5
 21
64.266665999998224
  0
LINE
  8
_1-9_センタ__プレ__ト
  6
CONTINUOUS
 62
    4
 10
-141.49999999999972
 20
64.166665999998258
 11
-141.49999999999972
 21
64.266665999998224
  0
LINE
  8
_1-9_センタ__プレ__ト
  6
CONTINUOUS
 62
    4
 10
-140.49999999999994
 20
64.166665999998258
 11
-140.49999999999994
 21
64.266665999998224
  0
LINE
  8
_1-9_センタ__プレ__ト
  6
CONTINUOUS
 62
    4
 10
-140.49999999999994
 20
64.166665999998258
 11
-139.49999999999972
 21
64.166665999998258
  0
LINE
  8
_1-9_センタ__プレ__ト
  6
CONTINUOUS
 62
    4
 10
-139.49999999999972
 20
64.166665999998258
 11
-139.49999999999972
 21
64.266665999998224
  0
LINE
  8
_1-9_センタ__プレ__ト
  6
CONTINUOUS
 62
    4
 10
-142.5
 20
64.166665999998258
 11
-141.49999999999972
 21
64.166665999998258
  0
LINE
  8
_1-9_センタ__プレ__ト
  6
CONTINUOUS
 62
    4
 10
-143.49999999999986
 20
64.266665999998224
 11
-142.5
 21
64.266665999998224
  0
LINE
  8
_1-9_センタ__プレ__ト
  6
CONTINUOUS
 62
    4
 10
-143.49999999999986
 20
64.166665999998258
 11
-143.49999999999986
 21
64.266665999998224
  0
LINE
  8
_1-9_センタ__プレ__ト
  6
CONTINUOUS
 62
    4
 10
-138.49999999999986
 20
64.266665999998224
 11
-138.99999999999972
 21
64.266665999998224
  0
LINE
  8
_1-9_センタ__プレ__ト
  6
CONTINUOUS
 62
    4
 10
-136.49999999999972
 20
64.266665999998224
 11
-137.5
 21
64.266665999998224
  0
LINE
  8
_1-9_センタ__プレ__ト
  6
CONTINUOUS
 62
    4
 10
-135.49999999999994
 20
64.166665999998258
 11
-135.49999999999994
 21
64.266665999998224
  0
LINE
  8
_1-9_センタ__プレ__ト
  6
CONTINUOUS
 62
    4
 10
-136.49999999999972
 20
64.166665999998258
 11
-136.49999999999972
 21
64.266665999998224
  0
LINE
  8
_1-9_センタ__プレ__ト
  6
CONTINUOUS
 62
    4
 10
-137.5
 20
64.166665999998258
 11
-137.5
 21
64.266665999998224
  0
LINE
  8
_1-9_センタ__プレ__ト
  6
CONTINUOUS
 62
    4
 10
-137.5
 20
64.166665999998258
 11
-138.49999999999986
 21
64.166665999998258
  0
LINE
  8
_1-9_センタ__プレ__ト
  6
CONTINUOUS
 62
    4
 10
-138.49999999999986
 20
64.166665999998258
 11
-138.49999999999986
 21
64.266665999998224
  0
LINE
  8
_1-9_センタ__プレ__ト
  6
CONTINUOUS
 62
    4
 10
-135.49999999999994
 20
64.166665999998258
 11
-136.49999999999972
 21
64.166665999998258
  0
LINE
  8
_1-9_センタ__プレ__ト
  6
CONTINUOUS
 62
    4
 10
-134.49999999999972
 20
64.266665999998224
 11
-135.49999999999994
 21
64.266665999998224
  0
LINE
  8
_1-9_センタ__プレ__ト
  6
CONTINUOUS
 62
    4
 10
-133.49999999999986
 20
64.166665999998258
 11
-133.49999999999986
 21
64.266665999998224
  0
LINE
  8
_1-9_センタ__プレ__ト
  6
CONTINUOUS
 62
    4
 10
-134.49999999999972
 20
64.166665999998258
 11
-134.49999999999972
 21
64.266665999998224
  0
LINE
  8
_1-9_センタ__プレ__ト
  6
CONTINUOUS
 62
    4
 10
-133.49999999999986
 20
64.166665999998258
 11
-134.49999999999972
 21
64.166665999998258
  0
LINE
  8
_1-9_センタ__プレ__ト
  6
CONTINUOUS
 62
    4
 10
-132.5
 20
64.266665999998224
 11
-133.49999999999986
 21
64.266665999998224
  0
LINE
  8
_1-9_センタ__プレ__ト
  6
CONTINUOUS
 62
    4
 10
-131.49999999999972
 20
64.166665999998258
 11
-131.49999999999972
 21
64.266665999998224
  0
LINE
  8
_1-9_センタ__プレ__ト
  6
CONTINUOUS
 62
    4
 10
-132.5
 20
64.166665999998258
 11
-132.5
 21
64.266665999998224
  0
LINE
  8
_1-9_センタ__プレ__ト
  6
CONTINUOUS
 62
    4
 10
-131.49999999999972
 20
64.166665999998258
 11
-132.5
 21
64.166665999998258
  0
LINE
  8
_1-9_センタ__プレ__ト
  6
CONTINUOUS
 62
    4
 10
-130.49999999999994
 20
64.266665999998224
 11
-131.49999999999972
 21
64.266665999998224
  0
LINE
  8
_1-9_センタ__プレ__ト
  6
CONTINUOUS
 62
    4
 10
-130.49999999999994
 20
64.166665999998258
 11
-130.49999999999994
 21
64.266665999998224
  0
LINE
  8
_1-9_センタ__プレ__ト
  6
CONTINUOUS
 62
    4
 10
-129.5
 20
64.166665999998258
 11
-130.49999999999994
 21
64.166665999998258
  0
LINE
  8
_1-9_センタ__プレ__ト
  6
CONTINUOUS
 62
    4
 10
-153.4999999999994
 20
64.266665999998224
 11
-152.99999999999955
 21
64.266665999998224
  0
LINE
  8
_1-9_センタ__プレ__ト
  6
CONTINUOUS
 62
    4
 10
-155.49999999999955
 20
64.266665999998224
 11
-154.49999999999972
 21
64.266665999998224
  0
LINE
  8
_1-9_センタ__プレ__ト
  6
CONTINUOUS
 62
    4
 10
-156.49999999999972
 20
64.166665999998258
 11
-156.49999999999972
 21
64.266665999998224
  0
LINE
  8
_1-9_センタ__プレ__ト
  6
CONTINUOUS
 62
    4
 10
-155.49999999999955
 20
64.166665999998258
 11
-155.49999999999955
 21
64.266665999998224
  0
LINE
  8
_1-9_センタ__プレ__ト
  6
CONTINUOUS
 62
    4
 10
-154.49999999999972
 20
64.166665999998258
 11
-154.49999999999972
 21
64.266665999998224
  0
LINE
  8
_1-9_センタ__プレ__ト
  6
CONTINUOUS
 62
    4
 10
-154.49999999999972
 20
64.166665999998258
 11
-153.4999999999994
 21
64.166665999998258
  0
LINE
  8
_1-9_センタ__プレ__ト
  6
CONTINUOUS
 62
    4
 10
-153.4999999999994
 20
64.166665999998258
 11
-153.4999999999994
 21
64.266665999998224
  0
LINE
  8
_1-9_センタ__プレ__ト
  6
CONTINUOUS
 62
    4
 10
-156.49999999999972
 20
64.166665999998258
 11
-155.49999999999955
 21
64.166665999998258
  0
LINE
  8
_1-9_センタ__プレ__ト
  6
CONTINUOUS
 62
    4
 10
-157.49999999999963
 20
64.266665999998224
 11
-156.49999999999972
 21
64.266665999998224
  0
LINE
  8
_1-9_センタ__プレ__ト
  6
CONTINUOUS
 62
    4
 10
-157.49999999999963
 20
64.166665999998258
 11
-157.49999999999963
 21
64.266665999998224
  0
LINE
  8
_1-9_センタ__プレ__ト
  6
CONTINUOUS
 62
    4
 10
-152.49999999999963
 20
64.266665999998224
 11
-152.99999999999955
 21
64.266665999998224
  0
LINE
  8
_1-9_センタ__プレ__ト
  6
CONTINUOUS
 62
    4
 10
-150.49999999999955
 20
64.266665999998224
 11
-151.49999999999972
 21
64.266665999998224
  0
LINE
  8
_1-9_センタ__プレ__ト
  6
CONTINUOUS
 62
    4
 10
-149.49999999999972
 20
64.166665999998258
 11
-149.49999999999972
 21
64.266665999998224
  0
LINE
  8
_1-9_センタ__プレ__ト
  6
CONTINUOUS
 62
    4
 10
-150.49999999999955
 20
64.166665999998258
 11
-150.49999999999955
 21
64.266665999998224
  0
LINE
  8
_1-9_センタ__プレ__ト
  6
CONTINUOUS
 62
    4
 10
-151.49999999999972
 20
64.166665999998258
 11
-151.49999999999972
 21
64.266665999998224
  0
LINE
  8
_1-9_センタ__プレ__ト
  6
CONTINUOUS
 62
    4
 10
-151.49999999999972
 20
64.166665999998258
 11
-152.49999999999963
 21
64.166665999998258
  0
LINE
  8
_1-9_センタ__プレ__ト
  6
CONTINUOUS
 62
    4
 10
-152.49999999999963
 20
64.166665999998258
 11
-152.49999999999963
 21
64.266665999998224
  0
LINE
  8
_1-9_センタ__プレ__ト
  6
CONTINUOUS
 62
    4
 10
-149.49999999999972
 20
64.166665999998258
 11
-150.49999999999955
 21
64.166665999998258
  0
LINE
  8
_1-9_センタ__プレ__ト
  6
CONTINUOUS
 62
    4
 10
-148.4999999999994
 20
64.266665999998224
 11
-149.49999999999972
 21
64.266665999998224
  0
LINE
  8
_1-9_センタ__プレ__ト
  6
CONTINUOUS
 62
    4
 10
-147.49999999999963
 20
64.166665999998258
 11
-147.49999999999963
 21
64.266665999998224
  0
LINE
  8
_1-9_センタ__プレ__ト
  6
CONTINUOUS
 62
    4
 10
-148.4999999999994
 20
64.166665999998258
 11
-148.4999999999994
 21
64.266665999998224
  0
LINE
  8
_1-9_センタ__プレ__ト
  6
CONTINUOUS
 62
    4
 10
-147.49999999999963
 20
64.166665999998258
 11
-148.4999999999994
 21
64.166665999998258
  0
LINE
  8
_1-9_センタ__プレ__ト
  6
CONTINUOUS
 62
    4
 10
-146.49999999999972
 20
64.266665999998224
 11
-147.49999999999963
 21
64.266665999998224
  0
LINE
  8
_1-9_センタ__プレ__ト
  6
CONTINUOUS
 62
    4
 10
-145.49999999999955
 20
64.166665999998258
 11
-145.49999999999955
 21
64.266665999998224
  0
LINE
  8
_1-9_センタ__プレ__ト
  6
CONTINUOUS
 62
    4
 10
-146.49999999999972
 20
64.166665999998258
 11
-146.49999999999972
 21
64.266665999998224
  0
LINE
  8
_1-9_センタ__プレ__ト
  6
CONTINUOUS
 62
    4
 10
-145.49999999999955
 20
64.166665999998258
 11
-146.49999999999972
 21
64.166665999998258
  0
LINE
  8
_1-9_センタ__プレ__ト
  6
CONTINUOUS
 62
    4
 10
-144.5
 20
64.266665999998224
 11
-145.49999999999955
 21
64.266665999998224
  0
LINE
  8
_1-9_センタ__プレ__ト
  6
CONTINUOUS
 62
    4
 10
-144.5
 20
64.166665999998258
 11
-144.5
 21
64.266665999998224
  0
LINE
  8
_1-9_センタ__プレ__ト
  6
CONTINUOUS
 62
    4
 10
-143.49999999999986
 20
64.166665999998258
 11
-144.5
 21
64.166665999998258
  0
LINE
  8
_1-9_センタ__プレ__ト
  6
CONTINUOUS
 62
    4
 10
-158.4999999999994
 20
64.166665999998258
 11
-158.4999999999994
 21
64.266665999998224
  0
LINE
  8
_1-9_センタ__プレ__ト
  6
CONTINUOUS
 62
    4
 10
-158.4999999999994
 20
64.166665999998258
 11
-157.49999999999963
 21
64.166665999998258
  0
LINE
  8
_1-9_センタ__プレ__ト
  6
CONTINUOUS
 62
    4
 10
-160.03904714415998
 20
64.266665999998224
 11
-158.4999999999994
 21
64.266665999998224
  0
LINE
  8
_1-9_センタ__プレ__ト
  6
CONTINUOUS
 62
    4
 10
-160.03904714415998
 20
64.266665999998224
 11
-165.16666566673393
 21
62.400365485109262
  0
LINE
  8
_1-9_センタ__プレ__ト
  6
CONTINUOUS
 62
    4
 10
-124.5
 20
64.266665999998224
 11
-125
 21
64.266665999998224
  0
LINE
  8
_1-9_センタ__プレ__ト
  6
CONTINUOUS
 62
    4
 10
-122.5
 20
64.266665999998224
 11
-123.49999999999986
 21
64.266665999998224
  0
LINE
  8
_1-9_センタ__プレ__ト
  6
CONTINUOUS
 62
    4
 10
-121.5
 20
64.166665999998258
 11
-121.5
 21
64.266665999998224
  0
LINE
  8
_1-9_センタ__プレ__ト
  6
CONTINUOUS
 62
    4
 10
-122.5
 20
64.166665999998258
 11
-122.5
 21
64.266665999998224
  0
LINE
  8
_1-9_センタ__プレ__ト
  6
CONTINUOUS
 62
    4
 10
-123.49999999999986
 20
64.166665999998258
 11
-123.49999999999986
 21
64.266665999998224
  0
LINE
  8
_1-9_センタ__プレ__ト
  6
CONTINUOUS
 62
    4
 10
-123.49999999999986
 20
64.166665999998258
 11
-124.5
 21
64.166665999998258
  0
LINE
  8
_1-9_センタ__プレ__ト
  6
CONTINUOUS
 62
    4
 10
-124.5
 20
64.166665999998258
 11
-124.5
 21
64.266665999998224
  0
LINE
  8
_1-9_センタ__プレ__ト
  6
CONTINUOUS
 62
    4
 10
-121.5
 20
64.166665999998258
 11
-122.5
 21
64.166665999998258
  0
LINE
  8
_1-9_センタ__プレ__ト
  6
CONTINUOUS
 62
    4
 10
-120.49999999999994
 20
64.266665999998224
 11
-121.5
 21
64.266665999998224
  0
LINE
  8
_1-9_センタ__プレ__ト
  6
CONTINUOUS
 62
    4
 10
-119.5
 20
64.166665999998258
 11
-119.5
 21
64.266665999998224
  0
LINE
  8
_1-9_センタ__プレ__ト
  6
CONTINUOUS
 62
    4
 10
-120.49999999999994
 20
64.166665999998258
 11
-120.49999999999994
 21
64.266665999998224
  0
LINE
  8
_1-9_センタ__プレ__ト
  6
CONTINUOUS
 62
    4
 10
-119.5
 20
64.166665999998258
 11
-120.49999999999994
 21
64.166665999998258
  0
LINE
  8
_1-9_センタ__プレ__ト
  6
CONTINUOUS
 62
    4
 10
-118.49999999999986
 20
64.266665999998224
 11
-119.5
 21
64.266665999998224
  0
LINE
  8
_1-9_センタ__プレ__ト
  6
CONTINUOUS
 62
    4
 10
-117.5
 20
64.166665999998258
 11
-117.5
 21
64.266665999998224
  0
LINE
  8
_1-9_センタ__プレ__ト
  6
CONTINUOUS
 62
    4
 10
-118.49999999999986
 20
64.166665999998258
 11
-118.49999999999986
 21
64.266665999998224
  0
LINE
  8
_1-9_センタ__プレ__ト
  6
CONTINUOUS
 62
    4
 10
-117.5
 20
64.166665999998258
 11
-118.49999999999986
 21
64.166665999998258
  0
LINE
  8
_1-9_センタ__プレ__ト
  6
CONTINUOUS
 62
    4
 10
-116.50000000000017
 20
64.266665999998224
 11
-117.5
 21
64.266665999998224
  0
LINE
  8
_1-9_センタ__プレ__ト
  6
CONTINUOUS
 62
    4
 10
-115.49999999999994
 20
64.166665999998258
 11
-115.49999999999994
 21
64.266665999998224
  0
LINE
  8
_1-9_センタ__プレ__ト
  6
CONTINUOUS
 62
    4
 10
-116.50000000000017
 20
64.166665999998258
 11
-116.50000000000017
 21
64.266665999998224
  0
LINE
  8
_1-9_センタ__プレ__ト
  6
CONTINUOUS
 62
    4
 10
-115.49999999999994
 20
64.166665999998258
 11
-116.50000000000017
 21
64.166665999998258
  0
LINE
  8
_1-9_センタ__プレ__ト
  6
CONTINUOUS
 62
    4
 10
-114.5
 20
64.266665999998224
 11
-115.49999999999994
 21
64.266665999998224
  0
LINE
  8
_1-9_センタ__プレ__ト
  6
CONTINUOUS
 62
    4
 10
-113.50000000000023
 20
64.166665999998258
 11
-113.50000000000023
 21
64.266665999998224
  0
LINE
  8
_1-9_センタ__プレ__ト
  6
CONTINUOUS
 62
    4
 10
-114.5
 20
64.166665999998258
 11
-114.5
 21
64.266665999998224
  0
LINE
  8
_1-9_センタ__プレ__ト
  6
CONTINUOUS
 62
    4
 10
-113.50000000000023
 20
64.166665999998258
 11
-114.5
 21
64.166665999998258
  0
LINE
  8
_1-9_センタ__プレ__ト
  6
CONTINUOUS
 62
    4
 10
-112.5
 20
64.266665999998224
 11
-113.50000000000023
 21
64.266665999998224
  0
LINE
  8
_1-9_センタ__プレ__ト
  6
CONTINUOUS
 62
    4
 10
-111.50000000000017
 20
64.166665999998258
 11
-111.50000000000017
 21
64.266665999998224
  0
LINE
  8
_1-9_センタ__プレ__ト
  6
CONTINUOUS
 62
    4
 10
-112.5
 20
64.166665999998258
 11
-112.5
 21
64.266665999998224
  0
LINE
  8
_1-9_センタ__プレ__ト
  6
CONTINUOUS
 62
    4
 10
-111.50000000000017
 20
64.166665999998258
 11
-112.5
 21
64.166665999998258
  0
LINE
  8
_1-9_センタ__プレ__ト
  6
CONTINUOUS
 62
    4
 10
-110.50000000000017
 20
64.266665999998224
 11
-111.50000000000017
 21
64.266665999998224
  0
LINE
  8
_1-9_センタ__プレ__ト
  6
CONTINUOUS
 62
    4
 10
-109.5
 20
64.166665999998258
 11
-109.5
 21
64.266665999998224
  0
LINE
  8
_1-9_センタ__プレ__ト
  6
CONTINUOUS
 62
    4
 10
-110.50000000000017
 20
64.166665999998258
 11
-110.50000000000017
 21
64.266665999998224
  0
LINE
  8
_1-9_センタ__プレ__ト
  6
CONTINUOUS
 62
    4
 10
-109.5
 20
64.166665999998258
 11
-110.50000000000017
 21
64.166665999998258
  0
LINE
  8
_1-9_センタ__プレ__ト
  6
CONTINUOUS
 62
    4
 10
-108.50000000000023
 20
64.266665999998224
 11
-109.5
 21
64.266665999998224
  0
LINE
  8
_1-9_センタ__プレ__ト
  6
CONTINUOUS
 62
    4
 10
-107.50000000000031
 20
64.166665999998258
 11
-107.50000000000031
 21
64.266665999998224
  0
LINE
  8
_1-9_センタ__プレ__ト
  6
CONTINUOUS
 62
    4
 10
-108.50000000000023
 20
64.166665999998258
 11
-108.50000000000023
 21
64.266665999998224
  0
LINE
  8
_1-9_センタ__プレ__ト
  6
CONTINUOUS
 62
    4
 10
-107.50000000000031
 20
64.166665999998258
 11
-108.50000000000023
 21
64.166665999998258
  0
LINE
  8
_1-9_センタ__プレ__ト
  6
CONTINUOUS
 62
    4
 10
-106.50000000000017
 20
64.266665999998224
 11
-107.50000000000031
 21
64.266665999998224
  0
LINE
  8
_1-9_センタ__プレ__ト
  6
CONTINUOUS
 62
    4
 10
-105.50000000000031
 20
64.166665999998258
 11
-105.50000000000031
 21
64.266665999998224
  0
LINE
  8
_1-9_センタ__プレ__ト
  6
CONTINUOUS
 62
    4
 10
-106.50000000000017
 20
64.166665999998258
 11
-106.50000000000017
 21
64.266665999998224
  0
LINE
  8
_1-9_センタ__プレ__ト
  6
CONTINUOUS
 62
    4
 10
-105.50000000000031
 20
64.166665999998258
 11
-106.50000000000017
 21
64.166665999998258
  0
LINE
  8
_1-9_センタ__プレ__ト
  6
CONTINUOUS
 62
    4
 10
-104.50000000000031
 20
64.266665999998224
 11
-105.50000000000031
 21
64.266665999998224
  0
LINE
  8
_1-9_センタ__プレ__ト
  6
CONTINUOUS
 62
    4
 10
-103.50000000000023
 20
64.166665999998258
 11
-103.50000000000023
 21
64.266665999998224
  0
LINE
  8
_1-9_センタ__プレ__ト
  6
CONTINUOUS
 62
    4
 10
-104.50000000000031
 20
64.166665999998258
 11
-104.50000000000031
 21
64.266665999998224
  0
LINE
  8
_1-9_センタ__プレ__ト
  6
CONTINUOUS
 62
    4
 10
-103.50000000000023
 20
64.166665999998258
 11
-104.50000000000031
 21
64.166665999998258
  0
LINE
  8
_1-9_センタ__プレ__ト
  6
CONTINUOUS
 62
    4
 10
-102.50000000000031
 20
64.266665999998224
 11
-103.50000000000023
 21
64.266665999998224
  0
LINE
  8
_1-9_センタ__プレ__ト
  6
CONTINUOUS
 62
    4
 10
-101.50000000000017
 20
64.166665999998258
 11
-101.50000000000017
 21
64.266665999998224
  0
LINE
  8
_1-9_センタ__プレ__ト
  6
CONTINUOUS
 62
    4
 10
-102.50000000000031
 20
64.166665999998258
 11
-102.50000000000031
 21
64.266665999998224
  0
LINE
  8
_1-9_センタ__プレ__ト
  6
CONTINUOUS
 62
    4
 10
-101.50000000000017
 20
64.166665999998258
 11
-102.50000000000031
 21
64.166665999998258
  0
LINE
  8
_1-9_センタ__プレ__ト
  6
CONTINUOUS
 62
    4
 10
-100.50000000000031
 20
64.266665999998224
 11
-101.50000000000017
 21
64.266665999998224
  0
LINE
  8
_1-9_センタ__プレ__ト
  6
CONTINUOUS
 62
    4
 10
-99.500000000000455
 20
64.166665999998258
 11
-99.500000000000455
 21
64.266665999998224
  0
LINE
  8
_1-9_センタ__プレ__ト
  6
CONTINUOUS
 62
    4
 10
-100.50000000000031
 20
64.166665999998258
 11
-100.50000000000031
 21
64.266665999998224
  0
LINE
  8
_1-9_センタ__プレ__ト
  6
CONTINUOUS
 62
    4
 10
-99.500000000000455
 20
64.166665999998258
 11
-100.50000000000031
 21
64.166665999998258
  0
LINE
  8
_1-9_センタ__プレ__ト
  6
CONTINUOUS
 62
    4
 10
-98.500000000000455
 20
64.266665999998224
 11
-99.500000000000455
 21
64.266665999998224
  0
LINE
  8
_1-9_センタ__プレ__ト
  6
CONTINUOUS
 62
    4
 10
-97.500000000000313
 20
64.166665999998258
 11
-97.500000000000313
 21
64.266665999998224
  0
LINE
  8
_1-9_センタ__プレ__ト
  6
CONTINUOUS
 62
    4
 10
-98.500000000000455
 20
64.166665999998258
 11
-98.500000000000455
 21
64.266665999998224
  0
LINE
  8
_1-9_センタ__プレ__ト
  6
CONTINUOUS
 62
    4
 10
-97.500000000000313
 20
64.166665999998258
 11
-98.500000000000455
 21
64.166665999998258
  0
LINE
  8
_1-9_センタ__プレ__ト
  6
CONTINUOUS
 62
    4
 10
-96.50000000000054
 20
64.266665999998224
 11
-97.500000000000313
 21
64.266665999998224
  0
LINE
  8
_1-9_センタ__プレ__ト
  6
CONTINUOUS
 62
    4
 10
-95.500000000000625
 20
64.166665999998258
 11
-95.500000000000625
 21
64.266665999998224
  0
LINE
  8
_1-9_センタ__プレ__ト
  6
CONTINUOUS
 62
    4
 10
-96.50000000000054
 20
64.166665999998258
 11
-96.50000000000054
 21
64.266665999998224
  0
LINE
  8
_1-9_センタ__プレ__ト
  6
CONTINUOUS
 62
    4
 10
-95.500000000000625
 20
64.166665999998258
 11
-96.50000000000054
 21
64.166665999998258
  0
LINE
  8
_1-9_センタ__プレ__ト
  6
CONTINUOUS
 62
    4
 10
-94.500000000000455
 20
64.266665999998224
 11
-95.500000000000625
 21
64.266665999998224
  0
LINE
  8
_1-9_センタ__プレ__ト
  6
CONTINUOUS
 62
    4
 10
-93.500000000000625
 20
64.166665999998258
 11
-93.500000000000625
 21
64.266665999998224
  0
LINE
  8
_1-9_センタ__プレ__ト
  6
CONTINUOUS
 62
    4
 10
-94.500000000000455
 20
64.166665999998258
 11
-94.500000000000455
 21
64.266665999998224
  0
LINE
  8
_1-9_センタ__プレ__ト
  6
CONTINUOUS
 62
    4
 10
-93.500000000000625
 20
64.166665999998258
 11
-94.500000000000455
 21
64.166665999998258
  0
LINE
  8
_1-9_センタ__プレ__ト
  6
CONTINUOUS
 62
    4
 10
-92.500000000000625
 20
64.266665999998224
 11
-93.500000000000625
 21
64.266665999998224
  0
LINE
  8
_1-9_センタ__プレ__ト
  6
CONTINUOUS
 62
    4
 10
-91.50000000000054
 20
64.166665999998258
 11
-91.50000000000054
 21
64.266665999998224
  0
LINE
  8
_1-9_センタ__プレ__ト
  6
CONTINUOUS
 62
    4
 10
-92.500000000000625
 20
64.166665999998258
 11
-92.500000000000625
 21
64.266665999998224
  0
LINE
  8
_1-9_センタ__プレ__ト
  6
CONTINUOUS
 62
    4
 10
-91.50000000000054
 20
64.166665999998258
 11
-92.500000000000625
 21
64.166665999998258
  0
LINE
  8
_1-9_センタ__プレ__ト
  6
CONTINUOUS
 62
    4
 10
-90.500000000000625
 20
64.266665999998224
 11
-91.50000000000054
 21
64.266665999998224
  0
LINE
  8
_1-9_センタ__プレ__ト
  6
CONTINUOUS
 62
    4
 10
-89.500000000000455
 20
64.166665999998258
 11
-89.500000000000455
 21
64.266665999998224
  0
LINE
  8
_1-9_センタ__プレ__ト
  6
CONTINUOUS
 62
    4
 10
-90.500000000000625
 20
64.166665999998258
 11
-90.500000000000625
 21
64.266665999998224
  0
LINE
  8
_1-9_センタ__プレ__ト
  6
CONTINUOUS
 62
    4
 10
-89.500000000000455
 20
64.166665999998258
 11
-90.500000000000625
 21
64.166665999998258
  0
LINE
  8
_1-9_センタ__プレ__ト
  6
CONTINUOUS
 62
    4
 10
-88.500000000000611
 20
64.266665999998224
 11
-89.500000000000455
 21
64.266665999998224
  0
LINE
  8
_1-9_センタ__プレ__ト
  6
CONTINUOUS
 62
    4
 10
-87.500000000000767
 20
64.166665999998258
 11
-87.500000000000767
 21
64.266665999998224
  0
LINE
  8
_1-9_センタ__プレ__ト
  6
CONTINUOUS
 62
    4
 10
-88.500000000000611
 20
64.166665999998258
 11
-88.500000000000611
 21
64.266665999998224
  0
LINE
  8
_1-9_センタ__プレ__ト
  6
CONTINUOUS
 62
    4
 10
-87.500000000000767
 20
64.166665999998258
 11
-88.500000000000611
 21
64.166665999998258
  0
LINE
  8
_1-9_センタ__プレ__ト
  6
CONTINUOUS
 62
    4
 10
-86.500000000000767
 20
64.266665999998224
 11
-87.500000000000767
 21
64.266665999998224
  0
LINE
  8
_1-9_センタ__プレ__ト
  6
CONTINUOUS
 62
    4
 10
-85.500000000000611
 20
64.166665999998258
 11
-85.500000000000611
 21
64.266665999998224
  0
LINE
  8
_1-9_センタ__プレ__ト
  6
CONTINUOUS
 62
    4
 10
-86.500000000000767
 20
64.166665999998258
 11
-86.500000000000767
 21
64.266665999998224
  0
LINE
  8
_1-9_センタ__プレ__ト
  6
CONTINUOUS
 62
    4
 10
-85.500000000000611
 20
64.166665999998258
 11
-86.500000000000767
 21
64.166665999998258
  0
LINE
  8
_1-9_センタ__プレ__ト
  6
CONTINUOUS
 62
    4
 10
-84.500000000000455
 20
64.266665999998224
 11
-85.500000000000611
 21
64.266665999998224
  0
LINE
  8
_1-9_センタ__プレ__ト
  6
CONTINUOUS
 62
    4
 10
-83.500000000000611
 20
64.166665999998258
 11
-83.500000000000611
 21
64.266665999998224
  0
LINE
  8
_1-9_センタ__プレ__ト
  6
CONTINUOUS
 62
    4
 10
-84.500000000000455
 20
64.166665999998258
 11
-84.500000000000455
 21
64.266665999998224
  0
LINE
  8
_1-9_センタ__プレ__ト
  6
CONTINUOUS
 62
    4
 10
-83.500000000000611
 20
64.166665999998258
 11
-84.500000000000455
 21
64.166665999998258
  0
LINE
  8
_1-9_センタ__プレ__ト
  6
CONTINUOUS
 62
    4
 10
-82.500000000000767
 20
64.266665999998224
 11
-83.500000000000611
 21
64.266665999998224
  0
LINE
  8
_1-9_センタ__プレ__ト
  6
CONTINUOUS
 62
    4
 10
-81.500000000000767
 20
64.166665999998258
 11
-81.500000000000767
 21
64.266665999998224
  0
LINE
  8
_1-9_センタ__プレ__ト
  6
CONTINUOUS
 62
    4
 10
-82.500000000000767
 20
64.166665999998258
 11
-82.500000000000767
 21
64.266665999998224
  0
LINE
  8
_1-9_センタ__プレ__ト
  6
CONTINUOUS
 62
    4
 10
-81.500000000000767
 20
64.166665999998258
 11
-82.500000000000767
 21
64.166665999998258
  0
LINE
  8
_1-9_センタ__プレ__ト
  6
CONTINUOUS
 62
    4
 10
-80.500000000000625
 20
64.266665999998224
 11
-81.500000000000767
 21
64.266665999998224
  0
LINE
  8
_1-9_センタ__プレ__ト
  6
CONTINUOUS
 62
    4
 10
-79.500000000000853
 20
64.166665999998258
 11
-79.500000000000853
 21
64.266665999998224
  0
LINE
  8
_1-9_センタ__プレ__ト
  6
CONTINUOUS
 62
    4
 10
-80.500000000000625
 20
64.166665999998258
 11
-80.500000000000625
 21
64.266665999998224
  0
LINE
  8
_1-9_センタ__プレ__ト
  6
CONTINUOUS
 62
    4
 10
-79.500000000000853
 20
64.166665999998258
 11
-80.500000000000625
 21
64.166665999998258
  0
LINE
  8
_1-9_センタ__プレ__ト
  6
CONTINUOUS
 62
    4
 10
-78.500000000000966
 20
64.266665999998224
 11
-79.500000000000853
 21
64.266665999998224
  0
LINE
  8
_1-9_センタ__プレ__ト
  6
CONTINUOUS
 62
    4
 10
-77.500000000000767
 20
64.166665999998258
 11
-77.500000000000767
 21
64.266665999998224
  0
LINE
  8
_1-9_センタ__プレ__ト
  6
CONTINUOUS
 62
    4
 10
-78.500000000000966
 20
64.166665999998258
 11
-78.500000000000966
 21
64.266665999998224
  0
LINE
  8
_1-9_センタ__プレ__ト
  6
CONTINUOUS
 62
    4
 10
-77.500000000000767
 20
64.166665999998258
 11
-78.500000000000966
 21
64.166665999998258
  0
LINE
  8
_1-9_センタ__プレ__ト
  6
CONTINUOUS
 62
    4
 10
-76.500000000000767
 20
64.266665999998224
 11
-77.500000000000767
 21
64.266665999998224
  0
LINE
  8
_1-9_センタ__プレ__ト
  6
CONTINUOUS
 62
    4
 10
-75.500000000000625
 20
64.166665999998258
 11
-75.500000000000625
 21
64.266665999998224
  0
LINE
  8
_1-9_センタ__プレ__ト
  6
CONTINUOUS
 62
    4
 10
-76.500000000000767
 20
64.166665999998258
 11
-76.500000000000767
 21
64.266665999998224
  0
LINE
  8
_1-9_センタ__プレ__ト
  6
CONTINUOUS
 62
    4
 10
-75.500000000000625
 20
64.166665999998258
 11
-76.500000000000767
 21
64.166665999998258
  0
LINE
  8
_1-9_センタ__プレ__ト
  6
CONTINUOUS
 62
    4
 10
-74.500000000000853
 20
64.266665999998224
 11
-75.500000000000625
 21
64.266665999998224
  0
LINE
  8
_1-9_センタ__プレ__ト
  6
CONTINUOUS
 62
    4
 10
-73.500000000000966
 20
64.166665999998258
 11
-73.500000000000966
 21
64.266665999998224
  0
LINE
  8
_1-9_センタ__プレ__ト
  6
CONTINUOUS
 62
    4
 10
-74.500000000000853
 20
64.166665999998258
 11
-74.500000000000853
 21
64.266665999998224
  0
LINE
  8
_1-9_センタ__プレ__ト
  6
CONTINUOUS
 62
    4
 10
-73.500000000000966
 20
64.166665999998258
 11
-74.500000000000853
 21
64.166665999998258
  0
LINE
  8
_1-9_センタ__プレ__ト
  6
CONTINUOUS
 62
    4
 10
-72.500000000000767
 20
64.266665999998224
 11
-73.500000000000966
 21
64.266665999998224
  0
LINE
  8
_1-9_センタ__プレ__ト
  6
CONTINUOUS
 62
    4
 10
-71.500000000000966
 20
64.166665999998258
 11
-71.500000000000966
 21
64.266665999998224
  0
LINE
  8
_1-9_センタ__プレ__ト
  6
CONTINUOUS
 62
    4
 10
-72.500000000000767
 20
64.166665999998258
 11
-72.500000000000767
 21
64.266665999998224
  0
LINE
  8
_1-9_センタ__プレ__ト
  6
CONTINUOUS
 62
    4
 10
-71.500000000000966
 20
64.166665999998258
 11
-72.500000000000767
 21
64.166665999998258
  0
LINE
  8
_1-9_センタ__プレ__ト
  6
CONTINUOUS
 62
    4
 10
-70.500000000000966
 20
64.266665999998224
 11
-71.500000000000966
 21
64.266665999998224
  0
LINE
  8
_1-9_センタ__プレ__ト
  6
CONTINUOUS
 62
    4
 10
-69.500000000000853
 20
64.166665999998258
 11
-69.500000000000853
 21
64.266665999998224
  0
LINE
  8
_1-9_センタ__プレ__ト
  6
CONTINUOUS
 62
    4
 10
-70.500000000000966
 20
64.166665999998258
 11
-70.500000000000966
 21
64.266665999998224
  0
LINE
  8
_1-9_センタ__プレ__ト
  6
CONTINUOUS
 62
    4
 10
-69.500000000000853
 20
64.166665999998258
 11
-70.500000000000966
 21
64.166665999998258
  0
LINE
  8
_1-9_センタ__プレ__ト
  6
CONTINUOUS
 62
    4
 10
-61.500000999933093
 20
62.400365485109432
 11
-61.500000999933093
 21
60.401471573422583
  0
LINE
  8
_1-9_センタ__プレ__ト
  6
CONTINUOUS
 62
    4
 10
-62.166667666666257
 20
60.401471573422583
 11
-61.500000999933093
 21
60.401471573422583
  0
LINE
  8
_1-9_センタ__プレ__ト
  6
CONTINUOUS
 62
    4
 10
-62.166667666666257
 20
61.401471573422583
 11
-62.166667666666257
 21
60.401471573422583
  0
LINE
  8
_1-9_センタ__プレ__ト
  6
CONTINUOUS
 62
    4
 10
-66.627618522506566
 20
64.266665999998224
 11
-69.500000000000853
 21
64.266665999998224
  0
LINE
  8
_1-9_センタ__プレ__ト
  6
CONTINUOUS
 62
    4
 10
-66.627618522506566
 20
64.266665999998224
 11
-61.499999999999716
 21
62.400365485133761
  0
LINE
  8
_1-9_センタ__プレ__ト
  6
CONTINUOUS
 62
    4
 10
-66.833333333333087
 20
63.099999333331567
 11
-62.166666666666231
 21
61.401471573422583
  0
LINE
  8
_1-9_センタ__プレ__ト
  6
CONTINUOUS
 62
    4
 10
-159.83333233333346
 20
63.099999333331567
 11
-66.833333333333087
 21
63.099999333331567
  0
ENDBLK
  0
BLOCK
  2
-018-_15_
 70
   64
 10
0
 20
0
 30
0
  0
LINE
  8
_1-4_フレ__ム
  6
CONTINUOUS
 62
    4
 10
-98.166666666667879
 20
61.099999999996214
 11
-98.333333333334394
 21
60.433333333329557
  0
LINE
  8
_1-4_フレ__ム
  6
CONTINUOUS
 62
    4
 10
-98.333333333334394
 20
61.099999999996214
 11
-98.166666666667879
 21
61.099999999996214
  0
LINE
  8
_1-4_フレ__ム
  6
CONTINUOUS
 62
    4
 10
-98.333333333334394
 20
62.099999999996214
 11
-98.333333333334394
 21
61.099999999996214
  0
ARC
  8
_1-4_フレ__ム
  6
CONTINUOUS
 62
    4
 10
-97.833333333334281
 20
62.099999999996214
 40
0.5
 50
0
 51
180
  0
LINE
  8
_1-4_フレ__ム
  6
CONTINUOUS
 62
    4
 10
-97.333333333334281
 20
61.099999999996214
 11
-97.333333333334281
 21
62.099999999996214
  0
LINE
  8
_1-4_フレ__ム
  6
CONTINUOUS
 62
    4
 10
-97.500000000001023
 20
61.099999999996214
 11
-97.333333333334281
 21
61.099999999996214
  0
LINE
  8
_1-4_フレ__ム
  6
CONTINUOUS
 62
    4
 10
-97.333333333334281
 20
60.433333333329557
 11
-97.500000000001023
 21
61.099999999996214
  0
ARC
  8
_1-4_フレ__ム
  6
CONTINUOUS
 62
    4
 10
-24.166666666667481
 20
62.499999999996191
 40
0.3333333333333333
 50
0
 51
90
  0
LINE
  8
_1-4_フレ__ム
  6
CONTINUOUS
 62
    4
 10
-27.333333333334224
 20
62.833333333329648
 11
-24.166666666667481
 21
62.833333333329648
  0
ARC
  8
_1-4_フレ__ム
  6
CONTINUOUS
 62
    4
 10
-27.333333333334224
 20
63.499999999996305
 40
0.6666666666666666
 50
180
 51
270
  0
LINE
  8
_1-4_フレ__ム
  6
CONTINUOUS
 62
    4
 10
-25.600000000000932
 20
63.666666666662934
 11
-26.833333333334366
 21
63.666666666662934
  0
LINE
  8
_1-4_フレ__ム
  6
CONTINUOUS
 62
    4
 10
-25.500000000001023
 20
63.566666666662911
 11
-25.600000000000932
 21
63.666666666662934
  0
LINE
  8
_1-4_フレ__ム
  6
CONTINUOUS
 62
    4
 10
-25.40000000000083
 20
63.666666666662934
 11
-25.500000000001023
 21
63.566666666662911
  0
LINE
  8
_1-4_フレ__ム
  6
CONTINUOUS
 62
    4
 10
-24.166666666667481
 20
63.666666666662934
 11
-25.40000000000083
 21
63.666666666662934
  0
ARC
  8
_1-4_フレ__ム
  6
CONTINUOUS
 62
    4
 10
-22.833333333334224
 20
62.666666666662934
 40
0.1666666666666666
 50
180
 51
270
  0
ARC
  8
_1-4_フレ__ム
  6
CONTINUOUS
 62
    4
 10
-21.916666666667538
 20
64.749999999996305
 40
0.25
 50
0
 51
180
  0
LINE
  8
_1-4_フレ__ム
  6
CONTINUOUS
 62
    4
 10
-21.666666666667481
 20
62.16666666666282
 11
-21.666666666667481
 21
64.749999999996305
  0
ARC
  8
_1-4_フレ__ム
  6
CONTINUOUS
 62
    4
 10
-21.833333333333911
 20
62.16666666666282
 40
0.1666666666666666
 50
270
 51
0
  0
LINE
  8
_1-4_フレ__ム
  6
CONTINUOUS
 62
    4
 10
-22.666666666667254
 20
61.999999999996305
 11
-21.833333333333911
 21
61.999999999996305
  0
ARC
  8
_1-4_フレ__ム
  6
CONTINUOUS
 62
    4
 10
-22.666666666667254
 20
61.666666666662906
 40
0.3333333333333333
 50
90
 51
180
  0
ARC
  8
_1-4_フレ__ム
  6
CONTINUOUS
 62
    4
 10
-98.000000000001023
 20
55.833333333329563
 40
0.3333333333333333
 50
180
 51
270
  0
ARC
  8
_1-4_フレ__ム
  6
CONTINUOUS
 62
    4
 10
-96.333333333334053
 20
57.666666666663133
 40
1
 50
180
 51
270
  0
ARC
  8
_1-4_フレ__ム
  6
CONTINUOUS
 62
    4
 10
-24.500000000000881
 20
56.999999999996305
 40
0.6666666666666666
 50
270
 51
0
  0
LINE
  8
_1-4_フレ__ム
  6
CONTINUOUS
 62
    4
 10
-98.000000000001023
 20
55.499999999996163
 11
-22.999999999999972
 21
55.499999999996163
  0
LINE
  8
_1-4_フレ__ム
  6
CONTINUOUS
 62
    4
 10
-23.000000000001023
 20
55.499999999996163
 11
-23.000000000001023
 21
61.666666666662906
  0
LINE
  8
_1-4_フレ__ム
  6
CONTINUOUS
 62
    4
 10
-23.833333333334366
 20
62.499999999996191
 11
-23.833333333334366
 21
56.999999999996305
  0
LINE
  8
_1-4_フレ__ム
  6
CONTINUOUS
 62
    4
 10
-98.333333333334394
 20
60.433333333329557
 11
-98.333333333334394
 21
55.833333333329563
  0
LINE
  8
_1-4_フレ__ム
  6
CONTINUOUS
 62
    4
 10
-97.333333333334281
 20
57.666666666663133
 11
-97.333333333334281
 21
60.433333333329557
  0
LINE
  8
_1-4_フレ__ム
  6
CONTINUOUS
 62
    4
 10
-79.900000000001256
 20
56.666666666662906
 11
-80.000000000001165
 21
56.566666666662996
  0
LINE
  8
_1-4_フレ__ム
  6
CONTINUOUS
 62
    4
 10
-80.000000000001165
 20
56.566666666662996
 11
-80.100000000001188
 21
56.666666666662906
  0
LINE
  8
_1-4_フレ__ム
  6
CONTINUOUS
 62
    4
 10
-28.000000000001023
 20
64.166666666662906
 11
-28.000000000001023
 21
63.499999999996305
  0
LINE
  8
_1-4_フレ__ム
  6
CONTINUOUS
 62
    4
 10
-26.833333333334366
 20
64.166666666662906
 11
-28.000000000001023
 21
64.166666666662906
  0
LINE
  8
_1-4_フレ__ム
  6
CONTINUOUS
 62
    4
 10
-26.833333333334366
 20
63.666666666662934
 11
-26.833333333334366
 21
64.166666666662906
  0
LINE
  8
_1-4_フレ__ム
  6
CONTINUOUS
 62
    4
 10
-24.166666666667481
 20
64.166666666662906
 11
-24.166666666667481
 21
63.666666666662934
  0
LINE
  8
_1-4_フレ__ム
  6
CONTINUOUS
 62
    4
 10
-23.000000000001023
 20
64.166666666662906
 11
-24.166666666667481
 21
64.166666666662906
  0
LINE
  8
_1-4_フレ__ム
  6
CONTINUOUS
 62
    4
 10
-23.000000000001023
 20
62.666666666662934
 11
-23.000000000001023
 21
64.166666666662906
  0
LINE
  8
_1-4_フレ__ム
  6
CONTINUOUS
 62
    4
 10
-22.166666666667709
 20
64.749999999996305
 11
-22.166666666667709
 21
62.499999999996191
  0
LINE
  8
_1-4_フレ__ム
  6
CONTINUOUS
 62
    4
 10
-22.166666666667709
 20
62.499999999996191
 11
-22.833333333334224
 21
62.499999999996191
  0
LINE
  8
_1-4_フレ__ム
  6
CONTINUOUS
 62
    4
 10
-80.100000000001188
 20
56.666666666662906
 11
-96.333333333334053
 21
56.666666666662906
  0
LINE
  8
_1-4_フレ__ム
  6
CONTINUOUS
 62
    4
 10
-75.000000000001393
 20
56.666666666662906
 11
-74.166666666668021
 21
56.333333333329648
  0
LINE
  8
_1-4_フレ__ム
  6
CONTINUOUS
 62
    4
 10
-75.000000000001393
 20
56.666666666662906
 11
-79.900000000001256
 21
56.666666666662906
  0
LINE
  8
_1-4_フレ__ム
  6
CONTINUOUS
 62
    4
 10
-33.333333333334366
 20
56.233333333329597
 11
-33.433333333334275
 21
56.333333333329506
  0
LINE
  8
_1-4_フレ__ム
  6
CONTINUOUS
 62
    4
 10
-33.233333333334457
 20
56.333333333329506
 11
-33.333333333334366
 21
56.233333333329597
  0
LINE
  8
_1-4_フレ__ム
  6
DASHED1
 62
    4
 10
-82.500000000001165
 20
55.499999999996163
 11
-82.500000000001165
 21
56.66666666666282
  0
LINE
  8
_1-4_フレ__ム
  6
DASHED1
 62
    4
 10
-77.500000000001165
 20
55.499999999996163
 11
-77.500000000001165
 21
56.66666666666282
  0
LINE
  8
_1-4_フレ__ム
  6
CONTINUOUS
 62
    4
 10
-24.500000000000881
 20
56.333333333329506
 11
-33.233333333334457
 21
56.333333333329506
  0
LINE
  8
_1-4_フレ__ム
  6
CONTINUOUS
 62
    4
 10
-33.433333333334275
 20
56.333333333329506
 11
-74.166666666668021
 21
56.333333333329506
  0
LINE
  8
_1-4_フレ__ム
  6
DASHED1
 62
    4
 10
-35.833333333334366
 20
55.499999999996163
 11
-35.833333333334366
 21
56.333333333329506
  0
LINE
  8
_1-4_フレ__ム
  6
DASHED1
 62
    4
 10
-30.833333333334366
 20
55.499999999996163
 11
-30.833333333334366
 21
56.333333333329506
  0
LINE
  8
_1-4_フレ__ム
  6
CENTER2
 62
    4
 10
-80.000000000001165
 20
53.833333333329506
 11
-80.000000000001165
 21
58.333333333329563
  0
LINE
  8
_1-4_フレ__ム
  6
CENTER2
 62
    4
 10
-33.333333333334366
 20
53.833333333329506
 11
-33.333333333334366
 21
57.999999999996163
  0
LINE
  8
_1-4_フレ__ム
  6
CENTER2
 62
    4
 10
-25.500000000000796
 20
64.66666666666282
 11
-25.500000000000796
 21
61.833333333329449
  0
ENDBLK
  0
ENDSEC
  0
SECTION
  2
ENTITIES
  0
LINE
  8
_0-0_図面枠
  6
CONTINUOUS
 62
    6
 10
410.00000000000006
 20
287
 11
10
 21
287.00000000000006
  0
LINE
  8
_0-0_図面枠
  6
CONTINUOUS
 62
    6
 10
410
 20
9.9999999999998863
 11
410.00000000000006
 21
287
  0
LINE
  8
_0-0_図面枠
  6
CONTINUOUS
 62
    6
 10
9.9999999999999147
 20
10
 11
410
 21
9.9999999999998863
  0
LINE
  8
_0-0_図面枠
  6
CONTINUOUS
 62
    6
 10
10
 20
287.00000000000006
 11
9.9999999999999147
 21
10
  0
TEXT
  8
_0-0_図面枠
 62
    4
 10
20
 20
280
 40
3.2000000000000002
 41
1
 50
0
  1
（アルミ２００タイプ）
  0
LINE
  8
_0-0_図面枠
  6
CONTINUOUS
 62
    2
 10
165.00000000000003
 20
247
 11
165.00000000000003
 21
287
  0
LINE
  8
_0-0_図面枠
  6
CONTINUOUS
 62
    4
 10
203.41099396657057
 20
266.02749333152167
 11
203.3763215892879
 21
266.00747522516406
  0
LINE
  8
_0-0_図面枠
  6
CONTINUOUS
 62
    2
 10
187.38952399655849
 20
259.77749333152167
 11
204.71003207224726
 21
269.77749333152167
  0
LINE
  8
_0-0_図面枠
  6
CONTINUOUS
 62
    2
 10
187.38952399655849
 20
259.77749333152167
 11
187.38952399655849
 21
256.77749333152167
  0
LINE
  8
_0-0_図面枠
  6
CONTINUOUS
 62
    2
 10
193.88471452494178
 20
260.52749333152167
 11
193.88471452494178
 21
263.52749333152167
  0
LINE
  8
_0-0_図面枠
  6
CONTINUOUS
 62
    2
 10
187.38952399655849
 20
256.77749333152167
 11
193.88471452494178
 21
260.52749333152167
  0
LINE
  8
_0-0_図面枠
  6
CONTINUOUS
 62
    2
 10
204.71003207224726
 20
269.77749333152167
 11
204.71003207224726
 21
266.77749333152167
  0
LINE
  8
_0-0_図面枠
  6
CONTINUOUS
 62
    2
 10
204.71003207224726
 20
266.77749333152167
 11
198.21484154386397
 21
263.02749333152167
  0
LINE
  8
_0-0_図面枠
  6
CONTINUOUS
 62
    2
 10
198.21484154386397
 20
263.02749333152167
 11
198.21484154386397
 21
266.02749333152167
  0
LINE
  8
_0-0_図面枠
  6
CONTINUOUS
 62
    2
 10
198.21484154386397
 20
263.02749333152167
 11
195.61676533251065
 21
264.52749333152167
  0
LINE
  8
_0-0_図面枠
  6
CONTINUOUS
 62
    2
 10
187.38952399655849
 20
256.77749333152167
 11
178.7292699587141
 21
261.77749333152167
  0
INSERT
  2
-000-
  8
_0-0_図面枠
 10
210
 20
148.5
 41
1
 42
1
 50
0
  0
TEXT
  8
_0-0_図面枠
 62
    4
 10
167.96212759789969
 20
279.54737717230728
 40
2.5
 41
1
 50
0
  1
-100
  0
TEXT
  8
_0-0_図面枠
 62
    4
 10
190.47798128817081
 20
279.54737717230722
 40
2.5
 41
1
 50
0
  1
+100
  0
TEXT
  8
_0-0_図面枠
 62
    4
 10
190.47798128817078
 20
266.54784298319498
 40
2.5
 41
1
 50
0
  1
+100
  0
TEXT
  8
_0-0_図面枠
 62
    4
 10
167.96172419203037
 20
266.54854175273664
 40
2.5
 41
1
 50
0
  1
-100
  0
LINE
  8
_0-0_図面枠
  6
CONTINUOUS
 62
    3
 10
193.88471452494178
 20
260.52749333152167
 11
185.22446048709736
 21
255.52749333152167
  0
LINE
  8
_0-0_図面枠
  6
CONTINUOUS
 62
    3
 10
193.88471452494178
 20
260.52749333152167
 11
193.88471452494178
 21
250.52749333152167
  0
LINE
  8
_0-0_図面枠
  6
CONTINUOUS
 62
    3
 10
198.21484154386397
 20
263.02749333152167
 11
198.21484154386397
 21
253.02749333152167
  0
LINE
  8
_0-0_図面枠
  6
CONTINUOUS
 62
    3
 10
198.21484154386397
 20
263.02749333152167
 11
206.87509558170834
 21
268.02749333152167
  0
LINE
  8
_0-0_図面枠
  6
CONTINUOUS
 62
    2
 10
165.00000000000003
 20
247
 11
210.00000000000003
 21
247
  0
LINE
  8
_0-0_図面枠
  6
CONTINUOUS
 62
    2
 10
210.00000000000003
 20
247
 11
210.00000000000003
 21
287
  0
LINE
  8
_0-0_図面枠
  6
CONTINUOUS
 62
    4
 10
182.14999999999998
 20
48.533333333333303
 11
40
 21
48.533333333333303
  0
LINE
  8
_0-0_図面枠
  6
CONTINUOUS
 62
    4
 10
182.14999999999998
 20
60.533333333333303
 11
40
 21
60.533333333333303
  0
LINE
  8
_0-0_図面枠
  6
CONTINUOUS
 62
    4
 10
182.14999999999998
 20
54.533333333333303
 11
40
 21
54.533333333333303
  0
LINE
  8
_0-0_図面枠
  6
CONTINUOUS
 62
    4
 10
182.14999999999998
 20
66.533333333333303
 11
40
 21
66.533333333333303
  0
LINE
  8
_0-0_図面枠
  6
CONTINUOUS
 62
    4
 10
182.14999999999998
 20
102.53333333333336
 11
40
 21
102.53333333333336
  0
LINE
  8
_0-0_図面枠
  6
CONTINUOUS
 62
    4
 10
182.14999999999998
 20
96.53333333333336
 11
40
 21
96.53333333333336
  0
LINE
  8
_0-0_図面枠
  6
CONTINUOUS
 62
    4
 10
182.14999999999998
 20
90.53333333333336
 11
40
 21
90.53333333333336
  0
LINE
  8
_0-0_図面枠
  6
CONTINUOUS
 62
    4
 10
182.14999999999998
 20
84.53333333333336
 11
40
 21
84.53333333333336
  0
LINE
  8
_0-0_図面枠
  6
CONTINUOUS
 62
    4
 10
182.14999999999998
 20
78.53333333333336
 11
40
 21
78.53333333333336
  0
LINE
  8
_0-0_図面枠
  6
CONTINUOUS
 62
    4
 10
182.14999999999998
 20
72.533333333333303
 11
40
 21
72.533333333333303
  0
LINE
  8
_0-0_図面枠
  6
CONTINUOUS
 62
    4
 10
182.14999999999998
 20
113.33333333333331
 11
40
 21
113.33333333333331
  0
LINE
  8
_0-0_図面枠
  6
CONTINUOUS
 62
    4
 10
182.14999999999998
 20
42.533333333333303
 11
40
 21
42.533333333333303
  0
LINE
  8
_0-0_図面枠
  6
CONTINUOUS
 62
    4
 10
182.14999999999998
 20
36.533333333333303
 11
40
 21
36.533333333333303
  0
LINE
  8
_0-0_図面枠
  6
CONTINUOUS
 62
    4
 10
182.14999999999998
 20
30.533333333333303
 11
40
 21
30.533333333333303
  0
LINE
  8
_0-0_図面枠
  6
CONTINUOUS
 62
    4
 10
182.14999999999998
 20
24.533333333333303
 11
40
 21
24.533333333333303
  0
TEXT
  8
_0-0_図面枠
 62
    4
 10
165.55126400000003
 20
108.53334383333328
 40
3.2000000000000002
 41
1
 50
0
  1
使用
  0
TEXT
  8
_0-0_図面枠
 62
    4
 10
150.50638249999994
 20
108.53334383333328
 40
3.2000000000000002
 41
1
 50
0
  1
定　尺
  0
TEXT
  8
_0-0_図面枠
 62
    4
 10
148.34354749999997
 20
103.73333733333328
 40
3.2000000000000002
 41
1
 50
0
  1
（ｍｍ）
  0
TEXT
  8
_0-0_図面枠
 62
    4
 10
165.55126400000003
 20
103.73333733333328
 40
3.2000000000000002
 41
1
 50
0
  1
数量
  0
TEXT
  8
_0-0_図面枠
 62
    4
 10
40.497067999999985
 20
97.760882833333255
 40
3.2000000000000002
 41
1
 50
0
  1
　１
  0
TEXT
  8
_0-0_図面枠
 62
    4
 10
43.586831999999987
 20
91.760882833333255
 40
3.2000000000000002
 41
1
 50
0
  1
２
  0
TEXT
  8
_0-0_図面枠
 62
    4
 10
43.586831999999987
 20
85.760882833333255
 40
3.2000000000000002
 41
1
 50
0
  1
３
  0
TEXT
  8
_0-0_図面枠
 62
    4
 10
43.586831999999987
 20
79.760882833333255
 40
3.2000000000000002
 41
1
 50
0
  1
４
  0
TEXT
  8
_0-0_図面枠
 62
    4
 10
43.586831999999987
 20
73.760894333333283
 40
3.2000000000000002
 41
1
 50
0
  1
５
  0
TEXT
  8
_0-0_図面枠
 62
    4
 10
43.586831999999987
 20
67.760894333333283
 40
3.2000000000000002
 41
1
 50
0
  1
６
  0
TEXT
  8
_0-0_図面枠
 62
    4
 10
43.586831999999987
 20
61.760888833333297
 40
3.2000000000000002
 41
1
 50
0
  1
７
  0
TEXT
  8
_0-0_図面枠
 62
    4
 10
43.586831999999987
 20
55.760888833333297
 40
3.2000000000000002
 41
1
 50
0
  1
８
  0
LINE
  8
_0-0_図面枠
  6
CONTINUOUS
 62
    4
 10
182.14999999999998
 20
18.533333333333303
 11
40
 21
18.533333333333303
  0
LINE
  8
_0-0_図面枠
  6
CONTINUOUS
 62
    4
 10
40
 20
18.533333333333303
 11
40
 21
113.33333333333331
  0
LINE
  8
_0-0_図面枠
  6
CONTINUOUS
 62
    4
 10
47.200000000000017
 20
18.533333333333303
 11
47.200000000000017
 21
113.33333333333331
  0
LINE
  8
_0-0_図面枠
  6
CONTINUOUS
 62
    4
 10
182.14999999999998
 20
18.533333333333303
 11
182.14999999999998
 21
113.33333333333331
  0
LINE
  8
_0-0_図面枠
  6
CONTINUOUS
 62
    4
 10
162.95000000000002
 20
18.533333333333303
 11
162.95000000000002
 21
113.33333333333331
  0
LINE
  8
_0-0_図面枠
  6
CONTINUOUS
 62
    4
 10
147.95000000000002
 20
18.533333333333303
 11
147.95000000000002
 21
113.33333333333331
  0
LINE
  8
_0-0_図面枠
  6
CONTINUOUS
 62
    4
 10
174.95000000000005
 20
18.533333333333303
 11
174.95000000000005
 21
113.33333333333331
  0
LINE
  8
_0-0_図面枠
  6
CONTINUOUS
 62
    4
 10
146.95000000000002
 20
18.533333333333303
 11
146.95000000000002
 21
113.33333333333331
  0
TEXT
  8
_0-0_図面枠
 62
    4
 10
69.300000000000011
 20
106.33333333333334
 40
3.2000000000000002
 41
1
 50
0
  1
部材名称
  0
TEXT
  8
_0-0_図面枠
 62
    4
 10
178.54999999999998
 20
111.13333333333334
 40
3.2000000000000002
 41
1
 50
0
  1
単位
  7
TATEGAKI
  0
LINE
  8
_0-0_図面枠
  6
CONTINUOUS
 62
    4
 10
100.86666666666667
 20
18.533333333333303
 11
100.86666666666667
 21
113.33333333333331
  0
TEXT
  8
_0-0_図面枠
 62
    4
 10
119.10833333333336
 20
106.33333333333333
 40
3.2000000000000002
 41
1
 50
0
  1
規　格
  0
TEXT
  8
_0-0_図面枠
 62
    4
 10
48.400007499999987
 20
97.733337333333282
 40
3.2000000000000002
 41
1
 50
0
  1
ＴＴＧサイドプレート(Ａ)Ａ
  0
TEXT
  8
_0-0_図面枠
 62
    4
 10
177.00512500000002
 20
43.733325833333311
 40
3.2000000000000002
 41
1
 50
0
  1
本
  0
TEXT
  8
_0-0_図面枠
 62
    4
 10
43.586831999999987
 20
49.760888833333297
 40
3.2000000000000002
 41
1
 50
0
  1
９
  0
TEXT
  8
_0-0_図面枠
 62
    4
 10
40.497050499999972
 20
43.760888833333283
 40
3.2000000000000002
 41
1
 50
0
  1
１０
  0
TEXT
  8
_0-0_図面枠
 62
    4
 10
48.400007499999987
 20
67.733337333333282
 40
3.2000000000000002
 41
1
 50
0
  1
止水補助板
  0
TEXT
  8
_0-0_図面枠
 62
    4
 10
177.00512500000011
 20
61.733325833333367
 40
3.2000000000000002
 41
1
 50
0
  1
本
  0
TEXT
  8
_0-0_図面枠
 62
    4
 10
102.06667966666683
 20
61.733342833333381
 40
3.2000000000000002
 41
1
 50
0
  1
皿５×１６
  0
TEXT
  8
_0-0_図面枠
 62
    4
 10
166.27045749999999
 20
61.783341833333338
 40
3.2000000000000002
 41
1
 50
0
  1
２２
  0
TEXT
  8
_0-0_図面枠
 62
    4
 10
48.400007499999987
 20
55.733342833333325
 40
3.2000000000000002
 41
1
 50
0
  1
ステンタッピンねじ
  0
TEXT
  8
_0-0_図面枠
 62
    4
 10
48.400007499999987
 20
49.733342833333325
 40
3.2000000000000002
 41
1
 50
0
  1
ステンワッシャー
  0
TEXT
  8
_0-0_図面枠
 62
    4
 10
177.00512500000002
 20
49.733342833333325
 40
3.2000000000000002
 41
1
 50
0
  1
枚
  0
TEXT
  8
_0-0_図面枠
 62
    4
 10
177.00512500000002
 20
55.733325833333311
 40
3.2000000000000002
 41
1
 50
0
  1
本
  0
TEXT
  8
_0-0_図面枠
 62
    4
 10
102.06669116666671
 20
55.733342833333325
 40
3.2000000000000002
 41
1
 50
0
  1
なべ５×５０
  0
TEXT
  8
_0-0_図面枠
 62
    4
 10
102.06663366666669
 20
49.73333733333331
 40
3.2000000000000002
 41
1
 50
0
  1
１．５×１８×５．５穴
  0
TEXT
  8
_0-0_図面枠
 62
    4
 10
48.4000075000001
 20
61.733342833333381
 40
3.2000000000000002
 41
1
 50
0
  1
ステンドリリングねじ
  0
TEXT
  8
_0-0_図面枠
 62
    4
 10
48.400007499999987
 20
79.733337333333282
 40
3.2000000000000002
 41
1
 50
0
  1
ＴＴＧフレーム(Ａ)
  0
TEXT
  8
_0-0_図面枠
 62
    4
 10
149.270477
 20
85.733337333333282
 40
3.2000000000000002
 41
1
 50
0
  1
３０００
  0
TEXT
  8
_0-0_図面枠
 62
    4
 10
169.36022149999994
 20
85.783336333333239
 40
3.2000000000000002
 41
1
 50
0
  1
１
  0
TEXT
  8
_0-0_図面枠
 62
    4
 10
177.00512500000002
 20
85.733337333333282
 40
3.2000000000000002
 41
1
 50
0
  1
本
  0
TEXT
  8
_0-0_図面枠
 62
    4
 10
149.270477
 20
91.733337333333282
 40
3.2000000000000002
 41
1
 50
0
  1
３０００
  0
TEXT
  8
_0-0_図面枠
 62
    4
 10
169.36022149999994
 20
91.783336333333239
 40
3.2000000000000002
 41
1
 50
0
  1
１
  0
TEXT
  8
_0-0_図面枠
 62
    4
 10
177.00512500000002
 20
91.733337333333282
 40
3.2000000000000002
 41
1
 50
0
  1
本
  0
TEXT
  8
_0-0_図面枠
 62
    4
 10
149.270477
 20
97.733337333333282
 40
3.2000000000000002
 41
1
 50
0
  1
３０００
  0
TEXT
  8
_0-0_図面枠
 62
    4
 10
169.36022149999994
 20
97.783336333333239
 40
3.2000000000000002
 41
1
 50
0
  1
１
  0
TEXT
  8
_0-0_図面枠
 62
    4
 10
177.00512500000002
 20
97.733337333333282
 40
3.2000000000000002
 41
1
 50
0
  1
本
  0
TEXT
  8
_0-0_図面枠
 62
    4
 10
149.270477
 20
79.733337333333282
 40
3.2000000000000002
 41
1
 50
0
  1
３０００
  0
TEXT
  8
_0-0_図面枠
 62
    4
 10
169.36022149999994
 20
79.783336333333239
 40
3.2000000000000002
 41
1
 50
0
  1
１
  0
TEXT
  8
_0-0_図面枠
 62
    4
 10
177.00512500000002
 20
79.733337333333282
 40
3.2000000000000002
 41
1
 50
0
  1
本
  0
TEXT
  8
_0-0_図面枠
 62
    4
 10
149.270477
 20
73.733337333333225
 40
3.2000000000000002
 41
1
 50
0
  1
３０００
  0
TEXT
  8
_0-0_図面枠
 62
    4
 10
169.36022149999994
 20
73.783336333333182
 40
3.2000000000000002
 41
1
 50
0
  1
１
  0
TEXT
  8
_0-0_図面枠
 62
    4
 10
177.00512500000002
 20
73.733337333333225
 40
3.2000000000000002
 41
1
 50
0
  1
本
  0
TEXT
  8
_0-0_図面枠
 62
    4
 10
166.27045749999999
 20
55.783341833333282
 40
3.2000000000000002
 41
1
 50
0
  1
１８
  0
TEXT
  8
_0-0_図面枠
 62
    4
 10
166.27045749999999
 20
49.783341833333282
 40
3.2000000000000002
 41
1
 50
0
  1
１８
  0
TEXT
  8
_0-0_図面枠
 62
    4
 10
166.27045749999999
 20
43.783341833333282
 40
3.2000000000000002
 41
1
 50
0
  1
１８
  0
TEXT
  8
_0-0_図面枠
 62
    4
 10
48.400007499999987
 20
91.733337333333282
 40
3.2000000000000002
 41
1
 50
0
  1
ＴＣＧサイドプレート(Ｄ)Ａ
  0
TEXT
  8
_0-0_図面枠
 62
    4
 10
48.400007499999958
 20
73.733337333333225
 40
3.2000000000000002
 41
1
 50
0
  1
ＴＣＧフレーム(Ｄ)
  0
TEXT
  8
_0-0_図面枠
 62
    4
 10
102.06669116666674
 20
67.733337333333338
 40
3.2000000000000002
 41
1
 50
0
  1
ＦＳ６００
  0
TEXT
  8
_0-0_図面枠
 62
    4
 10
149.270477
 20
31.733348333333296
 40
3.2000000000000002
 41
1
 50
0
  1
６０００
  0
TEXT
  8
_0-0_図面枠
 62
    4
 10
169.36022149999994
 20
31.783336333333281
 40
3.2000000000000002
 41
1
 50
0
  1
１
  0
TEXT
  8
_0-0_図面枠
 62
    4
 10
177.00512500000002
 20
31.73334283333331
 40
3.2000000000000002
 41
1
 50
0
  1
巻
  0
TEXT
  8
_0-0_図面枠
 62
    4
 10
48.400007499999987
 20
31.73334283333331
 40
3.2000000000000002
 41
1
 50
0
  1
ブチルテープ
  0
TEXT
  8
_0-0_図面枠
 62
    4
 10
102.06669116666671
 20
31.73334283333331
 40
3.2000000000000002
 41
1
 50
0
  1
ｔ１．０×ｗ３０
  0
TEXT
  8
_0-0_図面枠
 62
    4
 10
43.586831999999987
 20
31.760894333333269
 40
3.2000000000000002
 41
1
 50
0
  1
※
  0
TEXT
  8
_0-0_図面枠
 62
    4
 10
48.400007499999987
 20
37.733342833333325
 40
3.2000000000000002
 41
1
 50
0
  1
ユカホルダーキャップ
  0
TEXT
  8
_0-0_図面枠
 62
    4
 10
149.27047700000003
 20
37.733348333333311
 40
3.2000000000000002
 41
1
 50
0
  1
３０１０
  0
TEXT
  8
_0-0_図面枠
 62
    4
 10
169.36022149999997
 20
37.783336333333295
 40
3.2000000000000002
 41
1
 50
0
  1
２
  0
TEXT
  8
_0-0_図面枠
 62
    4
 10
177.00512500000002
 20
37.733325833333311
 40
3.2000000000000002
 41
1
 50
0
  1
本
  0
TEXT
  8
_0-0_図面枠
 62
    4
 10
40.497050499999887
 20
37.760888833333297
 40
3.2000000000000002
 41
1
 50
0
  1
１１
  0
TEXT
  8
_0-0_図面枠
 62
    4
 10
102.06669116666673
 20
43.733342833333325
 40
3.2000000000000002
 41
1
 50
0
  1
φ８×４０
  0
TEXT
  8
_0-0_図面枠
 62
    4
 10
122.30833333333338
 20
97.933333333333366
 40
3.2000000000000002
 41
1
 50
0
  1
―
  0
TEXT
  8
_0-0_図面枠
 62
    4
 10
122.30833333333338
 20
91.933333333333366
 40
3.2000000000000002
 41
1
 50
0
  1
―
  0
TEXT
  8
_0-0_図面枠
 62
    4
 10
122.30833333333338
 20
85.933333333333366
 40
3.2000000000000002
 41
1
 50
0
  1
―
  0
TEXT
  8
_0-0_図面枠
 62
    4
 10
122.30833333333338
 20
79.933333333333366
 40
3.2000000000000002
 41
1
 50
0
  1
―
  0
TEXT
  8
_0-0_図面枠
 62
    4
 10
122.30833333333338
 20
73.933333333333366
 40
3.2000000000000002
 41
1
 50
0
  1
―
  0
TEXT
  8
_0-0_図面枠
 62
    4
 10
122.30833333333337
 20
37.933333333333294
 40
3.2000000000000002
 41
1
 50
0
  1
―
  0
TEXT
  8
_0-0_図面枠
 62
    4
 10
153.85000000000002
 20
61.93333333333328
 40
3.2000000000000002
 41
1
 50
0
  1
―
  0
TEXT
  8
_0-0_図面枠
 62
    4
 10
153.85000000000002
 20
55.93333333333328
 40
3.2000000000000002
 41
1
 50
0
  1
―
  0
TEXT
  8
_0-0_図面枠
 62
    4
 10
153.85000000000002
 20
49.93333333333328
 40
3.2000000000000002
 41
1
 50
0
  1
―
  0
TEXT
  8
_0-0_図面枠
 62
    4
 10
153.85000000000002
 20
43.93333333333328
 40
3.2000000000000002
 41
1
 50
0
  1
―
  0
TEXT
  8
_0-0_図面枠
 62
    4
 10
169.36022149999997
 20
25.78333633333331
 40
3.2000000000000002
 41
1
 50
0
  1
１
  0
TEXT
  8
_0-0_図面枠
 62
    4
 10
43.586831999999987
 20
25.760894333333297
 40
3.2000000000000002
 41
1
 50
0
  1
※
  0
TEXT
  8
_0-0_図面枠
 62
    4
 10
177.00512500000002
 20
25.733342833333339
 40
3.2000000000000002
 41
1
 50
0
  1
個
  0
TEXT
  8
_0-0_図面枠
 62
    4
 10
153.85000000000005
 20
25.933333333333309
 40
3.2000000000000002
 41
1
 50
0
  1
―
  0
TEXT
  8
_0-0_図面枠
 62
    4
 10
149.270477
 20
67.73334283333331
 40
3.2000000000000002
 41
1
 50
0
  1
３１００
  0
TEXT
  8
_0-0_図面枠
 62
    4
 10
169.36022149999991
 20
67.783336333333239
 40
3.2000000000000002
 41
1
 50
0
  1
１
  0
TEXT
  8
_0-0_図面枠
 62
    4
 10
177.00512500000002
 20
67.733325833333311
 40
3.2000000000000002
 41
1
 50
0
  1
枚
  0
TEXT
  8
_0-0_図面枠
 62
    4
 10
48.400007499999987
 20
43.733337333333282
 40
3.2000000000000002
 41
1
 50
0
  1
アンカープラグ
  0
CIRCLE
  8
_1-f_寸法
  6
CONTINUOUS
 62
    4
 10
90
 20
217
 40
1.6666666666666665
  0
LINE
  8
_1-f_寸法
  6
CONTINUOUS
 62
    4
 10
89.166666666666657
 20
215.55662432702593
 11
87.190459748967285
 21
212.13373353930152
  0
CIRCLE
  8
_1-f_寸法
  6
CONTINUOUS
 62
    4
 10
56.666666666666629
 20
200.33333333333331
 40
1.6666666666666665
  0
LINE
  8
_1-f_寸法
  6
CONTINUOUS
 62
    4
 10
55.833333333333314
 20
198.88995766035924
 11
53.979496627044057
 21
195.6790182961301
  0
ARC
  8
_1-3_止水補助板
  6
CONTINUOUS
 62
    4
 10
84.99999999999946
 20
160.83449739386461
 40
21.111746392113268
 50
195.00000000000026
 51
345.00000000000023
  0
ARC
  8
_1-3_止水補助板
  6
CONTINUOUS
 62
    4
 10
84.99999999999946
 20
160.83449739386461
 40
20.778413058779936
 50
195.00000000000023
 51
345.00000000000023
  0
LINE
  8
_1-3_止水補助板
  6
CONTINUOUS
 62
    4
 10
118.33333333333208
 20
203.66666666666282
 11
105.39238107820663
 21
155.37037535221125
  0
LINE
  8
_1-3_止水補助板
  6
CONTINUOUS
 62
    4
 10
118.07755767067249
 20
203.99999999999613
 11
105.07040580277692
 21
155.45664836724544
  0
LINE
  8
_1-3_止水補助板
  6
CONTINUOUS
 62
    4
 10
51.666666666666629
 20
203.66666666666282
 11
64.607618921792096
 21
155.37037535221125
  0
LINE
  8
_1-3_止水補助板
  6
CONTINUOUS
 62
    4
 10
51.922442329326373
 20
203.99999999999613
 11
64.929594197221803
 21
155.45664836724544
  0
LINE
  8
_1-0_躯体
  6
CONTINUOUS
 62
    6
 10
51.666666666666629
 20
203.66666666666666
 11
51.666666666666629
 21
130.33333333332951
  0
LINE
  8
_1-0_躯体
  6
CONTINUOUS
 62
    6
 10
118.33333333333331
 20
203.66666666666666
 11
118.33333333333331
 21
130.33333333332951
  0
LINE
  8
_1-0_躯体
  6
CENTER2
 62
    4
 10
85
 20
213.83333333333337
 11
85
 21
130.33333333332951
  0
LINE
  8
_1-f_寸法
  6
CONTINUOUS
 62
    4
 10
118.33333333333333
 20
128.66666666666666
 11
118.33333333333333
 21
122.06666666666666
  0
LINE
  8
_1-f_寸法
  6
CONTINUOUS
 62
    4
 10
51.666666666666657
 20
128.66666666666666
 11
51.666666666666657
 21
122.06666666666666
  0
POINT
  8
_1-f_寸法
 62
    4
 10
51.666666666666657
 20
123.66666666666666
  0
POINT
  8
_1-f_寸法
 62
    4
 10
118.33333333333333
 20
123.66666666666666
  0
LINE
  8
_1-f_寸法
  6
CONTINUOUS
 62
    4
 10
51.666666666666657
 20
123.66666666666666
 11
118.33333333333333
 21
123.66666666666666
  0
TEXT
  8
_1-f_寸法
 62
    4
 10
82.599999999999994
 20
123.66666666666666
 40
3.2000000000000002
 41
1
 50
0
  1
200
  0
LINE
  8
_1-3_止水補助板
  6
CONTINUOUS
 62
    4
 10
34.999999999999488
 20
203.66666666666666
 11
34.999999999999488
 21
204
  0
LINE
  8
_1-3_止水補助板
  6
CONTINUOUS
 62
    4
 10
51.666666666666174
 20
203.66666666666666
 11
34.999999999999488
 21
203.66666666666666
  0
LINE
  8
_1-3_止水補助板
  6
CONTINUOUS
 62
    4
 10
51.922442329325776
 20
204
 11
34.999999999999488
 21
204
  0
INSERT
  2
-001-_1_
  8
_1-4_フレ__ム
 10
210
 20
148.5
 41
1
 42
1
 50
0
  0
INSERT
  2
-002-_2_
  8
_1-7_カバ__
 10
210
 20
148.5
 41
1
 42
1
 50
0
  0
LINE
  8
_1-0_躯体
  6
CONTINUOUS
 62
    6
 10
23.33333333333286
 20
203.66666666666666
 11
51.666666666666174
 21
203.66666666666666
  0
LINE
  8
_1-0_躯体
  6
CONTINUOUS
 62
    4
 10
23.333333333332888
 20
203.66666666666666
 11
23.333333333332888
 21
202
  0
LINE
  8
_1-0_躯体
  6
CONTINUOUS
 62
    4
 10
51.666666666666174
 20
202
 11
23.333333333332888
 21
202
  0
INSERT
  2
-003-HATCHING
  8
_1-0_躯体
 10
210
 20
148.5
 41
1
 42
1
 50
0
  0
LINE
  8
_1-0_躯体
  6
CONTINUOUS
 62
    4
 10
26.916666666666032
 20
213.5
 11
19.999999999999517
 21
213.5
  0
LINE
  8
_1-0_躯体
  6
CENTER2
 62
    4
 10
39.999999999999488
 20
206.46390870031684
 11
39.999999999999488
 21
186.66666666666666
  0
INSERT
  2
-004-_3_
  8
_1-8_小物
 10
210
 20
148.5
 41
1
 42
1
 50
0
  0
INSERT
  2
-005-_4_
  8
_1-8_小物
 10
210
 20
148.5
 41
1
 42
1
 50
0
  0
INSERT
  2
-006-_5_
  8
_1-8_小物
 10
210
 20
148.5
 41
1
 42
1
 50
0
  0
LINE
  8
_1-f_寸法
  6
CONTINUOUS
 62
    4
 10
51.666666666666174
 20
188.66666666666666
 11
51.666666666666174
 21
182.06666666666666
  0
LINE
  8
_1-f_寸法
  6
CONTINUOUS
 62
    4
 10
39.999999999999488
 20
188.66666666666666
 11
39.999999999999488
 21
182.06666666666666
  0
POINT
  8
_1-f_寸法
 62
    4
 10
39.999999999999488
 20
183.66666666666666
  0
POINT
  8
_1-f_寸法
 62
    4
 10
51.666666666666174
 20
183.66666666666666
  0
LINE
  8
_1-f_寸法
  6
CONTINUOUS
 62
    4
 10
39.999999999999488
 20
183.66666666666666
 11
51.666666666666174
 21
183.66666666666666
  0
TEXT
  8
_1-f_寸法
 62
    4
 10
44.233333333332837
 20
183.66666666666666
 40
3.2000000000000002
 41
1
 50
0
  1
35
  0
LINE
  8
_1-f_寸法
  6
CONTINUOUS
 62
    4
 10
51.666666666666202
 20
215.33333333333331
 11
51.666666666666202
 21
221.93333333333331
  0
LINE
  8
_1-f_寸法
  6
CONTINUOUS
 62
    4
 10
26.666666666666202
 20
215.33333333333331
 11
26.666666666666202
 21
221.93333333333331
  0
POINT
  8
_1-f_寸法
 62
    4
 10
26.666666666666202
 20
220.33333333333331
  0
POINT
  8
_1-f_寸法
 62
    4
 10
51.666666666666202
 20
220.33333333333331
  0
LINE
  8
_1-f_寸法
  6
CONTINUOUS
 62
    4
 10
26.666666666666202
 20
220.33333333333331
 11
51.666666666666202
 21
220.33333333333331
  0
TEXT
  8
_1-f_寸法
 62
    4
 10
37.56666666666618
 20
220.33333333333331
 40
3.2000000000000002
 41
1
 50
0
  1
75
  0
INSERT
  2
-007-_6_
  8
_1-8_小物
 10
210
 20
148.5
 41
1
 42
1
 50
0
  0
CIRCLE
  8
_1-f_寸法
  6
CONTINUOUS
 62
    4
 10
41.666666666666174
 20
217
 40
1.6666666666666665
  0
LINE
  8
_1-f_寸法
  6
CONTINUOUS
 62
    4
 10
40.833333333332803
 20
215.55662432702593
 11
39.453490634772493
 21
213.16666666666666
  0
TEXT
  8
_1-f_寸法
 62
    4
 10
41.041666666666174
 20
215.75
 40
2.5
 41
1
 50
0
  1
1
  0
LINE
  8
_1-3_止水補助板
  6
CONTINUOUS
 62
    4
 10
134.99999999999881
 20
203.66666666666282
 11
134.99999999999881
 21
203.99999999999616
  0
LINE
  8
_1-3_止水補助板
  6
CONTINUOUS
 62
    4
 10
118.33333333333208
 20
203.66666666666282
 11
134.99999999999881
 21
203.66666666666282
  0
LINE
  8
_1-3_止水補助板
  6
CONTINUOUS
 62
    4
 10
118.07755767067245
 20
203.99999999999616
 11
134.99999999999881
 21
203.99999999999616
  0
LINE
  8
_1-0_躯体
  6
CENTER2
 62
    4
 10
129.99999999999892
 20
206.79724203364634
 11
129.99999999999892
 21
186.99999999999616
  0
INSERT
  2
-008-_7_
  8
_1-8_小物
 10
210
 20
148.5
 41
1
 42
1
 50
0
  0
CIRCLE
  8
_1-f_寸法
  6
CONTINUOUS
 62
    4
 10
136.66666666666555
 20
190.33333333332951
 40
1.6666666666666665
  0
LINE
  8
_1-f_寸法
  6
CONTINUOUS
 62
    4
 10
135.83851260928117
 20
191.77968689833892
 11
130.74999999999869
 21
200.66666666666276
  0
INSERT
  2
-009-_8_
  8
_1-8_小物
 10
210
 20
148.5
 41
1
 42
1
 50
0
  0
CIRCLE
  8
_1-f_寸法
  6
CONTINUOUS
 62
    4
 10
123.33333333333219
 20
198.99999999999619
 40
1.6666666666666665
  0
LINE
  8
_1-f_寸法
  6
CONTINUOUS
 62
    4
 10
128.04166666666544
 20
205.41666666666288
 11
124.31931767455178
 21
200.34373087210093
  0
CIRCLE
  8
_1-f_寸法
  6
CONTINUOUS
 62
    4
 10
134.99999999999892
 20
198.66666666666282
 40
1.6666666666666665
  0
LINE
  8
_1-f_寸法
  6
CONTINUOUS
 62
    4
 10
134.0781999470716
 20
200.0552135474706
 11
129.99999999999892
 21
206.19838071027959
  0
LINE
  8
_1-f_寸法
  6
CONTINUOUS
 62
    4
 10
129.99999999999892
 20
188.66666666666282
 11
129.99999999999892
 21
182.06666666666285
  0
LINE
  8
_1-f_寸法
  6
CONTINUOUS
 62
    4
 10
118.33333333333208
 20
188.66666666666282
 11
118.33333333333208
 21
182.06666666666285
  0
POINT
  8
_1-f_寸法
 62
    4
 10
118.33333333333208
 20
183.66666666666282
  0
POINT
  8
_1-f_寸法
 62
    4
 10
129.99999999999892
 20
183.66666666666282
  0
LINE
  8
_1-f_寸法
  6
CONTINUOUS
 62
    4
 10
118.33333333333208
 20
183.66666666666282
 11
129.99999999999892
 21
183.66666666666282
  0
TEXT
  8
_1-f_寸法
 62
    4
 10
122.56666666666544
 20
183.66666666666282
 40
3.2000000000000002
 41
1
 50
0
  1
35
  0
LINE
  8
_1-0_躯体
  6
CENTER2
 62
    4
 10
176.66666666666563
 20
206.79724203364634
 11
176.66666666666563
 21
186.99999999999616
  0
INSERT
  2
-010-_9_
  8
_1-8_小物
 10
210
 20
148.5
 41
1
 42
1
 50
0
  0
INSERT
  2
-011-_10_
  8
_1-8_小物
 10
210
 20
148.5
 41
1
 42
1
 50
0
  0
LINE
  8
_1-0_躯体
  6
CONTINUOUS
 62
    4
 10
188.08333333333246
 20
213.49999999999233
 11
194.99999999999898
 21
213.49999999999233
  0
LINE
  8
_1-0_躯体
  6
CONTINUOUS
 62
    6
 10
118.33333333333208
 20
203.66666666666282
 11
191.66666666666578
 21
203.66666666666282
  0
LINE
  8
_1-0_躯体
  6
CONTINUOUS
 62
    4
 10
118.33333333333219
 20
201.99999999999616
 11
191.66666666666578
 21
201.99999999999616
  0
INSERT
  2
-012-HATCHING_1_
  8
_1-0_躯体
 10
210
 20
148.5
 41
1
 42
1
 50
0
  0
INSERT
  2
-013-_11_
  8
_1-8_小物
 10
210
 20
148.5
 41
1
 42
1
 50
0
  0
INSERT
  2
-014-_12_
  8
_1-7_カバ__
 10
210
 20
148.5
 41
1
 42
1
 50
0
  0
LINE
  8
_1-f_寸法
  6
CONTINUOUS
 62
    4
 10
176.66666666666563
 20
186.99999999999616
 11
176.66666666666563
 21
182.06666666666285
  0
LINE
  8
_1-f_寸法
  6
CONTINUOUS
 62
    4
 10
129.99999999999892
 20
186.99999999999616
 11
129.99999999999892
 21
182.06666666666285
  0
POINT
  8
_1-f_寸法
 62
    4
 10
129.99999999999892
 20
183.66666666666282
  0
POINT
  8
_1-f_寸法
 62
    4
 10
176.66666666666563
 20
183.66666666666282
  0
LINE
  8
_1-f_寸法
  6
CONTINUOUS
 62
    4
 10
129.99999999999892
 20
183.66666666666282
 11
176.66666666666563
 21
183.66666666666282
  0
TEXT
  8
_1-f_寸法
 62
    4
 10
150.93333333333229
 20
183.66666666666282
 40
3.2000000000000002
 41
1
 50
0
  1
140
  0
INSERT
  2
-015-$QLE
  8
_1-f_寸法
 10
210
 20
148.5
 41
1
 42
1
 50
0
  0
CIRCLE
  8
_1-f_寸法
  6
CONTINUOUS
 62
    4
 10
181.66666666666578
 20
216.26666666665915
 40
1.6666666666666665
  0
LINE
  8
_1-f_寸法
  6
CONTINUOUS
 62
    4
 10
182.66291213918433
 20
214.93052567998737
 11
184.49999999999926
 21
212.46666666665914
  0
CIRCLE
  8
_1-f_寸法
  6
CONTINUOUS
 62
    4
 10
116.66666666666561
 20
208.66666666666282
 40
1.6666666666666665
  0
LINE
  8
_1-f_寸法
  6
CONTINUOUS
 62
    4
 10
115.48815536468805
 20
207.48815536468521
 11
113.04782085223428
 21
205.04782085223144
  0
CIRCLE
  8
_1-f_寸法
  6
CONTINUOUS
 62
    4
 10
154.99999999999898
 20
216.99999999999616
 40
1.6666666666666665
  0
LINE
  8
_1-f_寸法
  6
CONTINUOUS
 62
    4
 10
154.16666666666549
 20
215.55662432702209
 11
152.7868239681053
 21
213.16666666666282
  0
INSERT
  2
-016-_13_
  8
_1-8_小物
 10
210
 20
148.5
 41
1
 42
1
 50
0
  0
LINE
  8
_1-f_寸法
  6
CONTINUOUS
 62
    4
 10
111.66666666666549
 20
215.33333333333331
 11
111.66666666666549
 21
221.93333333333331
  0
LINE
  8
_1-f_寸法
  6
CONTINUOUS
 62
    4
 10
51.666666666666202
 20
215.33333333333331
 11
51.666666666666202
 21
221.93333333333331
  0
POINT
  8
_1-f_寸法
 62
    4
 10
51.666666666666202
 20
220.33333333333331
  0
POINT
  8
_1-f_寸法
 62
    4
 10
111.66666666666549
 20
220.33333333333331
  0
LINE
  8
_1-f_寸法
  6
CONTINUOUS
 62
    4
 10
51.666666666666202
 20
220.33333333333331
 11
111.66666666666549
 21
220.33333333333331
  0
TEXT
  8
_1-f_寸法
 62
    4
 10
79.266666666665856
 20
220.33333333333331
 40
3.2000000000000002
 41
1
 50
0
  1
180
  0
LINE
  8
_1-f_寸法
  6
CONTINUOUS
 62
    4
 10
188.3333333333326
 20
215.33333333333331
 11
188.3333333333326
 21
221.93333333333331
  0
POINT
  8
_1-f_寸法
 62
    4
 10
188.3333333333326
 20
220.33333333333331
  0
LINE
  8
_1-f_寸法
  6
CONTINUOUS
 62
    4
 10
111.66666666666549
 20
220.33333333333331
 11
188.3333333333326
 21
220.33333333333331
  0
TEXT
  8
_1-f_寸法
 62
    4
 10
147.59999999999903
 20
220.33333333333331
 40
3.2000000000000002
 41
1
 50
0
  1
230
  0
LINE
  8
_1-f_寸法
  6
CONTINUOUS
 62
    4
 10
188.3333333333326
 20
220.33333333333331
 11
188.3333333333326
 21
226.93333333333328
  0
LINE
  8
_1-f_寸法
  6
CONTINUOUS
 62
    4
 10
26.666666666666202
 20
220.33333333333331
 11
26.666666666666202
 21
226.93333333333331
  0
POINT
  8
_1-f_寸法
 62
    4
 10
26.666666666666202
 20
225.33333333333331
  0
POINT
  8
_1-f_寸法
 62
    4
 10
188.3333333333326
 20
225.33333333333329
  0
LINE
  8
_1-f_寸法
  6
CONTINUOUS
 62
    4
 10
26.666666666666202
 20
225.33333333333331
 11
188.3333333333326
 21
225.33333333333329
  0
TEXT
  8
_1-f_寸法
 62
    4
 10
105.0999999999994
 20
225.33333333333331
 40
3.2000000000000002
 41
1
 50
0
  1
485
  0
LINE
  8
_1-0_躯体
  6
CONTINUOUS
 62
    4
 10
191.66666666666578
 20
203.66666666666282
 11
191.66666666666578
 21
201.99999999999616
  0
INSERT
  2
-017-_14_
  8
_1-9_センタ__プレ__ト
 10
210
 20
148.5
 41
1
 42
1
 50
0
  0
TEXT
  8
_1-f_寸法
 62
    4
 10
154.37499999999898
 20
215.74999999999616
 40
2.5
 41
1
 50
0
  1
2
  0
TEXT
  8
_1-f_寸法
 62
    4
 10
89.375
 20
215.75
 40
2.5
 41
1
 50
0
  1
3
  0
TEXT
  8
_1-f_寸法
 62
    4
 10
116.04166666666561
 20
207.41666666666282
 40
2.5
 41
1
 50
0
  1
5
  0
TEXT
  8
_1-f_寸法
 62
    4
 10
56.041666666666629
 20
199.08333333333331
 40
2.5
 41
1
 50
0
  1
6
  0
TEXT
  8
_1-f_寸法
 62
    4
 10
181.04166666666578
 20
215.01666666665915
 40
2.5
 41
1
 50
0
  1
7
  0
TEXT
  8
_1-f_寸法
 62
    4
 10
134.37499999999892
 20
197.41666666666282
 40
2.5
 41
1
 50
0
  1
8
  0
TEXT
  8
_1-f_寸法
 62
    4
 10
122.70833333333219
 20
197.74999999999619
 40
2.5
 41
1
 50
0
  1
9
  0
TEXT
  8
_1-f_寸法
 62
    4
 10
135.41666666666555
 20
189.08333333332951
 40
2.5
 41
1
 50
0
  1
10
  0
CIRCLE
  8
_1-f_寸法
  6
CONTINUOUS
 62
    4
 10
54.999999999999972
 20
208.66666666665722
 40
1.6666666666666665
  0
LINE
  8
_1-f_寸法
  6
CONTINUOUS
 62
    4
 10
53.821488698022421
 20
207.48815536467959
 11
51.381154185568647
 21
205.04782085222581
  0
TEXT
  8
_1-f_寸法
 62
    4
 10
54.374999999999972
 20
207.41666666665722
 40
2.5
 41
1
 50
0
  1
4
  0
CIRCLE
  8
_1-f_寸法
  6
CONTINUOUS
 62
    4
 10
106.6666666666659
 20
206.99999999999616
 40
1.6666666666666665
  0
TEXT
  8
_1-f_寸法
 62
    4
 10
105.4166666666659
 20
205.74999999999616
 40
2.5
 41
1
 50
0
  1
11
  0
LINE
  8
_1-f_寸法
  6
CONTINUOUS
 62
    4
 10
118.33333333333208
 20
188.66666666666282
 11
118.33333333333208
 21
182.06666666666285
  0
LINE
  8
_1-f_寸法
  6
CONTINUOUS
 62
    4
 10
111.66666666666563
 20
188.66666666666282
 11
111.66666666666563
 21
182.06666666666285
  0
POINT
  8
_1-f_寸法
 62
    4
 10
111.66666666666563
 20
183.66666666666282
  0
POINT
  8
_1-f_寸法
 62
    4
 10
118.33333333333208
 20
183.66666666666282
  0
LINE
  8
_1-f_寸法
  6
CONTINUOUS
 62
    4
 10
111.66666666666563
 20
183.66666666666282
 11
118.33333333333208
 21
183.66666666666282
  0
TEXT
  8
_1-f_寸法
 62
    4
 10
113.39999999999885
 20
183.66666666666282
 40
3.2000000000000002
 41
1
 50
0
  1
20
  0
LINE
  8
_1-f_寸法
  6
CONTINUOUS
 62
    4
 10
111.66666666666563
 20
188.66666666666282
 11
111.66666666666563
 21
201.65250666666304
  0
LINE
  8
_1-f_寸法
  6
CONTINUOUS
 62
    4
 10
111.41666666666572
 20
209.7666663333296
 11
108.10684774086499
 21
207.83884220881527
  0
INSERT
  2
-018-_15_
  8
_1-4_フレ__ム
 10
210
 20
148.5
 41
1
 42
1
 50
0
  0
LINE
  8
_1-f_寸法
  6
CONTINUOUS
 62
    4
 10
196.66666666666609
 20
203.66666666665913
 11
203.26666666666608
 21
203.66666666665913
  0
LINE
  8
_1-f_寸法
  6
CONTINUOUS
 62
    4
 10
196.66666666666609
 20
213.66666666665913
 11
203.26666666666608
 21
213.66666666665913
  0
POINT
  8
_1-f_寸法
 62
    4
 10
201.66666666666609
 20
213.66666666665913
  0
POINT
  8
_1-f_寸法
 62
    4
 10
201.66666666666609
 20
203.66666666665913
  0
LINE
  8
_1-f_寸法
  6
CONTINUOUS
 62
    4
 10
201.66666666666609
 20
213.66666666665913
 11
201.66666666666609
 21
203.66666666665913
  0
TEXT
  8
_1-f_寸法
 62
    4
 10
201.66666666666609
 20
207.06666666665913
 40
3.2000000000000002
 41
1
 50
90
  1
30
  0
LINE
  8
_1-f_寸法
  6
CONTINUOUS
 62
    4
 10
196.66666666666609
 20
213.66666666665913
 11
203.26666666666608
 21
213.66666666665913
  0
LINE
  8
_1-f_寸法
  6
CONTINUOUS
 62
    4
 10
196.66666666666609
 20
203.66666666665913
 11
203.26666666666608
 21
203.66666666665913
  0
POINT
  8
_1-f_寸法
 62
    4
 10
201.66666666666609
 20
203.66666666665913
  0
POINT
  8
_1-f_寸法
 62
    4
 10
201.66666666666609
 20
213.66666666665913
  0
LINE
  8
_1-f_寸法
  6
CONTINUOUS
 62
    4
 10
201.66666666666609
 20
203.66666666665913
 11
201.66666666666609
 21
213.66666666665913
  0
TEXT
  8
_1-f_寸法
 62
    4
 10
201.66666666666609
 20
207.06666666665913
 40
3.2000000000000002
 41
1
 50
90
  1
30
  0
TEXT
  8
_0-0_図面枠
 62
    4
 10
48.400007499999987
 20
85.733337333333282
 40
3.2000000000000002
 41
1
 50
0
  1
ＴＴＧセンタープレート２(Ｄ)Ａ
  0
TEXT
  8
_0-0_図面枠
 62
    4
 10
30
 20
270
 40
3.2000000000000002
 41
1
 50
0
  1
◇床＋床（２００ＴＴＧ２－Ａ）　Ｓ＝１／３
  0
LINE
  8
_0-0_図面枠
  6
CONTINUOUS
 62
    4
 10
187.38952399655849
 20
259.77749333152167
 11
178.7292699587141
 21
264.77749333152167
  0
LINE
  8
_0-0_図面枠
  6
CONTINUOUS
 62
    4
 10
193.88471452494178
 20
263.52749333152167
 11
185.22446048709742
 21
268.52749333152167
  0
LINE
  8
_0-0_図面枠
  6
CONTINUOUS
 62
    4
 10
192.46489856474321
 20
269.34722445834205
 11
189.5545875060196
 21
271.02749333152167
  0
LINE
  8
_0-0_図面枠
  6
CONTINUOUS
 62
    4
 10
198.21484154386397
 20
266.02749333152167
 11
195.94825785628657
 21
267.33610603368533
  0
LINE
  8
_0-0_図面枠
  6
CONTINUOUS
 62
    4
 10
204.71003207224726
 20
269.77749333152167
 11
196.04977803440292
 21
274.77749333152167
  0
LINE
  8
_0-0_図面枠
  6
CONTINUOUS
 62
    4
 10
204.71003207224726
 20
266.77749333152167
 11
202.11195586089394
 21
268.27749333152167
  0
LINE
  8
_0-0_図面枠
  6
CONTINUOUS
 62
    4
 10
193.88471452494178
 20
260.52749333152167
 11
191.28663831358847
 21
262.02749333152167
  0
TEXT
  8
_0-0_図面枠
 62
    4
 10
47.200000000000017
 20
27.533333333333317
 40
2.5
 41
1
 50
0
  1
 センタープレートジョイントプレート
  0
TEXT
  8
_0-0_図面枠
 62
    4
 10
47.200000000000017
 20
24.533333333333317
 40
2.5
 41
1
 50
0
  1
（２００ＴＴＧ２ＪＰ-Ａ）
  0
TEXT
  8
_0-0_図面枠
 62
    4
 10
102.06667966666669
 20
25.733337333333282
 40
3.2000000000000002
 41
1
 50
0
  1
ＳＵＳ　ｔ＝０．８
  0
ENDSEC
  0
EOF
