  0
SECTION
  2
HEADER
  9
$ACADVER
  1
AC1009
  9
$INSBASE
 10
0
 20
0
 30
0
  9
$EXTMIN
 10
0
 20
0
  9
$EXTMAX
 10
420
 20
297
  9
$LIMMIN
 10
0
 20
0
  9
$LIMMAX
 10
420
 20
297
  9
$LTSCALE
 40
1
  0
ENDSEC
  0
SECTION
  2
TABLES
  0
TABLE
  2
LTYPE
 70
     9
  0
LTYPE
  2
CONTINUOUS
 70
    64
  3
実線
 72
    65
 73
     0
 40
0.0
  0
LTYPE
  2
DASHED1
 70
    64
  3
--  --  --  --  --  --  --  --  
 72
    65
 73
     2
 40
2.5
 49
1.25
 49
-1.25
  0
LTYPE
  2
DASHED2
 70
    64
  3
----    ----    ----    ----    
 72
    65
 73
     2
 40
5.0
 49
2.5
 49
-2.5
  0
LTYPE
  2
DASHED3
 70
    64
  3
------  ------  ------  ------  
 72
    65
 73
     2
 40
5.0
 49
3.75
 49
-1.25
  0
LTYPE
  2
CENTER1
 70
    64
  3
----- - ----- - ----- - ----- - 
 72
    65
 73
     4
 40
10.0
 49
6.25
 49
-1.25
 49
1.25
 49
-1.25
  0
LTYPE
  2
CENTER2
 70
    64
  3
----------  --  ----------  --  
 72
    65
 73
     4
 40
20.0
 49
12.5
 49
-2.5
 49
2.5
 49
-2.5
  0
LTYPE
  2
PHANTOM1
 70
    64
  3
--- - - --- - - --- - - --- - - 
 72
    65
 73
     6
 40
10.0
 49
3.25
 49
-1.25
 49
1.25
 49
-1.25
 49
1.25
 49
-1.25
  0
LTYPE
  2
PHANTOM2
 70
    64
  3
--------  -  -  --------  -  -  
 72
    65
 73
     6
 40
20.0
 49
10.0
 49
-2.5
 49
1.25
 49
-2.5
 49
1.25
 49
-2.5
  0
LTYPE
  2
DOT
 70
    64
  3
-   -   -   -   -   -   -   -   
 72
    65
 73
     2
 40
2.5
 49
0.625
 49
-1.875
  0
LTYPE
  2
DUMMY
 70
    64
  3
ダミー
 72
    65
 73
     0
 40
0.0
  0
LTYPE
  2
RAND1
 70
    64
  3
ランダム線1
 72
    65
 73
     4
 40
10.0
 49
1.0
 49
-2.0
 49
3.0
 49
-4.0
  0
LTYPE
  2
RAND2
 70
    64
  3
ランダム線2
 72
    65
 73
     4
 40
14.0
 49
2.0
 49
-3.0
 49
4.0
 49
-5.0
  0
LTYPE
  2
RAND3
 70
    64
  3
ランダム線3
 72
    65
 73
     4
 40
18.0
 49
3.0
 49
-4.0
 49
5.0
 49
-6.0
  0
LTYPE
  2
RAND4
 70
    64
  3
ランダム線4
 72
    65
 73
     4
 40
22.0
 49
4.0
 49
-5.0
 49
6.0
 49
-7.0
  0
LTYPE
  2
RAND5
 70
    64
  3
ランダム線5
 72
    65
 73
     4
 40
26.0
 49
5.0
 49
-6.0
 49
7.0
 49
-8.0
  0
LTYPE
  2
LONG1
 70
    64
  3
----------  --  ----------  --  
 72
    65
 73
     4
 40
40.0
 49
32.5
 49
-2.5
 49
2.5
 49
-2.5
  0
LTYPE
  2
LONG2
 70
    64
  3
--------  -  -  --------  -  -  
 72
    65
 73
     6
 40
40.0
 49
30.0
 49
-2.5
 49
1.25
 49
-2.5
 49
1.25
 49
-2.5
  0
LTYPE
  2
LONG3
 70
    64
  3
+++++++++++++++..+++++++++++++++
 72
    65
 73
     2
 40
40.0
 49
37.5
 49
-2.5
  0
LTYPE
  2
LONG4
 70
    64
  3
+++++++++++++++..+++++++++++++++
 72
    65
 73
     2
 40
80.0
 49
75.0
 49
-5.0
  0
LTYPE
  2
LONG5
 70
    64
  3
----------  --  ----------  --  
 72
    65
 73
     4
 40
60.0
 49
37.5
 49
-7.5
 49
7.5
 49
-7.5
  0
LTYPE
  2
dashed
 70
   64
  3
-------   -------------   ------
 72
   65
 73
    2
 40
7.5
 49
6
 49
-1.5
  0
LTYPE
  2
dashed_spaced
 70
   64
  3
----        --------        ----
 72
   65
 73
    2
 40
12
 49
6
 49
-6
  0
LTYPE
  2
long_dashed_dotted
 70
   64
  3
------------- --- --------------
 72
   65
 73
    4
 40
15.25
 49
12
 49
-1.5
 49
0.25
 49
-1.5
  0
LTYPE
  2
long_dashed_double-dotted
 70
   64
  3
----------- --- --- ------------
 72
   65
 73
    6
 40
17
 49
12
 49
-1.5
 49
0.25
 49
-1.5
 49
0.25
 49
-1.5
  0
LTYPE
  2
long_dashed_triplicate-dotted
 70
   64
  3
--------- --- --- --- ----------
 72
   65
 73
    8
 40
18.75
 49
12
 49
-1.5
 49
0.25
 49
-1.5
 49
0.25
 49
-1.5
 49
0.25
 49
-1.5
  0
LTYPE
  2
dotted
 70
   64
  3
   -       -       -       -    
 72
   65
 73
    2
 40
1.75
 49
0.25
 49
-1.5
  0
LTYPE
  2
chain
 70
   64
  3
-------------- -- --------------
 72
   65
 73
    4
 40
18.5
 49
12
 49
-1.5
 49
3.5
 49
-1.5
  0
LTYPE
  2
chain_double_dash
 70
   64
  3
------------ -- -- -------------
 72
   65
 73
    6
 40
23.5
 49
12
 49
-1.5
 49
3.5
 49
-1.5
 49
3.5
 49
-1.5
  0
LTYPE
  2
dashed_dotted
 70
   64
  3
-----------     -     ----------
 72
   65
 73
    4
 40
9.25
 49
6
 49
-1.5
 49
0.25
 49
-1.5
  0
LTYPE
  2
double-dashed_dotted
 70
   64
  3
------   -----------   -   -----
 72
   65
 73
    6
 40
16.75
 49
6
 49
-1.5
 49
6
 49
-1.5
 49
0.25
 49
-1.5
  0
LTYPE
  2
dashed_double-dotted
 70
   64
  3
---------    -    -    ---------
 72
   65
 73
    6
 40
11
 49
6
 49
-1.5
 49
0.25
 49
-1.5
 49
0.25
 49
-1.5
  0
LTYPE
  2
double-dashed_double-dotted
 70
   64
  3
-----   ---------   -   -   ----
 72
   65
 73
    8
 40
18.5
 49
6
 49
-1.5
 49
6
 49
-1.5
 49
0.25
 49
-1.5
 49
0.25
 49
-1.5
  0
LTYPE
  2
dashed_triplicate-dotted
 70
   64
  3
-------    -    -    -    ------
 72
   65
 73
    8
 40
12.75
 49
6
 49
-1.5
 49
0.25
 49
-1.5
 49
0.25
 49
-1.5
 49
0.25
 49
-1.5
  0
LTYPE
  2
double-dashed_triplicate-dotted
 70
   64
  3
-----  ---------  -  -  -  -----
 72
   65
 73
   10
 40
20.25
 49
6
 49
-1.5
 49
6
 49
-1.5
 49
0.25
 49
-1.5
 49
0.25
 49
-1.5
 49
0.25
 49
-1.5
  0
LTYPE
  2
undefined
 70
   64
  3
--------------------------------
 72
   65
 73
    0
 40
0
  0
ENDTAB
  0
TABLE
  2
STYLE
  5
3
100
AcDbSymbolTable
 70
     1
  0
STYLE
  5
10
100
AcDbSymbolTableRecord
100
AcDbTextStyleTableRecord
  2
STANDARD
 70
     0
 40
0.0
 41
1.0
 50
0.0
 71
     0
 42
0.2
  3
txt
  4
bigfont.shx
  0
STYLE
  5
26
100
AcDbSymbolTableRecord
100
AcDbTextStyleTableRecord
  2
TATEGAKI
 70
    68
 40
0.0
 41
1.0
 50
0.0
 71
     0
 42
1.0
  3
txt
  4
bigfont.shx
  0
ENDTAB
  0
TABLE
  2
LAYER
 70
    9
  0
LAYER
  2
_0-0_図面枠
 70
   64
 62
    7
  6
CONTINUOUS
  0
LAYER
  2
_1-0_躯体
 70
   64
 62
    7
  6
CONTINUOUS
  0
LAYER
  2
_1-3_止水補助板
 70
   64
 62
    7
  6
CONTINUOUS
  0
LAYER
  2
_1-4_フレ__ム
 70
   64
 62
    7
  6
CONTINUOUS
  0
LAYER
  2
_1-7_カバ__
 70
   64
 62
    7
  6
CONTINUOUS
  0
LAYER
  2
_1-8_小物
 70
   64
 62
    7
  6
CONTINUOUS
  0
LAYER
  2
_1-9_センタ__プレ__ト
 70
   64
 62
    7
  6
CONTINUOUS
  0
LAYER
  2
_1-f_寸法
 70
   64
 62
    7
  6
CONTINUOUS
  0
LAYER
  2
ADD_LINE
 70
   64
 62
    7
  6
CONTINUOUS
  0
ENDTAB
  0
ENDSEC
  0
SECTION
  2
BLOCKS
  0
BLOCK
  2
-000-
 70
   64
 10
0
 20
0
 30
0
  0
LINE
  8
_1-8_小物
  6
CONTINUOUS
 62
    4
 10
-83.833333333333343
 20
62.0999993333335
 11
-83.833333333333343
 21
60.433333333333394
  0
LINE
  8
_1-8_小物
  6
CONTINUOUS
 62
    4
 10
-83.833333333333343
 20
60.433333333333394
 11
-83.33333333333357
 21
60.433333333333394
  0
LINE
  8
_1-8_小物
  6
CONTINUOUS
 62
    4
 10
-82.333333333333414
 20
60.433333333333394
 11
-81.833333333333456
 21
60.433333333333394
  0
LINE
  8
_1-8_小物
  6
CONTINUOUS
 62
    4
 10
-81.833333333333456
 20
60.433333333333394
 11
-81.833333333333456
 21
62.0999993333335
  0
ARC
  8
_1-8_小物
  6
CONTINUOUS
 62
    4
 10
-82.833333333333513
 20
62.0999993333335
 40
0.566667
 50
0
 51
180
  0
ARC
  8
_1-8_小物
  6
CONTINUOUS
 62
    4
 10
-82.833333333333513
 20
62.0999993333335
 40
1
 50
0
 51
180
  0
LINE
  8
_1-8_小物
  6
CONTINUOUS
 62
    4
 10
-82.333335333333281
 20
61.099999333333386
 11
-82.414616333333498
 21
61.099999333333386
  0
ARC
  8
_1-8_小物
  6
CONTINUOUS
 62
    4
 10
-82.414616333333498
 20
61.033333333333445
 40
0.066667
 50
90
 51
194.0364019999958
  0
LINE
  8
_1-8_小物
  6
CONTINUOUS
 62
    4
 10
-82.333333333333414
 20
60.433333333333394
 11
-82.479292333333518
 21
61.017164333333454
  0
LINE
  8
_1-8_小物
  6
CONTINUOUS
 62
    4
 10
-83.33333333333357
 20
61.099999333333386
 11
-83.25205133333354
 21
61.099999333333386
  0
ARC
  8
_1-8_小物
  6
CONTINUOUS
 62
    4
 10
-83.25205133333354
 20
61.033333333333445
 40
0.066667
 50
345.96380799998508
 51
90
  0
LINE
  8
_1-8_小物
  6
CONTINUOUS
 62
    4
 10
-83.33333233333353
 20
60.433333333333394
 11
-83.187375333333279
 21
61.017164333333454
  0
LINE
  8
_1-8_小物
  6
CONTINUOUS
 62
    4
 10
-82.333335333333281
 20
61.099999333333386
 11
-82.266668333333584
 21
61.099999333333386
  0
LINE
  8
_1-8_小物
  6
CONTINUOUS
 62
    4
 10
-82.266668333333584
 20
61.099999333333386
 11
-82.266666333333518
 21
62.0999993333335
  0
LINE
  8
_1-8_小物
  6
CONTINUOUS
 62
    4
 10
-83.33333233333353
 20
61.099999333333386
 11
-83.400000333333466
 21
61.099999333333386
  0
LINE
  8
_1-8_小物
  6
CONTINUOUS
 62
    4
 10
-83.400000333333466
 20
61.099999333333386
 11
-83.400000333333466
 21
62.0999993333335
  0
ENDBLK
  0
BLOCK
  2
-001-_1_
 70
   64
 10
0
 20
0
 30
0
  0
LINE
  8
_1-8_小物
  6
CONTINUOUS
 62
    4
 10
-83.833333833333342
 20
62.099999333329635
 11
-83.833333833333342
 21
60.433333333329557
  0
LINE
  8
_1-8_小物
  6
CONTINUOUS
 62
    4
 10
-83.833333833333342
 20
60.433333333329557
 11
-83.333333833333569
 21
60.433333333329557
  0
LINE
  8
_1-8_小物
  6
CONTINUOUS
 62
    4
 10
-82.333333833333455
 20
60.433333333329557
 11
-81.833333833333455
 21
60.433333333329557
  0
LINE
  8
_1-8_小物
  6
CONTINUOUS
 62
    4
 10
-81.833333833333455
 20
60.433333333329557
 11
-81.833333833333455
 21
62.099999333329635
  0
ARC
  8
_1-8_小物
  6
CONTINUOUS
 62
    4
 10
-82.833333833333569
 20
62.099999333329635
 40
0.566667
 50
0
 51
180
  0
ARC
  8
_1-8_小物
  6
CONTINUOUS
 62
    4
 10
-82.833333833333569
 20
62.099999333329635
 40
1
 50
0
 51
180
  0
LINE
  8
_1-8_小物
  6
CONTINUOUS
 62
    4
 10
-82.333335833333336
 20
61.099999333329549
 11
-82.414616833333554
 21
61.099999333329549
  0
ARC
  8
_1-8_小物
  6
CONTINUOUS
 62
    4
 10
-82.414616833333554
 20
61.033333333329608
 40
0.066667
 50
90
 51
194.03640200001951
  0
LINE
  8
_1-8_小物
  6
CONTINUOUS
 62
    4
 10
-82.333333833333455
 20
60.433333333329557
 11
-82.479292833333517
 21
61.017164333329617
  0
LINE
  8
_1-8_小物
  6
CONTINUOUS
 62
    4
 10
-83.333333833333569
 20
61.099999333329549
 11
-83.252051833333581
 21
61.099999333329549
  0
ARC
  8
_1-8_小物
  6
CONTINUOUS
 62
    4
 10
-83.252051833333581
 20
61.033333333329608
 40
0.066667
 50
345.96380800000878
 51
90
  0
LINE
  8
_1-8_小物
  6
CONTINUOUS
 62
    4
 10
-83.333332833333571
 20
60.433333333329557
 11
-83.187375833333277
 21
61.017164333329617
  0
LINE
  8
_1-8_小物
  6
CONTINUOUS
 62
    4
 10
-82.333335833333336
 20
61.099999333329549
 11
-82.266668833333625
 21
61.099999333329549
  0
LINE
  8
_1-8_小物
  6
CONTINUOUS
 62
    4
 10
-82.266668833333625
 20
61.099999333329549
 11
-82.266666833333517
 21
62.099999333329635
  0
LINE
  8
_1-8_小物
  6
CONTINUOUS
 62
    4
 10
-83.333332833333571
 20
61.099999333329549
 11
-83.400000833333507
 21
61.099999333329549
  0
LINE
  8
_1-8_小物
  6
CONTINUOUS
 62
    4
 10
-83.400000833333507
 20
61.099999333329549
 11
-83.400000833333507
 21
62.099999333329635
  0
ENDBLK
  0
BLOCK
  2
-002-$QLE
 70
   64
 10
0
 20
0
 30
0
  0
LINE
  8
_1-f_寸法
  6
CONTINUOUS
 62
    4
 10
-43.333333333333343
 20
53.499999999996163
 11
-40.33493649053878
 21
48.306624327022092
  0
LINE
  8
_1-f_寸法
  6
CONTINUOUS
 62
    4
 10
-40.33493649053878
 20
48.306624327022092
 11
-1.6149364905388381
 21
48.306624327022092
  0
POINT
  8
_1-f_寸法
 62
    4
 10
-43.333333333333343
 20
53.499999999996163
  0
TEXT
  8
_1-f_寸法
 62
    4
 10
-40.014936490538815
 20
48.306624327022092
 40
3.2000000000000002
 41
1
 50
0
  1
ならしモルタル(別途工事)
  0
ENDBLK
  0
BLOCK
  2
-003-_2_
 70
   64
 10
0
 20
0
 30
0
  0
LINE
  8
_1-8_小物
  6
CONTINUOUS
 62
    4
 10
-61.53057499999997
 20
41.906724999996072
 11
-61.495685000000464
 21
41.240971666662773
  0
LINE
  8
_1-8_小物
  6
CONTINUOUS
 62
    4
 10
-61.582911666667002
 20
42.905354999996035
 11
-62.231218333333544
 21
42.537588333329381
  0
LINE
  8
_1-8_小物
  6
CONTINUOUS
 62
    4
 10
-62.231218333333544
 20
42.537588333329381
 11
-62.196328333333412
 21
41.871834999996082
  0
LINE
  8
_1-8_小物
  6
CONTINUOUS
 62
    4
 10
-62.196328333333412
 20
41.871834999996082
 11
-61.53057499999997
 21
41.906724999996072
  0
LINE
  8
_1-8_小物
  6
CONTINUOUS
 62
    4
 10
-61.617801666666907
 20
43.571108333329477
 11
-61.582911666667002
 21
42.905354999996035
  0
LINE
  8
_1-8_小物
  6
CONTINUOUS
 62
    4
 10
-61.67013833333354
 20
44.569736666662834
 11
-62.31844500000048
 21
44.201969999995868
  0
LINE
  8
_1-8_小物
  6
CONTINUOUS
 62
    4
 10
-62.31844500000048
 20
44.201969999995868
 11
-62.283555000000177
 21
43.536216666662796
  0
LINE
  8
_1-8_小物
  6
CONTINUOUS
 62
    4
 10
-62.283555000000177
 20
43.536216666662796
 11
-61.617801666666907
 21
43.571108333329477
  0
LINE
  8
_1-8_小物
  6
CONTINUOUS
 62
    4
 10
-61.705028333333729
 20
45.23548999999619
 11
-61.67013833333354
 21
44.569736666662834
  0
LINE
  8
_1-8_小物
  6
CONTINUOUS
 62
    4
 10
-61.757365000000078
 20
46.234119999995869
 11
-62.40567166666662
 21
45.866353333329499
  0
LINE
  8
_1-8_小物
  6
CONTINUOUS
 62
    4
 10
-62.40567166666662
 20
45.866353333329499
 11
-62.370781666667114
 21
45.200599999996143
  0
LINE
  8
_1-8_小物
  6
CONTINUOUS
 62
    4
 10
-62.370781666667114
 20
45.200599999996143
 11
-61.705028333333729
 21
45.23548999999619
  0
LINE
  8
_1-8_小物
  6
CONTINUOUS
 62
    4
 10
-61.792255000000267
 20
46.899873333329452
 11
-61.757365000000078
 21
46.234119999995869
  0
LINE
  8
_1-8_小物
  6
CONTINUOUS
 62
    4
 10
-61.844591666666901
 20
47.898503333329501
 11
-62.492898333333557
 21
47.530734999996071
  0
LINE
  8
_1-8_小物
  6
CONTINUOUS
 62
    4
 10
-62.492898333333557
 20
47.530734999996071
 11
-62.458008333333652
 21
46.864981666662771
  0
LINE
  8
_1-8_小物
  6
CONTINUOUS
 62
    4
 10
-62.458008333333652
 20
46.864981666662771
 11
-61.792255000000267
 21
46.899873333329452
  0
LINE
  8
_1-8_小物
  6
CONTINUOUS
 62
    4
 10
-61.879481666666805
 20
48.564254999996024
 11
-61.844591666666901
 21
47.898503333329501
  0
LINE
  8
_1-8_小物
  6
CONTINUOUS
 62
    4
 10
-62.580125000000379
 20
49.195118333329333
 11
-62.54523500000019
 21
48.529364999996034
  0
LINE
  8
_1-8_小物
  6
CONTINUOUS
 62
    4
 10
-62.54523500000019
 20
48.529364999996034
 11
-61.879481666666805
 21
48.564254999996024
  0
LINE
  8
_1-8_小物
  6
CONTINUOUS
 62
    4
 10
-62.000000000000199
 20
49.499999999996163
 11
-62.580125000000379
 21
49.195118333329333
  0
LINE
  8
_1-8_小物
  6
CONTINUOUS
 62
    4
 10
-65.136091666666886
 20
41.906724999996072
 11
-65.17098166666679
 21
41.240971666662773
  0
LINE
  8
_1-8_小物
  6
CONTINUOUS
 62
    4
 10
-65.083755000000252
 20
42.905354999996035
 11
-64.435448333333596
 21
42.537588333329381
  0
LINE
  8
_1-8_小物
  6
CONTINUOUS
 62
    4
 10
-64.435448333333596
 20
42.537588333329381
 11
-64.470338333333729
 21
41.871834999996082
  0
LINE
  8
_1-8_小物
  6
CONTINUOUS
 62
    4
 10
-64.470338333333729
 20
41.871834999996082
 11
-65.136091666666886
 21
41.906724999996072
  0
LINE
  8
_1-8_小物
  6
CONTINUOUS
 62
    4
 10
-65.04886499999995
 20
43.571108333329477
 11
-65.083755000000252
 21
42.905354999996035
  0
LINE
  8
_1-8_小物
  6
CONTINUOUS
 62
    4
 10
-64.996528333333714
 20
44.569736666662834
 11
-64.348221666667058
 21
44.201969999995868
  0
LINE
  8
_1-8_小物
  6
CONTINUOUS
 62
    4
 10
-64.348221666667058
 20
44.201969999995868
 11
-64.383111666666679
 21
43.536216666662796
  0
LINE
  8
_1-8_小物
  6
CONTINUOUS
 62
    4
 10
-64.383111666666679
 20
43.536216666662796
 11
-65.04886499999995
 21
43.571108333329477
  0
LINE
  8
_1-8_小物
  6
CONTINUOUS
 62
    4
 10
-64.961638333333809
 20
45.23548999999619
 11
-64.996528333333714
 21
44.569736666662834
  0
LINE
  8
_1-8_小物
  6
CONTINUOUS
 62
    4
 10
-64.909301666667176
 20
46.234119999995869
 11
-64.260995000000236
 21
45.866353333329499
  0
LINE
  8
_1-8_小物
  6
CONTINUOUS
 62
    4
 10
-64.260995000000236
 20
45.866353333329499
 11
-64.295885000000141
 21
45.200599999996143
  0
LINE
  8
_1-8_小物
  6
CONTINUOUS
 62
    4
 10
-64.295885000000141
 20
45.200599999996143
 11
-64.961638333333809
 21
45.23548999999619
  0
LINE
  8
_1-8_小物
  6
CONTINUOUS
 62
    4
 10
-64.874411666666873
 20
46.899873333329452
 11
-64.909301666667176
 21
46.234119999995869
  0
LINE
  8
_1-8_小物
  6
CONTINUOUS
 62
    4
 10
-64.822075000000012
 20
47.898503333329501
 11
-64.1737683333333
 21
47.530734999996071
  0
LINE
  8
_1-8_小物
  6
CONTINUOUS
 62
    4
 10
-64.1737683333333
 20
47.530734999996071
 11
-64.208658333333602
 21
46.864981666662771
  0
LINE
  8
_1-8_小物
  6
CONTINUOUS
 62
    4
 10
-64.208658333333602
 20
46.864981666662771
 11
-64.874411666666873
 21
46.899873333329452
  0
LINE
  8
_1-8_小物
  6
CONTINUOUS
 62
    4
 10
-64.787185000000335
 20
48.564254999996024
 11
-64.822075000000012
 21
47.898503333329501
  0
LINE
  8
_1-8_小物
  6
CONTINUOUS
 62
    4
 10
-64.086541666666761
 20
49.195118333329333
 11
-64.121431666667064
 21
48.529364999996034
  0
LINE
  8
_1-8_小物
  6
CONTINUOUS
 62
    4
 10
-64.121431666667064
 20
48.529364999996034
 11
-64.787185000000335
 21
48.564254999996024
  0
LINE
  8
_1-8_小物
  6
CONTINUOUS
 62
    4
 10
-63.353101666666788
 20
41.519768333329353
 11
-62.708535000000353
 21
42.091658333329434
  0
LINE
  8
_1-8_小物
  6
CONTINUOUS
 62
    4
 10
-63.956481666667031
 20
42.123146666662819
 11
-63.333333333333229
 21
41.499999999996021
  0
LINE
  8
_1-8_小物
  6
CONTINUOUS
 62
    4
 10
-64.666666666666657
 20
49.499999999996163
 11
-64.086541666666761
 21
49.195118333329333
  0
LINE
  8
_1-8_小物
  6
CONTINUOUS
 62
    4
 10
-61.792255000000267
 20
46.899873333329452
 11
-61.22713333333374
 21
48.452533333329285
  0
LINE
  8
_1-8_小物
  6
CONTINUOUS
 62
    4
 10
-62.146981666666733
 20
46.899873333329452
 11
-61.540363333333488
 21
48.566539999996053
  0
LINE
  8
_1-8_小物
  6
CONTINUOUS
 62
    4
 10
-64.874411666666873
 20
46.899873333329452
 11
-65.439533333333401
 21
48.452533333329285
  0
LINE
  8
_1-8_小物
  6
CONTINUOUS
 62
    4
 10
-64.519685000000408
 20
46.899873333329452
 11
-65.126303333333652
 21
48.566539999996053
  0
LINE
  8
_1-8_小物
  6
CONTINUOUS
 62
    4
 10
-62.660751666666926
 20
41.179913333329324
 11
-61.495685000000464
 21
41.240971666662773
  0
LINE
  8
_1-8_小物
  6
CONTINUOUS
 62
    4
 10
-61.495685000000464
 20
41.240971666662773
 11
-62.126546666666997
 21
40.540328333329512
  0
LINE
  8
_1-8_小物
  6
CONTINUOUS
 62
    4
 10
-62.126546666666997
 20
40.540328333329512
 11
-62.625861666666623
 21
40.514159999995968
  0
LINE
  8
_1-8_小物
  6
CONTINUOUS
 62
    4
 10
-62.625861666666623
 20
40.514159999995968
 11
-63.166666666666657
 21
50.833333333329279
  0
LINE
  8
_1-8_小物
  6
CONTINUOUS
 62
    4
 10
-62.000000000000199
 20
49.499999999996163
 11
-62.000000000000199
 21
50.833333333329279
  0
LINE
  8
_1-8_小物
  6
CONTINUOUS
 62
    4
 10
-64.005915000000329
 20
41.179913333329324
 11
-65.17098166666679
 21
41.240971666662773
  0
LINE
  8
_1-8_小物
  6
CONTINUOUS
 62
    4
 10
-65.17098166666679
 20
41.240971666662773
 11
-64.540120000000258
 21
40.540328333329512
  0
LINE
  8
_1-8_小物
  6
CONTINUOUS
 62
    4
 10
-64.540120000000258
 20
40.540328333329512
 11
-64.040805000000233
 21
40.514159999995968
  0
LINE
  8
_1-8_小物
  6
CONTINUOUS
 62
    4
 10
-64.040805000000233
 20
40.514159999995968
 11
-63.500000000000199
 21
50.833333333329279
  0
LINE
  8
_1-8_小物
  6
CONTINUOUS
 62
    4
 10
-64.666666666666657
 20
49.499999999996163
 11
-64.666666666666657
 21
50.833333333329279
  0
LINE
  8
_1-8_小物
  6
CONTINUOUS
 62
    4
 10
-65.439533333333401
 20
48.452533333329285
 11
-65.770318333333506
 21
50.720406666662967
  0
ARC
  8
_1-8_小物
  6
CONTINUOUS
 62
    4
 10
-65.638381666666845
 20
50.73965166666278
 40
0.1333333333333333
 50
98.130101999953808
 51
188.29846600001105
  0
LINE
  8
_1-8_小物
  6
CONTINUOUS
 62
    4
 10
-65.657238333333822
 20
50.871644999996107
 11
-65.591630000000094
 21
50.881016666662873
  0
ARC
  8
_1-8_小物
  6
CONTINUOUS
 62
    4
 10
-65.572773333333288
 20
50.749023333329461
 40
0.1333333333333333
 50
8.1301020000280779
 51
98.130102000226714
  0
LINE
  8
_1-8_小物
  6
CONTINUOUS
 62
    4
 10
-65.440780000000103
 20
50.76787999999604
 11
-65.126303333333652
 21
48.566539999996053
  0
LINE
  8
_1-8_小物
  6
CONTINUOUS
 62
    4
 10
-61.22713333333374
 20
48.452533333329285
 11
-60.896348333333634
 21
50.720406666662967
  0
ARC
  8
_1-8_小物
  6
CONTINUOUS
 62
    4
 10
-61.028285000000295
 20
50.73965166666278
 40
0.1333333333333333
 50
351.70153399996479
 51
81.869898000046192
  0
LINE
  8
_1-8_小物
  6
CONTINUOUS
 62
    4
 10
-61.009430000000265
 20
50.871644999996107
 11
-61.075036666667046
 21
50.881016666662873
  0
ARC
  8
_1-8_小物
  6
CONTINUOUS
 62
    4
 10
-61.093893333333341
 20
50.749023333329461
 40
0.1333333333333333
 50
81.869898000046192
 51
171.86989800000993
  0
LINE
  8
_1-8_小物
  6
CONTINUOUS
 62
    4
 10
-61.225886666667037
 20
50.76787999999604
 11
-61.540363333333488
 21
48.566539999996053
  0
LINE
  8
_1-8_小物
  6
CONTINUOUS
 62
    4
 10
-61.22713333333374
 20
48.452533333329285
 11
-60.896348333333634
 21
50.720406666662967
  0
ARC
  8
_1-8_小物
  6
CONTINUOUS
 62
    4
 10
-61.028285000000295
 20
50.73965166666278
 40
0.1333333333333333
 50
351.70153399996479
 51
81.869898000046192
  0
LINE
  8
_1-8_小物
  6
CONTINUOUS
 62
    4
 10
-61.009430000000265
 20
50.871644999996107
 11
-61.075036666667046
 21
50.881016666662873
  0
ARC
  8
_1-8_小物
  6
CONTINUOUS
 62
    4
 10
-61.093893333333341
 20
50.749023333329461
 40
0.1333333333333333
 50
81.869898000046192
 51
171.86989800000993
  0
LINE
  8
_1-8_小物
  6
CONTINUOUS
 62
    4
 10
-61.225886666667037
 20
50.76787999999604
 11
-61.540363333333488
 21
48.566539999996053
  0
LINE
  8
_1-8_小物
  6
CONTINUOUS
 62
    4
 10
-61.666666666666657
 20
53.499999999996163
 11
-62.000000000000199
 21
51.833333333329506
  0
LINE
  8
_1-8_小物
  6
CONTINUOUS
 62
    4
 10
-62.000000000000199
 20
53.499999999996163
 11
-62.000000000000199
 21
50.833333333329279
  0
LINE
  8
_1-8_小物
  6
CONTINUOUS
 62
    4
 10
-63.166666666666657
 20
50.833333333329279
 11
-63.333333333333229
 21
50.833333333329279
  0
LINE
  8
_1-8_小物
  6
CONTINUOUS
 62
    4
 10
-63.333333333333229
 20
51.833333333329506
 11
-63.333333333333229
 21
53.499999999996163
  0
LINE
  8
_1-8_小物
  6
CONTINUOUS
 62
    4
 10
-63.000000000000199
 20
53.499999999996163
 11
-63.333333333333229
 21
51.833333333329506
  0
LINE
  8
_1-8_小物
  6
CONTINUOUS
 62
    4
 10
-63.666666666666941
 20
53.499999999996163
 11
-63.333333333333229
 21
51.833333333329506
  0
LINE
  8
_1-8_小物
  6
CONTINUOUS
 62
    4
 10
-64.999999999999972
 20
53.499999999996163
 11
-64.666666666666657
 21
51.833333333329506
  0
LINE
  8
_1-8_小物
  6
CONTINUOUS
 62
    4
 10
-64.666666666666657
 20
53.499999999996163
 11
-64.666666666666657
 21
50.833333333329279
  0
LINE
  8
_1-8_小物
  6
CONTINUOUS
 62
    4
 10
-63.500000000000199
 20
50.833333333329279
 11
-63.333333333333229
 21
50.833333333329279
  0
LINE
  8
_1-8_小物
  6
CONTINUOUS
 62
    4
 10
-61.666666666666657
 20
53.499999999996163
 11
-64.999999999999972
 21
53.499999999996163
  0
ENDBLK
  0
BLOCK
  2
-004-_3_
 70
   64
 10
0
 20
0
 30
0
  0
LINE
  8
_1-8_小物
  6
CONTINUOUS
 62
    4
 10
-60.333333333333229
 20
57.16666666666282
 11
-66.33333333333357
 21
57.16666666666282
  0
LINE
  8
_1-8_小物
  6
CONTINUOUS
 62
    4
 10
-60.333333333333229
 20
56.66666666666282
 11
-66.33333333333357
 21
56.66666666666282
  0
LINE
  8
_1-8_小物
  6
CONTINUOUS
 62
    4
 10
-60.333333333333229
 20
57.16666666666282
 11
-60.333333333333229
 21
56.66666666666282
  0
LINE
  8
_1-8_小物
  6
CONTINUOUS
 62
    4
 10
-66.33333333333357
 20
57.16666666666282
 11
-66.33333333333357
 21
56.66666666666282
  0
LINE
  8
_1-8_小物
  6
CONTINUOUS
 62
    4
 10
-62.4166666666666
 20
57.16666666666282
 11
-62.4166666666666
 21
56.66666666666282
  0
LINE
  8
_1-8_小物
  6
CONTINUOUS
 62
    4
 10
-64.250000000000199
 20
57.16666666666282
 11
-64.250000000000199
 21
56.66666666666282
  0
LINE
  8
_1-8_小物
  6
CONTINUOUS
 62
    4
 10
-61.833333333333229
 20
57.16666666666282
 11
-61.869637594600107
 21
57.581626271662856
  0
LINE
  8
_1-8_小物
  6
CONTINUOUS
 62
    4
 10
-64.797029072100116
 20
57.581626271662856
 11
-64.833333333333229
 21
57.16666666666282
  0
ARC
  8
_1-8_小物
  6
CONTINUOUS
 62
    4
 10
-64.468284821700394
 20
57.552864876562751
 40
0.3299999999999999
 50
127.36755803205052
 51
175.00000000119871
  0
ARC
  8
_1-8_小物
  6
CONTINUOUS
 62
    4
 10
-62.198381844966747
 20
57.552864876562751
 40
0.3299999999999999
 50
4.999999998801286
 51
52.632441967949475
  0
ARC
  8
_1-8_小物
  6
CONTINUOUS
 62
    4
 10
-63.33333333333357
 20
56.066666666662798
 40
2.1999999999999997
 50
52.632441967704935
 51
68.266383543398447
  0
ARC
  8
_1-8_小物
  6
CONTINUOUS
 62
    4
 10
-63.33333333333357
 20
56.066666666662798
 40
2.1999999999999997
 50
111.74840859090331
 51
127.36755803230515
  0
LINE
  8
_1-8_小物
  6
CONTINUOUS
 62
    4
 10
-63.228333333333438
 20
58.25304237652955
 11
-63.228333333333438
 21
58.107770746529411
  0
LINE
  8
_1-8_小物
  6
CONTINUOUS
 62
    4
 10
-63.112570439366408
 20
58.25304237652955
 11
-63.228333333333438
 21
58.25304237652955
  0
LINE
  8
_1-8_小物
  6
CONTINUOUS
 62
    4
 10
-62.519165577166831
 20
58.107770746529411
 11
-63.112570439366408
 21
58.25304237652955
  0
LINE
  8
_1-8_小物
  6
CONTINUOUS
 62
    4
 10
-63.554096227333474
 20
58.25304237652955
 11
-63.987399649900198
 21
58.164563769396239
  0
LINE
  8
_1-8_小物
  6
CONTINUOUS
 62
    4
 10
-63.987399649900198
 20
58.164563769396239
 11
-64.147501089533051
 21
58.107770746529411
  0
LINE
  8
_1-8_小物
  6
CONTINUOUS
 62
    4
 10
-63.438333333333475
 20
58.25304237652955
 11
-63.554096227333474
 21
58.25304237652955
  0
LINE
  8
_1-8_小物
  6
CONTINUOUS
 62
    4
 10
-63.438333333333475
 20
58.107770746529411
 11
-63.438333333333475
 21
58.25304237652955
  0
LINE
  8
_1-8_小物
  6
CONTINUOUS
 62
    4
 10
-63.228333333333438
 20
58.107770746529411
 11
-63.33333333333357
 21
58.109472471329525
  0
LINE
  8
_1-8_小物
  6
CONTINUOUS
 62
    4
 10
-63.33333333333357
 20
58.109472471329525
 11
-63.438333333333475
 21
58.107770746529411
  0
LINE
  8
_1-8_小物
  6
CONTINUOUS
 62
    4
 10
-61.869637594600107
 20
57.581626271662856
 11
-64.797029072100116
 21
57.581626271662856
  0
LINE
  8
_1-8_小物
  6
CONTINUOUS
 62
    4
 10
-63.33333333333357
 20
57.815135148896218
 11
-64.66857037850022
 21
57.815135148896218
  0
LINE
  8
_1-8_小物
  6
CONTINUOUS
 62
    4
 10
-61.998096288200003
 20
57.815135148896218
 11
-63.33333333333357
 21
57.815135148896218
  0
ENDBLK
  0
BLOCK
  2
-005-HATCHING
 70
   64
 10
0
 20
0
 30
0
  0
LINE
  8
_1-0_躯体
  6
CONTINUOUS
 62
    4
 10
-36.666666666666572
 20
54.259740204526224
 11
-37.426406871196605
 21
53.499999999996163
  0
LINE
  8
_1-0_躯体
  6
CONTINUOUS
 62
    4
 10
-36.702549246112028
 20
55.16666666666282
 11
-38.369215912778685
 21
53.499999999996163
  0
LINE
  8
_1-0_躯体
  6
CONTINUOUS
 62
    4
 10
-37.64535828769408
 20
55.16666666666282
 11
-39.312024954360766
 21
53.499999999996163
  0
LINE
  8
_1-0_躯体
  6
CONTINUOUS
 62
    4
 10
-38.58816732927616
 20
55.16666666666282
 11
-40.254833995942818
 21
53.499999999996163
  0
LINE
  8
_1-0_躯体
  6
CONTINUOUS
 62
    4
 10
-39.530976370858241
 20
55.16666666666282
 11
-41.197643037524898
 21
53.499999999996163
  0
LINE
  8
_1-0_躯体
  6
CONTINUOUS
 62
    4
 10
-40.473785412440293
 20
55.16666666666282
 11
-42.140452079106979
 21
53.499999999996163
  0
LINE
  8
_1-0_躯体
  6
CONTINUOUS
 62
    4
 10
-41.416594454022373
 20
55.16666666666282
 11
-43.083261120689031
 21
53.499999999996163
  0
LINE
  8
_1-0_躯体
  6
CONTINUOUS
 62
    4
 10
-42.359403495604454
 20
55.16666666666282
 11
-44.026070162271111
 21
53.499999999996163
  0
LINE
  8
_1-0_躯体
  6
CONTINUOUS
 62
    4
 10
-43.302212537186506
 20
55.16666666666282
 11
-44.968879203853191
 21
53.499999999996163
  0
LINE
  8
_1-0_躯体
  6
CONTINUOUS
 62
    4
 10
-44.245021578768558
 20
55.16666666666282
 11
-45.911688245435215
 21
53.499999999996163
  0
LINE
  8
_1-0_躯体
  6
CONTINUOUS
 62
    4
 10
-45.18783062035061
 20
55.16666666666282
 11
-46.854497287017296
 21
53.499999999996163
  0
LINE
  8
_1-0_躯体
  6
CONTINUOUS
 62
    4
 10
-46.13063966193269
 20
55.16666666666282
 11
-47.797306328599348
 21
53.499999999996163
  0
LINE
  8
_1-0_躯体
  6
CONTINUOUS
 62
    4
 10
-47.073448703514714
 20
55.16666666666282
 11
-48.7401153701814
 21
53.499999999996163
  0
LINE
  8
_1-0_躯体
  6
CONTINUOUS
 62
    4
 10
-48.016257745096794
 20
55.16666666666282
 11
-49.682924411763452
 21
53.499999999996163
  0
LINE
  8
_1-0_躯体
  6
CONTINUOUS
 62
    4
 10
-48.959066786678875
 20
55.16666666666282
 11
-50.625733453345532
 21
53.499999999996163
  0
LINE
  8
_1-0_躯体
  6
CONTINUOUS
 62
    4
 10
-49.901875828260955
 20
55.16666666666282
 11
-51.568542494927641
 21
53.499999999996163
  0
LINE
  8
_1-0_躯体
  6
CONTINUOUS
 62
    4
 10
-50.844684869843007
 20
55.16666666666282
 11
-52.511351536509665
 21
53.499999999996163
  0
LINE
  8
_1-0_躯体
  6
CONTINUOUS
 62
    4
 10
-51.787493911425088
 20
55.16666666666282
 11
-53.454160578091745
 21
53.499999999996163
  0
LINE
  8
_1-0_躯体
  6
CONTINUOUS
 62
    4
 10
-52.73030295300714
 20
55.16666666666282
 11
-54.396969619673797
 21
53.499999999996163
  0
LINE
  8
_1-0_躯体
  6
CONTINUOUS
 62
    4
 10
-53.673111994589192
 20
55.16666666666282
 11
-55.339778661255878
 21
53.499999999996163
  0
LINE
  8
_1-0_躯体
  6
CONTINUOUS
 62
    4
 10
-54.615921036171244
 20
55.16666666666282
 11
-56.28258770283793
 21
53.499999999996163
  0
LINE
  8
_1-0_躯体
  6
CONTINUOUS
 62
    4
 10
-55.558730077753296
 20
55.16666666666282
 11
-57.225396744419953
 21
53.499999999996163
  0
LINE
  8
_1-0_躯体
  6
CONTINUOUS
 62
    4
 10
-56.501539119335405
 20
55.16666666666282
 11
-58.168205786002062
 21
53.499999999996163
  0
LINE
  8
_1-0_躯体
  6
CONTINUOUS
 62
    4
 10
-57.444348160917428
 20
55.16666666666282
 11
-59.111014827584114
 21
53.499999999996163
  0
LINE
  8
_1-0_躯体
  6
CONTINUOUS
 62
    4
 10
-58.387157202499509
 20
55.16666666666282
 11
-60.053823869166195
 21
53.499999999996163
  0
LINE
  8
_1-0_躯体
  6
CONTINUOUS
 62
    4
 10
-59.329966244081589
 20
55.16666666666282
 11
-60.996632910748247
 21
53.499999999996163
  0
LINE
  8
_1-0_躯体
  6
CONTINUOUS
 62
    4
 10
-60.272775285663641
 20
55.16666666666282
 11
-61.939441952330299
 21
53.499999999996163
  0
LINE
  8
_1-0_躯体
  6
CONTINUOUS
 62
    4
 10
-61.215584327245722
 20
55.16666666666282
 11
-62.882250993912379
 21
53.499999999996163
  0
LINE
  8
_1-0_躯体
  6
CONTINUOUS
 62
    4
 10
-62.158393368827774
 20
55.16666666666282
 11
-63.825060035494431
 21
53.499999999996163
  0
LINE
  8
_1-0_躯体
  6
CONTINUOUS
 62
    4
 10
-63.101202410409826
 20
55.16666666666282
 11
-64.767869077076512
 21
53.499999999996163
  0
LINE
  8
_1-0_躯体
  6
CONTINUOUS
 62
    4
 10
-64.044011451991935
 20
55.16666666666282
 11
-65.710678118658592
 21
53.499999999996163
  0
LINE
  8
_1-0_躯体
  6
CONTINUOUS
 62
    4
 10
-64.986820493573958
 20
55.16666666666282
 11
-66.653487160240616
 21
53.499999999996163
  0
LINE
  8
_1-0_躯体
  6
CONTINUOUS
 62
    4
 10
-65.929629535156039
 20
55.16666666666282
 11
-67.596296201822696
 21
53.499999999996163
  0
LINE
  8
_1-0_躯体
  6
CONTINUOUS
 62
    4
 10
-66.872438576738091
 20
55.16666666666282
 11
-68.539105243404748
 21
53.499999999996163
  0
LINE
  8
_1-0_躯体
  6
CONTINUOUS
 62
    4
 10
-67.815247618320143
 20
55.16666666666282
 11
-69.481914284986829
 21
53.499999999996163
  0
LINE
  8
_1-0_躯体
  6
CONTINUOUS
 62
    4
 10
-68.758056659902252
 20
55.16666666666282
 11
-70.424723326568909
 21
53.499999999996163
  0
LINE
  8
_1-0_躯体
  6
CONTINUOUS
 62
    4
 10
-69.700865701484304
 20
55.16666666666282
 11
-71.367532368150961
 21
53.499999999996163
  0
LINE
  8
_1-0_躯体
  6
CONTINUOUS
 62
    4
 10
-70.643674743066356
 20
55.16666666666282
 11
-72.310341409733013
 21
53.499999999996163
  0
LINE
  8
_1-0_躯体
  6
CONTINUOUS
 62
    4
 10
-71.586483784648408
 20
55.16666666666282
 11
-73.253150451315065
 21
53.499999999996163
  0
LINE
  8
_1-0_躯体
  6
CONTINUOUS
 62
    4
 10
-72.52929282623046
 20
55.16666666666282
 11
-74.195959492897146
 21
53.499999999996163
  0
LINE
  8
_1-0_躯体
  6
CONTINUOUS
 62
    4
 10
-73.47210186781254
 20
55.16666666666282
 11
-75
 21
53.638768534475332
  0
LINE
  8
_1-0_躯体
  6
CONTINUOUS
 62
    4
 10
-74.414910909394564
 20
55.16666666666282
 11
-75
 21
54.581577576057413
  0
ENDBLK
  0
BLOCK
  2
-006-_4_
 70
   64
 10
0
 20
0
 30
0
  0
LINE
  8
_1-8_小物
  6
CONTINUOUS
 62
    4
 10
-116.16666666666667
 20
62.0999993333335
 11
-116.16666666666667
 21
60.433333333333394
  0
LINE
  8
_1-8_小物
  6
CONTINUOUS
 62
    4
 10
-116.16666666666667
 20
60.433333333333394
 11
-116.66666666666644
 21
60.433333333333394
  0
LINE
  8
_1-8_小物
  6
CONTINUOUS
 62
    4
 10
-117.6666666666666
 20
60.433333333333394
 11
-118.16666666666656
 21
60.433333333333394
  0
LINE
  8
_1-8_小物
  6
CONTINUOUS
 62
    4
 10
-118.16666666666656
 20
60.433333333333394
 11
-118.16666666666656
 21
62.0999993333335
  0
ARC
  8
_1-8_小物
  6
CONTINUOUS
 62
    4
 10
-117.1666666666665
 20
62.0999993333335
 40
0.566667
 50
0
 51
180
  0
ARC
  8
_1-8_小物
  6
CONTINUOUS
 62
    4
 10
-117.1666666666665
 20
62.0999993333335
 40
1
 50
0
 51
180
  0
LINE
  8
_1-8_小物
  6
CONTINUOUS
 62
    4
 10
-117.66666466666673
 20
61.099999333333386
 11
-117.58538366666652
 21
61.099999333333386
  0
ARC
  8
_1-8_小物
  6
CONTINUOUS
 62
    4
 10
-117.58538366666652
 20
61.033333333333445
 40
0.066667
 50
345.96359800000414
 51
90
  0
LINE
  8
_1-8_小物
  6
CONTINUOUS
 62
    4
 10
-117.6666666666666
 20
60.433333333333394
 11
-117.5207076666665
 21
61.017164333333454
  0
LINE
  8
_1-8_小物
  6
CONTINUOUS
 62
    4
 10
-116.66666666666644
 20
61.099999333333386
 11
-116.74794866666647
 21
61.099999333333386
  0
ARC
  8
_1-8_小物
  6
CONTINUOUS
 62
    4
 10
-116.74794866666647
 20
61.033333333333445
 40
0.066667
 50
90
 51
194.03619200001785
  0
LINE
  8
_1-8_小物
  6
CONTINUOUS
 62
    4
 10
-116.66666766666648
 20
60.433333333333394
 11
-116.81262466666674
 21
61.017164333333454
  0
LINE
  8
_1-8_小物
  6
CONTINUOUS
 62
    4
 10
-117.66666466666673
 20
61.099999333333386
 11
-117.73333166666643
 21
61.099999333333386
  0
LINE
  8
_1-8_小物
  6
CONTINUOUS
 62
    4
 10
-117.73333166666643
 20
61.099999333333386
 11
-117.7333336666665
 21
62.0999993333335
  0
LINE
  8
_1-8_小物
  6
CONTINUOUS
 62
    4
 10
-116.66666766666648
 20
61.099999333333386
 11
-116.59999966666655
 21
61.099999333333386
  0
LINE
  8
_1-8_小物
  6
CONTINUOUS
 62
    4
 10
-116.59999966666655
 20
61.099999333333386
 11
-116.59999966666655
 21
62.0999993333335
  0
ENDBLK
  0
BLOCK
  2
-007-_5_
 70
   64
 10
0
 20
0
 30
0
  0
LINE
  8
_1-8_小物
  6
CONTINUOUS
 62
    4
 10
-116.16666616666667
 20
62.099999333329635
 11
-116.16666616666667
 21
60.433333333329557
  0
LINE
  8
_1-8_小物
  6
CONTINUOUS
 62
    4
 10
-116.16666616666667
 20
60.433333333329557
 11
-116.66666616666645
 21
60.433333333329557
  0
LINE
  8
_1-8_小物
  6
CONTINUOUS
 62
    4
 10
-117.66666616666656
 20
60.433333333329557
 11
-118.16666616666656
 21
60.433333333329557
  0
LINE
  8
_1-8_小物
  6
CONTINUOUS
 62
    4
 10
-118.16666616666656
 20
60.433333333329557
 11
-118.16666616666656
 21
62.099999333329635
  0
ARC
  8
_1-8_小物
  6
CONTINUOUS
 62
    4
 10
-117.16666616666645
 20
62.099999333329635
 40
0.566667
 50
0
 51
180
  0
ARC
  8
_1-8_小物
  6
CONTINUOUS
 62
    4
 10
-117.16666616666645
 20
62.099999333329635
 40
1
 50
0
 51
180
  0
LINE
  8
_1-8_小物
  6
CONTINUOUS
 62
    4
 10
-117.66666416666668
 20
61.099999333329549
 11
-117.58538316666646
 21
61.099999333329549
  0
ARC
  8
_1-8_小物
  6
CONTINUOUS
 62
    4
 10
-117.58538316666646
 20
61.033333333329608
 40
0.066667
 50
345.96359799998049
 51
90
  0
LINE
  8
_1-8_小物
  6
CONTINUOUS
 62
    4
 10
-117.66666616666656
 20
60.433333333329557
 11
-117.5207071666665
 21
61.017164333329617
  0
LINE
  8
_1-8_小物
  6
CONTINUOUS
 62
    4
 10
-116.66666616666645
 20
61.099999333329549
 11
-116.74794816666643
 21
61.099999333329549
  0
ARC
  8
_1-8_小物
  6
CONTINUOUS
 62
    4
 10
-116.74794816666643
 20
61.033333333329608
 40
0.066667
 50
90
 51
194.03619199999119
  0
LINE
  8
_1-8_小物
  6
CONTINUOUS
 62
    4
 10
-116.66666716666644
 20
60.433333333329557
 11
-116.81262416666674
 21
61.017164333329617
  0
LINE
  8
_1-8_小物
  6
CONTINUOUS
 62
    4
 10
-117.66666416666668
 20
61.099999333329549
 11
-117.73333116666639
 21
61.099999333329549
  0
LINE
  8
_1-8_小物
  6
CONTINUOUS
 62
    4
 10
-117.73333116666639
 20
61.099999333329549
 11
-117.7333331666665
 21
62.099999333329635
  0
LINE
  8
_1-8_小物
  6
CONTINUOUS
 62
    4
 10
-116.66666716666644
 20
61.099999333329549
 11
-116.59999916666651
 21
61.099999333329549
  0
LINE
  8
_1-8_小物
  6
CONTINUOUS
 62
    4
 10
-116.59999916666651
 20
61.099999333329549
 11
-116.59999916666651
 21
62.099999333329635
  0
ENDBLK
  0
BLOCK
  2
-008-_6_
 70
   64
 10
0
 20
0
 30
0
  0
LINE
  8
_1-8_小物
  6
CONTINUOUS
 62
    4
 10
-138.46942500000006
 20
41.906724999996072
 11
-138.50431499999956
 21
41.240971666662773
  0
LINE
  8
_1-8_小物
  6
CONTINUOUS
 62
    4
 10
-138.41708833333303
 20
42.905354999996035
 11
-137.76878166666648
 21
42.537588333329381
  0
LINE
  8
_1-8_小物
  6
CONTINUOUS
 62
    4
 10
-137.76878166666648
 20
42.537588333329381
 11
-137.80367166666662
 21
41.871834999996082
  0
LINE
  8
_1-8_小物
  6
CONTINUOUS
 62
    4
 10
-137.80367166666662
 20
41.871834999996082
 11
-138.46942500000006
 21
41.906724999996072
  0
LINE
  8
_1-8_小物
  6
CONTINUOUS
 62
    4
 10
-138.38219833333312
 20
43.571108333329477
 11
-138.41708833333303
 21
42.905354999996035
  0
LINE
  8
_1-8_小物
  6
CONTINUOUS
 62
    4
 10
-138.32986166666649
 20
44.569736666662834
 11
-137.68155499999955
 21
44.201969999995868
  0
LINE
  8
_1-8_小物
  6
CONTINUOUS
 62
    4
 10
-137.68155499999955
 20
44.201969999995868
 11
-137.71644499999985
 21
43.536216666662796
  0
LINE
  8
_1-8_小物
  6
CONTINUOUS
 62
    4
 10
-137.71644499999985
 20
43.536216666662796
 11
-138.38219833333312
 21
43.571108333329477
  0
LINE
  8
_1-8_小物
  6
CONTINUOUS
 62
    4
 10
-138.2949716666663
 20
45.23548999999619
 11
-138.32986166666649
 21
44.569736666662834
  0
LINE
  8
_1-8_小物
  6
CONTINUOUS
 62
    4
 10
-138.24263499999995
 20
46.234119999995869
 11
-137.59432833333341
 21
45.866353333329499
  0
LINE
  8
_1-8_小物
  6
CONTINUOUS
 62
    4
 10
-137.59432833333341
 20
45.866353333329499
 11
-137.62921833333291
 21
45.200599999996143
  0
LINE
  8
_1-8_小物
  6
CONTINUOUS
 62
    4
 10
-137.62921833333291
 20
45.200599999996143
 11
-138.2949716666663
 21
45.23548999999619
  0
LINE
  8
_1-8_小物
  6
CONTINUOUS
 62
    4
 10
-138.20774499999976
 20
46.899873333329452
 11
-138.24263499999995
 21
46.234119999995869
  0
LINE
  8
_1-8_小物
  6
CONTINUOUS
 62
    4
 10
-138.15540833333313
 20
47.898503333329501
 11
-137.50710166666647
 21
47.530734999996071
  0
LINE
  8
_1-8_小物
  6
CONTINUOUS
 62
    4
 10
-137.50710166666647
 20
47.530734999996071
 11
-137.54199166666638
 21
46.864981666662771
  0
LINE
  8
_1-8_小物
  6
CONTINUOUS
 62
    4
 10
-137.54199166666638
 20
46.864981666662771
 11
-138.20774499999976
 21
46.899873333329452
  0
LINE
  8
_1-8_小物
  6
CONTINUOUS
 62
    4
 10
-138.12051833333322
 20
48.564254999996024
 11
-138.15540833333313
 21
47.898503333329501
  0
LINE
  8
_1-8_小物
  6
CONTINUOUS
 62
    4
 10
-137.41987499999965
 20
49.195118333329333
 11
-137.45476499999984
 21
48.529364999996034
  0
LINE
  8
_1-8_小物
  6
CONTINUOUS
 62
    4
 10
-137.45476499999984
 20
48.529364999996034
 11
-138.12051833333322
 21
48.564254999996024
  0
LINE
  8
_1-8_小物
  6
CONTINUOUS
 62
    4
 10
-137.99999999999983
 20
49.499999999996163
 11
-137.41987499999965
 21
49.195118333329333
  0
LINE
  8
_1-8_小物
  6
CONTINUOUS
 62
    4
 10
-134.86390833333314
 20
41.906724999996072
 11
-134.82901833333324
 21
41.240971666662773
  0
LINE
  8
_1-8_小物
  6
CONTINUOUS
 62
    4
 10
-134.91624499999978
 20
42.905354999996035
 11
-135.56455166666643
 21
42.537588333329381
  0
LINE
  8
_1-8_小物
  6
CONTINUOUS
 62
    4
 10
-135.56455166666643
 20
42.537588333329381
 11
-135.5296616666663
 21
41.871834999996082
  0
LINE
  8
_1-8_小物
  6
CONTINUOUS
 62
    4
 10
-135.5296616666663
 20
41.871834999996082
 11
-134.86390833333314
 21
41.906724999996072
  0
LINE
  8
_1-8_小物
  6
CONTINUOUS
 62
    4
 10
-134.95113500000008
 20
43.571108333329477
 11
-134.91624499999978
 21
42.905354999996035
  0
LINE
  8
_1-8_小物
  6
CONTINUOUS
 62
    4
 10
-135.00347166666631
 20
44.569736666662834
 11
-135.65177833333297
 21
44.201969999995868
  0
LINE
  8
_1-8_小物
  6
CONTINUOUS
 62
    4
 10
-135.65177833333297
 20
44.201969999995868
 11
-135.61688833333335
 21
43.536216666662796
  0
LINE
  8
_1-8_小物
  6
CONTINUOUS
 62
    4
 10
-135.61688833333335
 20
43.536216666662796
 11
-134.95113500000008
 21
43.571108333329477
  0
LINE
  8
_1-8_小物
  6
CONTINUOUS
 62
    4
 10
-135.03836166666622
 20
45.23548999999619
 11
-135.00347166666631
 21
44.569736666662834
  0
LINE
  8
_1-8_小物
  6
CONTINUOUS
 62
    4
 10
-135.09069833333285
 20
46.234119999995869
 11
-135.73900499999979
 21
45.866353333329499
  0
LINE
  8
_1-8_小物
  6
CONTINUOUS
 62
    4
 10
-135.73900499999979
 20
45.866353333329499
 11
-135.70411499999989
 21
45.200599999996143
  0
LINE
  8
_1-8_小物
  6
CONTINUOUS
 62
    4
 10
-135.70411499999989
 20
45.200599999996143
 11
-135.03836166666622
 21
45.23548999999619
  0
LINE
  8
_1-8_小物
  6
CONTINUOUS
 62
    4
 10
-135.12558833333316
 20
46.899873333329452
 11
-135.09069833333285
 21
46.234119999995869
  0
LINE
  8
_1-8_小物
  6
CONTINUOUS
 62
    4
 10
-135.17792500000002
 20
47.898503333329501
 11
-135.82623166666673
 21
47.530734999996071
  0
LINE
  8
_1-8_小物
  6
CONTINUOUS
 62
    4
 10
-135.82623166666673
 20
47.530734999996071
 11
-135.79134166666643
 21
46.864981666662771
  0
LINE
  8
_1-8_小物
  6
CONTINUOUS
 62
    4
 10
-135.79134166666643
 20
46.864981666662771
 11
-135.12558833333316
 21
46.899873333329452
  0
LINE
  8
_1-8_小物
  6
CONTINUOUS
 62
    4
 10
-135.21281499999969
 20
48.564254999996024
 11
-135.17792500000002
 21
47.898503333329501
  0
LINE
  8
_1-8_小物
  6
CONTINUOUS
 62
    4
 10
-135.91345833333327
 20
49.195118333329333
 11
-135.87856833333296
 21
48.529364999996034
  0
LINE
  8
_1-8_小物
  6
CONTINUOUS
 62
    4
 10
-135.87856833333296
 20
48.529364999996034
 11
-135.21281499999969
 21
48.564254999996024
  0
LINE
  8
_1-8_小物
  6
CONTINUOUS
 62
    4
 10
-136.64689833333324
 20
41.519768333329353
 11
-137.29146499999968
 21
42.091658333329434
  0
LINE
  8
_1-8_小物
  6
CONTINUOUS
 62
    4
 10
-136.043518333333
 20
42.123146666662819
 11
-136.6666666666668
 21
41.499999999996021
  0
LINE
  8
_1-8_小物
  6
CONTINUOUS
 62
    4
 10
-135.33333333333337
 20
49.499999999996163
 11
-135.91345833333327
 21
49.195118333329333
  0
LINE
  8
_1-8_小物
  6
CONTINUOUS
 62
    4
 10
-138.20774499999976
 20
46.899873333329452
 11
-138.77286666666629
 21
48.452533333329285
  0
LINE
  8
_1-8_小物
  6
CONTINUOUS
 62
    4
 10
-137.8530183333333
 20
46.899873333329452
 11
-138.45963666666654
 21
48.566539999996053
  0
LINE
  8
_1-8_小物
  6
CONTINUOUS
 62
    4
 10
-135.12558833333316
 20
46.899873333329452
 11
-134.56046666666663
 21
48.452533333329285
  0
LINE
  8
_1-8_小物
  6
CONTINUOUS
 62
    4
 10
-135.48031499999962
 20
46.899873333329452
 11
-134.87369666666638
 21
48.566539999996053
  0
LINE
  8
_1-8_小物
  6
CONTINUOUS
 62
    4
 10
-137.3392483333331
 20
41.179913333329324
 11
-138.50431499999956
 21
41.240971666662773
  0
LINE
  8
_1-8_小物
  6
CONTINUOUS
 62
    4
 10
-138.50431499999956
 20
41.240971666662773
 11
-137.87345333333303
 21
40.540328333329512
  0
LINE
  8
_1-8_小物
  6
CONTINUOUS
 62
    4
 10
-137.87345333333303
 20
40.540328333329512
 11
-137.37413833333341
 21
40.514159999995968
  0
LINE
  8
_1-8_小物
  6
CONTINUOUS
 62
    4
 10
-137.37413833333341
 20
40.514159999995968
 11
-136.83333333333337
 21
50.833333333329279
  0
LINE
  8
_1-8_小物
  6
CONTINUOUS
 62
    4
 10
-137.99999999999983
 20
49.499999999996163
 11
-137.99999999999983
 21
50.833333333329279
  0
LINE
  8
_1-8_小物
  6
CONTINUOUS
 62
    4
 10
-135.9940849999997
 20
41.179913333329324
 11
-134.82901833333324
 21
41.240971666662773
  0
LINE
  8
_1-8_小物
  6
CONTINUOUS
 62
    4
 10
-134.82901833333324
 20
41.240971666662773
 11
-135.45987999999977
 21
40.540328333329512
  0
LINE
  8
_1-8_小物
  6
CONTINUOUS
 62
    4
 10
-135.45987999999977
 20
40.540328333329512
 11
-135.9591949999998
 21
40.514159999995968
  0
LINE
  8
_1-8_小物
  6
CONTINUOUS
 62
    4
 10
-135.9591949999998
 20
40.514159999995968
 11
-136.49999999999983
 21
50.833333333329279
  0
LINE
  8
_1-8_小物
  6
CONTINUOUS
 62
    4
 10
-135.33333333333337
 20
49.499999999996163
 11
-135.33333333333337
 21
50.833333333329279
  0
LINE
  8
_1-8_小物
  6
CONTINUOUS
 62
    4
 10
-134.56046666666663
 20
48.452533333329285
 11
-134.22968166666652
 21
50.720406666662967
  0
ARC
  8
_1-8_小物
  6
CONTINUOUS
 62
    4
 10
-134.36161833333318
 20
50.73965166666278
 40
0.1333333333333333
 50
351.7015339999889
 51
81.869898000034084
  0
LINE
  8
_1-8_小物
  6
CONTINUOUS
 62
    4
 10
-134.34276166666621
 20
50.871644999996107
 11
-134.40836999999993
 21
50.881016666662873
  0
ARC
  8
_1-8_小物
  6
CONTINUOUS
 62
    4
 10
-134.42722666666674
 20
50.749023333329461
 40
0.1333333333333333
 50
81.869897999773286
 51
171.86989799997193
  0
LINE
  8
_1-8_小物
  6
CONTINUOUS
 62
    4
 10
-134.55921999999993
 20
50.76787999999604
 11
-134.87369666666638
 21
48.566539999996053
  0
LINE
  8
_1-8_小物
  6
CONTINUOUS
 62
    4
 10
-138.77286666666629
 20
48.452533333329285
 11
-139.10365166666639
 21
50.720406666662967
  0
ARC
  8
_1-8_小物
  6
CONTINUOUS
 62
    4
 10
-138.97171499999973
 20
50.73965166666278
 40
0.1333333333333333
 50
98.130101999953808
 51
188.29846600003697
  0
LINE
  8
_1-8_小物
  6
CONTINUOUS
 62
    4
 10
-138.99056999999976
 20
50.871644999996107
 11
-138.92496333333298
 21
50.881016666662873
  0
ARC
  8
_1-8_小物
  6
CONTINUOUS
 62
    4
 10
-138.90610666666669
 20
50.749023333329461
 40
0.1333333333333333
 50
8.1301019999900799
 51
98.130101999953808
  0
LINE
  8
_1-8_小物
  6
CONTINUOUS
 62
    4
 10
-138.77411333333299
 20
50.76787999999604
 11
-138.45963666666654
 21
48.566539999996053
  0
LINE
  8
_1-8_小物
  6
CONTINUOUS
 62
    4
 10
-138.77286666666629
 20
48.452533333329285
 11
-139.10365166666639
 21
50.720406666662967
  0
ARC
  8
_1-8_小物
  6
CONTINUOUS
 62
    4
 10
-138.97171499999973
 20
50.73965166666278
 40
0.1333333333333333
 50
98.130101999953808
 51
188.29846600003697
  0
LINE
  8
_1-8_小物
  6
CONTINUOUS
 62
    4
 10
-138.99056999999976
 20
50.871644999996107
 11
-138.92496333333298
 21
50.881016666662873
  0
ARC
  8
_1-8_小物
  6
CONTINUOUS
 62
    4
 10
-138.90610666666669
 20
50.749023333329461
 40
0.1333333333333333
 50
8.1301019999900799
 51
98.130101999953808
  0
LINE
  8
_1-8_小物
  6
CONTINUOUS
 62
    4
 10
-138.77411333333299
 20
50.76787999999604
 11
-138.45963666666654
 21
48.566539999996053
  0
LINE
  8
_1-8_小物
  6
CONTINUOUS
 62
    4
 10
-138.33333333333337
 20
53.499999999996163
 11
-137.99999999999983
 21
51.833333333329506
  0
LINE
  8
_1-8_小物
  6
CONTINUOUS
 62
    4
 10
-137.99999999999983
 20
53.499999999996163
 11
-137.99999999999983
 21
50.833333333329279
  0
LINE
  8
_1-8_小物
  6
CONTINUOUS
 62
    4
 10
-136.83333333333337
 20
50.833333333329279
 11
-136.6666666666668
 21
50.833333333329279
  0
LINE
  8
_1-8_小物
  6
CONTINUOUS
 62
    4
 10
-136.6666666666668
 20
51.833333333329506
 11
-136.6666666666668
 21
53.499999999996163
  0
LINE
  8
_1-8_小物
  6
CONTINUOUS
 62
    4
 10
-136.99999999999983
 20
53.499999999996163
 11
-136.6666666666668
 21
51.833333333329506
  0
LINE
  8
_1-8_小物
  6
CONTINUOUS
 62
    4
 10
-136.33333333333309
 20
53.499999999996163
 11
-136.6666666666668
 21
51.833333333329506
  0
LINE
  8
_1-8_小物
  6
CONTINUOUS
 62
    4
 10
-135.00000000000006
 20
53.499999999996163
 11
-135.33333333333337
 21
51.833333333329506
  0
LINE
  8
_1-8_小物
  6
CONTINUOUS
 62
    4
 10
-135.33333333333337
 20
53.499999999996163
 11
-135.33333333333337
 21
50.833333333329279
  0
LINE
  8
_1-8_小物
  6
CONTINUOUS
 62
    4
 10
-136.49999999999983
 20
50.833333333329279
 11
-136.6666666666668
 21
50.833333333329279
  0
LINE
  8
_1-8_小物
  6
CONTINUOUS
 62
    4
 10
-138.33333333333337
 20
53.499999999996163
 11
-135.00000000000006
 21
53.499999999996163
  0
ENDBLK
  0
BLOCK
  2
-009-_7_
 70
   64
 10
0
 20
0
 30
0
  0
LINE
  8
_1-8_小物
  6
CONTINUOUS
 62
    4
 10
-139.6666666666668
 20
57.16666666666282
 11
-133.66666666666646
 21
57.16666666666282
  0
LINE
  8
_1-8_小物
  6
CONTINUOUS
 62
    4
 10
-139.6666666666668
 20
56.66666666666282
 11
-133.66666666666646
 21
56.66666666666282
  0
LINE
  8
_1-8_小物
  6
CONTINUOUS
 62
    4
 10
-139.6666666666668
 20
57.16666666666282
 11
-139.6666666666668
 21
56.66666666666282
  0
LINE
  8
_1-8_小物
  6
CONTINUOUS
 62
    4
 10
-133.66666666666646
 20
57.16666666666282
 11
-133.66666666666646
 21
56.66666666666282
  0
LINE
  8
_1-8_小物
  6
CONTINUOUS
 62
    4
 10
-137.58333333333343
 20
57.16666666666282
 11
-137.58333333333343
 21
56.66666666666282
  0
LINE
  8
_1-8_小物
  6
CONTINUOUS
 62
    4
 10
-135.74999999999983
 20
57.16666666666282
 11
-135.74999999999983
 21
56.66666666666282
  0
LINE
  8
_1-8_小物
  6
CONTINUOUS
 62
    4
 10
-138.1666666666668
 20
57.16666666666282
 11
-138.13036240539992
 21
57.581626271662856
  0
LINE
  8
_1-8_小物
  6
CONTINUOUS
 62
    4
 10
-135.20297092789991
 20
57.581626271662856
 11
-135.1666666666668
 21
57.16666666666282
  0
ARC
  8
_1-8_小物
  6
CONTINUOUS
 62
    4
 10
-135.53171517829963
 20
57.552864876562751
 40
0.3299999999999999
 50
4.9999999988008561
 51
52.63244196794556
  0
ARC
  8
_1-8_小物
  6
CONTINUOUS
 62
    4
 10
-137.80161815503328
 20
57.552864876562751
 40
0.3299999999999999
 50
127.36755803205052
 51
175.00000000119829
  0
ARC
  8
_1-8_小物
  6
CONTINUOUS
 62
    4
 10
-136.66666666666646
 20
56.066666666662798
 40
2.1999999999999997
 50
111.73361645660155
 51
127.36755803229508
  0
ARC
  8
_1-8_小物
  6
CONTINUOUS
 62
    4
 10
-136.66666666666646
 20
56.066666666662798
 40
2.1999999999999997
 50
52.632441967694866
 51
68.251591409096704
  0
LINE
  8
_1-8_小物
  6
CONTINUOUS
 62
    4
 10
-136.77166666666659
 20
58.25304237652955
 11
-136.77166666666659
 21
58.107770746529411
  0
LINE
  8
_1-8_小物
  6
CONTINUOUS
 62
    4
 10
-136.88742956063362
 20
58.25304237652955
 11
-136.77166666666659
 21
58.25304237652955
  0
LINE
  8
_1-8_小物
  6
CONTINUOUS
 62
    4
 10
-137.4808344228332
 20
58.107770746529411
 11
-136.88742956063362
 21
58.25304237652955
  0
LINE
  8
_1-8_小物
  6
CONTINUOUS
 62
    4
 10
-136.44590377266655
 20
58.25304237652955
 11
-136.01260035009983
 21
58.164563769396239
  0
LINE
  8
_1-8_小物
  6
CONTINUOUS
 62
    4
 10
-136.01260035009983
 20
58.164563769396239
 11
-135.85249891046698
 21
58.107770746529411
  0
LINE
  8
_1-8_小物
  6
CONTINUOUS
 62
    4
 10
-136.56166666666655
 20
58.25304237652955
 11
-136.44590377266655
 21
58.25304237652955
  0
LINE
  8
_1-8_小物
  6
CONTINUOUS
 62
    4
 10
-136.56166666666655
 20
58.107770746529411
 11
-136.56166666666655
 21
58.25304237652955
  0
LINE
  8
_1-8_小物
  6
CONTINUOUS
 62
    4
 10
-136.77166666666659
 20
58.107770746529411
 11
-136.66666666666646
 21
58.109472471329525
  0
LINE
  8
_1-8_小物
  6
CONTINUOUS
 62
    4
 10
-136.66666666666646
 20
58.109472471329525
 11
-136.56166666666655
 21
58.107770746529411
  0
LINE
  8
_1-8_小物
  6
CONTINUOUS
 62
    4
 10
-138.13036240539992
 20
57.581626271662856
 11
-135.20297092789991
 21
57.581626271662856
  0
LINE
  8
_1-8_小物
  6
CONTINUOUS
 62
    4
 10
-136.66666666666646
 20
57.815135148896218
 11
-135.33142962149981
 21
57.815135148896218
  0
LINE
  8
_1-8_小物
  6
CONTINUOUS
 62
    4
 10
-138.00190371180003
 20
57.815135148896218
 11
-136.66666666666646
 21
57.815135148896218
  0
ENDBLK
  0
BLOCK
  2
-010-_8_
 70
   64
 10
0
 20
0
 30
0
  0
LINE
  8
_1-8_小物
  6
CONTINUOUS
 62
    4
 10
113.46942499999989
 20
41.906724999999881
 11
113.50431499999934
 21
41.24097166666661
  0
LINE
  8
_1-8_小物
  6
CONTINUOUS
 62
    4
 10
113.4170883333328
 20
42.905354999999872
 11
112.76878166666631
 21
42.53758833333319
  0
LINE
  8
_1-8_小物
  6
CONTINUOUS
 62
    4
 10
112.76878166666631
 20
42.53758833333319
 11
112.80367166666645
 21
41.871834999999919
  0
LINE
  8
_1-8_小物
  6
CONTINUOUS
 62
    4
 10
112.80367166666645
 20
41.871834999999919
 11
113.46942499999989
 21
41.906724999999881
  0
LINE
  8
_1-8_小物
  6
CONTINUOUS
 62
    4
 10
113.38219833333289
 20
43.571108333333314
 11
113.4170883333328
 21
42.905354999999872
  0
LINE
  8
_1-8_小物
  6
CONTINUOUS
 62
    4
 10
113.32986166666626
 20
44.569736666666643
 11
112.68155499999932
 21
44.201969999999676
  0
LINE
  8
_1-8_小物
  6
CONTINUOUS
 62
    4
 10
112.68155499999932
 20
44.201969999999676
 11
112.71644499999968
 21
43.536216666666633
  0
LINE
  8
_1-8_小物
  6
CONTINUOUS
 62
    4
 10
112.71644499999968
 20
43.536216666666633
 11
113.38219833333289
 21
43.571108333333314
  0
LINE
  8
_1-8_小物
  6
CONTINUOUS
 62
    4
 10
113.29497166666613
 20
45.235490000000027
 11
113.32986166666626
 21
44.569736666666643
  0
LINE
  8
_1-8_小物
  6
CONTINUOUS
 62
    4
 10
113.24263499999972
 20
46.234119999999677
 11
112.59432833333324
 21
45.866353333333336
  0
LINE
  8
_1-8_小物
  6
CONTINUOUS
 62
    4
 10
112.59432833333324
 20
45.866353333333336
 11
112.62921833333269
 21
45.200599999999952
  0
LINE
  8
_1-8_小物
  6
CONTINUOUS
 62
    4
 10
112.62921833333269
 20
45.200599999999952
 11
113.29497166666613
 21
45.235490000000027
  0
LINE
  8
_1-8_小物
  6
CONTINUOUS
 62
    4
 10
113.20774499999959
 20
46.899873333333289
 11
113.24263499999972
 21
46.234119999999677
  0
LINE
  8
_1-8_小物
  6
CONTINUOUS
 62
    4
 10
113.15540833333296
 20
47.898503333333338
 11
112.50710166666624
 21
47.530734999999879
  0
LINE
  8
_1-8_小物
  6
CONTINUOUS
 62
    4
 10
112.50710166666624
 20
47.530734999999879
 11
112.54199166666615
 21
46.864981666666608
  0
LINE
  8
_1-8_小物
  6
CONTINUOUS
 62
    4
 10
112.54199166666615
 20
46.864981666666608
 11
113.20774499999959
 21
46.899873333333289
  0
LINE
  8
_1-8_小物
  6
CONTINUOUS
 62
    4
 10
113.12051833333305
 20
48.564254999999832
 11
113.15540833333296
 21
47.898503333333338
  0
LINE
  8
_1-8_小物
  6
CONTINUOUS
 62
    4
 10
112.41987499999948
 20
49.195118333333141
 11
112.45476499999961
 21
48.529364999999871
  0
LINE
  8
_1-8_小物
  6
CONTINUOUS
 62
    4
 10
112.45476499999961
 20
48.529364999999871
 11
113.12051833333305
 21
48.564254999999832
  0
LINE
  8
_1-8_小物
  6
CONTINUOUS
 62
    4
 10
112.99999999999966
 20
49.5
 11
112.41987499999948
 21
49.195118333333141
  0
LINE
  8
_1-8_小物
  6
CONTINUOUS
 62
    4
 10
109.86390833333292
 20
41.906724999999881
 11
109.82901833333301
 21
41.24097166666661
  0
LINE
  8
_1-8_小物
  6
CONTINUOUS
 62
    4
 10
109.91624499999955
 20
42.905354999999872
 11
110.56455166666626
 21
42.53758833333319
  0
LINE
  8
_1-8_小物
  6
CONTINUOUS
 62
    4
 10
110.56455166666626
 20
42.53758833333319
 11
110.52966166666613
 21
41.871834999999919
  0
LINE
  8
_1-8_小物
  6
CONTINUOUS
 62
    4
 10
110.52966166666613
 20
41.871834999999919
 11
109.86390833333292
 21
41.906724999999881
  0
LINE
  8
_1-8_小物
  6
CONTINUOUS
 62
    4
 10
109.95113499999991
 20
43.571108333333314
 11
109.91624499999955
 21
42.905354999999872
  0
LINE
  8
_1-8_小物
  6
CONTINUOUS
 62
    4
 10
110.00347166666609
 20
44.569736666666643
 11
110.6517783333328
 21
44.201969999999676
  0
LINE
  8
_1-8_小物
  6
CONTINUOUS
 62
    4
 10
110.6517783333328
 20
44.201969999999676
 11
110.61688833333312
 21
43.536216666666633
  0
LINE
  8
_1-8_小物
  6
CONTINUOUS
 62
    4
 10
110.61688833333312
 20
43.536216666666633
 11
109.95113499999991
 21
43.571108333333314
  0
LINE
  8
_1-8_小物
  6
CONTINUOUS
 62
    4
 10
110.03836166666599
 20
45.235490000000027
 11
110.00347166666609
 21
44.569736666666643
  0
LINE
  8
_1-8_小物
  6
CONTINUOUS
 62
    4
 10
110.09069833333263
 20
46.234119999999677
 11
110.73900499999957
 21
45.866353333333336
  0
LINE
  8
_1-8_小物
  6
CONTINUOUS
 62
    4
 10
110.73900499999957
 20
45.866353333333336
 11
110.70411499999966
 21
45.200599999999952
  0
LINE
  8
_1-8_小物
  6
CONTINUOUS
 62
    4
 10
110.70411499999966
 20
45.200599999999952
 11
110.03836166666599
 21
45.235490000000027
  0
LINE
  8
_1-8_小物
  6
CONTINUOUS
 62
    4
 10
110.12558833333298
 20
46.899873333333289
 11
110.09069833333263
 21
46.234119999999677
  0
LINE
  8
_1-8_小物
  6
CONTINUOUS
 62
    4
 10
110.17792499999985
 20
47.898503333333338
 11
110.82623166666656
 21
47.530734999999879
  0
LINE
  8
_1-8_小物
  6
CONTINUOUS
 62
    4
 10
110.82623166666656
 20
47.530734999999879
 11
110.7913416666662
 21
46.864981666666608
  0
LINE
  8
_1-8_小物
  6
CONTINUOUS
 62
    4
 10
110.7913416666662
 20
46.864981666666608
 11
110.12558833333298
 21
46.899873333333289
  0
LINE
  8
_1-8_小物
  6
CONTINUOUS
 62
    4
 10
110.21281499999952
 20
48.564254999999832
 11
110.17792499999985
 21
47.898503333333338
  0
LINE
  8
_1-8_小物
  6
CONTINUOUS
 62
    4
 10
110.9134583333331
 20
49.195118333333141
 11
110.87856833333274
 21
48.529364999999871
  0
LINE
  8
_1-8_小物
  6
CONTINUOUS
 62
    4
 10
110.87856833333274
 20
48.529364999999871
 11
110.21281499999952
 21
48.564254999999832
  0
LINE
  8
_1-8_小物
  6
CONTINUOUS
 62
    4
 10
111.64689833333307
 20
41.519768333333161
 11
112.29146499999945
 21
42.091658333333271
  0
LINE
  8
_1-8_小物
  6
CONTINUOUS
 62
    4
 10
111.04351833333283
 20
42.123146666666628
 11
111.66666666666663
 21
41.499999999999829
  0
LINE
  8
_1-8_小物
  6
CONTINUOUS
 62
    4
 10
110.33333333333314
 20
49.5
 11
110.9134583333331
 21
49.195118333333141
  0
LINE
  8
_1-8_小物
  6
CONTINUOUS
 62
    4
 10
113.20774499999959
 20
46.899873333333289
 11
113.77286666666612
 21
48.452533333333122
  0
LINE
  8
_1-8_小物
  6
CONTINUOUS
 62
    4
 10
112.85301833333313
 20
46.899873333333289
 11
113.45963666666637
 21
48.566539999999861
  0
LINE
  8
_1-8_小物
  6
CONTINUOUS
 62
    4
 10
110.12558833333298
 20
46.899873333333289
 11
109.56046666666646
 21
48.452533333333122
  0
LINE
  8
_1-8_小物
  6
CONTINUOUS
 62
    4
 10
110.48031499999945
 20
46.899873333333289
 11
109.87369666666621
 21
48.566539999999861
  0
LINE
  8
_1-8_小物
  6
CONTINUOUS
 62
    4
 10
112.33924833333288
 20
41.179913333333161
 11
113.50431499999934
 21
41.24097166666661
  0
LINE
  8
_1-8_小物
  6
CONTINUOUS
 62
    4
 10
113.50431499999934
 20
41.24097166666661
 11
112.8734533333328
 21
40.540328333333321
  0
LINE
  8
_1-8_小物
  6
CONTINUOUS
 62
    4
 10
112.8734533333328
 20
40.540328333333321
 11
112.37413833333324
 21
40.514159999999777
  0
LINE
  8
_1-8_小物
  6
CONTINUOUS
 62
    4
 10
112.37413833333324
 20
40.514159999999777
 11
111.83333333333314
 21
50.833333333333087
  0
LINE
  8
_1-8_小物
  6
CONTINUOUS
 62
    4
 10
112.99999999999966
 20
49.5
 11
112.99999999999966
 21
50.833333333333087
  0
LINE
  8
_1-8_小物
  6
CONTINUOUS
 62
    4
 10
110.99408499999947
 20
41.179913333333161
 11
109.82901833333301
 21
41.24097166666661
  0
LINE
  8
_1-8_小物
  6
CONTINUOUS
 62
    4
 10
109.82901833333301
 20
41.24097166666661
 11
110.45987999999954
 21
40.540328333333321
  0
LINE
  8
_1-8_小物
  6
CONTINUOUS
 62
    4
 10
110.45987999999954
 20
40.540328333333321
 11
110.95919499999957
 21
40.514159999999777
  0
LINE
  8
_1-8_小物
  6
CONTINUOUS
 62
    4
 10
110.95919499999957
 20
40.514159999999777
 11
111.49999999999966
 21
50.833333333333087
  0
LINE
  8
_1-8_小物
  6
CONTINUOUS
 62
    4
 10
110.33333333333314
 20
49.5
 11
110.33333333333314
 21
50.833333333333087
  0
LINE
  8
_1-8_小物
  6
CONTINUOUS
 62
    4
 10
109.56046666666646
 20
48.452533333333122
 11
109.22968166666635
 21
50.720406666666804
  0
ARC
  8
_1-8_小物
  6
CONTINUOUS
 62
    4
 10
109.36161833333301
 20
50.739651666666589
 40
0.1333333333333333
 50
98.130101999964168
 51
188.29846599999718
  0
LINE
  8
_1-8_小物
  6
CONTINUOUS
 62
    4
 10
109.34276166666598
 20
50.871644999999944
 11
109.40836999999976
 21
50.88101666666671
  0
ARC
  8
_1-8_小物
  6
CONTINUOUS
 62
    4
 10
109.42722666666657
 20
50.749023333333298
 40
0.1333333333333333
 50
8.1301020000159863
 51
98.130102000238807
  0
LINE
  8
_1-8_小物
  6
CONTINUOUS
 62
    4
 10
109.55921999999975
 20
50.767879999999877
 11
109.87369666666621
 21
48.566539999999861
  0
LINE
  8
_1-8_小物
  6
CONTINUOUS
 62
    4
 10
113.77286666666612
 20
48.452533333333122
 11
114.10365166666622
 21
50.720406666666804
  0
ARC
  8
_1-8_小物
  6
CONTINUOUS
 62
    4
 10
113.97171499999956
 20
50.739651666666589
 40
0.1333333333333333
 50
351.70153399996303
 51
81.869898000060005
  0
LINE
  8
_1-8_小物
  6
CONTINUOUS
 62
    4
 10
113.99056999999959
 20
50.871644999999944
 11
113.92496333333281
 21
50.88101666666671
  0
ARC
  8
_1-8_小物
  6
CONTINUOUS
 62
    4
 10
113.90610666666646
 20
50.749023333333298
 40
0.1333333333333333
 50
81.869898000058299
 51
171.86989800000819
  0
LINE
  8
_1-8_小物
  6
CONTINUOUS
 62
    4
 10
113.77411333333282
 20
50.767879999999877
 11
113.45963666666637
 21
48.566539999999861
  0
LINE
  8
_1-8_小物
  6
CONTINUOUS
 62
    4
 10
113.77286666666612
 20
48.452533333333122
 11
114.10365166666622
 21
50.720406666666804
  0
ARC
  8
_1-8_小物
  6
CONTINUOUS
 62
    4
 10
113.97171499999956
 20
50.739651666666589
 40
0.1333333333333333
 50
351.70153399996303
 51
81.869898000060005
  0
LINE
  8
_1-8_小物
  6
CONTINUOUS
 62
    4
 10
113.99056999999959
 20
50.871644999999944
 11
113.92496333333281
 21
50.88101666666671
  0
ARC
  8
_1-8_小物
  6
CONTINUOUS
 62
    4
 10
113.90610666666646
 20
50.749023333333298
 40
0.1333333333333333
 50
81.869898000058299
 51
171.86989800000819
  0
LINE
  8
_1-8_小物
  6
CONTINUOUS
 62
    4
 10
113.77411333333282
 20
50.767879999999877
 11
113.45963666666637
 21
48.566539999999861
  0
LINE
  8
_1-8_小物
  6
CONTINUOUS
 62
    4
 10
113.33333333333314
 20
53.5
 11
112.99999999999966
 21
51.833333333333314
  0
LINE
  8
_1-8_小物
  6
CONTINUOUS
 62
    4
 10
112.99999999999966
 20
53.5
 11
112.99999999999966
 21
50.833333333333087
  0
LINE
  8
_1-8_小物
  6
CONTINUOUS
 62
    4
 10
111.83333333333314
 20
50.833333333333087
 11
111.66666666666663
 21
50.833333333333087
  0
LINE
  8
_1-8_小物
  6
CONTINUOUS
 62
    4
 10
111.66666666666663
 20
51.833333333333314
 11
111.66666666666663
 21
53.5
  0
LINE
  8
_1-8_小物
  6
CONTINUOUS
 62
    4
 10
111.99999999999966
 20
53.5
 11
111.66666666666663
 21
51.833333333333314
  0
LINE
  8
_1-8_小物
  6
CONTINUOUS
 62
    4
 10
111.33333333333292
 20
53.5
 11
111.66666666666663
 21
51.833333333333314
  0
LINE
  8
_1-8_小物
  6
CONTINUOUS
 62
    4
 10
109.99999999999989
 20
53.5
 11
110.33333333333314
 21
51.833333333333314
  0
LINE
  8
_1-8_小物
  6
CONTINUOUS
 62
    4
 10
110.33333333333314
 20
53.5
 11
110.33333333333314
 21
50.833333333333087
  0
LINE
  8
_1-8_小物
  6
CONTINUOUS
 62
    4
 10
111.49999999999966
 20
50.833333333333087
 11
111.66666666666663
 21
50.833333333333087
  0
LINE
  8
_1-8_小物
  6
CONTINUOUS
 62
    4
 10
113.33333333333314
 20
53.5
 11
109.99999999999989
 21
53.5
  0
ENDBLK
  0
BLOCK
  2
-011-_9_
 70
   64
 10
0
 20
0
 30
0
  0
LINE
  8
_1-8_小物
  6
CONTINUOUS
 62
    4
 10
114.66666666666663
 20
57.166666666666657
 11
108.66666666666617
 21
57.166666666666657
  0
LINE
  8
_1-8_小物
  6
CONTINUOUS
 62
    4
 10
114.66666666666663
 20
56.666666666666657
 11
108.66666666666617
 21
56.666666666666657
  0
LINE
  8
_1-8_小物
  6
CONTINUOUS
 62
    4
 10
114.66666666666663
 20
57.166666666666657
 11
114.66666666666663
 21
56.666666666666657
  0
LINE
  8
_1-8_小物
  6
CONTINUOUS
 62
    4
 10
108.66666666666617
 20
57.166666666666657
 11
108.66666666666617
 21
56.666666666666657
  0
LINE
  8
_1-8_小物
  6
CONTINUOUS
 62
    4
 10
112.58333333333314
 20
57.166666666666657
 11
112.58333333333314
 21
56.666666666666657
  0
LINE
  8
_1-8_小物
  6
CONTINUOUS
 62
    4
 10
110.74999999999966
 20
57.166666666666657
 11
110.74999999999966
 21
56.666666666666657
  0
LINE
  8
_1-8_小物
  6
CONTINUOUS
 62
    4
 10
113.16666666666663
 20
57.166666666666657
 11
113.13036240539975
 21
57.581626271666693
  0
LINE
  8
_1-8_小物
  6
CONTINUOUS
 62
    4
 10
110.20297092789963
 20
57.581626271666693
 11
110.16666666666663
 21
57.166666666666657
  0
ARC
  8
_1-8_小物
  6
CONTINUOUS
 62
    4
 10
110.53171517829935
 20
57.552864876566588
 40
0.3299999999999999
 50
127.36755803205445
 51
175.00000000119914
  0
ARC
  8
_1-8_小物
  6
CONTINUOUS
 62
    4
 10
112.801618155033
 20
57.552864876566588
 40
0.3299999999999999
 50
4.9999999988017167
 51
52.632441967953397
  0
ARC
  8
_1-8_小物
  6
CONTINUOUS
 62
    4
 10
111.66666666666617
 20
56.066666666666634
 40
2.1999999999999997
 50
52.632441967705518
 51
68.266383543398845
  0
ARC
  8
_1-8_小物
  6
CONTINUOUS
 62
    4
 10
111.66666666666617
 20
56.066666666666634
 40
2.1999999999999997
 50
111.74840859090399
 51
127.36755803230515
  0
LINE
  8
_1-8_小物
  6
CONTINUOUS
 62
    4
 10
111.77166666666642
 20
58.253042376533386
 11
111.77166666666642
 21
58.107770746533248
  0
LINE
  8
_1-8_小物
  6
CONTINUOUS
 62
    4
 10
111.88742956063345
 20
58.253042376533386
 11
111.77166666666642
 21
58.253042376533386
  0
LINE
  8
_1-8_小物
  6
CONTINUOUS
 62
    4
 10
112.48083442283303
 20
58.107770746533248
 11
111.88742956063345
 21
58.253042376533386
  0
LINE
  8
_1-8_小物
  6
CONTINUOUS
 62
    4
 10
111.44590377266638
 20
58.253042376533386
 11
111.01260035009966
 21
58.164563769400075
  0
LINE
  8
_1-8_小物
  6
CONTINUOUS
 62
    4
 10
111.01260035009966
 20
58.164563769400075
 11
110.85249891046681
 21
58.107770746533248
  0
LINE
  8
_1-8_小物
  6
CONTINUOUS
 62
    4
 10
111.56166666666638
 20
58.253042376533386
 11
111.44590377266638
 21
58.253042376533386
  0
LINE
  8
_1-8_小物
  6
CONTINUOUS
 62
    4
 10
111.56166666666638
 20
58.107770746533248
 11
111.56166666666638
 21
58.253042376533386
  0
LINE
  8
_1-8_小物
  6
CONTINUOUS
 62
    4
 10
111.77166666666642
 20
58.107770746533248
 11
111.66666666666617
 21
58.109472471333362
  0
LINE
  8
_1-8_小物
  6
CONTINUOUS
 62
    4
 10
111.66666666666617
 20
58.109472471333362
 11
111.56166666666638
 21
58.107770746533248
  0
LINE
  8
_1-8_小物
  6
CONTINUOUS
 62
    4
 10
113.13036240539975
 20
57.581626271666693
 11
110.20297092789963
 21
57.581626271666693
  0
LINE
  8
_1-8_小物
  6
CONTINUOUS
 62
    4
 10
111.66666666666617
 20
57.815135148900055
 11
110.33142962149952
 21
57.815135148900055
  0
LINE
  8
_1-8_小物
  6
CONTINUOUS
 62
    4
 10
113.00190371179986
 20
57.815135148900055
 11
111.66666666666617
 21
57.815135148900055
  0
ENDBLK
  0
BLOCK
  2
-012-_10_
 70
   64
 10
0
 20
0
 30
0
  0
LINE
  8
_1-8_小物
  6
CONTINUOUS
 62
    4
 10
91.16666616666646
 20
62.099999333333471
 11
91.16666616666646
 21
60.433333333333394
  0
LINE
  8
_1-8_小物
  6
CONTINUOUS
 62
    4
 10
91.16666616666646
 20
60.433333333333394
 11
91.666666166666232
 21
60.433333333333394
  0
LINE
  8
_1-8_小物
  6
CONTINUOUS
 62
    4
 10
92.666666166666346
 20
60.433333333333394
 11
93.166666166666346
 21
60.433333333333394
  0
LINE
  8
_1-8_小物
  6
CONTINUOUS
 62
    4
 10
93.166666166666346
 20
60.433333333333394
 11
93.166666166666346
 21
62.099999333333471
  0
ARC
  8
_1-8_小物
  6
CONTINUOUS
 62
    4
 10
92.166666166666232
 20
62.099999333333471
 40
0.566667
 50
0
 51
180
  0
ARC
  8
_1-8_小物
  6
CONTINUOUS
 62
    4
 10
92.166666166666232
 20
62.099999333333471
 40
1
 50
0
 51
180
  0
LINE
  8
_1-8_小物
  6
CONTINUOUS
 62
    4
 10
92.666664166666465
 20
61.099999333333386
 11
92.585383166666247
 21
61.099999333333386
  0
ARC
  8
_1-8_小物
  6
CONTINUOUS
 62
    4
 10
92.585383166666247
 20
61.033333333333445
 40
0.066667
 50
90
 51
194.03640200002249
  0
LINE
  8
_1-8_小物
  6
CONTINUOUS
 62
    4
 10
92.666666166666346
 20
60.433333333333394
 11
92.520707166666284
 21
61.017164333333454
  0
LINE
  8
_1-8_小物
  6
CONTINUOUS
 62
    4
 10
91.666666166666232
 20
61.099999333333386
 11
91.74794816666622
 21
61.099999333333386
  0
ARC
  8
_1-8_小物
  6
CONTINUOUS
 62
    4
 10
91.74794816666622
 20
61.033333333333445
 40
0.066667
 50
345.96380799997621
 51
90
  0
LINE
  8
_1-8_小物
  6
CONTINUOUS
 62
    4
 10
91.66666716666623
 20
60.433333333333394
 11
91.812624166666524
 21
61.017164333333454
  0
LINE
  8
_1-8_小物
  6
CONTINUOUS
 62
    4
 10
92.666664166666465
 20
61.099999333333386
 11
92.733331166666176
 21
61.099999333333386
  0
LINE
  8
_1-8_小物
  6
CONTINUOUS
 62
    4
 10
92.733331166666176
 20
61.099999333333386
 11
92.733333166666284
 21
62.099999333333471
  0
LINE
  8
_1-8_小物
  6
CONTINUOUS
 62
    4
 10
91.66666716666623
 20
61.099999333333386
 11
91.599999166666294
 21
61.099999333333386
  0
LINE
  8
_1-8_小物
  6
CONTINUOUS
 62
    4
 10
91.599999166666294
 20
61.099999333333386
 11
91.599999166666294
 21
62.099999333333471
  0
ENDBLK
  0
BLOCK
  2
-013-HATCHING_1_
 70
   64
 10
0
 20
0
 30
0
  0
LINE
  8
_1-0_躯体
  6
CONTINUOUS
 62
    4
 10
153.33333333333331
 20
53.812313804949326
 11
153.02101952838399
 21
53.5
  0
LINE
  8
_1-0_躯体
  6
CONTINUOUS
 62
    4
 10
153.33333333333331
 20
54.755122846531378
 11
152.07821048680194
 21
53.5
  0
LINE
  8
_1-0_躯体
  6
CONTINUOUS
 62
    4
 10
152.80206811188651
 20
55.166666666666657
 11
151.13540144521983
 21
53.5
  0
LINE
  8
_1-0_躯体
  6
CONTINUOUS
 62
    4
 10
151.85925907030452
 20
55.166666666666657
 11
150.19259240363778
 21
53.5
  0
LINE
  8
_1-0_躯体
  6
CONTINUOUS
 62
    4
 10
150.91645002872235
 20
55.166666666666657
 11
149.24978336205572
 21
53.5
  0
LINE
  8
_1-0_躯体
  6
CONTINUOUS
 62
    4
 10
149.9736409871403
 20
55.166666666666657
 11
148.30697432047361
 21
53.5
  0
LINE
  8
_1-0_躯体
  6
CONTINUOUS
 62
    4
 10
149.03083194555825
 20
55.166666666666657
 11
147.36416527889156
 21
53.5
  0
LINE
  8
_1-0_躯体
  6
CONTINUOUS
 62
    4
 10
148.08802290397625
 20
55.166666666666657
 11
146.42135623730957
 21
53.5
  0
LINE
  8
_1-0_躯体
  6
CONTINUOUS
 62
    4
 10
147.14521386239414
 20
55.166666666666657
 11
145.47854719572751
 21
53.5
  0
LINE
  8
_1-0_躯体
  6
CONTINUOUS
 62
    4
 10
146.20240482081203
 20
55.166666666666657
 11
144.53573815414535
 21
53.5
  0
LINE
  8
_1-0_躯体
  6
CONTINUOUS
 62
    4
 10
145.25959577923004
 20
55.166666666666657
 11
143.59292911256335
 21
53.5
  0
LINE
  8
_1-0_躯体
  6
CONTINUOUS
 62
    4
 10
144.31678673764793
 20
55.166666666666657
 11
142.6501200709813
 21
53.5
  0
LINE
  8
_1-0_躯体
  6
CONTINUOUS
 62
    4
 10
143.37397769606588
 20
55.166666666666657
 11
141.70731102939919
 21
53.5
  0
LINE
  8
_1-0_躯体
  6
CONTINUOUS
 62
    4
 10
142.43116865448383
 20
55.166666666666657
 11
140.76450198781714
 21
53.5
  0
LINE
  8
_1-0_躯体
  6
CONTINUOUS
 62
    4
 10
141.48835961290172
 20
55.166666666666657
 11
139.82169294623509
 21
53.5
  0
LINE
  8
_1-0_躯体
  6
CONTINUOUS
 62
    4
 10
140.54555057131967
 20
55.166666666666657
 11
138.87888390465298
 21
53.5
  0
LINE
  8
_1-0_躯体
  6
CONTINUOUS
 62
    4
 10
139.60274152973761
 20
55.166666666666657
 11
137.93607486307093
 21
53.5
  0
LINE
  8
_1-0_躯体
  6
CONTINUOUS
 62
    4
 10
138.6599324881555
 20
55.166666666666657
 11
136.99326582148888
 21
53.5
  0
LINE
  8
_1-0_躯体
  6
CONTINUOUS
 62
    4
 10
137.71712344657345
 20
55.166666666666657
 11
136.05045677990677
 21
53.5
  0
LINE
  8
_1-0_躯体
  6
CONTINUOUS
 62
    4
 10
136.77431440499146
 20
55.166666666666657
 11
135.10764773832477
 21
53.5
  0
LINE
  8
_1-0_躯体
  6
CONTINUOUS
 62
    4
 10
135.83150536340929
 20
55.166666666666657
 11
134.16483869674266
 21
53.5
  0
LINE
  8
_1-0_躯体
  6
CONTINUOUS
 62
    4
 10
134.8886963218273
 20
55.166666666666657
 11
133.22202965516067
 21
53.5
  0
LINE
  8
_1-0_躯体
  6
CONTINUOUS
 62
    4
 10
133.94588728024524
 20
55.166666666666657
 11
132.27922061357856
 21
53.5
  0
LINE
  8
_1-0_躯体
  6
CONTINUOUS
 62
    4
 10
133.00307823866319
 20
55.166666666666657
 11
131.33641157199651
 21
53.5
  0
LINE
  8
_1-0_躯体
  6
CONTINUOUS
 62
    4
 10
132.06026919708108
 20
55.166666666666657
 11
130.39360253041446
 21
53.5
  0
LINE
  8
_1-0_躯体
  6
CONTINUOUS
 62
    4
 10
131.11746015549903
 20
55.166666666666657
 11
129.45079348883235
 21
53.5
  0
LINE
  8
_1-0_躯体
  6
CONTINUOUS
 62
    4
 10
130.17465111391698
 20
55.166666666666657
 11
128.50798444725035
 21
53.5
  0
LINE
  8
_1-0_躯体
  6
CONTINUOUS
 62
    4
 10
129.23184207233493
 20
55.166666666666657
 11
127.56517540566824
 21
53.5
  0
LINE
  8
_1-0_躯体
  6
CONTINUOUS
 62
    4
 10
128.28903303075288
 20
55.166666666666657
 11
126.62236636408619
 21
53.5
  0
LINE
  8
_1-0_躯体
  6
CONTINUOUS
 62
    4
 10
127.34622398917077
 20
55.166666666666657
 11
125.67955732250414
 21
53.5
  0
LINE
  8
_1-0_躯体
  6
CONTINUOUS
 62
    4
 10
126.40341494758877
 20
55.166666666666657
 11
124.73674828092209
 21
53.5
  0
LINE
  8
_1-0_躯体
  6
CONTINUOUS
 62
    4
 10
125.46060590600666
 20
55.166666666666657
 11
123.79393923934003
 21
53.5
  0
LINE
  8
_1-0_躯体
  6
CONTINUOUS
 62
    4
 10
124.51779686442455
 20
55.166666666666657
 11
122.85113019775793
 21
53.5
  0
LINE
  8
_1-0_躯体
  6
CONTINUOUS
 62
    4
 10
123.57498782284256
 20
55.166666666666657
 11
121.90832115617587
 21
53.5
  0
LINE
  8
_1-0_躯体
  6
CONTINUOUS
 62
    4
 10
122.63217878126051
 20
55.166666666666657
 11
120.96551211459382
 21
53.5
  0
LINE
  8
_1-0_躯体
  6
CONTINUOUS
 62
    4
 10
121.68936973967845
 20
55.166666666666657
 11
120.02270307301177
 21
53.5
  0
LINE
  8
_1-0_躯体
  6
CONTINUOUS
 62
    4
 10
120.74656069809635
 20
55.166666666666657
 11
119.07989403142966
 21
53.5
  0
LINE
  8
_1-0_躯体
  6
CONTINUOUS
 62
    4
 10
119.80375165651424
 20
55.166666666666657
 11
118.13708498984761
 21
53.5
  0
LINE
  8
_1-0_躯体
  6
CONTINUOUS
 62
    4
 10
118.86094261493224
 20
55.166666666666657
 11
117.19427594826561
 21
53.5
  0
LINE
  8
_1-0_躯体
  6
CONTINUOUS
 62
    4
 10
117.91813357335013
 20
55.166666666666657
 11
116.25146690668345
 21
53.5
  0
LINE
  8
_1-0_躯体
  6
CONTINUOUS
 62
    4
 10
116.97532453176814
 20
55.166666666666657
 11
115.30865786510145
 21
53.5
  0
LINE
  8
_1-0_躯体
  6
CONTINUOUS
 62
    4
 10
116.03251549018603
 20
55.166666666666657
 11
114.3658488235194
 21
53.5
  0
LINE
  8
_1-0_躯体
  6
CONTINUOUS
 62
    4
 10
115.08970644860398
 20
55.166666666666657
 11
113.42303978193729
 21
53.5
  0
LINE
  8
_1-0_躯体
  6
CONTINUOUS
 62
    4
 10
114.14689740702192
 20
55.166666666666657
 11
112.48023074035524
 21
53.5
  0
LINE
  8
_1-0_躯体
  6
CONTINUOUS
 62
    4
 10
113.20408836543987
 20
55.166666666666657
 11
111.53742169877319
 21
53.5
  0
LINE
  8
_1-0_躯体
  6
CONTINUOUS
 62
    4
 10
112.26127932385776
 20
55.166666666666657
 11
110.59461265719108
 21
53.5
  0
LINE
  8
_1-0_躯体
  6
CONTINUOUS
 62
    4
 10
111.31847028227571
 20
55.166666666666657
 11
109.65180361560908
 21
53.5
  0
LINE
  8
_1-0_躯体
  6
CONTINUOUS
 62
    4
 10
110.37566124069366
 20
55.166666666666657
 11
108.70899457402697
 21
53.5
  0
LINE
  8
_1-0_躯体
  6
CONTINUOUS
 62
    4
 10
109.43285219911161
 20
55.166666666666657
 11
107.76618553244492
 21
53.5
  0
LINE
  8
_1-0_躯体
  6
CONTINUOUS
 62
    4
 10
108.4900431575295
 20
55.166666666666657
 11
106.82337649086281
 21
53.5
  0
LINE
  8
_1-0_躯体
  6
CONTINUOUS
 62
    4
 10
107.54723411594745
 20
55.166666666666657
 11
105.88056744928076
 21
53.5
  0
LINE
  8
_1-0_躯体
  6
CONTINUOUS
 62
    4
 10
106.60442507436539
 20
55.166666666666657
 11
104.93775840769871
 21
53.5
  0
LINE
  8
_1-0_躯体
  6
CONTINUOUS
 62
    4
 10
105.66161603278329
 20
55.166666666666657
 11
103.99494936611666
 21
53.5
  0
LINE
  8
_1-0_躯体
  6
CONTINUOUS
 62
    4
 10
104.71880699120129
 20
55.166666666666657
 11
103.05214032453461
 21
53.5
  0
LINE
  8
_1-0_躯体
  6
CONTINUOUS
 62
    4
 10
103.77599794961924
 20
55.166666666666657
 11
102.10933128295255
 21
53.5
  0
LINE
  8
_1-0_躯体
  6
CONTINUOUS
 62
    4
 10
102.83318890803719
 20
55.166666666666657
 11
101.1665222413705
 21
53.5
  0
LINE
  8
_1-0_躯体
  6
CONTINUOUS
 62
    4
 10
101.89037986645508
 20
55.166666666666657
 11
100.22371319978839
 21
53.5
  0
LINE
  8
_1-0_躯体
  6
CONTINUOUS
 62
    4
 10
100.94757082487303
 20
55.166666666666657
 11
99.999999999999773
 21
54.219095841793376
  0
LINE
  8
_1-0_躯体
  6
CONTINUOUS
 62
    4
 10
100.00476178329097
 20
55.166666666666657
 11
99.999999999999773
 21
55.161904883375456
  0
ENDBLK
  0
BLOCK
  2
-014-$QLE_1_
 70
   64
 10
0
 20
0
 30
0
  0
LINE
  8
_1-f_寸法
  6
CONTINUOUS
 62
    4
 10
148.33333333333326
 20
53.5
 11
151.33173017612773
 21
48.306624327025929
  0
LINE
  8
_1-f_寸法
  6
CONTINUOUS
 62
    4
 10
151.33173017612773
 20
48.306624327025929
 11
190.05173017612771
 21
48.306624327025929
  0
POINT
  8
_1-f_寸法
 62
    4
 10
148.33333333333326
 20
53.5
  0
TEXT
  8
_1-f_寸法
 62
    4
 10
151.65173017612778
 20
48.306624327025929
 40
3.2000000000000002
 41
1
 50
0
  1
ならしモルタル(別途工事)
  0
ENDBLK
  0
BLOCK
  2
-015-_11_
 70
   64
 10
0
 20
0
 30
0
  0
LINE
  8
_1-8_小物
  6
CONTINUOUS
 62
    4
 10
147.83333333333303
 20
65.166666666666629
 11
144.49999999999983
 21
65.166666666666629
  0
LINE
  8
_1-8_小物
  6
CONTINUOUS
 62
    4
 10
146.1666666666664
 20
59.833333333333286
 11
145.48333333333312
 21
60.227856017279521
  0
LINE
  8
_1-8_小物
  6
CONTINUOUS
 62
    4
 10
146.1666666666664
 20
59.833333333333286
 11
146.84999999999974
 21
60.227856017279521
  0
LINE
  8
_1-8_小物
  6
CONTINUOUS
 62
    4
 10
146.76333333333315
 20
62.90246057311424
 11
146.96666666666653
 21
62.78506585966926
  0
LINE
  8
_1-8_小物
  6
CONTINUOUS
 62
    4
 10
146.96666666666653
 20
62.78506585966926
 11
146.76333333333315
 21
62.667671146224308
  0
LINE
  8
_1-8_小物
  6
CONTINUOUS
 62
    4
 10
145.56999999999971
 20
62.233333333333292
 11
145.36666666666633
 21
62.350728046778272
  0
LINE
  8
_1-8_小物
  6
CONTINUOUS
 62
    4
 10
145.36666666666633
 20
62.350728046778272
 11
145.56999999999971
 21
62.468122760223224
  0
LINE
  8
_1-8_小物
  6
CONTINUOUS
 62
    4
 10
145.56999999999971
 20
62.468122760223224
 11
146.76333333333315
 21
62.90246057311424
  0
LINE
  8
_1-8_小物
  6
CONTINUOUS
 62
    4
 10
145.56999999999971
 20
62.233333333333292
 11
146.76333333333315
 21
62.667671146224308
  0
LINE
  8
_1-8_小物
  6
CONTINUOUS
 62
    4
 10
146.96666666666653
 20
62.78506585966926
 11
145.36666666666633
 21
62.350728046778272
  0
LINE
  8
_1-8_小物
  6
CONTINUOUS
 62
    4
 10
146.76333333333315
 20
63.40246057311424
 11
146.96666666666653
 21
63.28506585966926
  0
LINE
  8
_1-8_小物
  6
CONTINUOUS
 62
    4
 10
146.96666666666653
 20
63.28506585966926
 11
146.76333333333315
 21
63.167671146224308
  0
LINE
  8
_1-8_小物
  6
CONTINUOUS
 62
    4
 10
145.56999999999971
 20
62.733333333333292
 11
145.36666666666633
 21
62.850728046778272
  0
LINE
  8
_1-8_小物
  6
CONTINUOUS
 62
    4
 10
145.36666666666633
 20
62.850728046778272
 11
145.56999999999971
 21
62.968122760223224
  0
LINE
  8
_1-8_小物
  6
CONTINUOUS
 62
    4
 10
145.56999999999971
 20
62.968122760223224
 11
146.76333333333315
 21
63.40246057311424
  0
LINE
  8
_1-8_小物
  6
CONTINUOUS
 62
    4
 10
145.56999999999971
 20
62.733333333333292
 11
146.76333333333315
 21
63.167671146224308
  0
LINE
  8
_1-8_小物
  6
CONTINUOUS
 62
    4
 10
146.96666666666653
 20
63.28506585966926
 11
145.36666666666633
 21
62.850728046778272
  0
LINE
  8
_1-8_小物
  6
CONTINUOUS
 62
    4
 10
146.76333333333315
 20
63.90246057311424
 11
146.96666666666653
 21
63.78506585966926
  0
LINE
  8
_1-8_小物
  6
CONTINUOUS
 62
    4
 10
146.96666666666653
 20
63.78506585966926
 11
146.76333333333315
 21
63.667671146224308
  0
LINE
  8
_1-8_小物
  6
CONTINUOUS
 62
    4
 10
145.56999999999971
 20
63.233333333333292
 11
145.36666666666633
 21
63.350728046778272
  0
LINE
  8
_1-8_小物
  6
CONTINUOUS
 62
    4
 10
145.36666666666633
 20
63.350728046778272
 11
145.56999999999971
 21
63.468122760223224
  0
LINE
  8
_1-8_小物
  6
CONTINUOUS
 62
    4
 10
145.56999999999971
 20
63.468122760223224
 11
146.76333333333315
 21
63.90246057311424
  0
LINE
  8
_1-8_小物
  6
CONTINUOUS
 62
    4
 10
145.56999999999971
 20
63.233333333333292
 11
146.76333333333315
 21
63.667671146224308
  0
LINE
  8
_1-8_小物
  6
CONTINUOUS
 62
    4
 10
146.96666666666653
 20
63.78506585966926
 11
145.36666666666633
 21
63.350728046778272
  0
LINE
  8
_1-8_小物
  6
CONTINUOUS
 62
    4
 10
145.56999999999971
 20
63.733333333333292
 11
145.36666666666633
 21
63.850728046778272
  0
LINE
  8
_1-8_小物
  6
CONTINUOUS
 62
    4
 10
145.36666666666633
 20
63.850728046778272
 11
145.56999999999971
 21
63.968122760223224
  0
LINE
  8
_1-8_小物
  6
CONTINUOUS
 62
    4
 10
145.48333333333312
 20
62.066666666666634
 11
145.48333333333312
 21
60.227856017279521
  0
LINE
  8
_1-8_小物
  6
CONTINUOUS
 62
    4
 10
146.84999999999974
 20
62.066666666666634
 11
145.48333333333312
 21
62.066666666666634
  0
LINE
  8
_1-8_小物
  6
CONTINUOUS
 62
    4
 10
146.84999999999974
 20
62.066666666666634
 11
146.84999999999974
 21
60.227856017279521
  0
LINE
  8
_1-8_小物
  6
CONTINUOUS
 62
    4
 10
145.56999999999971
 20
63.968122760223224
 11
145.84074715777786
 21
64.066666666666634
  0
LINE
  8
_1-8_小物
  6
CONTINUOUS
 62
    4
 10
145.56999999999971
 20
63.733333333333292
 11
146.1666666666664
 21
63.950502239778814
  0
LINE
  8
_1-8_小物
  6
CONTINUOUS
 62
    4
 10
146.1666666666664
 20
64.067896953223794
 11
145.36666666666633
 21
63.850728046778272
  0
LINE
  8
_1-8_小物
  6
CONTINUOUS
 62
    4
 10
145.56999999999971
 20
64.066666666666634
 11
145.56999999999971
 21
63.968122760223224
  0
LINE
  8
_1-8_小物
  6
CONTINUOUS
 62
    4
 10
145.56999999999971
 20
63.733333333333292
 11
145.56999999999971
 21
63.468122760223224
  0
LINE
  8
_1-8_小物
  6
CONTINUOUS
 62
    4
 10
145.56999999999971
 20
63.233333333333292
 11
145.56999999999971
 21
62.968122760223224
  0
LINE
  8
_1-8_小物
  6
CONTINUOUS
 62
    4
 10
145.56999999999971
 20
62.733333333333292
 11
145.56999999999971
 21
62.468122760223224
  0
LINE
  8
_1-8_小物
  6
CONTINUOUS
 62
    4
 10
145.56999999999971
 20
62.233333333333292
 11
145.56999999999971
 21
62.066666666666634
  0
LINE
  8
_1-8_小物
  6
CONTINUOUS
 62
    4
 10
146.76333333333315
 20
64.066666666666634
 11
146.76333333333315
 21
63.90246057311424
  0
LINE
  8
_1-8_小物
  6
CONTINUOUS
 62
    4
 10
146.76333333333315
 20
62.667671146224308
 11
146.76333333333315
 21
62.066666666666634
  0
LINE
  8
_1-8_小物
  6
CONTINUOUS
 62
    4
 10
146.76333333333315
 20
63.167671146224308
 11
146.76333333333315
 21
62.90246057311424
  0
LINE
  8
_1-8_小物
  6
CONTINUOUS
 62
    4
 10
146.76333333333315
 20
63.667671146224308
 11
146.76333333333315
 21
63.40246057311424
  0
LINE
  8
_1-8_小物
  6
CONTINUOUS
 62
    4
 10
146.74999999999983
 20
62.066666666666634
 11
146.74999999999983
 21
60.285591044198497
  0
LINE
  8
_1-8_小物
  6
CONTINUOUS
 62
    4
 10
146.1666666666664
 20
59.948803387171239
 11
146.74999999999983
 21
60.285591044198497
  0
LINE
  8
_1-8_小物
  6
CONTINUOUS
 62
    4
 10
146.1666666666664
 20
59.948803387171239
 11
146.54010310429322
 21
62.066666666666634
  0
LINE
  8
_1-8_小物
  6
CENTER2
 62
    4
 10
146.1666666666664
 20
65.83364038696007
 11
146.1666666666664
 21
59.084349393779803
  0
LINE
  8
_1-8_小物
  6
CONTINUOUS
 62
    4
 10
144.49999999999983
 20
65.166666666666629
 11
144.49999999999983
 21
65.099999999999937
  0
LINE
  8
_1-8_小物
  6
CONTINUOUS
 62
    4
 10
147.83333333333303
 20
65.099999999999937
 11
144.49999999999983
 21
65.099999999999937
  0
LINE
  8
_1-8_小物
  6
CONTINUOUS
 62
    4
 10
147.83333333333303
 20
65.166666666666629
 11
147.83333333333303
 21
65.099999999999937
  0
LINE
  8
_1-8_小物
  6
CONTINUOUS
 62
    4
 10
144.49999999999983
 20
65.099999999999937
 11
145.53333333333319
 21
64.066666666666634
  0
LINE
  8
_1-8_小物
  6
CONTINUOUS
 62
    4
 10
146.79999999999961
 20
64.066666666666634
 11
145.53333333333319
 21
64.066666666666634
  0
LINE
  8
_1-8_小物
  6
CONTINUOUS
 62
    4
 10
147.83333333333303
 20
65.099999999999937
 11
146.79999999999961
 21
64.066666666666634
  0
ENDBLK
  0
BLOCK
  2
-016-_12_
 70
   64
 10
0
 20
0
 30
0
  0
LINE
  8
_1-8_小物
  6
CONTINUOUS
 62
    4
 10
-42.166666666666856
 20
65.16666666666282
 11
-45.500000000000085
 21
65.16666666666282
  0
LINE
  8
_1-8_小物
  6
CONTINUOUS
 62
    4
 10
-43.833333333333456
 20
59.833333333329506
 11
-44.516666666666765
 21
60.227856017275741
  0
LINE
  8
_1-8_小物
  6
CONTINUOUS
 62
    4
 10
-43.833333333333456
 20
59.833333333329506
 11
-43.150000000000176
 21
60.227856017275741
  0
LINE
  8
_1-8_小物
  6
CONTINUOUS
 62
    4
 10
-43.236666666666764
 20
62.902460573110432
 11
-43.033333333333388
 21
62.78506585966548
  0
LINE
  8
_1-8_小物
  6
CONTINUOUS
 62
    4
 10
-43.033333333333388
 20
62.78506585966548
 11
-43.236666666666764
 21
62.667671146220528
  0
LINE
  8
_1-8_小物
  6
CONTINUOUS
 62
    4
 10
-44.430000000000177
 20
62.233333333329512
 11
-44.633333333333553
 21
62.350728046774464
  0
LINE
  8
_1-8_小物
  6
CONTINUOUS
 62
    4
 10
-44.633333333333553
 20
62.350728046774464
 11
-44.430000000000177
 21
62.468122760219444
  0
LINE
  8
_1-8_小物
  6
CONTINUOUS
 62
    4
 10
-44.430000000000177
 20
62.468122760219444
 11
-43.236666666666764
 21
62.902460573110432
  0
LINE
  8
_1-8_小物
  6
CONTINUOUS
 62
    4
 10
-44.430000000000177
 20
62.233333333329512
 11
-43.236666666666764
 21
62.667671146220528
  0
LINE
  8
_1-8_小物
  6
CONTINUOUS
 62
    4
 10
-43.033333333333388
 20
62.78506585966548
 11
-44.633333333333553
 21
62.350728046774464
  0
LINE
  8
_1-8_小物
  6
CONTINUOUS
 62
    4
 10
-43.236666666666764
 20
63.402460573110432
 11
-43.033333333333388
 21
63.28506585966548
  0
LINE
  8
_1-8_小物
  6
CONTINUOUS
 62
    4
 10
-43.033333333333388
 20
63.28506585966548
 11
-43.236666666666764
 21
63.167671146220528
  0
LINE
  8
_1-8_小物
  6
CONTINUOUS
 62
    4
 10
-44.430000000000177
 20
62.733333333329512
 11
-44.633333333333553
 21
62.850728046774464
  0
LINE
  8
_1-8_小物
  6
CONTINUOUS
 62
    4
 10
-44.633333333333553
 20
62.850728046774464
 11
-44.430000000000177
 21
62.968122760219444
  0
LINE
  8
_1-8_小物
  6
CONTINUOUS
 62
    4
 10
-44.430000000000177
 20
62.968122760219444
 11
-43.236666666666764
 21
63.402460573110432
  0
LINE
  8
_1-8_小物
  6
CONTINUOUS
 62
    4
 10
-44.430000000000177
 20
62.733333333329512
 11
-43.236666666666764
 21
63.167671146220528
  0
LINE
  8
_1-8_小物
  6
CONTINUOUS
 62
    4
 10
-43.033333333333388
 20
63.28506585966548
 11
-44.633333333333553
 21
62.850728046774464
  0
LINE
  8
_1-8_小物
  6
CONTINUOUS
 62
    4
 10
-43.236666666666764
 20
63.902460573110432
 11
-43.033333333333388
 21
63.78506585966548
  0
LINE
  8
_1-8_小物
  6
CONTINUOUS
 62
    4
 10
-43.033333333333388
 20
63.78506585966548
 11
-43.236666666666764
 21
63.667671146220528
  0
LINE
  8
_1-8_小物
  6
CONTINUOUS
 62
    4
 10
-44.430000000000177
 20
63.233333333329512
 11
-44.633333333333553
 21
63.350728046774464
  0
LINE
  8
_1-8_小物
  6
CONTINUOUS
 62
    4
 10
-44.633333333333553
 20
63.350728046774464
 11
-44.430000000000177
 21
63.468122760219444
  0
LINE
  8
_1-8_小物
  6
CONTINUOUS
 62
    4
 10
-44.430000000000177
 20
63.468122760219444
 11
-43.236666666666764
 21
63.902460573110432
  0
LINE
  8
_1-8_小物
  6
CONTINUOUS
 62
    4
 10
-44.430000000000177
 20
63.233333333329512
 11
-43.236666666666764
 21
63.667671146220528
  0
LINE
  8
_1-8_小物
  6
CONTINUOUS
 62
    4
 10
-43.033333333333388
 20
63.78506585966548
 11
-44.633333333333553
 21
63.350728046774464
  0
LINE
  8
_1-8_小物
  6
CONTINUOUS
 62
    4
 10
-44.430000000000177
 20
63.733333333329512
 11
-44.633333333333553
 21
63.850728046774464
  0
LINE
  8
_1-8_小物
  6
CONTINUOUS
 62
    4
 10
-44.633333333333553
 20
63.850728046774464
 11
-44.430000000000177
 21
63.968122760219444
  0
LINE
  8
_1-8_小物
  6
CONTINUOUS
 62
    4
 10
-44.516666666666765
 20
62.066666666662854
 11
-44.516666666666765
 21
60.227856017275741
  0
LINE
  8
_1-8_小物
  6
CONTINUOUS
 62
    4
 10
-43.150000000000176
 20
62.066666666662854
 11
-44.516666666666765
 21
62.066666666662854
  0
LINE
  8
_1-8_小物
  6
CONTINUOUS
 62
    4
 10
-43.150000000000176
 20
62.066666666662854
 11
-43.150000000000176
 21
60.227856017275741
  0
LINE
  8
_1-8_小物
  6
CONTINUOUS
 62
    4
 10
-44.430000000000177
 20
63.968122760219444
 11
-44.159252842222003
 21
64.066666666662854
  0
LINE
  8
_1-8_小物
  6
CONTINUOUS
 62
    4
 10
-44.430000000000177
 20
63.733333333329512
 11
-43.833333333333456
 21
63.950502239775034
  0
LINE
  8
_1-8_小物
  6
CONTINUOUS
 62
    4
 10
-43.833333333333456
 20
64.067896953219986
 11
-44.633333333333553
 21
63.850728046774464
  0
LINE
  8
_1-8_小物
  6
CONTINUOUS
 62
    4
 10
-44.430000000000177
 20
64.066666666662854
 11
-44.430000000000177
 21
63.968122760219444
  0
LINE
  8
_1-8_小物
  6
CONTINUOUS
 62
    4
 10
-44.430000000000177
 20
63.733333333329512
 11
-44.430000000000177
 21
63.468122760219444
  0
LINE
  8
_1-8_小物
  6
CONTINUOUS
 62
    4
 10
-44.430000000000177
 20
63.233333333329512
 11
-44.430000000000177
 21
62.968122760219444
  0
LINE
  8
_1-8_小物
  6
CONTINUOUS
 62
    4
 10
-44.430000000000177
 20
62.733333333329512
 11
-44.430000000000177
 21
62.468122760219444
  0
LINE
  8
_1-8_小物
  6
CONTINUOUS
 62
    4
 10
-44.430000000000177
 20
62.233333333329512
 11
-44.430000000000177
 21
62.066666666662854
  0
LINE
  8
_1-8_小物
  6
CONTINUOUS
 62
    4
 10
-43.236666666666764
 20
64.066666666662854
 11
-43.236666666666764
 21
63.902460573110432
  0
LINE
  8
_1-8_小物
  6
CONTINUOUS
 62
    4
 10
-43.236666666666764
 20
62.667671146220528
 11
-43.236666666666764
 21
62.066666666662854
  0
LINE
  8
_1-8_小物
  6
CONTINUOUS
 62
    4
 10
-43.236666666666764
 20
63.167671146220528
 11
-43.236666666666764
 21
62.902460573110432
  0
LINE
  8
_1-8_小物
  6
CONTINUOUS
 62
    4
 10
-43.236666666666764
 20
63.667671146220528
 11
-43.236666666666764
 21
63.402460573110432
  0
LINE
  8
_1-8_小物
  6
CONTINUOUS
 62
    4
 10
-43.250000000000085
 20
62.066666666662854
 11
-43.250000000000085
 21
60.285591044194717
  0
LINE
  8
_1-8_小物
  6
CONTINUOUS
 62
    4
 10
-43.833333333333456
 20
59.948803387167459
 11
-43.250000000000085
 21
60.285591044194717
  0
LINE
  8
_1-8_小物
  6
CONTINUOUS
 62
    4
 10
-43.833333333333456
 20
59.948803387167459
 11
-43.459896895706692
 21
62.066666666662854
  0
LINE
  8
_1-8_小物
  6
CENTER2
 62
    4
 10
-43.833333333333456
 20
65.83364038695629
 11
-43.833333333333456
 21
59.084349393775994
  0
LINE
  8
_1-8_小物
  6
CONTINUOUS
 62
    4
 10
-45.500000000000085
 20
65.16666666666282
 11
-45.500000000000085
 21
65.099999999996157
  0
LINE
  8
_1-8_小物
  6
CONTINUOUS
 62
    4
 10
-42.166666666666856
 20
65.099999999996157
 11
-45.500000000000085
 21
65.099999999996157
  0
LINE
  8
_1-8_小物
  6
CONTINUOUS
 62
    4
 10
-42.166666666666856
 20
65.16666666666282
 11
-42.166666666666856
 21
65.099999999996157
  0
LINE
  8
_1-8_小物
  6
CONTINUOUS
 62
    4
 10
-45.500000000000085
 20
65.099999999996157
 11
-44.466666666666669
 21
64.066666666662854
  0
LINE
  8
_1-8_小物
  6
CONTINUOUS
 62
    4
 10
-43.200000000000244
 20
64.066666666662854
 11
-44.466666666666669
 21
64.066666666662854
  0
LINE
  8
_1-8_小物
  6
CONTINUOUS
 62
    4
 10
-42.166666666666856
 20
65.099999999996157
 11
-43.200000000000244
 21
64.066666666662854
  0
ENDBLK
  0
BLOCK
  2
-017-_13_
 70
   64
 10
0
 20
0
 30
0
  0
LINE
  8
_1-8_小物
  6
CONTINUOUS
 62
    4
 10
-154.49999999999997
 20
65.16666666666282
 11
-157.8333333333332
 21
65.16666666666282
  0
LINE
  8
_1-8_小物
  6
CONTINUOUS
 62
    4
 10
-156.16666666666657
 20
59.833333333329506
 11
-156.84999999999988
 21
60.227856017275741
  0
LINE
  8
_1-8_小物
  6
CONTINUOUS
 62
    4
 10
-156.16666666666657
 20
59.833333333329506
 11
-155.48333333333329
 21
60.227856017275741
  0
LINE
  8
_1-8_小物
  6
CONTINUOUS
 62
    4
 10
-155.56999999999988
 20
62.902460573110432
 11
-155.3666666666665
 21
62.78506585966548
  0
LINE
  8
_1-8_小物
  6
CONTINUOUS
 62
    4
 10
-155.3666666666665
 20
62.78506585966548
 11
-155.56999999999988
 21
62.667671146220528
  0
LINE
  8
_1-8_小物
  6
CONTINUOUS
 62
    4
 10
-156.76333333333329
 20
62.233333333329512
 11
-156.96666666666667
 21
62.350728046774464
  0
LINE
  8
_1-8_小物
  6
CONTINUOUS
 62
    4
 10
-156.96666666666667
 20
62.350728046774464
 11
-156.76333333333329
 21
62.468122760219444
  0
LINE
  8
_1-8_小物
  6
CONTINUOUS
 62
    4
 10
-156.76333333333329
 20
62.468122760219444
 11
-155.56999999999988
 21
62.902460573110432
  0
LINE
  8
_1-8_小物
  6
CONTINUOUS
 62
    4
 10
-156.76333333333329
 20
62.233333333329512
 11
-155.56999999999988
 21
62.667671146220528
  0
LINE
  8
_1-8_小物
  6
CONTINUOUS
 62
    4
 10
-155.3666666666665
 20
62.78506585966548
 11
-156.96666666666667
 21
62.350728046774464
  0
LINE
  8
_1-8_小物
  6
CONTINUOUS
 62
    4
 10
-155.56999999999988
 20
63.402460573110432
 11
-155.3666666666665
 21
63.28506585966548
  0
LINE
  8
_1-8_小物
  6
CONTINUOUS
 62
    4
 10
-155.3666666666665
 20
63.28506585966548
 11
-155.56999999999988
 21
63.167671146220528
  0
LINE
  8
_1-8_小物
  6
CONTINUOUS
 62
    4
 10
-156.76333333333329
 20
62.733333333329512
 11
-156.96666666666667
 21
62.850728046774464
  0
LINE
  8
_1-8_小物
  6
CONTINUOUS
 62
    4
 10
-156.96666666666667
 20
62.850728046774464
 11
-156.76333333333329
 21
62.968122760219444
  0
LINE
  8
_1-8_小物
  6
CONTINUOUS
 62
    4
 10
-156.76333333333329
 20
62.968122760219444
 11
-155.56999999999988
 21
63.402460573110432
  0
LINE
  8
_1-8_小物
  6
CONTINUOUS
 62
    4
 10
-156.76333333333329
 20
62.733333333329512
 11
-155.56999999999988
 21
63.167671146220528
  0
LINE
  8
_1-8_小物
  6
CONTINUOUS
 62
    4
 10
-155.3666666666665
 20
63.28506585966548
 11
-156.96666666666667
 21
62.850728046774464
  0
LINE
  8
_1-8_小物
  6
CONTINUOUS
 62
    4
 10
-155.56999999999988
 20
63.902460573110432
 11
-155.3666666666665
 21
63.78506585966548
  0
LINE
  8
_1-8_小物
  6
CONTINUOUS
 62
    4
 10
-155.3666666666665
 20
63.78506585966548
 11
-155.56999999999988
 21
63.667671146220528
  0
LINE
  8
_1-8_小物
  6
CONTINUOUS
 62
    4
 10
-156.76333333333329
 20
63.233333333329512
 11
-156.96666666666667
 21
63.350728046774464
  0
LINE
  8
_1-8_小物
  6
CONTINUOUS
 62
    4
 10
-156.96666666666667
 20
63.350728046774464
 11
-156.76333333333329
 21
63.468122760219444
  0
LINE
  8
_1-8_小物
  6
CONTINUOUS
 62
    4
 10
-156.76333333333329
 20
63.468122760219444
 11
-155.56999999999988
 21
63.902460573110432
  0
LINE
  8
_1-8_小物
  6
CONTINUOUS
 62
    4
 10
-156.76333333333329
 20
63.233333333329512
 11
-155.56999999999988
 21
63.667671146220528
  0
LINE
  8
_1-8_小物
  6
CONTINUOUS
 62
    4
 10
-155.3666666666665
 20
63.78506585966548
 11
-156.96666666666667
 21
63.350728046774464
  0
LINE
  8
_1-8_小物
  6
CONTINUOUS
 62
    4
 10
-156.76333333333329
 20
63.733333333329512
 11
-156.96666666666667
 21
63.850728046774464
  0
LINE
  8
_1-8_小物
  6
CONTINUOUS
 62
    4
 10
-156.96666666666667
 20
63.850728046774464
 11
-156.76333333333329
 21
63.968122760219444
  0
LINE
  8
_1-8_小物
  6
CONTINUOUS
 62
    4
 10
-156.84999999999988
 20
62.066666666662854
 11
-156.84999999999988
 21
60.227856017275741
  0
LINE
  8
_1-8_小物
  6
CONTINUOUS
 62
    4
 10
-155.48333333333329
 20
62.066666666662854
 11
-156.84999999999988
 21
62.066666666662854
  0
LINE
  8
_1-8_小物
  6
CONTINUOUS
 62
    4
 10
-155.48333333333329
 20
62.066666666662854
 11
-155.48333333333329
 21
60.227856017275741
  0
LINE
  8
_1-8_小物
  6
CONTINUOUS
 62
    4
 10
-156.76333333333329
 20
63.968122760219444
 11
-156.49258617555512
 21
64.066666666662854
  0
LINE
  8
_1-8_小物
  6
CONTINUOUS
 62
    4
 10
-156.76333333333329
 20
63.733333333329512
 11
-156.16666666666657
 21
63.950502239775034
  0
LINE
  8
_1-8_小物
  6
CONTINUOUS
 62
    4
 10
-156.16666666666657
 20
64.067896953219986
 11
-156.96666666666667
 21
63.850728046774464
  0
LINE
  8
_1-8_小物
  6
CONTINUOUS
 62
    4
 10
-156.76333333333329
 20
64.066666666662854
 11
-156.76333333333329
 21
63.968122760219444
  0
LINE
  8
_1-8_小物
  6
CONTINUOUS
 62
    4
 10
-156.76333333333329
 20
63.733333333329512
 11
-156.76333333333329
 21
63.468122760219444
  0
LINE
  8
_1-8_小物
  6
CONTINUOUS
 62
    4
 10
-156.76333333333329
 20
63.233333333329512
 11
-156.76333333333329
 21
62.968122760219444
  0
LINE
  8
_1-8_小物
  6
CONTINUOUS
 62
    4
 10
-156.76333333333329
 20
62.733333333329512
 11
-156.76333333333329
 21
62.468122760219444
  0
LINE
  8
_1-8_小物
  6
CONTINUOUS
 62
    4
 10
-156.76333333333329
 20
62.233333333329512
 11
-156.76333333333329
 21
62.066666666662854
  0
LINE
  8
_1-8_小物
  6
CONTINUOUS
 62
    4
 10
-155.56999999999988
 20
64.066666666662854
 11
-155.56999999999988
 21
63.902460573110432
  0
LINE
  8
_1-8_小物
  6
CONTINUOUS
 62
    4
 10
-155.56999999999988
 20
62.667671146220528
 11
-155.56999999999988
 21
62.066666666662854
  0
LINE
  8
_1-8_小物
  6
CONTINUOUS
 62
    4
 10
-155.56999999999988
 20
63.167671146220528
 11
-155.56999999999988
 21
62.902460573110432
  0
LINE
  8
_1-8_小物
  6
CONTINUOUS
 62
    4
 10
-155.56999999999988
 20
63.667671146220528
 11
-155.56999999999988
 21
63.402460573110432
  0
LINE
  8
_1-8_小物
  6
CONTINUOUS
 62
    4
 10
-155.5833333333332
 20
62.066666666662854
 11
-155.5833333333332
 21
60.285591044194717
  0
LINE
  8
_1-8_小物
  6
CONTINUOUS
 62
    4
 10
-156.16666666666657
 20
59.948803387167459
 11
-155.5833333333332
 21
60.285591044194717
  0
LINE
  8
_1-8_小物
  6
CONTINUOUS
 62
    4
 10
-156.16666666666657
 20
59.948803387167459
 11
-155.79323022903981
 21
62.066666666662854
  0
LINE
  8
_1-8_小物
  6
CENTER2
 62
    4
 10
-156.16666666666657
 20
65.83364038695629
 11
-156.16666666666657
 21
59.084349393775994
  0
LINE
  8
_1-8_小物
  6
CONTINUOUS
 62
    4
 10
-157.8333333333332
 20
65.16666666666282
 11
-157.8333333333332
 21
65.099999999996157
  0
LINE
  8
_1-8_小物
  6
CONTINUOUS
 62
    4
 10
-154.49999999999997
 20
65.099999999996157
 11
-157.8333333333332
 21
65.099999999996157
  0
LINE
  8
_1-8_小物
  6
CONTINUOUS
 62
    4
 10
-154.49999999999997
 20
65.16666666666282
 11
-154.49999999999997
 21
65.099999999996157
  0
LINE
  8
_1-8_小物
  6
CONTINUOUS
 62
    4
 10
-157.8333333333332
 20
65.099999999996157
 11
-156.79999999999978
 21
64.066666666662854
  0
LINE
  8
_1-8_小物
  6
CONTINUOUS
 62
    4
 10
-155.53333333333336
 20
64.066666666662854
 11
-156.79999999999978
 21
64.066666666662854
  0
LINE
  8
_1-8_小物
  6
CONTINUOUS
 62
    4
 10
-154.49999999999997
 20
65.099999999996157
 11
-155.53333333333336
 21
64.066666666662854
  0
ENDBLK
  0
BLOCK
  2
-018-HATCHING_2_
 70
   64
 10
0
 20
0
 30
0
  0
LINE
  8
_1-0_躯体
  6
CONTINUOUS
 62
    4
 10
-125
 20
53.607647738324687
 11
-125.10764773832852
 21
53.499999999996163
  0
LINE
  8
_1-0_躯体
  6
CONTINUOUS
 62
    4
 10
-125
 20
54.550456779906767
 11
-126.0504567799106
 21
53.499999999996163
  0
LINE
  8
_1-0_躯体
  6
CONTINUOUS
 62
    4
 10
-125.326599154826
 20
55.16666666666282
 11
-126.99326582149267
 21
53.499999999996163
  0
LINE
  8
_1-0_躯体
  6
CONTINUOUS
 62
    4
 10
-126.26940819640808
 20
55.16666666666282
 11
-127.93607486307474
 21
53.499999999996163
  0
LINE
  8
_1-0_躯体
  6
CONTINUOUS
 62
    4
 10
-127.21221723799013
 20
55.16666666666282
 11
-128.87888390465679
 21
53.499999999996163
  0
LINE
  8
_1-0_躯体
  6
CONTINUOUS
 62
    4
 10
-128.15502627957218
 20
55.16666666666282
 11
-129.82169294623884
 21
53.499999999996163
  0
LINE
  8
_1-0_躯体
  6
CONTINUOUS
 62
    4
 10
-129.09783532115426
 20
55.16666666666282
 11
-130.76450198782092
 21
53.499999999996163
  0
LINE
  8
_1-0_躯体
  6
CONTINUOUS
 62
    4
 10
-130.04064436273629
 20
55.16666666666282
 11
-131.70731102940294
 21
53.499999999996163
  0
LINE
  8
_1-0_躯体
  6
CONTINUOUS
 62
    4
 10
-130.98345340431837
 20
55.16666666666282
 11
-132.65012007098505
 21
53.499999999996163
  0
LINE
  8
_1-0_躯体
  6
CONTINUOUS
 62
    4
 10
-131.92626244590042
 20
55.16666666666282
 11
-133.59292911256711
 21
53.499999999996163
  0
LINE
  8
_1-0_躯体
  6
CONTINUOUS
 62
    4
 10
-132.86907148748253
 20
55.16666666666282
 11
-134.53573815414919
 21
53.499999999996163
  0
LINE
  8
_1-0_躯体
  6
CONTINUOUS
 62
    4
 10
-133.81188052906458
 20
55.16666666666282
 11
-135.47854719573124
 21
53.499999999996163
  0
LINE
  8
_1-0_躯体
  6
CONTINUOUS
 62
    4
 10
-134.75468957064663
 20
55.16666666666282
 11
-136.42135623731329
 21
53.499999999996163
  0
LINE
  8
_1-0_躯体
  6
CONTINUOUS
 62
    4
 10
-135.69749861222869
 20
55.16666666666282
 11
-137.36416527889537
 21
53.499999999996163
  0
LINE
  8
_1-0_躯体
  6
CONTINUOUS
 62
    4
 10
-136.64030765381074
 20
55.16666666666282
 11
-138.30697432047742
 21
53.499999999996163
  0
LINE
  8
_1-0_躯体
  6
CONTINUOUS
 62
    4
 10
-137.58311669539285
 20
55.16666666666282
 11
-139.2497833620595
 21
53.499999999996163
  0
LINE
  8
_1-0_躯体
  6
CONTINUOUS
 62
    4
 10
-138.5259257369749
 20
55.16666666666282
 11
-140.19259240364156
 21
53.499999999996163
  0
LINE
  8
_1-0_躯体
  6
CONTINUOUS
 62
    4
 10
-139.46873477855695
 20
55.16666666666282
 11
-141.13540144522364
 21
53.499999999996163
  0
LINE
  8
_1-0_躯体
  6
CONTINUOUS
 62
    4
 10
-140.41154382013903
 20
55.16666666666282
 11
-142.07821048680569
 21
53.499999999996163
  0
LINE
  8
_1-0_躯体
  6
CONTINUOUS
 62
    4
 10
-141.35435286172108
 20
55.16666666666282
 11
-143.02101952838774
 21
53.499999999996163
  0
LINE
  8
_1-0_躯体
  6
CONTINUOUS
 62
    4
 10
-142.29716190330316
 20
55.16666666666282
 11
-143.96382856996982
 21
53.499999999996163
  0
LINE
  8
_1-0_躯体
  6
CONTINUOUS
 62
    4
 10
-143.23997094488521
 20
55.16666666666282
 11
-144.90663761155187
 21
53.499999999996163
  0
LINE
  8
_1-0_躯体
  6
CONTINUOUS
 62
    4
 10
-144.18277998646727
 20
55.16666666666282
 11
-145.84944665313395
 21
53.499999999996163
  0
LINE
  8
_1-0_躯体
  6
CONTINUOUS
 62
    4
 10
-145.12558902804935
 20
55.16666666666282
 11
-146.792255694716
 21
53.499999999996163
  0
LINE
  8
_1-0_躯体
  6
CONTINUOUS
 62
    4
 10
-146.0683980696314
 20
55.16666666666282
 11
-147.73506473629806
 21
53.499999999996163
  0
LINE
  8
_1-0_躯体
  6
CONTINUOUS
 62
    4
 10
-147.01120711121348
 20
55.16666666666282
 11
-148.67787377788011
 21
53.499999999996163
  0
LINE
  8
_1-0_躯体
  6
CONTINUOUS
 62
    4
 10
-147.95401615279553
 20
55.16666666666282
 11
-149.62068281946219
 21
53.499999999996163
  0
LINE
  8
_1-0_躯体
  6
CONTINUOUS
 62
    4
 10
-148.89682519437758
 20
55.16666666666282
 11
-150.56349186104424
 21
53.499999999996163
  0
LINE
  8
_1-0_躯体
  6
CONTINUOUS
 62
    4
 10
-149.83963423595964
 20
55.16666666666282
 11
-151.50630090262632
 21
53.499999999996163
  0
LINE
  8
_1-0_躯体
  6
CONTINUOUS
 62
    4
 10
-150.78244327754169
 20
55.16666666666282
 11
-152.44910994420837
 21
53.499999999996163
  0
LINE
  8
_1-0_躯体
  6
CONTINUOUS
 62
    4
 10
-151.7252523191238
 20
55.16666666666282
 11
-153.39191898579045
 21
53.499999999996163
  0
LINE
  8
_1-0_躯体
  6
CONTINUOUS
 62
    4
 10
-152.66806136070585
 20
55.16666666666282
 11
-154.33472802737251
 21
53.499999999996163
  0
LINE
  8
_1-0_躯体
  6
CONTINUOUS
 62
    4
 10
-153.61087040228787
 20
55.16666666666282
 11
-155.27753706895453
 21
53.499999999996163
  0
LINE
  8
_1-0_躯体
  6
CONTINUOUS
 62
    4
 10
-154.55367944386995
 20
55.16666666666282
 11
-156.22034611053664
 21
53.499999999996163
  0
LINE
  8
_1-0_躯体
  6
CONTINUOUS
 62
    4
 10
-155.49648848545201
 20
55.16666666666282
 11
-157.16315515211869
 21
53.499999999996163
  0
LINE
  8
_1-0_躯体
  6
CONTINUOUS
 62
    4
 10
-156.43929752703409
 20
55.16666666666282
 11
-158.10596419370074
 21
53.499999999996163
  0
LINE
  8
_1-0_躯体
  6
CONTINUOUS
 62
    4
 10
-157.38210656861614
 20
55.16666666666282
 11
-159.04877323528282
 21
53.499999999996163
  0
LINE
  8
_1-0_躯体
  6
CONTINUOUS
 62
    4
 10
-158.32491561019822
 20
55.16666666666282
 11
-159.99158227686488
 21
53.499999999996163
  0
LINE
  8
_1-0_躯体
  6
CONTINUOUS
 62
    4
 10
-159.26772465178027
 20
55.16666666666282
 11
-160.93439131844693
 21
53.499999999996163
  0
LINE
  8
_1-0_躯体
  6
CONTINUOUS
 62
    4
 10
-160.21053369336235
 20
55.16666666666282
 11
-161.87720036002901
 21
53.499999999996163
  0
LINE
  8
_1-0_躯体
  6
CONTINUOUS
 62
    4
 10
-161.15334273494443
 20
55.16666666666282
 11
-162.82000940161109
 21
53.499999999996163
  0
LINE
  8
_1-0_躯体
  6
CONTINUOUS
 62
    4
 10
-162.09615177652648
 20
55.16666666666282
 11
-163.33333333333346
 21
53.929485109855847
  0
LINE
  8
_1-0_躯体
  6
CONTINUOUS
 62
    4
 10
-163.03896081810854
 20
55.16666666666282
 11
-163.33333333333346
 21
54.872294151437927
  0
ENDBLK
  0
BLOCK
  2
-019-_14_
 70
   64
 10
0
 20
0
 30
0
  0
LINE
  8
_1-8_小物
  6
CONTINUOUS
 62
    4
 10
58.333333327528294
 20
75.500000238432364
 11
58.333333327528294
 21
78.833333571765593
  0
LINE
  8
_1-8_小物
  6
CONTINUOUS
 62
    4
 10
52.999999994194809
 20
77.166666905098964
 11
53.394522678141129
 21
77.850000238432273
  0
LINE
  8
_1-8_小物
  6
CONTINUOUS
 62
    4
 10
52.999999994194809
 20
77.166666905098964
 11
53.394522678141129
 21
76.483333571765684
  0
LINE
  8
_1-8_小物
  6
CONTINUOUS
 62
    4
 10
56.069127233975792
 20
76.570000238432272
 11
55.951732520530868
 21
76.366666905098896
  0
LINE
  8
_1-8_小物
  6
CONTINUOUS
 62
    4
 10
55.951732520530868
 20
76.366666905098896
 11
55.834337807085944
 21
76.570000238432272
  0
LINE
  8
_1-8_小物
  6
CONTINUOUS
 62
    4
 10
55.3999999941949
 20
77.763333571765685
 11
55.517394707639824
 21
77.966666905099061
  0
LINE
  8
_1-8_小物
  6
CONTINUOUS
 62
    4
 10
55.517394707639824
 20
77.966666905099061
 11
55.634789421084747
 21
77.763333571765685
  0
LINE
  8
_1-8_小物
  6
CONTINUOUS
 62
    4
 10
55.634789421084747
 20
77.763333571765685
 11
56.069127233975792
 21
76.570000238432272
  0
LINE
  8
_1-8_小物
  6
CONTINUOUS
 62
    4
 10
55.3999999941949
 20
77.763333571765685
 11
55.834337807085944
 21
76.570000238432272
  0
LINE
  8
_1-8_小物
  6
CONTINUOUS
 62
    4
 10
55.951732520530868
 20
76.366666905098896
 11
55.517394707639824
 21
77.966666905099061
  0
LINE
  8
_1-8_小物
  6
CONTINUOUS
 62
    4
 10
56.569127233975792
 20
76.570000238432272
 11
56.451732520530868
 21
76.366666905098896
  0
LINE
  8
_1-8_小物
  6
CONTINUOUS
 62
    4
 10
56.451732520530868
 20
76.366666905098896
 11
56.334337807085944
 21
76.570000238432272
  0
LINE
  8
_1-8_小物
  6
CONTINUOUS
 62
    4
 10
55.8999999941949
 20
77.763333571765685
 11
56.017394707639824
 21
77.966666905099061
  0
LINE
  8
_1-8_小物
  6
CONTINUOUS
 62
    4
 10
56.017394707639824
 20
77.966666905099061
 11
56.134789421084747
 21
77.763333571765685
  0
LINE
  8
_1-8_小物
  6
CONTINUOUS
 62
    4
 10
56.134789421084747
 20
77.763333571765685
 11
56.569127233975792
 21
76.570000238432272
  0
LINE
  8
_1-8_小物
  6
CONTINUOUS
 62
    4
 10
55.8999999941949
 20
77.763333571765685
 11
56.334337807085944
 21
76.570000238432272
  0
LINE
  8
_1-8_小物
  6
CONTINUOUS
 62
    4
 10
56.451732520530868
 20
76.366666905098896
 11
56.017394707639824
 21
77.966666905099061
  0
LINE
  8
_1-8_小物
  6
CONTINUOUS
 62
    4
 10
57.069127233975792
 20
76.570000238432272
 11
56.951732520530868
 21
76.366666905098896
  0
LINE
  8
_1-8_小物
  6
CONTINUOUS
 62
    4
 10
56.951732520530868
 20
76.366666905098896
 11
56.834337807085944
 21
76.570000238432272
  0
LINE
  8
_1-8_小物
  6
CONTINUOUS
 62
    4
 10
56.3999999941949
 20
77.763333571765685
 11
56.517394707639824
 21
77.966666905099061
  0
LINE
  8
_1-8_小物
  6
CONTINUOUS
 62
    4
 10
56.517394707639824
 20
77.966666905099061
 11
56.634789421084747
 21
77.763333571765685
  0
LINE
  8
_1-8_小物
  6
CONTINUOUS
 62
    4
 10
56.634789421084747
 20
77.763333571765685
 11
57.069127233975792
 21
76.570000238432272
  0
LINE
  8
_1-8_小物
  6
CONTINUOUS
 62
    4
 10
56.3999999941949
 20
77.763333571765685
 11
56.834337807085944
 21
76.570000238432272
  0
LINE
  8
_1-8_小物
  6
CONTINUOUS
 62
    4
 10
56.951732520530868
 20
76.366666905098896
 11
56.517394707639824
 21
77.966666905099061
  0
LINE
  8
_1-8_小物
  6
CONTINUOUS
 62
    4
 10
56.8999999941949
 20
77.763333571765685
 11
57.017394707639824
 21
77.966666905099061
  0
LINE
  8
_1-8_小物
  6
CONTINUOUS
 62
    4
 10
57.017394707639824
 20
77.966666905099061
 11
57.134789421084747
 21
77.763333571765685
  0
LINE
  8
_1-8_小物
  6
CONTINUOUS
 62
    4
 10
55.233333327528157
 20
77.850000238432273
 11
53.394522678141129
 21
77.850000238432273
  0
LINE
  8
_1-8_小物
  6
CONTINUOUS
 62
    4
 10
55.233333327528157
 20
76.483333571765684
 11
55.233333327528157
 21
77.850000238432273
  0
LINE
  8
_1-8_小物
  6
CONTINUOUS
 62
    4
 10
55.233333327528157
 20
76.483333571765684
 11
53.394522678141129
 21
76.483333571765684
  0
LINE
  8
_1-8_小物
  6
CONTINUOUS
 62
    4
 10
57.134789421084747
 20
77.763333571765685
 11
57.233333327528157
 21
77.49258641398751
  0
LINE
  8
_1-8_小物
  6
CONTINUOUS
 62
    4
 10
56.8999999941949
 20
77.763333571765685
 11
57.117168900640422
 21
77.166666905098964
  0
LINE
  8
_1-8_小物
  6
CONTINUOUS
 62
    4
 10
57.234563614085459
 20
77.166666905098964
 11
57.017394707639824
 21
77.966666905099061
  0
LINE
  8
_1-8_小物
  6
CONTINUOUS
 62
    4
 10
57.233333327528157
 20
77.763333571765685
 11
57.134789421084747
 21
77.763333571765685
  0
LINE
  8
_1-8_小物
  6
CONTINUOUS
 62
    4
 10
56.8999999941949
 20
77.763333571765685
 11
56.634789421084747
 21
77.763333571765685
  0
LINE
  8
_1-8_小物
  6
CONTINUOUS
 62
    4
 10
56.3999999941949
 20
77.763333571765685
 11
56.134789421084747
 21
77.763333571765685
  0
LINE
  8
_1-8_小物
  6
CONTINUOUS
 62
    4
 10
55.8999999941949
 20
77.763333571765685
 11
55.634789421084747
 21
77.763333571765685
  0
LINE
  8
_1-8_小物
  6
CONTINUOUS
 62
    4
 10
55.3999999941949
 20
77.763333571765685
 11
55.233333327528157
 21
77.763333571765685
  0
LINE
  8
_1-8_小物
  6
CONTINUOUS
 62
    4
 10
57.233333327528157
 20
76.570000238432272
 11
57.069127233975792
 21
76.570000238432272
  0
LINE
  8
_1-8_小物
  6
CONTINUOUS
 62
    4
 10
55.834337807085944
 20
76.570000238432272
 11
55.233333327528157
 21
76.570000238432272
  0
LINE
  8
_1-8_小物
  6
CONTINUOUS
 62
    4
 10
56.334337807085944
 20
76.570000238432272
 11
56.069127233975792
 21
76.570000238432272
  0
LINE
  8
_1-8_小物
  6
CONTINUOUS
 62
    4
 10
56.834337807085944
 20
76.570000238432272
 11
56.569127233975792
 21
76.570000238432272
  0
LINE
  8
_1-8_小物
  6
CONTINUOUS
 62
    4
 10
55.233333327528157
 20
76.583333571765593
 11
53.452257705060106
 21
76.583333571765593
  0
LINE
  8
_1-8_小物
  6
CONTINUOUS
 62
    4
 10
53.115470048032762
 20
77.166666905098964
 11
53.452257705060106
 21
76.583333571765593
  0
LINE
  8
_1-8_小物
  6
CONTINUOUS
 62
    4
 10
53.115470048032762
 20
77.166666905098964
 11
55.233333327528157
 21
76.793230467472199
  0
LINE
  8
_1-8_小物
  6
CENTER2
 62
    4
 10
59.000307047821593
 20
77.166666905098964
 11
52.251016054641354
 21
77.166666905098964
  0
LINE
  8
_1-8_小物
  6
CONTINUOUS
 62
    4
 10
58.333333327528294
 20
78.833333571765593
 11
58.266666660861461
 21
78.833333571765593
  0
LINE
  8
_1-8_小物
  6
CONTINUOUS
 62
    4
 10
58.266666660861461
 20
75.500000238432364
 11
58.266666660861461
 21
78.833333571765593
  0
LINE
  8
_1-8_小物
  6
CONTINUOUS
 62
    4
 10
58.333333327528294
 20
75.500000238432364
 11
58.266666660861461
 21
75.500000238432364
  0
LINE
  8
_1-8_小物
  6
CONTINUOUS
 62
    4
 10
58.266666660861461
 20
78.833333571765593
 11
57.233333327528157
 21
77.800000238432176
  0
LINE
  8
_1-8_小物
  6
CONTINUOUS
 62
    4
 10
57.233333327528157
 20
76.533333571765752
 11
57.233333327528157
 21
77.800000238432176
  0
LINE
  8
_1-8_小物
  6
CONTINUOUS
 62
    4
 10
58.266666660861461
 20
75.500000238432364
 11
57.233333327528157
 21
76.533333571765752
  0
ENDBLK
  0
BLOCK
  2
-020-_15_
 70
   64
 10
0
 20
0
 30
0
  0
LINE
  8
_1-8_小物
  6
CONTINUOUS
 62
    4
 10
55.699999569224133
 20
62.099999534036385
 11
55.699999569224133
 21
60.433333534036308
  0
LINE
  8
_1-8_小物
  6
CONTINUOUS
 62
    4
 10
55.699999569224133
 20
60.433333534036308
 11
56.199999569223905
 21
60.433333534036308
  0
LINE
  8
_1-8_小物
  6
CONTINUOUS
 62
    4
 10
57.199999569224133
 20
60.433333534036308
 11
57.699999569224133
 21
60.433333534036308
  0
LINE
  8
_1-8_小物
  6
CONTINUOUS
 62
    4
 10
57.699999569224133
 20
60.433333534036308
 11
57.699999569224133
 21
62.099999534036385
  0
ARC
  8
_1-8_小物
  6
CONTINUOUS
 62
    4
 10
56.699999569224019
 20
62.099999534036385
 40
0.566667
 50
0
 51
180
  0
ARC
  8
_1-8_小物
  6
CONTINUOUS
 62
    4
 10
56.699999569224019
 20
62.099999534036385
 40
1
 50
0
 51
180
  0
LINE
  8
_1-8_小物
  6
CONTINUOUS
 62
    4
 10
57.199997569224251
 20
61.099999534036328
 11
57.118716569224034
 21
61.099999534036328
  0
ARC
  8
_1-8_小物
  6
CONTINUOUS
 62
    4
 10
57.118716569224034
 20
61.033333534036387
 40
0.066667
 50
90
 51
194.03640200004617
  0
LINE
  8
_1-8_小物
  6
CONTINUOUS
 62
    4
 10
57.199999569224133
 20
60.433333534036308
 11
57.054040569223957
 21
61.017164534036397
  0
LINE
  8
_1-8_小物
  6
CONTINUOUS
 62
    4
 10
56.199999569223905
 20
61.099999534036328
 11
56.281281569224006
 21
61.099999534036328
  0
ARC
  8
_1-8_小物
  6
CONTINUOUS
 62
    4
 10
56.281281569224006
 20
61.033333534036387
 40
0.066667
 50
345.96380799997621
 51
90
  0
LINE
  8
_1-8_小物
  6
CONTINUOUS
 62
    4
 10
56.200000569224017
 20
60.433333534036308
 11
56.345957569224197
 21
61.017164534036397
  0
LINE
  8
_1-8_小物
  6
CONTINUOUS
 62
    4
 10
57.199997569224251
 20
61.099999534036328
 11
57.266664569223963
 21
61.099999534036328
  0
LINE
  8
_1-8_小物
  6
CONTINUOUS
 62
    4
 10
57.266664569223963
 20
61.099999534036328
 11
57.266666569223958
 21
62.099999534036385
  0
LINE
  8
_1-8_小物
  6
CONTINUOUS
 62
    4
 10
56.200000569224017
 20
61.099999534036328
 11
56.133332569224081
 21
61.099999534036328
  0
LINE
  8
_1-8_小物
  6
CONTINUOUS
 62
    4
 10
56.133332569224081
 20
61.099999534036328
 11
56.133332569224081
 21
62.099999534036385
  0
ENDBLK
  0
BLOCK
  2
-021-_16_
 70
   64
 10
0
 20
0
 30
0
  0
LINE
  8
_1-4_フレ__ム
  6
CONTINUOUS
 62
    4
 10
57.200000170131261
 20
61.100000200599993
 11
57.03333350346486
 21
61.100000200599993
  0
LINE
  8
_1-4_フレ__ム
  6
CONTINUOUS
 62
    4
 10
57.200000170131261
 20
62.100000200599823
 11
57.200000170131261
 21
61.100000200599993
  0
LINE
  8
_1-4_フレ__ム
  6
CONTINUOUS
 62
    4
 10
57.03333350346486
 20
61.100000200599993
 11
57.199999753465704
 21
60.433333533933279
  0
LINE
  8
_1-4_フレ__ム
  6
CONTINUOUS
 62
    4
 10
56.200000611550536
 20
61.100000200599993
 11
56.366667278217051
 21
61.100000200599993
  0
LINE
  8
_1-4_フレ__ム
  6
CONTINUOUS
 62
    4
 10
56.200000611550536
 20
62.100000200599823
 11
56.200000611550536
 21
61.100000200599993
  0
LINE
  8
_1-4_フレ__ム
  6
CONTINUOUS
 62
    4
 10
56.366667278217051
 20
61.100000200599993
 11
56.200001028216207
 21
60.433333533933279
  0
ARC
  8
_1-4_フレ__ム
  6
CONTINUOUS
 62
    4
 10
56.700000390840728
 20
62.100000200599823
 40
0.4999997792903532
 50
0
 51
180
  0
LINE
  8
_1-4_フレ__ム
  6
CONTINUOUS
 62
    4
 10
57.23333333045764
 20
74.333333571662848
 11
57.233333257901222
 21
75.166666867266542
  0
LINE
  8
_1-4_フレ__ム
  6
CONTINUOUS
 62
    4
 10
57.233333257901222
 20
75.166666867266542
 11
50.933331818375564
 21
75.166666318737782
  0
LINE
  8
_1-4_フレ__ム
  6
CONTINUOUS
 62
    4
 10
57.833333321750843
 20
74.333333571662848
 11
57.23333333045764
 21
74.333333571662848
  0
LINE
  8
_1-4_フレ__ム
  6
CONTINUOUS
 62
    4
 10
57.23333333045764
 20
79.266666780198591
 11
57.23333333045764
 21
80.800000238329545
  0
LINE
  8
_1-4_フレ__ム
  6
CONTINUOUS
 62
    4
 10
56.233333330457867
 20
79.266666780198591
 11
57.23333333045764
 21
79.266666780198591
  0
LINE
  8
_1-4_フレ__ム
  6
CONTINUOUS
 62
    4
 10
57.83333333045789
 20
78.666666780198454
 11
56.833333330457776
 21
78.666666780198454
  0
LINE
  8
_1-4_フレ__ム
  6
CENTER2
 62
    4
 10
55.916666663790807
 20
77.166666849852987
 11
57.649999997124269
 21
77.166666849852987
  0
LINE
  8
_1-4_フレ__ム
  6
CONTINUOUS
 62
    4
 10
56.733333330457526
 20
77.166666849852987
 11
56.833333330457776
 21
77.066666849853078
  0
LINE
  8
_1-4_フレ__ム
  6
CONTINUOUS
 62
    4
 10
56.833333330457776
 20
78.666666780198454
 11
56.833333330457776
 21
77.266666849853038
  0
LINE
  8
_1-4_フレ__ム
  6
CONTINUOUS
 62
    4
 10
56.833333330457776
 20
77.266666849853038
 11
56.733333330457526
 21
77.166666849852987
  0
LINE
  8
_1-4_フレ__ム
  6
CONTINUOUS
 62
    4
 10
57.233333257901222
 20
75.166666867266542
 11
50.933331827082384
 21
75.166666318737725
  0
LINE
  8
_1-4_フレ__ム
  6
CONTINUOUS
 62
    4
 10
56.399999997124382
 20
81.333333571662763
 11
57.499999997124291
 21
81.333333571662763
  0
ARC
  8
_1-4_フレ__ム
  6
CONTINUOUS
 62
    4
 10
56.399999997124382
 20
81.166666904996021
 40
0.1666666666666666
 50
90
 51
180
  0
LINE
  8
_1-4_フレ__ム
  6
CONTINUOUS
 62
    4
 10
56.233333330457867
 20
80.800000238329545
 11
56.233333330457867
 21
81.166666904996021
  0
LINE
  8
_1-4_フレ__ム
  6
CONTINUOUS
 62
    4
 10
57.23333333045764
 20
80.800000238329545
 11
56.233333330457867
 21
80.800000238329545
  0
ARC
  8
_1-4_フレ__ム
  6
CONTINUOUS
 62
    4
 10
57.499999997124291
 20
81.000000238329335
 40
0.3333333333333333
 50
0
 51
90
  0
LINE
  8
_1-4_フレ__ム
  6
CONTINUOUS
 62
    4
 10
57.833333330457549
 20
81.000000238329363
 11
57.83333333045789
 21
78.666666780198454
  0
LINE
  8
_1-4_フレ__ム
  6
CONTINUOUS
 62
    4
 10
57.833333321750843
 20
75.666666666563572
 11
57.833333321750843
 21
74.333333571662848
  0
LINE
  8
_1-4_フレ__ム
  6
CONTINUOUS
 62
    4
 10
56.833333330457776
 20
77.066666849853078
 11
56.833333330457776
 21
75.666666666563572
  0
LINE
  8
_1-4_フレ__ム
  6
CONTINUOUS
 62
    4
 10
56.233333330457867
 20
75.666666666563572
 11
56.233333330457867
 21
79.266666780198591
  0
LINE
  8
_1-4_フレ__ム
  6
CONTINUOUS
 62
    4
 10
50.333333330457549
 20
75.666666666563572
 11
56.233333330457867
 21
75.666666666563572
  0
LINE
  8
_1-4_フレ__ム
  6
CONTINUOUS
 62
    4
 10
56.833333330457776
 20
75.666666666563572
 11
57.833333321750843
 21
75.666666666563572
  0
LINE
  8
_1-4_フレ__ム
  6
CONTINUOUS
 62
    4
 10
55.53333372417444
 20
58.666666768787707
 11
51.599999796867564
 21
58.666666524997481
  0
ARC
  8
_1-4_フレ__ム
  6
CONTINUOUS
 62
    4
 10
51.599999796867564
 20
59.33333319166411
 40
0.6666666666666666
 50
180.00000498863477
 51
270
  0
ARC
  8
_1-4_フレ__ム
  6
CONTINUOUS
 62
    4
 10
55.53333372417444
 20
59.333333435454421
 40
0.6666666666666666
 50
270
 51
0
  0
LINE
  8
_1-4_フレ__ム
  6
CONTINUOUS
 62
    4
 10
56.200000390841069
 20
59.333333435454421
 11
56.200000390841069
 21
60.433333533933279
  0
LINE
  8
_1-4_フレ__ム
  6
CONTINUOUS
 62
    4
 10
57.200000390840955
 20
57.833333333230257
 11
57.200000390840955
 21
60.433333533933279
  0
LINE
  8
_1-4_フレ__ム
  6
CONTINUOUS
 62
    4
 10
50.333333336262058
 20
57.833333333230257
 11
57.200000390840955
 21
57.833333333230257
  0
LINE
  8
_1-4_フレ__ム
  6
CONTINUOUS
 62
    4
 10
50.333333336262058
 20
57.833333333230257
 11
50.333333330457549
 21
75.666666666563572
  0
LINE
  8
_1-4_フレ__ム
  6
CONTINUOUS
 62
    4
 10
50.933332271129188
 20
66.733333774377144
 11
50.833332712276274
 21
66.833333333230257
  0
LINE
  8
_1-4_フレ__ム
  6
CONTINUOUS
 62
    4
 10
50.833332712276274
 20
66.833333333230257
 11
50.93333272678376
 21
66.933333347737857
  0
LINE
  8
_1-4_フレ__ム
  6
CENTER2
 62
    4
 10
50.016666045609554
 20
66.833333333230257
 11
51.749999378943016
 21
66.833333333230257
  0
LINE
  8
_1-4_フレ__ム
  6
CONTINUOUS
 62
    4
 10
50.933333130200936
 20
59.333333133618709
 11
50.933332505906606
 21
66.733333774377172
  0
LINE
  8
_1-4_フレ__ム
  6
CONTINUOUS
 62
    4
 10
50.933332543942583
 20
66.933333347737801
 11
50.933331827082384
 21
75.166666318737725
  0
ENDBLK
  0
BLOCK
  2
-022-_17_
 70
   64
 10
0
 20
0
 30
0
  0
LINE
  8
_1-8_小物
  6
CONTINUOUS
 62
    4
 10
38.406724999999852
 20
65.030575000000056
 11
37.740971666666525
 21
64.995685000000492
  0
LINE
  8
_1-8_小物
  6
CONTINUOUS
 62
    4
 10
39.405354999999787
 20
65.08291166666703
 11
39.037588333333161
 21
65.731218333333629
  0
LINE
  8
_1-8_小物
  6
CONTINUOUS
 62
    4
 10
39.037588333333161
 20
65.731218333333629
 11
38.371834999999834
 21
65.69632833333344
  0
LINE
  8
_1-8_小物
  6
CONTINUOUS
 62
    4
 10
38.371834999999834
 20
65.69632833333344
 11
38.406724999999852
 21
65.030575000000056
  0
LINE
  8
_1-8_小物
  6
CONTINUOUS
 62
    4
 10
40.071108333333228
 20
65.117801666666935
 11
39.405354999999787
 21
65.08291166666703
  0
LINE
  8
_1-8_小物
  6
CONTINUOUS
 62
    4
 10
41.069736666666614
 20
65.170138333333568
 11
40.701969999999648
 21
65.818445000000509
  0
LINE
  8
_1-8_小物
  6
CONTINUOUS
 62
    4
 10
40.701969999999648
 20
65.818445000000509
 11
40.036216666666547
 21
65.783555000000263
  0
LINE
  8
_1-8_小物
  6
CONTINUOUS
 62
    4
 10
40.036216666666547
 20
65.783555000000263
 11
40.071108333333228
 21
65.117801666666935
  0
LINE
  8
_1-8_小物
  6
CONTINUOUS
 62
    4
 10
41.735489999999942
 20
65.205028333333757
 11
41.069736666666614
 21
65.170138333333568
  0
LINE
  8
_1-8_小物
  6
CONTINUOUS
 62
    4
 10
42.734119999999649
 20
65.257365000000107
 11
42.366353333333251
 21
65.905671666666706
  0
LINE
  8
_1-8_小物
  6
CONTINUOUS
 62
    4
 10
42.366353333333251
 20
65.905671666666706
 11
41.700599999999923
 21
65.870781666667142
  0
LINE
  8
_1-8_小物
  6
CONTINUOUS
 62
    4
 10
41.700599999999923
 20
65.870781666667142
 11
41.735489999999942
 21
65.205028333333757
  0
LINE
  8
_1-8_小物
  6
CONTINUOUS
 62
    4
 10
43.399873333333204
 20
65.292255000000296
 11
42.734119999999649
 21
65.257365000000107
  0
LINE
  8
_1-8_小物
  6
CONTINUOUS
 62
    4
 10
44.398503333333252
 20
65.344591666666929
 11
44.030734999999851
 21
65.992898333333585
  0
LINE
  8
_1-8_小物
  6
CONTINUOUS
 62
    4
 10
44.030734999999851
 20
65.992898333333585
 11
43.364981666666523
 21
65.95800833333368
  0
LINE
  8
_1-8_小物
  6
CONTINUOUS
 62
    4
 10
43.364981666666523
 20
65.95800833333368
 11
43.399873333333204
 21
65.292255000000296
  0
LINE
  8
_1-8_小物
  6
CONTINUOUS
 62
    4
 10
45.064254999999804
 20
65.379481666666834
 11
44.398503333333252
 21
65.344591666666929
  0
LINE
  8
_1-8_小物
  6
CONTINUOUS
 62
    4
 10
45.695118333333113
 20
66.080125000000407
 11
45.029364999999785
 21
66.045235000000218
  0
LINE
  8
_1-8_小物
  6
CONTINUOUS
 62
    4
 10
45.029364999999785
 20
66.045235000000218
 11
45.064254999999804
 21
65.379481666666834
  0
LINE
  8
_1-8_小物
  6
CONTINUOUS
 62
    4
 10
45.999999999999915
 20
65.500000000000284
 11
45.695118333333113
 21
66.080125000000407
  0
LINE
  8
_1-8_小物
  6
CONTINUOUS
 62
    4
 10
38.406724999999852
 20
68.636091666666914
 11
37.740971666666525
 21
68.670981666666819
  0
LINE
  8
_1-8_小物
  6
CONTINUOUS
 62
    4
 10
39.405354999999787
 20
68.583755000000281
 11
39.037588333333161
 21
67.935448333333625
  0
LINE
  8
_1-8_小物
  6
CONTINUOUS
 62
    4
 10
39.037588333333161
 20
67.935448333333625
 11
38.371834999999834
 21
67.970338333333814
  0
LINE
  8
_1-8_小物
  6
CONTINUOUS
 62
    4
 10
38.371834999999834
 20
67.970338333333814
 11
38.406724999999852
 21
68.636091666666914
  0
LINE
  8
_1-8_小物
  6
CONTINUOUS
 62
    4
 10
40.071108333333228
 20
68.548865000000035
 11
39.405354999999787
 21
68.583755000000281
  0
LINE
  8
_1-8_小物
  6
CONTINUOUS
 62
    4
 10
41.069736666666614
 20
68.496528333333742
 11
40.701969999999648
 21
67.848221666667087
  0
LINE
  8
_1-8_小物
  6
CONTINUOUS
 62
    4
 10
40.701969999999648
 20
67.848221666667087
 11
40.036216666666547
 21
67.883111666666707
  0
LINE
  8
_1-8_小物
  6
CONTINUOUS
 62
    4
 10
40.036216666666547
 20
67.883111666666707
 11
40.071108333333228
 21
68.548865000000035
  0
LINE
  8
_1-8_小物
  6
CONTINUOUS
 62
    4
 10
41.735489999999942
 20
68.461638333333838
 11
41.069736666666614
 21
68.496528333333742
  0
LINE
  8
_1-8_小物
  6
CONTINUOUS
 62
    4
 10
42.734119999999649
 20
68.409301666667204
 11
42.366353333333251
 21
67.760995000000264
  0
LINE
  8
_1-8_小物
  6
CONTINUOUS
 62
    4
 10
42.366353333333251
 20
67.760995000000264
 11
41.700599999999923
 21
67.795885000000169
  0
LINE
  8
_1-8_小物
  6
CONTINUOUS
 62
    4
 10
41.700599999999923
 20
67.795885000000169
 11
41.735489999999942
 21
68.461638333333838
  0
LINE
  8
_1-8_小物
  6
CONTINUOUS
 62
    4
 10
43.399873333333204
 20
68.374411666666958
 11
42.734119999999649
 21
68.409301666667204
  0
LINE
  8
_1-8_小物
  6
CONTINUOUS
 62
    4
 10
44.398503333333252
 20
68.322075000000041
 11
44.030734999999851
 21
67.673768333333385
  0
LINE
  8
_1-8_小物
  6
CONTINUOUS
 62
    4
 10
44.030734999999851
 20
67.673768333333385
 11
43.364981666666523
 21
67.708658333333631
  0
LINE
  8
_1-8_小物
  6
CONTINUOUS
 62
    4
 10
43.364981666666523
 20
67.708658333333631
 11
43.399873333333204
 21
68.374411666666958
  0
LINE
  8
_1-8_小物
  6
CONTINUOUS
 62
    4
 10
45.064254999999804
 20
68.28718500000042
 11
44.398503333333252
 21
68.322075000000041
  0
LINE
  8
_1-8_小物
  6
CONTINUOUS
 62
    4
 10
45.695118333333113
 20
67.586541666666847
 11
45.029364999999785
 21
67.621431666667092
  0
LINE
  8
_1-8_小物
  6
CONTINUOUS
 62
    4
 10
45.029364999999785
 20
67.621431666667092
 11
45.064254999999804
 21
68.28718500000042
  0
LINE
  8
_1-8_小物
  6
CONTINUOUS
 62
    4
 10
38.019768333333133
 20
66.853101666666873
 11
38.591658333333186
 21
66.208535000000381
  0
LINE
  8
_1-8_小物
  6
CONTINUOUS
 62
    4
 10
38.623146666666599
 20
67.456481666667059
 11
37.999999999999801
 21
66.833333333333314
  0
LINE
  8
_1-8_小物
  6
CONTINUOUS
 62
    4
 10
45.999999999999915
 20
68.166666666666686
 11
45.695118333333113
 21
67.586541666666847
  0
LINE
  8
_1-8_小物
  6
CONTINUOUS
 62
    4
 10
43.399873333333204
 20
65.292255000000296
 11
44.952533333333037
 21
64.727133333333768
  0
LINE
  8
_1-8_小物
  6
CONTINUOUS
 62
    4
 10
43.399873333333204
 20
65.646981666666761
 11
45.066539999999833
 21
65.040363333333516
  0
LINE
  8
_1-8_小物
  6
CONTINUOUS
 62
    4
 10
43.399873333333204
 20
68.374411666666958
 11
44.952533333333037
 21
68.939533333333486
  0
LINE
  8
_1-8_小物
  6
CONTINUOUS
 62
    4
 10
43.399873333333204
 20
68.019685000000493
 11
45.066539999999833
 21
68.626303333333738
  0
LINE
  8
_1-8_小物
  6
CONTINUOUS
 62
    4
 10
37.679913333333076
 20
66.160751666666954
 11
37.740971666666525
 21
64.995685000000492
  0
LINE
  8
_1-8_小物
  6
CONTINUOUS
 62
    4
 10
37.740971666666525
 20
64.995685000000492
 11
37.040328333333292
 21
65.626546666667025
  0
LINE
  8
_1-8_小物
  6
CONTINUOUS
 62
    4
 10
37.040328333333292
 20
65.626546666667025
 11
37.014159999999748
 21
66.125861666666708
  0
LINE
  8
_1-8_小物
  6
CONTINUOUS
 62
    4
 10
37.014159999999748
 20
66.125861666666708
 11
47.33333333333303
 21
66.666666666666686
  0
LINE
  8
_1-8_小物
  6
CONTINUOUS
 62
    4
 10
45.999999999999915
 20
65.500000000000284
 11
47.33333333333303
 21
65.500000000000284
  0
LINE
  8
_1-8_小物
  6
CONTINUOUS
 62
    4
 10
37.679913333333076
 20
67.505915000000357
 11
37.740971666666525
 21
68.670981666666819
  0
LINE
  8
_1-8_小物
  6
CONTINUOUS
 62
    4
 10
37.740971666666525
 20
68.670981666666819
 11
37.040328333333292
 21
68.040120000000286
  0
LINE
  8
_1-8_小物
  6
CONTINUOUS
 62
    4
 10
37.040328333333292
 20
68.040120000000286
 11
37.014159999999748
 21
67.540805000000262
  0
LINE
  8
_1-8_小物
  6
CONTINUOUS
 62
    4
 10
37.014159999999748
 20
67.540805000000262
 11
47.33333333333303
 21
67.000000000000284
  0
LINE
  8
_1-8_小物
  6
CONTINUOUS
 62
    4
 10
45.999999999999915
 20
68.166666666666686
 11
47.33333333333303
 21
68.166666666666686
  0
LINE
  8
_1-8_小物
  6
CONTINUOUS
 62
    4
 10
44.952533333333037
 20
68.939533333333486
 11
47.22040666666669
 21
69.270318333333591
  0
ARC
  8
_1-8_小物
  6
CONTINUOUS
 62
    4
 10
47.239651666666532
 20
69.13838166666693
 40
0.1333333333333333
 50
8.1301019999676249
 51
98.298466000035219
  0
LINE
  8
_1-8_小物
  6
CONTINUOUS
 62
    4
 10
47.37164499999983
 20
69.157238333333851
 11
47.381016666666596
 21
69.09163000000018
  0
ARC
  8
_1-8_小物
  6
CONTINUOUS
 62
    4
 10
47.249023333333184
 20
69.072773333333316
 40
0.1333333333333333
 50
278.13010200004015
 51
8.1301020002163114
  0
LINE
  8
_1-8_小物
  6
CONTINUOUS
 62
    4
 10
47.267879999999764
 20
68.940780000000188
 11
45.066539999999833
 21
68.626303333333738
  0
LINE
  8
_1-8_小物
  6
CONTINUOUS
 62
    4
 10
44.952533333333037
 20
64.727133333333768
 11
47.22040666666669
 21
64.396348333333663
  0
ARC
  8
_1-8_小物
  6
CONTINUOUS
 62
    4
 10
47.239651666666532
 20
64.528285000000324
 40
0.1333333333333333
 50
261.70153399996479
 51
351.86989800003238
  0
LINE
  8
_1-8_小物
  6
CONTINUOUS
 62
    4
 10
47.37164499999983
 20
64.50943000000035
 11
47.381016666666596
 21
64.575036666667074
  0
ARC
  8
_1-8_小物
  6
CONTINUOUS
 62
    4
 10
47.249023333333184
 20
64.593893333333369
 40
0.1333333333333333
 50
351.86989800004449
 51
81.86989800000822
  0
LINE
  8
_1-8_小物
  6
CONTINUOUS
 62
    4
 10
47.267879999999764
 20
64.725886666667066
 11
45.066539999999833
 21
65.040363333333516
  0
LINE
  8
_1-8_小物
  6
CONTINUOUS
 62
    4
 10
44.952533333333037
 20
64.727133333333768
 11
47.22040666666669
 21
64.396348333333663
  0
ARC
  8
_1-8_小物
  6
CONTINUOUS
 62
    4
 10
47.239651666666532
 20
64.528285000000324
 40
0.1333333333333333
 50
261.70153399996479
 51
351.86989800003238
  0
LINE
  8
_1-8_小物
  6
CONTINUOUS
 62
    4
 10
47.37164499999983
 20
64.50943000000035
 11
47.381016666666596
 21
64.575036666667074
  0
ARC
  8
_1-8_小物
  6
CONTINUOUS
 62
    4
 10
47.249023333333184
 20
64.593893333333369
 40
0.1333333333333333
 50
351.86989800004449
 51
81.86989800000822
  0
LINE
  8
_1-8_小物
  6
CONTINUOUS
 62
    4
 10
47.267879999999764
 20
64.725886666667066
 11
45.066539999999833
 21
65.040363333333516
  0
LINE
  8
_1-8_小物
  6
CONTINUOUS
 62
    4
 10
49.999999999999886
 20
65.166666666666686
 11
48.333333333333258
 21
65.500000000000284
  0
LINE
  8
_1-8_小物
  6
CONTINUOUS
 62
    4
 10
49.999999999999886
 20
65.500000000000284
 11
47.33333333333303
 21
65.500000000000284
  0
LINE
  8
_1-8_小物
  6
CONTINUOUS
 62
    4
 10
47.33333333333303
 20
66.666666666666686
 11
47.33333333333303
 21
66.833333333333314
  0
LINE
  8
_1-8_小物
  6
CONTINUOUS
 62
    4
 10
48.333333333333258
 20
66.833333333333314
 11
49.999999999999886
 21
66.833333333333314
  0
LINE
  8
_1-8_小物
  6
CONTINUOUS
 62
    4
 10
49.999999999999886
 20
66.500000000000284
 11
48.333333333333258
 21
66.833333333333314
  0
LINE
  8
_1-8_小物
  6
CONTINUOUS
 62
    4
 10
49.999999999999886
 20
67.16666666666697
 11
48.333333333333258
 21
66.833333333333314
  0
LINE
  8
_1-8_小物
  6
CONTINUOUS
 62
    4
 10
49.999999999999886
 20
68.5
 11
48.333333333333258
 21
68.166666666666686
  0
LINE
  8
_1-8_小物
  6
CONTINUOUS
 62
    4
 10
49.999999999999886
 20
68.166666666666686
 11
47.33333333333303
 21
68.166666666666686
  0
LINE
  8
_1-8_小物
  6
CONTINUOUS
 62
    4
 10
47.33333333333303
 20
67.000000000000284
 11
47.33333333333303
 21
66.833333333333314
  0
LINE
  8
_1-8_小物
  6
CONTINUOUS
 62
    4
 10
49.999999999999886
 20
65.166666666666686
 11
49.999999999999886
 21
68.5
  0
ENDBLK
  0
BLOCK
  2
-023-_18_
 70
   64
 10
0
 20
0
 30
0
  0
LINE
  8
_1-8_小物
  6
CONTINUOUS
 62
    4
 10
51.433332496027219
 20
63.83333356116043
 11
51.433332496027219
 21
69.833333561160714
  0
LINE
  8
_1-8_小物
  6
CONTINUOUS
 62
    4
 10
50.933332496027219
 20
63.83333356116043
 11
50.933332496027219
 21
69.833333561160714
  0
LINE
  8
_1-8_小物
  6
CONTINUOUS
 62
    4
 10
51.433332496027219
 20
63.83333356116043
 11
50.933332496027219
 21
63.83333356116043
  0
LINE
  8
_1-8_小物
  6
CONTINUOUS
 62
    4
 10
51.433332496027219
 20
69.833333561160714
 11
50.933332496027219
 21
69.833333561160714
  0
LINE
  8
_1-8_小物
  6
CONTINUOUS
 62
    4
 10
51.433332496027219
 20
65.916666894493744
 11
50.933332496027219
 21
65.916666894493744
  0
LINE
  8
_1-8_小物
  6
CONTINUOUS
 62
    4
 10
51.433332496027219
 20
67.7500002278274
 11
50.933332496027219
 21
67.7500002278274
  0
LINE
  8
_1-8_小物
  6
CONTINUOUS
 62
    4
 10
51.433332496027219
 20
65.33333356116043
 11
51.848292101027255
 21
65.369637822427251
  0
LINE
  8
_1-8_小物
  6
CONTINUOUS
 62
    4
 10
51.848292101027255
 20
68.29702929992726
 11
51.433332496027219
 21
68.33333356116043
  0
ARC
  8
_1-8_小物
  6
CONTINUOUS
 62
    4
 10
51.81953070592715
 20
67.968285049527537
 40
0.3299999999999999
 50
37.367558032054447
 51
85.000000001204057
  0
ARC
  8
_1-8_小物
  6
CONTINUOUS
 62
    4
 10
51.81953070592715
 20
65.698382072793891
 40
0.3299999999999999
 50
274.9999999987964
 51
322.63244196794949
  0
ARC
  8
_1-8_小物
  6
CONTINUOUS
 62
    4
 10
50.333332496027197
 20
66.833333561160714
 40
2.1999999999999997
 50
322.63244196770495
 51
338.26638354339786
  0
ARC
  8
_1-8_小物
  6
CONTINUOUS
 62
    4
 10
50.333332496027197
 20
66.833333561160714
 40
2.1999999999999997
 50
21.748408590903569
 51
37.367558032305141
  0
LINE
  8
_1-8_小物
  6
CONTINUOUS
 62
    4
 10
52.519708205893949
 20
66.728333561160582
 11
52.37443657589381
 21
66.728333561160582
  0
LINE
  8
_1-8_小物
  6
CONTINUOUS
 62
    4
 10
52.519708205893949
 20
66.612570667193609
 11
52.519708205893949
 21
66.728333561160582
  0
LINE
  8
_1-8_小物
  6
CONTINUOUS
 62
    4
 10
52.37443657589381
 20
66.019165804993975
 11
52.519708205893949
 21
66.612570667193609
  0
LINE
  8
_1-8_小物
  6
CONTINUOUS
 62
    4
 10
52.519708205893949
 20
67.054096455160618
 11
52.431229598760638
 21
67.487399877727398
  0
LINE
  8
_1-8_小物
  6
CONTINUOUS
 62
    4
 10
52.431229598760638
 20
67.487399877727398
 11
52.37443657589381
 21
67.647501317360252
  0
LINE
  8
_1-8_小物
  6
CONTINUOUS
 62
    4
 10
52.519708205893949
 20
66.938333561160619
 11
52.519708205893949
 21
67.054096455160618
  0
LINE
  8
_1-8_小物
  6
CONTINUOUS
 62
    4
 10
52.37443657589381
 20
66.938333561160619
 11
52.519708205893949
 21
66.938333561160619
  0
LINE
  8
_1-8_小物
  6
CONTINUOUS
 62
    4
 10
52.37443657589381
 20
66.728333561160582
 11
52.376138300693924
 21
66.833333561160714
  0
LINE
  8
_1-8_小物
  6
CONTINUOUS
 62
    4
 10
52.376138300693924
 20
66.833333561160714
 11
52.37443657589381
 21
66.938333561160619
  0
LINE
  8
_1-8_小物
  6
CONTINUOUS
 62
    4
 10
51.848292101027255
 20
65.369637822427251
 11
51.848292101027255
 21
68.29702929992726
  0
LINE
  8
_1-8_小物
  6
CONTINUOUS
 62
    4
 10
52.081800978260617
 20
66.833333561160714
 11
52.081800978260617
 21
68.168570606327364
  0
LINE
  8
_1-8_小物
  6
CONTINUOUS
 62
    4
 10
52.081800978260617
 20
65.498096516027147
 11
52.081800978260617
 21
66.833333561160714
  0
ENDBLK
  0
BLOCK
  2
-024-_19_
 70
   64
 10
0
 20
0
 30
0
  0
LINE
  8
_1-8_小物
  6
CONTINUOUS
 62
    4
 10
-49.863908333333768
 20
41.906724999996072
 11
-49.829018333334261
 21
41.240971666662773
  0
LINE
  8
_1-8_小物
  6
CONTINUOUS
 62
    4
 10
-49.916245000000799
 20
42.905354999996035
 11
-50.564551666667342
 21
42.537588333329381
  0
LINE
  8
_1-8_小物
  6
CONTINUOUS
 62
    4
 10
-50.564551666667342
 20
42.537588333329381
 11
-50.529661666667209
 21
41.871834999996082
  0
LINE
  8
_1-8_小物
  6
CONTINUOUS
 62
    4
 10
-50.529661666667209
 20
41.871834999996082
 11
-49.863908333333768
 21
41.906724999996072
  0
LINE
  8
_1-8_小物
  6
CONTINUOUS
 62
    4
 10
-49.951135000000704
 20
43.571108333329477
 11
-49.916245000000799
 21
42.905354999996035
  0
LINE
  8
_1-8_小物
  6
CONTINUOUS
 62
    4
 10
-50.003471666667338
 20
44.569736666662834
 11
-50.651778333334278
 21
44.201969999995868
  0
LINE
  8
_1-8_小物
  6
CONTINUOUS
 62
    4
 10
-50.651778333334278
 20
44.201969999995868
 11
-50.616888333333975
 21
43.536216666662796
  0
LINE
  8
_1-8_小物
  6
CONTINUOUS
 62
    4
 10
-50.616888333333975
 20
43.536216666662796
 11
-49.951135000000704
 21
43.571108333329477
  0
LINE
  8
_1-8_小物
  6
CONTINUOUS
 62
    4
 10
-50.038361666667527
 20
45.23548999999619
 11
-50.003471666667338
 21
44.569736666662834
  0
LINE
  8
_1-8_小物
  6
CONTINUOUS
 62
    4
 10
-50.090698333333876
 20
46.234119999995869
 11
-50.739005000000418
 21
45.866353333329499
  0
LINE
  8
_1-8_小物
  6
CONTINUOUS
 62
    4
 10
-50.739005000000418
 20
45.866353333329499
 11
-50.704115000000911
 21
45.200599999996143
  0
LINE
  8
_1-8_小物
  6
CONTINUOUS
 62
    4
 10
-50.704115000000911
 20
45.200599999996143
 11
-50.038361666667527
 21
45.23548999999619
  0
LINE
  8
_1-8_小物
  6
CONTINUOUS
 62
    4
 10
-50.125588333334065
 20
46.899873333329452
 11
-50.090698333333876
 21
46.234119999995869
  0
LINE
  8
_1-8_小物
  6
CONTINUOUS
 62
    4
 10
-50.177925000000698
 20
47.898503333329501
 11
-50.826231666667354
 21
47.530734999996071
  0
LINE
  8
_1-8_小物
  6
CONTINUOUS
 62
    4
 10
-50.826231666667354
 20
47.530734999996071
 11
-50.791341666667449
 21
46.864981666662771
  0
LINE
  8
_1-8_小物
  6
CONTINUOUS
 62
    4
 10
-50.791341666667449
 20
46.864981666662771
 11
-50.125588333334065
 21
46.899873333329452
  0
LINE
  8
_1-8_小物
  6
CONTINUOUS
 62
    4
 10
-50.212815000000603
 20
48.564254999996024
 11
-50.177925000000698
 21
47.898503333329501
  0
LINE
  8
_1-8_小物
  6
CONTINUOUS
 62
    4
 10
-50.913458333334177
 20
49.195118333329333
 11
-50.878568333333988
 21
48.529364999996034
  0
LINE
  8
_1-8_小物
  6
CONTINUOUS
 62
    4
 10
-50.878568333333988
 20
48.529364999996034
 11
-50.212815000000603
 21
48.564254999996024
  0
LINE
  8
_1-8_小物
  6
CONTINUOUS
 62
    4
 10
-50.333333333333997
 20
49.499999999996163
 11
-50.913458333334177
 21
49.195118333329333
  0
LINE
  8
_1-8_小物
  6
CONTINUOUS
 62
    4
 10
-53.469425000000683
 20
41.906724999996072
 11
-53.504315000000588
 21
41.240971666662773
  0
LINE
  8
_1-8_小物
  6
CONTINUOUS
 62
    4
 10
-53.41708833333405
 20
42.905354999996035
 11
-52.768781666667394
 21
42.537588333329381
  0
LINE
  8
_1-8_小物
  6
CONTINUOUS
 62
    4
 10
-52.768781666667394
 20
42.537588333329381
 11
-52.803671666667526
 21
41.871834999996082
  0
LINE
  8
_1-8_小物
  6
CONTINUOUS
 62
    4
 10
-52.803671666667526
 20
41.871834999996082
 11
-53.469425000000683
 21
41.906724999996072
  0
LINE
  8
_1-8_小物
  6
CONTINUOUS
 62
    4
 10
-53.382198333333747
 20
43.571108333329477
 11
-53.41708833333405
 21
42.905354999996035
  0
LINE
  8
_1-8_小物
  6
CONTINUOUS
 62
    4
 10
-53.329861666667512
 20
44.569736666662834
 11
-52.681555000000856
 21
44.201969999995868
  0
LINE
  8
_1-8_小物
  6
CONTINUOUS
 62
    4
 10
-52.681555000000856
 20
44.201969999995868
 11
-52.716445000000476
 21
43.536216666662796
  0
LINE
  8
_1-8_小物
  6
CONTINUOUS
 62
    4
 10
-52.716445000000476
 20
43.536216666662796
 11
-53.382198333333747
 21
43.571108333329477
  0
LINE
  8
_1-8_小物
  6
CONTINUOUS
 62
    4
 10
-53.294971666667607
 20
45.23548999999619
 11
-53.329861666667512
 21
44.569736666662834
  0
LINE
  8
_1-8_小物
  6
CONTINUOUS
 62
    4
 10
-53.242635000000973
 20
46.234119999995869
 11
-52.594328333334033
 21
45.866353333329499
  0
LINE
  8
_1-8_小物
  6
CONTINUOUS
 62
    4
 10
-52.594328333334033
 20
45.866353333329499
 11
-52.629218333333938
 21
45.200599999996143
  0
LINE
  8
_1-8_小物
  6
CONTINUOUS
 62
    4
 10
-52.629218333333938
 20
45.200599999996143
 11
-53.294971666667607
 21
45.23548999999619
  0
LINE
  8
_1-8_小物
  6
CONTINUOUS
 62
    4
 10
-53.207745000000671
 20
46.899873333329452
 11
-53.242635000000973
 21
46.234119999995869
  0
LINE
  8
_1-8_小物
  6
CONTINUOUS
 62
    4
 10
-53.15540833333381
 20
47.898503333329501
 11
-52.507101666667097
 21
47.530734999996071
  0
LINE
  8
_1-8_小物
  6
CONTINUOUS
 62
    4
 10
-52.507101666667097
 20
47.530734999996071
 11
-52.5419916666674
 21
46.864981666662771
  0
LINE
  8
_1-8_小物
  6
CONTINUOUS
 62
    4
 10
-52.5419916666674
 20
46.864981666662771
 11
-53.207745000000671
 21
46.899873333329452
  0
LINE
  8
_1-8_小物
  6
CONTINUOUS
 62
    4
 10
-53.120518333334132
 20
48.564254999996024
 11
-53.15540833333381
 21
47.898503333329501
  0
LINE
  8
_1-8_小物
  6
CONTINUOUS
 62
    4
 10
-52.419875000000559
 20
49.195118333329333
 11
-52.454765000000862
 21
48.529364999996034
  0
LINE
  8
_1-8_小物
  6
CONTINUOUS
 62
    4
 10
-52.454765000000862
 20
48.529364999996034
 11
-53.120518333334132
 21
48.564254999996024
  0
LINE
  8
_1-8_小物
  6
CONTINUOUS
 62
    4
 10
-51.686435000000586
 20
41.519768333329353
 11
-51.041868333334151
 21
42.091658333329434
  0
LINE
  8
_1-8_小物
  6
CONTINUOUS
 62
    4
 10
-52.289815000000829
 20
42.123146666662819
 11
-51.666666666667027
 21
41.499999999996021
  0
LINE
  8
_1-8_小物
  6
CONTINUOUS
 62
    4
 10
-53.000000000000455
 20
49.499999999996163
 11
-52.419875000000559
 21
49.195118333329333
  0
LINE
  8
_1-8_小物
  6
CONTINUOUS
 62
    4
 10
-50.125588333334065
 20
46.899873333329452
 11
-49.560466666667537
 21
48.452533333329285
  0
LINE
  8
_1-8_小物
  6
CONTINUOUS
 62
    4
 10
-50.48031500000053
 20
46.899873333329452
 11
-49.873696666667286
 21
48.566539999996053
  0
LINE
  8
_1-8_小物
  6
CONTINUOUS
 62
    4
 10
-53.207745000000671
 20
46.899873333329452
 11
-53.772866666667198
 21
48.452533333329285
  0
LINE
  8
_1-8_小物
  6
CONTINUOUS
 62
    4
 10
-52.853018333334205
 20
46.899873333329452
 11
-53.45963666666745
 21
48.566539999996053
  0
LINE
  8
_1-8_小物
  6
CONTINUOUS
 62
    4
 10
-50.994085000000723
 20
41.179913333329324
 11
-49.829018333334261
 21
41.240971666662773
  0
LINE
  8
_1-8_小物
  6
CONTINUOUS
 62
    4
 10
-49.829018333334261
 20
41.240971666662773
 11
-50.459880000000794
 21
40.540328333329512
  0
LINE
  8
_1-8_小物
  6
CONTINUOUS
 62
    4
 10
-50.459880000000794
 20
40.540328333329512
 11
-50.95919500000042
 21
40.514159999995968
  0
LINE
  8
_1-8_小物
  6
CONTINUOUS
 62
    4
 10
-50.95919500000042
 20
40.514159999995968
 11
-51.500000000000455
 21
50.833333333329279
  0
LINE
  8
_1-8_小物
  6
CONTINUOUS
 62
    4
 10
-50.333333333333997
 20
49.499999999996163
 11
-50.333333333333997
 21
50.833333333329279
  0
LINE
  8
_1-8_小物
  6
CONTINUOUS
 62
    4
 10
-52.339248333334126
 20
41.179913333329324
 11
-53.504315000000588
 21
41.240971666662773
  0
LINE
  8
_1-8_小物
  6
CONTINUOUS
 62
    4
 10
-53.504315000000588
 20
41.240971666662773
 11
-52.873453333334055
 21
40.540328333329512
  0
LINE
  8
_1-8_小物
  6
CONTINUOUS
 62
    4
 10
-52.873453333334055
 20
40.540328333329512
 11
-52.374138333334031
 21
40.514159999995968
  0
LINE
  8
_1-8_小物
  6
CONTINUOUS
 62
    4
 10
-52.374138333334031
 20
40.514159999995968
 11
-51.833333333333997
 21
50.833333333329279
  0
LINE
  8
_1-8_小物
  6
CONTINUOUS
 62
    4
 10
-53.000000000000455
 20
49.499999999996163
 11
-53.000000000000455
 21
50.833333333329279
  0
LINE
  8
_1-8_小物
  6
CONTINUOUS
 62
    4
 10
-53.772866666667198
 20
48.452533333329285
 11
-54.103651666667304
 21
50.720406666662967
  0
ARC
  8
_1-8_小物
  6
CONTINUOUS
 62
    4
 10
-53.971715000000643
 20
50.73965166666278
 40
0.1333333333333333
 50
98.130101999965902
 51
188.29846600001105
  0
LINE
  8
_1-8_小物
  6
CONTINUOUS
 62
    4
 10
-53.99057166666762
 20
50.871644999996107
 11
-53.924963333333892
 21
50.881016666662873
  0
ARC
  8
_1-8_小物
  6
CONTINUOUS
 62
    4
 10
-53.906106666667085
 20
50.749023333329461
 40
0.1333333333333333
 50
8.1301020000280779
 51
98.130102000226714
  0
LINE
  8
_1-8_小物
  6
CONTINUOUS
 62
    4
 10
-53.774113333333901
 20
50.76787999999604
 11
-53.45963666666745
 21
48.566539999996053
  0
LINE
  8
_1-8_小物
  6
CONTINUOUS
 62
    4
 10
-49.560466666667537
 20
48.452533333329285
 11
-49.229681666667432
 21
50.720406666662967
  0
ARC
  8
_1-8_小物
  6
CONTINUOUS
 62
    4
 10
-49.361618333334093
 20
50.73965166666278
 40
0.1333333333333333
 50
351.70153399996303
 51
81.869898000046192
  0
LINE
  8
_1-8_小物
  6
CONTINUOUS
 62
    4
 10
-49.342763333334062
 20
50.871644999996107
 11
-49.408370000000843
 21
50.881016666662873
  0
ARC
  8
_1-8_小物
  6
CONTINUOUS
 62
    4
 10
-49.427226666667138
 20
50.749023333329461
 40
0.1333333333333333
 50
81.869898000046192
 51
171.86989800000993
  0
LINE
  8
_1-8_小物
  6
CONTINUOUS
 62
    4
 10
-49.559220000000835
 20
50.76787999999604
 11
-49.873696666667286
 21
48.566539999996053
  0
LINE
  8
_1-8_小物
  6
CONTINUOUS
 62
    4
 10
-49.560466666667537
 20
48.452533333329285
 11
-49.229681666667432
 21
50.720406666662967
  0
ARC
  8
_1-8_小物
  6
CONTINUOUS
 62
    4
 10
-49.361618333334093
 20
50.73965166666278
 40
0.1333333333333333
 50
351.70153399996303
 51
81.869898000046192
  0
LINE
  8
_1-8_小物
  6
CONTINUOUS
 62
    4
 10
-49.342763333334062
 20
50.871644999996107
 11
-49.408370000000843
 21
50.881016666662873
  0
ARC
  8
_1-8_小物
  6
CONTINUOUS
 62
    4
 10
-49.427226666667138
 20
50.749023333329461
 40
0.1333333333333333
 50
81.869898000046192
 51
171.86989800000993
  0
LINE
  8
_1-8_小物
  6
CONTINUOUS
 62
    4
 10
-49.559220000000835
 20
50.76787999999604
 11
-49.873696666667286
 21
48.566539999996053
  0
LINE
  8
_1-8_小物
  6
CONTINUOUS
 62
    4
 10
-50.000000000000455
 20
53.499999999996163
 11
-50.333333333333997
 21
51.833333333329506
  0
LINE
  8
_1-8_小物
  6
CONTINUOUS
 62
    4
 10
-50.333333333333997
 20
53.499999999996163
 11
-50.333333333333997
 21
50.833333333329279
  0
LINE
  8
_1-8_小物
  6
CONTINUOUS
 62
    4
 10
-51.500000000000455
 20
50.833333333329279
 11
-51.666666666667027
 21
50.833333333329279
  0
LINE
  8
_1-8_小物
  6
CONTINUOUS
 62
    4
 10
-51.666666666667027
 20
51.833333333329506
 11
-51.666666666667027
 21
53.499999999996163
  0
LINE
  8
_1-8_小物
  6
CONTINUOUS
 62
    4
 10
-51.333333333333997
 20
53.499999999996163
 11
-51.666666666667027
 21
51.833333333329506
  0
LINE
  8
_1-8_小物
  6
CONTINUOUS
 62
    4
 10
-52.000000000000739
 20
53.499999999996163
 11
-51.666666666667027
 21
51.833333333329506
  0
LINE
  8
_1-8_小物
  6
CONTINUOUS
 62
    4
 10
-53.333333333333769
 20
53.499999999996163
 11
-53.000000000000455
 21
51.833333333329506
  0
LINE
  8
_1-8_小物
  6
CONTINUOUS
 62
    4
 10
-53.000000000000455
 20
53.499999999996163
 11
-53.000000000000455
 21
50.833333333329279
  0
LINE
  8
_1-8_小物
  6
CONTINUOUS
 62
    4
 10
-51.833333333333997
 20
50.833333333329279
 11
-51.666666666667027
 21
50.833333333329279
  0
LINE
  8
_1-8_小物
  6
CONTINUOUS
 62
    4
 10
-50.000000000000455
 20
53.499999999996163
 11
-53.333333333333769
 21
53.499999999996163
  0
ENDBLK
  0
BLOCK
  2
-025-_20_
 70
   64
 10
0
 20
0
 30
0
  0
LINE
  8
_1-8_小物
  6
CONTINUOUS
 62
    4
 10
-48.666666666667027
 20
56.833333333329449
 11
-54.666666666667311
 21
56.833333333329449
  0
LINE
  8
_1-8_小物
  6
CONTINUOUS
 62
    4
 10
-48.666666666667027
 20
56.333333333329449
 11
-54.666666666667311
 21
56.333333333329449
  0
LINE
  8
_1-8_小物
  6
CONTINUOUS
 62
    4
 10
-48.666666666667027
 20
56.833333333329449
 11
-48.666666666667027
 21
56.333333333329449
  0
LINE
  8
_1-8_小物
  6
CONTINUOUS
 62
    4
 10
-54.666666666667311
 20
56.833333333329449
 11
-54.666666666667311
 21
56.333333333329449
  0
LINE
  8
_1-8_小物
  6
CONTINUOUS
 62
    4
 10
-50.750000000000341
 20
56.833333333329449
 11
-50.750000000000341
 21
56.333333333329449
  0
LINE
  8
_1-8_小物
  6
CONTINUOUS
 62
    4
 10
-52.583333333333997
 20
56.833333333329449
 11
-52.583333333333997
 21
56.333333333329449
  0
LINE
  8
_1-8_小物
  6
CONTINUOUS
 62
    4
 10
-50.166666666667027
 20
56.833333333329449
 11
-50.202970927933904
 21
57.248292938329485
  0
LINE
  8
_1-8_小物
  6
CONTINUOUS
 62
    4
 10
-53.130362405433857
 20
57.248292938329485
 11
-53.166666666667027
 21
56.833333333329449
  0
ARC
  8
_1-8_小物
  6
CONTINUOUS
 62
    4
 10
-52.801618155034134
 20
57.21953154322938
 40
0.3299999999999999
 50
127.36755803205445
 51
175.00000000119914
  0
ARC
  8
_1-8_小物
  6
CONTINUOUS
 62
    4
 10
-50.531715178300487
 20
57.21953154322938
 40
0.3299999999999999
 50
4.999999998801286
 51
52.632441967949475
  0
ARC
  8
_1-8_小物
  6
CONTINUOUS
 62
    4
 10
-51.666666666667311
 20
55.733333333329426
 40
2.1999999999999997
 50
52.632441967704935
 51
68.266383543398447
  0
ARC
  8
_1-8_小物
  6
CONTINUOUS
 62
    4
 10
-51.666666666667311
 20
55.733333333329426
 40
2.1999999999999997
 50
111.74840859090331
 51
127.36755803230515
  0
LINE
  8
_1-8_小物
  6
CONTINUOUS
 62
    4
 10
-51.561666666667236
 20
57.919709043196178
 11
-51.561666666667236
 21
57.77443741319604
  0
LINE
  8
_1-8_小物
  6
CONTINUOUS
 62
    4
 10
-51.445903772700206
 20
57.919709043196178
 11
-51.561666666667236
 21
57.919709043196178
  0
LINE
  8
_1-8_小物
  6
CONTINUOUS
 62
    4
 10
-50.852498910500628
 20
57.77443741319604
 11
-51.445903772700206
 21
57.919709043196178
  0
LINE
  8
_1-8_小物
  6
CONTINUOUS
 62
    4
 10
-51.887429560667272
 20
57.919709043196178
 11
-52.320732983233995
 21
57.831230436062867
  0
LINE
  8
_1-8_小物
  6
CONTINUOUS
 62
    4
 10
-52.320732983233995
 20
57.831230436062867
 11
-52.480834422866849
 21
57.77443741319604
  0
LINE
  8
_1-8_小物
  6
CONTINUOUS
 62
    4
 10
-51.771666666667272
 20
57.919709043196178
 11
-51.887429560667272
 21
57.919709043196178
  0
LINE
  8
_1-8_小物
  6
CONTINUOUS
 62
    4
 10
-51.771666666667272
 20
57.77443741319604
 11
-51.771666666667272
 21
57.919709043196178
  0
LINE
  8
_1-8_小物
  6
CONTINUOUS
 62
    4
 10
-51.561666666667236
 20
57.77443741319604
 11
-51.666666666667311
 21
57.776139137996154
  0
LINE
  8
_1-8_小物
  6
CONTINUOUS
 62
    4
 10
-51.666666666667311
 20
57.776139137996154
 11
-51.771666666667272
 21
57.77443741319604
  0
LINE
  8
_1-8_小物
  6
CONTINUOUS
 62
    4
 10
-50.202970927933904
 20
57.248292938329485
 11
-53.130362405433857
 21
57.248292938329485
  0
LINE
  8
_1-8_小物
  6
CONTINUOUS
 62
    4
 10
-51.666666666667311
 20
57.481801815562847
 11
-53.001903711833961
 21
57.481801815562847
  0
LINE
  8
_1-8_小物
  6
CONTINUOUS
 62
    4
 10
-50.3314296215338
 20
57.481801815562847
 11
-51.666666666667311
 21
57.481801815562847
  0
ENDBLK
  0
BLOCK
  2
-026-_21_
 70
   64
 10
0
 20
0
 30
0
  0
LINE
  8
_1-8_小物
  6
CONTINUOUS
 62
    4
 10
-150.13609166666623
 20
41.906724999996072
 11
-150.17098166666574
 21
41.240971666662773
  0
LINE
  8
_1-8_小物
  6
CONTINUOUS
 62
    4
 10
-150.0837549999992
 20
42.905354999996035
 11
-149.43544833333266
 21
42.537588333329381
  0
LINE
  8
_1-8_小物
  6
CONTINUOUS
 62
    4
 10
-149.43544833333266
 20
42.537588333329381
 11
-149.47033833333279
 21
41.871834999996082
  0
LINE
  8
_1-8_小物
  6
CONTINUOUS
 62
    4
 10
-149.47033833333279
 20
41.871834999996082
 11
-150.13609166666623
 21
41.906724999996072
  0
LINE
  8
_1-8_小物
  6
CONTINUOUS
 62
    4
 10
-150.0488649999993
 20
43.571108333329477
 11
-150.0837549999992
 21
42.905354999996035
  0
LINE
  8
_1-8_小物
  6
CONTINUOUS
 62
    4
 10
-149.99652833333266
 20
44.569736666662834
 11
-149.34822166666572
 21
44.201969999995868
  0
LINE
  8
_1-8_小物
  6
CONTINUOUS
 62
    4
 10
-149.34822166666572
 20
44.201969999995868
 11
-149.38311166666603
 21
43.536216666662796
  0
LINE
  8
_1-8_小物
  6
CONTINUOUS
 62
    4
 10
-149.38311166666603
 20
43.536216666662796
 11
-150.0488649999993
 21
43.571108333329477
  0
LINE
  8
_1-8_小物
  6
CONTINUOUS
 62
    4
 10
-149.96163833333247
 20
45.23548999999619
 11
-149.99652833333266
 21
44.569736666662834
  0
LINE
  8
_1-8_小物
  6
CONTINUOUS
 62
    4
 10
-149.90930166666612
 20
46.234119999995869
 11
-149.26099499999958
 21
45.866353333329499
  0
LINE
  8
_1-8_小物
  6
CONTINUOUS
 62
    4
 10
-149.26099499999958
 20
45.866353333329499
 11
-149.29588499999909
 21
45.200599999996143
  0
LINE
  8
_1-8_小物
  6
CONTINUOUS
 62
    4
 10
-149.29588499999909
 20
45.200599999996143
 11
-149.96163833333247
 21
45.23548999999619
  0
LINE
  8
_1-8_小物
  6
CONTINUOUS
 62
    4
 10
-149.87441166666594
 20
46.899873333329452
 11
-149.90930166666612
 21
46.234119999995869
  0
LINE
  8
_1-8_小物
  6
CONTINUOUS
 62
    4
 10
-149.8220749999993
 20
47.898503333329501
 11
-149.17376833333265
 21
47.530734999996071
  0
LINE
  8
_1-8_小物
  6
CONTINUOUS
 62
    4
 10
-149.17376833333265
 20
47.530734999996071
 11
-149.20865833333255
 21
46.864981666662771
  0
LINE
  8
_1-8_小物
  6
CONTINUOUS
 62
    4
 10
-149.20865833333255
 20
46.864981666662771
 11
-149.87441166666594
 21
46.899873333329452
  0
LINE
  8
_1-8_小物
  6
CONTINUOUS
 62
    4
 10
-149.7871849999994
 20
48.564254999996024
 11
-149.8220749999993
 21
47.898503333329501
  0
LINE
  8
_1-8_小物
  6
CONTINUOUS
 62
    4
 10
-149.08654166666582
 20
49.195118333329333
 11
-149.12143166666601
 21
48.529364999996034
  0
LINE
  8
_1-8_小物
  6
CONTINUOUS
 62
    4
 10
-149.12143166666601
 20
48.529364999996034
 11
-149.7871849999994
 21
48.564254999996024
  0
LINE
  8
_1-8_小物
  6
CONTINUOUS
 62
    4
 10
-149.666666666666
 20
49.499999999996163
 11
-149.08654166666582
 21
49.195118333329333
  0
LINE
  8
_1-8_小物
  6
CONTINUOUS
 62
    4
 10
-146.53057499999932
 20
41.906724999996072
 11
-146.49568499999941
 21
41.240971666662773
  0
LINE
  8
_1-8_小物
  6
CONTINUOUS
 62
    4
 10
-146.58291166666595
 20
42.905354999996035
 11
-147.23121833333261
 21
42.537588333329381
  0
LINE
  8
_1-8_小物
  6
CONTINUOUS
 62
    4
 10
-147.23121833333261
 20
42.537588333329381
 11
-147.19632833333247
 21
41.871834999996082
  0
LINE
  8
_1-8_小物
  6
CONTINUOUS
 62
    4
 10
-147.19632833333247
 20
41.871834999996082
 11
-146.53057499999932
 21
41.906724999996072
  0
LINE
  8
_1-8_小物
  6
CONTINUOUS
 62
    4
 10
-146.61780166666625
 20
43.571108333329477
 11
-146.58291166666595
 21
42.905354999996035
  0
LINE
  8
_1-8_小物
  6
CONTINUOUS
 62
    4
 10
-146.67013833333249
 20
44.569736666662834
 11
-147.31844499999914
 21
44.201969999995868
  0
LINE
  8
_1-8_小物
  6
CONTINUOUS
 62
    4
 10
-147.31844499999914
 20
44.201969999995868
 11
-147.28355499999952
 21
43.536216666662796
  0
LINE
  8
_1-8_小物
  6
CONTINUOUS
 62
    4
 10
-147.28355499999952
 20
43.536216666662796
 11
-146.61780166666625
 21
43.571108333329477
  0
LINE
  8
_1-8_小物
  6
CONTINUOUS
 62
    4
 10
-146.70502833333239
 20
45.23548999999619
 11
-146.67013833333249
 21
44.569736666662834
  0
LINE
  8
_1-8_小物
  6
CONTINUOUS
 62
    4
 10
-146.75736499999903
 20
46.234119999995869
 11
-147.40567166666597
 21
45.866353333329499
  0
LINE
  8
_1-8_小物
  6
CONTINUOUS
 62
    4
 10
-147.40567166666597
 20
45.866353333329499
 11
-147.37078166666606
 21
45.200599999996143
  0
LINE
  8
_1-8_小物
  6
CONTINUOUS
 62
    4
 10
-147.37078166666606
 20
45.200599999996143
 11
-146.70502833333239
 21
45.23548999999619
  0
LINE
  8
_1-8_小物
  6
CONTINUOUS
 62
    4
 10
-146.79225499999933
 20
46.899873333329452
 11
-146.75736499999903
 21
46.234119999995869
  0
LINE
  8
_1-8_小物
  6
CONTINUOUS
 62
    4
 10
-146.84459166666619
 20
47.898503333329501
 11
-147.4928983333329
 21
47.530734999996071
  0
LINE
  8
_1-8_小物
  6
CONTINUOUS
 62
    4
 10
-147.4928983333329
 20
47.530734999996071
 11
-147.4580083333326
 21
46.864981666662771
  0
LINE
  8
_1-8_小物
  6
CONTINUOUS
 62
    4
 10
-147.4580083333326
 20
46.864981666662771
 11
-146.79225499999933
 21
46.899873333329452
  0
LINE
  8
_1-8_小物
  6
CONTINUOUS
 62
    4
 10
-146.87948166666587
 20
48.564254999996024
 11
-146.84459166666619
 21
47.898503333329501
  0
LINE
  8
_1-8_小物
  6
CONTINUOUS
 62
    4
 10
-147.58012499999944
 20
49.195118333329333
 11
-147.54523499999914
 21
48.529364999996034
  0
LINE
  8
_1-8_小物
  6
CONTINUOUS
 62
    4
 10
-147.54523499999914
 20
48.529364999996034
 11
-146.87948166666587
 21
48.564254999996024
  0
LINE
  8
_1-8_小物
  6
CONTINUOUS
 62
    4
 10
-148.31356499999941
 20
41.519768333329353
 11
-148.95813166666585
 21
42.091658333329434
  0
LINE
  8
_1-8_小物
  6
CONTINUOUS
 62
    4
 10
-147.71018499999917
 20
42.123146666662819
 11
-148.33333333333297
 21
41.499999999996021
  0
LINE
  8
_1-8_小物
  6
CONTINUOUS
 62
    4
 10
-146.99999999999955
 20
49.499999999996163
 11
-147.58012499999944
 21
49.195118333329333
  0
LINE
  8
_1-8_小物
  6
CONTINUOUS
 62
    4
 10
-149.87441166666594
 20
46.899873333329452
 11
-150.43953333333246
 21
48.452533333329285
  0
LINE
  8
_1-8_小物
  6
CONTINUOUS
 62
    4
 10
-149.51968499999947
 20
46.899873333329452
 11
-150.12630333333271
 21
48.566539999996053
  0
LINE
  8
_1-8_小物
  6
CONTINUOUS
 62
    4
 10
-146.79225499999933
 20
46.899873333329452
 11
-146.2271333333328
 21
48.452533333329285
  0
LINE
  8
_1-8_小物
  6
CONTINUOUS
 62
    4
 10
-147.14698166666579
 20
46.899873333329452
 11
-146.54036333333255
 21
48.566539999996053
  0
LINE
  8
_1-8_小物
  6
CONTINUOUS
 62
    4
 10
-149.00591499999928
 20
41.179913333329324
 11
-150.17098166666574
 21
41.240971666662773
  0
LINE
  8
_1-8_小物
  6
CONTINUOUS
 62
    4
 10
-150.17098166666574
 20
41.240971666662773
 11
-149.54011999999921
 21
40.540328333329512
  0
LINE
  8
_1-8_小物
  6
CONTINUOUS
 62
    4
 10
-149.54011999999921
 20
40.540328333329512
 11
-149.04080499999958
 21
40.514159999995968
  0
LINE
  8
_1-8_小物
  6
CONTINUOUS
 62
    4
 10
-149.04080499999958
 20
40.514159999995968
 11
-148.49999999999955
 21
50.833333333329279
  0
LINE
  8
_1-8_小物
  6
CONTINUOUS
 62
    4
 10
-149.666666666666
 20
49.499999999996163
 11
-149.666666666666
 21
50.833333333329279
  0
LINE
  8
_1-8_小物
  6
CONTINUOUS
 62
    4
 10
-147.66075166666587
 20
41.179913333329324
 11
-146.49568499999941
 21
41.240971666662773
  0
LINE
  8
_1-8_小物
  6
CONTINUOUS
 62
    4
 10
-146.49568499999941
 20
41.240971666662773
 11
-147.12654666666594
 21
40.540328333329512
  0
LINE
  8
_1-8_小物
  6
CONTINUOUS
 62
    4
 10
-147.12654666666594
 20
40.540328333329512
 11
-147.62586166666597
 21
40.514159999995968
  0
LINE
  8
_1-8_小物
  6
CONTINUOUS
 62
    4
 10
-147.62586166666597
 20
40.514159999995968
 11
-148.166666666666
 21
50.833333333329279
  0
LINE
  8
_1-8_小物
  6
CONTINUOUS
 62
    4
 10
-146.99999999999955
 20
49.499999999996163
 11
-146.99999999999955
 21
50.833333333329279
  0
LINE
  8
_1-8_小物
  6
CONTINUOUS
 62
    4
 10
-146.2271333333328
 20
48.452533333329285
 11
-145.8963483333327
 21
50.720406666662967
  0
ARC
  8
_1-8_小物
  6
CONTINUOUS
 62
    4
 10
-146.02828499999936
 20
50.73965166666278
 40
0.1333333333333333
 50
351.70153399998719
 51
81.869898000046192
  0
LINE
  8
_1-8_小物
  6
CONTINUOUS
 62
    4
 10
-146.00942833333238
 20
50.871644999996107
 11
-146.07503666666611
 21
50.881016666662873
  0
ARC
  8
_1-8_小物
  6
CONTINUOUS
 62
    4
 10
-146.09389333333291
 20
50.749023333329461
 40
0.1333333333333333
 50
81.869897999785394
 51
171.86989799997193
  0
LINE
  8
_1-8_小物
  6
CONTINUOUS
 62
    4
 10
-146.2258866666661
 20
50.76787999999604
 11
-146.54036333333255
 21
48.566539999996053
  0
LINE
  8
_1-8_小物
  6
CONTINUOUS
 62
    4
 10
-150.43953333333246
 20
48.452533333329285
 11
-150.7703183333326
 21
50.720406666662967
  0
ARC
  8
_1-8_小物
  6
CONTINUOUS
 62
    4
 10
-150.63838166666591
 20
50.73965166666278
 40
0.1333333333333333
 50
98.130101999965902
 51
188.29846600003697
  0
LINE
  8
_1-8_小物
  6
CONTINUOUS
 62
    4
 10
-150.65723666666594
 20
50.871644999996107
 11
-150.59162999999916
 21
50.881016666662873
  0
ARC
  8
_1-8_小物
  6
CONTINUOUS
 62
    4
 10
-150.57277333333286
 20
50.749023333329461
 40
0.1333333333333333
 50
8.1301019999918065
 51
98.130101999965902
  0
LINE
  8
_1-8_小物
  6
CONTINUOUS
 62
    4
 10
-150.44077999999917
 20
50.76787999999604
 11
-150.12630333333271
 21
48.566539999996053
  0
LINE
  8
_1-8_小物
  6
CONTINUOUS
 62
    4
 10
-150.43953333333246
 20
48.452533333329285
 11
-150.7703183333326
 21
50.720406666662967
  0
ARC
  8
_1-8_小物
  6
CONTINUOUS
 62
    4
 10
-150.63838166666591
 20
50.73965166666278
 40
0.1333333333333333
 50
98.130101999965902
 51
188.29846600003697
  0
LINE
  8
_1-8_小物
  6
CONTINUOUS
 62
    4
 10
-150.65723666666594
 20
50.871644999996107
 11
-150.59162999999916
 21
50.881016666662873
  0
ARC
  8
_1-8_小物
  6
CONTINUOUS
 62
    4
 10
-150.57277333333286
 20
50.749023333329461
 40
0.1333333333333333
 50
8.1301019999918065
 51
98.130101999965902
  0
LINE
  8
_1-8_小物
  6
CONTINUOUS
 62
    4
 10
-150.44077999999917
 20
50.76787999999604
 11
-150.12630333333271
 21
48.566539999996053
  0
LINE
  8
_1-8_小物
  6
CONTINUOUS
 62
    4
 10
-149.99999999999955
 20
53.499999999996163
 11
-149.666666666666
 21
51.833333333329506
  0
LINE
  8
_1-8_小物
  6
CONTINUOUS
 62
    4
 10
-149.666666666666
 20
53.499999999996163
 11
-149.666666666666
 21
50.833333333329279
  0
LINE
  8
_1-8_小物
  6
CONTINUOUS
 62
    4
 10
-148.49999999999955
 20
50.833333333329279
 11
-148.33333333333297
 21
50.833333333329279
  0
LINE
  8
_1-8_小物
  6
CONTINUOUS
 62
    4
 10
-148.33333333333297
 20
51.833333333329506
 11
-148.33333333333297
 21
53.499999999996163
  0
LINE
  8
_1-8_小物
  6
CONTINUOUS
 62
    4
 10
-148.666666666666
 20
53.499999999996163
 11
-148.33333333333297
 21
51.833333333329506
  0
LINE
  8
_1-8_小物
  6
CONTINUOUS
 62
    4
 10
-147.99999999999926
 20
53.499999999996163
 11
-148.33333333333297
 21
51.833333333329506
  0
LINE
  8
_1-8_小物
  6
CONTINUOUS
 62
    4
 10
-146.66666666666623
 20
53.499999999996163
 11
-146.99999999999955
 21
51.833333333329506
  0
LINE
  8
_1-8_小物
  6
CONTINUOUS
 62
    4
 10
-146.99999999999955
 20
53.499999999996163
 11
-146.99999999999955
 21
50.833333333329279
  0
LINE
  8
_1-8_小物
  6
CONTINUOUS
 62
    4
 10
-148.166666666666
 20
50.833333333329279
 11
-148.33333333333297
 21
50.833333333329279
  0
LINE
  8
_1-8_小物
  6
CONTINUOUS
 62
    4
 10
-149.99999999999955
 20
53.499999999996163
 11
-146.66666666666623
 21
53.499999999996163
  0
ENDBLK
  0
BLOCK
  2
-027-_22_
 70
   64
 10
0
 20
0
 30
0
  0
LINE
  8
_1-8_小物
  6
CONTINUOUS
 62
    4
 10
-151.333333333333
 20
56.833333333329449
 11
-145.33333333333269
 21
56.833333333329449
  0
LINE
  8
_1-8_小物
  6
CONTINUOUS
 62
    4
 10
-151.333333333333
 20
56.333333333329449
 11
-145.33333333333269
 21
56.333333333329449
  0
LINE
  8
_1-8_小物
  6
CONTINUOUS
 62
    4
 10
-151.333333333333
 20
56.833333333329449
 11
-151.333333333333
 21
56.333333333329449
  0
LINE
  8
_1-8_小物
  6
CONTINUOUS
 62
    4
 10
-145.33333333333269
 20
56.833333333329449
 11
-145.33333333333269
 21
56.333333333329449
  0
LINE
  8
_1-8_小物
  6
CONTINUOUS
 62
    4
 10
-149.24999999999966
 20
56.833333333329449
 11
-149.24999999999966
 21
56.333333333329449
  0
LINE
  8
_1-8_小物
  6
CONTINUOUS
 62
    4
 10
-147.416666666666
 20
56.833333333329449
 11
-147.416666666666
 21
56.333333333329449
  0
LINE
  8
_1-8_小物
  6
CONTINUOUS
 62
    4
 10
-149.83333333333297
 20
56.833333333329449
 11
-149.7970290720661
 21
57.248292938329485
  0
LINE
  8
_1-8_小物
  6
CONTINUOUS
 62
    4
 10
-146.86963759456614
 20
57.248292938329485
 11
-146.83333333333297
 21
56.833333333329449
  0
ARC
  8
_1-8_小物
  6
CONTINUOUS
 62
    4
 10
-147.19838184496587
 20
57.21953154322938
 40
0.3299999999999999
 50
4.999999998801286
 51
52.63244196794556
  0
ARC
  8
_1-8_小物
  6
CONTINUOUS
 62
    4
 10
-149.46828482169951
 20
57.21953154322938
 40
0.3299999999999999
 50
127.36755803205445
 51
175.00000000119871
  0
ARC
  8
_1-8_小物
  6
CONTINUOUS
 62
    4
 10
-148.33333333333269
 20
55.733333333329426
 40
2.1999999999999997
 50
111.73361645660225
 51
127.36755803229566
  0
ARC
  8
_1-8_小物
  6
CONTINUOUS
 62
    4
 10
-148.33333333333269
 20
55.733333333329426
 40
2.1999999999999997
 50
52.632441967694866
 51
68.251591409097387
  0
LINE
  8
_1-8_小物
  6
CONTINUOUS
 62
    4
 10
-148.43833333333276
 20
57.919709043196178
 11
-148.43833333333276
 21
57.77443741319604
  0
LINE
  8
_1-8_小物
  6
CONTINUOUS
 62
    4
 10
-148.55409622729979
 20
57.919709043196178
 11
-148.43833333333276
 21
57.919709043196178
  0
LINE
  8
_1-8_小物
  6
CONTINUOUS
 62
    4
 10
-149.14750108949937
 20
57.77443741319604
 11
-148.55409622729979
 21
57.919709043196178
  0
LINE
  8
_1-8_小物
  6
CONTINUOUS
 62
    4
 10
-148.11257043933273
 20
57.919709043196178
 11
-147.679267016766
 21
57.831230436062867
  0
LINE
  8
_1-8_小物
  6
CONTINUOUS
 62
    4
 10
-147.679267016766
 20
57.831230436062867
 11
-147.51916557713315
 21
57.77443741319604
  0
LINE
  8
_1-8_小物
  6
CONTINUOUS
 62
    4
 10
-148.22833333333273
 20
57.919709043196178
 11
-148.11257043933273
 21
57.919709043196178
  0
LINE
  8
_1-8_小物
  6
CONTINUOUS
 62
    4
 10
-148.22833333333273
 20
57.77443741319604
 11
-148.22833333333273
 21
57.919709043196178
  0
LINE
  8
_1-8_小物
  6
CONTINUOUS
 62
    4
 10
-148.43833333333276
 20
57.77443741319604
 11
-148.33333333333269
 21
57.776139137996154
  0
LINE
  8
_1-8_小物
  6
CONTINUOUS
 62
    4
 10
-148.33333333333269
 20
57.776139137996154
 11
-148.22833333333273
 21
57.77443741319604
  0
LINE
  8
_1-8_小物
  6
CONTINUOUS
 62
    4
 10
-149.7970290720661
 20
57.248292938329485
 11
-146.86963759456614
 21
57.248292938329485
  0
LINE
  8
_1-8_小物
  6
CONTINUOUS
 62
    4
 10
-148.33333333333269
 20
57.481801815562847
 11
-146.99809628816604
 21
57.481801815562847
  0
LINE
  8
_1-8_小物
  6
CONTINUOUS
 62
    4
 10
-149.6685703784662
 20
57.481801815562847
 11
-148.33333333333269
 21
57.481801815562847
  0
ENDBLK
  0
BLOCK
  2
-028-_23_
 70
   64
 10
0
 20
0
 30
0
  0
LINE
  8
_1-4_フレ__ム
  6
CONTINUOUS
 62
    4
 10
91.833333333333314
 20
61.099999999999909
 11
91.666666666666515
 21
60.43333333333328
  0
LINE
  8
_1-4_フレ__ム
  6
CONTINUOUS
 62
    4
 10
91.666666666666515
 20
61.099999999999909
 11
91.833333333333314
 21
61.099999999999909
  0
LINE
  8
_1-4_フレ__ム
  6
CONTINUOUS
 62
    4
 10
91.666666666666515
 20
62.099999999999937
 11
91.666666666666515
 21
61.099999999999909
  0
ARC
  8
_1-4_フレ__ム
  6
CONTINUOUS
 62
    4
 10
92.166666666666515
 20
62.099999999999937
 40
0.5
 50
0
 51
180
  0
LINE
  8
_1-4_フレ__ム
  6
CONTINUOUS
 62
    4
 10
92.666666666666629
 20
61.099999999999909
 11
92.666666666666629
 21
62.099999999999937
  0
LINE
  8
_1-4_フレ__ム
  6
CONTINUOUS
 62
    4
 10
92.499999999999829
 20
61.099999999999909
 11
92.666666666666629
 21
61.099999999999909
  0
LINE
  8
_1-4_フレ__ム
  6
CONTINUOUS
 62
    4
 10
92.666666666666629
 20
60.43333333333328
 11
92.499999999999829
 21
61.099999999999909
  0
ARC
  8
_1-4_フレ__ム
  6
CONTINUOUS
 62
    4
 10
147.49999999999983
 20
62.499999999999886
 40
0.3333333333333333
 50
0
 51
90
  0
LINE
  8
_1-4_フレ__ム
  6
CONTINUOUS
 62
    4
 10
144.33333333333303
 20
62.833333333333172
 11
147.49999999999983
 21
62.833333333333172
  0
ARC
  8
_1-4_フレ__ム
  6
CONTINUOUS
 62
    4
 10
144.33333333333303
 20
63.499999999999915
 40
0.6666666666666666
 50
180
 51
270
  0
LINE
  8
_1-4_フレ__ム
  6
CONTINUOUS
 62
    4
 10
146.06666666666626
 20
63.666666666666515
 11
144.83333333333303
 21
63.666666666666515
  0
LINE
  8
_1-4_フレ__ム
  6
CONTINUOUS
 62
    4
 10
146.16666666666634
 20
63.566666666666521
 11
146.06666666666626
 21
63.666666666666515
  0
LINE
  8
_1-4_フレ__ム
  6
CONTINUOUS
 62
    4
 10
146.26666666666625
 20
63.666666666666515
 11
146.16666666666634
 21
63.566666666666521
  0
LINE
  8
_1-4_フレ__ム
  6
CONTINUOUS
 62
    4
 10
147.49999999999983
 20
63.666666666666515
 11
146.26666666666625
 21
63.666666666666515
  0
ARC
  8
_1-4_フレ__ム
  6
CONTINUOUS
 62
    4
 10
148.83333333333314
 20
62.666666666666572
 40
0.1666666666666666
 50
180
 51
270
  0
ARC
  8
_1-4_フレ__ム
  6
CONTINUOUS
 62
    4
 10
149.74999999999966
 20
64.749999999999915
 40
0.25
 50
0
 51
180
  0
LINE
  8
_1-4_フレ__ム
  6
CONTINUOUS
 62
    4
 10
149.99999999999983
 20
62.166666666666544
 11
149.99999999999983
 21
64.749999999999915
  0
ARC
  8
_1-4_フレ__ム
  6
CONTINUOUS
 62
    4
 10
149.83333333333303
 20
62.166666666666544
 40
0.1666666666666666
 50
270
 51
0
  0
LINE
  8
_1-4_フレ__ム
  6
CONTINUOUS
 62
    4
 10
148.99999999999966
 20
61.999999999999829
 11
149.83333333333303
 21
61.999999999999829
  0
ARC
  8
_1-4_フレ__ム
  6
CONTINUOUS
 62
    4
 10
148.99999999999966
 20
61.666666666666544
 40
0.3333333333333333
 50
90
 51
180
  0
LINE
  8
_1-4_フレ__ム
  6
CONTINUOUS
 62
    4
 10
111.76666666666671
 20
56.666666666666544
 11
111.66666666666652
 21
56.566666666666634
  0
LINE
  8
_1-4_フレ__ム
  6
CONTINUOUS
 62
    4
 10
116.66666666666652
 20
56.666666666666544
 11
111.76666666666671
 21
56.666666666666544
  0
ARC
  8
_1-4_フレ__ム
  6
CONTINUOUS
 62
    4
 10
91.999999999999829
 20
55.833333333333201
 40
0.3333333333333333
 50
180
 51
270
  0
ARC
  8
_1-4_フレ__ム
  6
CONTINUOUS
 62
    4
 10
93.666666666666515
 20
57.666666666666572
 40
1
 50
180
 51
270
  0
LINE
  8
_1-4_フレ__ム
  6
CONTINUOUS
 62
    4
 10
111.56666666666661
 20
56.666666666666544
 11
93.666666666666515
 21
56.666666666666544
  0
LINE
  8
_1-4_フレ__ム
  6
CONTINUOUS
 62
    4
 10
111.66666666666652
 20
56.566666666666634
 11
111.56666666666661
 21
56.666666666666544
  0
ARC
  8
_1-4_フレ__ム
  6
CONTINUOUS
 62
    4
 10
147.16666666666652
 20
56.999999999999829
 40
0.6666666666666666
 50
270
 51
0
  0
LINE
  8
_1-4_フレ__ム
  6
CONTINUOUS
 62
    4
 10
147.83333333333303
 20
62.499999999999886
 11
147.83333333333303
 21
56.999999999999829
  0
LINE
  8
_1-4_フレ__ム
  6
CONTINUOUS
 62
    4
 10
148.66666666666634
 20
55.5
 11
148.66666666666634
 21
61.666666666666544
  0
LINE
  8
_1-4_フレ__ム
  6
CONTINUOUS
 62
    4
 10
91.666666666666515
 20
60.43333333333328
 11
91.666666666666515
 21
55.833333333333201
  0
LINE
  8
_1-4_フレ__ム
  6
CONTINUOUS
 62
    4
 10
92.666666666666629
 20
57.666666666666572
 11
92.666666666666629
 21
60.43333333333328
  0
LINE
  8
_1-4_フレ__ム
  6
CONTINUOUS
 62
    4
 10
143.66666666666634
 20
64.166666666666544
 11
143.66666666666634
 21
63.499999999999915
  0
LINE
  8
_1-4_フレ__ム
  6
CONTINUOUS
 62
    4
 10
144.83333333333303
 20
64.166666666666544
 11
143.66666666666634
 21
64.166666666666544
  0
LINE
  8
_1-4_フレ__ム
  6
CONTINUOUS
 62
    4
 10
144.83333333333303
 20
63.666666666666515
 11
144.83333333333303
 21
64.166666666666544
  0
LINE
  8
_1-4_フレ__ム
  6
CONTINUOUS
 62
    4
 10
147.49999999999983
 20
64.166666666666544
 11
147.49999999999983
 21
63.666666666666515
  0
LINE
  8
_1-4_フレ__ム
  6
CONTINUOUS
 62
    4
 10
148.66666666666634
 20
64.166666666666544
 11
147.49999999999983
 21
64.166666666666544
  0
LINE
  8
_1-4_フレ__ム
  6
CONTINUOUS
 62
    4
 10
148.66666666666634
 20
62.666666666666572
 11
148.66666666666634
 21
64.166666666666544
  0
LINE
  8
_1-4_フレ__ム
  6
CONTINUOUS
 62
    4
 10
149.49999999999966
 20
62.499999999999886
 11
148.83333333333314
 21
62.499999999999886
  0
LINE
  8
_1-4_フレ__ム
  6
CONTINUOUS
 62
    4
 10
149.49999999999966
 20
64.749999999999915
 11
149.49999999999966
 21
62.499999999999886
  0
ARC
  8
_1-4_フレ__ム
  6
CONTINUOUS
 62
    4
 10
92.166666666666515
 20
62.099999999999909
 40
0.5
 50
0
 51
180
  0
LINE
  8
_1-4_フレ__ム
  6
CENTER2
 62
    4
 10
146.16666666666652
 20
64.666666666666515
 11
146.16666666666652
 21
61.833333333333172
  0
LINE
  8
_1-4_フレ__ム
  6
CONTINUOUS
 62
    4
 10
138.33333333333314
 20
56.233333333333121
 11
138.23333333333323
 21
56.333333333333314
  0
LINE
  8
_1-4_フレ__ム
  6
CONTINUOUS
 62
    4
 10
138.43333333333305
 20
56.333333333333314
 11
138.33333333333314
 21
56.233333333333121
  0
LINE
  8
_1-4_フレ__ム
  6
CONTINUOUS
 62
    4
 10
147.16666666666652
 20
56.333333333333314
 11
138.43333333333305
 21
56.333333333333314
  0
LINE
  8
_1-4_フレ__ム
  6
CONTINUOUS
 62
    4
 10
138.23333333333323
 20
56.333333333333314
 11
117.49999999999983
 21
56.333333333333314
  0
LINE
  8
_1-4_フレ__ム
  6
CONTINUOUS
 62
    4
 10
116.66666666666652
 20
56.666666666666544
 11
117.49999999999983
 21
56.333333333333314
  0
LINE
  8
_1-4_フレ__ム
  6
CENTER2
 62
    4
 10
111.66666666666663
 20
53.833333333333314
 11
111.66666666666663
 21
58.333333333333201
  0
LINE
  8
_1-4_フレ__ム
  6
CENTER2
 62
    4
 10
138.33333333333269
 20
53.833333333333314
 11
138.33333333333269
 21
58
  0
LINE
  8
_1-4_フレ__ム
  6
CONTINUOUS
 62
    4
 10
91.983333333333235
 20
55.5
 11
148.66666666666634
 21
55.5
  0
LINE
  8
_1-4_フレ__ム
  6
DASHED1
 62
    4
 10
109.16666666666663
 20
55.5
 11
109.16666666666663
 21
56.666666666666657
  0
LINE
  8
_1-4_フレ__ム
  6
DASHED1
 62
    4
 10
114.16666666666663
 20
55.5
 11
114.16666666666663
 21
56.666666666666657
  0
LINE
  8
_1-4_フレ__ム
  6
DASHED1
 62
    4
 10
135.83333333333269
 20
55.5
 11
135.83333333333269
 21
56.333333333333314
  0
LINE
  8
_1-4_フレ__ム
  6
DASHED1
 62
    4
 10
140.83333333333269
 20
55.5
 11
140.83333333333269
 21
56.333333333333314
  0
ENDBLK
  0
BLOCK
  2
-029-_24_
 70
   64
 10
0
 20
0
 30
0
  0
LINE
  8
_1-8_小物
  6
CONTINUOUS
 62
    4
 10
140.13609166666595
 20
41.906724999999881
 11
140.17098166666551
 21
41.24097166666661
  0
LINE
  8
_1-8_小物
  6
CONTINUOUS
 62
    4
 10
140.08375499999897
 20
42.905354999999872
 11
139.43544833333237
 21
42.53758833333319
  0
LINE
  8
_1-8_小物
  6
CONTINUOUS
 62
    4
 10
139.43544833333237
 20
42.53758833333319
 11
139.47033833333251
 21
41.871834999999919
  0
LINE
  8
_1-8_小物
  6
CONTINUOUS
 62
    4
 10
139.47033833333251
 20
41.871834999999919
 11
140.13609166666595
 21
41.906724999999881
  0
LINE
  8
_1-8_小物
  6
CONTINUOUS
 62
    4
 10
140.04886499999907
 20
43.571108333333314
 11
140.08375499999897
 21
42.905354999999872
  0
LINE
  8
_1-8_小物
  6
CONTINUOUS
 62
    4
 10
139.99652833333244
 20
44.569736666666643
 11
139.34822166666549
 21
44.201969999999676
  0
LINE
  8
_1-8_小物
  6
CONTINUOUS
 62
    4
 10
139.34822166666549
 20
44.201969999999676
 11
139.38311166666574
 21
43.536216666666633
  0
LINE
  8
_1-8_小物
  6
CONTINUOUS
 62
    4
 10
139.38311166666574
 20
43.536216666666633
 11
140.04886499999907
 21
43.571108333333314
  0
LINE
  8
_1-8_小物
  6
CONTINUOUS
 62
    4
 10
139.96163833333219
 20
45.235490000000027
 11
139.99652833333244
 21
44.569736666666643
  0
LINE
  8
_1-8_小物
  6
CONTINUOUS
 62
    4
 10
139.9093016666659
 20
46.234119999999677
 11
139.2609949999993
 21
45.866353333333336
  0
LINE
  8
_1-8_小物
  6
CONTINUOUS
 62
    4
 10
139.2609949999993
 20
45.866353333333336
 11
139.29588499999886
 21
45.200599999999952
  0
LINE
  8
_1-8_小物
  6
CONTINUOUS
 62
    4
 10
139.29588499999886
 20
45.200599999999952
 11
139.96163833333219
 21
45.235490000000027
  0
LINE
  8
_1-8_小物
  6
CONTINUOUS
 62
    4
 10
139.87441166666565
 20
46.899873333333289
 11
139.9093016666659
 21
46.234119999999677
  0
LINE
  8
_1-8_小物
  6
CONTINUOUS
 62
    4
 10
139.82207499999902
 20
47.898503333333338
 11
139.17376833333242
 21
47.530734999999879
  0
LINE
  8
_1-8_小物
  6
CONTINUOUS
 62
    4
 10
139.17376833333242
 20
47.530734999999879
 11
139.20865833333232
 21
46.864981666666608
  0
LINE
  8
_1-8_小物
  6
CONTINUOUS
 62
    4
 10
139.20865833333232
 20
46.864981666666608
 11
139.87441166666565
 21
46.899873333333289
  0
LINE
  8
_1-8_小物
  6
CONTINUOUS
 62
    4
 10
139.78718499999911
 20
48.564254999999832
 11
139.82207499999902
 21
47.898503333333338
  0
LINE
  8
_1-8_小物
  6
CONTINUOUS
 62
    4
 10
139.08654166666554
 20
49.195118333333141
 11
139.12143166666579
 21
48.529364999999871
  0
LINE
  8
_1-8_小物
  6
CONTINUOUS
 62
    4
 10
139.12143166666579
 20
48.529364999999871
 11
139.78718499999911
 21
48.564254999999832
  0
LINE
  8
_1-8_小物
  6
CONTINUOUS
 62
    4
 10
139.66666666666572
 20
49.5
 11
139.08654166666554
 21
49.195118333333141
  0
LINE
  8
_1-8_小物
  6
CONTINUOUS
 62
    4
 10
136.53057499999909
 20
41.906724999999881
 11
136.49568499999918
 21
41.24097166666661
  0
LINE
  8
_1-8_小物
  6
CONTINUOUS
 62
    4
 10
136.58291166666572
 20
42.905354999999872
 11
137.23121833333232
 21
42.53758833333319
  0
LINE
  8
_1-8_小物
  6
CONTINUOUS
 62
    4
 10
137.23121833333232
 20
42.53758833333319
 11
137.19632833333219
 21
41.871834999999919
  0
LINE
  8
_1-8_小物
  6
CONTINUOUS
 62
    4
 10
137.19632833333219
 20
41.871834999999919
 11
136.53057499999909
 21
41.906724999999881
  0
LINE
  8
_1-8_小物
  6
CONTINUOUS
 62
    4
 10
136.61780166666597
 20
43.571108333333314
 11
136.58291166666572
 21
42.905354999999872
  0
LINE
  8
_1-8_小物
  6
CONTINUOUS
 62
    4
 10
136.67013833333226
 20
44.569736666666643
 11
137.31844499999886
 21
44.201969999999676
  0
LINE
  8
_1-8_小物
  6
CONTINUOUS
 62
    4
 10
137.31844499999886
 20
44.201969999999676
 11
137.2835549999993
 21
43.536216666666633
  0
LINE
  8
_1-8_小物
  6
CONTINUOUS
 62
    4
 10
137.2835549999993
 20
43.536216666666633
 11
136.61780166666597
 21
43.571108333333314
  0
LINE
  8
_1-8_小物
  6
CONTINUOUS
 62
    4
 10
136.70502833333217
 20
45.235490000000027
 11
136.67013833333226
 21
44.569736666666643
  0
LINE
  8
_1-8_小物
  6
CONTINUOUS
 62
    4
 10
136.7573649999988
 20
46.234119999999677
 11
137.40567166666574
 21
45.866353333333336
  0
LINE
  8
_1-8_小物
  6
CONTINUOUS
 62
    4
 10
137.40567166666574
 20
45.866353333333336
 11
137.37078166666583
 21
45.200599999999952
  0
LINE
  8
_1-8_小物
  6
CONTINUOUS
 62
    4
 10
137.37078166666583
 20
45.200599999999952
 11
136.70502833333217
 21
45.235490000000027
  0
LINE
  8
_1-8_小物
  6
CONTINUOUS
 62
    4
 10
136.79225499999905
 20
46.899873333333289
 11
136.7573649999988
 21
46.234119999999677
  0
LINE
  8
_1-8_小物
  6
CONTINUOUS
 62
    4
 10
136.84459166666591
 20
47.898503333333338
 11
137.49289833333262
 21
47.530734999999879
  0
LINE
  8
_1-8_小物
  6
CONTINUOUS
 62
    4
 10
137.49289833333262
 20
47.530734999999879
 11
137.45800833333237
 21
46.864981666666608
  0
LINE
  8
_1-8_小物
  6
CONTINUOUS
 62
    4
 10
137.45800833333237
 20
46.864981666666608
 11
136.79225499999905
 21
46.899873333333289
  0
LINE
  8
_1-8_小物
  6
CONTINUOUS
 62
    4
 10
136.87948166666558
 20
48.564254999999832
 11
136.84459166666591
 21
47.898503333333338
  0
LINE
  8
_1-8_小物
  6
CONTINUOUS
 62
    4
 10
137.58012499999916
 20
49.195118333333141
 11
137.54523499999891
 21
48.529364999999871
  0
LINE
  8
_1-8_小物
  6
CONTINUOUS
 62
    4
 10
137.54523499999891
 20
48.529364999999871
 11
136.87948166666558
 21
48.564254999999832
  0
LINE
  8
_1-8_小物
  6
CONTINUOUS
 62
    4
 10
138.31356499999913
 20
41.519768333333161
 11
138.95813166666562
 21
42.091658333333271
  0
LINE
  8
_1-8_小物
  6
CONTINUOUS
 62
    4
 10
137.71018499999889
 20
42.123146666666628
 11
138.33333333333269
 21
41.499999999999829
  0
LINE
  8
_1-8_小物
  6
CONTINUOUS
 62
    4
 10
136.99999999999932
 20
49.5
 11
137.58012499999916
 21
49.195118333333141
  0
LINE
  8
_1-8_小物
  6
CONTINUOUS
 62
    4
 10
139.87441166666565
 20
46.899873333333289
 11
140.43953333333218
 21
48.452533333333122
  0
LINE
  8
_1-8_小物
  6
CONTINUOUS
 62
    4
 10
139.51968499999919
 20
46.899873333333289
 11
140.12630333333243
 21
48.566539999999861
  0
LINE
  8
_1-8_小物
  6
CONTINUOUS
 62
    4
 10
136.79225499999905
 20
46.899873333333289
 11
136.22713333333252
 21
48.452533333333122
  0
LINE
  8
_1-8_小物
  6
CONTINUOUS
 62
    4
 10
137.14698166666551
 20
46.899873333333289
 11
136.54036333333227
 21
48.566539999999861
  0
LINE
  8
_1-8_小物
  6
CONTINUOUS
 62
    4
 10
139.00591499999905
 20
41.179913333333161
 11
140.17098166666551
 21
41.24097166666661
  0
LINE
  8
_1-8_小物
  6
CONTINUOUS
 62
    4
 10
140.17098166666551
 20
41.24097166666661
 11
139.54011999999898
 21
40.540328333333321
  0
LINE
  8
_1-8_小物
  6
CONTINUOUS
 62
    4
 10
139.54011999999898
 20
40.540328333333321
 11
139.0408049999993
 21
40.514159999999777
  0
LINE
  8
_1-8_小物
  6
CONTINUOUS
 62
    4
 10
139.0408049999993
 20
40.514159999999777
 11
138.49999999999932
 21
50.833333333333087
  0
LINE
  8
_1-8_小物
  6
CONTINUOUS
 62
    4
 10
139.66666666666572
 20
49.5
 11
139.66666666666572
 21
50.833333333333087
  0
LINE
  8
_1-8_小物
  6
CONTINUOUS
 62
    4
 10
137.66075166666565
 20
41.179913333333161
 11
136.49568499999918
 21
41.24097166666661
  0
LINE
  8
_1-8_小物
  6
CONTINUOUS
 62
    4
 10
136.49568499999918
 20
41.24097166666661
 11
137.12654666666572
 21
40.540328333333321
  0
LINE
  8
_1-8_小物
  6
CONTINUOUS
 62
    4
 10
137.12654666666572
 20
40.540328333333321
 11
137.62586166666574
 21
40.514159999999777
  0
LINE
  8
_1-8_小物
  6
CONTINUOUS
 62
    4
 10
137.62586166666574
 20
40.514159999999777
 11
138.16666666666572
 21
50.833333333333087
  0
LINE
  8
_1-8_小物
  6
CONTINUOUS
 62
    4
 10
136.99999999999932
 20
49.5
 11
136.99999999999932
 21
50.833333333333087
  0
LINE
  8
_1-8_小物
  6
CONTINUOUS
 62
    4
 10
136.22713333333252
 20
48.452533333333122
 11
135.89634833333241
 21
50.720406666666804
  0
ARC
  8
_1-8_小物
  6
CONTINUOUS
 62
    4
 10
136.02828499999907
 20
50.739651666666589
 40
0.1333333333333333
 50
98.130101999939981
 51
188.29846599999718
  0
LINE
  8
_1-8_小物
  6
CONTINUOUS
 62
    4
 10
136.00942833333204
 20
50.871644999999944
 11
136.07503666666582
 21
50.88101666666671
  0
ARC
  8
_1-8_小物
  6
CONTINUOUS
 62
    4
 10
136.09389333333263
 20
50.749023333333298
 40
0.1333333333333333
 50
8.1301020000159863
 51
98.13010200021462
  0
LINE
  8
_1-8_小物
  6
CONTINUOUS
 62
    4
 10
136.22588666666582
 20
50.767879999999877
 11
136.54036333333227
 21
48.566539999999861
  0
LINE
  8
_1-8_小物
  6
CONTINUOUS
 62
    4
 10
140.43953333333218
 20
48.452533333333122
 11
140.77031833333228
 21
50.720406666666804
  0
ARC
  8
_1-8_小物
  6
CONTINUOUS
 62
    4
 10
140.63838166666562
 20
50.739651666666589
 40
0.1333333333333333
 50
351.70153399996303
 51
81.869898000035846
  0
LINE
  8
_1-8_小物
  6
CONTINUOUS
 62
    4
 10
140.65723666666565
 20
50.871644999999944
 11
140.59162999999887
 21
50.88101666666671
  0
ARC
  8
_1-8_小物
  6
CONTINUOUS
 62
    4
 10
140.57277333333263
 20
50.749023333333298
 40
0.1333333333333333
 50
81.869898000058299
 51
171.86989800000819
  0
LINE
  8
_1-8_小物
  6
CONTINUOUS
 62
    4
 10
140.44077999999888
 20
50.767879999999877
 11
140.12630333333243
 21
48.566539999999861
  0
LINE
  8
_1-8_小物
  6
CONTINUOUS
 62
    4
 10
140.43953333333218
 20
48.452533333333122
 11
140.77031833333228
 21
50.720406666666804
  0
ARC
  8
_1-8_小物
  6
CONTINUOUS
 62
    4
 10
140.63838166666562
 20
50.739651666666589
 40
0.1333333333333333
 50
351.70153399996303
 51
81.869898000035846
  0
LINE
  8
_1-8_小物
  6
CONTINUOUS
 62
    4
 10
140.65723666666565
 20
50.871644999999944
 11
140.59162999999887
 21
50.88101666666671
  0
ARC
  8
_1-8_小物
  6
CONTINUOUS
 62
    4
 10
140.57277333333263
 20
50.749023333333298
 40
0.1333333333333333
 50
81.869898000058299
 51
171.86989800000819
  0
LINE
  8
_1-8_小物
  6
CONTINUOUS
 62
    4
 10
140.44077999999888
 20
50.767879999999877
 11
140.12630333333243
 21
48.566539999999861
  0
LINE
  8
_1-8_小物
  6
CONTINUOUS
 62
    4
 10
139.99999999999932
 20
53.5
 11
139.66666666666572
 21
51.833333333333314
  0
LINE
  8
_1-8_小物
  6
CONTINUOUS
 62
    4
 10
139.66666666666572
 20
53.5
 11
139.66666666666572
 21
50.833333333333087
  0
LINE
  8
_1-8_小物
  6
CONTINUOUS
 62
    4
 10
138.49999999999932
 20
50.833333333333087
 11
138.33333333333269
 21
50.833333333333087
  0
LINE
  8
_1-8_小物
  6
CONTINUOUS
 62
    4
 10
138.33333333333269
 20
51.833333333333314
 11
138.33333333333269
 21
53.5
  0
LINE
  8
_1-8_小物
  6
CONTINUOUS
 62
    4
 10
138.66666666666572
 20
53.5
 11
138.33333333333269
 21
51.833333333333314
  0
LINE
  8
_1-8_小物
  6
CONTINUOUS
 62
    4
 10
137.99999999999898
 20
53.5
 11
138.33333333333269
 21
51.833333333333314
  0
LINE
  8
_1-8_小物
  6
CONTINUOUS
 62
    4
 10
136.66666666666595
 20
53.5
 11
136.99999999999932
 21
51.833333333333314
  0
LINE
  8
_1-8_小物
  6
CONTINUOUS
 62
    4
 10
136.99999999999932
 20
53.5
 11
136.99999999999932
 21
50.833333333333087
  0
LINE
  8
_1-8_小物
  6
CONTINUOUS
 62
    4
 10
138.16666666666572
 20
50.833333333333087
 11
138.33333333333269
 21
50.833333333333087
  0
LINE
  8
_1-8_小物
  6
CONTINUOUS
 62
    4
 10
139.99999999999932
 20
53.5
 11
136.66666666666595
 21
53.5
  0
ENDBLK
  0
BLOCK
  2
-030-_25_
 70
   64
 10
0
 20
0
 30
0
  0
LINE
  8
_1-8_小物
  6
CONTINUOUS
 62
    4
 10
141.33333333333269
 20
56.833333333333286
 11
135.3333333333324
 21
56.833333333333286
  0
LINE
  8
_1-8_小物
  6
CONTINUOUS
 62
    4
 10
141.33333333333269
 20
56.333333333333286
 11
135.3333333333324
 21
56.333333333333286
  0
LINE
  8
_1-8_小物
  6
CONTINUOUS
 62
    4
 10
141.33333333333269
 20
56.833333333333286
 11
141.33333333333269
 21
56.333333333333286
  0
LINE
  8
_1-8_小物
  6
CONTINUOUS
 62
    4
 10
135.3333333333324
 20
56.833333333333286
 11
135.3333333333324
 21
56.333333333333286
  0
LINE
  8
_1-8_小物
  6
CONTINUOUS
 62
    4
 10
139.24999999999937
 20
56.833333333333286
 11
139.24999999999937
 21
56.333333333333286
  0
LINE
  8
_1-8_小物
  6
CONTINUOUS
 62
    4
 10
137.41666666666572
 20
56.833333333333286
 11
137.41666666666572
 21
56.333333333333286
  0
LINE
  8
_1-8_小物
  6
CONTINUOUS
 62
    4
 10
139.83333333333269
 20
56.833333333333286
 11
139.79702907206581
 21
57.248292938333321
  0
LINE
  8
_1-8_小物
  6
CONTINUOUS
 62
    4
 10
136.86963759456586
 20
57.248292938333321
 11
136.83333333333269
 21
56.833333333333286
  0
ARC
  8
_1-8_小物
  6
CONTINUOUS
 62
    4
 10
137.19838184496558
 20
57.219531543233217
 40
0.3299999999999999
 50
127.36755803205445
 51
175.00000000119829
  0
ARC
  8
_1-8_小物
  6
CONTINUOUS
 62
    4
 10
139.46828482169923
 20
57.219531543233217
 40
0.3299999999999999
 50
4.9999999988017167
 51
52.63244196794556
  0
ARC
  8
_1-8_小物
  6
CONTINUOUS
 62
    4
 10
138.3333333333324
 20
55.733333333333263
 40
2.1999999999999997
 50
52.632441967704345
 51
68.266383543397481
  0
ARC
  8
_1-8_小物
  6
CONTINUOUS
 62
    4
 10
138.3333333333324
 20
55.733333333333263
 40
2.1999999999999997
 50
111.74840859090261
 51
127.36755803230515
  0
LINE
  8
_1-8_小物
  6
CONTINUOUS
 62
    4
 10
138.43833333333248
 20
57.919709043200015
 11
138.43833333333248
 21
57.774437413199877
  0
LINE
  8
_1-8_小物
  6
CONTINUOUS
 62
    4
 10
138.55409622729951
 20
57.919709043200015
 11
138.43833333333248
 21
57.919709043200015
  0
LINE
  8
_1-8_小物
  6
CONTINUOUS
 62
    4
 10
139.14750108949909
 20
57.774437413199877
 11
138.55409622729951
 21
57.919709043200015
  0
LINE
  8
_1-8_小物
  6
CONTINUOUS
 62
    4
 10
138.11257043933244
 20
57.919709043200015
 11
137.67926701676572
 21
57.831230436066704
  0
LINE
  8
_1-8_小物
  6
CONTINUOUS
 62
    4
 10
137.67926701676572
 20
57.831230436066704
 11
137.51916557713287
 21
57.774437413199877
  0
LINE
  8
_1-8_小物
  6
CONTINUOUS
 62
    4
 10
138.22833333333244
 20
57.919709043200015
 11
138.11257043933244
 21
57.919709043200015
  0
LINE
  8
_1-8_小物
  6
CONTINUOUS
 62
    4
 10
138.22833333333244
 20
57.774437413199877
 11
138.22833333333244
 21
57.919709043200015
  0
LINE
  8
_1-8_小物
  6
CONTINUOUS
 62
    4
 10
138.43833333333248
 20
57.774437413199877
 11
138.3333333333324
 21
57.776139137999991
  0
LINE
  8
_1-8_小物
  6
CONTINUOUS
 62
    4
 10
138.3333333333324
 20
57.776139137999991
 11
138.22833333333244
 21
57.774437413199877
  0
LINE
  8
_1-8_小物
  6
CONTINUOUS
 62
    4
 10
139.79702907206581
 20
57.248292938333321
 11
136.86963759456586
 21
57.248292938333321
  0
LINE
  8
_1-8_小物
  6
CONTINUOUS
 62
    4
 10
138.3333333333324
 20
57.481801815566683
 11
136.99809628816575
 21
57.481801815566683
  0
LINE
  8
_1-8_小物
  6
CONTINUOUS
 62
    4
 10
139.66857037846592
 20
57.481801815566683
 11
138.3333333333324
 21
57.481801815566683
  0
ENDBLK
  0
BLOCK
  2
-031-_26_
 70
   64
 10
0
 20
0
 30
0
  0
LINE
  8
_1-f_寸法
  6
CONTINUOUS
 62
    4
 10
-116.66667133333321
 20
64.833333333329506
 11
-117.00000466666654
 21
65.16666666666282
  0
LINE
  8
_1-f_寸法
  6
CONTINUOUS
 62
    4
 10
-159.00000466666654
 20
65.16666666666282
 11
-159.33333799999986
 21
64.833333333329506
  0
LINE
  8
_1-f_寸法
  6
CONTINUOUS
 62
    4
 10
-159.33333799999986
 20
64.833333333329506
 11
-159.33333799999986
 21
64.16666666666282
  0
LINE
  8
_1-f_寸法
  6
CONTINUOUS
 62
    4
 10
-117.00000466666654
 20
65.16666666666282
 11
-159.00000466666654
 21
65.16666666666282
  0
LINE
  8
_1-f_寸法
  6
CONTINUOUS
 62
    4
 10
-116.66667133333321
 20
64.16666666666282
 11
-116.66667133333321
 21
64.833333333329506
  0
LINE
  8
_1-f_寸法
  6
CONTINUOUS
 62
    4
 10
-159.33333799999986
 20
64.16666666666282
 11
-116.66667133333321
 21
64.16666666666282
  0
LINE
  8
_1-f_寸法
  6
CENTER2
 62
    4
 10
-156.16666666666654
 20
62.452776833329494
 11
-156.16666666666654
 21
66.270218833329523
  0
LINE
  8
_1-f_寸法
  6
DASHED1
 62
    4
 10
-157.0833333333332
 20
64.16666666666282
 11
-157.0833333333332
 21
64.333328666662851
  0
LINE
  8
_1-f_寸法
  6
DASHED1
 62
    4
 10
-155.24999999999989
 20
64.16666666666282
 11
-155.24999999999989
 21
64.333337999996161
  0
LINE
  8
_1-f_寸法
  6
DASHED1
 62
    4
 10
-157.0833333333332
 20
64.333328666662851
 11
-155.24999999999989
 21
64.333328666662851
  0
LINE
  8
_1-f_寸法
  6
DASHED1
 62
    4
 10
-155.24999999999989
 20
64.333337999996161
 11
-154.4166713333332
 21
65.16666666666282
  0
LINE
  8
_1-f_寸法
  6
DASHED1
 62
    4
 10
-157.9166713333332
 20
65.16666666666282
 11
-157.0833333333332
 21
64.333328666662851
  0
ENDBLK
  0
BLOCK
  2
-032-_27_
 70
   64
 10
0
 20
0
 30
0
  0
LINE
  8
_1-f_寸法
  6
CONTINUOUS
 62
    4
 10
-83.333328666666802
 20
64.833333333329506
 11
-82.999995333333459
 21
65.16666666666282
  0
LINE
  8
_1-f_寸法
  6
CONTINUOUS
 62
    4
 10
-40.999995333333459
 20
65.16666666666282
 11
-40.666662000000144
 21
64.833333333329506
  0
LINE
  8
_1-f_寸法
  6
CONTINUOUS
 62
    4
 10
-40.666662000000144
 20
64.833333333329506
 11
-40.666662000000144
 21
64.16666666666282
  0
LINE
  8
_1-f_寸法
  6
CONTINUOUS
 62
    4
 10
-82.999995333333459
 20
65.16666666666282
 11
-40.999995333333459
 21
65.16666666666282
  0
LINE
  8
_1-f_寸法
  6
CONTINUOUS
 62
    4
 10
-83.333328666666802
 20
64.16666666666282
 11
-83.333328666666802
 21
64.833333333329506
  0
LINE
  8
_1-f_寸法
  6
CONTINUOUS
 62
    4
 10
-40.666662000000144
 20
64.16666666666282
 11
-83.333328666666802
 21
64.16666666666282
  0
LINE
  8
_1-f_寸法
  6
CENTER2
 62
    4
 10
-43.833333333333456
 20
62.452776833329494
 11
-43.833333333333456
 21
66.270218833329523
  0
LINE
  8
_1-f_寸法
  6
DASHED1
 62
    4
 10
-42.916666666666799
 20
64.16666666666282
 11
-42.916666666666799
 21
64.333328666662851
  0
LINE
  8
_1-f_寸法
  6
DASHED1
 62
    4
 10
-44.750000000000114
 20
64.16666666666282
 11
-44.750000000000114
 21
64.333337999996161
  0
LINE
  8
_1-f_寸法
  6
DASHED1
 62
    4
 10
-42.916666666666799
 20
64.333328666662851
 11
-44.750000000000114
 21
64.333328666662851
  0
LINE
  8
_1-f_寸法
  6
DASHED1
 62
    4
 10
-44.750000000000114
 20
64.333337999996161
 11
-45.583328666666802
 21
65.16666666666282
  0
LINE
  8
_1-f_寸法
  6
DASHED1
 62
    4
 10
-42.083328666666802
 20
65.16666666666282
 11
-42.916666666666799
 21
64.333328666662851
  0
ENDBLK
  0
BLOCK
  2
-033-_28_
 70
   64
 10
0
 20
0
 30
0
  0
LINE
  8
_1-9_センタ__プレ__ト
  6
CONTINUOUS
 62
    4
 10
-100.5
 20
64.09999933332972
 11
-100
 21
64.09999933332972
  0
LINE
  8
_1-9_センタ__プレ__ト
  6
CONTINUOUS
 62
    4
 10
-102.5
 20
64.09999933332972
 11
-101.49999999999987
 21
64.09999933332972
  0
LINE
  8
_1-9_センタ__プレ__ト
  6
CONTINUOUS
 62
    4
 10
-103.49999999999987
 20
63.99999933332964
 11
-103.49999999999987
 21
64.09999933332972
  0
LINE
  8
_1-9_センタ__プレ__ト
  6
CONTINUOUS
 62
    4
 10
-102.5
 20
63.99999933332964
 11
-102.5
 21
64.09999933332972
  0
LINE
  8
_1-9_センタ__プレ__ト
  6
CONTINUOUS
 62
    4
 10
-101.49999999999987
 20
63.99999933332964
 11
-101.49999999999987
 21
64.09999933332972
  0
LINE
  8
_1-9_センタ__プレ__ト
  6
CONTINUOUS
 62
    4
 10
-101.49999999999987
 20
63.99999933332964
 11
-100.5
 21
63.99999933332964
  0
LINE
  8
_1-9_センタ__プレ__ト
  6
CONTINUOUS
 62
    4
 10
-100.5
 20
63.99999933332964
 11
-100.5
 21
64.09999933332972
  0
LINE
  8
_1-9_センタ__プレ__ト
  6
CONTINUOUS
 62
    4
 10
-103.49999999999987
 20
63.99999933332964
 11
-102.5
 21
63.99999933332964
  0
LINE
  8
_1-9_センタ__プレ__ト
  6
CONTINUOUS
 62
    4
 10
-104.50000000000016
 20
64.09999933332972
 11
-103.49999999999987
 21
64.09999933332972
  0
LINE
  8
_1-9_センタ__プレ__ト
  6
CONTINUOUS
 62
    4
 10
-105.5
 20
63.99999933332964
 11
-105.5
 21
64.09999933332972
  0
LINE
  8
_1-9_センタ__プレ__ト
  6
CONTINUOUS
 62
    4
 10
-104.50000000000016
 20
63.99999933332964
 11
-104.50000000000016
 21
64.09999933332972
  0
LINE
  8
_1-9_センタ__プレ__ト
  6
CONTINUOUS
 62
    4
 10
-105.5
 20
63.99999933332964
 11
-104.50000000000016
 21
63.99999933332964
  0
LINE
  8
_1-9_センタ__プレ__ト
  6
CONTINUOUS
 62
    4
 10
-106.49999999999986
 20
64.09999933332972
 11
-105.5
 21
64.09999933332972
  0
LINE
  8
_1-9_センタ__プレ__ト
  6
CONTINUOUS
 62
    4
 10
-107.5
 20
63.99999933332964
 11
-107.5
 21
64.09999933332972
  0
LINE
  8
_1-9_センタ__プレ__ト
  6
CONTINUOUS
 62
    4
 10
-106.49999999999986
 20
63.99999933332964
 11
-106.49999999999986
 21
64.09999933332972
  0
LINE
  8
_1-9_センタ__プレ__ト
  6
CONTINUOUS
 62
    4
 10
-107.5
 20
63.99999933332964
 11
-106.49999999999986
 21
63.99999933332964
  0
LINE
  8
_1-9_センタ__プレ__ト
  6
CONTINUOUS
 62
    4
 10
-108.49999999999986
 20
64.09999933332972
 11
-107.5
 21
64.09999933332972
  0
LINE
  8
_1-9_センタ__プレ__ト
  6
CONTINUOUS
 62
    4
 10
-109.4999999999997
 20
63.99999933332964
 11
-109.4999999999997
 21
64.09999933332972
  0
LINE
  8
_1-9_センタ__プレ__ト
  6
CONTINUOUS
 62
    4
 10
-108.49999999999986
 20
63.99999933332964
 11
-108.49999999999986
 21
64.09999933332972
  0
LINE
  8
_1-9_センタ__プレ__ト
  6
CONTINUOUS
 62
    4
 10
-109.4999999999997
 20
63.99999933332964
 11
-108.49999999999986
 21
63.99999933332964
  0
LINE
  8
_1-9_センタ__プレ__ト
  6
CONTINUOUS
 62
    4
 10
-110.5
 20
64.09999933332972
 11
-109.4999999999997
 21
64.09999933332972
  0
LINE
  8
_1-9_センタ__プレ__ト
  6
CONTINUOUS
 62
    4
 10
-111.49999999999986
 20
63.99999933332964
 11
-111.49999999999986
 21
64.09999933332972
  0
LINE
  8
_1-9_センタ__プレ__ト
  6
CONTINUOUS
 62
    4
 10
-110.5
 20
63.99999933332964
 11
-110.5
 21
64.09999933332972
  0
LINE
  8
_1-9_センタ__プレ__ト
  6
CONTINUOUS
 62
    4
 10
-111.49999999999986
 20
63.99999933332964
 11
-110.5
 21
63.99999933332964
  0
LINE
  8
_1-9_センタ__プレ__ト
  6
CONTINUOUS
 62
    4
 10
-112.4999999999997
 20
64.09999933332972
 11
-111.49999999999986
 21
64.09999933332972
  0
LINE
  8
_1-9_センタ__プレ__ト
  6
CONTINUOUS
 62
    4
 10
-113.49999999999955
 20
63.99999933332964
 11
-113.49999999999955
 21
64.09999933332972
  0
LINE
  8
_1-9_センタ__プレ__ト
  6
CONTINUOUS
 62
    4
 10
-112.4999999999997
 20
63.99999933332964
 11
-112.4999999999997
 21
64.09999933332972
  0
LINE
  8
_1-9_センタ__プレ__ト
  6
CONTINUOUS
 62
    4
 10
-113.49999999999955
 20
63.99999933332964
 11
-112.4999999999997
 21
63.99999933332964
  0
LINE
  8
_1-9_センタ__プレ__ト
  6
CONTINUOUS
 62
    4
 10
-114.4999999999997
 20
64.09999933332972
 11
-113.49999999999955
 21
64.09999933332972
  0
LINE
  8
_1-9_センタ__プレ__ト
  6
CONTINUOUS
 62
    4
 10
-115.49999999999955
 20
63.99999933332964
 11
-115.49999999999955
 21
64.09999933332972
  0
LINE
  8
_1-9_センタ__プレ__ト
  6
CONTINUOUS
 62
    4
 10
-114.4999999999997
 20
63.99999933332964
 11
-114.4999999999997
 21
64.09999933332972
  0
LINE
  8
_1-9_センタ__プレ__ト
  6
CONTINUOUS
 62
    4
 10
-115.49999999999955
 20
63.99999933332964
 11
-114.4999999999997
 21
63.99999933332964
  0
LINE
  8
_1-9_センタ__プレ__ト
  6
CONTINUOUS
 62
    4
 10
-116.49999999999986
 20
64.09999933332972
 11
-115.49999999999955
 21
64.09999933332972
  0
LINE
  8
_1-9_センタ__プレ__ト
  6
CONTINUOUS
 62
    4
 10
-117.4999999999997
 20
63.99999933332964
 11
-117.4999999999997
 21
64.09999933332972
  0
LINE
  8
_1-9_センタ__プレ__ト
  6
CONTINUOUS
 62
    4
 10
-116.49999999999986
 20
63.99999933332964
 11
-116.49999999999986
 21
64.09999933332972
  0
LINE
  8
_1-9_センタ__プレ__ト
  6
CONTINUOUS
 62
    4
 10
-117.4999999999997
 20
63.99999933332964
 11
-116.49999999999986
 21
63.99999933332964
  0
LINE
  8
_1-9_センタ__プレ__ト
  6
CONTINUOUS
 62
    4
 10
-118.49999999999955
 20
64.09999933332972
 11
-117.4999999999997
 21
64.09999933332972
  0
LINE
  8
_1-9_センタ__プレ__ト
  6
CONTINUOUS
 62
    4
 10
-119.4999999999997
 20
63.99999933332964
 11
-119.4999999999997
 21
64.09999933332972
  0
LINE
  8
_1-9_センタ__プレ__ト
  6
CONTINUOUS
 62
    4
 10
-118.49999999999955
 20
63.99999933332964
 11
-118.49999999999955
 21
64.09999933332972
  0
LINE
  8
_1-9_センタ__プレ__ト
  6
CONTINUOUS
 62
    4
 10
-119.4999999999997
 20
63.99999933332964
 11
-118.49999999999955
 21
63.99999933332964
  0
LINE
  8
_1-9_センタ__プレ__ト
  6
CONTINUOUS
 62
    4
 10
-120.49999999999955
 20
64.09999933332972
 11
-119.4999999999997
 21
64.09999933332972
  0
LINE
  8
_1-9_センタ__プレ__ト
  6
CONTINUOUS
 62
    4
 10
-121.4999999999994
 20
63.99999933332964
 11
-121.4999999999994
 21
64.09999933332972
  0
LINE
  8
_1-9_センタ__プレ__ト
  6
CONTINUOUS
 62
    4
 10
-120.49999999999955
 20
63.99999933332964
 11
-120.49999999999955
 21
64.09999933332972
  0
LINE
  8
_1-9_センタ__プレ__ト
  6
CONTINUOUS
 62
    4
 10
-121.4999999999994
 20
63.99999933332964
 11
-120.49999999999955
 21
63.99999933332964
  0
LINE
  8
_1-9_センタ__プレ__ト
  6
CONTINUOUS
 62
    4
 10
-122.49999999999925
 20
64.09999933332972
 11
-121.4999999999994
 21
64.09999933332972
  0
LINE
  8
_1-9_センタ__プレ__ト
  6
CONTINUOUS
 62
    4
 10
-122.49999999999925
 20
63.99999933332964
 11
-122.49999999999925
 21
64.09999933332972
  0
LINE
  8
_1-9_センタ__プレ__ト
  6
CONTINUOUS
 62
    4
 10
-123.49999999999909
 20
63.99999933332964
 11
-123.49999999999909
 21
64.09999933332972
  0
LINE
  8
_1-9_センタ__プレ__ト
  6
CONTINUOUS
 62
    4
 10
-123.49999999999909
 20
63.99999933332964
 11
-122.49999999999925
 21
63.99999933332964
  0
LINE
  8
_1-9_センタ__プレ__ト
  6
CONTINUOUS
 62
    4
 10
-124.49999999999895
 20
64.09999933332972
 11
-123.49999999999909
 21
64.09999933332972
  0
LINE
  8
_1-9_センタ__プレ__ト
  6
CONTINUOUS
 62
    4
 10
-125.49999999999879
 20
63.99999933332964
 11
-125.49999999999879
 21
64.09999933332972
  0
LINE
  8
_1-9_センタ__プレ__ト
  6
CONTINUOUS
 62
    4
 10
-124.49999999999895
 20
63.99999933332964
 11
-124.49999999999895
 21
64.09999933332972
  0
LINE
  8
_1-9_センタ__プレ__ト
  6
CONTINUOUS
 62
    4
 10
-125.49999999999879
 20
63.99999933332964
 11
-124.49999999999895
 21
63.99999933332964
  0
LINE
  8
_1-9_センタ__プレ__ト
  6
CONTINUOUS
 62
    4
 10
-126.49999999999909
 20
64.09999933332972
 11
-125.49999999999879
 21
64.09999933332972
  0
LINE
  8
_1-9_センタ__プレ__ト
  6
CONTINUOUS
 62
    4
 10
-127.49999999999893
 20
63.99999933332964
 11
-127.49999999999893
 21
64.09999933332972
  0
LINE
  8
_1-9_センタ__プレ__ト
  6
CONTINUOUS
 62
    4
 10
-126.49999999999909
 20
63.99999933332964
 11
-126.49999999999909
 21
64.09999933332972
  0
LINE
  8
_1-9_センタ__プレ__ト
  6
CONTINUOUS
 62
    4
 10
-127.49999999999893
 20
63.99999933332964
 11
-126.49999999999909
 21
63.99999933332964
  0
LINE
  8
_1-9_センタ__プレ__ト
  6
CONTINUOUS
 62
    4
 10
-128.49999999999909
 20
64.09999933332972
 11
-127.49999999999893
 21
64.09999933332972
  0
LINE
  8
_1-9_センタ__プレ__ト
  6
CONTINUOUS
 62
    4
 10
-129.49999999999895
 20
63.99999933332964
 11
-129.49999999999895
 21
64.09999933332972
  0
LINE
  8
_1-9_センタ__プレ__ト
  6
CONTINUOUS
 62
    4
 10
-128.49999999999909
 20
63.99999933332964
 11
-128.49999999999909
 21
64.09999933332972
  0
LINE
  8
_1-9_センタ__プレ__ト
  6
CONTINUOUS
 62
    4
 10
-129.49999999999895
 20
63.99999933332964
 11
-128.49999999999909
 21
63.99999933332964
  0
LINE
  8
_1-9_センタ__プレ__ト
  6
CONTINUOUS
 62
    4
 10
-130.49999999999881
 20
64.09999933332972
 11
-129.49999999999895
 21
64.09999933332972
  0
LINE
  8
_1-9_センタ__プレ__ト
  6
CONTINUOUS
 62
    4
 10
-130.49999999999881
 20
63.99999933332964
 11
-130.49999999999881
 21
64.09999933332972
  0
LINE
  8
_1-9_センタ__プレ__ト
  6
CONTINUOUS
 62
    4
 10
-130.99999999999895
 20
63.99999933332964
 11
-130.49999999999881
 21
63.99999933332964
  0
LINE
  8
_1-9_センタ__プレ__ト
  6
CONTINUOUS
 62
    4
 10
-131.45315389351725
 20
63.788690202459321
 11
-131.49541571969138
 21
63.879320981163062
  0
LINE
  8
_1-9_センタ__プレ__ト
  6
CONTINUOUS
 62
    4
 10
-132.40172350672782
 20
63.456702719422424
 11
-131.49541571969138
 21
63.879320981163062
  0
LINE
  8
_1-9_センタ__プレ__ト
  6
CONTINUOUS
 62
    4
 10
-133.26576946759027
 20
62.943453678978074
 11
-133.3080312937644
 21
63.034084457681843
  0
LINE
  8
_1-9_センタ__プレ__ト
  6
CONTINUOUS
 62
    4
 10
-132.35946168055369
 20
63.36607194071874
 11
-132.40172350672782
 21
63.456702719422424
  0
LINE
  8
_1-9_センタ__プレ__ト
  6
CONTINUOUS
 62
    4
 10
-133.26576946759027
 20
62.943453678978074
 11
-132.35946168055369
 21
63.36607194071874
  0
LINE
  8
_1-9_センタ__プレ__ト
  6
CONTINUOUS
 62
    4
 10
-134.21433908080098
 20
62.611466195941404
 11
-133.30803129376454
 21
63.03408445768207
  0
LINE
  8
_1-9_センタ__プレ__ト
  6
CONTINUOUS
 62
    4
 10
-135.07838504166347
 20
62.098217155497082
 11
-135.12064686783759
 21
62.188847934200822
  0
LINE
  8
_1-9_センタ__プレ__ト
  6
CONTINUOUS
 62
    4
 10
-134.17207725462703
 20
62.52083541723772
 11
-134.21433908080098
 21
62.611466195941404
  0
LINE
  8
_1-9_センタ__プレ__ト
  6
CONTINUOUS
 62
    4
 10
-135.07838504166347
 20
62.098217155497082
 11
-134.17207725462703
 21
62.52083541723772
  0
LINE
  8
_1-9_センタ__プレ__ト
  6
CONTINUOUS
 62
    4
 10
-136.02695465487403
 20
61.766229672460383
 11
-135.12064686783759
 21
62.18884793420105
  0
LINE
  8
_1-9_センタ__プレ__ト
  6
CONTINUOUS
 62
    4
 10
-135.98469282869991
 20
61.675598893756728
 11
-136.02695465487403
 21
61.766229672460383
  0
LINE
  8
_1-9_センタ__プレ__ト
  6
CONTINUOUS
 62
    4
 10
-136.43784672221818
 20
61.464289762886381
 11
-135.98469282869991
 21
61.675598893756728
  0
LINE
  8
_1-9_センタ__プレ__ト
  6
CONTINUOUS
 62
    4
 10
-136.05749028665136
 20
60.648612754552943
 11
-136.43784672221818
 21
61.464289762886381
  0
LINE
  8
_1-9_センタ__プレ__ト
  6
CONTINUOUS
 62
    4
 10
-131.45315389351725
 20
63.788690202459321
 11
-130.99999999999895
 21
63.99999933332964
  0
LINE
  8
_1-9_センタ__プレ__ト
  6
CONTINUOUS
 62
    4
 10
-136.05749028665136
 20
60.648612754552943
 11
-130.8004748036204
 21
63.099999333329635
  0
LINE
  8
_1-9_センタ__プレ__ト
  6
CONTINUOUS
 62
    4
 10
-130.8004748036204
 20
63.099999333329635
 11
-100
 21
63.099999333329635
  0
LINE
  8
_1-9_センタ__プレ__ト
  6
CONTINUOUS
 62
    4
 10
-99.500000000000156
 20
64.09999933332972
 11
-100
 21
64.09999933332972
  0
LINE
  8
_1-9_センタ__プレ__ト
  6
CONTINUOUS
 62
    4
 10
-97.5
 20
64.09999933332972
 11
-98.500000000000327
 21
64.09999933332972
  0
LINE
  8
_1-9_センタ__プレ__ト
  6
CONTINUOUS
 62
    4
 10
-96.500000000000156
 20
63.99999933332964
 11
-96.500000000000156
 21
64.09999933332972
  0
LINE
  8
_1-9_センタ__プレ__ト
  6
CONTINUOUS
 62
    4
 10
-97.5
 20
63.99999933332964
 11
-97.5
 21
64.09999933332972
  0
LINE
  8
_1-9_センタ__プレ__ト
  6
CONTINUOUS
 62
    4
 10
-98.500000000000327
 20
63.99999933332964
 11
-98.500000000000327
 21
64.09999933332972
  0
LINE
  8
_1-9_センタ__プレ__ト
  6
CONTINUOUS
 62
    4
 10
-98.500000000000327
 20
63.99999933332964
 11
-99.500000000000156
 21
63.99999933332964
  0
LINE
  8
_1-9_センタ__プレ__ト
  6
CONTINUOUS
 62
    4
 10
-99.500000000000156
 20
63.99999933332964
 11
-99.500000000000156
 21
64.09999933332972
  0
LINE
  8
_1-9_センタ__プレ__ト
  6
CONTINUOUS
 62
    4
 10
-96.500000000000156
 20
63.99999933332964
 11
-97.5
 21
63.99999933332964
  0
LINE
  8
_1-9_センタ__プレ__ト
  6
CONTINUOUS
 62
    4
 10
-95.5
 20
64.09999933332972
 11
-96.500000000000156
 21
64.09999933332972
  0
LINE
  8
_1-9_センタ__プレ__ト
  6
CONTINUOUS
 62
    4
 10
-94.500000000000156
 20
63.99999933332964
 11
-94.500000000000156
 21
64.09999933332972
  0
LINE
  8
_1-9_センタ__プレ__ト
  6
CONTINUOUS
 62
    4
 10
-95.5
 20
63.99999933332964
 11
-95.5
 21
64.09999933332972
  0
LINE
  8
_1-9_センタ__プレ__ト
  6
CONTINUOUS
 62
    4
 10
-94.500000000000156
 20
63.99999933332964
 11
-95.5
 21
63.99999933332964
  0
LINE
  8
_1-9_センタ__プレ__ト
  6
CONTINUOUS
 62
    4
 10
-93.500000000000327
 20
64.09999933332972
 11
-94.500000000000156
 21
64.09999933332972
  0
LINE
  8
_1-9_センタ__プレ__ト
  6
CONTINUOUS
 62
    4
 10
-92.5
 20
63.99999933332964
 11
-92.5
 21
64.09999933332972
  0
LINE
  8
_1-9_センタ__プレ__ト
  6
CONTINUOUS
 62
    4
 10
-93.500000000000327
 20
63.99999933332964
 11
-93.500000000000327
 21
64.09999933332972
  0
LINE
  8
_1-9_センタ__プレ__ト
  6
CONTINUOUS
 62
    4
 10
-92.5
 20
63.99999933332964
 11
-93.500000000000327
 21
63.99999933332964
  0
LINE
  8
_1-9_センタ__プレ__ト
  6
CONTINUOUS
 62
    4
 10
-91.500000000000156
 20
64.09999933332972
 11
-92.5
 21
64.09999933332972
  0
LINE
  8
_1-9_センタ__プレ__ト
  6
CONTINUOUS
 62
    4
 10
-90.500000000000327
 20
63.99999933332964
 11
-90.500000000000327
 21
64.09999933332972
  0
LINE
  8
_1-9_センタ__プレ__ト
  6
CONTINUOUS
 62
    4
 10
-91.500000000000156
 20
63.99999933332964
 11
-91.500000000000156
 21
64.09999933332972
  0
LINE
  8
_1-9_センタ__プレ__ト
  6
CONTINUOUS
 62
    4
 10
-90.500000000000327
 20
63.99999933332964
 11
-91.500000000000156
 21
63.99999933332964
  0
LINE
  8
_1-9_センタ__プレ__ト
  6
CONTINUOUS
 62
    4
 10
-89.500000000000156
 20
64.09999933332972
 11
-90.500000000000327
 21
64.09999933332972
  0
LINE
  8
_1-9_センタ__プレ__ト
  6
CONTINUOUS
 62
    4
 10
-88.500000000000327
 20
63.99999933332964
 11
-88.500000000000327
 21
64.09999933332972
  0
LINE
  8
_1-9_センタ__プレ__ト
  6
CONTINUOUS
 62
    4
 10
-89.500000000000156
 20
63.99999933332964
 11
-89.500000000000156
 21
64.09999933332972
  0
LINE
  8
_1-9_センタ__プレ__ト
  6
CONTINUOUS
 62
    4
 10
-88.500000000000327
 20
63.99999933332964
 11
-89.500000000000156
 21
63.99999933332964
  0
LINE
  8
_1-9_センタ__プレ__ト
  6
CONTINUOUS
 62
    4
 10
-87.500000000000455
 20
64.09999933332972
 11
-88.500000000000327
 21
64.09999933332972
  0
LINE
  8
_1-9_センタ__プレ__ト
  6
CONTINUOUS
 62
    4
 10
-86.500000000000327
 20
63.99999933332964
 11
-86.500000000000327
 21
64.09999933332972
  0
LINE
  8
_1-9_センタ__プレ__ト
  6
CONTINUOUS
 62
    4
 10
-87.500000000000455
 20
63.99999933332964
 11
-87.500000000000455
 21
64.09999933332972
  0
LINE
  8
_1-9_センタ__プレ__ト
  6
CONTINUOUS
 62
    4
 10
-86.500000000000327
 20
63.99999933332964
 11
-87.500000000000455
 21
63.99999933332964
  0
LINE
  8
_1-9_センタ__プレ__ト
  6
CONTINUOUS
 62
    4
 10
-85.500000000000327
 20
64.09999933332972
 11
-86.500000000000327
 21
64.09999933332972
  0
LINE
  8
_1-9_センタ__プレ__ト
  6
CONTINUOUS
 62
    4
 10
-84.500000000000455
 20
63.99999933332964
 11
-84.500000000000455
 21
64.09999933332972
  0
LINE
  8
_1-9_センタ__プレ__ト
  6
CONTINUOUS
 62
    4
 10
-85.500000000000327
 20
63.99999933332964
 11
-85.500000000000327
 21
64.09999933332972
  0
LINE
  8
_1-9_センタ__プレ__ト
  6
CONTINUOUS
 62
    4
 10
-84.500000000000455
 20
63.99999933332964
 11
-85.500000000000327
 21
63.99999933332964
  0
LINE
  8
_1-9_センタ__プレ__ト
  6
CONTINUOUS
 62
    4
 10
-83.500000000000313
 20
64.09999933332972
 11
-84.500000000000455
 21
64.09999933332972
  0
LINE
  8
_1-9_センタ__プレ__ト
  6
CONTINUOUS
 62
    4
 10
-82.500000000000455
 20
63.99999933332964
 11
-82.500000000000455
 21
64.09999933332972
  0
LINE
  8
_1-9_センタ__プレ__ト
  6
CONTINUOUS
 62
    4
 10
-83.500000000000313
 20
63.99999933332964
 11
-83.500000000000313
 21
64.09999933332972
  0
LINE
  8
_1-9_センタ__プレ__ト
  6
CONTINUOUS
 62
    4
 10
-82.500000000000455
 20
63.99999933332964
 11
-83.500000000000313
 21
63.99999933332964
  0
LINE
  8
_1-9_センタ__プレ__ト
  6
CONTINUOUS
 62
    4
 10
-81.500000000000313
 20
64.09999933332972
 11
-82.500000000000455
 21
64.09999933332972
  0
LINE
  8
_1-9_センタ__プレ__ト
  6
CONTINUOUS
 62
    4
 10
-80.500000000000313
 20
63.99999933332964
 11
-80.500000000000313
 21
64.09999933332972
  0
LINE
  8
_1-9_センタ__プレ__ト
  6
CONTINUOUS
 62
    4
 10
-81.500000000000313
 20
63.99999933332964
 11
-81.500000000000313
 21
64.09999933332972
  0
LINE
  8
_1-9_センタ__プレ__ト
  6
CONTINUOUS
 62
    4
 10
-80.500000000000313
 20
63.99999933332964
 11
-81.500000000000313
 21
63.99999933332964
  0
LINE
  8
_1-9_センタ__プレ__ト
  6
CONTINUOUS
 62
    4
 10
-79.500000000000455
 20
64.09999933332972
 11
-80.500000000000313
 21
64.09999933332972
  0
LINE
  8
_1-9_センタ__プレ__ト
  6
CONTINUOUS
 62
    4
 10
-78.500000000000625
 20
63.99999933332964
 11
-78.500000000000625
 21
64.09999933332972
  0
LINE
  8
_1-9_センタ__プレ__ト
  6
CONTINUOUS
 62
    4
 10
-79.500000000000455
 20
63.99999933332964
 11
-79.500000000000455
 21
64.09999933332972
  0
LINE
  8
_1-9_センタ__プレ__ト
  6
CONTINUOUS
 62
    4
 10
-78.500000000000625
 20
63.99999933332964
 11
-79.500000000000455
 21
63.99999933332964
  0
LINE
  8
_1-9_センタ__プレ__ト
  6
CONTINUOUS
 62
    4
 10
-77.500000000000767
 20
64.09999933332972
 11
-78.500000000000625
 21
64.09999933332972
  0
LINE
  8
_1-9_センタ__プレ__ト
  6
CONTINUOUS
 62
    4
 10
-77.500000000000767
 20
63.99999933332964
 11
-77.500000000000767
 21
64.09999933332972
  0
LINE
  8
_1-9_センタ__プレ__ト
  6
CONTINUOUS
 62
    4
 10
-76.500000000000909
 20
63.99999933332964
 11
-76.500000000000909
 21
64.09999933332972
  0
LINE
  8
_1-9_センタ__プレ__ト
  6
CONTINUOUS
 62
    4
 10
-76.500000000000909
 20
63.99999933332964
 11
-77.500000000000767
 21
63.99999933332964
  0
LINE
  8
_1-9_センタ__プレ__ト
  6
CONTINUOUS
 62
    4
 10
-75.50000000000108
 20
64.09999933332972
 11
-76.500000000000909
 21
64.09999933332972
  0
LINE
  8
_1-9_センタ__プレ__ト
  6
CONTINUOUS
 62
    4
 10
-74.500000000001222
 20
63.99999933332964
 11
-74.500000000001222
 21
64.09999933332972
  0
LINE
  8
_1-9_センタ__プレ__ト
  6
CONTINUOUS
 62
    4
 10
-75.50000000000108
 20
63.99999933332964
 11
-75.50000000000108
 21
64.09999933332972
  0
LINE
  8
_1-9_センタ__プレ__ト
  6
CONTINUOUS
 62
    4
 10
-74.500000000001222
 20
63.99999933332964
 11
-75.50000000000108
 21
63.99999933332964
  0
LINE
  8
_1-9_センタ__プレ__ト
  6
CONTINUOUS
 62
    4
 10
-73.500000000000767
 20
64.09999933332972
 11
-74.500000000001222
 21
64.09999933332972
  0
LINE
  8
_1-9_センタ__プレ__ト
  6
CONTINUOUS
 62
    4
 10
-72.500000000000909
 20
63.99999933332964
 11
-72.500000000000909
 21
64.09999933332972
  0
LINE
  8
_1-9_センタ__プレ__ト
  6
CONTINUOUS
 62
    4
 10
-73.500000000000767
 20
63.99999933332964
 11
-73.500000000000767
 21
64.09999933332972
  0
LINE
  8
_1-9_センタ__プレ__ト
  6
CONTINUOUS
 62
    4
 10
-72.500000000000909
 20
63.99999933332964
 11
-73.500000000000767
 21
63.99999933332964
  0
LINE
  8
_1-9_センタ__プレ__ト
  6
CONTINUOUS
 62
    4
 10
-71.500000000000909
 20
64.09999933332972
 11
-72.500000000000909
 21
64.09999933332972
  0
LINE
  8
_1-9_センタ__プレ__ト
  6
CONTINUOUS
 62
    4
 10
-70.50000000000108
 20
63.99999933332964
 11
-70.50000000000108
 21
64.09999933332972
  0
LINE
  8
_1-9_センタ__プレ__ト
  6
CONTINUOUS
 62
    4
 10
-71.500000000000909
 20
63.99999933332964
 11
-71.500000000000909
 21
64.09999933332972
  0
LINE
  8
_1-9_センタ__プレ__ト
  6
CONTINUOUS
 62
    4
 10
-70.50000000000108
 20
63.99999933332964
 11
-71.500000000000909
 21
63.99999933332964
  0
LINE
  8
_1-9_センタ__プレ__ト
  6
CONTINUOUS
 62
    4
 10
-69.500000000001222
 20
64.09999933332972
 11
-70.50000000000108
 21
64.09999933332972
  0
LINE
  8
_1-9_センタ__プレ__ト
  6
CONTINUOUS
 62
    4
 10
-69.500000000001222
 20
63.99999933332964
 11
-69.500000000001222
 21
64.09999933332972
  0
LINE
  8
_1-9_センタ__プレ__ト
  6
CONTINUOUS
 62
    4
 10
-69.00000000000108
 20
63.99999933332964
 11
-69.500000000001222
 21
63.99999933332964
  0
LINE
  8
_1-9_センタ__プレ__ト
  6
CONTINUOUS
 62
    4
 10
-68.546846106482775
 20
63.788690202459321
 11
-68.504584280308507
 21
63.879320981163062
  0
LINE
  8
_1-9_センタ__プレ__ト
  6
CONTINUOUS
 62
    4
 10
-67.598276493272209
 20
63.456702719422424
 11
-68.504584280308507
 21
63.879320981163062
  0
LINE
  8
_1-9_センタ__プレ__ト
  6
CONTINUOUS
 62
    4
 10
-66.734230532409583
 20
62.943453678978074
 11
-66.691968706235627
 21
63.034084457681843
  0
LINE
  8
_1-9_センタ__プレ__ト
  6
CONTINUOUS
 62
    4
 10
-67.640538319446335
 20
63.36607194071874
 11
-67.598276493272209
 21
63.456702719422424
  0
LINE
  8
_1-9_センタ__プレ__ト
  6
CONTINUOUS
 62
    4
 10
-66.734230532409583
 20
62.943453678978074
 11
-67.640538319446335
 21
63.36607194071874
  0
LINE
  8
_1-9_センタ__プレ__ト
  6
CONTINUOUS
 62
    4
 10
-65.785660919199017
 20
62.611466195941404
 11
-66.691968706235457
 21
63.03408445768207
  0
LINE
  8
_1-9_センタ__プレ__ト
  6
CONTINUOUS
 62
    4
 10
-64.921614958336562
 20
62.098217155497082
 11
-64.879353132162578
 21
62.188847934200822
  0
LINE
  8
_1-9_センタ__プレ__ト
  6
CONTINUOUS
 62
    4
 10
-65.827922745373144
 20
62.52083541723772
 11
-65.785660919199017
 21
62.611466195941404
  0
LINE
  8
_1-9_センタ__プレ__ト
  6
CONTINUOUS
 62
    4
 10
-64.921614958336562
 20
62.098217155497082
 11
-65.827922745373144
 21
62.52083541723772
  0
LINE
  8
_1-9_センタ__プレ__ト
  6
CONTINUOUS
 62
    4
 10
-63.973045345125996
 20
61.766229672460383
 11
-64.879353132162294
 21
62.18884793420105
  0
LINE
  8
_1-9_センタ__プレ__ト
  6
CONTINUOUS
 62
    4
 10
-64.015307171300122
 20
61.675598893756728
 11
-63.973045345125996
 21
61.766229672460383
  0
LINE
  8
_1-9_センタ__プレ__ト
  6
CONTINUOUS
 62
    4
 10
-63.562153277781817
 20
61.464289762886381
 11
-64.015307171300122
 21
61.675598893756728
  0
LINE
  8
_1-9_センタ__プレ__ト
  6
CONTINUOUS
 62
    4
 10
-63.94250971334867
 20
60.648612754552943
 11
-63.562153277781817
 21
61.464289762886381
  0
LINE
  8
_1-9_センタ__プレ__ト
  6
CONTINUOUS
 62
    4
 10
-68.546846106482775
 20
63.788690202459321
 11
-69.00000000000108
 21
63.99999933332964
  0
LINE
  8
_1-9_センタ__プレ__ト
  6
CONTINUOUS
 62
    4
 10
-63.94250971334867
 20
60.648612754552943
 11
-69.199525196379625
 21
63.099999333329635
  0
LINE
  8
_1-9_センタ__プレ__ト
  6
CONTINUOUS
 62
    4
 10
-69.199525196379625
 20
63.099999333329635
 11
-100
 21
63.099999333329635
  0
LINE
  8
_1-9_センタ__プレ__ト
  6
CENTER2
 62
    4
 10
-100
 20
60.431928352337422
 11
-100
 21
64.933332666662977
  0
ENDBLK
  0
BLOCK
  2
-034-_29_
 70
   64
 10
0
 20
0
 30
0
  0
LINE
  8
_1-9_センタ__プレ__ト
  6
CONTINUOUS
 62
    4
 10
53.913171911166614
 20
63.507595456827346
 11
53.814691135865246
 21
63.524960274594093
  0
LINE
  8
_1-9_センタ__プレ__ト
  6
CONTINUOUS
 62
    4
 10
53.641042958198568
 20
62.540152521582115
 11
53.814691135865246
 21
63.524960274594093
  0
LINE
  8
_1-9_センタ__プレ__ト
  6
CONTINUOUS
 62
    4
 10
53.565875555833031
 20
61.53797995080339
 11
53.467394780531436
 21
61.555344768570023
  0
LINE
  8
_1-9_センタ__プレ__ト
  6
CONTINUOUS
 62
    4
 10
53.739523733499709
 20
62.522787703815453
 11
53.641042958198568
 21
62.540152521582115
  0
LINE
  8
_1-9_センタ__プレ__ト
  6
CONTINUOUS
 62
    4
 10
53.565875555833031
 20
61.53797995080339
 11
53.739523733499709
 21
62.522787703815453
  0
LINE
  8
_1-9_センタ__プレ__ト
  6
CONTINUOUS
 62
    4
 10
53.293746602863962
 20
60.570537015557818
 11
53.467394780531208
 21
61.555344768570137
  0
LINE
  8
_1-9_センタ__プレ__ト
  6
CONTINUOUS
 62
    4
 10
53.218579200498766
 20
59.568364444779405
 11
53.120098425197284
 21
59.585729262546067
  0
LINE
  8
_1-9_センタ__プレ__ト
  6
CONTINUOUS
 62
    4
 10
53.392227378165558
 20
60.553172197791412
 11
53.293746602863962
 21
60.570537015557818
  0
LINE
  8
_1-9_センタ__プレ__ト
  6
CONTINUOUS
 62
    4
 10
53.218579200498766
 20
59.568364444779405
 11
53.392227378165558
 21
60.553172197791412
  0
LINE
  8
_1-9_センタ__プレ__ト
  6
CONTINUOUS
 62
    4
 10
54.500000000000227
 20
64.099999333333528
 11
55.500000000000114
 21
64.099999333333528
  0
LINE
  8
_1-9_センタ__プレ__ト
  6
CONTINUOUS
 62
    4
 10
54.500000000000227
 20
63.999999333333477
 11
54.500000000000227
 21
64.099999333333528
  0
LINE
  8
_1-9_センタ__プレ__ト
  6
CONTINUOUS
 62
    4
 10
55.500000000000114
 20
63.999999333333477
 11
55.500000000000114
 21
64.099999333333528
  0
LINE
  8
_1-9_センタ__プレ__ト
  6
CONTINUOUS
 62
    4
 10
55.500000000000114
 20
63.999999333333477
 11
56.500000000000114
 21
63.999999333333477
  0
LINE
  8
_1-9_センタ__プレ__ト
  6
CONTINUOUS
 62
    4
 10
56.500000000000114
 20
63.999999333333477
 11
56.500000000000114
 21
64.099999333333528
  0
LINE
  8
_1-9_センタ__プレ__ト
  6
CONTINUOUS
 62
    4
 10
53.99999600000001
 20
63.999999333333477
 11
54.500000000000227
 21
63.999999333333477
  0
LINE
  8
_1-9_センタ__プレ__ト
  6
CONTINUOUS
 62
    4
 10
53.913171911166614
 20
63.507595456827346
 11
53.99999600000001
 21
63.999999333333477
  0
LINE
  8
_1-9_センタ__プレ__ト
  6
CONTINUOUS
 62
    4
 10
53.033274336363661
 20
59.093325386040362
 11
53.120098425197057
 21
59.585729262546181
  0
LINE
  8
_1-9_センタ__プレ__ト
  6
CONTINUOUS
 62
    4
 10
54.018082089376662
 20
58.919677208373201
 11
53.033274336363661
 21
59.093325386040362
  0
LINE
  8
_1-9_センタ__プレ__ト
  6
CONTINUOUS
 62
    4
 10
54.018082089376662
 20
58.919677208373201
 11
54.755185668059653
 21
63.099999333333528
  0
LINE
  8
_1-9_センタ__プレ__ト
  6
CONTINUOUS
 62
    4
 10
56.500000000000114
 20
64.099999333333528
 11
57.5
 21
64.099999333333528
  0
LINE
  8
_1-9_センタ__プレ__ト
  6
CONTINUOUS
 62
    4
 10
57.5
 20
63.999999333333477
 11
57.5
 21
64.099999333333528
  0
LINE
  8
_1-9_センタ__プレ__ト
  6
CONTINUOUS
 62
    4
 10
57.5
 20
63.999999333333477
 11
58.500000000000227
 21
63.999999333333477
  0
LINE
  8
_1-9_センタ__プレ__ト
  6
CONTINUOUS
 62
    4
 10
58.500000000000227
 20
63.999999333333477
 11
58.500000000000227
 21
64.099999333333528
  0
LINE
  8
_1-9_センタ__プレ__ト
  6
CONTINUOUS
 62
    4
 10
58.500000000000227
 20
64.099999333333528
 11
59.500000000000114
 21
64.099999333333528
  0
LINE
  8
_1-9_センタ__プレ__ト
  6
CONTINUOUS
 62
    4
 10
59.500000000000114
 20
63.999999333333477
 11
59.500000000000114
 21
64.099999333333528
  0
LINE
  8
_1-9_センタ__プレ__ト
  6
CONTINUOUS
 62
    4
 10
59.500000000000114
 20
63.999999333333477
 11
60.500000000000114
 21
63.999999333333477
  0
LINE
  8
_1-9_センタ__プレ__ト
  6
CONTINUOUS
 62
    4
 10
60.500000000000114
 20
63.999999333333477
 11
60.500000000000114
 21
64.099999333333528
  0
LINE
  8
_1-9_センタ__プレ__ト
  6
CONTINUOUS
 62
    4
 10
60.500000000000114
 20
64.099999333333528
 11
61.499999999999886
 21
64.099999333333528
  0
LINE
  8
_1-9_センタ__プレ__ト
  6
CONTINUOUS
 62
    4
 10
61.499999999999886
 20
63.999999333333477
 11
61.499999999999886
 21
64.099999333333528
  0
LINE
  8
_1-9_センタ__プレ__ト
  6
CONTINUOUS
 62
    4
 10
61.499999999999886
 20
63.999999333333477
 11
62.5
 21
63.999999333333477
  0
LINE
  8
_1-9_センタ__プレ__ト
  6
CONTINUOUS
 62
    4
 10
62.5
 20
63.999999333333477
 11
62.5
 21
64.099999333333528
  0
LINE
  8
_1-9_センタ__プレ__ト
  6
CONTINUOUS
 62
    4
 10
62.5
 20
64.099999333333528
 11
63.499999999999886
 21
64.099999333333528
  0
LINE
  8
_1-9_センタ__プレ__ト
  6
CONTINUOUS
 62
    4
 10
63.499999999999886
 20
63.999999333333477
 11
63.499999999999886
 21
64.099999333333528
  0
LINE
  8
_1-9_センタ__プレ__ト
  6
CONTINUOUS
 62
    4
 10
63.499999999999886
 20
63.999999333333477
 11
64.500000000000114
 21
63.999999333333477
  0
LINE
  8
_1-9_センタ__プレ__ト
  6
CONTINUOUS
 62
    4
 10
64.500000000000114
 20
63.999999333333477
 11
64.500000000000114
 21
64.099999333333528
  0
LINE
  8
_1-9_センタ__プレ__ト
  6
CONTINUOUS
 62
    4
 10
64.500000000000114
 20
64.099999333333528
 11
65.499999999999886
 21
64.099999333333528
  0
LINE
  8
_1-9_センタ__プレ__ト
  6
CONTINUOUS
 62
    4
 10
65.499999999999886
 20
63.999999333333477
 11
65.499999999999886
 21
64.099999333333528
  0
LINE
  8
_1-9_センタ__プレ__ト
  6
CONTINUOUS
 62
    4
 10
65.499999999999886
 20
63.999999333333477
 11
66.499999999999886
 21
63.999999333333477
  0
LINE
  8
_1-9_センタ__プレ__ト
  6
CONTINUOUS
 62
    4
 10
66.499999999999886
 20
63.999999333333477
 11
66.499999999999886
 21
64.099999333333528
  0
LINE
  8
_1-9_センタ__プレ__ト
  6
CONTINUOUS
 62
    4
 10
66.499999999999886
 20
64.099999333333528
 11
67.499999999999773
 21
64.099999333333528
  0
LINE
  8
_1-9_センタ__プレ__ト
  6
CONTINUOUS
 62
    4
 10
67.499999999999773
 20
63.999999333333477
 11
67.499999999999773
 21
64.099999333333528
  0
LINE
  8
_1-9_センタ__プレ__ト
  6
CONTINUOUS
 62
    4
 10
67.499999999999773
 20
63.999999333333477
 11
68.499999999999886
 21
63.999999333333477
  0
LINE
  8
_1-9_センタ__プレ__ト
  6
CONTINUOUS
 62
    4
 10
68.499999999999886
 20
63.999999333333477
 11
68.499999999999886
 21
64.099999333333528
  0
LINE
  8
_1-9_センタ__プレ__ト
  6
CONTINUOUS
 62
    4
 10
68.499999999999886
 20
64.099999333333528
 11
69.499999999999659
 21
64.099999333333528
  0
LINE
  8
_1-9_センタ__プレ__ト
  6
CONTINUOUS
 62
    4
 10
69.499999999999659
 20
63.999999333333477
 11
69.499999999999659
 21
64.099999333333528
  0
LINE
  8
_1-9_センタ__プレ__ト
  6
CONTINUOUS
 62
    4
 10
69.499999999999659
 20
63.999999333333477
 11
70.499999999999886
 21
63.999999333333477
  0
LINE
  8
_1-9_センタ__プレ__ト
  6
CONTINUOUS
 62
    4
 10
70.499999999999886
 20
63.999999333333477
 11
70.499999999999886
 21
64.099999333333528
  0
LINE
  8
_1-9_センタ__プレ__ト
  6
CONTINUOUS
 62
    4
 10
70.499999999999886
 20
64.099999333333528
 11
71.499999999999773
 21
64.099999333333528
  0
LINE
  8
_1-9_センタ__プレ__ト
  6
CONTINUOUS
 62
    4
 10
71.499999999999773
 20
63.999999333333477
 11
71.499999999999773
 21
64.099999333333528
  0
LINE
  8
_1-9_センタ__プレ__ト
  6
CONTINUOUS
 62
    4
 10
71.499999999999773
 20
63.999999333333477
 11
72.499999999999773
 21
63.999999333333477
  0
LINE
  8
_1-9_センタ__プレ__ト
  6
CONTINUOUS
 62
    4
 10
72.499999999999773
 20
63.999999333333477
 11
72.499999999999773
 21
64.099999333333528
  0
LINE
  8
_1-9_センタ__プレ__ト
  6
CONTINUOUS
 62
    4
 10
72.499999999999773
 20
64.099999333333528
 11
73.499999999999659
 21
64.099999333333528
  0
LINE
  8
_1-9_センタ__プレ__ト
  6
CONTINUOUS
 62
    4
 10
73.499999999999659
 20
63.999999333333477
 11
73.499999999999659
 21
64.099999333333528
  0
LINE
  8
_1-9_センタ__プレ__ト
  6
CONTINUOUS
 62
    4
 10
73.499999999999659
 20
63.999999333333477
 11
74.499999999999886
 21
63.999999333333477
  0
LINE
  8
_1-9_センタ__プレ__ト
  6
CONTINUOUS
 62
    4
 10
74.499999999999886
 20
63.999999333333477
 11
74.499999999999886
 21
64.099999333333528
  0
LINE
  8
_1-9_センタ__プレ__ト
  6
CONTINUOUS
 62
    4
 10
74.499999999999886
 20
64.099999333333528
 11
75.499999999999659
 21
64.099999333333528
  0
LINE
  8
_1-9_センタ__プレ__ト
  6
CONTINUOUS
 62
    4
 10
75.499999999999659
 20
63.999999333333477
 11
75.499999999999659
 21
64.099999333333528
  0
LINE
  8
_1-9_センタ__プレ__ト
  6
CONTINUOUS
 62
    4
 10
75.499999999999659
 20
63.999999333333477
 11
76.499999999999659
 21
63.999999333333477
  0
LINE
  8
_1-9_センタ__プレ__ト
  6
CONTINUOUS
 62
    4
 10
76.499999999999659
 20
63.999999333333477
 11
76.499999999999659
 21
64.099999333333528
  0
LINE
  8
_1-9_センタ__プレ__ト
  6
CONTINUOUS
 62
    4
 10
76.499999999999659
 20
64.099999333333528
 11
77.499999999999545
 21
64.099999333333528
  0
LINE
  8
_1-9_センタ__プレ__ト
  6
CONTINUOUS
 62
    4
 10
77.499999999999545
 20
63.999999333333477
 11
77.499999999999545
 21
64.099999333333528
  0
LINE
  8
_1-9_センタ__プレ__ト
  6
CONTINUOUS
 62
    4
 10
77.499999999999545
 20
63.999999333333477
 11
78.499999999999659
 21
63.999999333333477
  0
LINE
  8
_1-9_センタ__プレ__ト
  6
CONTINUOUS
 62
    4
 10
78.499999999999659
 20
63.999999333333477
 11
78.499999999999659
 21
64.099999333333528
  0
LINE
  8
_1-9_センタ__プレ__ト
  6
CONTINUOUS
 62
    4
 10
78.499999999999659
 20
64.099999333333528
 11
79.499999999999432
 21
64.099999333333528
  0
LINE
  8
_1-9_センタ__プレ__ト
  6
CONTINUOUS
 62
    4
 10
79.499999999999432
 20
63.999999333333477
 11
79.499999999999432
 21
64.099999333333528
  0
LINE
  8
_1-9_センタ__プレ__ト
  6
CONTINUOUS
 62
    4
 10
79.499999999999432
 20
63.999999333333477
 11
80.499999999999659
 21
63.999999333333477
  0
LINE
  8
_1-9_センタ__プレ__ト
  6
CONTINUOUS
 62
    4
 10
80.499999999999659
 20
63.999999333333477
 11
80.499999999999659
 21
64.099999333333528
  0
LINE
  8
_1-9_センタ__プレ__ト
  6
CONTINUOUS
 62
    4
 10
80.499999999999659
 20
64.099999333333528
 11
81.499999999999545
 21
64.099999333333528
  0
LINE
  8
_1-9_センタ__プレ__ト
  6
CONTINUOUS
 62
    4
 10
81.499999999999545
 20
63.999999333333477
 11
81.499999999999545
 21
64.099999333333528
  0
LINE
  8
_1-9_センタ__プレ__ト
  6
CONTINUOUS
 62
    4
 10
81.499999999999545
 20
63.999999333333477
 11
82.499999999999545
 21
63.999999333333477
  0
LINE
  8
_1-9_センタ__プレ__ト
  6
CONTINUOUS
 62
    4
 10
82.499999999999545
 20
63.999999333333477
 11
82.499999999999545
 21
64.099999333333528
  0
LINE
  8
_1-9_センタ__プレ__ト
  6
CONTINUOUS
 62
    4
 10
82.499999999999545
 20
64.099999333333528
 11
83.499999999999375
 21
64.099999333333528
  0
LINE
  8
_1-9_センタ__プレ__ト
  6
CONTINUOUS
 62
    4
 10
83.499999999999375
 20
63.999999333333477
 11
83.499999999999375
 21
64.099999333333528
  0
LINE
  8
_1-9_センタ__プレ__ト
  6
CONTINUOUS
 62
    4
 10
83.499999999999375
 20
63.999999333333477
 11
84.499999999999545
 21
63.999999333333477
  0
LINE
  8
_1-9_センタ__プレ__ト
  6
CONTINUOUS
 62
    4
 10
84.499999999999545
 20
63.999999333333477
 11
84.499999999999545
 21
64.099999333333528
  0
LINE
  8
_1-9_センタ__プレ__ト
  6
CONTINUOUS
 62
    4
 10
84.499999999999545
 20
64.099999333333528
 11
85.499999999999432
 21
64.099999333333528
  0
LINE
  8
_1-9_センタ__プレ__ト
  6
CONTINUOUS
 62
    4
 10
85.499999999999432
 20
63.999999333333477
 11
85.499999999999432
 21
64.099999333333528
  0
LINE
  8
_1-9_センタ__プレ__ト
  6
CONTINUOUS
 62
    4
 10
85.499999999999432
 20
63.999999333333477
 11
86.499999999999545
 21
63.999999333333477
  0
LINE
  8
_1-9_センタ__プレ__ト
  6
CONTINUOUS
 62
    4
 10
86.499999999999545
 20
63.999999333333477
 11
86.499999999999545
 21
64.099999333333528
  0
LINE
  8
_1-9_センタ__プレ__ト
  6
CONTINUOUS
 62
    4
 10
86.499999999999545
 20
64.099999333333528
 11
87.499999999999375
 21
64.099999333333528
  0
LINE
  8
_1-9_センタ__プレ__ト
  6
CONTINUOUS
 62
    4
 10
87.499999999999375
 20
63.999999333333477
 11
87.499999999999375
 21
64.099999333333528
  0
LINE
  8
_1-9_センタ__プレ__ト
  6
CONTINUOUS
 62
    4
 10
87.499999999999375
 20
63.999999333333477
 11
88.499999999999375
 21
63.999999333333477
  0
LINE
  8
_1-9_センタ__プレ__ト
  6
CONTINUOUS
 62
    4
 10
88.499999999999375
 20
63.999999333333477
 11
88.499999999999375
 21
64.099999333333528
  0
LINE
  8
_1-9_センタ__プレ__ト
  6
CONTINUOUS
 62
    4
 10
88.499999999999375
 20
64.099999333333528
 11
89.499999999999204
 21
64.099999333333528
  0
LINE
  8
_1-9_センタ__プレ__ト
  6
CONTINUOUS
 62
    4
 10
89.499999999999204
 20
63.999999333333477
 11
89.499999999999204
 21
64.099999333333528
  0
LINE
  8
_1-9_センタ__プレ__ト
  6
CONTINUOUS
 62
    4
 10
89.499999999999204
 20
63.999999333333477
 11
90.499999999999432
 21
63.999999333333477
  0
LINE
  8
_1-9_センタ__プレ__ト
  6
CONTINUOUS
 62
    4
 10
90.499999999999432
 20
63.999999333333477
 11
90.499999999999432
 21
64.099999333333528
  0
LINE
  8
_1-9_センタ__プレ__ト
  6
CONTINUOUS
 62
    4
 10
90.499999999999432
 20
64.099999333333528
 11
91.499999999999318
 21
64.099999333333528
  0
LINE
  8
_1-9_センタ__プレ__ト
  6
CONTINUOUS
 62
    4
 10
91.499999999999318
 20
63.999999333333477
 11
91.499999999999318
 21
64.099999333333528
  0
LINE
  8
_1-9_センタ__プレ__ト
  6
CONTINUOUS
 62
    4
 10
91.499999999999318
 20
63.999999333333477
 11
92.499999999999375
 21
63.999999333333477
  0
LINE
  8
_1-9_センタ__プレ__ト
  6
CONTINUOUS
 62
    4
 10
92.499999999999375
 20
63.999999333333477
 11
92.499999999999375
 21
64.099999333333528
  0
LINE
  8
_1-9_センタ__プレ__ト
  6
CONTINUOUS
 62
    4
 10
92.499999999999375
 20
64.099999333333528
 11
93.499999999999204
 21
64.099999333333528
  0
LINE
  8
_1-9_センタ__プレ__ト
  6
CONTINUOUS
 62
    4
 10
93.499999999999204
 20
63.999999333333477
 11
93.499999999999204
 21
64.099999333333528
  0
LINE
  8
_1-9_センタ__プレ__ト
  6
CONTINUOUS
 62
    4
 10
93.499999999999204
 20
63.999999333333477
 11
94.499999999999204
 21
63.999999333333477
  0
LINE
  8
_1-9_センタ__プレ__ト
  6
CONTINUOUS
 62
    4
 10
94.499999999999204
 20
63.999999333333477
 11
94.499999999999204
 21
64.099999333333528
  0
LINE
  8
_1-9_センタ__プレ__ト
  6
CONTINUOUS
 62
    4
 10
113.49999799999989
 20
63.999999333333477
 11
113.49999799999989
 21
64.099999333333528
  0
LINE
  8
_1-9_センタ__プレ__ト
  6
CONTINUOUS
 62
    4
 10
108.49999999999966
 20
64.099999333333528
 11
109.49999999999943
 21
64.099999333333528
  0
LINE
  8
_1-9_センタ__プレ__ト
  6
CONTINUOUS
 62
    4
 10
109.49999999999943
 20
63.999999333333477
 11
109.49999999999943
 21
64.099999333333528
  0
LINE
  8
_1-9_センタ__プレ__ト
  6
CONTINUOUS
 62
    4
 10
109.49999999999943
 20
63.999999333333477
 11
110.49999999999966
 21
63.999999333333477
  0
LINE
  8
_1-9_センタ__プレ__ト
  6
CONTINUOUS
 62
    4
 10
110.49999999999966
 20
63.999999333333477
 11
110.49999999999966
 21
64.099999333333528
  0
LINE
  8
_1-9_センタ__プレ__ト
  6
CONTINUOUS
 62
    4
 10
110.49999999999966
 20
64.099999333333528
 11
111.49999999999955
 21
64.099999333333528
  0
LINE
  8
_1-9_センタ__プレ__ト
  6
CONTINUOUS
 62
    4
 10
111.49999999999955
 20
63.999999333333477
 11
111.49999999999955
 21
64.099999333333528
  0
LINE
  8
_1-9_センタ__プレ__ト
  6
CONTINUOUS
 62
    4
 10
111.49999999999955
 20
63.999999333333477
 11
112.49999999999955
 21
63.999999333333477
  0
LINE
  8
_1-9_センタ__プレ__ト
  6
CONTINUOUS
 62
    4
 10
112.49999999999955
 20
63.999999333333477
 11
112.49999999999955
 21
64.099999333333528
  0
LINE
  8
_1-9_センタ__プレ__ト
  6
CONTINUOUS
 62
    4
 10
112.49999999999955
 20
64.099999333333528
 11
113.49999999999943
 21
64.099999333333528
  0
LINE
  8
_1-9_センタ__プレ__ト
  6
CONTINUOUS
 62
    4
 10
94.499999999999204
 20
64.099999333333528
 11
95.499999999999091
 21
64.099999333333528
  0
LINE
  8
_1-9_センタ__プレ__ト
  6
CONTINUOUS
 62
    4
 10
95.499999999999091
 20
63.999999333333477
 11
95.499999999999091
 21
64.099999333333528
  0
LINE
  8
_1-9_センタ__プレ__ト
  6
CONTINUOUS
 62
    4
 10
95.499999999999091
 20
63.999999333333477
 11
96.499999999999318
 21
63.999999333333477
  0
LINE
  8
_1-9_センタ__プレ__ト
  6
CONTINUOUS
 62
    4
 10
96.499999999999318
 20
63.999999333333477
 11
96.499999999999318
 21
64.099999333333528
  0
LINE
  8
_1-9_センタ__プレ__ト
  6
CONTINUOUS
 62
    4
 10
96.499999999999318
 20
64.099999333333528
 11
97.499999999999091
 21
64.099999333333528
  0
LINE
  8
_1-9_センタ__プレ__ト
  6
CONTINUOUS
 62
    4
 10
97.499999999999091
 20
63.999999333333477
 11
97.499999999999091
 21
64.099999333333528
  0
LINE
  8
_1-9_センタ__プレ__ト
  6
CONTINUOUS
 62
    4
 10
97.499999999999091
 20
63.999999333333477
 11
98.499999999999204
 21
63.999999333333477
  0
LINE
  8
_1-9_センタ__プレ__ト
  6
CONTINUOUS
 62
    4
 10
98.499999999999204
 20
63.999999333333477
 11
98.499999999999204
 21
64.099999333333528
  0
LINE
  8
_1-9_センタ__プレ__ト
  6
CONTINUOUS
 62
    4
 10
98.499999999999204
 20
64.099999333333528
 11
99.499999999999091
 21
64.099999333333528
  0
LINE
  8
_1-9_センタ__プレ__ト
  6
CONTINUOUS
 62
    4
 10
99.499999999999091
 20
63.999999333333477
 11
99.499999999999091
 21
64.099999333333528
  0
LINE
  8
_1-9_センタ__プレ__ト
  6
CONTINUOUS
 62
    4
 10
99.499999999999091
 20
63.999999333333477
 11
100.49999999999909
 21
63.999999333333477
  0
LINE
  8
_1-9_センタ__プレ__ト
  6
CONTINUOUS
 62
    4
 10
100.49999999999909
 20
63.999999333333477
 11
100.49999999999909
 21
64.099999333333528
  0
LINE
  8
_1-9_センタ__プレ__ト
  6
CONTINUOUS
 62
    4
 10
100.49999999999909
 20
64.099999333333528
 11
101.49999999999892
 21
64.099999333333528
  0
LINE
  8
_1-9_センタ__プレ__ト
  6
CONTINUOUS
 62
    4
 10
101.49999999999892
 20
63.999999333333477
 11
101.49999999999892
 21
64.099999333333528
  0
LINE
  8
_1-9_センタ__プレ__ト
  6
CONTINUOUS
 62
    4
 10
101.49999999999892
 20
63.999999333333477
 11
102.49999999999909
 21
63.999999333333477
  0
LINE
  8
_1-9_センタ__プレ__ト
  6
CONTINUOUS
 62
    4
 10
102.49999999999909
 20
63.999999333333477
 11
102.49999999999909
 21
64.099999333333528
  0
LINE
  8
_1-9_センタ__プレ__ト
  6
CONTINUOUS
 62
    4
 10
102.49999999999909
 20
64.099999333333528
 11
103.49999999999898
 21
64.099999333333528
  0
LINE
  8
_1-9_センタ__プレ__ト
  6
CONTINUOUS
 62
    4
 10
103.49999999999898
 20
63.999999333333477
 11
103.49999999999898
 21
64.099999333333528
  0
LINE
  8
_1-9_センタ__プレ__ト
  6
CONTINUOUS
 62
    4
 10
103.49999999999898
 20
63.999999333333477
 11
104.49999999999909
 21
63.999999333333477
  0
LINE
  8
_1-9_センタ__プレ__ト
  6
CONTINUOUS
 62
    4
 10
104.49999999999909
 20
63.999999333333477
 11
104.49999999999909
 21
64.099999333333528
  0
LINE
  8
_1-9_センタ__プレ__ト
  6
CONTINUOUS
 62
    4
 10
104.49999999999909
 20
64.099999333333528
 11
105.49999999999892
 21
64.099999333333528
  0
LINE
  8
_1-9_センタ__プレ__ト
  6
CONTINUOUS
 62
    4
 10
105.49999999999892
 20
63.999999333333477
 11
105.49999999999892
 21
64.099999333333528
  0
LINE
  8
_1-9_センタ__プレ__ト
  6
CONTINUOUS
 62
    4
 10
105.49999999999892
 20
63.999999333333477
 11
106.49999999999892
 21
63.999999333333477
  0
LINE
  8
_1-9_センタ__プレ__ト
  6
CONTINUOUS
 62
    4
 10
106.49999999999892
 20
63.999999333333477
 11
106.49999999999892
 21
64.099999333333528
  0
LINE
  8
_1-9_センタ__プレ__ト
  6
CONTINUOUS
 62
    4
 10
106.49999999999892
 20
64.099999333333528
 11
107.49999999999875
 21
64.099999333333528
  0
LINE
  8
_1-9_センタ__プレ__ト
  6
CONTINUOUS
 62
    4
 10
107.49999999999875
 20
63.999999333333477
 11
107.49999999999875
 21
64.099999333333528
  0
LINE
  8
_1-9_センタ__プレ__ト
  6
CONTINUOUS
 62
    4
 10
107.49999999999875
 20
63.999999333333477
 11
108.49999999999898
 21
63.999999333333477
  0
LINE
  8
_1-9_センタ__プレ__ト
  6
CONTINUOUS
 62
    4
 10
108.49999999999898
 20
63.999999333333477
 11
108.49999999999898
 21
64.099999333333528
  0
LINE
  8
_1-9_センタ__プレ__ト
  6
CENTER2
 62
    4
 10
66.999999999999886
 20
60.598595019007973
 11
66.999999999999886
 21
65.099999333333415
  0
LINE
  8
_1-9_センタ__プレ__ト
  6
CONTINUOUS
 62
    4
 10
116.45315189351788
 20
63.788690202463073
 11
116.49541371969218
 21
63.879320981166813
  0
LINE
  8
_1-9_センタ__プレ__ト
  6
CONTINUOUS
 62
    4
 10
117.40172150672845
 20
63.456702719426232
 11
116.49541371969218
 21
63.879320981166813
  0
LINE
  8
_1-9_センタ__プレ__ト
  6
CONTINUOUS
 62
    4
 10
118.26576746759099
 20
62.943453678981825
 11
118.30802929376523
 21
63.034084457685537
  0
LINE
  8
_1-9_センタ__プレ__ト
  6
CONTINUOUS
 62
    4
 10
117.35945968055449
 20
63.36607194072252
 11
117.40172150672845
 21
63.456702719426232
  0
LINE
  8
_1-9_センタ__プレ__ト
  6
CONTINUOUS
 62
    4
 10
118.26576746759099
 20
62.943453678981825
 11
117.35945968055449
 21
63.36607194072252
  0
LINE
  8
_1-9_センタ__プレ__ト
  6
CONTINUOUS
 62
    4
 10
119.21433708080178
 20
62.611466195945184
 11
118.30802929376523
 21
63.034084457685765
  0
LINE
  8
_1-9_センタ__プレ__ト
  6
CONTINUOUS
 62
    4
 10
120.0783830416641
 20
62.098217155500777
 11
120.12064486783839
 21
62.188847934204574
  0
LINE
  8
_1-9_センタ__プレ__ト
  6
CONTINUOUS
 62
    4
 10
119.17207525462783
 20
62.520835417241557
 11
119.21433708080178
 21
62.611466195945184
  0
LINE
  8
_1-9_センタ__プレ__ト
  6
CONTINUOUS
 62
    4
 10
120.0783830416641
 20
62.098217155500777
 11
119.17207525462783
 21
62.520835417241557
  0
LINE
  8
_1-9_センタ__プレ__ト
  6
CONTINUOUS
 62
    4
 10
121.02695265487466
 20
61.76622967246422
 11
120.12064486783839
 21
62.188847934204802
  0
LINE
  8
_1-9_センタ__プレ__ト
  6
CONTINUOUS
 62
    4
 10
120.98469082870088
 20
61.675598893760537
 11
121.02695265487466
 21
61.76622967246422
  0
LINE
  8
_1-9_センタ__プレ__ト
  6
CONTINUOUS
 62
    4
 10
121.43784472221921
 20
61.464289762890218
 11
120.98469082870088
 21
61.675598893760537
  0
LINE
  8
_1-9_センタ__プレ__ト
  6
CONTINUOUS
 62
    4
 10
121.05748828665219
 20
60.648612754556694
 11
121.43784472221887
 21
61.464289762890218
  0
LINE
  8
_1-9_センタ__プレ__ト
  6
CONTINUOUS
 62
    4
 10
115.99999799999978
 20
63.999999333333477
 11
115.49999800000006
 21
63.999999333333477
  0
LINE
  8
_1-9_センタ__プレ__ト
  6
CONTINUOUS
 62
    4
 10
116.45315189351788
 20
63.788690202463073
 11
115.99999799999978
 21
63.999999333333477
  0
LINE
  8
_1-9_センタ__プレ__ト
  6
CONTINUOUS
 62
    4
 10
121.05748828665219
 20
60.648612754556694
 11
115.80047280362123
 21
63.099999333333528
  0
LINE
  8
_1-9_センタ__プレ__ト
  6
CONTINUOUS
 62
    4
 10
115.80047280362123
 20
63.099999333333528
 11
54.755185668059653
 21
63.099999333333528
  0
LINE
  8
_1-9_センタ__プレ__ト
  6
CONTINUOUS
 62
    4
 10
115.49999600000029
 20
64.099999333333528
 11
114.4999959999999
 21
64.099999333333528
  0
LINE
  8
_1-9_センタ__プレ__ト
  6
CONTINUOUS
 62
    4
 10
113.49999799999989
 20
63.999999333333477
 11
114.49999800000001
 21
63.999999333333477
  0
LINE
  8
_1-9_センタ__プレ__ト
  6
CONTINUOUS
 62
    4
 10
114.49999800000001
 20
63.999999333333477
 11
114.49999800000001
 21
64.099999333333528
  0
LINE
  8
_1-9_センタ__プレ__ト
  6
CONTINUOUS
 62
    4
 10
115.49999799999978
 20
63.999999333333477
 11
115.49999799999978
 21
64.099999333333528
  0
ENDBLK
  0
BLOCK
  2
-035-_30_
 70
   64
 10
0
 20
0
 30
0
  0
LINE
  8
_1-7_カバ__
  6
CENTER2
 62
    4
 10
57.266666659437533
 20
77.166666723381013
 11
58.999999992770938
 21
77.166666723381013
  0
LINE
  8
_1-7_カバ__
  6
DASHED1
 62
    4
 10
57.999999992770995
 20
75.7500000567141
 11
58.333333326104139
 21
75.416666723380956
  0
LINE
  8
_1-7_カバ__
  6
DASHED1
 62
    4
 10
57.999999992770995
 20
75.7500000567141
 11
57.999999992770995
 21
78.583333390047898
  0
LINE
  8
_1-7_カバ__
  6
DASHED1
 62
    4
 10
57.999999992770995
 20
78.583333390047898
 11
58.333333326104139
 21
78.916666723381013
  0
LINE
  8
_1-7_カバ__
  6
DASHED1
 62
    4
 10
57.999999992770995
 20
75.7500000567141
 11
57.833333326104366
 21
75.7500000567141
  0
LINE
  8
_1-7_カバ__
  6
DASHED1
 62
    4
 10
57.999999992770995
 20
78.583333390047898
 11
57.833333326104366
 21
78.583333390047898
  0
ARC
  8
_1-7_カバ__
  6
CONTINUOUS
 62
    4
 10
54.333333326104253
 20
81.16666672338107
 40
0.1666666666666666
 50
90
 51
180
  0
LINE
  8
_1-7_カバ__
  6
CONTINUOUS
 62
    4
 10
57.666666659437681
 20
81.333333390047756
 11
54.333333326104253
 21
81.333333390047756
  0
ARC
  8
_1-7_カバ__
  6
CONTINUOUS
 62
    4
 10
57.666666659437681
 20
81.16666672338107
 40
0.1666666666666666
 50
0
 51
90
  0
ARC
  8
_1-7_カバ__
  6
CONTINUOUS
 62
    4
 10
57.666666659437453
 20
81.166666723381155
 40
0.6666666666666666
 50
0
 51
90
  0
LINE
  8
_1-7_カバ__
  6
CONTINUOUS
 62
    4
 10
54.333333326104253
 20
81.833333390047812
 11
57.666666659437453
 21
81.833333390047812
  0
ARC
  8
_1-7_カバ__
  6
CONTINUOUS
 62
    4
 10
54.333333326104253
 20
81.166666723381155
 40
0.6666666666666666
 50
90
 51
180
  0
LINE
  8
_1-7_カバ__
  6
CONTINUOUS
 62
    4
 10
54.166666659437567
 20
78.500000056714441
 11
53.666666659437624
 21
78.500000056714441
  0
LINE
  8
_1-7_カバ__
  6
CONTINUOUS
 62
    4
 10
54.166666659437567
 20
81.16666672338107
 11
54.166666659437567
 21
78.500000056714441
  0
LINE
  8
_1-7_カバ__
  6
CONTINUOUS
 62
    4
 10
53.666666659437624
 20
81.166666723381155
 11
53.666666659437624
 21
78.500000056714441
  0
ARC
  8
_1-7_カバ__
  6
CONTINUOUS
 62
    4
 10
57.666666659437453
 20
67.500000056714441
 40
0.6666666666666666
 50
270
 51
0
  0
LINE
  8
_1-7_カバ__
  6
CONTINUOUS
 62
    4
 10
54.999999992770768
 20
67.333333390047585
 11
54.999999992770768
 21
66.833333390047812
  0
LINE
  8
_1-7_カバ__
  6
CONTINUOUS
 62
    4
 10
54.999999992770768
 20
67.333333390047585
 11
57.666666659437681
 21
67.333333390047585
  0
LINE
  8
_1-7_カバ__
  6
CONTINUOUS
 62
    4
 10
57.666666659437453
 20
66.833333390047812
 11
54.999999992770768
 21
66.833333390047812
  0
LINE
  8
_1-7_カバ__
  6
CONTINUOUS
 62
    4
 10
58.333333326104139
 20
81.166666723381155
 11
58.333333326104139
 21
67.500000056714441
  0
ARC
  8
_1-7_カバ__
  6
CONTINUOUS
 62
    4
 10
57.666666659437681
 20
67.500000056714271
 40
0.1666666666666666
 50
270
 51
0
  0
LINE
  8
_1-7_カバ__
  6
CONTINUOUS
 62
    4
 10
57.833333326104366
 20
67.500000056714271
 11
57.833333326104366
 21
81.16666672338107
  0
ENDBLK
  0
BLOCK
  2
-036-_31_
 70
   64
 10
0
 20
0
 30
0
  0
ARC
  8
_1-8_小物
  6
CONTINUOUS
 62
    4
 10
53.766666659437647
 20
78.500000056714441
 40
0.0999999999999999
 50
180
 51
270
  0
LINE
  8
_1-8_小物
  6
CONTINUOUS
 62
    4
 10
52.999999992770995
 20
81.333333390047756
 11
52.54093260614934
 21
81.333333390047756
  0
ARC
  8
_1-8_小物
  6
CONTINUOUS
 62
    4
 10
52.999999992770995
 20
81.166666723381127
 40
0.1666666666666666
 50
0
 51
90
  0
LINE
  8
_1-8_小物
  6
CONTINUOUS
 62
    4
 10
52.999999992770995
 20
81.833333390047756
 11
52.499999992770995
 21
81.833333390047756
  0
ARC
  8
_1-8_小物
  6
CONTINUOUS
 62
    4
 10
52.999999992770995
 20
81.166666723381127
 40
0.6666666666666666
 50
0
 51
90
  0
LINE
  8
_1-8_小物
  6
CONTINUOUS
 62
    4
 10
53.166666659437624
 20
81.166666723381127
 11
53.166666659437624
 21
78.566666723381104
  0
ARC
  8
_1-8_小物
  6
CONTINUOUS
 62
    4
 10
53.666666659437624
 20
78.566666723381104
 40
0.5
 50
180.00000000000651
 51
270
  0
ARC
  8
_1-8_小物
  6
CONTINUOUS
 62
    4
 10
50.041329586227107
 20
80.921310914236415
 40
0.4999999999999946
 50
99.360190801914598
 51
259.36019080191221
  0
LINE
  8
_1-8_小物
  6
CONTINUOUS
 62
    4
 10
52.54093260614934
 20
81.333333390047756
 11
50.227855285742294
 21
80.952056908661973
  0
ARC
  8
_1-8_小物
  6
CONTINUOUS
 62
    4
 10
50.233276634108165
 20
80.919167395241971
 40
0.0333333333333333
 50
99.360190801999138
 51
259.36019080183718
  0
ARC
  8
_1-8_小物
  6
CONTINUOUS
 62
    4
 10
51.223680151198892
 20
80.444816274695881
 40
0.25
 50
259.3601908019134
 51
79.360190801911017
  0
LINE
  8
_1-8_小物
  6
CONTINUOUS
 62
    4
 10
51.177521588401646
 20
80.19911444914203
 11
49.949012460632389
 21
80.429907263128769
  0
LINE
  8
_1-8_小物
  6
CONTINUOUS
 62
    4
 10
52.499999992770995
 20
81.833333390047756
 11
49.960009360738127
 21
81.414653615536849
  0
LINE
  8
_1-8_小物
  6
CONTINUOUS
 62
    4
 10
53.666666659437624
 20
81.166666723381127
 11
53.666666659437624
 21
78.500000056714441
  0
ARC
  8
_1-8_小物
  6
CONTINUOUS
 62
    4
 10
54.40771810623346
 20
80.354889947306106
 40
0.1666666666666666
 50
92.719482039968085
 51
182.7194820399676
  0
ARC
  8
_1-8_小物
  6
CONTINUOUS
 62
    4
 10
54.233331456889687
 20
80.513461231232839
 40
0.3333333333333333
 50
92.719482039968085
 51
182.71948203995831
  0
LINE
  8
_1-8_小物
  6
CONTINUOUS
 62
    4
 10
54.217516091472589
 20
80.846419164503459
 11
54.550474024743153
 21
80.862234529920556
  0
ARC
  8
_1-8_小物
  6
CONTINUOUS
 62
    4
 10
54.558381707451758
 20
80.695755563285218
 40
0.1666666666666666
 50
272.71948203994856
 51
92.719482039967602
  0
LINE
  8
_1-8_小物
  6
CONTINUOUS
 62
    4
 10
54.399810423524968
 20
80.521368913941387
 11
54.56628939016025
 21
80.529276596649879
  0
LINE
  8
_1-8_小物
  6
CONTINUOUS
 62
    4
 10
53.895148134118813
 20
78.400000056714475
 11
53.766666659437647
 21
78.400000056714475
  0
LINE
  8
_1-8_小物
  6
CONTINUOUS
 62
    4
 10
54.241239139598179
 20
80.3469822645975
 11
54.332968773413768
 21
78.415815422131516
  0
LINE
  8
_1-8_小物
  6
CONTINUOUS
 62
    4
 10
54.000010840143204
 20
78.066666723381104
 11
53.666666659437624
 21
78.066666723381104
  0
ARC
  8
_1-8_小物
  6
CONTINUOUS
 62
    4
 10
53.895148134118813
 20
78.500000056714441
 40
0.0999999999999999
 50
270
 51
2.7194820399718083
  0
ARC
  8
_1-8_小物
  6
CONTINUOUS
 62
    4
 10
54.000010840143204
 20
78.400000056714475
 40
0.3333333333333333
 50
270
 51
2.7194820399587911
  0
LINE
  8
_1-8_小物
  6
CONTINUOUS
 62
    4
 10
53.900373523619123
 20
80.497645865815798
 11
53.995035514099982
 21
78.504744666339548
  0
LINE
  8
_1-8_小物
  6
CONTINUOUS
 62
    4
 10
51.269838713996364
 20
80.690518100249619
 11
50.227122159068585
 21
80.886407151834817
  0
ENDBLK
  0
BLOCK
  2
-037-_32_
 70
   64
 10
0
 20
0
 30
0
  0
ARC
  8
_1-8_小物
  6
CONTINUOUS
 62
    4
 10
54.999999992770768
 20
66.933333390047807
 40
0.0999999999999999
 50
179.99999999998371
 51
270
  0
ARC
  8
_1-8_小物
  6
CONTINUOUS
 62
    4
 10
57.666666659437396
 20
66.166666723381155
 40
0.1666666666666666
 50
0
 51
90
  0
ARC
  8
_1-8_小物
  6
CONTINUOUS
 62
    4
 10
57.666666659437396
 20
66.166666723381155
 40
0.6666666666666666
 50
0
 51
90
  0
ARC
  8
_1-8_小物
  6
CONTINUOUS
 62
    4
 10
55.066666659437374
 20
66.833333390047812
 40
0.5
 50
180
 51
270
  0
ARC
  8
_1-8_小物
  6
CONTINUOUS
 62
    4
 10
57.019760967054253
 20
67.499987618417578
 40
0.3333333333333333
 50
265.47574222620528
 51
355.47574222621506
  0
LINE
  8
_1-8_小物
  6
CONTINUOUS
 62
    4
 10
54.899999992770745
 20
67.225118893177807
 11
54.899999992770745
 21
66.933333390047807
  0
ARC
  8
_1-8_小物
  6
CONTINUOUS
 62
    4
 10
54.999999992770768
 20
67.225118893177807
 40
0.0999999999999999
 50
85.47574222622859
 51
180
  0
LINE
  8
_1-8_小物
  6
CONTINUOUS
 62
    4
 10
57.666666659437396
 20
66.833333390047812
 11
54.999999992770768
 21
66.833333390047812
  0
LINE
  8
_1-8_小物
  6
CONTINUOUS
 62
    4
 10
56.993467246530201
 20
67.167692942907934
 11
55.007888108927887
 21
67.324807295830738
  0
ARC
  8
_1-8_小物
  6
CONTINUOUS
 62
    4
 10
56.805560298564217
 20
67.750999495641281
 40
0.1666666666666666
 50
265.47574222621506
 51
355.47574222620534
  0
LINE
  8
_1-8_小物
  6
CONTINUOUS
 62
    4
 10
56.792413438302219
 20
67.58485215788636
 11
54.92629371329474
 21
67.732513959684468
  0
LINE
  8
_1-8_小物
  6
CONTINUOUS
 62
    4
 10
54.566666659437374
 20
67.400219284174739
 11
54.566666659437374
 21
66.833333390047812
  0
ARC
  8
_1-8_小物
  6
CONTINUOUS
 62
    4
 10
54.899999992770745
 20
67.400219284174739
 40
0.3333333333333333
 50
85.47574222621509
 51
180
  0
LINE
  8
_1-8_小物
  6
CONTINUOUS
 62
    4
 10
57.352055642563982
 20
67.473693897893611
 11
57.375719991035567
 21
67.772759105852401
  0
LINE
  8
_1-8_小物
  6
CONTINUOUS
 62
    4
 10
56.971707636319081
 20
67.737852635379255
 11
56.976966380423903
 21
67.804311570481161
  0
ARC
  8
_1-8_小物
  6
CONTINUOUS
 62
    4
 10
57.176343185729706
 20
67.788535338166781
 40
0.1999999999999963
 50
355.47574222621921
 51
175.47574222620426
  0
LINE
  8
_1-8_小物
  6
CONTINUOUS
 62
    4
 10
55.566666659437374
 20
66.166666723381155
 11
55.399999992770745
 21
66.333333390047812
  0
LINE
  8
_1-8_小物
  6
CONTINUOUS
 62
    4
 10
55.566666659437374
 20
66.166666723381155
 11
55.733333326104059
 21
66.333333390047812
  0
LINE
  8
_1-8_小物
  6
CONTINUOUS
 62
    4
 10
57.666666659437396
 20
66.333333390047812
 11
55.733333326104059
 21
66.333333390047812
  0
LINE
  8
_1-8_小物
  6
CONTINUOUS
 62
    4
 10
55.399999992770745
 20
66.333333390047812
 11
55.066666659437374
 21
66.333333390047812
  0
ARC
  8
_1-8_小物
  6
CONTINUOUS
 62
    4
 10
57.421310850292741
 20
62.707996316837352
 40
0.4999999999999946
 50
190.63980919808779
 51
350.6398091980854
  0
LINE
  8
_1-8_小物
  6
CONTINUOUS
 62
    4
 10
57.833333326104025
 20
65.207599336759529
 11
57.4520568447183
 21
62.894522016352425
  0
ARC
  8
_1-8_小物
  6
CONTINUOUS
 62
    4
 10
57.419167331298297
 20
62.899943364718354
 40
0.0333333333333333
 50
190.6398091980758
 51
350.63980919809728
  0
ARC
  8
_1-8_小物
  6
CONTINUOUS
 62
    4
 10
56.944816210752151
 20
63.89034688180908
 40
0.25
 50
10.639809198089004
 51
190.63980919808657
  0
LINE
  8
_1-8_小物
  6
CONTINUOUS
 62
    4
 10
56.6991143851983
 20
63.844188319011721
 11
56.929907199185095
 21
62.615679191242634
  0
LINE
  8
_1-8_小物
  6
CONTINUOUS
 62
    4
 10
58.333333326104025
 20
65.166666723381155
 11
57.914653551593176
 21
62.626676091348259
  0
LINE
  8
_1-8_小物
  6
CONTINUOUS
 62
    4
 10
57.190518036305946
 20
63.936505444606439
 11
57.386407087891087
 21
62.893788889678717
  0
LINE
  8
_1-8_小物
  6
CONTINUOUS
 62
    4
 10
57.833333326104025
 20
66.166666723381155
 11
57.833333326104025
 21
65.207599336759529
  0
LINE
  8
_1-8_小物
  6
CONTINUOUS
 62
    4
 10
58.333333326104025
 20
66.166666723381155
 11
58.333333326104025
 21
65.166666723381155
  0
ENDBLK
  0
BLOCK
  2
-038-_33_
 70
   64
 10
0
 20
0
 30
0
  0
LINE
  8
_0-0_図面枠
  6
CONTINUOUS
 62
    7
 10
-21.739611258569283
 20
123.45090259426559
 11
-22.269941344419294
 21
123.1447495523156
  0
LINE
  8
_0-0_図面枠
  6
CONTINUOUS
 62
    7
 10
-20.833744600669291
 20
121.49924270821555
 11
-21.739611258569283
 21
123.45090259426559
  0
LINE
  8
_0-0_図面枠
  6
CONTINUOUS
 62
    7
 10
-24.214484992719292
 20
122.02218839856556
 11
-20.833744600669291
 21
121.49924270821555
  0
LINE
  8
_0-0_図面枠
  6
CONTINUOUS
 62
    7
 10
-23.684154906819288
 20
122.3283414405156
 11
-24.214484992719292
 21
122.02218839856556
  0
LINE
  8
_0-0_図面枠
  6
CONTINUOUS
 62
    7
 10
-28.280348984519293
 20
124.98166780391557
 11
-23.684154906819288
 21
122.3283414405156
  0
LINE
  8
_0-0_図面枠
  6
CONTINUOUS
 62
    7
 10
-32.87654306221927
 20
122.3283414405156
 11
-28.280348984519293
 21
124.98166780391557
  0
LINE
  8
_0-0_図面枠
  6
CONTINUOUS
 62
    7
 10
-32.346212976369287
 20
122.02218839856556
 11
-32.87654306221927
 21
122.3283414405156
  0
LINE
  8
_0-0_図面枠
  6
CONTINUOUS
 62
    7
 10
-35.726953368369294
 20
121.49924270821555
 11
-32.346212976369287
 21
122.02218839856556
  0
LINE
  8
_0-0_図面枠
  6
CONTINUOUS
 62
    7
 10
-34.821086710519324
 20
123.45090259426559
 11
-35.726953368369294
 21
121.49924270821555
  0
LINE
  8
_0-0_図面枠
  6
CONTINUOUS
 62
    7
 10
-34.29075662461932
 20
123.1447495523156
 11
-34.821086710519324
 21
123.45090259426559
  0
LINE
  8
_0-0_図面枠
  6
CONTINUOUS
 62
    7
 10
-29.694562546919286
 20
125.79807591576559
 11
-34.29075662461932
 21
123.1447495523156
  0
LINE
  8
_0-0_図面枠
  6
CONTINUOUS
 62
    7
 10
-34.29075662461932
 20
128.45140227916556
 11
-29.694562546919286
 21
125.79807591576559
  0
LINE
  8
_0-0_図面枠
  6
CONTINUOUS
 62
    7
 10
-34.821086710519324
 20
128.1452492372656
 11
-34.29075662461932
 21
128.45140227916556
  0
LINE
  8
_0-0_図面枠
  6
CONTINUOUS
 62
    7
 10
-35.726953368369294
 20
130.09690912331558
 11
-34.821086710519324
 21
128.1452492372656
  0
LINE
  8
_0-0_図面枠
  6
CONTINUOUS
 62
    7
 10
-32.346212976369287
 20
129.57396343296557
 11
-35.726953368369294
 21
130.09690912331558
  0
LINE
  8
_0-0_図面枠
  6
CONTINUOUS
 62
    7
 10
-32.87654306221927
 20
129.26781039101559
 11
-32.346212976369287
 21
129.57396343296557
  0
LINE
  8
_0-0_図面枠
  6
CONTINUOUS
 62
    7
 10
-28.280348984519293
 20
126.6144840275656
 11
-32.87654306221927
 21
129.26781039101559
  0
LINE
  8
_0-0_図面枠
  6
CONTINUOUS
 62
    7
 10
-23.684154906819288
 20
129.26781039101559
 11
-28.280348984519293
 21
126.6144840275656
  0
LINE
  8
_0-0_図面枠
  6
CONTINUOUS
 62
    7
 10
-24.214484992719292
 20
129.57396343296557
 11
-23.684154906819288
 21
129.26781039101559
  0
LINE
  8
_0-0_図面枠
  6
CONTINUOUS
 62
    7
 10
-20.833744600669291
 20
130.09690912331558
 11
-24.214484992719292
 21
129.57396343296557
  0
LINE
  8
_0-0_図面枠
  6
CONTINUOUS
 62
    7
 10
-21.739611258569283
 20
128.1452492372656
 11
-20.833744600669291
 21
130.09690912331558
  0
LINE
  8
_0-0_図面枠
  6
CONTINUOUS
 62
    7
 10
-22.269941344419294
 20
128.45140227916556
 11
-21.739611258569283
 21
128.1452492372656
  0
LINE
  8
_0-0_図面枠
  6
CONTINUOUS
 62
    7
 10
-26.866135422169293
 20
125.79807591576559
 11
-22.269941344419294
 21
128.45140227916556
  0
LINE
  8
_0-0_図面枠
  6
CONTINUOUS
 62
    7
 10
-22.269941344419294
 20
123.1447495523156
 11
-26.866135422169293
 21
125.79807591576559
  0
LINE
  8
_0-0_図面枠
  6
CONTINUOUS
 62
    7
 10
-35.726953368369294
 20
121.49924270821555
 11
-35.726953368369294
 21
120.88683709931558
  0
LINE
  8
_0-0_図面枠
  6
CONTINUOUS
 62
    7
 10
-32.346212976369287
 20
122.02218839856556
 11
-32.346212976369287
 21
121.4097827896656
  0
LINE
  8
_0-0_図面枠
  6
CONTINUOUS
 62
    7
 10
-35.726953368369294
 20
120.88683709931558
 11
-32.346212976369287
 21
121.4097827896656
  0
LINE
  8
_0-0_図面枠
  6
CONTINUOUS
 62
    7
 10
-24.214484992719292
 20
122.02218839856556
 11
-24.214484992719292
 21
121.4097827896656
  0
LINE
  8
_0-0_図面枠
  6
CONTINUOUS
 62
    7
 10
-20.833744600669291
 20
121.49924270821555
 11
-20.833744600669291
 21
120.88683709931558
  0
LINE
  8
_0-0_図面枠
  6
CONTINUOUS
 62
    7
 10
-24.214484992719292
 20
121.4097827896656
 11
-20.833744600669291
 21
120.88683709931558
  0
LINE
  8
_0-0_図面枠
  6
CONTINUOUS
 62
    7
 10
-28.280348984519293
 20
124.98166780391557
 11
-28.280348984519293
 21
124.36926219501561
  0
LINE
  8
_0-0_図面枠
  6
CONTINUOUS
 62
    7
 10
-32.346212976369287
 20
122.0220888735156
 11
-28.280348984519293
 21
124.36926219501561
  0
LINE
  8
_0-0_図面枠
  6
CONTINUOUS
 62
    7
 10
-28.280348984519293
 20
124.36926219501561
 11
-24.214484992719292
 21
122.0220888735156
  0
LINE
  8
_0-0_図面枠
  6
CONTINUOUS
 62
    7
 10
-34.29075662461932
 20
128.45140227916556
 11
-34.29075662461932
 21
127.8389966702656
  0
LINE
  8
_0-0_図面枠
  6
CONTINUOUS
 62
    7
 10
-34.29075662461932
 20
127.8389966702656
 11
-30.224978833369306
 21
125.49187311131561
  0
LINE
  8
_0-0_図面枠
  6
CONTINUOUS
 62
    7
 10
-22.269941344419294
 20
128.45140227916556
 11
-22.269941344419294
 21
127.8389966702656
  0
LINE
  8
_0-0_図面枠
  6
CONTINUOUS
 62
    7
 10
-26.335719135719302
 20
125.49187311131561
 11
-22.269941344419294
 21
127.8389966702656
  0
LINE
  8
_0-0_図面枠
  6
CONTINUOUS
 62
    7
 10
-21.739611258569283
 20
128.1452492372656
 11
-21.739611258569283
 21
127.53284362831556
  0
LINE
  8
_0-0_図面枠
  6
CONTINUOUS
 62
    7
 10
-22.269941344419294
 20
127.8389966702656
 11
-21.739611258569283
 21
127.53284362831556
  0
LINE
  8
_0-0_図面枠
  6
CONTINUOUS
 62
    7
 10
-20.833744600669291
 20
130.09690912331558
 11
-20.833744600669291
 21
129.48450351441556
  0
LINE
  8
_0-0_図面枠
  6
CONTINUOUS
 62
    7
 10
-21.739611258569283
 20
127.53284362831556
 11
-20.833744600669291
 21
129.48450351441556
  0
LINE
  8
_0-0_図面枠
  6
CONTINUOUS
 62
    7
 10
-34.821086710519324
 20
128.1452492372656
 11
-34.821086710519324
 21
127.53284362831556
  0
LINE
  8
_0-0_図面枠
  6
CONTINUOUS
 62
    7
 10
-34.821086710519324
 20
127.53284362831556
 11
-34.29075662461932
 21
127.8389966702656
  0
LINE
  8
_0-0_図面枠
  6
CONTINUOUS
 62
    7
 10
-35.726953368369294
 20
130.09690912331558
 11
-35.726953368369294
 21
129.48450351441556
  0
LINE
  8
_0-0_図面枠
  6
CONTINUOUS
 62
    7
 10
-35.726953368369294
 20
129.48450351441556
 11
-34.821086710519324
 21
127.53284362831556
  0
LINE
  8
_0-0_図面枠
  6
CONTINUOUS
 62
    7
 10
-24.214484992719292
 20
129.57396343296557
 11
-24.214484992719292
 21
128.9616573490656
  0
LINE
  8
_0-0_図面枠
  6
CONTINUOUS
 62
    7
 10
-32.346212976369287
 20
129.57396343296557
 11
-32.346212976369287
 21
128.9616573490656
  0
LINE
  8
ADD_LINE
  6
DOT
 62
    4
 10
-35.726953368369294
 20
130.09690912331558
 11
-20.834148028223836
 21
121.49854395119388
  0
LINE
  8
ADD_LINE
  6
DOT
 62
    4
 10
-20.833744600669291
 20
130.09690912331558
 11
-35.726549940814749
 21
121.49854395119388
  0
ENDBLK
  0
BLOCK
  2
-039-_34_
 70
   64
 10
0
 20
0
 30
0
  0
LINE
  8
_0-0_図面枠
  6
CONTINUOUS
 62
    7
 10
182.09184672266406
 20
123.49656859416353
 11
181.56151663681408
 21
123.19041555221355
  0
LINE
  8
_0-0_図面枠
  6
CONTINUOUS
 62
    7
 10
182.99771338056405
 20
121.5449087081135
 11
182.09184672266406
 21
123.49656859416353
  0
LINE
  8
_0-0_図面枠
  6
CONTINUOUS
 62
    7
 10
179.61697298851402
 20
122.06785439846351
 11
182.99771338056405
 21
121.5449087081135
  0
LINE
  8
_0-0_図面枠
  6
CONTINUOUS
 62
    7
 10
180.14730307441403
 20
122.37400744041355
 11
179.61697298851402
 21
122.06785439846351
  0
LINE
  8
_0-0_図面枠
  6
CONTINUOUS
 62
    7
 10
175.55110899671405
 20
125.02733380381352
 11
180.14730307441403
 21
122.37400744041355
  0
LINE
  8
_0-0_図面枠
  6
CONTINUOUS
 62
    7
 10
170.95491491901407
 20
122.37400744041355
 11
175.55110899671405
 21
125.02733380381352
  0
LINE
  8
_0-0_図面枠
  6
CONTINUOUS
 62
    7
 10
171.48524500486405
 20
122.06785439846351
 11
170.95491491901407
 21
122.37400744041355
  0
LINE
  8
_0-0_図面枠
  6
CONTINUOUS
 62
    7
 10
168.10450461286405
 20
121.5449087081135
 11
171.48524500486405
 21
122.06785439846351
  0
LINE
  8
_0-0_図面枠
  6
CONTINUOUS
 62
    7
 10
169.01037127071402
 20
123.49656859416353
 11
168.10450461286405
 21
121.5449087081135
  0
LINE
  8
_0-0_図面枠
  6
CONTINUOUS
 62
    7
 10
169.54070135661402
 20
123.19041555221355
 11
169.01037127071402
 21
123.49656859416353
  0
LINE
  8
_0-0_図面枠
  6
CONTINUOUS
 62
    7
 10
174.13689543431406
 20
125.84374191566354
 11
169.54070135661402
 21
123.19041555221355
  0
LINE
  8
_0-0_図面枠
  6
CONTINUOUS
 62
    7
 10
169.54070135661402
 20
128.49706827906351
 11
174.13689543431406
 21
125.84374191566354
  0
LINE
  8
_0-0_図面枠
  6
CONTINUOUS
 62
    7
 10
169.01037127071402
 20
128.19091523716355
 11
169.54070135661402
 21
128.49706827906351
  0
LINE
  8
_0-0_図面枠
  6
CONTINUOUS
 62
    7
 10
168.10450461286405
 20
130.14257512321353
 11
169.01037127071402
 21
128.19091523716355
  0
LINE
  8
_0-0_図面枠
  6
CONTINUOUS
 62
    7
 10
171.48524500486405
 20
129.61962943286352
 11
168.10450461286405
 21
130.14257512321353
  0
LINE
  8
_0-0_図面枠
  6
CONTINUOUS
 62
    7
 10
170.95491491901407
 20
129.31347639091354
 11
171.48524500486405
 21
129.61962943286352
  0
LINE
  8
_0-0_図面枠
  6
CONTINUOUS
 62
    7
 10
175.55110899671405
 20
126.66015002746354
 11
170.95491491901407
 21
129.31347639091354
  0
LINE
  8
_0-0_図面枠
  6
CONTINUOUS
 62
    7
 10
180.14730307441403
 20
129.31347639091354
 11
175.55110899671405
 21
126.66015002746354
  0
LINE
  8
_0-0_図面枠
  6
CONTINUOUS
 62
    7
 10
179.61697298851402
 20
129.61962943286352
 11
180.14730307441403
 21
129.31347639091354
  0
LINE
  8
_0-0_図面枠
  6
CONTINUOUS
 62
    7
 10
182.99771338056405
 20
130.14257512321353
 11
179.61697298851402
 21
129.61962943286352
  0
LINE
  8
_0-0_図面枠
  6
CONTINUOUS
 62
    7
 10
182.09184672266406
 20
128.19091523716355
 11
182.99771338056405
 21
130.14257512321353
  0
LINE
  8
_0-0_図面枠
  6
CONTINUOUS
 62
    7
 10
181.56151663681408
 20
128.49706827906351
 11
182.09184672266406
 21
128.19091523716355
  0
LINE
  8
_0-0_図面枠
  6
CONTINUOUS
 62
    7
 10
176.96532255906402
 20
125.84374191566354
 11
181.56151663681408
 21
128.49706827906351
  0
LINE
  8
_0-0_図面枠
  6
CONTINUOUS
 62
    7
 10
181.56151663681408
 20
123.19041555221355
 11
176.96532255906402
 21
125.84374191566354
  0
LINE
  8
_0-0_図面枠
  6
CONTINUOUS
 62
    7
 10
168.10450461286405
 20
121.5449087081135
 11
168.10450461286405
 21
120.93250309921353
  0
LINE
  8
_0-0_図面枠
  6
CONTINUOUS
 62
    7
 10
171.48524500486405
 20
122.06785439846351
 11
171.48524500486405
 21
121.45544878956355
  0
LINE
  8
_0-0_図面枠
  6
CONTINUOUS
 62
    7
 10
168.10450461286405
 20
120.93250309921353
 11
171.48524500486405
 21
121.45544878956355
  0
LINE
  8
_0-0_図面枠
  6
CONTINUOUS
 62
    7
 10
179.61697298851402
 20
122.06785439846351
 11
179.61697298851402
 21
121.45544878956355
  0
LINE
  8
_0-0_図面枠
  6
CONTINUOUS
 62
    7
 10
182.99771338056405
 20
121.5449087081135
 11
182.99771338056405
 21
120.93250309921353
  0
LINE
  8
_0-0_図面枠
  6
CONTINUOUS
 62
    7
 10
179.61697298851402
 20
121.45544878956355
 11
182.99771338056405
 21
120.93250309921353
  0
LINE
  8
_0-0_図面枠
  6
CONTINUOUS
 62
    7
 10
175.55110899671405
 20
125.02733380381352
 11
175.55110899671405
 21
124.41492819491356
  0
LINE
  8
_0-0_図面枠
  6
CONTINUOUS
 62
    7
 10
171.48524500486405
 20
122.06775487341355
 11
175.55110899671405
 21
124.41492819491356
  0
LINE
  8
_0-0_図面枠
  6
CONTINUOUS
 62
    7
 10
175.55110899671405
 20
124.41492819491356
 11
179.61697298851402
 21
122.06775487341355
  0
LINE
  8
_0-0_図面枠
  6
CONTINUOUS
 62
    7
 10
169.54070135661402
 20
128.49706827906351
 11
169.54070135661402
 21
127.88466267016355
  0
LINE
  8
_0-0_図面枠
  6
CONTINUOUS
 62
    7
 10
169.54070135661402
 20
127.88466267016355
 11
173.60647914786404
 21
125.53753911121356
  0
LINE
  8
_0-0_図面枠
  6
CONTINUOUS
 62
    7
 10
181.56151663681408
 20
128.49706827906351
 11
181.56151663681408
 21
127.88466267016355
  0
LINE
  8
_0-0_図面枠
  6
CONTINUOUS
 62
    7
 10
177.49573884551404
 20
125.53753911121356
 11
181.56151663681408
 21
127.88466267016355
  0
LINE
  8
_0-0_図面枠
  6
CONTINUOUS
 62
    7
 10
182.09184672266406
 20
128.19091523716355
 11
182.09184672266406
 21
127.57850962821351
  0
LINE
  8
_0-0_図面枠
  6
CONTINUOUS
 62
    7
 10
181.56151663681408
 20
127.88466267016355
 11
182.09184672266406
 21
127.57850962821351
  0
LINE
  8
_0-0_図面枠
  6
CONTINUOUS
 62
    7
 10
182.99771338056405
 20
130.14257512321353
 11
182.99771338056405
 21
129.53016951431351
  0
LINE
  8
_0-0_図面枠
  6
CONTINUOUS
 62
    7
 10
182.09184672266406
 20
127.57850962821351
 11
182.99771338056405
 21
129.53016951431351
  0
LINE
  8
_0-0_図面枠
  6
CONTINUOUS
 62
    7
 10
169.01037127071402
 20
128.19091523716355
 11
169.01037127071402
 21
127.57850962821351
  0
LINE
  8
_0-0_図面枠
  6
CONTINUOUS
 62
    7
 10
169.01037127071402
 20
127.57850962821351
 11
169.54070135661402
 21
127.88466267016355
  0
LINE
  8
_0-0_図面枠
  6
CONTINUOUS
 62
    7
 10
168.10450461286405
 20
130.14257512321353
 11
168.10450461286405
 21
129.53016951431351
  0
LINE
  8
_0-0_図面枠
  6
CONTINUOUS
 62
    7
 10
168.10450461286405
 20
129.53016951431351
 11
169.01037127071402
 21
127.57850962821351
  0
LINE
  8
_0-0_図面枠
  6
CONTINUOUS
 62
    7
 10
179.61697298851402
 20
129.61962943286352
 11
179.61697298851402
 21
129.00732334896355
  0
LINE
  8
_0-0_図面枠
  6
CONTINUOUS
 62
    7
 10
171.48524500486405
 20
129.61962943286352
 11
171.48524500486405
 21
129.00732334896355
  0
LINE
  8
ADD_LINE
  6
DOT
 62
    4
 10
168.10450461286405
 20
130.14257512321353
 11
182.99730995300951
 21
121.54420995109183
  0
LINE
  8
ADD_LINE
  6
DOT
 62
    4
 10
182.99771338056405
 20
130.14257512321353
 11
168.10490804041859
 21
121.54420995109183
  0
ENDBLK
  0
ENDSEC
  0
SECTION
  2
ENTITIES
  0
LINE
  8
_0-0_図面枠
  6
CONTINUOUS
 62
    6
 10
410.00000000000006
 20
287
 11
10
 21
287.00000000000006
  0
LINE
  8
_0-0_図面枠
  6
CONTINUOUS
 62
    6
 10
410
 20
9.9999999999998863
 11
410.00000000000006
 21
287
  0
LINE
  8
_0-0_図面枠
  6
CONTINUOUS
 62
    6
 10
9.9999999999999147
 20
10
 11
410
 21
9.9999999999998863
  0
LINE
  8
_0-0_図面枠
  6
CONTINUOUS
 62
    6
 10
10
 20
287.00000000000006
 11
9.9999999999999147
 21
10
  0
LINE
  8
_0-0_図面枠
  6
CONTINUOUS
 62
    6
 10
210
 20
287
 11
210.00000000000003
 21
9.9999999999999432
  0
TEXT
  8
_0-0_図面枠
 62
    4
 10
20
 20
280
 40
3.2000000000000002
 41
1
 50
0
  1
（ステンレス１５０タイプ）
  0
TEXT
  8
_0-0_図面枠
 62
    4
 10
220
 20
280
 40
3.2000000000000002
 41
1
 50
0
  1
（ステンレス１５０タイプ）
  0
TEXT
  8
_0-0_図面枠
 62
    4
 10
230
 20
270
 40
3.2000000000000002
 41
1
 50
0
  1
◇床＋床コーナー（１５０ＴＣＧ－Ｓ）　Ｓ＝１／３
  0
TEXT
  8
_0-0_図面枠
 62
    4
 10
30
 20
270
 40
3.2000000000000002
 41
1
 50
0
  1
◇床＋床（１５０ＴＴＧ－Ｓ）　Ｓ＝１／３
  0
LINE
  8
_0-0_図面枠
  6
CONTINUOUS
 62
    4
 10
182.14999999999998
 20
48.533333333333303
 11
40
 21
48.533333333333303
  0
LINE
  8
_0-0_図面枠
  6
CONTINUOUS
 62
    4
 10
182.14999999999998
 20
60.533333333333303
 11
40
 21
60.533333333333303
  0
LINE
  8
_0-0_図面枠
  6
CONTINUOUS
 62
    4
 10
182.14999999999998
 20
54.533333333333303
 11
40
 21
54.533333333333303
  0
LINE
  8
_0-0_図面枠
  6
CONTINUOUS
 62
    4
 10
182.14999999999998
 20
66.533333333333303
 11
40
 21
66.533333333333303
  0
LINE
  8
_0-0_図面枠
  6
CONTINUOUS
 62
    4
 10
182.14999999999998
 20
102.53333333333336
 11
40
 21
102.53333333333336
  0
LINE
  8
_0-0_図面枠
  6
CONTINUOUS
 62
    4
 10
182.14999999999998
 20
96.53333333333336
 11
40
 21
96.53333333333336
  0
LINE
  8
_0-0_図面枠
  6
CONTINUOUS
 62
    4
 10
182.14999999999998
 20
90.53333333333336
 11
40
 21
90.53333333333336
  0
LINE
  8
_0-0_図面枠
  6
CONTINUOUS
 62
    4
 10
182.14999999999998
 20
84.53333333333336
 11
40
 21
84.53333333333336
  0
LINE
  8
_0-0_図面枠
  6
CONTINUOUS
 62
    4
 10
182.14999999999998
 20
78.53333333333336
 11
40
 21
78.53333333333336
  0
LINE
  8
_0-0_図面枠
  6
CONTINUOUS
 62
    4
 10
182.14999999999998
 20
72.533333333333303
 11
40
 21
72.533333333333303
  0
LINE
  8
_0-0_図面枠
  6
CONTINUOUS
 62
    4
 10
182.14999999999998
 20
113.33333333333331
 11
40
 21
113.33333333333331
  0
LINE
  8
_0-0_図面枠
  6
CONTINUOUS
 62
    4
 10
182.14999999999998
 20
42.533333333333303
 11
40
 21
42.533333333333303
  0
LINE
  8
_0-0_図面枠
  6
CONTINUOUS
 62
    4
 10
182.14999999999998
 20
36.533333333333303
 11
40
 21
36.533333333333303
  0
LINE
  8
_0-0_図面枠
  6
CONTINUOUS
 62
    4
 10
182.14999999999998
 20
30.533333333333303
 11
40
 21
30.533333333333303
  0
LINE
  8
_0-0_図面枠
  6
CONTINUOUS
 62
    4
 10
182.14999999999998
 20
24.533333333333303
 11
40
 21
24.533333333333303
  0
TEXT
  8
_0-0_図面枠
 62
    4
 10
165.55126400000003
 20
108.53334383333328
 40
3.2000000000000002
 41
1
 50
0
  1
使用
  0
TEXT
  8
_0-0_図面枠
 62
    4
 10
150.50638249999994
 20
108.53334383333328
 40
3.2000000000000002
 41
1
 50
0
  1
定　尺
  0
TEXT
  8
_0-0_図面枠
 62
    4
 10
148.34354749999997
 20
103.73333733333328
 40
3.2000000000000002
 41
1
 50
0
  1
（ｍｍ）
  0
TEXT
  8
_0-0_図面枠
 62
    4
 10
165.55126400000003
 20
103.73333733333328
 40
3.2000000000000002
 41
1
 50
0
  1
数量
  0
TEXT
  8
_0-0_図面枠
 62
    4
 10
40.497067999999985
 20
97.760882833333255
 40
3.2000000000000002
 41
1
 50
0
  1
　１
  0
TEXT
  8
_0-0_図面枠
 62
    4
 10
149.270477
 20
97.733337333333282
 40
3.2000000000000002
 41
1
 50
0
  1
３０００
  0
TEXT
  8
_0-0_図面枠
 62
    4
 10
177.00512500000002
 20
97.733337333333282
 40
3.2000000000000002
 41
1
 50
0
  1
本
  0
TEXT
  8
_0-0_図面枠
 62
    4
 10
43.586831999999987
 20
91.760882833333255
 40
3.2000000000000002
 41
1
 50
0
  1
２
  0
TEXT
  8
_0-0_図面枠
 62
    4
 10
149.270477
 20
91.733337333333282
 40
3.2000000000000002
 41
1
 50
0
  1
３０００
  0
TEXT
  8
_0-0_図面枠
 62
    4
 10
169.36022149999994
 20
91.783336333333239
 40
3.2000000000000002
 41
1
 50
0
  1
１
  0
TEXT
  8
_0-0_図面枠
 62
    4
 10
43.586831999999987
 20
85.760882833333255
 40
3.2000000000000002
 41
1
 50
0
  1
３
  0
TEXT
  8
_0-0_図面枠
 62
    4
 10
43.586831999999987
 20
79.760882833333255
 40
3.2000000000000002
 41
1
 50
0
  1
４
  0
TEXT
  8
_0-0_図面枠
 62
    4
 10
43.586831999999987
 20
73.760894333333283
 40
3.2000000000000002
 41
1
 50
0
  1
５
  0
TEXT
  8
_0-0_図面枠
 62
    4
 10
43.586831999999987
 20
67.760894333333283
 40
3.2000000000000002
 41
1
 50
0
  1
６
  0
TEXT
  8
_0-0_図面枠
 62
    4
 10
43.586831999999987
 20
61.760888833333297
 40
3.2000000000000002
 41
1
 50
0
  1
７
  0
TEXT
  8
_0-0_図面枠
 62
    4
 10
43.586831999999987
 20
55.760888833333297
 40
3.2000000000000002
 41
1
 50
0
  1
８
  0
LINE
  8
_0-0_図面枠
  6
CONTINUOUS
 62
    4
 10
382.15000000000009
 20
102.5333333333333
 11
240
 21
102.5333333333333
  0
LINE
  8
_0-0_図面枠
  6
CONTINUOUS
 62
    4
 10
382.15000000000009
 20
96.533333333333303
 11
240
 21
96.533333333333303
  0
LINE
  8
_0-0_図面枠
  6
CONTINUOUS
 62
    4
 10
382.15000000000009
 20
90.533333333333303
 11
240
 21
90.533333333333303
  0
LINE
  8
_0-0_図面枠
  6
CONTINUOUS
 62
    4
 10
382.15000000000009
 20
84.533333333333303
 11
240
 21
84.533333333333303
  0
LINE
  8
_0-0_図面枠
  6
CONTINUOUS
 62
    4
 10
382.15000000000009
 20
78.533333333333303
 11
240
 21
78.533333333333303
  0
LINE
  8
_0-0_図面枠
  6
CONTINUOUS
 62
    4
 10
382.15000000000009
 20
72.533333333333303
 11
240
 21
72.533333333333303
  0
LINE
  8
_0-0_図面枠
  6
CONTINUOUS
 62
    4
 10
382.15000000000009
 20
66.533333333333303
 11
240
 21
66.533333333333303
  0
LINE
  8
_0-0_図面枠
  6
CONTINUOUS
 62
    4
 10
382.15000000000009
 20
60.533333333333303
 11
240
 21
60.533333333333303
  0
LINE
  8
_0-0_図面枠
  6
CONTINUOUS
 62
    4
 10
382.15000000000009
 20
54.533333333333303
 11
240
 21
54.533333333333303
  0
LINE
  8
_0-0_図面枠
  6
CONTINUOUS
 62
    4
 10
382.15000000000009
 20
48.533333333333303
 11
240
 21
48.533333333333303
  0
LINE
  8
_0-0_図面枠
  6
CONTINUOUS
 62
    4
 10
382.15000000000009
 20
36.533333333333303
 11
240
 21
36.533333333333303
  0
LINE
  8
_0-0_図面枠
  6
CONTINUOUS
 62
    4
 10
382.15000000000009
 20
113.33333333333331
 11
240
 21
113.33333333333331
  0
LINE
  8
_0-0_図面枠
  6
CONTINUOUS
 62
    4
 10
382.15000000000009
 20
24.533333333333303
 11
240
 21
24.533333333333303
  0
LINE
  8
_0-0_図面枠
  6
CONTINUOUS
 62
    4
 10
382.15000000000009
 20
18.533333333333303
 11
240
 21
18.533333333333303
  0
LINE
  8
_0-0_図面枠
  6
CONTINUOUS
 62
    4
 10
382.15000000000009
 20
42.533333333333303
 11
240
 21
42.533333333333303
  0
LINE
  8
_0-0_図面枠
  6
CONTINUOUS
 62
    4
 10
382.15000000000009
 20
30.533333333333303
 11
240
 21
30.533333333333303
  0
TEXT
  8
_0-0_図面枠
 62
    4
 10
365.55123000000003
 20
108.53334383333333
 40
3.2000000000000002
 41
1
 50
0
  1
使用
  0
TEXT
  8
_0-0_図面枠
 62
    4
 10
350.50632500000006
 20
108.5333553333333
 40
3.2000000000000002
 41
1
 50
0
  1
定　尺
  0
TEXT
  8
_0-0_図面枠
 62
    4
 10
348.34349000000003
 20
103.73334833333331
 40
3.2000000000000002
 41
1
 50
0
  1
（ｍｍ）
  0
TEXT
  8
_0-0_図面枠
 62
    4
 10
365.55123000000003
 20
103.73333733333334
 40
3.2000000000000002
 41
1
 50
0
  1
数量
  0
TEXT
  8
_0-0_図面枠
 62
    4
 10
240.4970505
 20
97.760882833333312
 40
3.2000000000000002
 41
1
 50
0
  1
　１
  0
TEXT
  8
_0-0_図面枠
 62
    4
 10
243.5868145
 20
91.760882833333312
 40
3.2000000000000002
 41
1
 50
0
  1
２
  0
TEXT
  8
_0-0_図面枠
 62
    4
 10
243.5868145
 20
85.760882833333312
 40
3.2000000000000002
 41
1
 50
0
  1
３
  0
TEXT
  8
_0-0_図面枠
 62
    4
 10
243.5868145
 20
79.760882833333312
 40
3.2000000000000002
 41
1
 50
0
  1
４
  0
TEXT
  8
_0-0_図面枠
 62
    4
 10
243.5868145
 20
73.760894333333312
 40
3.2000000000000002
 41
1
 50
0
  1
５
  0
TEXT
  8
_0-0_図面枠
 62
    4
 10
243.5868145
 20
67.760894333333312
 40
3.2000000000000002
 41
1
 50
0
  1
６
  0
TEXT
  8
_0-0_図面枠
 62
    4
 10
243.5868145
 20
61.760894333333312
 40
3.2000000000000002
 41
1
 50
0
  1
７
  0
TEXT
  8
_0-0_図面枠
 62
    4
 10
243.5868145
 20
55.760888833333297
 40
3.2000000000000002
 41
1
 50
0
  1
８
  0
TEXT
  8
_0-0_図面枠
 62
    4
 10
243.5868145
 20
49.760888833333297
 40
3.2000000000000002
 41
1
 50
0
  1
９
  0
TEXT
  8
_0-0_図面枠
 62
    4
 10
240.4970505
 20
43.760888833333297
 40
3.2000000000000002
 41
1
 50
0
  1
１０
  0
TEXT
  8
_0-0_図面枠
 62
    4
 10
240.4970505
 20
37.760888833333297
 40
3.2000000000000002
 41
1
 50
0
  1
１１
  0
TEXT
  8
_0-0_図面枠
 62
    4
 10
378.55000000000007
 20
111.13333333333333
 40
3.2000000000000002
 41
1
 50
0
  1
単位
  7
TATEGAKI
  0
TEXT
  8
_0-0_図面枠
 62
    4
 10
177.00512500000002
 20
91.733337333333282
 40
3.2000000000000002
 41
1
 50
0
  1
本
  0
LINE
  8
_0-0_図面枠
  6
CONTINUOUS
 62
    4
 10
182.14999999999998
 20
18.533333333333303
 11
40
 21
18.533333333333303
  0
TEXT
  8
_0-0_図面枠
 62
    4
 10
349.27047700000014
 20
97.733337333333282
 40
3.2000000000000002
 41
1
 50
0
  1
３０００
  0
TEXT
  8
_0-0_図面枠
 62
    4
 10
377.00512500000013
 20
97.733337333333282
 40
3.2000000000000002
 41
1
 50
0
  1
本
  0
TEXT
  8
_0-0_図面枠
 62
    4
 10
349.27047700000014
 20
91.733337333333282
 40
3.2000000000000002
 41
1
 50
0
  1
３０００
  0
TEXT
  8
_0-0_図面枠
 62
    4
 10
369.36022150000008
 20
91.783336333333239
 40
3.2000000000000002
 41
1
 50
0
  1
１
  0
TEXT
  8
_0-0_図面枠
 62
    4
 10
369.36022150000008
 20
97.783324833333324
 40
3.2000000000000002
 41
1
 50
0
  1
１
  0
TEXT
  8
_0-0_図面枠
 62
    4
 10
349.27047700000014
 20
79.733337333333282
 40
3.2000000000000002
 41
1
 50
0
  1
３０００
  0
TEXT
  8
_0-0_図面枠
 62
    4
 10
349.27047700000014
 20
73.733337333333282
 40
3.2000000000000002
 41
1
 50
0
  1
３０００
  0
TEXT
  8
_0-0_図面枠
 62
    4
 10
248.4000075000001
 20
67.733337333333282
 40
3.2000000000000002
 41
1
 50
0
  1
止水補助板
  0
TEXT
  8
_0-0_図面枠
 62
    4
 10
377.00512500000013
 20
91.733337333333282
 40
3.2000000000000002
 41
1
 50
0
  1
本
  0
LINE
  8
_0-0_図面枠
  6
CONTINUOUS
 62
    4
 10
40
 20
18.533333333333303
 11
40
 21
113.33333333333331
  0
LINE
  8
_0-0_図面枠
  6
CONTINUOUS
 62
    4
 10
47.200000000000017
 20
18.533333333333303
 11
47.200000000000017
 21
113.33333333333331
  0
LINE
  8
_0-0_図面枠
  6
CONTINUOUS
 62
    4
 10
182.14999999999998
 20
18.533333333333303
 11
182.14999999999998
 21
113.33333333333331
  0
LINE
  8
_0-0_図面枠
  6
CONTINUOUS
 62
    4
 10
162.95000000000002
 20
18.533333333333303
 11
162.95000000000002
 21
113.33333333333331
  0
LINE
  8
_0-0_図面枠
  6
CONTINUOUS
 62
    4
 10
147.95000000000002
 20
18.533333333333303
 11
147.95000000000002
 21
113.33333333333331
  0
LINE
  8
_0-0_図面枠
  6
CONTINUOUS
 62
    4
 10
174.95000000000005
 20
18.533333333333303
 11
174.95000000000005
 21
113.33333333333331
  0
LINE
  8
_0-0_図面枠
  6
CONTINUOUS
 62
    4
 10
146.95000000000002
 20
18.533333333333303
 11
146.95000000000002
 21
113.33333333333331
  0
LINE
  8
_0-0_図面枠
  6
CONTINUOUS
 62
    4
 10
240
 20
18.533333333333303
 11
240
 21
113.33333333333331
  0
LINE
  8
_0-0_図面枠
  6
CONTINUOUS
 62
    4
 10
247.20000000000005
 20
18.533333333333303
 11
247.20000000000005
 21
113.33333333333331
  0
LINE
  8
_0-0_図面枠
  6
CONTINUOUS
 62
    4
 10
346.95000000000005
 20
18.533333333333303
 11
346.95000000000005
 21
113.33333333333331
  0
LINE
  8
_0-0_図面枠
  6
CONTINUOUS
 62
    4
 10
382.15000000000009
 20
18.533333333333303
 11
382.15000000000009
 21
113.33333333333331
  0
LINE
  8
_0-0_図面枠
  6
CONTINUOUS
 62
    4
 10
374.95000000000005
 20
18.533333333333303
 11
374.95000000000005
 21
113.33333333333331
  0
LINE
  8
_0-0_図面枠
  6
CONTINUOUS
 62
    4
 10
362.95000000000005
 20
18.533333333333303
 11
362.95000000000005
 21
113.33333333333331
  0
LINE
  8
_0-0_図面枠
  6
CONTINUOUS
 62
    4
 10
347.95000000000005
 20
18.533333333333303
 11
347.95000000000005
 21
113.33333333333331
  0
TEXT
  8
_0-0_図面枠
 62
    4
 10
69.300000000000011
 20
106.33333333333334
 40
3.2000000000000002
 41
1
 50
0
  1
部材名称
  0
TEXT
  8
_0-0_図面枠
 62
    4
 10
178.54999999999998
 20
111.13333333333334
 40
3.2000000000000002
 41
1
 50
0
  1
単位
  7
TATEGAKI
  0
LINE
  8
_0-0_図面枠
  6
CONTINUOUS
 62
    4
 10
100.86666666666669
 20
18.533333333333303
 11
100.86666666666669
 21
113.33333333333331
  0
TEXT
  8
_0-0_図面枠
 62
    4
 10
119.10833333333336
 20
106.33333333333333
 40
3.2000000000000002
 41
1
 50
0
  1
規　格
  0
LINE
  8
_0-0_図面枠
  6
CONTINUOUS
 62
    4
 10
300.86666666666667
 20
18.533333333333303
 11
300.86666666666667
 21
113.33333333333331
  0
TEXT
  8
_0-0_図面枠
 62
    4
 10
267.63333333333333
 20
106.33333333333331
 40
3.2000000000000002
 41
1
 50
0
  1
部材名称
  0
TEXT
  8
_0-0_図面枠
 62
    4
 10
319.10833333333335
 20
106.33333333333331
 40
3.2000000000000002
 41
1
 50
0
  1
規　格
  0
TEXT
  8
_0-0_図面枠
 62
    4
 10
48.400007499999987
 20
79.733337333333282
 40
3.2000000000000002
 41
1
 50
0
  1
止水補助板
  0
TEXT
  8
_0-0_図面枠
 62
    4
 10
169.36022149999994
 20
97.783324833333324
 40
3.2000000000000002
 41
1
 50
0
  1
２
  0
TEXT
  8
_0-0_図面枠
 62
    4
 10
248.4000075000001
 20
73.733337333333282
 40
3.2000000000000002
 41
1
 50
0
  1
ＴＣＧ壁フレーム
  0
TEXT
  8
_0-0_図面枠
 62
    4
 10
349.27047700000014
 20
85.733337333333282
 40
3.2000000000000002
 41
1
 50
0
  1
３０００
  0
TEXT
  8
_0-0_図面枠
 62
    4
 10
369.36022150000008
 20
85.783336333333239
 40
3.2000000000000002
 41
1
 50
0
  1
１
  0
TEXT
  8
_0-0_図面枠
 62
    4
 10
377.00512500000013
 20
85.733337333333282
 40
3.2000000000000002
 41
1
 50
0
  1
本
  0
TEXT
  8
_0-0_図面枠
 62
    4
 10
369.36022150000008
 20
79.783336333333239
 40
3.2000000000000002
 41
1
 50
0
  1
１
  0
TEXT
  8
_0-0_図面枠
 62
    4
 10
377.00512500000013
 20
79.733337333333282
 40
3.2000000000000002
 41
1
 50
0
  1
本
  0
TEXT
  8
_0-0_図面枠
 62
    4
 10
369.36022150000008
 20
73.783336333333239
 40
3.2000000000000002
 41
1
 50
0
  1
１
  0
TEXT
  8
_0-0_図面枠
 62
    4
 10
377.00512500000013
 20
73.733337333333282
 40
3.2000000000000002
 41
1
 50
0
  1
本
  0
TEXT
  8
_0-0_図面枠
 62
    4
 10
349.27047700000014
 20
61.733342833333325
 40
3.2000000000000002
 41
1
 50
0
  1
３１００
  0
TEXT
  8
_0-0_図面枠
 62
    4
 10
377.00512500000013
 20
61.733342833333325
 40
3.2000000000000002
 41
1
 50
0
  1
本
  0
TEXT
  8
_0-0_図面枠
 62
    4
 10
377.00512500000013
 20
55.733325833333311
 40
3.2000000000000002
 41
1
 50
0
  1
本
  0
TEXT
  8
_0-0_図面枠
 62
    4
 10
302.06667966666686
 20
55.733342833333325
 40
3.2000000000000002
 41
1
 50
0
  1
皿５×１６
  0
TEXT
  8
_0-0_図面枠
 62
    4
 10
366.27045750000002
 20
55.783341833333282
 40
3.2000000000000002
 41
1
 50
0
  1
１７
  0
TEXT
  8
_0-0_図面枠
 62
    4
 10
248.40000750000013
 20
49.733342833333325
 40
3.2000000000000002
 41
1
 50
0
  1
ステンタッピンねじ
  0
TEXT
  8
_0-0_図面枠
 62
    4
 10
377.00512500000013
 20
49.733325833333311
 40
3.2000000000000002
 41
1
 50
0
  1
本
  0
TEXT
  8
_0-0_図面枠
 62
    4
 10
302.06669116666689
 20
49.733342833333325
 40
3.2000000000000002
 41
1
 50
0
  1
なべ５×５０
  0
TEXT
  8
_0-0_図面枠
 62
    4
 10
248.40000750000013
 20
43.733342833333325
 40
3.2000000000000002
 41
1
 50
0
  1
ステンワッシャー
  0
TEXT
  8
_0-0_図面枠
 62
    4
 10
377.00512500000013
 20
43.733342833333325
 40
3.2000000000000002
 41
1
 50
0
  1
枚
  0
TEXT
  8
_0-0_図面枠
 62
    4
 10
302.06663366666686
 20
43.73333733333331
 40
3.2000000000000002
 41
1
 50
0
  1
１．５×１８×５．５穴
  0
TEXT
  8
_0-0_図面枠
 62
    4
 10
377.00512500000013
 20
37.733325833333311
 40
3.2000000000000002
 41
1
 50
0
  1
本
  0
TEXT
  8
_0-0_図面枠
 62
    4
 10
149.270477
 20
85.733337333333282
 40
3.2000000000000002
 41
1
 50
0
  1
３０００
  0
TEXT
  8
_0-0_図面枠
 62
    4
 10
177.00512500000002
 20
85.733337333333282
 40
3.2000000000000002
 41
1
 50
0
  1
本
  0
TEXT
  8
_0-0_図面枠
 62
    4
 10
169.36022149999994
 20
85.783324833333324
 40
3.2000000000000002
 41
1
 50
0
  1
２
  0
TEXT
  8
_0-0_図面枠
 62
    4
 10
177.00512500000011
 20
73.733325833333367
 40
3.2000000000000002
 41
1
 50
0
  1
本
  0
TEXT
  8
_0-0_図面枠
 62
    4
 10
102.06667966666683
 20
73.733342833333381
 40
3.2000000000000002
 41
1
 50
0
  1
皿５×１６
  0
TEXT
  8
_0-0_図面枠
 62
    4
 10
48.400007499999987
 20
67.733342833333325
 40
3.2000000000000002
 41
1
 50
0
  1
ステンタッピンねじ
  0
TEXT
  8
_0-0_図面枠
 62
    4
 10
48.400007499999987
 20
61.733342833333325
 40
3.2000000000000002
 41
1
 50
0
  1
ステンワッシャー
  0
TEXT
  8
_0-0_図面枠
 62
    4
 10
177.00512500000002
 20
55.733325833333311
 40
3.2000000000000002
 41
1
 50
0
  1
本
  0
TEXT
  8
_0-0_図面枠
 62
    4
 10
177.00512500000002
 20
61.733342833333325
 40
3.2000000000000002
 41
1
 50
0
  1
枚
  0
TEXT
  8
_0-0_図面枠
 62
    4
 10
177.00512500000002
 20
67.733325833333311
 40
3.2000000000000002
 41
1
 50
0
  1
本
  0
TEXT
  8
_0-0_図面枠
 62
    4
 10
102.06669116666673
 20
67.733342833333325
 40
3.2000000000000002
 41
1
 50
0
  1
なべ５×５０
  0
TEXT
  8
_0-0_図面枠
 62
    4
 10
102.0666336666667
 20
61.73333733333331
 40
3.2000000000000002
 41
1
 50
0
  1
１．５×１８×５．５穴
  0
TEXT
  8
_0-0_図面枠
 62
    4
 10
48.4000075000001
 20
73.733342833333381
 40
3.2000000000000002
 41
1
 50
0
  1
ステンドリリングねじ
  0
TEXT
  8
_0-0_図面枠
 62
    4
 10
248.40000750000013
 20
55.733342833333325
 40
3.2000000000000002
 41
1
 50
0
  1
ステンドリリングねじ
  0
TEXT
  8
_0-0_図面枠
 62
    4
 10
48.400007499999987
 20
97.733337333333282
 40
3.2000000000000002
 41
1
 50
0
  1
ＴＴＧサイドプレート(Ｃ)Ａ
  0
TEXT
  8
_0-0_図面枠
 62
    4
 10
48.400007499999987
 20
91.733337333333282
 40
3.2000000000000002
 41
1
 50
0
  1
ＴＴＧセンタープレート(Ｃ)Ａ
  0
TEXT
  8
_0-0_図面枠
 62
    4
 10
48.400007499999987
 20
85.733337333333282
 40
3.2000000000000002
 41
1
 50
0
  1
ＴＴＧフレーム(Ｃ)
  0
TEXT
  8
_0-0_図面枠
 62
    4
 10
248.4000075000001
 20
97.733337333333282
 40
3.2000000000000002
 41
1
 50
0
  1
ＴＣＧサイドプレート(Ｃ)Ａ
  0
TEXT
  8
_0-0_図面枠
 62
    4
 10
248.4000075000001
 20
91.733337333333282
 40
3.2000000000000002
 41
1
 50
0
  1
ＴＣＧセンタープレート(Ｃ)Ａ
  0
TEXT
  8
_0-0_図面枠
 62
    4
 10
302.06669116666689
 20
67.733337333333282
 40
3.2000000000000002
 41
1
 50
0
  1
ＦＳ５００
  0
TEXT
  8
_0-0_図面枠
 62
    4
 10
102.06669116666674
 20
79.733337333333338
 40
3.2000000000000002
 41
1
 50
0
  1
ＦＳ５００
  0
TEXT
  8
_0-0_図面枠
 62
    4
 10
366.27045750000013
 20
49.783341833333282
 40
3.2000000000000002
 41
1
 50
0
  1
１８
  0
TEXT
  8
_0-0_図面枠
 62
    4
 10
366.27045750000013
 20
43.783341833333282
 40
3.2000000000000002
 41
1
 50
0
  1
１８
  0
TEXT
  8
_0-0_図面枠
 62
    4
 10
366.27045750000013
 20
37.783341833333282
 40
3.2000000000000002
 41
1
 50
0
  1
１８
  0
TEXT
  8
_0-0_図面枠
 62
    4
 10
166.27045749999999
 20
73.783341833333338
 40
3.2000000000000002
 41
1
 50
0
  1
２２
  0
TEXT
  8
_0-0_図面枠
 62
    4
 10
166.27045749999999
 20
67.783341833333282
 40
3.2000000000000002
 41
1
 50
0
  1
２４
  0
TEXT
  8
_0-0_図面枠
 62
    4
 10
166.27045749999999
 20
61.783341833333282
 40
3.2000000000000002
 41
1
 50
0
  1
２４
  0
TEXT
  8
_0-0_図面枠
 62
    4
 10
166.27045749999999
 20
55.783341833333282
 40
3.2000000000000002
 41
1
 50
0
  1
２４
  0
TEXT
  8
_0-0_図面枠
 62
    4
 10
248.4000075000001
 20
85.733337333333282
 40
3.2000000000000002
 41
1
 50
0
  1
ＴＣＧフレーム(Ｃ)
  0
TEXT
  8
_0-0_図面枠
 62
    4
 10
243.5868145
 20
25.760888833333297
 40
3.2000000000000002
 41
1
 50
0
  1
※
  0
TEXT
  8
_0-0_図面枠
 62
    4
 10
349.27041950000012
 20
25.733342833333325
 40
3.2000000000000002
 41
1
 50
0
  1
６０００
  0
TEXT
  8
_0-0_図面枠
 62
    4
 10
369.8602370000001
 20
25.783336333333295
 40
3.2000000000000002
 41
1
 50
0
  1
１
  0
TEXT
  8
_0-0_図面枠
 62
    4
 10
377.00510200000008
 20
25.733342833333325
 40
3.2000000000000002
 41
1
 50
0
  1
巻
  0
TEXT
  8
_0-0_図面枠
 62
    4
 10
248.400013
 20
25.733342833333325
 40
3.2000000000000002
 41
1
 50
0
  1
ブチルテープ
  0
TEXT
  8
_0-0_図面枠
 62
    4
 10
302.06663366666669
 20
25.733342833333325
 40
3.2000000000000002
 41
1
 50
0
  1
ｔ１．０×ｗ３０
  0
TEXT
  8
_0-0_図面枠
 62
    4
 10
149.270477
 20
43.733348333333311
 40
3.2000000000000002
 41
1
 50
0
  1
６０００
  0
TEXT
  8
_0-0_図面枠
 62
    4
 10
169.36022149999994
 20
43.783336333333295
 40
3.2000000000000002
 41
1
 50
0
  1
１
  0
TEXT
  8
_0-0_図面枠
 62
    4
 10
177.00512500000002
 20
43.733342833333325
 40
3.2000000000000002
 41
1
 50
0
  1
巻
  0
TEXT
  8
_0-0_図面枠
 62
    4
 10
48.400007500000015
 20
43.733342833333325
 40
3.2000000000000002
 41
1
 50
0
  1
ブチルテープ
  0
TEXT
  8
_0-0_図面枠
 62
    4
 10
102.06669116666671
 20
43.733342833333325
 40
3.2000000000000002
 41
1
 50
0
  1
ｔ１．０×ｗ３０
  0
TEXT
  8
_0-0_図面枠
 62
    4
 10
43.586831999999958
 20
43.760894333333283
 40
3.2000000000000002
 41
1
 50
0
  1
※
  0
TEXT
  8
_0-0_図面枠
 62
    4
 10
48.400007499999987
 20
49.733342833333325
 40
3.2000000000000002
 41
1
 50
0
  1
ユカホルダーキャップ
  0
TEXT
  8
_0-0_図面枠
 62
    4
 10
149.27047700000003
 20
49.733348333333311
 40
3.2000000000000002
 41
1
 50
0
  1
３０１０
  0
TEXT
  8
_0-0_図面枠
 62
    4
 10
169.36022149999997
 20
49.783336333333295
 40
3.2000000000000002
 41
1
 50
0
  1
２
  0
TEXT
  8
_0-0_図面枠
 62
    4
 10
177.00512500000002
 20
49.733325833333311
 40
3.2000000000000002
 41
1
 50
0
  1
本
  0
TEXT
  8
_0-0_図面枠
 62
    4
 10
248.4000075000001
 20
31.733342833333325
 40
3.2000000000000002
 41
1
 50
0
  1
ユカホルダーキャップ
  0
TEXT
  8
_0-0_図面枠
 62
    4
 10
349.27047700000014
 20
31.733348333333311
 40
3.2000000000000002
 41
1
 50
0
  1
３０１０
  0
TEXT
  8
_0-0_図面枠
 62
    4
 10
369.36022150000008
 20
31.783336333333295
 40
3.2000000000000002
 41
1
 50
0
  1
２
  0
TEXT
  8
_0-0_図面枠
 62
    4
 10
377.00512500000013
 20
31.733325833333311
 40
3.2000000000000002
 41
1
 50
0
  1
本
  0
TEXT
  8
_0-0_図面枠
 62
    4
 10
240.4970505
 20
31.760888833333297
 40
3.2000000000000002
 41
1
 50
0
  1
１２
  0
TEXT
  8
_0-0_図面枠
 62
    4
 10
43.586831999999987
 20
49.760888833333297
 40
3.2000000000000002
 41
1
 50
0
  1
９
  0
TEXT
  8
_0-0_図面枠
 62
    4
 10
102.06669116666673
 20
55.733342833333325
 40
3.2000000000000002
 41
1
 50
0
  1
φ８×４０
  0
TEXT
  8
_0-0_図面枠
 62
    4
 10
302.06669116666677
 20
37.733342833333325
 40
3.2000000000000002
 41
1
 50
0
  1
φ８×４０
  0
TEXT
  8
_0-0_図面枠
 62
    4
 10
122.30833333333339
 20
97.933333333333366
 40
3.2000000000000002
 41
1
 50
0
  1
―
  0
TEXT
  8
_0-0_図面枠
 62
    4
 10
122.30833333333339
 20
91.933333333333366
 40
3.2000000000000002
 41
1
 50
0
  1
―
  0
TEXT
  8
_0-0_図面枠
 62
    4
 10
122.30833333333339
 20
85.933333333333366
 40
3.2000000000000002
 41
1
 50
0
  1
―
  0
TEXT
  8
_0-0_図面枠
 62
    4
 10
122.30833333333338
 20
49.933333333333309
 40
3.2000000000000002
 41
1
 50
0
  1
―
  0
TEXT
  8
_0-0_図面枠
 62
    4
 10
322.30833333333334
 20
97.933333333333309
 40
3.2000000000000002
 41
1
 50
0
  1
―
  0
TEXT
  8
_0-0_図面枠
 62
    4
 10
322.30833333333334
 20
91.933333333333309
 40
3.2000000000000002
 41
1
 50
0
  1
―
  0
TEXT
  8
_0-0_図面枠
 62
    4
 10
322.30833333333334
 20
85.933333333333309
 40
3.2000000000000002
 41
1
 50
0
  1
―
  0
TEXT
  8
_0-0_図面枠
 62
    4
 10
322.30833333333334
 20
79.933333333333309
 40
3.2000000000000002
 41
1
 50
0
  1
―
  0
TEXT
  8
_0-0_図面枠
 62
    4
 10
322.30833333333334
 20
73.933333333333309
 40
3.2000000000000002
 41
1
 50
0
  1
―
  0
TEXT
  8
_0-0_図面枠
 62
    4
 10
322.30833333333334
 20
61.933333333333309
 40
3.2000000000000002
 41
1
 50
0
  1
―
  0
TEXT
  8
_0-0_図面枠
 62
    4
 10
322.30833333333334
 20
31.933333333333294
 40
3.2000000000000002
 41
1
 50
0
  1
―
  0
TEXT
  8
_0-0_図面枠
 62
    4
 10
153.85000000000002
 20
73.933333333333294
 40
3.2000000000000002
 41
1
 50
0
  1
―
  0
TEXT
  8
_0-0_図面枠
 62
    4
 10
153.85000000000002
 20
67.933333333333294
 40
3.2000000000000002
 41
1
 50
0
  1
―
  0
TEXT
  8
_0-0_図面枠
 62
    4
 10
153.85000000000002
 20
61.93333333333328
 40
3.2000000000000002
 41
1
 50
0
  1
―
  0
TEXT
  8
_0-0_図面枠
 62
    4
 10
153.85000000000002
 20
55.93333333333328
 40
3.2000000000000002
 41
1
 50
0
  1
―
  0
TEXT
  8
_0-0_図面枠
 62
    4
 10
353.85000000000002
 20
55.93333333333328
 40
3.2000000000000002
 41
1
 50
0
  1
―
  0
TEXT
  8
_0-0_図面枠
 62
    4
 10
353.85000000000002
 20
49.93333333333328
 40
3.2000000000000002
 41
1
 50
0
  1
―
  0
TEXT
  8
_0-0_図面枠
 62
    4
 10
353.85000000000002
 20
43.93333333333328
 40
3.2000000000000002
 41
1
 50
0
  1
―
  0
TEXT
  8
_0-0_図面枠
 62
    4
 10
353.85000000000002
 20
37.93333333333328
 40
3.2000000000000002
 41
1
 50
0
  1
―
  0
TEXT
  8
_0-0_図面枠
 62
    4
 10
369.36022150000008
 20
61.783336333333239
 40
3.2000000000000002
 41
1
 50
0
  1
２
  0
TEXT
  8
_0-0_図面枠
 62
    4
 10
102.06669116666673
 20
37.733342833333325
 40
3.2000000000000002
 41
1
 50
0
  1
ＳＵＳ＝０．８
  0
TEXT
  8
_0-0_図面枠
 62
    4
 10
48.400007499999987
 20
37.733342833333325
 40
3
 41
1
 50
0
  1
センタープレートジョイントプレート
  0
TEXT
  8
_0-0_図面枠
 62
    4
 10
169.36022149999997
 20
37.78333633333331
 40
3.2000000000000002
 41
1
 50
0
  1
１
  0
TEXT
  8
_0-0_図面枠
 62
    4
 10
43.586831999999987
 20
37.760894333333297
 40
3.2000000000000002
 41
1
 50
0
  1
※
  0
TEXT
  8
_0-0_図面枠
 62
    4
 10
177.00512500000002
 20
37.733342833333339
 40
3.2000000000000002
 41
1
 50
0
  1
個
  0
TEXT
  8
_0-0_図面枠
 62
    4
 10
153.85000000000005
 20
37.933333333333309
 40
3.2000000000000002
 41
1
 50
0
  1
―
  0
TEXT
  8
_0-0_図面枠
 62
    4
 10
302.06669116666671
 20
19.733342833333325
 40
3.2000000000000002
 41
1
 50
0
  1
ＳＵＳ＝０．８
  0
TEXT
  8
_0-0_図面枠
 62
    4
 10
248.40000749999999
 20
19.733342833333325
 40
3
 41
1
 50
0
  1
センタープレートジョイントプレート
  0
TEXT
  8
_0-0_図面枠
 62
    4
 10
369.36022149999997
 20
19.783336333333295
 40
3.2000000000000002
 41
1
 50
0
  1
１
  0
TEXT
  8
_0-0_図面枠
 62
    4
 10
243.58683199999999
 20
19.760894333333283
 40
3.2000000000000002
 41
1
 50
0
  1
※
  0
TEXT
  8
_0-0_図面枠
 62
    4
 10
377.00512500000002
 20
19.733342833333325
 40
3.2000000000000002
 41
1
 50
0
  1
個
  0
TEXT
  8
_0-0_図面枠
 62
    4
 10
353.85000000000002
 20
19.933333333333309
 40
3.2000000000000002
 41
1
 50
0
  1
―
  0
TEXT
  8
_0-0_図面枠
 62
    4
 10
248.40000750000013
 20
61.733337333333282
 40
3.2000000000000002
 41
1
 50
0
  1
ガスケットＧＳ
  0
TEXT
  8
_0-0_図面枠
 62
    4
 10
149.270477
 20
79.733342833333367
 40
3.2000000000000002
 41
1
 50
0
  1
３１００
  0
TEXT
  8
_0-0_図面枠
 62
    4
 10
169.36022149999991
 20
79.783336333333295
 40
3.2000000000000002
 41
1
 50
0
  1
１
  0
TEXT
  8
_0-0_図面枠
 62
    4
 10
177.00512500000002
 20
79.733325833333367
 40
3.2000000000000002
 41
1
 50
0
  1
枚
  0
TEXT
  8
_0-0_図面枠
 62
    4
 10
349.27047700000014
 20
67.73334283333331
 40
3.2000000000000002
 41
1
 50
0
  1
３１００
  0
TEXT
  8
_0-0_図面枠
 62
    4
 10
369.36022150000002
 20
67.783336333333239
 40
3.2000000000000002
 41
1
 50
0
  1
１
  0
TEXT
  8
_0-0_図面枠
 62
    4
 10
377.00512500000013
 20
67.733325833333311
 40
3.2000000000000002
 41
1
 50
0
  1
枚
  0
TEXT
  8
_0-0_図面枠
 62
    4
 10
48.400007499999987
 20
55.733337333333282
 40
3.2000000000000002
 41
1
 50
0
  1
アンカープラグ
  0
TEXT
  8
_0-0_図面枠
 62
    4
 10
248.40000750000002
 20
37.733337333333282
 40
3.2000000000000002
 41
1
 50
0
  1
アンカープラグ
  0
TEXT
  8
_0-0_図面枠
 62
    4
 10
248.4000075000001
 20
79.733337333333282
 40
3.2000000000000002
 41
1
 50
0
  1
ＴＣＧサイドキャップＳ
  0
CIRCLE
  8
_1-f_寸法
  6
CONTINUOUS
 62
    4
 10
115
 20
217
 40
1.6666666666666665
  0
TEXT
  8
_1-f_寸法
 62
    4
 10
114.375
 20
215.75
 40
2.5
 41
1
 50
0
  1
2
  0
LINE
  8
_1-f_寸法
  6
CONTINUOUS
 62
    4
 10
114.16666666666666
 20
215.55662432702593
 11
112.19045974896729
 21
212.13373353930152
  0
CIRCLE
  8
_1-f_寸法
  6
CONTINUOUS
 62
    4
 10
90
 20
200.33333333333331
 40
1.6666666666666665
  0
TEXT
  8
_1-f_寸法
 62
    4
 10
89.375
 20
199.08333333333331
 40
2.5
 41
1
 50
0
  1
4
  0
LINE
  8
_1-f_寸法
  6
CONTINUOUS
 62
    4
 10
89.166666666666657
 20
198.88995766035924
 11
87.312829960377385
 21
195.6790182961301
  0
LINE
  8
_1-3_止水補助板
  6
CONTINUOUS
 62
    4
 10
151.66666666666663
 20
203.66666666666282
 11
151.66666666666663
 21
203.99999999999616
  0
LINE
  8
_1-3_止水補助板
  6
CONTINUOUS
 62
    4
 10
135
 20
203.66666666666282
 11
151.66666666666663
 21
203.66666666666282
  0
LINE
  8
_1-3_止水補助板
  6
CONTINUOUS
 62
    4
 10
134.74422433734037
 20
203.99999999999616
 11
151.66666666666663
 21
203.99999999999616
  0
LINE
  8
_1-0_躯体
  6
CONTINUOUS
 62
    6
 10
135
 20
203.66666666666666
 11
135
 21
148.66666666666666
  0
ARC
  8
_1-3_止水補助板
  6
CONTINUOUS
 62
    4
 10
110.00000000000075
 20
171.54253971206907
 40
15.833809794084612
 50
195.00000000000003
 51
344.75420844591667
  0
ARC
  8
_1-3_止水補助板
  6
CONTINUOUS
 62
    4
 10
110.00000000000075
 20
171.54253971206907
 40
15.50047646075128
 50
195.00000000000034
 51
344.75420844591662
  0
LINE
  8
_1-3_止水補助板
  6
CONTINUOUS
 62
    4
 10
135
 20
203.66666666666666
 11
125.29428580865593
 21
167.44444818082911
  0
LINE
  8
_1-3_止水補助板
  6
CONTINUOUS
 62
    4
 10
134.74422433734009
 20
204
 11
124.97231053322639
 21
167.53072119586332
  0
LINE
  8
_1-3_止水補助板
  6
CONTINUOUS
 62
    4
 10
85.000000000001506
 20
203.66666666666666
 11
94.705714191345578
 21
167.44444818082911
  0
LINE
  8
_1-3_止水補助板
  6
CONTINUOUS
 62
    4
 10
85.255775662661406
 20
204
 11
95.027689466775115
 21
167.53072119586332
  0
LINE
  8
_1-0_躯体
  6
CONTINUOUS
 62
    6
 10
85
 20
203.66666666666666
 11
85
 21
148.66666666666666
  0
INSERT
  2
-000-
  8
_1-8_小物
 10
210
 20
148.5
 41
1
 42
1
 50
0
  0
CIRCLE
  8
_1-f_寸法
  6
CONTINUOUS
 62
    4
 10
144.99999999999997
 20
217
 40
1.6666666666666665
  0
TEXT
  8
_1-f_寸法
 62
    4
 10
144.37499999999997
 20
215.75
 40
2.5
 41
1
 50
0
  1
5
  0
CIRCLE
  8
_1-f_寸法
  6
CONTINUOUS
 62
    4
 10
138.33333333333329
 20
217
 40
1.6666666666666665
  0
TEXT
  8
_1-f_寸法
 62
    4
 10
137.70833333333329
 20
215.75
 40
2.5
 41
1
 50
0
  1
1
  0
LINE
  8
_1-f_寸法
  6
CONTINUOUS
 62
    4
 10
145.99624547251844
 20
215.66385901332822
 11
147.83333333333346
 21
213.19999999999999
  0
LINE
  8
_1-f_寸法
  6
CONTINUOUS
 62
    4
 10
137.49999999999997
 20
215.55662432702593
 11
136.09128978798029
 21
213.11666666666667
  0
CIRCLE
  8
_1-f_寸法
  6
CONTINUOUS
 62
    4
 10
151.66666666666677
 20
216.99999999999616
 40
1.6666666666666665
  0
TEXT
  8
_1-f_寸法
 62
    4
 10
151.04166666666677
 20
215.74999999999616
 40
2.5
 41
1
 50
0
  1
1
  0
LINE
  8
_1-f_寸法
  6
CONTINUOUS
 62
    4
 10
150.83333333333334
 20
215.55662432702209
 11
149.45349063477309
 21
213.16666666666282
  0
INSERT
  2
-001-_1_
  8
_1-8_小物
 10
210
 20
148.5
 41
1
 42
1
 50
0
  0
LINE
  8
_1-0_躯体
  6
CONTINUOUS
 62
    4
 10
169.75000000000014
 20
213.49999999999616
 11
176.66666666666669
 21
213.49999999999616
  0
CIRCLE
  8
_1-f_寸法
  6
CONTINUOUS
 62
    4
 10
163.33333333333294
 20
216.26666666666296
 40
1.6666666666666665
  0
LINE
  8
_1-f_寸法
  6
CONTINUOUS
 62
    4
 10
164.32957880585153
 20
214.93052567999121
 11
166.16666666666643
 21
212.46666666666297
  0
TEXT
  8
_1-f_寸法
 62
    4
 10
162.70833333333294
 20
215.01666666666296
 40
2.5
 41
1
 50
0
  1
8
  0
INSERT
  2
-002-$QLE
  8
_1-f_寸法
 10
210
 20
148.5
 41
1
 42
1
 50
0
  0
LINE
  8
_1-0_躯体
  6
CENTER2
 62
    4
 10
146.66666666666677
 20
206.79724203364634
 11
146.66666666666677
 21
186.99999999999616
  0
INSERT
  2
-003-_2_
  8
_1-8_小物
 10
210
 20
148.5
 41
1
 42
1
 50
0
  0
CIRCLE
  8
_1-f_寸法
  6
CONTINUOUS
 62
    4
 10
153.33333333333334
 20
190.33333333332951
 40
1.6666666666666665
  0
LINE
  8
_1-f_寸法
  6
CONTINUOUS
 62
    4
 10
152.50517927594896
 20
191.77968689833892
 11
147.41666666666654
 21
200.66666666666276
  0
TEXT
  8
_1-f_寸法
 62
    4
 10
152.08333333333334
 20
189.08333333332951
 40
2.5
 41
1
 50
0
  1
11
  0
INSERT
  2
-004-_3_
  8
_1-8_小物
 10
210
 20
148.5
 41
1
 42
1
 50
0
  0
CIRCLE
  8
_1-f_寸法
  6
CONTINUOUS
 62
    4
 10
140.00000000000009
 20
198.99999999999619
 40
1.6666666666666665
  0
LINE
  8
_1-f_寸法
  6
CONTINUOUS
 62
    4
 10
144.70833333333334
 20
205.41666666666288
 11
140.98598434121973
 21
200.34373087210093
  0
TEXT
  8
_1-f_寸法
 62
    4
 10
138.75000000000009
 20
197.74999999999619
 40
2.5
 41
1
 50
0
  1
10
  0
CIRCLE
  8
_1-f_寸法
  6
CONTINUOUS
 62
    4
 10
131.66666666666666
 20
208.66666666666282
 40
1.6666666666666665
  0
TEXT
  8
_1-f_寸法
 62
    4
 10
131.04166666666666
 20
207.41666666666282
 40
2.5
 41
1
 50
0
  1
3
  0
LINE
  8
_1-f_寸法
  6
CONTINUOUS
 62
    4
 10
130.48815536468905
 20
207.48815536468521
 11
128.04782085223528
 21
205.04782085223144
  0
CIRCLE
  8
_1-f_寸法
  6
CONTINUOUS
 62
    4
 10
151.66666666666677
 20
198.66666666666282
 40
1.6666666666666665
  0
TEXT
  8
_1-f_寸法
 62
    4
 10
151.04166666666677
 20
197.41666666666282
 40
2.5
 41
1
 50
0
  1
9
  0
LINE
  8
_1-f_寸法
  6
CONTINUOUS
 62
    4
 10
150.74486661373945
 20
200.0552135474706
 11
146.66666666666677
 21
206.19838071027959
  0
LINE
  8
_1-f_寸法
  6
CONTINUOUS
 62
    4
 10
178.33333333333343
 20
203.66666666666282
 11
184.93333333333342
 21
203.66666666666282
  0
LINE
  8
_1-f_寸法
  6
CONTINUOUS
 62
    4
 10
178.33333333333343
 20
213.66666666666282
 11
184.93333333333342
 21
213.66666666666282
  0
POINT
  8
_1-f_寸法
 62
    4
 10
183.33333333333343
 20
213.66666666666282
  0
POINT
  8
_1-f_寸法
 62
    4
 10
183.33333333333343
 20
203.66666666666282
  0
LINE
  8
_1-f_寸法
  6
CONTINUOUS
 62
    4
 10
183.33333333333343
 20
213.66666666666282
 11
183.33333333333343
 21
203.66666666666282
  0
TEXT
  8
_1-f_寸法
 62
    4
 10
183.33333333333343
 20
207.06666666666285
 40
3.2000000000000002
 41
1
 50
90
  1
30
  0
LINE
  8
_1-f_寸法
  6
CONTINUOUS
 62
    4
 10
178.33333333333343
 20
213.66666666666282
 11
184.93333333333342
 21
213.66666666666282
  0
LINE
  8
_1-f_寸法
  6
CONTINUOUS
 62
    4
 10
178.33333333333343
 20
203.66666666666282
 11
184.93333333333342
 21
203.66666666666282
  0
POINT
  8
_1-f_寸法
 62
    4
 10
183.33333333333343
 20
203.66666666666282
  0
POINT
  8
_1-f_寸法
 62
    4
 10
183.33333333333343
 20
213.66666666666282
  0
LINE
  8
_1-f_寸法
  6
CONTINUOUS
 62
    4
 10
183.33333333333343
 20
203.66666666666282
 11
183.33333333333343
 21
213.66666666666282
  0
TEXT
  8
_1-f_寸法
 62
    4
 10
183.33333333333343
 20
207.06666666666285
 40
3.2000000000000002
 41
1
 50
90
  1
30
  0
LINE
  8
_1-0_躯体
  6
CONTINUOUS
 62
    4
 10
173.33333333333343
 20
203.66666666666282
 11
173.33333333333343
 21
201.99999999999616
  0
LINE
  8
_1-0_躯体
  6
CONTINUOUS
 62
    4
 10
135.00000000000006
 20
201.99999999999616
 11
173.33333333333343
 21
201.99999999999616
  0
LINE
  8
_1-0_躯体
  6
CONTINUOUS
 62
    6
 10
135
 20
203.66666666666282
 11
173.33333333333343
 21
203.66666666666282
  0
INSERT
  2
-005-HATCHING
  8
_1-0_躯体
 10
210
 20
148.5
 41
1
 42
1
 50
0
  0
INSERT
  2
-006-_4_
  8
_1-8_小物
 10
210
 20
148.5
 41
1
 42
1
 50
0
  0
INSERT
  2
-007-_5_
  8
_1-8_小物
 10
210
 20
148.5
 41
1
 42
1
 50
0
  0
LINE
  8
_1-0_躯体
  6
CENTER2
 62
    4
 10
73.333333333333201
 20
206.79724203364634
 11
73.333333333333201
 21
186.99999999999616
  0
INSERT
  2
-008-_6_
  8
_1-8_小物
 10
210
 20
148.5
 41
1
 42
1
 50
0
  0
INSERT
  2
-009-_7_
  8
_1-8_小物
 10
210
 20
148.5
 41
1
 42
1
 50
0
  0
LINE
  8
_1-0_躯体
  6
CONTINUOUS
 62
    4
 10
50.249999999999829
 20
213.49999999999616
 11
43.333333333333286
 21
213.49999999999616
  0
LINE
  8
_1-0_躯体
  6
CONTINUOUS
 62
    6
 10
85
 20
203.66666666666282
 11
46.666666666666544
 21
203.66666666666282
  0
LINE
  8
_1-0_躯体
  6
CONTINUOUS
 62
    4
 10
46.666666666666544
 20
203.66666666666282
 11
46.666666666666544
 21
201.99999999999616
  0
LINE
  8
_1-0_躯体
  6
CONTINUOUS
 62
    4
 10
84.999999999999943
 20
201.99999999999616
 11
46.666666666666544
 21
201.99999999999616
  0
LINE
  8
_1-f_寸法
  6
CONTINUOUS
 62
    4
 10
135
 20
189.01415999999597
 11
135
 21
182.06666666666285
  0
LINE
  8
_1-f_寸法
  6
CONTINUOUS
 62
    4
 10
146.66666666666677
 20
189.01415999999597
 11
146.66666666666677
 21
182.06666666666285
  0
POINT
  8
_1-f_寸法
 62
    4
 10
146.66666666666677
 20
183.66666666666282
  0
POINT
  8
_1-f_寸法
 62
    4
 10
135
 20
183.66666666666282
  0
LINE
  8
_1-f_寸法
  6
CONTINUOUS
 62
    4
 10
146.66666666666677
 20
183.66666666666282
 11
135
 21
183.66666666666282
  0
TEXT
  8
_1-f_寸法
 62
    4
 10
139.23333333333335
 20
183.66666666666282
 40
3.2000000000000002
 41
1
 50
0
  1
35
  0
LINE
  8
_1-f_寸法
  6
CONTINUOUS
 62
    4
 10
85
 20
189.01415999999597
 11
85
 21
182.06666666666285
  0
LINE
  8
_1-f_寸法
  6
CONTINUOUS
 62
    4
 10
73.333333333333201
 20
189.01415999999597
 11
73.333333333333201
 21
182.06666666666285
  0
POINT
  8
_1-f_寸法
 62
    4
 10
73.333333333333201
 20
183.66666666666282
  0
POINT
  8
_1-f_寸法
 62
    4
 10
85
 20
183.66666666666282
  0
LINE
  8
_1-f_寸法
  6
CONTINUOUS
 62
    4
 10
73.333333333333201
 20
183.66666666666282
 11
85
 21
183.66666666666282
  0
TEXT
  8
_1-f_寸法
 62
    4
 10
77.566666666666606
 20
183.66666666666282
 40
3.2000000000000002
 41
1
 50
0
  1
35
  0
LINE
  8
_1-f_寸法
  6
CONTINUOUS
 62
    4
 10
93.333333333333556
 20
215.33333333333331
 11
93.333333333333556
 21
221.93333333333331
  0
LINE
  8
_1-f_寸法
  6
CONTINUOUS
 62
    4
 10
50.000000000000057
 20
215.33333333333331
 11
50.000000000000057
 21
221.93333333333331
  0
POINT
  8
_1-f_寸法
 62
    4
 10
50.000000000000057
 20
220.33333333333331
  0
POINT
  8
_1-f_寸法
 62
    4
 10
93.333333333333556
 20
220.33333333333331
  0
LINE
  8
_1-f_寸法
  6
CONTINUOUS
 62
    4
 10
50.000000000000057
 20
220.33333333333331
 11
93.333333333333556
 21
220.33333333333331
  0
TEXT
  8
_1-f_寸法
 62
    4
 10
69.266666666666822
 20
220.33333333333331
 40
3.2000000000000002
 41
1
 50
0
  1
130
  0
LINE
  8
_1-f_寸法
  6
CONTINUOUS
 62
    4
 10
126.66666666666643
 20
215.33333333333331
 11
126.66666666666643
 21
221.93333333333331
  0
POINT
  8
_1-f_寸法
 62
    4
 10
126.66666666666643
 20
220.33333333333331
  0
LINE
  8
_1-f_寸法
  6
CONTINUOUS
 62
    4
 10
93.333333333333556
 20
220.33333333333331
 11
126.66666666666643
 21
220.33333333333331
  0
TEXT
  8
_1-f_寸法
 62
    4
 10
107.59999999999999
 20
220.33333333333331
 40
3.2000000000000002
 41
1
 50
0
  1
100
  0
LINE
  8
_1-f_寸法
  6
CONTINUOUS
 62
    4
 10
169.99999999999991
 20
215.33333333333331
 11
169.99999999999991
 21
221.93333333333331
  0
POINT
  8
_1-f_寸法
 62
    4
 10
169.99999999999991
 20
220.33333333333331
  0
LINE
  8
_1-f_寸法
  6
CONTINUOUS
 62
    4
 10
126.66666666666643
 20
220.33333333333331
 11
169.99999999999991
 21
220.33333333333331
  0
TEXT
  8
_1-f_寸法
 62
    4
 10
145.93333333333317
 20
220.33333333333331
 40
3.2000000000000002
 41
1
 50
0
  1
130
  0
LINE
  8
_1-f_寸法
  6
CONTINUOUS
 62
    4
 10
169.99999999999991
 20
220.33333333333331
 11
169.99999999999991
 21
226.93333333333331
  0
LINE
  8
_1-f_寸法
  6
CONTINUOUS
 62
    4
 10
50.000000000000057
 20
220.33333333333331
 11
50.000000000000057
 21
226.93333333333331
  0
POINT
  8
_1-f_寸法
 62
    4
 10
50.000000000000057
 20
225.33333333333331
  0
POINT
  8
_1-f_寸法
 62
    4
 10
169.99999999999991
 20
225.33333333333331
  0
LINE
  8
_1-f_寸法
  6
CONTINUOUS
 62
    4
 10
50.000000000000057
 20
225.33333333333331
 11
169.99999999999991
 21
225.33333333333331
  0
TEXT
  8
_1-f_寸法
 62
    4
 10
107.59999999999999
 20
225.33333333333331
 40
3.2000000000000002
 41
1
 50
0
  1
360
  0
LINE
  8
_1-f_寸法
  6
CONTINUOUS
 62
    4
 10
135
 20
147
 11
135
 21
140.39999999999998
  0
LINE
  8
_1-f_寸法
  6
CONTINUOUS
 62
    4
 10
85
 20
147
 11
85
 21
140.39999999999998
  0
POINT
  8
_1-f_寸法
 62
    4
 10
85
 20
142
  0
POINT
  8
_1-f_寸法
 62
    4
 10
135
 20
142
  0
LINE
  8
_1-f_寸法
  6
CONTINUOUS
 62
    4
 10
85
 20
142
 11
135
 21
142
  0
TEXT
  8
_1-f_寸法
 62
    4
 10
107.59999999999999
 20
142
 40
3.2000000000000002
 41
1
 50
0
  1
150
  0
LINE
  8
_1-3_止水補助板
  6
CONTINUOUS
 62
    4
 10
259.99999999999943
 20
223.13333333333472
 11
260.33333333333269
 21
223.13333333333472
  0
LINE
  8
_1-3_止水補助板
  6
CONTINUOUS
 62
    4
 10
259.99999999999943
 20
203.66666666666666
 11
259.99999999999943
 21
223.13333333333472
  0
LINE
  8
_1-3_止水補助板
  6
CONTINUOUS
 62
    4
 10
260.33333333333269
 20
203.7105508325306
 11
260.33333333333269
 21
223.13333333333472
  0
CIRCLE
  8
_1-f_寸法
  6
CONTINUOUS
 62
    4
 10
256.66666666666663
 20
230.33333333333331
 40
1.6666666666666665
  0
TEXT
  8
_1-f_寸法
 62
    4
 10
256.04166666666663
 20
229.08333333333331
 40
2.5
 41
1
 50
0
  1
5
  0
LINE
  8
_1-f_寸法
  6
CONTINUOUS
 62
    4
 10
257.84517796864418
 20
229.15482203135574
 11
263.06666477145609
 21
223.93333522854383
  0
CIRCLE
  8
_1-f_寸法
  6
CONTINUOUS
 62
    4
 10
271.66666666666663
 20
228.66666666666666
 40
1.6666666666666665
  0
LINE
  8
_1-f_寸法
  6
CONTINUOUS
 62
    4
 10
270.48815536468908
 20
227.48815536468902
 11
268.08333440136767
 21
225.08333440136761
  0
TEXT
  8
_1-f_寸法
 62
    4
 10
271.04166666666663
 20
227.41666666666666
 40
2.5
 41
1
 50
0
  1
8
  0
CIRCLE
  8
_1-f_寸法
  6
CONTINUOUS
 62
    4
 10
264.99999999999989
 20
198.66666666666666
 40
1.6666666666666665
  0
LINE
  8
_1-f_寸法
  6
CONTINUOUS
 62
    4
 10
264.16666666666652
 20
197.22329099369259
 11
262.61785113019755
 21
194.54066379297632
  0
TEXT
  8
_1-f_寸法
 62
    4
 10
264.37499999999989
 20
197.41666666666666
 40
2.5
 41
1
 50
0
  1
6
  0
CIRCLE
  8
_1-f_寸法
  6
CONTINUOUS
 62
    4
 10
271.66666666666674
 20
222
 40
1.6666666666666665
  0
TEXT
  8
_1-f_寸法
 62
    4
 10
271.04166666666663
 20
220.75
 40
2.5
 41
1
 50
0
  1
4
  0
LINE
  8
_1-f_寸法
  6
CONTINUOUS
 62
    4
 10
270.48815536468908
 20
220.82148869802236
 11
268.08333440136767
 21
218.41666773470095
  0
LINE
  8
_1-f_寸法
  6
CONTINUOUS
 62
    4
 10
268.33333440136744
 20
233.66666666666666
 11
268.33333440136744
 21
240.26666666666665
  0
LINE
  8
_1-f_寸法
  6
CONTINUOUS
 62
    4
 10
259.99999999999989
 20
233.66666666666666
 11
259.99999999999989
 21
240.26666666666665
  0
POINT
  8
_1-f_寸法
 62
    4
 10
259.99999999999989
 20
238.66666666666666
  0
POINT
  8
_1-f_寸法
 62
    4
 10
268.33333440136744
 20
238.66666666666666
  0
LINE
  8
_1-f_寸法
  6
CONTINUOUS
 62
    4
 10
259.99999999999989
 20
238.66666666666666
 11
268.33333440136744
 21
238.66666666666666
  0
TEXT
  8
_1-f_寸法
 62
    4
 10
262.56666720068358
 20
238.66666666666666
 40
3.2000000000000002
 41
1
 50
0
  1
25
  0
LINE
  8
_1-3_止水補助板
  6
CONTINUOUS
 62
    4
 10
326.66666666666652
 20
203.66666666666666
 11
326.66666666666652
 21
204
  0
LINE
  8
_1-3_止水補助板
  6
CONTINUOUS
 62
    4
 10
309.99999999999977
 20
203.66666666666666
 11
326.66666666666652
 21
203.66666666666666
  0
LINE
  8
_1-3_止水補助板
  6
CONTINUOUS
 62
    4
 10
309.74422433734014
 20
204
 11
326.66666666666652
 21
204
  0
CIRCLE
  8
_1-f_寸法
  6
CONTINUOUS
 62
    4
 10
335
 20
217
 40
1.6666666666666665
  0
TEXT
  8
_1-f_寸法
 62
    4
 10
334.375
 20
215.75
 40
2.5
 41
1
 50
0
  1
1
  0
LINE
  8
_1-f_寸法
  6
CONTINUOUS
 62
    4
 10
334.16666666666657
 20
215.55662432702593
 11
332.78682396810632
 21
213.16666666666666
  0
LINE
  8
_1-3_止水補助板
  6
CONTINUOUS
 62
    4
 10
309.99999999999955
 20
203.66666666666666
 11
300.29428580865488
 21
167.44444818082661
  0
LINE
  8
_1-3_止水補助板
  6
CONTINUOUS
 62
    4
 10
309.74422433733969
 20
204
 11
299.97231053322548
 21
167.53072119586082
  0
LINE
  8
_1-3_止水補助板
  6
CONTINUOUS
 62
    4
 10
259.99999999999989
 20
203.66666666666666
 11
269.70571419134455
 21
167.44444818082661
  0
LINE
  8
_1-3_止水補助板
  6
CONTINUOUS
 62
    4
 10
260.33333333333303
 20
203.71055083253054
 11
270.02768946677406
 21
167.53072119586082
  0
ARC
  8
_1-3_止水補助板
  6
CONTINUOUS
 62
    4
 10
284.99999999999977
 20
171.54253971206654
 40
15.833809794084612
 50
195.00000000000034
 51
344.7542084459165
  0
ARC
  8
_1-3_止水補助板
  6
CONTINUOUS
 62
    4
 10
284.99999999999977
 20
171.54253971206654
 40
15.50047646075128
 50
195.0000000000002
 51
344.75420844591667
  0
LINE
  8
_1-0_躯体
  6
CONTINUOUS
 62
    6
 10
309.99999999999977
 20
203.66666666666666
 11
309.99999999999977
 21
148.66666666666666
  0
LINE
  8
_1-0_躯体
  6
CONTINUOUS
 62
    6
 10
259.99999999999989
 20
232
 11
259.99999999999989
 21
148.66666666666737
  0
LINE
  8
_1-f_寸法
  6
CONTINUOUS
 62
    4
 10
309.99999999999977
 20
147
 11
309.99999999999977
 21
140.39999999999998
  0
LINE
  8
_1-f_寸法
  6
CONTINUOUS
 62
    4
 10
259.99999999999989
 20
147
 11
259.99999999999989
 21
140.39999999999998
  0
POINT
  8
_1-f_寸法
 62
    4
 10
259.99999999999989
 20
142
  0
POINT
  8
_1-f_寸法
 62
    4
 10
309.99999999999977
 20
142
  0
LINE
  8
_1-f_寸法
  6
CONTINUOUS
 62
    4
 10
259.99999999999989
 20
142
 11
309.99999999999977
 21
142
  0
TEXT
  8
_1-f_寸法
 62
    4
 10
282.59999999999974
 20
142
 40
3.2000000000000002
 41
1
 50
0
  1
150
  0
LINE
  8
_1-0_躯体
  6
CENTER2
 62
    4
 10
321.66666666666663
 20
206.79724203365018
 11
321.66666666666663
 21
187
  0
INSERT
  2
-010-_8_
  8
_1-8_小物
 10
210
 20
148.5
 41
1
 42
1
 50
0
  0
CIRCLE
  8
_1-f_寸法
  6
CONTINUOUS
 62
    4
 10
328.33333333333326
 20
190.33333333333331
 40
1.6666666666666665
  0
LINE
  8
_1-f_寸法
  6
CONTINUOUS
 62
    4
 10
327.50517927594888
 20
191.77968689834273
 11
322.4166666666664
 21
200.66666666666657
  0
TEXT
  8
_1-f_寸法
 62
    4
 10
327.08333333333326
 20
189.08333333333331
 40
2.5
 41
1
 50
0
  1
11
  0
INSERT
  2
-011-_9_
  8
_1-8_小物
 10
210
 20
148.5
 41
1
 42
1
 50
0
  0
CIRCLE
  8
_1-f_寸法
  6
CONTINUOUS
 62
    4
 10
314.99999999999989
 20
199.00000000000003
 40
1.6666666666666665
  0
LINE
  8
_1-f_寸法
  6
CONTINUOUS
 62
    4
 10
319.70833333333314
 20
205.41666666666669
 11
315.98598434121948
 21
200.34373087210477
  0
TEXT
  8
_1-f_寸法
 62
    4
 10
313.74999999999989
 20
197.75000000000003
 40
2.5
 41
1
 50
0
  1
10
  0
CIRCLE
  8
_1-f_寸法
  6
CONTINUOUS
 62
    4
 10
326.66666666666663
 20
198.66666666666666
 40
1.6666666666666665
  0
TEXT
  8
_1-f_寸法
 62
    4
 10
326.04166666666663
 20
197.41666666666666
 40
2.5
 41
1
 50
0
  1
9
  0
LINE
  8
_1-f_寸法
  6
CONTINUOUS
 62
    4
 10
325.7448666137393
 20
200.05521354747444
 11
321.66666666666663
 21
206.1983807102834
  0
INSERT
  2
-012-_10_
  8
_1-8_小物
 10
210
 20
148.5
 41
1
 42
1
 50
0
  0
LINE
  8
_1-0_躯体
  6
CONTINUOUS
 62
    4
 10
359.74999999999966
 20
213.49999999999989
 11
366.66666666666617
 21
213.49999999999989
  0
LINE
  8
_1-f_寸法
  6
CONTINUOUS
 62
    4
 10
368.33333333333331
 20
203.66666666666666
 11
374.93333333333328
 21
203.66666666666666
  0
LINE
  8
_1-f_寸法
  6
CONTINUOUS
 62
    4
 10
368.33333333333331
 20
213.66666666666666
 11
374.93333333333328
 21
213.66666666666666
  0
POINT
  8
_1-f_寸法
 62
    4
 10
373.33333333333331
 20
213.66666666666666
  0
POINT
  8
_1-f_寸法
 62
    4
 10
373.33333333333331
 20
203.66666666666666
  0
LINE
  8
_1-f_寸法
  6
CONTINUOUS
 62
    4
 10
373.33333333333331
 20
213.66666666666666
 11
373.33333333333331
 21
203.66666666666666
  0
TEXT
  8
_1-f_寸法
 62
    4
 10
373.33333333333331
 20
207.06666666666666
 40
3.2000000000000002
 41
1
 50
90
  1
30
  0
LINE
  8
_1-f_寸法
  6
CONTINUOUS
 62
    4
 10
368.33333333333331
 20
213.66666666666666
 11
374.93333333333328
 21
213.66666666666666
  0
LINE
  8
_1-f_寸法
  6
CONTINUOUS
 62
    4
 10
368.33333333333331
 20
203.66666666666666
 11
374.93333333333328
 21
203.66666666666666
  0
POINT
  8
_1-f_寸法
 62
    4
 10
373.33333333333331
 20
203.66666666666666
  0
POINT
  8
_1-f_寸法
 62
    4
 10
373.33333333333331
 20
213.66666666666666
  0
LINE
  8
_1-f_寸法
  6
CONTINUOUS
 62
    4
 10
373.33333333333331
 20
203.66666666666666
 11
373.33333333333331
 21
213.66666666666666
  0
TEXT
  8
_1-f_寸法
 62
    4
 10
373.33333333333331
 20
207.06666666666666
 40
3.2000000000000002
 41
1
 50
90
  1
30
  0
LINE
  8
_1-f_寸法
  6
CONTINUOUS
 62
    4
 10
244.16666666666654
 20
203.66666666666666
 11
308.33333333333326
 21
203.66666666666666
  0
LINE
  8
_1-f_寸法
  6
CONTINUOUS
 62
    4
 10
301.66666666666663
 20
235.33333333333331
 11
301.66666666666663
 21
217
  0
LINE
  8
_1-f_寸法
  6
CONTINUOUS
 62
    4
 10
359.99999999999983
 20
235.33333333333331
 11
359.99999999999983
 21
217
  0
LINE
  8
_1-f_寸法
  6
CONTINUOUS
 62
    4
 10
301.66666666666663
 20
233.66666666666666
 11
301.66666666666663
 21
240.26666666666665
  0
LINE
  8
_1-f_寸法
  6
CONTINUOUS
 62
    4
 10
268.33333440136744
 20
233.66666666666666
 11
268.33333440136744
 21
240.26666666666665
  0
POINT
  8
_1-f_寸法
 62
    4
 10
268.33333440136744
 20
238.66666666666666
  0
POINT
  8
_1-f_寸法
 62
    4
 10
301.66666666666663
 20
238.66666666666666
  0
LINE
  8
_1-f_寸法
  6
CONTINUOUS
 62
    4
 10
268.33333440136744
 20
238.66666666666666
 11
301.66666666666663
 21
238.66666666666666
  0
TEXT
  8
_1-f_寸法
 62
    4
 10
282.60000053401694
 20
238.66666666666666
 40
3.2000000000000002
 41
1
 50
0
  1
100
  0
LINE
  8
_1-f_寸法
  6
CONTINUOUS
 62
    4
 10
359.99999999999983
 20
233.66666666666666
 11
359.99999999999983
 21
240.26666666666665
  0
POINT
  8
_1-f_寸法
 62
    4
 10
359.99999999999983
 20
238.66666666666666
  0
LINE
  8
_1-f_寸法
  6
CONTINUOUS
 62
    4
 10
301.66666666666663
 20
238.66666666666666
 11
359.99999999999983
 21
238.66666666666666
  0
TEXT
  8
_1-f_寸法
 62
    4
 10
328.43333333333322
 20
238.66666666666666
 40
3.2000000000000002
 41
1
 50
0
  1
175
  0
LINE
  8
_1-0_躯体
  6
CONTINUOUS
 62
    6
 10
309.99999999999977
 20
203.66666666666666
 11
363.33333333333331
 21
203.66666666666666
  0
LINE
  8
_1-0_躯体
  6
CONTINUOUS
 62
    4
 10
309.99999999999989
 20
202
 11
363.33333333333331
 21
202
  0
LINE
  8
_1-0_躯体
  6
CONTINUOUS
 62
    4
 10
363.33333333333331
 20
203.66666666666666
 11
363.33333333333331
 21
202
  0
INSERT
  2
-013-HATCHING_1_
  8
_1-0_躯体
 10
210
 20
148.5
 41
1
 42
1
 50
0
  0
CIRCLE
  8
_1-f_寸法
  6
CONTINUOUS
 62
    4
 10
306.6666666666664
 20
208.66666666666666
 40
1.6666666666666665
  0
TEXT
  8
_1-f_寸法
 62
    4
 10
306.0416666666664
 20
207.41666666666666
 40
2.5
 41
1
 50
0
  1
3
  0
LINE
  8
_1-f_寸法
  6
CONTINUOUS
 62
    4
 10
305.48815536468885
 20
207.48815536468902
 11
303.04782085223508
 21
205.04782085223525
  0
CIRCLE
  8
_1-f_寸法
  6
CONTINUOUS
 62
    4
 10
353.33333333333286
 20
216.26666666666296
 40
1.6666666666666665
  0
LINE
  8
_1-f_寸法
  6
CONTINUOUS
 62
    4
 10
354.32957880585138
 20
214.93052567999121
 11
356.16666666666634
 21
212.46666666666297
  0
TEXT
  8
_1-f_寸法
 62
    4
 10
352.70833333333286
 20
215.01666666666296
 40
2.5
 41
1
 50
0
  1
8
  0
LINE
  8
_1-f_寸法
  6
CONTINUOUS
 62
    4
 10
321.66666666666663
 20
188.66666666666666
 11
321.66666666666663
 21
182.06666666666666
  0
LINE
  8
_1-f_寸法
  6
CONTINUOUS
 62
    4
 10
309.99999999999977
 20
188.66666666666666
 11
309.99999999999977
 21
182.06666666666666
  0
POINT
  8
_1-f_寸法
 62
    4
 10
309.99999999999977
 20
183.66666666666666
  0
POINT
  8
_1-f_寸法
 62
    4
 10
321.66666666666663
 20
183.66666666666666
  0
LINE
  8
_1-f_寸法
  6
CONTINUOUS
 62
    4
 10
309.99999999999977
 20
183.66666666666666
 11
321.66666666666663
 21
183.66666666666666
  0
TEXT
  8
_1-f_寸法
 62
    4
 10
314.23333333333312
 20
183.66666666666666
 40
3.2000000000000002
 41
1
 50
0
  1
35
  0
LINE
  8
_1-0_躯体
  6
CENTER2
 62
    4
 10
284.99999999999989
 20
228.66666666666666
 11
284.99999999999989
 21
148.66666666666666
  0
LINE
  8
_1-0_躯体
  6
CENTER2
 62
    4
 10
110
 20
213.83333333333337
 11
110
 21
148.66666666666666
  0
INSERT
  2
-014-$QLE_1_
  8
_1-f_寸法
 10
210
 20
148.5
 41
1
 42
1
 50
0
  0
INSERT
  2
-015-_11_
  8
_1-8_小物
 10
210
 20
148.5
 41
1
 42
1
 50
0
  0
INSERT
  2
-016-_12_
  8
_1-8_小物
 10
210
 20
148.5
 41
1
 42
1
 50
0
  0
INSERT
  2
-017-_13_
  8
_1-8_小物
 10
210
 20
148.5
 41
1
 42
1
 50
0
  0
INSERT
  2
-018-HATCHING_2_
  8
_1-0_躯体
 10
210
 20
148.5
 41
1
 42
1
 50
0
  0
LINE
  8
_1-f_寸法
  6
CONTINUOUS
 62
    4
 10
93.333333333333442
 20
189.01415999999597
 11
93.333333333333442
 21
182.06666666666285
  0
LINE
  8
_1-f_寸法
  6
CONTINUOUS
 62
    4
 10
85
 20
189.01415999999597
 11
85
 21
182.06666666666285
  0
POINT
  8
_1-f_寸法
 62
    4
 10
85
 20
183.66666666666282
  0
POINT
  8
_1-f_寸法
 62
    4
 10
93.333333333333442
 20
183.66666666666282
  0
LINE
  8
_1-f_寸法
  6
CONTINUOUS
 62
    4
 10
85
 20
183.66666666666282
 11
93.333333333333442
 21
183.66666666666282
  0
TEXT
  8
_1-f_寸法
 62
    4
 10
87.56666666666672
 20
183.66666666666282
 40
3.2000000000000002
 41
1
 50
0
  1
25
  0
LINE
  8
_1-f_寸法
  6
CONTINUOUS
 62
    4
 10
93.333333333333442
 20
189.01415999999597
 11
93.333333333333442
 21
201.99999999999616
  0
LINE
  8
_1-f_寸法
  6
CONTINUOUS
 62
    4
 10
126.66666666666654
 20
189.01415999999597
 11
126.66666666666654
 21
182.06666666666285
  0
LINE
  8
_1-f_寸法
  6
CONTINUOUS
 62
    4
 10
135
 20
189.01415999999597
 11
135
 21
182.06666666666285
  0
POINT
  8
_1-f_寸法
 62
    4
 10
135
 20
183.66666666666282
  0
POINT
  8
_1-f_寸法
 62
    4
 10
126.66666666666654
 20
183.66666666666282
  0
LINE
  8
_1-f_寸法
  6
CONTINUOUS
 62
    4
 10
135
 20
183.66666666666282
 11
126.66666666666654
 21
183.66666666666282
  0
TEXT
  8
_1-f_寸法
 62
    4
 10
129.23333333333323
 20
183.66666666666282
 40
3.2000000000000002
 41
1
 50
0
  1
25
  0
LINE
  8
_1-f_寸法
  6
CONTINUOUS
 62
    4
 10
126.66666666666654
 20
189.01415999999597
 11
126.66666666666654
 21
201.99999999999616
  0
LINE
  8
_1-f_寸法
  6
CONTINUOUS
 62
    4
 10
301.66666666666629
 20
189.01415999999978
 11
301.66666666666629
 21
182.06666666666666
  0
LINE
  8
_1-f_寸法
  6
CONTINUOUS
 62
    4
 10
309.99999999999977
 20
189.01415999999978
 11
309.99999999999977
 21
182.06666666666666
  0
POINT
  8
_1-f_寸法
 62
    4
 10
309.99999999999977
 20
183.66666666666666
  0
POINT
  8
_1-f_寸法
 62
    4
 10
301.66666666666629
 20
183.66666666666666
  0
LINE
  8
_1-f_寸法
  6
CONTINUOUS
 62
    4
 10
309.99999999999977
 20
183.66666666666666
 11
301.66666666666629
 21
183.66666666666666
  0
TEXT
  8
_1-f_寸法
 62
    4
 10
304.23333333333301
 20
183.66666666666666
 40
3.2000000000000002
 41
1
 50
0
  1
25
  0
LINE
  8
_1-f_寸法
  6
CONTINUOUS
 62
    4
 10
301.66666666666629
 20
189.01415999999978
 11
301.66666666666629
 21
202
  0
INSERT
  2
-019-_14_
  8
_1-8_小物
 10
210
 20
148.5
 41
1
 42
1
 50
0
  0
INSERT
  2
-020-_15_
  8
_1-8_小物
 10
210
 20
148.5
 41
1
 42
1
 50
0
  0
LINE
  8
_1-f_寸法
  6
CONTINUOUS
 62
    4
 10
368.33333333333331
 20
230.33333357176582
 11
374.93333333333328
 21
230.33333357176582
  0
LINE
  8
_1-f_寸法
  6
CONTINUOUS
 62
    4
 10
368.33333333333331
 20
213.66666666666666
 11
374.93333333333328
 21
213.66666666666666
  0
POINT
  8
_1-f_寸法
 62
    4
 10
373.33333333333331
 20
213.66666666666666
  0
POINT
  8
_1-f_寸法
 62
    4
 10
373.33333333333331
 20
230.33333357176582
  0
LINE
  8
_1-f_寸法
  6
CONTINUOUS
 62
    4
 10
373.33333333333331
 20
213.66666666666666
 11
373.33333333333331
 21
230.33333357176582
  0
TEXT
  8
_1-f_寸法
 62
    4
 10
373.33333333333331
 20
220.40000011921626
 40
3.2000000000000002
 41
1
 50
90
  1
50
  0
LINE
  8
_1-f_寸法
  6
CONTINUOUS
 62
    4
 10
368.33333333333331
 20
230.33333357176582
 11
269.99999999999989
 21
230.33333357176582
  0
LINE
  8
_1-0_躯体
  6
CENTER2
 62
    4
 10
263.07179396077322
 20
215.33333333333331
 11
243.33333333333329
 21
215.33333333333331
  0
INSERT
  2
-021-_16_
  8
_1-4_フレ__ム
 10
210
 20
148.5
 41
1
 42
1
 50
0
  0
CIRCLE
  8
_1-f_寸法
  6
CONTINUOUS
 62
    4
 10
249.99999999999957
 20
220.33333333333329
 40
1.6666666666666665
  0
CIRCLE
  8
_1-f_寸法
  6
CONTINUOUS
 62
    4
 10
254.99999999999957
 20
210.33333333333329
 40
1.6666666666666665
  0
CIRCLE
  8
_1-f_寸法
  6
CONTINUOUS
 62
    4
 10
248.33333333333294
 20
210.33333333333329
 40
1.6666666666666665
  0
LINE
  8
_1-f_寸法
  6
CONTINUOUS
 62
    4
 10
249.81805908837387
 20
211.09054348256251
 11
256.66666666666617
 21
214.58333341279996
  0
LINE
  8
_1-f_寸法
  6
CONTINUOUS
 62
    4
 10
261.86504737694952
 20
215.33333333333331
 11
256.34721747535593
 21
211.31454832092373
  0
LINE
  8
_1-f_寸法
  6
CONTINUOUS
 62
    4
 10
261.08333333333292
 20
217.29166674613316
 11
251.60724048938428
 21
219.89224854889812
  0
TEXT
  8
_1-f_寸法
 62
    4
 10
254.37499999999957
 20
209.08333333333329
 40
2.5
 41
1
 50
0
  1
9
  0
TEXT
  8
_1-f_寸法
 62
    4
 10
248.74999999999957
 20
219.08333333333329
 40
2.5
 41
1
 50
0
  1
10
  0
TEXT
  8
_1-f_寸法
 62
    4
 10
247.08333333333294
 20
209.08333333333329
 40
2.5
 41
1
 50
0
  1
11
  0
INSERT
  2
-022-_17_
  8
_1-8_小物
 10
210
 20
148.5
 41
1
 42
1
 50
0
  0
INSERT
  2
-023-_18_
  8
_1-8_小物
 10
210
 20
148.5
 41
1
 42
1
 50
0
  0
LINE
  8
_1-4_フレ__ム
  6
CONTINUOUS
 62
    4
 10
244.16666666666654
 20
203.66666666666666
 11
237.56666666666655
 21
203.66666666666666
  0
LINE
  8
_1-4_フレ__ム
  6
CONTINUOUS
 62
    4
 10
244.16666666666654
 20
215.33333333333331
 11
237.56666666666655
 21
215.33333333333331
  0
POINT
  8
_1-4_フレ__ム
 62
    4
 10
239.16666666666654
 20
215.33333333333331
  0
POINT
  8
_1-4_フレ__ム
 62
    4
 10
239.16666666666654
 20
203.66666666666666
  0
LINE
  8
_1-4_フレ__ム
  6
CONTINUOUS
 62
    4
 10
239.16666666666654
 20
215.33333333333331
 11
239.16666666666654
 21
203.66666666666666
  0
TEXT
  8
_1-4_フレ__ム
 62
    4
 10
239.16666666666654
 20
207.90000000000001
 40
3.2000000000000002
 41
1
 50
90
  1
35
  0
CIRCLE
  8
_1-f_寸法
  6
CONTINUOUS
 62
    4
 10
280.99999999999983
 20
217
 40
1.6666666666666665
  0
TEXT
  8
_1-f_寸法
 62
    4
 10
280.37499999999983
 20
215.75
 40
2.5
 41
1
 50
0
  1
2
  0
LINE
  8
_1-f_寸法
  6
CONTINUOUS
 62
    4
 10
280.16666666666657
 20
215.55662432702593
 11
278.2190982297621
 21
212.18333684308993
  0
LINE
  8
_1-0_躯体
  6
CENTER2
 62
    4
 10
158.33333333333297
 20
206.79724203364634
 11
158.33333333333297
 21
186.99999999999616
  0
INSERT
  2
-024-_19_
  8
_1-8_小物
 10
210
 20
148.5
 41
1
 42
1
 50
0
  0
INSERT
  2
-025-_20_
  8
_1-8_小物
 10
210
 20
148.5
 41
1
 42
1
 50
0
  0
LINE
  8
_1-0_躯体
  6
CENTER2
 62
    4
 10
61.666666666667027
 20
206.79724203364634
 11
61.666666666667027
 21
186.99999999999616
  0
INSERT
  2
-026-_21_
  8
_1-8_小物
 10
210
 20
148.5
 41
1
 42
1
 50
0
  0
INSERT
  2
-027-_22_
  8
_1-8_小物
 10
210
 20
148.5
 41
1
 42
1
 50
0
  0
LINE
  8
_1-f_寸法
  6
CONTINUOUS
 62
    4
 10
61.666666666667027
 20
189.01415999999597
 11
61.666666666667027
 21
182.06666666666285
  0
LINE
  8
_1-f_寸法
  6
CONTINUOUS
 62
    4
 10
73.333333333333201
 20
189.01415999999597
 11
73.333333333333201
 21
182.06666666666285
  0
POINT
  8
_1-f_寸法
 62
    4
 10
73.333333333333201
 20
183.66666666666282
  0
POINT
  8
_1-f_寸法
 62
    4
 10
61.666666666667027
 20
183.66666666666282
  0
LINE
  8
_1-f_寸法
  6
CONTINUOUS
 62
    4
 10
73.333333333333201
 20
183.66666666666282
 11
61.666666666667027
 21
183.66666666666282
  0
TEXT
  8
_1-f_寸法
 62
    4
 10
65.900000000000091
 20
183.66666666666282
 40
3.2000000000000002
 41
1
 50
0
  1
35
  0
LINE
  8
_1-f_寸法
  6
CONTINUOUS
 62
    4
 10
158.33333333333297
 20
189.01415999999597
 11
158.33333333333297
 21
182.06666666666285
  0
LINE
  8
_1-f_寸法
  6
CONTINUOUS
 62
    4
 10
146.66666666666677
 20
189.01415999999597
 11
146.66666666666677
 21
182.06666666666285
  0
POINT
  8
_1-f_寸法
 62
    4
 10
146.66666666666677
 20
183.66666666666282
  0
POINT
  8
_1-f_寸法
 62
    4
 10
158.33333333333297
 20
183.66666666666282
  0
LINE
  8
_1-f_寸法
  6
CONTINUOUS
 62
    4
 10
146.66666666666677
 20
183.66666666666282
 11
158.33333333333297
 21
183.66666666666282
  0
TEXT
  8
_1-f_寸法
 62
    4
 10
150.89999999999986
 20
183.66666666666282
 40
3.2000000000000002
 41
1
 50
0
  1
35
  0
INSERT
  2
-028-_23_
  8
_1-4_フレ__ム
 10
210
 20
148.5
 41
1
 42
1
 50
0
  0
LINE
  8
_1-0_躯体
  6
CENTER2
 62
    4
 10
348.33333333333269
 20
206.79724203365018
 11
348.33333333333269
 21
187
  0
INSERT
  2
-029-_24_
  8
_1-8_小物
 10
210
 20
148.5
 41
1
 42
1
 50
0
  0
INSERT
  2
-030-_25_
  8
_1-8_小物
 10
210
 20
148.5
 41
1
 42
1
 50
0
  0
LINE
  8
_1-4_フレ__ム
  6
CONTINUOUS
 62
    4
 10
348.33333333333269
 20
188.66666666666666
 11
348.33333333333269
 21
182.06666666666666
  0
LINE
  8
_1-4_フレ__ム
  6
CONTINUOUS
 62
    4
 10
321.66666666666663
 20
188.66666666666666
 11
321.66666666666663
 21
182.06666666666666
  0
POINT
  8
_1-4_フレ__ム
 62
    4
 10
321.66666666666663
 20
183.66666666666666
  0
POINT
  8
_1-4_フレ__ム
 62
    4
 10
348.33333333333269
 20
183.66666666666666
  0
LINE
  8
_1-4_フレ__ム
  6
CONTINUOUS
 62
    4
 10
321.66666666666663
 20
183.66666666666666
 11
348.33333333333269
 21
183.66666666666666
  0
TEXT
  8
_1-4_フレ__ム
 62
    4
 10
333.39999999999964
 20
183.66666666666666
 40
3.2000000000000002
 41
1
 50
0
  1
80
  0
LINE
  8
_1-4_フレ__ム
  6
CONTINUOUS
 62
    4
 10
267.20000039084096
 20
202
 11
267.20000039084096
 21
182.06666666666666
  0
LINE
  8
_1-4_フレ__ム
  6
CONTINUOUS
 62
    4
 10
259.99999999999989
 20
202
 11
259.99999999999989
 21
182.06666666666666
  0
POINT
  8
_1-4_フレ__ム
 62
    4
 10
259.99999999999989
 20
183.66666666666666
  0
POINT
  8
_1-4_フレ__ム
 62
    4
 10
267.20000039084096
 20
183.66666666666666
  0
LINE
  8
_1-4_フレ__ム
  6
CONTINUOUS
 62
    4
 10
259.99999999999989
 20
183.66666666666666
 11
267.20000039084096
 21
183.66666666666666
  0
TEXT
  8
_1-4_フレ__ム
 62
    4
 10
260.40000019542038
 20
183.66666666666666
 40
3.2000000000000002
 41
1
 50
0
  1
21.6
  0
CIRCLE
  8
_1-f_寸法
  6
CONTINUOUS
 62
    4
 10
121.66666666666666
 20
206.99999999999616
 40
1.6666666666666665
  0
TEXT
  8
_1-f_寸法
 62
    4
 10
121.04166666666666
 20
205.74999999999616
 40
2.5
 41
1
 50
0
  1
9
  0
CIRCLE
  8
_1-f_寸法
  6
CONTINUOUS
 62
    4
 10
296.66666616666646
 20
207
 40
1.6666666666666665
  0
TEXT
  8
_1-f_寸法
 62
    4
 10
295.41666616666646
 20
205.75
 40
2.5
 41
1
 50
0
  1
12
  0
LINE
  8
_1-f_寸法
  6
CONTINUOUS
 62
    4
 10
126.41666666666647
 20
209.7666663333296
 11
123.10684774086576
 21
207.83884220881527
  0
LINE
  8
_1-f_寸法
  6
CONTINUOUS
 62
    4
 10
301.41666616666623
 20
209.76666633333343
 11
298.10684724086553
 21
207.8388422088191
  0
LINE
  8
_1-4_フレ__ム
  6
DASHED1
 62
    4
 10
155.83333333333297
 20
203.99999999999616
 11
155.83333333333297
 21
204.83333333332951
  0
LINE
  8
_1-4_フレ__ム
  6
DASHED1
 62
    4
 10
160.83333333333297
 20
203.99999999999616
 11
160.83333333333297
 21
204.83333333332951
  0
ARC
  8
_1-4_フレ__ム
  6
CONTINUOUS
 62
    4
 10
167.49999999999994
 20
210.99999999999616
 40
0.3333333333333333
 50
0
 51
90
  0
LINE
  8
_1-4_フレ__ム
  6
CONTINUOUS
 62
    4
 10
164.33333333333314
 20
211.33333333332951
 11
167.49999999999994
 21
211.33333333332951
  0
ARC
  8
_1-4_フレ__ム
  6
CONTINUOUS
 62
    4
 10
164.33333333333314
 20
211.99999999999616
 40
0.6666666666666666
 50
180
 51
270
  0
LINE
  8
_1-4_フレ__ム
  6
CONTINUOUS
 62
    4
 10
166.06666666666638
 20
212.16666666666282
 11
164.83333333333314
 21
212.16666666666282
  0
LINE
  8
_1-4_フレ__ム
  6
CONTINUOUS
 62
    4
 10
166.16666666666663
 20
212.06666666666291
 11
166.06666666666638
 21
212.16666666666282
  0
LINE
  8
_1-4_フレ__ム
  6
CONTINUOUS
 62
    4
 10
166.26666666666654
 20
212.16666666666282
 11
166.16666666666663
 21
212.06666666666291
  0
LINE
  8
_1-4_フレ__ム
  6
CONTINUOUS
 62
    4
 10
167.49999999999994
 20
212.16666666666282
 11
166.26666666666654
 21
212.16666666666282
  0
ARC
  8
_1-4_フレ__ム
  6
CONTINUOUS
 62
    4
 10
168.83333333333314
 20
211.16666666666282
 40
0.1666666666666666
 50
180
 51
270
  0
ARC
  8
_1-4_フレ__ム
  6
CONTINUOUS
 62
    4
 10
169.7499999999998
 20
213.24999999999616
 40
0.25
 50
0
 51
180
  0
LINE
  8
_1-4_フレ__ム
  6
CONTINUOUS
 62
    4
 10
169.99999999999994
 20
210.66666666666282
 11
169.99999999999994
 21
213.24999999999616
  0
ARC
  8
_1-4_フレ__ム
  6
CONTINUOUS
 62
    4
 10
169.83333333333314
 20
210.66666666666282
 40
0.1666666666666666
 50
270
 51
0
  0
LINE
  8
_1-4_フレ__ム
  6
CONTINUOUS
 62
    4
 10
168.9999999999998
 20
210.49999999999616
 11
169.83333333333314
 21
210.49999999999616
  0
ARC
  8
_1-4_フレ__ム
  6
CONTINUOUS
 62
    4
 10
168.9999999999998
 20
210.16666666666282
 40
0.3333333333333333
 50
90
 51
180
  0
LINE
  8
_1-4_フレ__ム
  6
CONTINUOUS
 62
    4
 10
126.83333333333344
 20
209.59999999999621
 11
126.66666666666663
 21
208.93333333332956
  0
LINE
  8
_1-4_フレ__ム
  6
CONTINUOUS
 62
    4
 10
126.66666666666663
 20
209.59999999999621
 11
126.83333333333344
 21
209.59999999999621
  0
LINE
  8
_1-4_フレ__ム
  6
CONTINUOUS
 62
    4
 10
126.66666666666663
 20
210.59999999999621
 11
126.66666666666663
 21
209.59999999999621
  0
ARC
  8
_1-4_フレ__ム
  6
CONTINUOUS
 62
    4
 10
127.16666666666663
 20
210.59999999999621
 40
0.5
 50
0
 51
180
  0
LINE
  8
_1-4_フレ__ム
  6
CONTINUOUS
 62
    4
 10
127.66666666666676
 20
209.59999999999621
 11
127.66666666666676
 21
210.59999999999621
  0
LINE
  8
_1-4_フレ__ム
  6
CONTINUOUS
 62
    4
 10
127.49999999999996
 20
209.59999999999621
 11
127.66666666666676
 21
209.59999999999621
  0
LINE
  8
_1-4_フレ__ム
  6
CONTINUOUS
 62
    4
 10
127.66666666666676
 20
208.93333333332956
 11
127.49999999999996
 21
209.59999999999621
  0
LINE
  8
_1-4_フレ__ム
  6
CONTINUOUS
 62
    4
 10
146.76666666666682
 20
205.16666666666282
 11
146.66666666666663
 21
205.06666666666291
  0
LINE
  8
_1-4_フレ__ム
  6
CONTINUOUS
 62
    4
 10
151.66666666666663
 20
205.16666666666282
 11
146.76666666666682
 21
205.16666666666282
  0
ARC
  8
_1-4_フレ__ム
  6
CONTINUOUS
 62
    4
 10
167.16666666666663
 20
205.49999999999616
 40
0.6666666666666666
 50
270
 51
0
  0
LINE
  8
_1-4_フレ__ム
  6
CONTINUOUS
 62
    4
 10
126.99999999999996
 20
203.99999999999616
 11
168.66666666666663
 21
203.99999999999616
  0
ARC
  8
_1-4_フレ__ム
  6
CONTINUOUS
 62
    4
 10
126.99999999999996
 20
204.33333333332951
 40
0.3333333333333333
 50
180
 51
270
  0
ARC
  8
_1-4_フレ__ム
  6
CONTINUOUS
 62
    4
 10
128.66666666666663
 20
206.16666666666282
 40
1
 50
180
 51
270
  0
LINE
  8
_1-4_フレ__ム
  6
CONTINUOUS
 62
    4
 10
146.66666666666663
 20
205.06666666666291
 11
146.56666666666672
 21
205.16666666666282
  0
LINE
  8
_1-4_フレ__ム
  6
CONTINUOUS
 62
    4
 10
126.66666666666663
 20
208.93333333332956
 11
126.66666666666663
 21
204.33333333332951
  0
LINE
  8
_1-4_フレ__ム
  6
CONTINUOUS
 62
    4
 10
127.66666666666676
 20
206.16666666666282
 11
127.66666666666676
 21
208.93333333332956
  0
LINE
  8
_1-4_フレ__ム
  6
CONTINUOUS
 62
    4
 10
168.66666666666663
 20
203.99999999999616
 11
168.66666666666663
 21
210.16666666666282
  0
LINE
  8
_1-4_フレ__ム
  6
CONTINUOUS
 62
    4
 10
167.83333333333297
 20
210.99999999999616
 11
167.83333333333297
 21
205.49999999999616
  0
LINE
  8
_1-4_フレ__ム
  6
CONTINUOUS
 62
    4
 10
169.49999999999994
 20
213.24999999999616
 11
169.49999999999994
 21
210.99999999999616
  0
LINE
  8
_1-4_フレ__ム
  6
CONTINUOUS
 62
    4
 10
169.49999999999994
 20
210.99999999999616
 11
168.83333333333314
 21
210.99999999999616
  0
LINE
  8
_1-4_フレ__ム
  6
CONTINUOUS
 62
    4
 10
168.66666666666663
 20
211.16666666666282
 11
168.66666666666663
 21
212.66666666666282
  0
LINE
  8
_1-4_フレ__ム
  6
CONTINUOUS
 62
    4
 10
168.66666666666663
 20
212.66666666666282
 11
167.49999999999994
 21
212.66666666666282
  0
LINE
  8
_1-4_フレ__ム
  6
CONTINUOUS
 62
    4
 10
167.49999999999994
 20
212.66666666666282
 11
167.49999999999994
 21
212.16666666666282
  0
LINE
  8
_1-4_フレ__ム
  6
CONTINUOUS
 62
    4
 10
164.83333333333314
 20
212.16666666666282
 11
164.83333333333314
 21
212.66666666666282
  0
LINE
  8
_1-4_フレ__ム
  6
CONTINUOUS
 62
    4
 10
164.83333333333314
 20
212.66666666666282
 11
163.66666666666663
 21
212.66666666666282
  0
LINE
  8
_1-4_フレ__ム
  6
CONTINUOUS
 62
    4
 10
163.66666666666663
 20
212.66666666666282
 11
163.66666666666663
 21
211.99999999999616
  0
LINE
  8
_1-4_フレ__ム
  6
CENTER2
 62
    4
 10
166.16666666666663
 20
213.16666666666282
 11
166.16666666666663
 21
210.33333333332951
  0
LINE
  8
_1-4_フレ__ム
  6
CONTINUOUS
 62
    4
 10
138.43333333333334
 20
205.16666666666282
 11
138.33333333333314
 21
205.06666666666291
  0
LINE
  8
_1-4_フレ__ム
  6
CONTINUOUS
 62
    4
 10
138.33333333333314
 20
205.06666666666291
 11
138.23333333333323
 21
205.16666666666282
  0
LINE
  8
_1-4_フレ__ム
  6
CONTINUOUS
 62
    4
 10
151.66666666666663
 20
205.16666666666282
 11
152.49999999999994
 21
204.83333333332962
  0
LINE
  8
_1-4_フレ__ム
  6
CONTINUOUS
 62
    4
 10
138.23333333333323
 20
205.16666666666282
 11
128.66666666666663
 21
205.16666666666282
  0
LINE
  8
_1-4_フレ__ム
  6
CONTINUOUS
 62
    4
 10
158.33333333333343
 20
204.7333333333294
 11
158.23333333333352
 21
204.83333333332962
  0
LINE
  8
_1-4_フレ__ム
  6
CONTINUOUS
 62
    4
 10
158.43333333333334
 20
204.83333333332962
 11
158.33333333333343
 21
204.7333333333294
  0
LINE
  8
_1-4_フレ__ム
  6
CENTER2
 62
    4
 10
158.33333333333297
 20
202.33333333332962
 11
158.33333333333297
 21
206.49999999999628
  0
LINE
  8
_1-4_フレ__ム
  6
CONTINUOUS
 62
    4
 10
167.16666666666663
 20
204.83333333332951
 11
158.43333333333334
 21
204.83333333332951
  0
LINE
  8
_1-4_フレ__ム
  6
CONTINUOUS
 62
    4
 10
158.23333333333352
 20
204.83333333332951
 11
152.49999999999994
 21
204.83333333332951
  0
LINE
  8
_1-4_フレ__ム
  6
CONTINUOUS
 62
    4
 10
145.10000000000014
 20
205.16666666666282
 11
144.99999999999994
 21
205.06666666666291
  0
LINE
  8
_1-4_フレ__ム
  6
CONTINUOUS
 62
    4
 10
144.99999999999994
 20
205.06666666666291
 11
144.90000000000003
 21
205.16666666666282
  0
LINE
  8
_1-4_フレ__ム
  6
CONTINUOUS
 62
    4
 10
146.56666666666672
 20
205.16666666666282
 11
145.10000000000014
 21
205.16666666666282
  0
LINE
  8
_1-4_フレ__ム
  6
CONTINUOUS
 62
    4
 10
144.90000000000003
 20
205.16666666666282
 11
138.43333333333334
 21
205.16666666666282
  0
LINE
  8
_1-4_フレ__ム
  6
DASHED1
 62
    4
 10
144.16666666666663
 20
203.99999999999616
 11
144.16666666666663
 21
205.16666666666282
  0
LINE
  8
_1-4_フレ__ム
  6
DASHED1
 62
    4
 10
149.16666666666663
 20
203.99999999999616
 11
149.16666666666663
 21
205.16666666666282
  0
LINE
  8
_1-4_フレ__ム
  6
CENTER2
 62
    4
 10
146.66666666666663
 20
202.33333333332951
 11
146.66666666666663
 21
206.83333333332951
  0
LINE
  8
_1-4_フレ__ム
  6
DASHED1
 62
    4
 10
64.166666666667027
 20
203.99999999999616
 11
64.166666666667027
 21
204.83333333332951
  0
LINE
  8
_1-4_フレ__ム
  6
DASHED1
 62
    4
 10
59.166666666667027
 20
203.99999999999616
 11
59.166666666667027
 21
204.83333333332951
  0
ARC
  8
_1-4_フレ__ム
  6
CONTINUOUS
 62
    4
 10
52.500000000000057
 20
210.99999999999616
 40
0.3333333333333333
 50
90
 51
180
  0
LINE
  8
_1-4_フレ__ム
  6
CONTINUOUS
 62
    4
 10
55.666666666666856
 20
211.33333333332951
 11
52.500000000000057
 21
211.33333333332951
  0
ARC
  8
_1-4_フレ__ム
  6
CONTINUOUS
 62
    4
 10
55.666666666666856
 20
211.99999999999616
 40
0.6666666666666666
 50
270
 51
0
  0
LINE
  8
_1-4_フレ__ム
  6
CONTINUOUS
 62
    4
 10
53.933333333333621
 20
212.16666666666282
 11
55.166666666666856
 21
212.16666666666282
  0
LINE
  8
_1-4_フレ__ム
  6
CONTINUOUS
 62
    4
 10
53.833333333333371
 20
212.06666666666291
 11
53.933333333333621
 21
212.16666666666282
  0
LINE
  8
_1-4_フレ__ム
  6
CONTINUOUS
 62
    4
 10
53.733333333333462
 20
212.16666666666282
 11
53.833333333333371
 21
212.06666666666291
  0
LINE
  8
_1-4_フレ__ム
  6
CONTINUOUS
 62
    4
 10
52.500000000000057
 20
212.16666666666282
 11
53.733333333333462
 21
212.16666666666282
  0
ARC
  8
_1-4_フレ__ム
  6
CONTINUOUS
 62
    4
 10
51.166666666666856
 20
211.16666666666282
 40
0.1666666666666666
 50
270
 51
0
  0
ARC
  8
_1-4_フレ__ム
  6
CONTINUOUS
 62
    4
 10
50.250000000000171
 20
213.24999999999616
 40
0.25
 50
0
 51
180
  0
LINE
  8
_1-4_フレ__ム
  6
CONTINUOUS
 62
    4
 10
50.000000000000057
 20
210.66666666666282
 11
50.000000000000057
 21
213.24999999999616
  0
ARC
  8
_1-4_フレ__ム
  6
CONTINUOUS
 62
    4
 10
50.166666666666856
 20
210.66666666666282
 40
0.1666666666666666
 50
180
 51
270
  0
LINE
  8
_1-4_フレ__ム
  6
CONTINUOUS
 62
    4
 10
51.000000000000171
 20
210.49999999999616
 11
50.166666666666856
 21
210.49999999999616
  0
ARC
  8
_1-4_フレ__ム
  6
CONTINUOUS
 62
    4
 10
51.000000000000171
 20
210.16666666666282
 40
0.3333333333333333
 50
0
 51
90
  0
LINE
  8
_1-4_フレ__ム
  6
CONTINUOUS
 62
    4
 10
93.166666666666544
 20
209.59999999999621
 11
93.333333333333371
 21
208.93333333332956
  0
LINE
  8
_1-4_フレ__ム
  6
CONTINUOUS
 62
    4
 10
93.333333333333371
 20
209.59999999999621
 11
93.166666666666544
 21
209.59999999999621
  0
LINE
  8
_1-4_フレ__ム
  6
CONTINUOUS
 62
    4
 10
93.333333333333371
 20
210.59999999999621
 11
93.333333333333371
 21
209.59999999999621
  0
ARC
  8
_1-4_フレ__ム
  6
CONTINUOUS
 62
    4
 10
92.833333333333371
 20
210.59999999999621
 40
0.5
 50
0
 51
180
  0
LINE
  8
_1-4_フレ__ム
  6
CONTINUOUS
 62
    4
 10
92.333333333333229
 20
209.59999999999621
 11
92.333333333333229
 21
210.59999999999621
  0
LINE
  8
_1-4_フレ__ム
  6
CONTINUOUS
 62
    4
 10
92.500000000000028
 20
209.59999999999621
 11
92.333333333333229
 21
209.59999999999621
  0
LINE
  8
_1-4_フレ__ム
  6
CONTINUOUS
 62
    4
 10
92.333333333333229
 20
208.93333333332956
 11
92.500000000000028
 21
209.59999999999621
  0
LINE
  8
_1-4_フレ__ム
  6
CONTINUOUS
 62
    4
 10
73.233333333333178
 20
205.16666666666282
 11
73.333333333333371
 21
205.06666666666291
  0
LINE
  8
_1-4_フレ__ム
  6
CONTINUOUS
 62
    4
 10
68.333333333333371
 20
205.16666666666282
 11
73.233333333333178
 21
205.16666666666282
  0
ARC
  8
_1-4_フレ__ム
  6
CONTINUOUS
 62
    4
 10
52.833333333333371
 20
205.49999999999616
 40
0.6666666666666666
 50
180
 51
270
  0
LINE
  8
_1-4_フレ__ム
  6
CONTINUOUS
 62
    4
 10
93.000000000000028
 20
203.99999999999616
 11
51.333333333333371
 21
203.99999999999616
  0
ARC
  8
_1-4_フレ__ム
  6
CONTINUOUS
 62
    4
 10
93.000000000000028
 20
204.33333333332951
 40
0.3333333333333333
 50
270
 51
0
  0
ARC
  8
_1-4_フレ__ム
  6
CONTINUOUS
 62
    4
 10
91.333333333333371
 20
206.16666666666282
 40
1
 50
270
 51
0
  0
LINE
  8
_1-4_フレ__ム
  6
CONTINUOUS
 62
    4
 10
73.333333333333371
 20
205.06666666666291
 11
73.43333333333328
 21
205.16666666666282
  0
LINE
  8
_1-4_フレ__ム
  6
CONTINUOUS
 62
    4
 10
93.333333333333371
 20
208.93333333332956
 11
93.333333333333371
 21
204.33333333332951
  0
LINE
  8
_1-4_フレ__ム
  6
CONTINUOUS
 62
    4
 10
92.333333333333229
 20
206.16666666666282
 11
92.333333333333229
 21
208.93333333332956
  0
LINE
  8
_1-4_フレ__ム
  6
CONTINUOUS
 62
    4
 10
51.333333333333371
 20
203.99999999999616
 11
51.333333333333371
 21
210.16666666666282
  0
LINE
  8
_1-4_フレ__ム
  6
CONTINUOUS
 62
    4
 10
52.166666666667027
 20
210.99999999999616
 11
52.166666666667027
 21
205.49999999999616
  0
LINE
  8
_1-4_フレ__ム
  6
CONTINUOUS
 62
    4
 10
50.500000000000057
 20
213.24999999999616
 11
50.500000000000057
 21
210.99999999999616
  0
LINE
  8
_1-4_フレ__ム
  6
CONTINUOUS
 62
    4
 10
50.500000000000057
 20
210.99999999999616
 11
51.166666666666856
 21
210.99999999999616
  0
LINE
  8
_1-4_フレ__ム
  6
CONTINUOUS
 62
    4
 10
51.333333333333371
 20
211.16666666666282
 11
51.333333333333371
 21
212.66666666666282
  0
LINE
  8
_1-4_フレ__ム
  6
CONTINUOUS
 62
    4
 10
51.333333333333371
 20
212.66666666666282
 11
52.500000000000057
 21
212.66666666666282
  0
LINE
  8
_1-4_フレ__ム
  6
CONTINUOUS
 62
    4
 10
52.500000000000057
 20
212.66666666666282
 11
52.500000000000057
 21
212.16666666666282
  0
LINE
  8
_1-4_フレ__ム
  6
CONTINUOUS
 62
    4
 10
55.166666666666856
 20
212.16666666666282
 11
55.166666666666856
 21
212.66666666666282
  0
LINE
  8
_1-4_フレ__ム
  6
CONTINUOUS
 62
    4
 10
55.166666666666856
 20
212.66666666666282
 11
56.333333333333371
 21
212.66666666666282
  0
LINE
  8
_1-4_フレ__ム
  6
CONTINUOUS
 62
    4
 10
56.333333333333371
 20
212.66666666666282
 11
56.333333333333371
 21
211.99999999999616
  0
LINE
  8
_1-4_フレ__ム
  6
CENTER2
 62
    4
 10
53.833333333333371
 20
213.16666666666282
 11
53.833333333333371
 21
210.33333333332951
  0
LINE
  8
_1-4_フレ__ム
  6
CONTINUOUS
 62
    4
 10
81.566666666666663
 20
205.16666666666282
 11
81.666666666666856
 21
205.06666666666291
  0
LINE
  8
_1-4_フレ__ム
  6
CONTINUOUS
 62
    4
 10
81.666666666666856
 20
205.06666666666291
 11
81.766666666666765
 21
205.16666666666282
  0
LINE
  8
_1-4_フレ__ム
  6
CONTINUOUS
 62
    4
 10
68.333333333333371
 20
205.16666666666282
 11
67.500000000000057
 21
204.83333333332962
  0
LINE
  8
_1-4_フレ__ム
  6
CONTINUOUS
 62
    4
 10
81.766666666666765
 20
205.16666666666282
 11
91.333333333333371
 21
205.16666666666282
  0
LINE
  8
_1-4_フレ__ム
  6
CONTINUOUS
 62
    4
 10
61.666666666666572
 20
204.7333333333294
 11
61.766666666666481
 21
204.83333333332962
  0
LINE
  8
_1-4_フレ__ム
  6
CONTINUOUS
 62
    4
 10
61.566666666666663
 20
204.83333333332962
 11
61.666666666666572
 21
204.7333333333294
  0
LINE
  8
_1-4_フレ__ム
  6
CENTER2
 62
    4
 10
61.666666666667027
 20
202.33333333332962
 11
61.666666666667027
 21
206.49999999999628
  0
LINE
  8
_1-4_フレ__ム
  6
CONTINUOUS
 62
    4
 10
52.833333333333371
 20
204.83333333332951
 11
61.566666666666663
 21
204.83333333332951
  0
LINE
  8
_1-4_フレ__ム
  6
CONTINUOUS
 62
    4
 10
61.766666666666481
 20
204.83333333332951
 11
67.500000000000057
 21
204.83333333332951
  0
LINE
  8
_1-4_フレ__ム
  6
CONTINUOUS
 62
    4
 10
74.899999999999864
 20
205.16666666666282
 11
75.000000000000057
 21
205.06666666666291
  0
LINE
  8
_1-4_フレ__ム
  6
CONTINUOUS
 62
    4
 10
75.000000000000057
 20
205.06666666666291
 11
75.099999999999966
 21
205.16666666666282
  0
LINE
  8
_1-4_フレ__ム
  6
CONTINUOUS
 62
    4
 10
73.43333333333328
 20
205.16666666666282
 11
74.899999999999864
 21
205.16666666666282
  0
LINE
  8
_1-4_フレ__ム
  6
CONTINUOUS
 62
    4
 10
75.099999999999966
 20
205.16666666666282
 11
81.566666666666663
 21
205.16666666666282
  0
LINE
  8
_1-4_フレ__ム
  6
DASHED1
 62
    4
 10
75.833333333333371
 20
203.99999999999616
 11
75.833333333333371
 21
205.16666666666282
  0
LINE
  8
_1-4_フレ__ム
  6
DASHED1
 62
    4
 10
70.833333333333371
 20
203.99999999999616
 11
70.833333333333371
 21
205.16666666666282
  0
LINE
  8
_1-4_フレ__ム
  6
CENTER2
 62
    4
 10
73.333333333333371
 20
202.33333333332951
 11
73.333333333333371
 21
206.83333333332951
  0
LINE
  8
_1-f_寸法
  6
CONTINUOUS
 62
    4
 10
359.99999999999983
 20
238.66666666666666
 11
359.99999999999983
 21
245.26666666666659
  0
LINE
  8
_1-f_寸法
  6
CONTINUOUS
 62
    4
 10
259.99999999999989
 20
238.66666666666666
 11
259.99999999999989
 21
245.26666666666659
  0
POINT
  8
_1-f_寸法
 62
    4
 10
259.99999999999989
 20
243.66666666666663
  0
POINT
  8
_1-f_寸法
 62
    4
 10
359.99999999999983
 20
243.66666666666663
  0
LINE
  8
_1-f_寸法
  6
CONTINUOUS
 62
    4
 10
259.99999999999989
 20
243.66666666666663
 11
359.99999999999983
 21
243.66666666666663
  0
TEXT
  8
_1-f_寸法
 62
    4
 10
307.5999999999998
 20
243.66666666666663
 40
3.2000000000000002
 41
1
 50
0
  1
300
  0
CIRCLE
  8
_1-f_寸法
  6
CONTINUOUS
 62
    4
 10
264.99999999999989
 20
233.66666666666666
 40
1.6666666666666665
  0
CIRCLE
  8
_1-f_寸法
  6
CONTINUOUS
 62
    4
 10
264.99999999999989
 20
233.66666666666666
 40
1.6666666666666665
  0
TEXT
  8
_1-f_寸法
 62
    4
 10
264.37499999999989
 20
232.41666666666666
 40
2.5
 41
1
 50
0
  1
7
  0
CIRCLE
  8
_1-f_寸法
  6
CONTINUOUS
 62
    4
 10
276.66666666666657
 20
222
 40
1.6666666666666665
  0
CIRCLE
  8
_1-f_寸法
  6
CONTINUOUS
 62
    4
 10
276.66666666666657
 20
222
 40
1.6666666666666665
  0
TEXT
  8
_1-f_寸法
 62
    4
 10
276.04166666666657
 20
220.75
 40
2.5
 41
1
 50
0
  1
7
  0
LINE
  8
_1-f_寸法
  6
CONTINUOUS
 62
    4
 10
262.49999999277094
 20
230.0833333900477
 11
264.0463639946197
 21
232.29978841787477
  0
LINE
  8
_1-f_寸法
  6
CONTINUOUS
 62
    4
 10
268.08333332610403
 20
214.17689987672571
 11
275.4348678178456
 21
220.87730263480262
  0
INSERT
  2
-031-_26_
  8
_1-f_寸法
 10
210
 20
148.5
 41
1
 42
1
 50
0
  0
INSERT
  2
-032-_27_
  8
_1-f_寸法
 10
210
 20
148.5
 41
1
 42
1
 50
0
  0
LINE
  8
_1-f_寸法
  6
CONTINUOUS
 62
    4
 10
359.00000466666643
 20
213.66666666666654
 11
359.33333799999974
 21
213.3333333333332
  0
LINE
  8
_1-f_寸法
  6
CONTINUOUS
 62
    4
 10
359.33333799999974
 20
213.3333333333332
 11
359.33333799999974
 21
212.66666666666654
  0
LINE
  8
_1-f_寸法
  6
CONTINUOUS
 62
    4
 10
301.66667133333306
 20
213.3333333333332
 11
302.00000466666637
 21
213.66666666666654
  0
LINE
  8
_1-f_寸法
  6
CONTINUOUS
 62
    4
 10
301.66667133333306
 20
212.66666666666654
 11
301.66667133333306
 21
213.3333333333332
  0
LINE
  8
_1-f_寸法
  6
CENTER2
 62
    4
 10
356.1666666666664
 20
210.95277683333319
 11
356.1666666666664
 21
214.77021883333322
  0
LINE
  8
_1-f_寸法
  6
DASHED1
 62
    4
 10
357.08333333333309
 20
212.66666666666654
 11
357.08333333333309
 21
212.83332866666655
  0
LINE
  8
_1-f_寸法
  6
DASHED1
 62
    4
 10
355.24999999999977
 20
212.66666666666654
 11
355.24999999999977
 21
212.83333799999986
  0
LINE
  8
_1-f_寸法
  6
DASHED1
 62
    4
 10
357.08333333333309
 20
212.83332866666655
 11
355.24999999999977
 21
212.83332866666655
  0
LINE
  8
_1-f_寸法
  6
DASHED1
 62
    4
 10
355.24999999999977
 20
212.83333799999986
 11
354.41667133333306
 21
213.66666666666654
  0
LINE
  8
_1-f_寸法
  6
DASHED1
 62
    4
 10
357.91667133333306
 20
213.66666666666654
 11
357.08333333333309
 21
212.83332866666655
  0
INSERT
  2
-033-_28_
  8
_1-9_センタ__プレ__ト
 10
210
 20
148.5
 41
1
 42
1
 50
0
  0
LINE
  8
_1-f_寸法
  6
CONTINUOUS
 62
    4
 10
302.00000466666637
 20
213.66666666666654
 11
359.00000466666643
 21
213.66666666666654
  0
LINE
  8
_1-f_寸法
  6
CONTINUOUS
 62
    4
 10
359.33333799999974
 20
212.66666666666654
 11
301.66667133333306
 21
212.66666666666654
  0
INSERT
  2
-034-_29_
  8
_1-9_センタ__プレ__ト
 10
210
 20
148.5
 41
1
 42
1
 50
0
  0
INSERT
  2
-035-_30_
  8
_1-7_カバ__
 10
210
 20
148.5
 41
1
 42
1
 50
0
  0
INSERT
  2
-036-_31_
  8
_1-8_小物
 10
210
 20
148.5
 41
1
 42
1
 50
0
  0
INSERT
  2
-037-_32_
  8
_1-8_小物
 10
210
 20
148.5
 41
1
 42
1
 50
0
  0
LINE
  8
_0-0_図面枠
  6
CONTINUOUS
 62
    2
 10
165.00000000000003
 20
247
 11
210.00000000000003
 21
247
  0
LINE
  8
_0-0_図面枠
  6
CONTINUOUS
 62
    2
 10
165.00000000000003
 20
247
 11
165.00000000000003
 21
287
  0
LINE
  8
_0-0_図面枠
  6
CONTINUOUS
 62
    2
 10
187.38952399655849
 20
259.77749333152167
 11
204.71003207224726
 21
269.77749333152167
  0
LINE
  8
_0-0_図面枠
  6
CONTINUOUS
 62
    2
 10
187.38952399655849
 20
259.77749333152167
 11
187.38952399655849
 21
256.77749333152167
  0
LINE
  8
_0-0_図面枠
  6
CONTINUOUS
 62
    2
 10
193.88471452494178
 20
260.52749333152167
 11
193.88471452494178
 21
263.52749333152167
  0
LINE
  8
_0-0_図面枠
  6
CONTINUOUS
 62
    2
 10
187.38952399655849
 20
256.77749333152167
 11
193.88471452494178
 21
260.52749333152167
  0
LINE
  8
_0-0_図面枠
  6
CONTINUOUS
 62
    2
 10
204.71003207224726
 20
266.77749333152167
 11
198.21484154386397
 21
263.02749333152167
  0
LINE
  8
_0-0_図面枠
  6
CONTINUOUS
 62
    2
 10
198.21484154386397
 20
263.02749333152167
 11
198.21484154386397
 21
266.02749333152167
  0
LINE
  8
_0-0_図面枠
  6
CONTINUOUS
 62
    2
 10
198.21484154386397
 20
263.02749333152167
 11
195.61676533251065
 21
264.52749333152167
  0
LINE
  8
_0-0_図面枠
  6
CONTINUOUS
 62
    2
 10
187.38952399655849
 20
256.77749333152167
 11
178.72926995871413
 21
261.77749333152167
  0
LINE
  8
_0-0_図面枠
  6
CONTINUOUS
 62
    2
 10
193.88471452494178
 20
263.52749333152167
 11
185.22446048709742
 21
268.52749333152167
  0
LINE
  8
_0-0_図面枠
  6
CONTINUOUS
 62
    2
 10
204.71003207224726
 20
269.77749333152167
 11
196.04977803440292
 21
274.77749333152167
  0
LINE
  8
_0-0_図面枠
  6
CONTINUOUS
 62
    2
 10
187.38952399655849
 20
259.77749333152167
 11
178.72926995871413
 21
264.77749333152167
  0
LINE
  8
_0-0_図面枠
  6
CONTINUOUS
 62
    2
 10
193.88471452494178
 20
260.52749333152167
 11
191.28663831358847
 21
262.02749333152167
  0
LINE
  8
_0-0_図面枠
  6
CONTINUOUS
 62
    2
 10
204.71003207224726
 20
266.77749333152167
 11
202.11195586089394
 21
268.27749333152167
  0
INSERT
  2
-038-_33_
  8
_0-0_図面枠
 10
210
 20
148.5
 41
1
 42
1
 50
0
  0
LINE
  8
_0-0_図面枠
  6
CONTINUOUS
 62
    2
 10
198.21484154386397
 20
266.02749333152167
 11
195.94825785628657
 21
267.33610603368533
  0
LINE
  8
_0-0_図面枠
  6
CONTINUOUS
 62
    2
 10
192.46489856474321
 20
269.34722445834205
 11
189.5545875060196
 21
271.02749333152167
  0
LINE
  8
_0-0_図面枠
  6
CONTINUOUS
 62
    3
 10
193.88471452494178
 20
260.52749333152167
 11
185.22446048709736
 21
255.52749333152167
  0
LINE
  8
_0-0_図面枠
  6
CONTINUOUS
 62
    3
 10
193.88471452494178
 20
260.52749333152167
 11
193.88471452494178
 21
250.52749333152167
  0
LINE
  8
_0-0_図面枠
  6
CONTINUOUS
 62
    3
 10
198.21484154386397
 20
263.02749333152167
 11
198.21484154386397
 21
253.02749333152167
  0
LINE
  8
_0-0_図面枠
  6
CONTINUOUS
 62
    3
 10
198.21484154386397
 20
263.02749333152167
 11
206.87509558170834
 21
268.02749333152167
  0
TEXT
  8
_0-0_図面枠
 62
    4
 10
168.58672417034518
 20
279.54737717230728
 40
2.5
 41
1
 50
0
  1
-75
  0
TEXT
  8
_0-0_図面枠
 62
    4
 10
191.10257786061629
 20
279.54737717230722
 40
2.5
 41
1
 50
0
  1
+75
  0
TEXT
  8
_0-0_図面枠
 62
    4
 10
191.10257786061624
 20
266.54784298319498
 40
2.5
 41
1
 50
0
  1
+75
  0
TEXT
  8
_0-0_図面枠
 62
    4
 10
168.58632076447583
 20
266.54854175273664
 40
2.5
 41
1
 50
0
  1
-75
  0
LINE
  8
_0-0_図面枠
  6
CONTINUOUS
 62
    2
 10
365.00000000000006
 20
246.99999999999994
 11
410.00000000000006
 21
246.99999999999994
  0
LINE
  8
_0-0_図面枠
  6
CONTINUOUS
 62
    2
 10
365.00000000000006
 20
247
 11
365.00000000000006
 21
287
  0
LINE
  8
_0-0_図面枠
  6
CONTINUOUS
 62
    2
 10
402.70635184916443
 20
271.07315933141962
 11
400.54128833970333
 21
269.82315933141962
  0
LINE
  8
_0-0_図面枠
  6
CONTINUOUS
 62
    2
 10
400.54128833970333
 20
269.82315933141962
 11
400.54128833970333
 21
264.82315933141962
  0
LINE
  8
_0-0_図面枠
  6
CONTINUOUS
 62
    2
 10
400.54128833970333
 20
264.82315933141962
 11
391.88103430185896
 21
259.82315933141962
  0
LINE
  8
_0-0_図面枠
  6
CONTINUOUS
 62
    2
 10
391.88103430185896
 20
259.82315933141962
 11
391.88103430185896
 21
256.82315933141962
  0
LINE
  8
_0-0_図面枠
  6
CONTINUOUS
 62
    2
 10
391.88103430185896
 20
259.82315933141962
 11
383.22078026401459
 21
264.82315933141962
  0
LINE
  8
_0-0_図面枠
  6
CONTINUOUS
 62
    2
 10
391.88103430185896
 20
256.82315933141962
 11
383.22078026401459
 21
261.82315933141962
  0
LINE
  8
_0-0_図面枠
  6
CONTINUOUS
 62
    2
 10
398.37622483024228
 20
263.57315933141962
 11
389.71597079239791
 21
268.57315933141962
  0
LINE
  8
_0-0_図面枠
  6
CONTINUOUS
 62
    2
 10
400.54128833970333
 20
269.82315933141962
 11
391.88103430185902
 21
274.82315933141962
  0
LINE
  8
_0-0_図面枠
  6
CONTINUOUS
 62
    2
 10
398.37622483024228
 20
263.57315933141962
 11
398.37622483024228
 21
260.57315933141962
  0
LINE
  8
_0-0_図面枠
  6
CONTINUOUS
 62
    2
 10
402.70635184916443
 20
271.07315933141962
 11
402.70635184916443
 21
263.87315933141963
  0
LINE
  8
_0-0_図面枠
  6
CONTINUOUS
 62
    2
 10
400.54128833970333
 20
264.82315933141962
 11
400.54128833970333
 21
262.62315933141963
  0
LINE
  8
_0-0_図面枠
  6
CONTINUOUS
 62
    2
 10
400.54128833970333
 20
262.62315933141963
 11
402.70635184916443
 21
263.87315933141963
  0
LINE
  8
_0-0_図面枠
  6
CONTINUOUS
 62
    2
 10
400.54128833970333
 20
262.62315933141963
 11
398.63603245137762
 21
263.72315933141965
  0
LINE
  8
_0-0_図面枠
  6
CONTINUOUS
 62
    2
 10
391.88103430185896
 20
256.82315933141962
 11
398.37622483024228
 21
260.57315933141962
  0
LINE
  8
_0-0_図面枠
  6
CONTINUOUS
 62
    2
 10
398.37622483024228
 20
260.57315933141967
 11
395.77814861888896
 21
262.07315933141967
  0
LINE
  8
_0-0_図面枠
  6
CONTINUOUS
 62
    2
 10
402.70635184916443
 20
263.87315933141963
 11
400.54128833970333
 21
265.12315933141957
  0
INSERT
  2
-039-_34_
  8
_0-0_図面枠
 10
210
 20
148.5
 41
1
 42
1
 50
0
  0
LINE
  8
_0-0_図面枠
  6
CONTINUOUS
 62
    2
 10
402.70635184916438
 20
271.07315933141956
 11
394.69409914134548
 21
275.69903558909419
  0
LINE
  8
_0-0_図面枠
  6
CONTINUOUS
 62
    2
 10
400.54128833970333
 20
264.82315933141962
 11
397.61985870680041
 21
266.50984751639464
  0
LINE
  8
_0-0_図面枠
  6
CONTINUOUS
 62
    2
 10
393.97781274487403
 20
268.61258373291389
 11
392.39662779955813
 21
269.52548128673061
  0
LINE
  8
_0-0_図面枠
  6
CONTINUOUS
 62
    3
 10
398.37622483024228
 20
260.57315933141967
 11
389.71597079239785
 21
255.57315933141962
  0
LINE
  8
_0-0_図面枠
  6
CONTINUOUS
 62
    3
 10
398.37622483024228
 20
260.57315933141962
 11
398.37622483024228
 21
250.57315933141962
  0
LINE
  8
_0-0_図面枠
  6
CONTINUOUS
 62
    3
 10
402.70635184916443
 20
278.53211437480888
 11
402.70635184916443
 21
253.07315933141956
  0
TEXT
  8
_0-0_図面枠
 62
    4
 10
372.41858557913304
 20
279.59304317220523
 40
2.5
 41
1
 50
0
  1
-75
  0
TEXT
  8
_0-0_図面枠
 62
    4
 10
394.93443926940415
 20
279.59304317220517
 40
2.5
 41
1
 50
0
  1
+75
  0
TEXT
  8
_0-0_図面枠
 62
    4
 10
394.93443926940409
 20
266.59350898309293
 40
2.5
 41
1
 50
0
  1
+75
  0
TEXT
  8
_0-0_図面枠
 62
    4
 10
372.41818217326369
 20
266.59420775263459
 40
2.5
 41
1
 50
0
  1
-75
  0
ENDSEC
  0
EOF
